  0
SECTION
  2
HEADER
  9
$ACADVER
  1
AC1015
  9
$ACADMAINTVER
 70
    20
  9
$DWGCODEPAGE
  3
ANSI_932
  9
$INSBASE
 10
0.0
 20
0.0
 30
0.0
  9
$EXTMIN
 10
10.0
 20
9.999999999999998
 30
0.0
  9
$EXTMAX
 10
610.4742049999997
 20
210.7435759999999
 30
0.0
  9
$LIMMIN
 10
0.0
 20
0.0
  9
$LIMMAX
 10
660.0
 20
455.0
  9
$ORTHOMODE
 70
     1
  9
$REGENMODE
 70
     1
  9
$FILLMODE
 70
     1
  9
$QTEXTMODE
 70
     0
  9
$MIRRTEXT
 70
     1
  9
$LTSCALE
 40
20.0
  9
$ATTMODE
 70
     1
  9
$TEXTSIZE
 40
5.0
  9
$TRACEWID
 40
1.0
  9
$TEXTSTYLE
  7
STANDARD
  9
$CLAYER
  8
0
  9
$CELTYPE
  6
BYLAYER
  9
$CECOLOR
 62
   256
  9
$CELTSCALE
 40
1.0
  9
$DISPSILH
 70
     0
  9
$DIMSCALE
 40
1.0
  9
$DIMASZ
 40
3.0
  9
$DIMEXO
 40
1.0
  9
$DIMDLI
 40
10.0
  9
$DIMRND
 40
0.0
  9
$DIMDLE
 40
0.0
  9
$DIMEXE
 40
1.0
  9
$DIMTP
 40
0.0
  9
$DIMTM
 40
0.0
  9
$DIMTXT
 40
3.2
  9
$DIMCEN
 40
0.0
  9
$DIMTSZ
 40
0.0
  9
$DIMTOL
 70
     0
  9
$DIMLIM
 70
     0
  9
$DIMTIH
 70
     0
  9
$DIMTOH
 70
     0
  9
$DIMSE1
 70
     0
  9
$DIMSE2
 70
     0
  9
$DIMTAD
 70
     3
  9
$DIMZIN
 70
     8
  9
$DIMBLK
  1

  9
$DIMASO
 70
     1
  9
$DIMSHO
 70
     1
  9
$DIMPOST
  1

  9
$DIMAPOST
  1

  9
$DIMALT
 70
     0
  9
$DIMALTD
 70
     2
  9
$DIMALTF
 40
25.4
  9
$DIMLFAC
 40
1.0
  9
$DIMTOFL
 70
     1
  9
$DIMTVP
 40
0.0
  9
$DIMTIX
 70
     0
  9
$DIMSOXD
 70
     0
  9
$DIMSAH
 70
     1
  9
$DIMBLK1
  1

  9
$DIMBLK2
  1

  9
$DIMSTYLE
  2
STANDARD
  9
$DIMCLRD
 70
     0
  9
$DIMCLRE
 70
     0
  9
$DIMCLRT
 70
     0
  9
$DIMTFAC
 40
1.0
  9
$DIMGAP
 40
1.0
  9
$DIMJUST
 70
     0
  9
$DIMSD1
 70
     0
  9
$DIMSD2
 70
     0
  9
$DIMTOLJ
 70
     1
  9
$DIMTZIN
 70
     0
  9
$DIMALTZ
 70
     0
  9
$DIMALTTZ
 70
     0
  9
$DIMUPT
 70
     0
  9
$DIMDEC
 70
     4
  9
$DIMTDEC
 70
     4
  9
$DIMALTU
 70
     2
  9
$DIMALTTD
 70
     2
  9
$DIMTXSTY
  7
STANDARD
  9
$DIMAUNIT
 70
     0
  9
$DIMADEC
 70
     0
  9
$DIMALTRND
 40
0.0
  9
$DIMAZIN
 70
     0
  9
$DIMDSEP
 70
    46
  9
$DIMATFIT
 70
     3
  9
$DIMFRAC
 70
     0
  9
$DIMLDRBLK
  1

  9
$DIMLUNIT
 70
     2
  9
$DIMLWD
 70
    -2
  9
$DIMLWE
 70
    -2
  9
$DIMTMOVE
 70
     0
  9
$LUNITS
 70
     2
  9
$LUPREC
 70
     4
  9
$SKETCHINC
 40
1.0
  9
$FILLETRAD
 40
1.199999999999999
  9
$AUNITS
 70
     0
  9
$AUPREC
 70
     2
  9
$MENU
  1
.
  9
$ELEVATION
 40
0.0
  9
$PELEVATION
 40
0.0
  9
$THICKNESS
 40
0.0
  9
$LIMCHECK
 70
     0
  9
$CHAMFERA
 40
10.0
  9
$CHAMFERB
 40
10.0
  9
$CHAMFERC
 40
0.0
  9
$CHAMFERD
 40
0.0
  9
$SKPOLY
 70
     0
  9
$TDCREATE
 40
2450955.646208565
  9
$TDUCREATE
 40
2450955.271208565
  9
$TDUPDATE
 40
2457192.601432558
  9
$TDUUPDATE
 40
2457192.226432558
  9
$TDINDWG
 40
0.0000134722
  9
$TDUSRTIMER
 40
0.0000129861
  9
$USRTIMER
 70
     1
  9
$ANGBASE
 50
0.0
  9
$ANGDIR
 70
     0
  9
$PDMODE
 70
     0
  9
$PDSIZE
 40
0.0
  9
$PLINEWID
 40
0.0
  9
$SPLFRAME
 70
     0
  9
$SPLINETYPE
 70
     6
  9
$SPLINESEGS
 70
     8
  9
$HANDSEED
  5
513
  9
$SURFTAB1
 70
     6
  9
$SURFTAB2
 70
     6
  9
$SURFTYPE
 70
     6
  9
$SURFU
 70
     6
  9
$SURFV
 70
     6
  9
$UCSBASE
  2

  9
$UCSNAME
  2

  9
$UCSORG
 10
0.0
 20
0.0
 30
0.0
  9
$UCSXDIR
 10
1.0
 20
0.0
 30
0.0
  9
$UCSYDIR
 10
0.0
 20
1.0
 30
0.0
  9
$UCSORTHOREF
  2

  9
$UCSORTHOVIEW
 70
     0
  9
$UCSORGTOP
 10
0.0
 20
0.0
 30
0.0
  9
$UCSORGBOTTOM
 10
0.0
 20
0.0
 30
0.0
  9
$UCSORGLEFT
 10
0.0
 20
0.0
 30
0.0
  9
$UCSORGRIGHT
 10
0.0
 20
0.0
 30
0.0
  9
$UCSORGFRONT
 10
0.0
 20
0.0
 30
0.0
  9
$UCSORGBACK
 10
0.0
 20
0.0
 30
0.0
  9
$PUCSBASE
  2

  9
$PUCSNAME
  2

  9
$PUCSORG
 10
0.0
 20
0.0
 30
0.0
  9
$PUCSXDIR
 10
1.0
 20
0.0
 30
0.0
  9
$PUCSYDIR
 10
0.0
 20
1.0
 30
0.0
  9
$PUCSORTHOREF
  2

  9
$PUCSORTHOVIEW
 70
     0
  9
$PUCSORGTOP
 10
0.0
 20
0.0
 30
0.0
  9
$PUCSORGBOTTOM
 10
0.0
 20
0.0
 30
0.0
  9
$PUCSORGLEFT
 10
0.0
 20
0.0
 30
0.0
  9
$PUCSORGRIGHT
 10
0.0
 20
0.0
 30
0.0
  9
$PUCSORGFRONT
 10
0.0
 20
0.0
 30
0.0
  9
$PUCSORGBACK
 10
0.0
 20
0.0
 30
0.0
  9
$USERI1
 70
     0
  9
$USERI2
 70
     0
  9
$USERI3
 70
     0
  9
$USERI4
 70
     0
  9
$USERI5
 70
     0
  9
$USERR1
 40
0.0
  9
$USERR2
 40
0.0
  9
$USERR3
 40
0.0
  9
$USERR4
 40
0.0
  9
$USERR5
 40
0.0
  9
$WORLDVIEW
 70
     1
  9
$SHADEDGE
 70
     3
  9
$SHADEDIF
 70
    70
  9
$TILEMODE
 70
     1
  9
$MAXACTVP
 70
    16
  9
$PINSBASE
 10
0.0
 20
0.0
 30
0.0
  9
$PLIMCHECK
 70
     0
  9
$PEXTMIN
 10
1.000000000000000E+20
 20
1.000000000000000E+20
 30
1.000000000000000E+20
  9
$PEXTMAX
 10
-1.000000000000000E+20
 20
-1.000000000000000E+20
 30
-1.000000000000000E+20
  9
$PLIMMIN
 10
0.0
 20
0.0
  9
$PLIMMAX
 10
420.0
 20
297.0
  9
$UNITMODE
 70
     0
  9
$VISRETAIN
 70
     0
  9
$PLINEGEN
 70
     0
  9
$PSLTSCALE
 70
     0
  9
$TREEDEPTH
 70
  3020
  9
$CMLSTYLE
  2
STANDARD
  9
$CMLJUST
 70
     0
  9
$CMLSCALE
 40
1.0
  9
$PROXYGRAPHICS
 70
     1
  9
$MEASUREMENT
 70
     0
  9
$CELWEIGHT
370
    -1
  9
$ENDCAPS
280
     0
  9
$JOINSTYLE
280
     0
  9
$LWDISPLAY
290
     0
  9
$INSUNITS
 70
     0
  9
$HYPERLINKBASE
  1

  9
$STYLESHEET
  1

  9
$XEDIT
290
     1
  9
$CEPSNTYPE
380
     0
  9
$PSTYLEMODE
290
     1
  9
$FINGERPRINTGUID
  2
{AA262F27-E26F-4770-862A-11DF1464DD69}
  9
$VERSIONGUID
  2
{AD5638D6-A894-4C3D-8101-BCDDF8658805}
  9
$EXTNAMES
290
     1
  9
$PSVPSCALE
 40
0.0
  9
$OLESTARTUP
290
     0
  0
ENDSEC
  0
SECTION
  2
CLASSES
  0
CLASS
  1
ACDBDICTIONARYWDFLT
  2
AcDbDictionaryWithDefault
  3
ObjectDBX Classes
 90
        0
280
     0
281
     0
  0
CLASS
  1
ACDBPLACEHOLDER
  2
AcDbPlaceHolder
  3
ObjectDBX Classes
 90
        0
280
     0
281
     0
  0
CLASS
  1
LAYOUT
  2
AcDbLayout
  3
ObjectDBX Classes
 90
        0
280
     0
281
     0
  0
CLASS
  1
DICTIONARYVAR
  2
AcDbDictionaryVar
  3
ObjectDBX Classes
 90
        0
280
     0
281
     0
  0
CLASS
  1
MATERIAL
  2
AcDbMaterial
  3
ObjectDBX Classes
 90
     1153
280
     0
281
     0
  0
CLASS
  1
VISUALSTYLE
  2
AcDbVisualStyle
  3
ObjectDBX Classes
 90
     4095
280
     0
281
     0
  0
CLASS
  1
TABLESTYLE
  2
AcDbTableStyle
  3
ObjectDBX Classes
 90
     4095
280
     0
281
     0
  0
CLASS
  1
SCALE
  2
AcDbScale
  3
ObjectDBX Classes
 90
     1153
280
     0
281
     0
  0
CLASS
  1
MLEADERSTYLE
  2
AcDbMLeaderStyle
  3
ACDB_MLEADERSTYLE_CLASS
 90
     4095
280
     0
281
     0
  0
CLASS
  1
ACDBSECTIONVIEWSTYLE
  2
AcDbSectionViewStyle
  3
ObjectDBX Classes
 90
     1025
280
     0
281
     0
  0
CLASS
  1
ACDBDETAILVIEWSTYLE
  2
AcDbDetailViewStyle
  3
ObjectDBX Classes
 90
     1025
280
     0
281
     0
  0
CLASS
  1
CELLSTYLEMAP
  2
AcDbCellStyleMap
  3
ObjectDBX Classes
 90
     1152
280
     0
281
     0
  0
ENDSEC
  0
SECTION
  2
TABLES
  0
TABLE
  2
VPORT
  5
231
330
0
100
AcDbSymbolTable
 70
     1
  0
VPORT
  5
45C
330
231
100
AcDbSymbolTableRecord
100
AcDbViewportTableRecord
  2
*ACTIVE
 70
     0
 10
0.0
 20
0.0
 11
1.0
 21
1.0
 12
413.6386225727108
 22
110.3758248976383
 13
0.0
 23
0.0
 14
10.0
 24
10.0
 15
10.0
 25
10.0
 16
0.0
 26
0.0
 36
1.0
 17
0.0
 27
0.0
 37
0.0
 40
345.2139128683487
 41
1.899603698811096
 42
50.0
 43
0.0
 44
0.0
 50
0.0
 51
0.0
 71
     0
 72
   100
 73
     1
 74
     0
 75
     0
 76
     0
 77
     0
 78
     0
281
     0
 65
     1
110
0.0
120
0.0
130
0.0
111
1.0
121
0.0
131
0.0
112
0.0
122
1.0
132
0.0
 79
     0
146
0.0
1001
ACAD_NAV_VCDISPLAY
1070
     3
  0
ENDTAB
  0
TABLE
  2
LTYPE
  5
22E
330
0
100
AcDbSymbolTable
 70
     4
  0
LTYPE
  5
23C
330
22E
100
AcDbSymbolTableRecord
100
AcDbLinetypeTableRecord
  2
BYBLOCK
 70
     0
  3

 72
    65
 73
     0
 40
0.0
  0
LTYPE
  5
23D
330
22E
100
AcDbSymbolTableRecord
100
AcDbLinetypeTableRecord
  2
BYLAYER
 70
     0
  3

 72
    65
 73
     0
 40
0.0
  0
LTYPE
  5
23E
330
22E
100
AcDbSymbolTableRecord
100
AcDbLinetypeTableRecord
  2
CONTINUOUS
 70
     0
  3
Solid line
 72
    65
 73
     0
 40
0.0
  0
LTYPE
  5
24C
330
22E
100
AcDbSymbolTableRecord
100
AcDbLinetypeTableRecord
  2
DASHED
 70
     0
  3
__ __ __ __ __ __ __ __ __ __ __ __ __ __ __ __
 72
    65
 73
     2
 40
0.75
 49
0.5
 74
     0
 49
-0.25
 74
     0
  0
LTYPE
  5
24D
330
22E
100
AcDbSymbolTableRecord
100
AcDbLinetypeTableRecord
  2
CENTER
 70
     0
  3
____ _ ____ _ ____ _ ____ _ ____ _ ____ _ ____ 
 72
    65
 73
     4
 40
2.0
 49
1.25
 74
     0
 49
-0.25
 74
     0
 49
0.25
 74
     0
 49
-0.25
 74
     0
  0
LTYPE
  5
24E
330
22E
100
AcDbSymbolTableRecord
100
AcDbLinetypeTableRecord
  2
PHANTOM
 70
     0
  3
______  __  __  ______  __  __  ______  __  __ 
 72
    65
 73
     6
 40
2.5
 49
1.25
 74
     0
 49
-0.25
 74
     0
 49
0.25
 74
     0
 49
-0.25
 74
     0
 49
0.25
 74
     0
 49
-0.25
 74
     0
  0
ENDTAB
  0
TABLE
  2
LAYER
  5
22B
330
0
100
AcDbSymbolTable
 70
     8
  0
LAYER
  5
239
102
{ACAD_XDICTIONARY
360
4B7
102
}
330
22B
100
AcDbSymbolTableRecord
100
AcDbLayerTableRecord
  2
0
 70
     0
 62
     7
  6
CONTINUOUS
370
    -3
390
465
  0
LAYER
  5
24F
102
{ACAD_XDICTIONARY
360
4B9
102
}
330
22B
100
AcDbSymbolTableRecord
100
AcDbLayerTableRecord
  2
4
 70
     0
 62
     1
  6
CENTER
370
    -3
390
465
  0
LAYER
  5
250
102
{ACAD_XDICTIONARY
360
4BB
102
}
330
22B
100
AcDbSymbolTableRecord
100
AcDbLayerTableRecord
  2
5
 70
     0
 62
     6
  6
PHANTOM
370
    -3
390
465
  0
LAYER
  5
251
102
{ACAD_XDICTIONARY
360
4BD
102
}
330
22B
100
AcDbSymbolTableRecord
100
AcDbLayerTableRecord
  2
1
 70
     0
 62
     7
  6
CONTINUOUS
370
    -3
390
465
  0
LAYER
  5
252
102
{ACAD_XDICTIONARY
360
4BF
102
}
330
22B
100
AcDbSymbolTableRecord
100
AcDbLayerTableRecord
  2
2
 70
     0
 62
     4
  6
CONTINUOUS
370
    -3
390
465
  0
LAYER
  5
253
102
{ACAD_XDICTIONARY
360
4C1
102
}
330
22B
100
AcDbSymbolTableRecord
100
AcDbLayerTableRecord
  2
3
 70
     0
 62
     2
  6
DASHED
370
    -3
390
465
  0
LAYER
  5
254
102
{ACAD_XDICTIONARY
360
4C3
102
}
330
22B
100
AcDbSymbolTableRecord
100
AcDbLayerTableRecord
  2
6
 70
     0
 62
     5
  6
CONTINUOUS
370
    -3
390
465
  0
LAYER
  5
255
102
{ACAD_XDICTIONARY
360
4C5
102
}
330
22B
100
AcDbSymbolTableRecord
100
AcDbLayerTableRecord
  2
7
 70
     0
 62
     3
  6
CONTINUOUS
370
    -3
390
465
  0
ENDTAB
  0
TABLE
  2
STYLE
  5
22C
330
0
100
AcDbSymbolTable
 70
     1
  0
STYLE
  5
23A
330
22C
100
AcDbSymbolTableRecord
100
AcDbTextStyleTableRecord
  2
STANDARD
 70
     0
 40
0.0
 41
1.0
 50
0.0
 71
     0
 42
5.0
  3
txt
  4

  0
ENDTAB
  0
TABLE
  2
VIEW
  5
22F
330
0
100
AcDbSymbolTable
 70
     0
  0
ENDTAB
  0
TABLE
  2
UCS
  5
230
330
0
100
AcDbSymbolTable
 70
     0
  0
ENDTAB
  0
TABLE
  2
APPID
  5
232
330
0
100
AcDbSymbolTable
 70
     3
  0
APPID
  5
23B
330
232
100
AcDbSymbolTableRecord
100
AcDbRegAppTableRecord
  2
ACAD
 70
     0
  0
APPID
  5
4D1
330
232
100
AcDbSymbolTableRecord
100
AcDbRegAppTableRecord
  2
ACAD_NAV_VCDISPLAY
 70
     0
  0
APPID
  5
50A
330
232
100
AcDbSymbolTableRecord
100
AcDbRegAppTableRecord
  2
ACAD_MLEADERVER
 70
     0
  0
ENDTAB
  0
TABLE
  2
DIMSTYLE
  5
233
330
0
100
AcDbSymbolTable
 70
     1
100
AcDbDimStyleTable
 71
     0
  0
DIMSTYLE
105
257
330
233
100
AcDbSymbolTableRecord
100
AcDbDimStyleTableRecord
  2
STANDARD
 70
     0
 41
3.0
 42
1.0
 43
10.0
 44
1.0
 73
     0
 74
     0
 77
     3
 78
     8
140
3.2
141
0.0
147
1.0
172
     1
173
     1
284
     8
285
     8
286
     8
340
23A
  0
ENDTAB
  0
TABLE
  2
BLOCK_RECORD
  5
22A
330
0
100
AcDbSymbolTable
 70
     0
  0
BLOCK_RECORD
  5
247
102
{ACAD_XDICTIONARY
360
45F
102
}
330
22A
100
AcDbSymbolTableRecord
100
AcDbBlockTableRecord
  2
*MODEL_SPACE
340
4B3
  0
BLOCK_RECORD
  5
243
102
{ACAD_XDICTIONARY
360
45D
102
}
330
22A
100
AcDbSymbolTableRecord
100
AcDbBlockTableRecord
  2
*PAPER_SPACE
340
4B4
  0
ENDTAB
  0
ENDSEC
  0
SECTION
  2
BLOCKS
  0
BLOCK
  5
248
330
247
100
AcDbEntity
  8
0
100
AcDbBlockBegin
  2
*MODEL_SPACE
 70
     0
 10
0.0
 20
0.0
 30
0.0
  3
*MODEL_SPACE
  1

  0
ENDBLK
  5
249
330
247
100
AcDbEntity
  8
0
100
AcDbBlockEnd
  0
BLOCK
  5
244
330
243
100
AcDbEntity
 67
     1
  8
0
100
AcDbBlockBegin
  2
*PAPER_SPACE
 70
     0
 10
0.0
 20
0.0
 30
0.0
  3
*PAPER_SPACE
  1

  0
ENDBLK
  5
245
330
243
100
AcDbEntity
 67
     1
  8
0
100
AcDbBlockEnd
  0
ENDSEC
  0
SECTION
  2
ENTITIES
  0
TEXT
  5
25F
330
247
100
AcDbEntity
  8
7
  6
Continuous
100
AcDbText
 10
10.0
 20
18.0
 30
0.0
 40
3.0
  1
TYPE No.TL-31
100
AcDbText
  0
TEXT
  5
260
330
247
100
AcDbEntity
  8
7
  6
Continuous
100
AcDbText
 10
10.0
 20
26.0
 30
0.0
 40
3.0
  1
CODE No.1061
100
AcDbText
  0
TEXT
  5
261
330
247
100
AcDbEntity
  8
1
  6
Continuous
100
AcDbText
 10
10.0
 20
10.0
 30
0.0
 40
1.399999999999999
  1
LAYER
100
AcDbText
  0
TEXT
  5
262
330
247
100
AcDbEntity
  8
1
  6
Continuous
100
AcDbText
 10
17.97951099999998
 20
10.04873699999998
 30
0.0
 40
1.399999999999999
  1
1
100
AcDbText
  0
TEXT
  5
263
330
247
100
AcDbEntity
  8
7
  6
Continuous
100
AcDbText
 10
29.97951099999999
 20
10.04873699999998
 30
0.0
 40
1.399999999999999
  1
7
100
AcDbText
  0
TEXT
  5
264
330
247
100
AcDbEntity
  8
4
  6
CENTER
100
AcDbText
 10
23.97951099999999
 20
10.04873699999998
 30
0.0
 40
1.399999999999999
  1
4
100
AcDbText
  0
TEXT
  5
265
330
247
100
AcDbEntity
  8
3
  6
DASHED
100
AcDbText
 10
21.979511
 20
10.04873699999998
 30
0.0
 40
1.399999999999999
  1
3
100
AcDbText
  0
TEXT
  5
266
330
247
100
AcDbEntity
  8
2
  6
Continuous
100
AcDbText
 10
19.97951099999999
 20
10.04873699999998
 30
0.0
 40
1.399999999999999
  1
2
100
AcDbText
  0
TEXT
  5
267
330
247
100
AcDbEntity
  8
6
  6
Continuous
100
AcDbText
 10
27.979511
 20
10.04873699999998
 30
0.0
 40
1.399999999999999
  1
6
100
AcDbText
  0
TEXT
  5
268
330
247
100
AcDbEntity
  8
5
  6
PHANTOM
100
AcDbText
 10
25.97951099999999
 20
10.04873699999998
 30
0.0
 40
1.399999999999999
  1
5
100
AcDbText
  0
LINE
  5
269
330
247
100
AcDbEntity
  8
4
  6
CENTER
100
AcDbLine
 10
10.761252
 20
122.993531
 30
0.0
 11
42.761254
 21
122.993531
 31
0.0
  0
LINE
  5
26A
330
247
100
AcDbEntity
  8
1
  6
Continuous
100
AcDbLine
 10
96.26125399999999
 20
136.7435309999999
 30
0.0
 11
96.26125399999999
 21
129.343537
 31
0.0
  0
LINE
  5
26B
330
247
100
AcDbEntity
  8
1
  6
Continuous
100
AcDbLine
 10
109.2612539999999
 20
136.7435309999999
 30
0.0
 11
109.2612539999999
 21
129.343537
 31
0.0
  0
LINE
  5
26C
330
247
100
AcDbEntity
  8
1
  6
Continuous
100
AcDbLine
 10
95.761254
 20
116.6435249999999
 30
0.0
 11
109.2612539999999
 21
116.6435249999999
 31
0.0
  0
LINE
  5
26D
330
247
100
AcDbEntity
  8
1
  6
Continuous
100
AcDbLine
 10
95.761254
 20
129.343537
 30
0.0
 11
109.2612539999999
 21
129.343537
 31
0.0
  0
LINE
  5
26E
330
247
100
AcDbEntity
  8
1
  6
Continuous
100
AcDbLine
 10
110.86126
 20
127.7435309999999
 30
0.0
 11
110.86126
 21
118.243531
 31
0.0
  0
LINE
  5
26F
330
247
100
AcDbEntity
  8
1
  6
Continuous
100
AcDbLine
 10
95.761254
 20
129.343537
 30
0.0
 11
95.761254
 21
127.7435309999999
 31
0.0
  0
LINE
  5
270
330
247
100
AcDbEntity
  8
1
  6
Continuous
100
AcDbLine
 10
95.761254
 20
127.7435309999999
 30
0.0
 11
109.2612539999999
 21
127.7435309999999
 31
0.0
  0
LINE
  5
271
330
247
100
AcDbEntity
  8
1
  6
Continuous
100
AcDbLine
 10
95.761254
 20
118.243531
 30
0.0
 11
109.2612539999999
 21
118.243531
 31
0.0
  0
LINE
  5
272
330
247
100
AcDbEntity
  8
1
  6
Continuous
100
AcDbLine
 10
95.761254
 20
118.243531
 30
0.0
 11
95.761254
 21
116.6435249999999
 31
0.0
  0
LINE
  5
273
330
247
100
AcDbEntity
  8
4
  6
CENTER
100
AcDbLine
 10
106.5112539999999
 20
109.493531
 30
0.0
 11
99.01125399999999
 21
109.493531
 31
0.0
  0
LINE
  5
274
330
247
100
AcDbEntity
  8
4
  6
CENTER
100
AcDbLine
 10
106.5112539999999
 20
136.4935309999999
 30
0.0
 11
99.01125399999999
 21
136.4935309999999
 31
0.0
  0
LINE
  5
275
330
247
100
AcDbEntity
  8
4
  6
CENTER
100
AcDbLine
 10
102.761254
 20
148.2435309999999
 30
0.0
 11
102.761254
 21
97.743531
 31
0.0
  0
LINE
  5
276
330
247
100
AcDbEntity
  8
1
  6
Continuous
100
AcDbLine
 10
109.2612539999999
 20
116.6435249999999
 30
0.0
 11
109.2612539999999
 21
109.243531
 31
0.0
  0
LINE
  5
277
330
247
100
AcDbEntity
  8
1
  6
Continuous
100
AcDbLine
 10
96.26125399999999
 20
116.6435249999999
 30
0.0
 11
96.26125399999999
 21
109.243531
 31
0.0
  0
LINE
  5
278
330
247
100
AcDbEntity
  8
1
  6
Continuous
100
AcDbLine
 10
34.661254
 20
127.7435309999999
 30
0.0
 11
34.661254
 21
118.243531
 31
0.0
  0
LINE
  5
279
330
247
100
AcDbEntity
  8
1
  6
Continuous
100
AcDbLine
 10
17.261254
 20
127.493531
 30
0.0
 11
17.261254
 21
118.4935309999999
 31
0.0
  0
LINE
  5
27A
330
247
100
AcDbEntity
  8
1
  6
Continuous
100
AcDbLine
 10
17.261254
 20
118.4935309999999
 30
0.0
 11
34.661254
 21
118.4935309999999
 31
0.0
  0
LINE
  5
27B
330
247
100
AcDbEntity
  8
1
  6
Continuous
100
AcDbLine
 10
17.261254
 20
127.493531
 30
0.0
 11
34.661254
 21
127.493531
 31
0.0
  0
LINE
  5
27C
330
247
100
AcDbEntity
  8
1
  6
Continuous
100
AcDbLine
 10
30.761254
 20
127.493531
 30
0.0
 11
30.761254
 21
118.4935309999999
 31
0.0
  0
LINE
  5
27D
330
247
100
AcDbEntity
  8
1
  6
Continuous
100
AcDbLine
 10
22.261254
 20
127.493531
 30
0.0
 11
22.261254
 21
118.4935309999999
 31
0.0
  0
LINE
  5
27E
330
247
100
AcDbEntity
  8
1
  6
Continuous
100
AcDbLine
 10
22.261254
 20
126.2935179999999
 30
0.0
 11
30.761254
 21
126.2935179999999
 31
0.0
  0
LINE
  5
27F
330
247
100
AcDbEntity
  8
1
  6
Continuous
100
AcDbLine
 10
22.261254
 20
119.6935279999999
 30
0.0
 11
30.761254
 21
119.6935279999999
 31
0.0
  0
LINE
  5
280
330
247
100
AcDbEntity
  8
4
  6
CENTER
100
AcDbLine
 10
30.26125399999999
 20
132.543518
 30
0.0
 11
30.26125399999999
 21
113.4435279999999
 31
0.0
  0
LINE
  5
281
330
247
100
AcDbEntity
  8
1
  6
Continuous
100
AcDbLine
 10
29.01125399999999
 20
130.543518
 30
0.0
 11
31.51125399999999
 21
130.543518
 31
0.0
  0
LINE
  5
282
330
247
100
AcDbEntity
  8
1
  6
Continuous
100
AcDbLine
 10
29.01125399999999
 20
115.4435279999999
 30
0.0
 11
31.51125399999999
 21
115.4435279999999
 31
0.0
  0
LINE
  5
283
330
247
100
AcDbEntity
  8
1
  6
Continuous
100
AcDbLine
 10
97.261254
 20
127.7435309999999
 30
0.0
 11
97.261254
 21
127.493531
 31
0.0
  0
LINE
  5
284
330
247
100
AcDbEntity
  8
1
  6
Continuous
100
AcDbLine
 10
100.2612539999999
 20
127.7435309999999
 30
0.0
 11
100.2612539999999
 21
127.493531
 31
0.0
  0
LINE
  5
285
330
247
100
AcDbEntity
  8
1
  6
Continuous
100
AcDbLine
 10
97.261254
 20
118.4935309999999
 30
0.0
 11
97.261254
 21
118.243531
 31
0.0
  0
LINE
  5
286
330
247
100
AcDbEntity
  8
1
  6
Continuous
100
AcDbLine
 10
100.2612539999999
 20
118.4935309999999
 30
0.0
 11
100.2612539999999
 21
118.243531
 31
0.0
  0
LINE
  5
287
330
247
100
AcDbEntity
  8
1
  6
Continuous
100
AcDbLine
 10
30.34792299999999
 20
125.3893279999999
 30
0.0
 11
30.76125
 21
123.045227
 31
0.0
  0
LINE
  5
288
330
247
100
AcDbEntity
  8
1
  6
Continuous
100
AcDbLine
 10
29.79575
 20
125.597718
 30
0.0
 11
30.677384
 21
120.597718
 31
0.0
  0
LINE
  5
289
330
247
100
AcDbEntity
  8
1
  6
Continuous
100
AcDbLine
 10
28.613983
 20
125.3893439999998
 30
0.0
 11
29.495617
 21
120.3893439999998
 31
0.0
  0
LINE
  5
28A
330
247
100
AcDbEntity
  8
1
  6
Continuous
100
AcDbLine
 10
28.06181399999999
 20
125.5977019999999
 30
0.0
 11
28.94344699999999
 21
120.5977019999999
 31
0.0
  0
LINE
  5
28B
330
247
100
AcDbEntity
  8
1
  6
Continuous
100
AcDbLine
 10
26.880047
 20
125.3893279999999
 30
0.0
 11
27.761681
 21
120.389328
 31
0.0
  0
LINE
  5
28C
330
247
100
AcDbEntity
  8
1
  6
Continuous
100
AcDbLine
 10
26.32787299999999
 20
125.597718
 30
0.0
 11
27.20950699999999
 21
120.597718
 31
0.0
  0
LINE
  5
28D
330
247
100
AcDbEntity
  8
1
  6
Continuous
100
AcDbLine
 10
25.146107
 20
125.3893439999998
 30
0.0
 11
26.02774099999999
 21
120.3893439999998
 31
0.0
  0
LINE
  5
28E
330
247
100
AcDbEntity
  8
1
  6
Continuous
100
AcDbLine
 10
24.60164999999999
 20
125.597718
 30
0.0
 11
25.483284
 21
120.597718
 31
0.0
  0
LINE
  5
28F
330
247
100
AcDbEntity
  8
1
  6
Continuous
100
AcDbLine
 10
30.347336
 20
125.5943449999999
 30
0.0
 11
30.07650399999999
 21
124.005509
 31
0.0
  0
LINE
  5
290
330
247
100
AcDbEntity
  8
1
  6
Continuous
100
AcDbLine
 10
30.76125
 20
120.881287
 30
0.0
 11
30.677967
 21
120.3927159999998
 31
0.0
  0
LINE
  5
291
330
247
100
AcDbEntity
  8
1
  6
Continuous
100
AcDbLine
 10
28.6134
 20
125.5943449999999
 30
0.0
 11
28.34256400000001
 21
124.005509
 31
0.0
  0
LINE
  5
292
330
247
100
AcDbEntity
  8
1
  6
Continuous
100
AcDbLine
 10
29.21486699999999
 20
121.981552
 30
0.0
 11
28.94403099999999
 21
120.3927159999998
 31
0.0
  0
LINE
  5
293
330
247
100
AcDbEntity
  8
1
  6
Continuous
100
AcDbLine
 10
26.879456
 20
125.5943449999999
 30
0.0
 11
26.60861999999999
 21
124.005509
 31
0.0
  0
LINE
  5
294
330
247
100
AcDbEntity
  8
1
  6
Continuous
100
AcDbLine
 10
27.480927
 20
121.981552
 30
0.0
 11
27.210095
 21
120.392701
 31
0.0
  0
LINE
  5
295
330
247
100
AcDbEntity
  8
1
  6
Continuous
100
AcDbLine
 10
25.145367
 20
125.59346
 30
0.0
 11
24.879711
 21
124.020752
 31
0.0
  0
LINE
  5
296
330
247
100
AcDbEntity
  8
1
  6
Continuous
100
AcDbLine
 10
25.749672
 20
121.966309
 30
0.0
 11
25.484013
 21
120.393586
 31
0.0
  0
LINE
  5
297
330
247
100
AcDbEntity
  8
1
  6
Continuous
100
AcDbLine
 10
271.761254
 20
136.7435309999999
 30
0.0
 11
271.761254
 21
127.7435309999999
 31
0.0
  0
LINE
  5
298
330
247
100
AcDbEntity
  8
1
  6
Continuous
100
AcDbLine
 10
258.761254
 20
136.7435309999999
 30
0.0
 11
258.761254
 21
127.7435309999999
 31
0.0
  0
LINE
  5
299
330
247
100
AcDbEntity
  8
1
  6
Continuous
100
AcDbLine
 10
272.261254
 20
116.6435399999999
 30
0.0
 11
271.761254
 21
116.6435399999999
 31
0.0
  0
LINE
  5
29A
330
247
100
AcDbEntity
  8
1
  6
Continuous
100
AcDbLine
 10
272.261254
 20
129.343537
 30
0.0
 11
271.761254
 21
129.343537
 31
0.0
  0
LINE
  5
29B
330
247
100
AcDbEntity
  8
1
  6
Continuous
100
AcDbLine
 10
257.1612779999999
 20
127.7435309999999
 30
0.0
 11
257.1612779999999
 21
118.243531
 31
0.0
  0
LINE
  5
29C
330
247
100
AcDbEntity
  8
1
  6
Continuous
100
AcDbLine
 10
272.261254
 20
129.343537
 30
0.0
 11
272.261254
 21
127.7435309999999
 31
0.0
  0
LINE
  5
29D
330
247
100
AcDbEntity
  8
1
  6
Continuous
100
AcDbLine
 10
272.261254
 20
127.7435309999999
 30
0.0
 11
257.36126
 21
127.7435309999999
 31
0.0
  0
LINE
  5
29E
330
247
100
AcDbEntity
  8
1
  6
Continuous
100
AcDbLine
 10
272.261254
 20
118.243531
 30
0.0
 11
257.36126
 21
118.243531
 31
0.0
  0
LINE
  5
29F
330
247
100
AcDbEntity
  8
1
  6
Continuous
100
AcDbLine
 10
272.261254
 20
118.243531
 30
0.0
 11
272.261254
 21
116.6435249999999
 31
0.0
  0
LINE
  5
2A0
330
247
100
AcDbEntity
  8
4
  6
CENTER
100
AcDbLine
 10
261.511254
 20
109.493531
 30
0.0
 11
269.011254
 21
109.493531
 31
0.0
  0
LINE
  5
2A1
330
247
100
AcDbEntity
  8
4
  6
CENTER
100
AcDbLine
 10
265.261254
 20
148.2435309999999
 30
0.0
 11
265.261254
 21
97.743531
 31
0.0
  0
LINE
  5
2A2
330
247
100
AcDbEntity
  8
4
  6
CENTER
100
AcDbLine
 10
261.511254
 20
136.4935309999999
 30
0.0
 11
269.011254
 21
136.4935309999999
 31
0.0
  0
LINE
  5
2A3
330
247
100
AcDbEntity
  8
1
  6
Continuous
100
AcDbLine
 10
258.761254
 20
118.243531
 30
0.0
 11
258.761254
 21
109.243531
 31
0.0
  0
LINE
  5
2A4
330
247
100
AcDbEntity
  8
1
  6
Continuous
100
AcDbLine
 10
271.761254
 20
118.243531
 30
0.0
 11
271.761254
 21
109.243531
 31
0.0
  0
LINE
  5
2A5
330
247
100
AcDbEntity
  8
1
  6
Continuous
100
AcDbLine
 10
263.6612779999999
 20
127.7435309999999
 30
0.0
 11
263.6612779999999
 21
127.493531
 31
0.0
  0
LINE
  5
2A6
330
247
100
AcDbEntity
  8
1
  6
Continuous
100
AcDbLine
 10
263.6612779999999
 20
120.8935249999999
 30
0.0
 11
263.6612779999999
 21
119.6935279999999
 31
0.0
  0
LINE
  5
2A7
330
247
100
AcDbEntity
  8
1
  6
Continuous
100
AcDbLine
 10
262.6612779999999
 20
127.7435309999999
 30
0.0
 11
262.6612779999999
 21
125.993531
 31
0.0
  0
LINE
  5
2A8
330
247
100
AcDbEntity
  8
1
  6
Continuous
100
AcDbLine
 10
262.6612779999999
 20
119.993531
 30
0.0
 11
262.6612779999999
 21
118.243531
 31
0.0
  0
LINE
  5
2A9
330
247
100
AcDbEntity
  8
1
  6
Continuous
100
AcDbLine
 10
277.761254
 20
118.4935309999999
 30
0.0
 11
263.261254
 21
118.4935309999999
 31
0.0
  0
LINE
  5
2AA
330
247
100
AcDbEntity
  8
1
  6
Continuous
100
AcDbLine
 10
277.761254
 20
127.493531
 30
0.0
 11
263.261254
 21
127.493531
 31
0.0
  0
LINE
  5
2AB
330
247
100
AcDbEntity
  8
1
  6
Continuous
100
AcDbLine
 10
267.9735949999999
 20
126.293534
 30
0.0
 11
263.261254
 21
126.293534
 31
0.0
  0
LINE
  5
2AC
330
247
100
AcDbEntity
  8
1
  6
Continuous
100
AcDbLine
 10
267.9735949999999
 20
119.6935279999999
 30
0.0
 11
263.261254
 21
119.6935279999999
 31
0.0
  0
LINE
  5
2AD
330
247
100
AcDbEntity
  8
1
  6
Continuous
100
AcDbLine
 10
263.994774
 20
123.8935399999999
 30
0.0
 11
263.1612469999998
 21
123.8935399999999
 31
0.0
  0
LINE
  5
2AE
330
247
100
AcDbEntity
  8
1
  6
Continuous
100
AcDbLine
 10
263.994774
 20
122.093537
 30
0.0
 11
263.1612469999998
 21
122.093537
 31
0.0
  0
LINE
  5
2AF
330
247
100
AcDbEntity
  8
4
  6
CENTER
100
AcDbLine
 10
269.261254
 20
129.743531
 30
0.0
 11
269.261254
 21
116.2435309999999
 31
0.0
  0
LINE
  5
2B0
330
247
100
AcDbEntity
  8
1
  6
Continuous
100
AcDbLine
 10
270.7612539999999
 20
127.7435309999999
 30
0.0
 11
270.7612539999999
 21
127.493531
 31
0.0
  0
LINE
  5
2B1
330
247
100
AcDbEntity
  8
1
  6
Continuous
100
AcDbLine
 10
267.761254
 20
127.7435309999999
 30
0.0
 11
267.761254
 21
127.493531
 31
0.0
  0
LINE
  5
2B2
330
247
100
AcDbEntity
  8
1
  6
Continuous
100
AcDbLine
 10
270.7612539999999
 20
118.4935309999999
 30
0.0
 11
270.7612539999999
 21
118.243531
 31
0.0
  0
LINE
  5
2B3
330
247
100
AcDbEntity
  8
1
  6
Continuous
100
AcDbLine
 10
267.761254
 20
118.4935309999999
 30
0.0
 11
267.761254
 21
118.243531
 31
0.0
  0
LINE
  5
2B4
330
247
100
AcDbEntity
  8
1
  6
Continuous
100
AcDbLine
 10
88.76125399999997
 20
127.493531
 30
0.0
 11
104.36126
 21
127.493531
 31
0.0
  0
LINE
  5
2B5
330
247
100
AcDbEntity
  8
1
  6
Continuous
100
AcDbLine
 10
91.257408
 20
126.2935179999999
 30
0.0
 11
104.36126
 21
126.2935179999999
 31
0.0
  0
LINE
  5
2B6
330
247
100
AcDbEntity
  8
1
  6
Continuous
100
AcDbLine
 10
91.257408
 20
119.6935279999999
 30
0.0
 11
104.36126
 21
119.6935279999999
 31
0.0
  0
LINE
  5
2B7
330
247
100
AcDbEntity
  8
1
  6
Continuous
100
AcDbLine
 10
88.76125399999997
 20
118.4935309999999
 30
0.0
 11
104.36126
 21
118.4935309999999
 31
0.0
  0
LINE
  5
2B8
330
247
100
AcDbEntity
  8
1
  6
Continuous
100
AcDbLine
 10
88.76125399999997
 20
127.493531
 30
0.0
 11
88.76125399999997
 21
118.4935309999999
 31
0.0
  0
LINE
  5
2B9
330
247
100
AcDbEntity
  8
1
  6
Continuous
100
AcDbLine
 10
89.76125399999999
 20
127.493531
 30
0.0
 11
89.76125399999999
 21
118.4935309999999
 31
0.0
  0
LINE
  5
2BA
330
247
100
AcDbEntity
  8
1
  6
Continuous
100
AcDbLine
 10
103.8612599999999
 20
127.7435309999999
 30
0.0
 11
103.8612599999999
 21
127.493531
 31
0.0
  0
LINE
  5
2BB
330
247
100
AcDbEntity
  8
1
  6
Continuous
100
AcDbLine
 10
103.8612599999999
 20
118.4935309999999
 30
0.0
 11
103.8612599999999
 21
118.243531
 31
0.0
  0
LINE
  5
2BC
330
247
100
AcDbEntity
  8
1
  6
Continuous
100
AcDbLine
 10
104.36126
 20
127.7435309999999
 30
0.0
 11
104.36126
 21
125.093537
 31
0.0
  0
LINE
  5
2BD
330
247
100
AcDbEntity
  8
1
  6
Continuous
100
AcDbLine
 10
104.36126
 20
120.8935249999999
 30
0.0
 11
104.36126
 21
118.243531
 31
0.0
  0
LINE
  5
2BE
330
247
100
AcDbEntity
  8
1
  6
Continuous
100
AcDbLine
 10
103.661247
 20
122.093537
 30
0.0
 11
104.86126
 21
122.093537
 31
0.0
  0
LINE
  5
2BF
330
247
100
AcDbEntity
  8
1
  6
Continuous
100
AcDbLine
 10
103.661247
 20
123.8935249999999
 30
0.0
 11
104.86126
 21
123.8935249999999
 31
0.0
  0
LINE
  5
2C0
330
247
100
AcDbEntity
  8
1
  6
Continuous
100
AcDbLine
 10
97.51125399999999
 20
130.543518
 30
0.0
 11
100.0112539999999
 21
130.543518
 31
0.0
  0
LINE
  5
2C1
330
247
100
AcDbEntity
  8
4
  6
CENTER
100
AcDbLine
 10
98.76125399999999
 20
132.543518
 30
0.0
 11
98.76125399999999
 21
113.4435279999999
 31
0.0
  0
LINE
  5
2C2
330
247
100
AcDbEntity
  8
1
  6
Continuous
100
AcDbLine
 10
97.51125399999999
 20
115.4435279999999
 30
0.0
 11
100.0112539999999
 21
115.4435279999999
 31
0.0
  0
LINE
  5
2C3
330
247
100
AcDbEntity
  8
1
  6
Continuous
100
AcDbLine
 10
15.761254
 20
143.2435309999999
 30
0.0
 11
15.761254
 21
129.343537
 31
0.0
  0
LINE
  5
2C4
330
247
100
AcDbEntity
  8
1
  6
Continuous
100
AcDbLine
 10
17.361252
 20
116.6435249999999
 30
0.0
 11
35.261254
 21
116.6435249999999
 31
0.0
  0
LINE
  5
2C5
330
247
100
AcDbEntity
  8
1
  6
Continuous
100
AcDbLine
 10
17.361252
 20
129.343537
 30
0.0
 11
35.261254
 21
129.343537
 31
0.0
  0
LINE
  5
2C6
330
247
100
AcDbEntity
  8
1
  6
Continuous
100
AcDbLine
 10
17.361252
 20
143.2435309999999
 30
0.0
 11
15.761254
 21
143.2435309999999
 31
0.0
  0
LINE
  5
2C7
330
247
100
AcDbEntity
  8
1
  6
Continuous
100
AcDbLine
 10
17.361252
 20
102.7435309999999
 30
0.0
 11
15.761254
 21
102.7435309999999
 31
0.0
  0
LINE
  5
2C8
330
247
100
AcDbEntity
  8
1
  6
Continuous
100
AcDbLine
 10
15.761254
 20
116.6435249999999
 30
0.0
 11
15.761254
 21
102.7435309999999
 31
0.0
  0
LINE
  5
2C9
330
247
100
AcDbEntity
  8
1
  6
Continuous
100
AcDbLine
 10
17.361252
 20
127.7435309999999
 30
0.0
 11
36.261254
 21
127.7435309999999
 31
0.0
  0
LINE
  5
2CA
330
247
100
AcDbEntity
  8
1
  6
Continuous
100
AcDbLine
 10
17.361252
 20
118.243531
 30
0.0
 11
36.261254
 21
118.243531
 31
0.0
  0
LINE
  5
2CB
330
247
100
AcDbEntity
  8
1
  6
Continuous
100
AcDbLine
 10
17.361252
 20
116.6435249999999
 30
0.0
 11
17.361252
 21
102.7435309999999
 31
0.0
  0
LINE
  5
2CC
330
247
100
AcDbEntity
  8
1
  6
Continuous
100
AcDbLine
 10
17.361252
 20
143.2435309999999
 30
0.0
 11
17.361252
 21
129.343537
 31
0.0
  0
LINE
  5
2CD
330
247
100
AcDbEntity
  8
1
  6
Continuous
100
AcDbLine
 10
36.261254
 20
127.7435309999999
 30
0.0
 11
36.261254
 21
123.593537
 31
0.0
  0
LINE
  5
2CE
330
247
100
AcDbEntity
  8
1
  6
Continuous
100
AcDbLine
 10
35.261254
 20
129.343537
 30
0.0
 11
35.261254
 21
127.7435309999999
 31
0.0
  0
LINE
  5
2CF
330
247
100
AcDbEntity
  8
1
  6
Continuous
100
AcDbLine
 10
35.261254
 20
118.243531
 30
0.0
 11
35.261254
 21
116.6435249999999
 31
0.0
  0
LINE
  5
2D0
330
247
100
AcDbEntity
  8
1
  6
Continuous
100
AcDbLine
 10
36.261254
 20
125.093537
 30
0.0
 11
34.661254
 21
125.093537
 31
0.0
  0
LINE
  5
2D1
330
247
100
AcDbEntity
  8
1
  6
Continuous
100
AcDbLine
 10
36.261254
 20
120.8935249999999
 30
0.0
 11
34.661254
 21
120.8935249999999
 31
0.0
  0
LINE
  5
2D2
330
247
100
AcDbEntity
  8
1
  6
Continuous
100
AcDbLine
 10
27.26125399999999
 20
127.7435309999999
 30
0.0
 11
27.26125399999999
 21
127.493531
 31
0.0
  0
LINE
  5
2D3
330
247
100
AcDbEntity
  8
1
  6
Continuous
100
AcDbLine
 10
28.861254
 20
127.7435309999999
 30
0.0
 11
28.861254
 21
127.493531
 31
0.0
  0
LINE
  5
2D4
330
247
100
AcDbEntity
  8
1
  6
Continuous
100
AcDbLine
 10
28.861254
 20
126.2935179999999
 30
0.0
 11
28.861254
 21
125.985396
 31
0.0
  0
LINE
  5
2D5
330
247
100
AcDbEntity
  8
1
  6
Continuous
100
AcDbLine
 10
27.26125399999999
 20
126.2935179999999
 30
0.0
 11
27.26125399999999
 21
126.055695
 31
0.0
  0
LINE
  5
2D6
330
247
100
AcDbEntity
  8
1
  6
Continuous
100
AcDbLine
 10
28.861254
 20
118.4935309999999
 30
0.0
 11
28.861254
 21
118.243531
 31
0.0
  0
LINE
  5
2D7
330
247
100
AcDbEntity
  8
1
  6
Continuous
100
AcDbLine
 10
27.26125399999999
 20
118.4935309999999
 30
0.0
 11
27.26125399999999
 21
118.243531
 31
0.0
  0
LINE
  5
2D8
330
247
100
AcDbEntity
  8
1
  6
Continuous
100
AcDbLine
 10
28.861254
 20
120.175359
 30
0.0
 11
28.861254
 21
119.6935279999999
 31
0.0
  0
LINE
  5
2D9
330
247
100
AcDbEntity
  8
1
  6
Continuous
100
AcDbLine
 10
27.26125399999999
 20
120.6928259999999
 30
0.0
 11
27.26125399999999
 21
119.6935279999999
 31
0.0
  0
LINE
  5
2DA
330
247
100
AcDbEntity
  8
1
  6
Continuous
100
AcDbLine
 10
27.80258599999999
 20
125.993531
 30
0.0
 11
28.561253
 21
125.993531
 31
0.0
  0
LINE
  5
2DB
330
247
100
AcDbEntity
  8
1
  6
Continuous
100
AcDbLine
 10
27.46125399999999
 20
119.993531
 30
0.0
 11
28.020901
 21
119.993531
 31
0.0
  0
LINE
  5
2DC
330
247
100
AcDbEntity
  8
1
  6
Continuous
100
AcDbLine
 10
185.761269
 20
127.493531
 30
0.0
 11
185.761269
 21
123.783722
 31
0.0
  0
LINE
  5
2DD
330
247
100
AcDbEntity
  8
1
  6
Continuous
100
AcDbLine
 10
185.761269
 20
118.4935309999999
 30
0.0
 11
175.761269
 21
118.4935309999999
 31
0.0
  0
LINE
  5
2DE
330
247
100
AcDbEntity
  8
1
  6
Continuous
100
AcDbLine
 10
185.761269
 20
127.493531
 30
0.0
 11
175.761269
 21
127.493531
 31
0.0
  0
LINE
  5
2DF
330
247
100
AcDbEntity
  8
1
  6
Continuous
100
AcDbLine
 10
180.761269
 20
126.2935179999999
 30
0.0
 11
180.761269
 21
124.3287809999999
 31
0.0
  0
LINE
  5
2E0
330
247
100
AcDbEntity
  8
1
  6
Continuous
100
AcDbLine
 10
184.761269
 20
126.2935179999999
 30
0.0
 11
175.761269
 21
126.2935179999999
 31
0.0
  0
LINE
  5
2E1
330
247
100
AcDbEntity
  8
1
  6
Continuous
100
AcDbLine
 10
184.761269
 20
119.6935279999999
 30
0.0
 11
175.761269
 21
119.6935279999999
 31
0.0
  0
LINE
  5
2E2
330
247
100
AcDbEntity
  8
4
  6
CENTER
100
AcDbLine
 10
172.7612689999999
 20
132.543518
 30
0.0
 11
172.7612689999999
 21
113.4435279999999
 31
0.0
  0
LINE
  5
2E3
330
247
100
AcDbEntity
  8
1
  6
Continuous
100
AcDbLine
 10
187.261269
 20
143.2435309999999
 30
0.0
 11
187.261269
 21
129.343537
 31
0.0
  0
LINE
  5
2E4
330
247
100
AcDbEntity
  8
1
  6
Continuous
100
AcDbLine
 10
185.6612629999999
 20
116.6435249999999
 30
0.0
 11
167.761269
 21
116.6435249999999
 31
0.0
  0
LINE
  5
2E5
330
247
100
AcDbEntity
  8
1
  6
Continuous
100
AcDbLine
 10
185.6612629999999
 20
129.343537
 30
0.0
 11
167.761269
 21
129.343537
 31
0.0
  0
LINE
  5
2E6
330
247
100
AcDbEntity
  8
1
  6
Continuous
100
AcDbLine
 10
185.6612629999999
 20
143.2435309999999
 30
0.0
 11
187.261269
 21
143.2435309999999
 31
0.0
  0
LINE
  5
2E7
330
247
100
AcDbEntity
  8
1
  6
Continuous
100
AcDbLine
 10
185.6612629999999
 20
102.7435309999999
 30
0.0
 11
187.261269
 21
102.7435309999999
 31
0.0
  0
LINE
  5
2E8
330
247
100
AcDbEntity
  8
1
  6
Continuous
100
AcDbLine
 10
187.261269
 20
116.6435249999999
 30
0.0
 11
187.261269
 21
102.7435309999999
 31
0.0
  0
LINE
  5
2E9
330
247
100
AcDbEntity
  8
1
  6
Continuous
100
AcDbLine
 10
185.6612629999999
 20
127.7435309999999
 30
0.0
 11
174.161269
 21
127.7435309999999
 31
0.0
  0
LINE
  5
2EA
330
247
100
AcDbEntity
  8
1
  6
Continuous
100
AcDbLine
 10
185.6612629999999
 20
118.243531
 30
0.0
 11
174.161269
 21
118.243531
 31
0.0
  0
LINE
  5
2EB
330
247
100
AcDbEntity
  8
1
  6
Continuous
100
AcDbLine
 10
185.6612629999999
 20
116.6435249999999
 30
0.0
 11
185.6612629999999
 21
102.7435309999999
 31
0.0
  0
LINE
  5
2EC
330
247
100
AcDbEntity
  8
1
  6
Continuous
100
AcDbLine
 10
185.6612629999999
 20
143.2435309999999
 30
0.0
 11
185.6612629999999
 21
129.343537
 31
0.0
  0
LINE
  5
2ED
330
247
100
AcDbEntity
  8
1
  6
Continuous
100
AcDbLine
 10
175.761269
 20
127.7435309999999
 30
0.0
 11
175.761269
 21
118.243531
 31
0.0
  0
LINE
  5
2EE
330
247
100
AcDbEntity
  8
1
  6
Continuous
100
AcDbLine
 10
184.761269
 20
127.493531
 30
0.0
 11
184.761269
 21
123.214676
 31
0.0
  0
LINE
  5
2EF
330
247
100
AcDbEntity
  8
1
  6
Continuous
100
AcDbLine
 10
180.761269
 20
123.010575
 30
0.0
 11
180.761269
 21
119.6935279999999
 31
0.0
  0
LINE
  5
2F0
330
247
100
AcDbEntity
  8
1
  6
Continuous
100
AcDbLine
 10
185.761269
 20
122.3663029999999
 30
0.0
 11
185.761269
 21
118.4935309999999
 31
0.0
  0
LINE
  5
2F1
330
247
100
AcDbEntity
  8
1
  6
Continuous
100
AcDbLine
 10
184.761269
 20
121.9328009999999
 30
0.0
 11
184.761269
 21
118.4935309999999
 31
0.0
  0
LINE
  5
2F2
330
247
100
AcDbEntity
  8
1
  6
Continuous
100
AcDbLine
 10
37.16125499999999
 20
122.393525
 30
0.0
 11
34.661254
 21
122.393525
 31
0.0
  0
LINE
  5
2F3
330
247
100
AcDbEntity
  8
1
  6
Continuous
100
AcDbLine
 10
37.16125499999999
 20
123.593537
 30
0.0
 11
34.661254
 21
123.593537
 31
0.0
  0
LINE
  5
2F4
330
247
100
AcDbEntity
  8
1
  6
Continuous
100
AcDbLine
 10
36.261254
 20
122.393525
 30
0.0
 11
36.261254
 21
118.243531
 31
0.0
  0
LINE
  5
2F5
330
247
100
AcDbEntity
  8
1
  6
Continuous
100
AcDbLine
 10
109.2612539999999
 20
45.343492
 30
0.0
 11
109.2612539999999
 21
32.24349199999998
 31
0.0
  0
LINE
  5
2F6
330
247
100
AcDbEntity
  8
1
  6
Continuous
100
AcDbLine
 10
110.86126
 20
51.14349199999999
 30
0.0
 11
110.86126
 21
45.343492
 31
0.0
  0
LINE
  5
2F7
330
247
100
AcDbEntity
  8
1
  6
Continuous
100
AcDbLine
 10
110.744499
 20
51.74349199999999
 30
0.0
 11
100.761254
 21
51.74349199999999
 31
0.0
  0
LINE
  5
2F8
330
247
100
AcDbEntity
  8
1
  6
Continuous
100
AcDbLine
 10
109.2612539999999
 20
32.24349199999998
 30
0.0
 11
96.26125399999999
 21
32.24349199999998
 31
0.0
  0
LINE
  5
2F9
330
247
100
AcDbEntity
  8
1
  6
Continuous
100
AcDbLine
 10
109.26126
 20
52.743492
 30
0.0
 11
102.36126
 21
52.743492
 31
0.0
  0
LINE
  5
2FA
330
247
100
AcDbEntity
  8
1
  6
Continuous
100
AcDbLine
 10
102.36126
 20
52.743492
 30
0.0
 11
102.36126
 21
51.74349199999999
 31
0.0
  0
LINE
  5
2FB
330
247
100
AcDbEntity
  8
1
  6
Continuous
100
AcDbLine
 10
96.26125399999999
 20
44.56404899999999
 30
0.0
 11
96.26125399999999
 21
32.24349199999998
 31
0.0
  0
LINE
  5
2FC
330
247
100
AcDbEntity
  8
1
  6
Continuous
100
AcDbLine
 10
109.2612539999999
 20
33.843499
 30
0.0
 11
96.26125399999999
 21
33.843499
 31
0.0
  0
LINE
  5
2FD
330
247
100
AcDbEntity
  8
1
  6
Continuous
100
AcDbLine
 10
110.86126
 20
45.343492
 30
0.0
 11
109.2612539999999
 21
45.343492
 31
0.0
  0
LINE
  5
2FE
330
247
100
AcDbEntity
  8
4
  6
CENTER
100
AcDbLine
 10
102.3112569999998
 20
46.74349199999999
 30
0.0
 11
95.21125000000001
 21
46.74349199999999
 31
0.0
  0
LINE
  5
2FF
330
247
100
AcDbEntity
  8
4
  6
CENTER
100
AcDbLine
 10
98.76125399999999
 20
50.29349599999999
 30
0.0
 11
98.76125399999999
 21
43.193505
 31
0.0
  0
LINE
  5
300
330
247
100
AcDbEntity
  8
1
  6
Continuous
100
AcDbLine
 10
89.76125399999999
 20
51.24349200000001
 30
0.0
 11
89.76125399999999
 21
47.24349199999998
 31
0.0
  0
LINE
  5
301
330
247
100
AcDbEntity
  8
1
  6
Continuous
100
AcDbLine
 10
98.58181000000001
 20
51.24349200000001
 30
0.0
 11
89.76125399999999
 21
51.24349200000001
 31
0.0
  0
LINE
  5
302
330
247
100
AcDbEntity
  8
1
  6
Continuous
100
AcDbLine
 10
96.26125399999999
 20
33.74349199999999
 30
0.0
 11
89.96125399999998
 21
33.74349199999999
 31
0.0
  0
LINE
  5
303
330
247
100
AcDbEntity
  8
1
  6
Continuous
100
AcDbLine
 10
96.26125399999999
 20
34.943492
 30
0.0
 11
89.96125399999998
 21
34.943492
 31
0.0
  0
LINE
  5
304
330
247
100
AcDbEntity
  8
1
  6
Continuous
100
AcDbLine
 10
88.76125399999997
 20
38.74349199999999
 30
0.0
 11
88.76125399999997
 21
34.943492
 31
0.0
  0
LINE
  5
305
330
247
100
AcDbEntity
  8
1
  6
Continuous
100
AcDbLine
 10
91.01125399999999
 20
47.24349199999998
 30
0.0
 11
89.76125399999999
 21
47.24349199999998
 31
0.0
  0
LINE
  5
306
330
247
100
AcDbEntity
  8
1
  6
Continuous
100
AcDbLine
 10
91.01125399999999
 20
38.74349199999999
 30
0.0
 11
88.76125399999997
 21
38.74349199999999
 31
0.0
  0
LINE
  5
307
330
247
100
AcDbEntity
  8
1
  6
Continuous
100
AcDbLine
 10
109.2612539999999
 20
195.6435759999999
 30
0.0
 11
109.2612539999999
 21
208.7435759999999
 31
0.0
  0
LINE
  5
308
330
247
100
AcDbEntity
  8
1
  6
Continuous
100
AcDbLine
 10
110.86126
 20
189.843576
 30
0.0
 11
110.86126
 21
195.6435759999999
 31
0.0
  0
LINE
  5
309
330
247
100
AcDbEntity
  8
1
  6
Continuous
100
AcDbLine
 10
110.744499
 20
189.2435759999999
 30
0.0
 11
100.761254
 21
189.2435759999999
 31
0.0
  0
LINE
  5
30A
330
247
100
AcDbEntity
  8
1
  6
Continuous
100
AcDbLine
 10
109.2612539999999
 20
208.7435759999999
 30
0.0
 11
96.26125399999999
 21
208.7435759999999
 31
0.0
  0
LINE
  5
30B
330
247
100
AcDbEntity
  8
1
  6
Continuous
100
AcDbLine
 10
109.26126
 20
188.2435759999999
 30
0.0
 11
102.36126
 21
188.2435759999999
 31
0.0
  0
LINE
  5
30C
330
247
100
AcDbEntity
  8
1
  6
Continuous
100
AcDbLine
 10
102.36126
 20
188.2435759999999
 30
0.0
 11
102.36126
 21
189.2435759999999
 31
0.0
  0
LINE
  5
30D
330
247
100
AcDbEntity
  8
1
  6
Continuous
100
AcDbLine
 10
96.26125399999999
 20
196.42302
 30
0.0
 11
96.26125399999999
 21
208.7435759999999
 31
0.0
  0
LINE
  5
30E
330
247
100
AcDbEntity
  8
1
  6
Continuous
100
AcDbLine
 10
109.2612539999999
 20
207.1435699999999
 30
0.0
 11
96.26125399999999
 21
207.1435699999999
 31
0.0
  0
LINE
  5
30F
330
247
100
AcDbEntity
  8
4
  6
CENTER
100
AcDbLine
 10
102.3112569999998
 20
194.243576
 30
0.0
 11
95.21125000000001
 21
194.243576
 31
0.0
  0
LINE
  5
310
330
247
100
AcDbEntity
  8
4
  6
CENTER
100
AcDbLine
 10
98.76125399999999
 20
190.6935729999999
 30
0.0
 11
98.76125399999999
 21
197.793564
 31
0.0
  0
LINE
  5
311
330
247
100
AcDbEntity
  8
1
  6
Continuous
100
AcDbLine
 10
89.76125399999999
 20
189.743576
 30
0.0
 11
89.76125399999999
 21
193.7435759999999
 31
0.0
  0
LINE
  5
312
330
247
100
AcDbEntity
  8
1
  6
Continuous
100
AcDbLine
 10
98.58181000000001
 20
189.743576
 30
0.0
 11
89.76125399999999
 21
189.743576
 31
0.0
  0
LINE
  5
313
330
247
100
AcDbEntity
  8
1
  6
Continuous
100
AcDbLine
 10
96.26125399999999
 20
207.2435759999999
 30
0.0
 11
89.96125399999998
 21
207.2435759999999
 31
0.0
  0
LINE
  5
314
330
247
100
AcDbEntity
  8
1
  6
Continuous
100
AcDbLine
 10
96.26125399999999
 20
206.0435759999998
 30
0.0
 11
89.96125399999998
 21
206.0435759999998
 31
0.0
  0
LINE
  5
315
330
247
100
AcDbEntity
  8
1
  6
Continuous
100
AcDbLine
 10
88.76125399999997
 20
202.243576
 30
0.0
 11
88.76125399999997
 21
206.0435759999998
 31
0.0
  0
LINE
  5
316
330
247
100
AcDbEntity
  8
1
  6
Continuous
100
AcDbLine
 10
91.01125399999999
 20
193.7435759999999
 30
0.0
 11
89.76125399999999
 21
193.7435759999999
 31
0.0
  0
LINE
  5
317
330
247
100
AcDbEntity
  8
1
  6
Continuous
100
AcDbLine
 10
91.01125399999999
 20
202.243576
 30
0.0
 11
88.76125399999997
 21
202.243576
 31
0.0
  0
LINE
  5
318
330
247
100
AcDbEntity
  8
1
  6
Continuous
100
AcDbLine
 10
279.2612539999999
 20
119.993531
 30
0.0
 11
279.2612539999999
 21
125.993531
 31
0.0
  0
LINE
  5
319
330
247
100
AcDbEntity
  8
1
  6
Continuous
100
AcDbLine
 10
263.261254
 20
118.4935309999999
 30
0.0
 11
263.261254
 21
119.6935279999999
 31
0.0
  0
LINE
  5
31A
330
247
100
AcDbEntity
  8
1
  6
Continuous
100
AcDbLine
 10
263.261254
 20
126.293534
 30
0.0
 11
263.261254
 21
127.493531
 31
0.0
  0
LINE
  5
31B
330
247
100
AcDbEntity
  8
1
  6
Continuous
100
AcDbLine
 10
263.6612779999999
 20
118.4935309999999
 30
0.0
 11
263.6612779999999
 21
118.243531
 31
0.0
  0
LINE
  5
31C
330
247
100
AcDbEntity
  8
1
  6
Continuous
100
AcDbLine
 10
263.6612779999999
 20
126.293534
 30
0.0
 11
263.6612779999999
 21
125.093537
 31
0.0
  0
LINE
  5
31D
330
247
100
AcDbEntity
  8
1
  6
Continuous
100
AcDbLine
 10
270.511254
 20
121.743531
 30
0.0
 11
270.011254
 21
121.743531
 31
0.0
  0
LINE
  5
31E
330
247
100
AcDbEntity
  8
1
  6
Continuous
100
AcDbLine
 10
270.511254
 20
124.243531
 30
0.0
 11
270.011254
 21
124.243531
 31
0.0
  0
LINE
  5
31F
330
247
100
AcDbEntity
  8
1
  6
Continuous
100
AcDbLine
 10
100.2612539999999
 20
123.593537
 30
0.0
 11
104.0612569999999
 21
123.593537
 31
0.0
  0
LINE
  5
320
330
247
100
AcDbEntity
  8
1
  6
Continuous
100
AcDbLine
 10
100.2612539999999
 20
122.393525
 30
0.0
 11
104.0612569999999
 21
122.393525
 31
0.0
  0
LINE
  5
321
330
247
100
AcDbEntity
  8
4
  6
CENTER
100
AcDbLine
 10
160.261254
 20
122.993531
 30
0.0
 11
192.261269
 21
122.993531
 31
0.0
  0
LINE
  5
322
330
247
100
AcDbEntity
  8
4
  6
CENTER
100
AcDbLine
 10
83.76125399999997
 20
122.993531
 30
0.0
 11
115.86126
 21
122.993531
 31
0.0
  0
LINE
  5
323
330
247
100
AcDbEntity
  8
4
  6
CENTER
100
AcDbLine
 10
284.261254
 20
122.993531
 30
0.0
 11
252.1612779999999
 21
122.993531
 31
0.0
  0
LINE
  5
324
330
247
100
AcDbEntity
  8
1
  6
Continuous
100
AcDbLine
 10
23.41988399999999
 20
125.3893439999998
 30
0.0
 11
24.30151799999999
 21
120.3893439999998
 31
0.0
  0
LINE
  5
325
330
247
100
AcDbEntity
  8
1
  6
Continuous
100
AcDbLine
 10
31.26125399999999
 20
125.993531
 30
0.0
 11
34.261254
 21
125.993531
 31
0.0
  0
LINE
  5
326
330
247
100
AcDbEntity
  8
1
  6
Continuous
100
AcDbLine
 10
31.26125399999999
 20
119.993531
 30
0.0
 11
34.261254
 21
119.993531
 31
0.0
  0
LINE
  5
327
330
247
100
AcDbEntity
  8
1
  6
Continuous
100
AcDbLine
 10
31.761254
 20
118.4935309999999
 30
0.0
 11
31.761254
 21
118.243531
 31
0.0
  0
LINE
  5
328
330
247
100
AcDbEntity
  8
1
  6
Continuous
100
AcDbLine
 10
31.761254
 20
127.7435309999999
 30
0.0
 11
31.761254
 21
127.493531
 31
0.0
  0
LINE
  5
329
330
247
100
AcDbEntity
  8
1
  6
Continuous
100
AcDbLine
 10
175.761269
 20
120.849121
 30
0.0
 11
175.8423389999999
 21
120.389328
 31
0.0
  0
LINE
  5
32A
330
247
100
AcDbEntity
  8
1
  6
Continuous
100
AcDbLine
 10
176.142479
 20
125.597718
 30
0.0
 11
177.024117
 21
120.597718
 31
0.0
  0
LINE
  5
32B
330
247
100
AcDbEntity
  8
1
  6
Continuous
100
AcDbLine
 10
176.68618
 20
125.59346
 30
0.0
 11
176.420525
 21
124.020737
 31
0.0
  0
LINE
  5
32C
330
247
100
AcDbEntity
  8
1
  6
Continuous
100
AcDbLine
 10
177.868706
 20
125.597718
 30
0.0
 11
178.7503429999999
 21
120.597718
 31
0.0
  0
LINE
  5
32D
330
247
100
AcDbEntity
  8
1
  6
Continuous
100
AcDbLine
 10
178.420281
 20
125.5943449999999
 30
0.0
 11
178.149452
 21
124.005494
 31
0.0
  0
LINE
  5
32E
330
247
100
AcDbEntity
  8
1
  6
Continuous
100
AcDbLine
 10
178.420876
 20
125.3893279999999
 30
0.0
 11
178.877632
 21
122.7988899999999
 31
0.0
  0
LINE
  5
32F
330
247
100
AcDbEntity
  8
1
  6
Continuous
100
AcDbLine
 10
176.6869429999999
 20
125.3893279999999
 30
0.0
 11
177.568566
 21
120.389328
 31
0.0
  0
LINE
  5
330
330
247
100
AcDbEntity
  8
1
  6
Continuous
100
AcDbLine
 10
177.2904889999999
 20
121.9662939999999
 30
0.0
 11
177.024834
 21
120.393586
 31
0.0
  0
LINE
  5
331
330
247
100
AcDbEntity
  8
1
  6
Continuous
100
AcDbLine
 10
179.0983349999999
 20
122.430878
 30
0.0
 11
178.750908
 21
120.392701
 31
0.0
  0
LINE
  5
332
330
247
100
AcDbEntity
  8
1
  6
Continuous
100
AcDbLine
 10
165.8612599999999
 20
123.593537
 30
0.0
 11
166.761269
 21
123.593537
 31
0.0
  0
LINE
  5
333
330
247
100
AcDbEntity
  8
1
  6
Continuous
100
AcDbLine
 10
165.8612599999999
 20
122.393525
 30
0.0
 11
166.761269
 21
122.393525
 31
0.0
  0
LINE
  5
334
330
247
100
AcDbEntity
  8
1
  6
Continuous
100
AcDbLine
 10
179.6026379999999
 20
125.597718
 30
0.0
 11
180.0594099999999
 21
123.0072789999999
 31
0.0
  0
LINE
  5
335
330
247
100
AcDbEntity
  8
4
  6
CENTER
100
AcDbLine
 10
13.761254
 20
136.4935309999999
 30
0.0
 11
19.361252
 21
136.4935309999999
 31
0.0
  0
LINE
  5
336
330
247
100
AcDbEntity
  8
4
  6
CENTER
100
AcDbLine
 10
13.761254
 20
109.493531
 30
0.0
 11
19.361252
 21
109.493531
 31
0.0
  0
LINE
  5
337
330
247
100
AcDbEntity
  8
4
  6
CENTER
100
AcDbLine
 10
183.6612629999999
 20
136.4935309999999
 30
0.0
 11
189.2612689999999
 21
136.4935309999999
 31
0.0
  0
LINE
  5
338
330
247
100
AcDbEntity
  8
4
  6
CENTER
100
AcDbLine
 10
183.6612629999999
 20
109.493531
 30
0.0
 11
189.2612689999999
 21
109.493531
 31
0.0
  0
LINE
  5
339
330
247
100
AcDbEntity
  8
4
  6
CENTER
100
AcDbLine
 10
102.761254
 20
210.7435759999999
 30
0.0
 11
102.761254
 21
205.1435699999999
 31
0.0
  0
LINE
  5
33A
330
247
100
AcDbEntity
  8
4
  6
CENTER
100
AcDbLine
 10
102.761254
 20
35.843499
 30
0.0
 11
102.761254
 21
30.243492
 31
0.0
  0
LINE
  5
33B
330
247
100
AcDbEntity
  8
1
  6
Continuous
100
AcDbLine
 10
258.761254
 20
129.343537
 30
0.0
 11
258.761254
 21
129.343537
 31
0.0
  0
LINE
  5
33C
330
247
100
AcDbEntity
  8
1
  6
Continuous
100
AcDbLine
 10
258.761254
 20
116.6435399999999
 30
0.0
 11
258.761254
 21
116.6435399999999
 31
0.0
  0
LINE
  5
33D
330
247
100
AcDbEntity
  8
1
  6
Continuous
100
AcDbLine
 10
266.375237
 20
122.924546
 30
0.0
 11
270.117516
 21
123.584412
 31
0.0
  0
LINE
  5
33E
330
247
100
AcDbEntity
  8
1
  6
Continuous
100
AcDbLine
 10
266.5836109999998
 20
121.742783
 30
0.0
 11
270.32592
 21
122.4026489999999
 31
0.0
  0
LINE
  5
33F
330
247
100
AcDbEntity
  8
1
  6
Continuous
100
AcDbLine
 10
266.83123
 20
123.593537
 30
0.0
 11
267.2837749999998
 21
123.593537
 31
0.0
  0
LINE
  5
340
330
247
100
AcDbEntity
  8
1
  6
Continuous
100
AcDbLine
 10
268.914665
 20
123.593537
 30
0.0
 11
270.221672
 21
123.593537
 31
0.0
  0
LINE
  5
341
330
247
100
AcDbEntity
  8
1
  6
Continuous
100
AcDbLine
 10
263.9198839999999
 20
123.593537
 30
0.0
 11
263.661247
 21
123.593537
 31
0.0
  0
LINE
  5
342
330
247
100
AcDbEntity
  8
1
  6
Continuous
100
AcDbLine
 10
263.9198839999999
 20
122.393525
 30
0.0
 11
263.661247
 21
122.393525
 31
0.0
  0
LINE
  5
343
330
247
100
AcDbEntity
  8
1
  6
Continuous
100
AcDbLine
 10
104.36126
 20
189.2435759999999
 30
0.0
 11
104.36126
 21
188.2435759999999
 31
0.0
  0
LINE
  5
344
330
247
100
AcDbEntity
  8
1
  6
Continuous
100
AcDbLine
 10
104.36126
 20
52.743492
 30
0.0
 11
104.36126
 21
51.74349199999999
 31
0.0
  0
LINE
  5
345
330
247
100
AcDbEntity
  8
1
  6
Continuous
100
AcDbLine
 10
28.71125
 20
116.6435249999999
 30
0.0
 11
29.01125
 21
115.4435279999999
 31
0.0
  0
LINE
  5
346
330
247
100
AcDbEntity
  8
1
  6
Continuous
100
AcDbLine
 10
31.51125399999999
 20
115.4435279999999
 30
0.0
 11
31.81125300000001
 21
116.6435249999999
 31
0.0
  0
LINE
  5
347
330
247
100
AcDbEntity
  8
1
  6
Continuous
100
AcDbLine
 10
29.01125
 20
130.543518
 30
0.0
 11
28.71125
 21
129.343537
 31
0.0
  0
LINE
  5
348
330
247
100
AcDbEntity
  8
1
  6
Continuous
100
AcDbLine
 10
31.51125
 20
130.543518
 30
0.0
 11
31.811249
 21
129.343537
 31
0.0
  0
LINE
  5
349
330
247
100
AcDbEntity
  8
1
  6
Continuous
100
AcDbLine
 10
97.21125
 20
116.6435249999999
 30
0.0
 11
97.51125399999999
 21
115.4435279999999
 31
0.0
  0
LINE
  5
34A
330
247
100
AcDbEntity
  8
1
  6
Continuous
100
AcDbLine
 10
100.0112539999999
 20
115.4435279999999
 30
0.0
 11
100.311257
 21
116.6435249999999
 31
0.0
  0
LINE
  5
34B
330
247
100
AcDbEntity
  8
1
  6
Continuous
100
AcDbLine
 10
97.51125399999999
 20
130.543534
 30
0.0
 11
97.21125
 21
129.343537
 31
0.0
  0
LINE
  5
34C
330
247
100
AcDbEntity
  8
1
  6
Continuous
100
AcDbLine
 10
100.0112539999999
 20
130.543518
 30
0.0
 11
100.311257
 21
129.343521
 31
0.0
  0
LINE
  5
34D
330
247
100
AcDbEntity
  8
1
  6
Continuous
100
AcDbLine
 10
171.5112539999998
 20
130.543534
 30
0.0
 11
171.21125
 21
129.343521
 31
0.0
  0
LINE
  5
34E
330
247
100
AcDbEntity
  8
1
  6
Continuous
100
AcDbLine
 10
174.011269
 20
130.543534
 30
0.0
 11
174.311272
 21
129.343537
 31
0.0
  0
LINE
  5
34F
330
247
100
AcDbEntity
  8
1
  6
Continuous
100
AcDbLine
 10
171.211266
 20
116.6435399999999
 30
0.0
 11
171.5112689999999
 21
115.4435279999999
 31
0.0
  0
LINE
  5
350
330
247
100
AcDbEntity
  8
1
  6
Continuous
100
AcDbLine
 10
174.011269
 20
115.4435279999999
 30
0.0
 11
174.311272
 21
116.6435399999999
 31
0.0
  0
LINE
  5
351
330
247
100
AcDbEntity
  8
1
  6
Continuous
100
AcDbLine
 10
171.5112689999999
 20
115.4435279999999
 30
0.0
 11
174.011269
 21
115.4435279999999
 31
0.0
  0
LINE
  5
352
330
247
100
AcDbEntity
  8
1
  6
Continuous
100
AcDbLine
 10
171.5112689999999
 20
130.543518
 30
0.0
 11
174.011269
 21
130.543518
 31
0.0
  0
LINE
  5
353
330
247
100
AcDbEntity
  8
1
  6
Continuous
100
AcDbLine
 10
429.9741749999998
 20
135.4935309999999
 30
0.0
 11
429.9741749999998
 21
110.493531
 31
0.0
  0
LINE
  5
354
330
247
100
AcDbEntity
  8
1
  6
Continuous
100
AcDbLine
 10
448.974175
 20
135.4935309999999
 30
0.0
 11
448.974175
 21
110.493531
 31
0.0
  0
LINE
  5
355
330
247
100
AcDbEntity
  8
4
  6
CENTER
100
AcDbLine
 10
424.974175
 20
122.993531
 30
0.0
 11
453.974175
 21
122.993531
 31
0.0
  0
LINE
  5
356
330
247
100
AcDbEntity
  8
1
  6
Continuous
100
AcDbLine
 10
429.9741749999998
 20
135.4935309999999
 30
0.0
 11
448.974175
 21
135.4935309999999
 31
0.0
  0
LINE
  5
357
330
247
100
AcDbEntity
  8
1
  6
Continuous
100
AcDbLine
 10
429.9741749999998
 20
110.493531
 30
0.0
 11
448.974175
 21
110.493531
 31
0.0
  0
LINE
  5
358
330
247
100
AcDbEntity
  8
1
  6
Continuous
100
AcDbLine
 10
431.5741809999998
 20
135.4935309999999
 30
0.0
 11
431.5741809999998
 21
110.493531
 31
0.0
  0
LINE
  5
359
330
247
100
AcDbEntity
  8
1
  6
Continuous
100
AcDbLine
 10
441.474175
 20
135.4935309999999
 30
0.0
 11
441.474175
 21
110.493531
 31
0.0
  0
LINE
  5
35A
330
247
100
AcDbEntity
  8
1
  6
Continuous
100
AcDbLine
 10
431.5741809999998
 20
120.4935309999999
 30
0.0
 11
434.4741749999998
 21
120.4935309999999
 31
0.0
  0
LINE
  5
35B
330
247
100
AcDbEntity
  8
1
  6
Continuous
100
AcDbLine
 10
431.5741809999998
 20
125.493531
 30
0.0
 11
434.4741749999998
 21
125.493531
 31
0.0
  0
LINE
  5
35C
330
247
100
AcDbEntity
  8
1
  6
Continuous
100
AcDbLine
 10
429.9741749999998
 20
58.743531
 30
0.0
 11
429.9741749999998
 21
42.843529
 31
0.0
  0
LINE
  5
35D
330
247
100
AcDbEntity
  8
1
  6
Continuous
100
AcDbLine
 10
429.9741749999998
 20
58.743531
 30
0.0
 11
431.5741809999998
 21
58.743531
 31
0.0
  0
LINE
  5
35E
330
247
100
AcDbEntity
  8
1
  6
Continuous
100
AcDbLine
 10
431.5741809999998
 20
41.24353099999999
 30
0.0
 11
441.3511889999998
 21
41.24353099999999
 31
0.0
  0
LINE
  5
35F
330
247
100
AcDbEntity
  8
1
  6
Continuous
100
AcDbLine
 10
431.5741809999998
 20
58.743531
 30
0.0
 11
431.5741809999998
 21
42.843529
 31
0.0
  0
LINE
  5
360
330
247
100
AcDbEntity
  8
1
  6
Continuous
100
AcDbLine
 10
441.4556199999998
 20
42.945183
 30
0.0
 11
443.0495529999998
 21
42.80573299999999
 31
0.0
  0
LINE
  5
361
330
247
100
AcDbEntity
  8
1
  6
Continuous
100
AcDbLine
 10
431.5741809999998
 20
42.843529
 30
0.0
 11
441.3511889999998
 21
42.843529
 31
0.0
  0
LINE
  5
362
330
247
100
AcDbEntity
  8
1
  6
Continuous
100
AcDbLine
 10
441.4884569999999
 20
43.320366
 30
0.0
 11
441.4556199999998
 21
42.945183
 31
0.0
  0
LINE
  5
363
330
247
100
AcDbEntity
  8
1
  6
Continuous
100
AcDbLine
 10
443.082359
 20
43.18092
 30
0.0
 11
443.0495529999998
 21
42.80573299999999
 31
0.0
  0
LINE
  5
364
330
247
100
AcDbEntity
  8
1
  6
Continuous
100
AcDbLine
 10
509.4742049999998
 20
135.4935309999999
 30
0.0
 11
528.974205
 21
135.4935309999999
 31
0.0
  0
LINE
  5
365
330
247
100
AcDbEntity
  8
1
  6
Continuous
100
AcDbLine
 10
509.4742049999998
 20
110.493531
 30
0.0
 11
528.974205
 21
110.493531
 31
0.0
  0
LINE
  5
366
330
247
100
AcDbEntity
  8
1
  6
Continuous
100
AcDbLine
 10
509.4742049999998
 20
135.4935309999999
 30
0.0
 11
509.4742049999998
 21
110.493531
 31
0.0
  0
LINE
  5
367
330
247
100
AcDbEntity
  8
1
  6
Continuous
100
AcDbLine
 10
528.974205
 20
135.4935309999999
 30
0.0
 11
528.974205
 21
110.493531
 31
0.0
  0
LINE
  5
368
330
247
100
AcDbEntity
  8
1
  6
Continuous
100
AcDbLine
 10
521.4742049999999
 20
135.4935309999999
 30
0.0
 11
521.4742049999999
 21
110.493531
 31
0.0
  0
LINE
  5
369
330
247
100
AcDbEntity
  8
4
  6
CENTER
100
AcDbLine
 10
504.4742049999999
 20
122.993531
 30
0.0
 11
533.9742049999999
 21
122.993531
 31
0.0
  0
LINE
  5
36A
330
247
100
AcDbEntity
  8
4
  6
CENTER
100
AcDbLine
 10
510.4742049999998
 20
129.343537
 30
0.0
 11
522.4742049999998
 21
129.343537
 31
0.0
  0
LINE
  5
36B
330
247
100
AcDbEntity
  8
4
  6
CENTER
100
AcDbLine
 10
510.4742049999998
 20
116.6435249999999
 30
0.0
 11
522.4742049999998
 21
116.6435249999999
 31
0.0
  0
LINE
  5
36C
330
247
100
AcDbEntity
  8
1
  6
Continuous
100
AcDbLine
 10
515.2242049999999
 20
119.393525
 30
0.0
 11
517.724205
 21
119.393525
 31
0.0
  0
LINE
  5
36D
330
247
100
AcDbEntity
  8
1
  6
Continuous
100
AcDbLine
 10
515.2242049999999
 20
113.893525
 30
0.0
 11
517.724205
 21
113.893525
 31
0.0
  0
LINE
  5
36E
330
247
100
AcDbEntity
  8
1
  6
Continuous
100
AcDbLine
 10
515.2242049999999
 20
132.0935369999999
 30
0.0
 11
517.724205
 21
132.0935369999999
 31
0.0
  0
LINE
  5
36F
330
247
100
AcDbEntity
  8
1
  6
Continuous
100
AcDbLine
 10
515.2242049999999
 20
126.593537
 30
0.0
 11
517.724205
 21
126.593537
 31
0.0
  0
LINE
  5
370
330
247
100
AcDbEntity
  8
4
  6
CENTER
100
AcDbLine
 10
445.2241749999997
 20
48.743531
 30
0.0
 11
445.2241749999997
 21
37.243531
 31
0.0
  0
LINE
  5
371
330
247
100
AcDbEntity
  8
4
  6
CENTER
100
AcDbLine
 10
439.474175
 20
42.993531
 30
0.0
 11
450.9741749999998
 21
42.993531
 31
0.0
  0
LINE
  5
372
330
247
100
AcDbEntity
  8
4
  6
CENTER
100
AcDbLine
 10
445.2241749999997
 20
140.4935309999999
 30
0.0
 11
445.2241749999997
 21
105.493531
 31
0.0
  0
LINE
  5
373
330
247
100
AcDbEntity
  8
4
  6
CENTER
100
AcDbLine
 10
525.2242049999998
 20
140.4935309999999
 30
0.0
 11
525.2242049999998
 21
105.493531
 31
0.0
  0
LINE
  5
374
330
247
100
AcDbEntity
  8
4
  6
CENTER
100
AcDbLine
 10
515.2242049999999
 20
121.393525
 30
0.0
 11
515.2242049999999
 21
111.893525
 31
0.0
  0
LINE
  5
375
330
247
100
AcDbEntity
  8
4
  6
CENTER
100
AcDbLine
 10
517.724205
 20
121.393525
 30
0.0
 11
517.724205
 21
111.893525
 31
0.0
  0
LINE
  5
376
330
247
100
AcDbEntity
  8
4
  6
CENTER
100
AcDbLine
 10
517.724205
 20
134.0935369999999
 30
0.0
 11
517.724205
 21
124.593537
 31
0.0
  0
LINE
  5
377
330
247
100
AcDbEntity
  8
4
  6
CENTER
100
AcDbLine
 10
515.2242049999999
 20
134.0935369999999
 30
0.0
 11
515.2242049999999
 21
124.593537
 31
0.0
  0
LINE
  5
378
330
247
100
AcDbEntity
  8
4
  6
CENTER
100
AcDbLine
 10
427.974175
 20
129.343537
 30
0.0
 11
433.574181
 21
129.343537
 31
0.0
  0
LINE
  5
379
330
247
100
AcDbEntity
  8
4
  6
CENTER
100
AcDbLine
 10
427.974175
 20
116.6435249999999
 30
0.0
 11
433.574181
 21
116.6435249999999
 31
0.0
  0
LINE
  5
37A
330
247
100
AcDbEntity
  8
4
  6
CENTER
100
AcDbLine
 10
427.974175
 20
52.99353100000001
 30
0.0
 11
433.574181
 21
52.99353100000001
 31
0.0
  0
LINE
  5
37B
330
247
100
AcDbEntity
  8
4
  6
CENTER
100
AcDbLine
 10
427.974175
 20
50.493531
 30
0.0
 11
433.574181
 21
50.493531
 31
0.0
  0
LINE
  5
37C
330
247
100
AcDbEntity
  8
1
  6
Continuous
100
AcDbLine
 10
431.5741809999998
 20
45.74353099999998
 30
0.0
 11
431.5741809999998
 21
45.74353099999998
 31
0.0
  0
LINE
  5
37D
330
247
100
AcDbEntity
  8
1
  6
Continuous
100
AcDbLine
 10
432.5741809999998
 20
44.743531
 30
0.0
 11
432.5741809999998
 21
43.84352899999998
 31
0.0
  0
LINE
  5
37E
330
247
100
AcDbEntity
  8
1
  6
Continuous
100
AcDbLine
 10
432.5741809999998
 20
43.84352899999998
 30
0.0
 11
435.974175
 21
43.84352899999998
 31
0.0
  0
LINE
  5
37F
330
247
100
AcDbEntity
  8
1
  6
Continuous
100
AcDbLine
 10
436.974175
 20
42.843529
 30
0.0
 11
436.974175
 21
42.843529
 31
0.0
  0
LINE
  5
380
330
247
100
AcDbEntity
  8
1
  6
Continuous
100
AcDbLine
 10
431.8741989999998
 20
43.14353599999999
 30
0.0
 11
432.5741809999998
 21
43.843521
 31
0.0
  0
LINE
  5
381
330
247
100
AcDbEntity
  8
1
  6
Continuous
100
AcDbLine
 10
375.9741749999998
 20
135.4935309999999
 30
0.0
 11
356.474175
 21
135.4935309999999
 31
0.0
  0
LINE
  5
382
330
247
100
AcDbEntity
  8
1
  6
Continuous
100
AcDbLine
 10
375.9741749999998
 20
110.493531
 30
0.0
 11
356.474175
 21
110.493531
 31
0.0
  0
LINE
  5
383
330
247
100
AcDbEntity
  8
1
  6
Continuous
100
AcDbLine
 10
375.9741749999998
 20
135.4935309999999
 30
0.0
 11
375.9741749999998
 21
110.493531
 31
0.0
  0
LINE
  5
384
330
247
100
AcDbEntity
  8
1
  6
Continuous
100
AcDbLine
 10
356.474175
 20
135.4935309999999
 30
0.0
 11
356.474175
 21
110.493531
 31
0.0
  0
LINE
  5
385
330
247
100
AcDbEntity
  8
4
  6
CENTER
100
AcDbLine
 10
380.974175
 20
122.993531
 30
0.0
 11
351.474175
 21
122.993531
 31
0.0
  0
LINE
  5
386
330
247
100
AcDbEntity
  8
4
  6
CENTER
100
AcDbLine
 10
374.974175
 20
129.343537
 30
0.0
 11
362.9741749999998
 21
129.343537
 31
0.0
  0
LINE
  5
387
330
247
100
AcDbEntity
  8
4
  6
CENTER
100
AcDbLine
 10
374.974175
 20
116.6435249999999
 30
0.0
 11
362.9741749999998
 21
116.6435249999999
 31
0.0
  0
LINE
  5
388
330
247
100
AcDbEntity
  8
1
  6
Continuous
100
AcDbLine
 10
370.224175
 20
119.393525
 30
0.0
 11
367.724175
 21
119.393525
 31
0.0
  0
LINE
  5
389
330
247
100
AcDbEntity
  8
1
  6
Continuous
100
AcDbLine
 10
370.224175
 20
113.893525
 30
0.0
 11
367.724175
 21
113.893525
 31
0.0
  0
LINE
  5
38A
330
247
100
AcDbEntity
  8
1
  6
Continuous
100
AcDbLine
 10
370.224175
 20
132.0935369999999
 30
0.0
 11
367.724175
 21
132.0935369999999
 31
0.0
  0
LINE
  5
38B
330
247
100
AcDbEntity
  8
1
  6
Continuous
100
AcDbLine
 10
370.224175
 20
126.593537
 30
0.0
 11
367.724175
 21
126.593537
 31
0.0
  0
LINE
  5
38C
330
247
100
AcDbEntity
  8
4
  6
CENTER
100
AcDbLine
 10
360.224175
 20
140.4935309999999
 30
0.0
 11
360.224175
 21
105.493531
 31
0.0
  0
LINE
  5
38D
330
247
100
AcDbEntity
  8
4
  6
CENTER
100
AcDbLine
 10
370.224175
 20
121.393525
 30
0.0
 11
370.224175
 21
111.893525
 31
0.0
  0
LINE
  5
38E
330
247
100
AcDbEntity
  8
4
  6
CENTER
100
AcDbLine
 10
367.724175
 20
121.393525
 30
0.0
 11
367.724175
 21
111.893525
 31
0.0
  0
LINE
  5
38F
330
247
100
AcDbEntity
  8
4
  6
CENTER
100
AcDbLine
 10
367.724175
 20
134.0935369999999
 30
0.0
 11
367.724175
 21
124.593537
 31
0.0
  0
LINE
  5
390
330
247
100
AcDbEntity
  8
4
  6
CENTER
100
AcDbLine
 10
370.224175
 20
134.0935369999999
 30
0.0
 11
370.224175
 21
124.593537
 31
0.0
  0
LINE
  5
391
330
247
100
AcDbEntity
  8
1
  6
Continuous
100
AcDbLine
 10
358.474175
 20
135.4935309999999
 30
0.0
 11
358.474175
 21
110.493531
 31
0.0
  0
LINE
  5
392
330
247
100
AcDbEntity
  8
1
  6
Continuous
100
AcDbLine
 10
360.474175
 20
120.4935309999999
 30
0.0
 11
359.474175
 21
120.4935309999999
 31
0.0
  0
LINE
  5
393
330
247
100
AcDbEntity
  8
1
  6
Continuous
100
AcDbLine
 10
360.474175
 20
125.493531
 30
0.0
 11
359.474175
 21
125.493531
 31
0.0
  0
LINE
  5
394
330
247
100
AcDbEntity
  8
1
  6
Continuous
100
AcDbLine
 10
359.474175
 20
125.493531
 30
0.0
 11
359.474175
 21
120.4935309999999
 31
0.0
  0
LINE
  5
395
330
247
100
AcDbEntity
  8
1
  6
Continuous
100
AcDbLine
 10
605.4742049999997
 20
135.4935309999999
 30
0.0
 11
605.4742049999997
 21
110.493531
 31
0.0
  0
LINE
  5
396
330
247
100
AcDbEntity
  8
1
  6
Continuous
100
AcDbLine
 10
586.474205
 20
135.4935309999999
 30
0.0
 11
586.474205
 21
110.493531
 31
0.0
  0
LINE
  5
397
330
247
100
AcDbEntity
  8
4
  6
CENTER
100
AcDbLine
 10
610.4742049999997
 20
122.993531
 30
0.0
 11
581.4742049999997
 21
122.993531
 31
0.0
  0
LINE
  5
398
330
247
100
AcDbEntity
  8
1
  6
Continuous
100
AcDbLine
 10
605.4742049999997
 20
135.4935309999999
 30
0.0
 11
586.474205
 21
135.4935309999999
 31
0.0
  0
LINE
  5
399
330
247
100
AcDbEntity
  8
1
  6
Continuous
100
AcDbLine
 10
605.4742049999997
 20
110.493531
 30
0.0
 11
586.474205
 21
110.493531
 31
0.0
  0
LINE
  5
39A
330
247
100
AcDbEntity
  8
1
  6
Continuous
100
AcDbLine
 10
593.9742049999997
 20
135.4935309999999
 30
0.0
 11
593.9742049999997
 21
110.493531
 31
0.0
  0
LINE
  5
39B
330
247
100
AcDbEntity
  8
1
  6
Continuous
100
AcDbLine
 10
604.4742049999999
 20
120.4935309999999
 30
0.0
 11
600.9742049999998
 21
120.4935309999999
 31
0.0
  0
LINE
  5
39C
330
247
100
AcDbEntity
  8
1
  6
Continuous
100
AcDbLine
 10
604.4742049999999
 20
125.493531
 30
0.0
 11
600.9742049999998
 21
125.493531
 31
0.0
  0
LINE
  5
39D
330
247
100
AcDbEntity
  8
4
  6
CENTER
100
AcDbLine
 10
590.2242049999999
 20
140.4935309999999
 30
0.0
 11
590.2242049999999
 21
105.493531
 31
0.0
  0
LINE
  5
39E
330
247
100
AcDbEntity
  8
4
  6
CENTER
100
AcDbLine
 10
607.474205
 20
129.343537
 30
0.0
 11
601.8741690000001
 21
129.343537
 31
0.0
  0
LINE
  5
39F
330
247
100
AcDbEntity
  8
4
  6
CENTER
100
AcDbLine
 10
607.474205
 20
116.6435249999999
 30
0.0
 11
601.8741690000001
 21
116.6435249999999
 31
0.0
  0
LINE
  5
3A0
330
247
100
AcDbEntity
  8
1
  6
Continuous
100
AcDbLine
 10
604.4742049999999
 20
125.493531
 30
0.0
 11
604.4742049999999
 21
120.4935309999999
 31
0.0
  0
LINE
  5
3A1
330
247
100
AcDbEntity
  8
1
  6
Continuous
100
AcDbLine
 10
429.9741749999998
 20
182.2435309999999
 30
0.0
 11
429.9741749999998
 21
198.143525
 31
0.0
  0
LINE
  5
3A2
330
247
100
AcDbEntity
  8
1
  6
Continuous
100
AcDbLine
 10
429.9741749999998
 20
182.2435309999999
 30
0.0
 11
431.5741809999998
 21
182.2435309999999
 31
0.0
  0
LINE
  5
3A3
330
247
100
AcDbEntity
  8
1
  6
Continuous
100
AcDbLine
 10
431.5741809999998
 20
199.743531
 30
0.0
 11
441.3511889999998
 21
199.743531
 31
0.0
  0
LINE
  5
3A4
330
247
100
AcDbEntity
  8
1
  6
Continuous
100
AcDbLine
 10
431.5741809999998
 20
182.2435309999999
 30
0.0
 11
431.5741809999998
 21
198.143525
 31
0.0
  0
LINE
  5
3A5
330
247
100
AcDbEntity
  8
1
  6
Continuous
100
AcDbLine
 10
441.4556199999998
 20
198.041886
 30
0.0
 11
443.049523
 21
198.181321
 31
0.0
  0
LINE
  5
3A6
330
247
100
AcDbEntity
  8
1
  6
Continuous
100
AcDbLine
 10
431.5741809999998
 20
198.143525
 30
0.0
 11
441.3511889999998
 21
198.143525
 31
0.0
  0
LINE
  5
3A7
330
247
100
AcDbEntity
  8
1
  6
Continuous
100
AcDbLine
 10
441.4884569999999
 20
197.666703
 30
0.0
 11
441.4556199999998
 21
198.041886
 31
0.0
  0
LINE
  5
3A8
330
247
100
AcDbEntity
  8
1
  6
Continuous
100
AcDbLine
 10
443.082329
 20
197.8061369999998
 30
0.0
 11
443.049523
 21
198.181321
 31
0.0
  0
LINE
  5
3A9
330
247
100
AcDbEntity
  8
4
  6
CENTER
100
AcDbLine
 10
445.2241749999997
 20
192.243531
 30
0.0
 11
445.2241749999997
 21
203.7435309999999
 31
0.0
  0
LINE
  5
3AA
330
247
100
AcDbEntity
  8
4
  6
CENTER
100
AcDbLine
 10
439.474175
 20
197.9935309999999
 30
0.0
 11
450.9741749999998
 21
197.9935309999999
 31
0.0
  0
LINE
  5
3AB
330
247
100
AcDbEntity
  8
4
  6
CENTER
100
AcDbLine
 10
427.974175
 20
187.993531
 30
0.0
 11
433.574181
 21
187.993531
 31
0.0
  0
LINE
  5
3AC
330
247
100
AcDbEntity
  8
4
  6
CENTER
100
AcDbLine
 10
427.974175
 20
190.4935309999999
 30
0.0
 11
433.574181
 21
190.4935309999999
 31
0.0
  0
LINE
  5
3AD
330
247
100
AcDbEntity
  8
1
  6
Continuous
100
AcDbLine
 10
431.5741809999998
 20
195.243531
 30
0.0
 11
431.5741809999998
 21
195.243531
 31
0.0
  0
LINE
  5
3AE
330
247
100
AcDbEntity
  8
1
  6
Continuous
100
AcDbLine
 10
432.5741809999998
 20
196.243531
 30
0.0
 11
432.5741809999998
 21
197.143525
 31
0.0
  0
LINE
  5
3AF
330
247
100
AcDbEntity
  8
1
  6
Continuous
100
AcDbLine
 10
432.5741809999998
 20
197.143525
 30
0.0
 11
435.974175
 21
197.143525
 31
0.0
  0
LINE
  5
3B0
330
247
100
AcDbEntity
  8
1
  6
Continuous
100
AcDbLine
 10
436.974175
 20
198.143525
 30
0.0
 11
436.974175
 21
198.143525
 31
0.0
  0
LINE
  5
3B1
330
247
100
AcDbEntity
  8
1
  6
Continuous
100
AcDbLine
 10
431.8741989999998
 20
197.8435519999999
 30
0.0
 11
432.5741809999998
 21
197.1435549999999
 31
0.0
  0
LINE
  5
3B2
330
247
100
AcDbEntity
  8
4
  6
CENTER
100
AcDbLine
 10
26.51125399999999
 20
129.4935309999999
 30
0.0
 11
26.51125399999999
 21
116.493531
 31
0.0
  0
LINE
  5
3B3
330
247
100
AcDbEntity
  8
4
  6
CENTER
100
AcDbLine
 10
176.511269
 20
129.4935309999999
 30
0.0
 11
176.511269
 21
116.493531
 31
0.0
  0
LINE
  5
3B4
330
247
100
AcDbEntity
  8
4
  6
CENTER
100
AcDbLine
 10
91.51125399999999
 20
209.2435759999999
 30
0.0
 11
91.51125399999999
 21
187.743576
 31
0.0
  0
LINE
  5
3B5
330
247
100
AcDbEntity
  8
4
  6
CENTER
100
AcDbLine
 10
91.51125399999999
 20
129.4935309999999
 30
0.0
 11
91.51125399999999
 21
116.493531
 31
0.0
  0
LINE
  5
3B6
330
247
100
AcDbEntity
  8
4
  6
CENTER
100
AcDbLine
 10
91.51125399999999
 20
53.243492
 30
0.0
 11
91.51125399999999
 21
31.74349199999999
 31
0.0
  0
LINE
  5
3B7
330
247
100
AcDbEntity
  8
4
  6
CENTER
100
AcDbLine
 10
276.511254
 20
116.493531
 30
0.0
 11
276.511254
 21
129.4935309999999
 31
0.0
  0
LINE
  5
3B8
330
247
100
AcDbEntity
  8
4
  6
CENTER
100
AcDbLine
 10
85.76125399999998
 20
197.993576
 30
0.0
 11
97.261254
 21
197.993576
 31
0.0
  0
LINE
  5
3B9
330
247
100
AcDbEntity
  8
4
  6
CENTER
100
AcDbLine
 10
85.76125399999998
 20
42.99349199999999
 30
0.0
 11
97.261254
 21
42.99349199999999
 31
0.0
  0
ARC
  5
3BA
330
247
100
AcDbEntity
  8
1
  6
Continuous
100
AcDbCircle
 10
102.761254
 20
136.7435309999999
 30
0.0
 40
6.5
100
AcDbArc
 50
0.000003
 51
180.000005
  0
ARC
  5
3BB
330
247
100
AcDbEntity
  8
1
  6
Continuous
100
AcDbCircle
 10
102.761254
 20
109.243531
 30
0.0
 40
6.5
100
AcDbArc
 50
180.000009
 51
0.000003
  0
CIRCLE
  5
3BC
330
247
100
AcDbEntity
  8
1
  6
Continuous
100
AcDbCircle
 10
102.761254
 20
136.4935309999999
 30
0.0
 40
1.75
  0
CIRCLE
  5
3BD
330
247
100
AcDbEntity
  8
1
  6
Continuous
100
AcDbCircle
 10
102.761254
 20
109.493531
 30
0.0
 40
1.75
  0
ARC
  5
3BE
330
247
100
AcDbEntity
  8
1
  6
Continuous
100
AcDbCircle
 10
104.86126
 20
122.993531
 30
0.0
 40
0.9
100
AcDbArc
 50
269.9999969999999
 51
90.00000300000001
  0
ARC
  5
3BF
330
247
100
AcDbEntity
  8
1
  6
Continuous
100
AcDbCircle
 10
30.938805
 20
125.493531
 30
0.0
 40
0.6
100
AcDbArc
 50
107.2126389999999
 51
170.3262989999998
  0
ARC
  5
3C0
330
247
100
AcDbEntity
  8
1
  6
Continuous
100
AcDbCircle
 10
29.204865
 20
125.493531
 30
0.0
 40
0.6
100
AcDbArc
 50
10.000001
 51
170.3262989999998
  0
ARC
  5
3C1
330
247
100
AcDbEntity
  8
1
  6
Continuous
100
AcDbCircle
 10
27.470925
 20
125.493531
 30
0.0
 40
0.6
100
AcDbArc
 50
10.000001
 51
170.3262989999998
  0
ARC
  5
3C2
330
247
100
AcDbEntity
  8
1
  6
Continuous
100
AcDbCircle
 10
25.736984
 20
125.493531
 30
0.0
 40
0.6
100
AcDbArc
 50
0.000003
 51
170.412223
  0
ARC
  5
3C3
330
247
100
AcDbEntity
  8
1
  6
Continuous
100
AcDbCircle
 10
30.08650199999999
 20
120.4935309999999
 30
0.0
 40
0.6
100
AcDbArc
 50
190.000007
 51
350.3263029999998
  0
ARC
  5
3C4
330
247
100
AcDbEntity
  8
1
  6
Continuous
100
AcDbCircle
 10
28.35256199999999
 20
120.4935309999999
 30
0.0
 40
0.6
100
AcDbArc
 50
190.000007
 51
350.3263029999998
  0
ARC
  5
3C5
330
247
100
AcDbEntity
  8
1
  6
Continuous
100
AcDbCircle
 10
26.61862199999999
 20
120.4935309999999
 30
0.0
 40
0.6
100
AcDbArc
 50
190.000007
 51
350.3263029999998
  0
ARC
  5
3C6
330
247
100
AcDbEntity
  8
1
  6
Continuous
100
AcDbCircle
 10
24.892395
 20
120.4935309999999
 30
0.0
 40
0.6
100
AcDbArc
 50
190.000007
 51
350.412214
  0
ARC
  5
3C7
330
247
100
AcDbEntity
  8
1
  6
Continuous
100
AcDbCircle
 10
265.261254
 20
136.7435309999999
 30
0.0
 40
6.5
100
AcDbArc
 50
359.999997
 51
180.000005
  0
ARC
  5
3C8
330
247
100
AcDbEntity
  8
1
  6
Continuous
100
AcDbCircle
 10
265.261254
 20
109.243531
 30
0.0
 40
6.5
100
AcDbArc
 50
180.000009
 51
0.000001
  0
CIRCLE
  5
3C9
330
247
100
AcDbEntity
  8
1
  6
Continuous
100
AcDbCircle
 10
265.261254
 20
136.4935309999999
 30
0.0
 40
1.75
  0
CIRCLE
  5
3CA
330
247
100
AcDbEntity
  8
1
  6
Continuous
100
AcDbCircle
 10
265.261254
 20
109.493531
 30
0.0
 40
1.75
  0
ARC
  5
3CB
330
247
100
AcDbEntity
  8
1
  6
Continuous
100
AcDbCircle
 10
263.1612469999998
 20
122.993531
 30
0.0
 40
0.9
100
AcDbArc
 50
89.99999599999998
 51
270.000001
  0
ARC
  5
3CC
330
247
100
AcDbEntity
  8
1
  6
Continuous
100
AcDbCircle
 10
263.911247
 20
122.993531
 30
0.0
 40
3.25
100
AcDbArc
 50
112.619861
 51
247.380135
  0
ARC
  5
3CD
330
247
100
AcDbEntity
  8
1
  6
Continuous
100
AcDbCircle
 10
86.06125699999996
 20
122.993531
 30
0.0
 40
5.7
100
AcDbArc
 50
329.999968
 51
29.99995
  0
ARC
  5
3CE
330
247
100
AcDbEntity
  8
1
  6
Continuous
100
AcDbCircle
 10
91.257408
 20
119.993531
 30
0.0
 40
0.3
100
AcDbArc
 50
149.99997
 51
270.000001
  0
ARC
  5
3CF
330
247
100
AcDbEntity
  8
1
  6
Continuous
100
AcDbCircle
 10
86.06125699999996
 20
122.993531
 30
0.0
 40
4.5
100
AcDbArc
 50
329.999968
 51
29.99995
  0
ARC
  5
3D0
330
247
100
AcDbEntity
  8
1
  6
Continuous
100
AcDbCircle
 10
91.257408
 20
119.993531
 30
0.0
 40
1.5
100
AcDbArc
 50
149.99997
 51
270.000001
  0
ARC
  5
3D1
330
247
100
AcDbEntity
  8
1
  6
Continuous
100
AcDbCircle
 10
91.257408
 20
125.993531
 30
0.0
 40
0.3
100
AcDbArc
 50
90.00000900000001
 51
209.999944
  0
ARC
  5
3D2
330
247
100
AcDbEntity
  8
1
  6
Continuous
100
AcDbCircle
 10
91.257408
 20
125.993531
 30
0.0
 40
1.5
100
AcDbArc
 50
90.00000900000001
 51
209.999944
  0
ARC
  5
3D3
330
247
100
AcDbEntity
  8
1
  6
Continuous
100
AcDbCircle
 10
104.4637529999999
 20
122.993531
 30
0.0
 40
2.1025
100
AcDbArc
 50
92.79436299999996
 51
163.4188059999999
  0
ARC
  5
3D4
330
247
100
AcDbEntity
  8
1
  6
Continuous
100
AcDbCircle
 10
103.661247
 20
122.993531
 30
0.0
 40
0.9
100
AcDbArc
 50
90.00000900000001
 51
138.189808
  0
ARC
  5
3D5
330
247
100
AcDbEntity
  8
1
  6
Continuous
100
AcDbCircle
 10
103.661247
 20
122.993531
 30
0.0
 40
0.9
100
AcDbArc
 50
221.810192
 51
269.9999969999999
  0
ARC
  5
3D6
330
247
100
AcDbEntity
  8
1
  6
Continuous
100
AcDbCircle
 10
104.4637529999999
 20
122.993531
 30
0.0
 40
2.1025
100
AcDbArc
 50
196.5811939999999
 51
267.205637
  0
ARC
  5
3D7
330
247
100
AcDbEntity
  8
1
  6
Continuous
100
AcDbCircle
 10
17.361252
 20
116.6435249999999
 30
0.0
 40
1.6
100
AcDbArc
 50
89.99999599999998
 51
179.9999909999999
  0
ARC
  5
3D8
330
247
100
AcDbEntity
  8
1
  6
Continuous
100
AcDbCircle
 10
109.2612539999999
 20
127.7435309999999
 30
0.0
 40
1.6
100
AcDbArc
 50
0.000003
 51
90.00000300000001
  0
ARC
  5
3D9
330
247
100
AcDbEntity
  8
1
  6
Continuous
100
AcDbCircle
 10
109.2612539999999
 20
118.243531
 30
0.0
 40
1.6
100
AcDbArc
 50
269.9999969999999
 51
0.000003
  0
ARC
  5
3DA
330
247
100
AcDbEntity
  8
1
  6
Continuous
100
AcDbCircle
 10
17.361252
 20
129.343537
 30
0.0
 40
1.6
100
AcDbArc
 50
179.9999909999999
 51
270.000001
  0
ARC
  5
3DB
330
247
100
AcDbEntity
  8
1
  6
Continuous
100
AcDbCircle
 10
185.6612629999999
 20
116.6435249999999
 30
0.0
 40
1.6
100
AcDbArc
 50
0.000003
 51
90.00000300000001
  0
ARC
  5
3DC
330
247
100
AcDbEntity
  8
1
  6
Continuous
100
AcDbCircle
 10
185.6612629999999
 20
129.343537
 30
0.0
 40
1.6
100
AcDbArc
 50
269.9999969999999
 51
0.000003
  0
ARC
  5
3DD
330
247
100
AcDbEntity
  8
1
  6
Continuous
100
AcDbCircle
 10
37.16125499999999
 20
122.993531
 30
0.0
 40
0.6
100
AcDbArc
 50
269.9999969999999
 51
89.99998900000001
  0
ARC
  5
3DE
330
247
100
AcDbEntity
  8
1
  6
Continuous
100
AcDbCircle
 10
100.761254
 20
46.74349199999999
 30
0.0
 40
5.0
100
AcDbArc
 50
89.99998900000001
 51
205.8419439999999
  0
CIRCLE
  5
3DF
330
247
100
AcDbEntity
  8
1
  6
Continuous
100
AcDbCircle
 10
98.76125399999999
 20
46.74349199999999
 30
0.0
 40
1.55
  0
ARC
  5
3E0
330
247
100
AcDbEntity
  8
1
  6
Continuous
100
AcDbCircle
 10
91.01125399999999
 20
42.99349199999999
 30
0.0
 40
4.25
100
AcDbArc
 50
269.9999969999999
 51
90.00000300000001
  0
ARC
  5
3E1
330
247
100
AcDbEntity
  8
1
  6
Continuous
100
AcDbCircle
 10
100.761254
 20
194.243576
 30
0.0
 40
5.0
100
AcDbArc
 50
154.1580659999999
 51
270.000001
  0
CIRCLE
  5
3E2
330
247
100
AcDbEntity
  8
1
  6
Continuous
100
AcDbCircle
 10
98.76125399999999
 20
194.243576
 30
0.0
 40
1.55
  0
ARC
  5
3E3
330
247
100
AcDbEntity
  8
1
  6
Continuous
100
AcDbCircle
 10
91.01125399999999
 20
197.993576
 30
0.0
 40
4.25
100
AcDbArc
 50
269.9999969999999
 51
90.00000300000001
  0
ARC
  5
3E4
330
247
100
AcDbEntity
  8
1
  6
Continuous
100
AcDbCircle
 10
270.011254
 20
122.993531
 30
0.0
 40
1.25
100
AcDbArc
 50
90.00000300000001
 51
163.2071789999999
  0
ARC
  5
3E5
330
247
100
AcDbEntity
  8
1
  6
Continuous
100
AcDbCircle
 10
270.511254
 20
122.993531
 30
0.0
 40
1.25
100
AcDbArc
 50
270.0000039999998
 51
90.00000300000001
  0
ARC
  5
3E6
330
247
100
AcDbEntity
  8
1
  6
Continuous
100
AcDbCircle
 10
92.76125399999999
 20
122.993531
 30
0.0
 40
8.0
100
AcDbArc
 50
335.637994
 51
337.2858129999999
  0
ARC
  5
3E7
330
247
100
AcDbEntity
  8
1
  6
Continuous
100
AcDbCircle
 10
92.76125399999999
 20
122.993531
 30
0.0
 40
8.0
100
AcDbArc
 50
4.301211
 51
12.014494
  0
ARC
  5
3E8
330
247
100
AcDbEntity
  8
1
  6
Continuous
100
AcDbCircle
 10
95.78902499999999
 20
122.666825
 30
0.0
 40
2.299999999999998
100
AcDbArc
 50
325.0733629999999
 51
325.269922
  0
ARC
  5
3E9
330
247
100
AcDbEntity
  8
1
  6
Continuous
100
AcDbCircle
 10
104.0612569999999
 20
122.993531
 30
0.0
 40
0.6
100
AcDbArc
 50
269.9999969999999
 51
90.00000300000001
  0
ARC
  5
3EA
330
247
100
AcDbEntity
  8
1
  6
Continuous
100
AcDbCircle
 10
275.261254
 20
122.993531
 30
0.0
 40
8.0
100
AcDbArc
 50
145.7711399999998
 51
179.3744959999999
  0
ARC
  5
3EB
330
247
100
AcDbEntity
  8
1
  6
Continuous
100
AcDbCircle
 10
270.011254
 20
122.993531
 30
0.0
 40
1.25
100
AcDbArc
 50
220.6126819999999
 51
270.0000039999998
  0
ARC
  5
3EC
330
247
100
AcDbEntity
  8
1
  6
Continuous
100
AcDbCircle
 10
263.5587389999999
 20
122.993531
 30
0.0
 40
2.1025
100
AcDbArc
 50
272.7945969999999
 51
296.515721
  0
ARC
  5
3ED
330
247
100
AcDbEntity
  8
1
  6
Continuous
100
AcDbCircle
 10
275.261254
 20
122.993531
 30
0.0
 40
8.0
100
AcDbArc
 50
188.0292649999999
 51
214.2288599999999
  0
ARC
  5
3EE
330
247
100
AcDbEntity
  8
1
  6
Continuous
100
AcDbCircle
 10
97.50081600000001
 20
122.993531
 30
0.0
 40
0.5999979999999999
100
AcDbArc
 50
114.8121469999999
 51
245.1878629999999
  0
ARC
  5
3EF
330
247
100
AcDbEntity
  8
1
  6
Continuous
100
AcDbCircle
 10
101.500816
 20
122.993531
 30
0.0
 40
1.9
100
AcDbArc
 50
18.408432
 51
24.550176
  0
ARC
  5
3F0
330
247
100
AcDbEntity
  8
1
  6
Continuous
100
AcDbCircle
 10
100.30082
 20
122.993531
 30
0.0
 40
3.1
100
AcDbArc
 50
87.22654300000002
 51
272.7734669999999
  0
ARC
  5
3F1
330
247
100
AcDbEntity
  8
1
  6
Continuous
100
AcDbCircle
 10
101.500816
 20
122.993531
 30
0.0
 40
3.1
100
AcDbArc
 50
41.05090899999999
 51
318.9490979999998
  0
ARC
  5
3F2
330
247
100
AcDbEntity
  8
1
  6
Continuous
100
AcDbCircle
 10
101.2008129999999
 20
122.993531
 30
0.0
 40
3.1
100
AcDbArc
 50
87.22654300000002
 51
272.7734669999999
  0
ARC
  5
3F3
330
247
100
AcDbEntity
  8
1
  6
Continuous
100
AcDbCircle
 10
100.9008099999998
 20
122.993531
 30
0.0
 40
3.1
100
AcDbArc
 50
87.22654300000002
 51
272.7734669999999
  0
ARC
  5
3F4
330
247
100
AcDbEntity
  8
1
  6
Continuous
100
AcDbCircle
 10
100.6008229999999
 20
122.993531
 30
0.0
 40
3.1
100
AcDbArc
 50
87.22654300000002
 51
272.7734669999999
  0
ARC
  5
3F5
330
247
100
AcDbEntity
  8
1
  6
Continuous
100
AcDbCircle
 10
92.76125399999999
 20
122.993531
 30
0.0
 40
8.0
100
AcDbArc
 50
22.71418699999999
 51
24.361941
  0
ARC
  5
3F6
330
247
100
AcDbEntity
  8
1
  6
Continuous
100
AcDbCircle
 10
92.76125399999999
 20
122.993531
 30
0.0
 40
8.0
100
AcDbArc
 50
347.9855059999999
 51
355.6987889999998
  0
ARC
  5
3F7
330
247
100
AcDbEntity
  8
1
  6
Continuous
100
AcDbCircle
 10
97.51125399999999
 20
122.993531
 30
0.0
 40
1.25
100
AcDbArc
 50
92.18455699999999
 51
267.8154329999999
  0
ARC
  5
3F8
330
247
100
AcDbEntity
  8
1
  6
Continuous
100
AcDbCircle
 10
100.2612539999999
 20
122.993531
 30
0.0
 40
0.5999979999999999
100
AcDbArc
 50
90.00000300000001
 51
270.000001
  0
ARC
  5
3F9
330
247
100
AcDbEntity
  8
1
  6
Continuous
100
AcDbCircle
 10
101.500816
 20
122.993531
 30
0.0
 40
1.9
100
AcDbArc
 50
44.94919099999999
 51
315.050808
  0
ARC
  5
3FA
330
247
100
AcDbEntity
  8
1
  6
Continuous
100
AcDbCircle
 10
101.500816
 20
122.993531
 30
0.0
 40
3.1
100
AcDbArc
 50
343.122702
 51
354.660929
  0
ARC
  5
3FB
330
247
100
AcDbEntity
  8
1
  6
Continuous
100
AcDbCircle
 10
102.8236919999999
 20
122.093537
 30
0.0
 40
1.5
100
AcDbArc
 50
359.999883
 51
13.213459
  0
ARC
  5
3FC
330
247
100
AcDbEntity
  8
1
  6
Continuous
100
AcDbCircle
 10
101.500816
 20
122.993531
 30
0.0
 40
3.1
100
AcDbArc
 50
5.339070999999997
 51
16.877298
  0
ARC
  5
3FD
330
247
100
AcDbEntity
  8
1
  6
Continuous
100
AcDbCircle
 10
24.010765
 20
125.493531
 30
0.0
 40
0.6
100
AcDbArc
 50
10.000001
 51
190.0000029999999
  0
ARC
  5
3FE
330
247
100
AcDbEntity
  8
1
  6
Continuous
100
AcDbCircle
 10
175.551582
 20
125.493531
 30
0.0
 40
0.6
100
AcDbArc
 50
10.000001
 51
69.54543699999999
  0
ARC
  5
3FF
330
247
100
AcDbEntity
  8
1
  6
Continuous
100
AcDbCircle
 10
177.2778089999999
 20
125.493531
 30
0.0
 40
0.6
100
AcDbArc
 50
0.000003
 51
170.412223
  0
ARC
  5
400
330
247
100
AcDbEntity
  8
1
  6
Continuous
100
AcDbCircle
 10
179.011742
 20
125.493531
 30
0.0
 40
0.6
100
AcDbArc
 50
10.000001
 51
170.3262989999998
  0
ARC
  5
401
330
247
100
AcDbEntity
  8
1
  6
Continuous
100
AcDbCircle
 10
176.43322
 20
120.4935309999999
 30
0.0
 40
0.6
100
AcDbArc
 50
190.000007
 51
350.412214
  0
ARC
  5
402
330
247
100
AcDbEntity
  8
1
  6
Continuous
100
AcDbCircle
 10
178.1594469999998
 20
120.4935309999999
 30
0.0
 40
0.6
100
AcDbArc
 50
190.000007
 51
350.3263029999998
  0
ARC
  5
403
330
247
100
AcDbEntity
  8
1
  6
Continuous
100
AcDbCircle
 10
165.8612599999999
 20
122.993531
 30
0.0
 40
0.6
100
AcDbArc
 50
90.00000900000001
 51
270.000001
  0
ARC
  5
404
330
247
100
AcDbEntity
  8
1
  6
Continuous
100
AcDbCircle
 10
179.468514
 20
122.903077
 30
0.0
 40
0.6
100
AcDbArc
 50
190.000007
 51
10.000001
  0
ARC
  5
405
330
247
100
AcDbEntity
  8
1
  6
Continuous
100
AcDbCircle
 10
184.361275
 20
122.436661
 30
0.0
 40
0.6
100
AcDbArc
 50
106.136987
 51
292.3063599999998
  0
ARC
  5
406
330
247
100
AcDbEntity
  8
1
  6
Continuous
100
AcDbCircle
 10
182.804833
 20
127.81601
 30
0.0
 40
5.0
100
AcDbArc
 50
286.136989
 51
309.018102
  0
ARC
  5
407
330
247
100
AcDbEntity
  8
1
  6
Continuous
100
AcDbCircle
 10
182.804833
 20
127.81601
 30
0.0
 40
6.2
100
AcDbArc
 50
286.136989
 51
303.256533
  0
ARC
  5
408
330
247
100
AcDbEntity
  8
1
  6
Continuous
100
AcDbCircle
 10
185.6564559999999
 20
123.467652
 30
0.0
 40
1.0
100
AcDbArc
 50
303.256533
 51
69.76453599999999
  0
ARC
  5
409
330
247
100
AcDbEntity
  8
1
  6
Continuous
100
AcDbCircle
 10
183.479241
 20
117.661499
 30
0.0
 40
6.0
100
AcDbArc
 50
77.66233800000001
 51
127.4222199999999
  0
ARC
  5
40A
330
247
100
AcDbEntity
  8
1
  6
Continuous
100
AcDbCircle
 10
183.479241
 20
117.661499
 30
0.0
 40
7.2
100
AcDbArc
 50
69.07050699999999
 51
71.52146500000002
  0
ARC
  5
40B
330
247
100
AcDbEntity
  8
1
  6
Continuous
100
AcDbCircle
 10
183.479241
 20
117.661499
 30
0.0
 40
7.2
100
AcDbArc
 50
79.743189
 51
119.8057249999999
  0
ARC
  5
40C
330
247
100
AcDbEntity
  8
1
  6
Continuous
100
AcDbCircle
 10
19.543282
 20
117.661499
 30
0.0
 40
7.2
100
AcDbArc
 50
54.224237
 51
67.821326
  0
ARC
  5
40D
330
247
100
AcDbEntity
  8
1
  6
Continuous
100
AcDbCircle
 10
19.543282
 20
117.661499
 30
0.0
 40
6.0
100
AcDbArc
 50
40.690288
 51
63.06397
  0
ARC
  5
40E
330
247
100
AcDbEntity
  8
1
  6
Continuous
100
AcDbCircle
 10
17.36605799999998
 20
123.467652
 30
0.0
 40
1.0
100
AcDbArc
 50
96.016033
 51
236.743454
  0
ARC
  5
40F
330
247
100
AcDbEntity
  8
1
  6
Continuous
100
AcDbCircle
 10
20.21768199999999
 20
127.81601
 30
0.0
 40
6.2
100
AcDbArc
 50
236.743472
 51
241.520574
  0
ARC
  5
410
330
247
100
AcDbEntity
  8
1
  6
Continuous
100
AcDbCircle
 10
266.961266
 20
122.993531
 30
0.0
 40
3.1
100
AcDbArc
 50
87.22654300000002
 51
272.7734669999999
  0
ARC
  5
411
330
247
100
AcDbEntity
  8
1
  6
Continuous
100
AcDbCircle
 10
267.261254
 20
122.993531
 30
0.0
 40
3.1
100
AcDbArc
 50
87.22654300000002
 51
272.7734669999999
  0
ARC
  5
412
330
247
100
AcDbEntity
  8
1
  6
Continuous
100
AcDbCircle
 10
267.5612409999998
 20
122.993531
 30
0.0
 40
3.1
100
AcDbArc
 50
87.22654300000002
 51
272.7734669999999
  0
ARC
  5
413
330
247
100
AcDbEntity
  8
1
  6
Continuous
100
AcDbCircle
 10
267.8612289999999
 20
122.993531
 30
0.0
 40
3.1
100
AcDbArc
 50
89.53776299999999
 51
270.462241
  0
ARC
  5
414
330
247
100
AcDbEntity
  8
1
  6
Continuous
100
AcDbCircle
 10
268.161247
 20
122.993531
 30
0.0
 40
3.1
100
AcDbArc
 50
95.18727199999998
 51
264.812718
  0
ARC
  5
415
330
247
100
AcDbEntity
  8
1
  6
Continuous
100
AcDbCircle
 10
268.161247
 20
122.993531
 30
0.0
 40
1.9
100
AcDbArc
 50
111.709451
 51
147.8554269999999
  0
ARC
  5
416
330
247
100
AcDbEntity
  8
1
  6
Continuous
100
AcDbCircle
 10
266.479393
 20
122.3336639999998
 30
0.0
 40
0.5999979999999999
100
AcDbArc
 50
100.000001
 51
279.9999989999998
  0
ARC
  5
417
330
247
100
AcDbEntity
  8
1
  6
Continuous
100
AcDbCircle
 10
270.2217029999999
 20
122.993531
 30
0.0
 40
0.6
100
AcDbArc
 50
279.999995
 51
100.000001
  0
ARC
  5
418
330
247
100
AcDbEntity
  8
1
  6
Continuous
100
AcDbCircle
 10
263.661247
 20
122.993531
 30
0.0
 40
0.5999979999999999
100
AcDbArc
 50
90.00000300000001
 51
270.000001
  0
ARC
  5
419
330
247
100
AcDbEntity
  8
1
  6
Continuous
100
AcDbCircle
 10
266.831261
 20
123.8935249999999
 30
0.0
 40
1.5
100
AcDbArc
 50
138.8484019999999
 51
235.2614949999999
  0
ARC
  5
41A
330
247
100
AcDbEntity
  8
1
  6
Continuous
100
AcDbCircle
 10
266.831261
 20
123.8935249999999
 30
0.0
 40
0.3
100
AcDbArc
 50
158.303089
 51
270.000001
  0
ARC
  5
41B
330
247
100
AcDbEntity
  8
1
  6
Continuous
100
AcDbCircle
 10
268.161247
 20
122.993531
 30
0.0
 40
1.9
100
AcDbArc
 50
220.2716369999998
 51
248.290549
  0
ARC
  5
41C
330
247
100
AcDbEntity
  8
1
  6
Continuous
100
AcDbCircle
 10
263.5587389999999
 20
122.993531
 30
0.0
 40
2.1025
100
AcDbArc
 50
63.484279
 51
87.20561499999998
  0
ARC
  5
41D
330
247
100
AcDbEntity
  8
1
  6
Continuous
100
AcDbCircle
 10
102.1612469999999
 20
51.74349199999999
 30
0.0
 40
2.500000999999997
100
AcDbArc
 50
23.57819
 51
182.793252
  0
ARC
  5
41E
330
247
100
AcDbEntity
  8
1
  6
Continuous
100
AcDbCircle
 10
102.1612469999999
 20
51.74349199999999
 30
0.0
 40
1.300000999999998
100
AcDbArc
 50
50.284874
 51
179.9999639999999
  0
ARC
  5
41F
330
247
100
AcDbEntity
  8
1
  6
Continuous
100
AcDbCircle
 10
102.1612469999999
 20
189.2435759999999
 30
0.0
 40
2.500000999999997
100
AcDbArc
 50
177.2067449999999
 51
336.4218149999999
  0
ARC
  5
420
330
247
100
AcDbEntity
  8
1
  6
Continuous
100
AcDbCircle
 10
102.1612469999999
 20
189.2435759999999
 30
0.0
 40
1.300000999999998
100
AcDbArc
 50
180.000036
 51
309.7151259999999
  0
ARC
  5
421
330
247
100
AcDbEntity
  8
1
  6
Continuous
100
AcDbCircle
 10
434.4741749999998
 20
122.993531
 30
0.0
 40
2.5
100
AcDbArc
 50
269.9999969999999
 51
90.00000300000001
  0
ARC
  5
422
330
247
100
AcDbEntity
  8
1
  6
Continuous
100
AcDbCircle
 10
427.5741809999998
 20
122.993531
 30
0.0
 40
5.0
100
AcDbArc
 50
329.9999989999998
 51
30.000001
  0
ARC
  5
423
330
247
100
AcDbEntity
  8
1
  6
Continuous
100
AcDbCircle
 10
431.5741809999998
 20
42.843529
 30
0.0
 40
1.6
100
AcDbArc
 50
179.9999909999999
 51
270.000001
  0
ARC
  5
424
330
247
100
AcDbEntity
  8
1
  6
Continuous
100
AcDbCircle
 10
445.2241749999997
 20
42.993531
 30
0.0
 40
2.149999999999999
100
AcDbArc
 50
215.3765359999999
 51
175.000006
  0
ARC
  5
425
330
247
100
AcDbEntity
  8
1
  6
Continuous
100
AcDbCircle
 10
445.2241749999997
 20
42.993531
 30
0.0
 40
3.75
100
AcDbArc
 50
215.3765359999999
 51
175.000006
  0
ARC
  5
426
330
247
100
AcDbEntity
  8
1
  6
Continuous
100
AcDbCircle
 10
441.3511889999998
 20
40.24353099999999
 30
0.0
 40
1.0
100
AcDbArc
 50
35.37654100000001
 51
90.00000300000001
  0
ARC
  5
427
330
247
100
AcDbEntity
  8
1
  6
Continuous
100
AcDbCircle
 10
441.3511889999998
 20
40.24353099999999
 30
0.0
 40
2.6
100
AcDbArc
 50
35.37654100000001
 51
90.00000300000001
  0
ARC
  5
428
330
247
100
AcDbEntity
  8
1
  6
Continuous
100
AcDbCircle
 10
515.2242049999999
 20
129.343537
 30
0.0
 40
2.75
100
AcDbArc
 50
90.00000300000001
 51
270.000001
  0
ARC
  5
429
330
247
100
AcDbEntity
  8
1
  6
Continuous
100
AcDbCircle
 10
517.724205
 20
129.343537
 30
0.0
 40
2.75
100
AcDbArc
 50
269.9999969999999
 51
90.00000300000001
  0
ARC
  5
42A
330
247
100
AcDbEntity
  8
1
  6
Continuous
100
AcDbCircle
 10
515.2242049999999
 20
116.6435249999999
 30
0.0
 40
2.75
100
AcDbArc
 50
90.00000300000001
 51
270.000001
  0
ARC
  5
42B
330
247
100
AcDbEntity
  8
1
  6
Continuous
100
AcDbCircle
 10
517.724205
 20
116.6435249999999
 30
0.0
 40
2.75
100
AcDbArc
 50
269.9999969999999
 51
90.00000300000001
  0
ARC
  5
42C
330
247
100
AcDbEntity
  8
1
  6
Continuous
100
AcDbCircle
 10
431.5741809999998
 20
44.743531
 30
0.0
 40
1.0
100
AcDbArc
 50
0.0
 51
90.00000300000001
  0
ARC
  5
42D
330
247
100
AcDbEntity
  8
1
  6
Continuous
100
AcDbCircle
 10
435.974175
 20
42.843529
 30
0.0
 40
1.0
100
AcDbArc
 50
0.0
 51
90.00000300000001
  0
ARC
  5
42E
330
247
100
AcDbEntity
  8
1
  6
Continuous
100
AcDbCircle
 10
370.224175
 20
129.343537
 30
0.0
 40
2.75
100
AcDbArc
 50
269.9999969999999
 51
90.00000300000001
  0
ARC
  5
42F
330
247
100
AcDbEntity
  8
1
  6
Continuous
100
AcDbCircle
 10
367.724175
 20
129.343537
 30
0.0
 40
2.75
100
AcDbArc
 50
90.00000300000001
 51
270.000001
  0
ARC
  5
430
330
247
100
AcDbEntity
  8
1
  6
Continuous
100
AcDbCircle
 10
370.224175
 20
116.6435249999999
 30
0.0
 40
2.75
100
AcDbArc
 50
269.9999969999999
 51
90.00000300000001
  0
ARC
  5
431
330
247
100
AcDbEntity
  8
1
  6
Continuous
100
AcDbCircle
 10
367.724175
 20
116.6435249999999
 30
0.0
 40
2.75
100
AcDbArc
 50
90.00000300000001
 51
270.000001
  0
ARC
  5
432
330
247
100
AcDbEntity
  8
1
  6
Continuous
100
AcDbCircle
 10
360.474175
 20
122.993531
 30
0.0
 40
2.5
100
AcDbArc
 50
269.9999969999999
 51
90.00000300000001
  0
ARC
  5
433
330
247
100
AcDbEntity
  8
1
  6
Continuous
100
AcDbCircle
 10
600.9742049999998
 20
122.993531
 30
0.0
 40
2.5
100
AcDbArc
 50
90.00000300000001
 51
270.000001
  0
ARC
  5
434
330
247
100
AcDbEntity
  8
1
  6
Continuous
100
AcDbCircle
 10
604.4742049999999
 20
126.493531
 30
0.0
 40
1.0
100
AcDbArc
 50
269.9999969999999
 51
0.0
  0
ARC
  5
435
330
247
100
AcDbEntity
  8
1
  6
Continuous
100
AcDbCircle
 10
604.4742049999999
 20
119.4935309999999
 30
0.0
 40
1.0
100
AcDbArc
 50
0.0
 51
90.00000300000001
  0
ARC
  5
436
330
247
100
AcDbEntity
  8
1
  6
Continuous
100
AcDbCircle
 10
359.474175
 20
126.493531
 30
0.0
 40
1.0
100
AcDbArc
 50
179.9999909999999
 51
270.000001
  0
ARC
  5
437
330
247
100
AcDbEntity
  8
1
  6
Continuous
100
AcDbCircle
 10
359.474175
 20
119.4935309999999
 30
0.0
 40
1.0
100
AcDbArc
 50
90.00000300000001
 51
180.000005
  0
ARC
  5
438
330
247
100
AcDbEntity
  8
1
  6
Continuous
100
AcDbCircle
 10
431.5741809999998
 20
198.143525
 30
0.0
 40
1.6
100
AcDbArc
 50
90.00000300000001
 51
180.000005
  0
ARC
  5
439
330
247
100
AcDbEntity
  8
1
  6
Continuous
100
AcDbCircle
 10
445.2241749999997
 20
197.9935309999999
 30
0.0
 40
2.149999999999999
100
AcDbArc
 50
184.999994
 51
144.6234639999999
  0
ARC
  5
43A
330
247
100
AcDbEntity
  8
1
  6
Continuous
100
AcDbCircle
 10
445.2241749999997
 20
197.9935309999999
 30
0.0
 40
3.75
100
AcDbArc
 50
184.999994
 51
144.6234639999999
  0
ARC
  5
43B
330
247
100
AcDbEntity
  8
1
  6
Continuous
100
AcDbCircle
 10
441.3511889999998
 20
200.7435309999999
 30
0.0
 40
1.0
100
AcDbArc
 50
269.9999969999999
 51
324.6234589999999
  0
ARC
  5
43C
330
247
100
AcDbEntity
  8
1
  6
Continuous
100
AcDbCircle
 10
441.3511889999998
 20
200.7435309999999
 30
0.0
 40
2.6
100
AcDbArc
 50
269.9999969999999
 51
324.6234589999999
  0
ARC
  5
43D
330
247
100
AcDbEntity
  8
1
  6
Continuous
100
AcDbCircle
 10
431.5741809999998
 20
196.243531
 30
0.0
 40
1.0
100
AcDbArc
 50
269.9999969999999
 51
0.0
  0
ARC
  5
43E
330
247
100
AcDbEntity
  8
1
  6
Continuous
100
AcDbCircle
 10
435.974175
 20
198.143525
 30
0.0
 40
1.0
100
AcDbArc
 50
269.9999969999999
 51
0.0
  0
CIRCLE
  5
43F
330
247
100
AcDbEntity
  8
1
  6
Continuous
100
AcDbCircle
 10
98.76125399999999
 20
194.243576
 30
0.0
 40
1.25
  0
CIRCLE
  5
440
330
247
100
AcDbEntity
  8
1
  6
Continuous
100
AcDbCircle
 10
98.76125399999999
 20
46.74349199999999
 30
0.0
 40
1.25
  0
ARC
  5
441
330
247
100
AcDbEntity
  8
1
  6
Continuous
100
AcDbCircle
 10
258.761254
 20
127.7435309999999
 30
0.0
 40
1.6
100
AcDbArc
 50
90.00000300000001
 51
180.000005
  0
ARC
  5
442
330
247
100
AcDbEntity
  8
1
  6
Continuous
100
AcDbCircle
 10
258.761254
 20
118.243531
 30
0.0
 40
1.6
100
AcDbArc
 50
179.9999909999999
 51
270.000001
  0
ARC
  5
443
330
247
100
AcDbEntity
  8
1
  6
Continuous
100
AcDbCircle
 10
277.761254
 20
125.993531
 30
0.0
 40
1.5
100
AcDbArc
 50
0.0
 51
90.00000300000001
  0
ARC
  5
444
330
247
100
AcDbEntity
  8
1
  6
Continuous
100
AcDbCircle
 10
277.761254
 20
119.993531
 30
0.0
 40
1.5
100
AcDbArc
 50
269.9999969999999
 51
0.0
  0
LINE
  5
445
330
247
100
AcDbEntity
  8
1
  6
Continuous
100
AcDbLine
 10
167.761269
 20
118.243531
 30
0.0
 11
166.761269
 21
118.243531
 31
0.0
  0
LINE
  5
446
330
247
100
AcDbEntity
  8
1
  6
Continuous
100
AcDbLine
 10
167.761269
 20
127.7435309999999
 30
0.0
 11
166.761269
 21
127.7435309999999
 31
0.0
  0
LINE
  5
447
330
247
100
AcDbEntity
  8
1
  6
Continuous
100
AcDbLine
 10
166.761269
 20
127.7435309999999
 30
0.0
 11
166.761269
 21
118.243531
 31
0.0
  0
LINE
  5
448
330
247
100
AcDbEntity
  8
1
  6
Continuous
100
AcDbLine
 10
167.761269
 20
118.243531
 30
0.0
 11
167.761269
 21
116.6435249999999
 31
0.0
  0
LINE
  5
449
330
247
100
AcDbEntity
  8
1
  6
Continuous
100
AcDbLine
 10
167.761269
 20
129.343537
 30
0.0
 11
167.761269
 21
127.7435309999999
 31
0.0
  0
LINE
  5
44A
330
247
100
AcDbEntity
  8
1
  6
Continuous
100
AcDbLine
 10
174.161269
 20
129.343537
 30
0.0
 11
174.161269
 21
127.7435309999999
 31
0.0
  0
LINE
  5
44B
330
247
100
AcDbEntity
  8
1
  6
Continuous
100
AcDbLine
 10
174.161269
 20
116.6435249999999
 30
0.0
 11
174.161269
 21
118.243531
 31
0.0
  0
ARC
  5
44C
330
247
100
AcDbEntity
  8
1
  6
Continuous
100
AcDbCircle
 10
109.26126
 20
189.843576
 30
0.0
 40
1.6
100
AcDbArc
 50
270.0
 51
0.0
  0
LINE
  5
44D
330
247
100
AcDbEntity
  8
1
  6
Continuous
100
AcDbLine
 10
110.86126
 20
195.6435759999999
 30
0.0
 11
109.2612539999999
 21
195.6435759999999
 31
0.0
  0
ARC
  5
44E
330
247
100
AcDbEntity
  8
1
  6
Continuous
100
AcDbCircle
 10
109.26126
 20
195.6435759999999
 30
0.0
 40
1.6
100
AcDbArc
 50
0.0
 51
90.0
  0
ARC
  5
44F
330
247
100
AcDbEntity
  8
1
  6
Continuous
100
AcDbCircle
 10
109.26126
 20
51.14349199999999
 30
0.0
 40
1.6
100
AcDbArc
 50
0.0
 51
90.0
  0
ARC
  5
450
330
247
100
AcDbEntity
  8
1
  6
Continuous
100
AcDbCircle
 10
109.26126
 20
45.343492
 30
0.0
 40
1.6
100
AcDbArc
 50
270.0
 51
0.0
  0
ARC
  5
451
330
247
100
AcDbEntity
  8
1
  6
Continuous
100
AcDbCircle
 10
89.96125399999998
 20
34.943492
 30
0.0
 40
1.199999999999999
100
AcDbArc
 50
180.0
 51
270.0
  0
ARC
  5
452
330
247
100
AcDbEntity
  8
1
  6
Continuous
100
AcDbCircle
 10
89.96125399999998
 20
206.0435759999998
 30
0.0
 40
1.199999999999999
100
AcDbArc
 50
90.0
 51
180.0
  0
ENDSEC
  0
SECTION
  2
OBJECTS
  0
DICTIONARY
  5
235
330
0
100
AcDbDictionary
281
     1
  3
ACAD_CIP_PREVIOUS_PRODUCT_INFO
350
4B6
  3
ACAD_COLOR
350
498
  3
ACAD_DETAILVIEWSTYLE
350
4B1
  3
ACAD_GROUP
350
236
  3
ACAD_LAYOUT
350
242
  3
ACAD_MATERIAL
350
466
  3
ACAD_MLEADERSTYLE
350
4AD
  3
ACAD_MLINESTYLE
350
23F
  3
ACAD_PLOTSETTINGS
350
241
  3
ACAD_PLOTSTYLENAME
350
464
  3
ACAD_SCALELIST
350
49B
  3
ACAD_SECTIONVIEWSTYLE
350
4AF
  3
ACAD_TABLESTYLE
350
499
  3
ACAD_VISUALSTYLE
350
47F
  3
ACDB_RECOMPOSE_DATA
350
4D4
  3
AcDbVariableDictionary
350
4C7
  3
DWGPROPS
350
4D5
  0
DICTIONARY
  5
4B7
330
239
100
AcDbDictionary
280
     1
281
     1
  3
ADSK_XREC_LAYER_RECONCILED
360
4B8
  0
DICTIONARY
  5
4B9
330
24F
100
AcDbDictionary
280
     1
281
     1
  3
ADSK_XREC_LAYER_RECONCILED
360
4BA
  0
DICTIONARY
  5
4BB
330
250
100
AcDbDictionary
280
     1
281
     1
  3
ADSK_XREC_LAYER_RECONCILED
360
4BC
  0
DICTIONARY
  5
4BD
330
251
100
AcDbDictionary
280
     1
281
     1
  3
ADSK_XREC_LAYER_RECONCILED
360
4BE
  0
DICTIONARY
  5
4BF
330
252
100
AcDbDictionary
280
     1
281
     1
  3
ADSK_XREC_LAYER_RECONCILED
360
4C0
  0
DICTIONARY
  5
4C1
330
253
100
AcDbDictionary
280
     1
281
     1
  3
ADSK_XREC_LAYER_RECONCILED
360
4C2
  0
DICTIONARY
  5
4C3
330
254
100
AcDbDictionary
280
     1
281
     1
  3
ADSK_XREC_LAYER_RECONCILED
360
4C4
  0
DICTIONARY
  5
4C5
330
255
100
AcDbDictionary
280
     1
281
     1
  3
ADSK_XREC_LAYER_RECONCILED
360
4C6
  0
DICTIONARY
  5
45F
330
247
100
AcDbDictionary
281
     1
  3
ACAD_LAYOUTSELFREF
350
460
  0
DICTIONARY
  5
45D
330
243
100
AcDbDictionary
281
     1
  3
ACAD_LAYOUTSELFREF
350
45E
  0
XRECORD
  5
4B6
102
{ACAD_REACTORS
330
235
102
}
330
235
100
AcDbXrecord
280
     1
300
ACDLT
300
2014
300
ACDLT_F_S
  0
DICTIONARY
  5
498
102
{ACAD_REACTORS
330
235
102
}
330
235
100
AcDbDictionary
281
     1
  0
DICTIONARY
  5
4B1
102
{ACAD_REACTORS
330
235
102
}
330
235
100
AcDbDictionary
281
     1
  3
Imperial24
350
4B2
  0
DICTIONARY
  5
236
102
{ACAD_REACTORS
330
235
102
}
330
235
100
AcDbDictionary
281
     1
  0
DICTIONARY
  5
242
102
{ACAD_REACTORS
330
235
102
}
330
235
100
AcDbDictionary
281
     1
  3
Model
350
4B3
  3
レイアウト1
350
4B4
  0
DICTIONARY
  5
466
102
{ACAD_REACTORS
330
235
102
}
330
235
100
AcDbDictionary
281
     1
  3
ByBlock
350
46F
  3
ByLayer
350
467
  3
Global
350
477
  0
DICTIONARY
  5
4AD
102
{ACAD_REACTORS
330
235
102
}
330
235
100
AcDbDictionary
281
     1
  3
Standard
350
4AE
  0
DICTIONARY
  5
23F
102
{ACAD_REACTORS
330
235
102
}
330
235
100
AcDbDictionary
281
     1
  3
STANDARD
350
240
  0
DICTIONARY
  5
241
102
{ACAD_REACTORS
330
235
102
}
330
235
100
AcDbDictionary
281
     1
  0
ACDBDICTIONARYWDFLT
  5
464
102
{ACAD_REACTORS
330
235
102
}
330
235
100
AcDbDictionary
281
     1
  3
Normal
350
465
100
AcDbDictionaryWithDefault
340
465
  0
DICTIONARY
  5
49B
102
{ACAD_REACTORS
330
235
102
}
330
235
100
AcDbDictionary
281
     1
  3
A0
350
49C
  3
A1
350
49D
  3
A2
350
49E
  3
A3
350
49F
  3
A4
350
4A0
  3
A5
350
4A1
  3
A6
350
4A2
  3
A7
350
4A3
  3
A8
350
4A4
  3
A9
350
4A5
  3
B0
350
4A6
  3
B1
350
4A7
  3
B2
350
4A8
  3
B3
350
4A9
  3
B4
350
4AA
  3
B5
350
4AB
  3
B6
350
4AC
  0
DICTIONARY
  5
4AF
102
{ACAD_REACTORS
330
235
102
}
330
235
100
AcDbDictionary
281
     1
  3
Imperial24
350
4B0
  0
DICTIONARY
  5
499
102
{ACAD_REACTORS
330
235
102
}
330
235
100
AcDbDictionary
281
     1
  3
Standard
350
49A
  0
DICTIONARY
  5
47F
102
{ACAD_REACTORS
330
235
102
}
330
235
100
AcDbDictionary
281
     1
  3
2dWireframe
350
485
  3
Basic
350
484
  3
Brighten
350
48B
  3
ColorChange
350
48F
  3
Conceptual
350
488
  3
Dim
350
48A
  3
EdgeColorOff
350
497
  3
Facepattern
350
48E
  3
Flat
350
480
  3
FlatWithEdges
350
481
  3
Gouraud
350
482
  3
GouraudWithEdges
350
483
  3
Hidden
350
487
  3
JitterOff
350
495
  3
Linepattern
350
48D
  3
OverhangOff
350
496
  3
Realistic
350
489
  3
Shaded
350
494
  3
Shaded with edges
350
493
  3
Shades of Gray
350
490
  3
Sketchy
350
491
  3
Thicken
350
48C
  3
Wireframe
350
486
  3
X-Ray
350
492
  0
XRECORD
  5
4D4
102
{ACAD_REACTORS
330
235
102
}
330
235
100
AcDbXrecord
280
     1
 90
        1
330
49A
  0
DICTIONARY
  5
4C7
102
{ACAD_REACTORS
330
235
102
}
330
235
100
AcDbDictionary
281
     1
  3
CANNOSCALE
350
4CC
  3
CMLEADERSTYLE
350
4C9
  3
CTABLESTYLE
350
4C8
  3
CVIEWDETAILSTYLE
350
4CA
  3
CVIEWSECTIONSTYLE
350
4CB
  3
DIMASSOC
350
4CF
  3
INDEXCTL
350
4CE
  3
SORTENTS
350
4CD
  3
XCLIPFRAME
350
4D0
  0
XRECORD
  5
4D5
102
{ACAD_REACTORS
330
235
102
}
330
235
100
AcDbXrecord
280
     1
  1
DWGPROPS COOKIE
  2

  3

  4

  6

  7

  8
Yoshitsune
  9

300
=
301
=
302
=
303
=
304
=
305
=
306
=
307
=
308
=
309
=
 40
0.0000128125
 41
2450955.646208565
 42
2457192.601432558
  1

 90
        0
  0
XRECORD
  5
4B8
102
{ACAD_REACTORS
330
4B7
102
}
330
4B7
100
AcDbXrecord
280
     1
290
     1
  0
XRECORD
  5
4BA
102
{ACAD_REACTORS
330
4B9
102
}
330
4B9
100
AcDbXrecord
280
     1
290
     1
  0
XRECORD
  5
4BC
102
{ACAD_REACTORS
330
4BB
102
}
330
4BB
100
AcDbXrecord
280
     1
290
     1
  0
XRECORD
  5
4BE
102
{ACAD_REACTORS
330
4BD
102
}
330
4BD
100
AcDbXrecord
280
     1
290
     1
  0
XRECORD
  5
4C0
102
{ACAD_REACTORS
330
4BF
102
}
330
4BF
100
AcDbXrecord
280
     1
290
     1
  0
XRECORD
  5
4C2
102
{ACAD_REACTORS
330
4C1
102
}
330
4C1
100
AcDbXrecord
280
     1
290
     1
  0
XRECORD
  5
4C4
102
{ACAD_REACTORS
330
4C3
102
}
330
4C3
100
AcDbXrecord
280
     1
290
     1
  0
XRECORD
  5
4C6
102
{ACAD_REACTORS
330
4C5
102
}
330
4C5
100
AcDbXrecord
280
     1
290
     1
  0
XRECORD
  5
460
102
{ACAD_REACTORS
330
45F
102
}
330
45F
100
AcDbXrecord
280
     1
340
247
  0
XRECORD
  5
45E
102
{ACAD_REACTORS
330
45D
102
}
330
45D
100
AcDbXrecord
280
     1
340
243
  0
ACDBDETAILVIEWSTYLE
  5
4B2
102
{ACAD_XDICTIONARY
360
50D
102
}
102
{ACAD_REACTORS
330
4B1
102
}
330
4B1
100
AcDbModelDocViewStyle
 70
     0
  3
Imperial24
290
     0
100
AcDbDetailViewStyle
 70
     0
 71
     0
 90
        3
 71
     1
340
23A
 40
0.24
340
0
 40
0.24
300

 40
0.36
280
     3
 71
     2
340
23E
 90
       25
 71
     3
340
23A
 40
0.24
 90
        1
 40
0.75
 90
        1
300
%<\AcVar ViewType \f "%tc1">% %<\AcVar ViewDetailId>%\PSCALE %<\AcVar ViewScale \f "%sn">%
 71
     4
340
23E
 90
       25
340
23E
 90
       25
280
     0
  0
LAYOUT
  5
4B3
102
{ACAD_XDICTIONARY
360
50F
102
}
102
{ACAD_REACTORS
330
242
102
}
330
242
100
AcDbPlotSettings
  1

  2
Canon LBP9100C
  4

  6

 40
0.0
 41
0.0
 42
0.0
 43
0.0
 44
0.0
 45
0.0
 46
0.0
 47
0.0
 48
0.0
 49
0.0
140
0.0
141
0.0
142
1.0
143
1.0
 70
  1712
 72
     0
 73
     0
 74
     0
  7

 75
     0
147
1.0
148
0.0
149
0.0
100
AcDbLayout
  1
Model
 70
     1
 71
     0
 10
0.0
 20
0.0
 11
12.0
 21
9.0
 12
0.0
 22
0.0
 32
0.0
 14
0.0
 24
0.0
 34
0.0
 15
0.0
 25
0.0
 35
0.0
146
0.0
 13
0.0
 23
0.0
 33
0.0
 16
1.0
 26
0.0
 36
0.0
 17
0.0
 27
1.0
 37
0.0
 76
     0
330
247
331
45C
  0
LAYOUT
  5
4B4
102
{ACAD_XDICTIONARY
360
511
102
}
102
{ACAD_REACTORS
330
242
102
}
330
242
100
AcDbPlotSettings
  1

  2
Canon LBP9100C
  4

  6

 40
0.0
 41
0.0
 42
0.0
 43
0.0
 44
0.0
 45
0.0
 46
0.0
 47
0.0
 48
0.0
 49
0.0
140
0.0
141
0.0
142
1.0
143
1.0
 70
   688
 72
     0
 73
     0
 74
     5
  7

 75
    16
147
1.0
148
0.0
149
0.0
100
AcDbLayout
  1
レイアウト1
 70
     0
 71
     1
 10
0.0
 20
0.0
 11
420.0
 21
297.0
 12
0.0
 22
0.0
 32
0.0
 14
1.000000000000000E+20
 24
1.000000000000000E+20
 34
1.000000000000000E+20
 15
-1.000000000000000E+20
 25
-1.000000000000000E+20
 35
-1.000000000000000E+20
146
0.0
 13
0.0
 23
0.0
 33
0.0
 16
1.0
 26
0.0
 36
0.0
 17
0.0
 27
1.0
 37
0.0
 76
     0
330
243
  0
MATERIAL
  5
46F
102
{ACAD_XDICTIONARY
360
470
102
}
102
{ACAD_REACTORS
330
466
102
}
330
466
100
AcDbMaterial
  1
ByBlock
 72
     0
 43
0.0208333333333333
 43
0.0
 43
0.0
 43
0.0
 43
0.0
 43
0.0208333333333333
 43
0.0
 43
0.0
 43
0.0
 43
0.0
 43
1.0
 43
0.0
 43
0.0
 43
0.0
 43
0.0
 43
1.0
 77
     0
 47
0.0208333333333333
 47
0.0
 47
0.0
 47
0.0
 47
0.0
 47
0.0208333333333333
 47
0.0
 47
0.0
 47
0.0
 47
0.0
 47
1.0
 47
0.0
 47
0.0
 47
0.0
 47
0.0
 47
1.0
171
     0
 49
0.0208333333333333
 49
0.0
 49
0.0
 49
0.0
 49
0.0
 49
0.0208333333333333
 49
0.0
 49
0.0
 49
0.0
 49
0.0
 49
1.0
 49
0.0
 49
0.0
 49
0.0
 49
0.0
 49
1.0
175
     0
142
0.0208333333333333
142
0.0
142
0.0
142
0.0
142
0.0
142
0.0208333333333333
142
0.0
142
0.0
142
0.0
142
0.0
142
1.0
142
0.0
142
0.0
142
0.0
142
0.0
142
1.0
179
     0
144
0.0208333333333333
144
0.0
144
0.0
144
0.0
144
0.0
144
0.0208333333333333
144
0.0
144
0.0
144
0.0
144
0.0
144
1.0
144
0.0
144
0.0
144
0.0
144
0.0
144
1.0
147
0.0208333333333333
147
0.0
147
0.0
147
0.0
147
0.0
147
0.0208333333333333
147
0.0
147
0.0
147
0.0
147
0.0
147
1.0
147
0.0
147
0.0
147
0.0
147
0.0
147
1.0
  0
MATERIAL
  5
467
102
{ACAD_XDICTIONARY
360
468
102
}
102
{ACAD_REACTORS
330
466
102
}
330
466
100
AcDbMaterial
  1
ByLayer
 72
     0
 43
0.0208333333333333
 43
0.0
 43
0.0
 43
0.0
 43
0.0
 43
0.0208333333333333
 43
0.0
 43
0.0
 43
0.0
 43
0.0
 43
1.0
 43
0.0
 43
0.0
 43
0.0
 43
0.0
 43
1.0
 77
     0
 47
0.0208333333333333
 47
0.0
 47
0.0
 47
0.0
 47
0.0
 47
0.0208333333333333
 47
0.0
 47
0.0
 47
0.0
 47
0.0
 47
1.0
 47
0.0
 47
0.0
 47
0.0
 47
0.0
 47
1.0
171
     0
 49
0.0208333333333333
 49
0.0
 49
0.0
 49
0.0
 49
0.0
 49
0.0208333333333333
 49
0.0
 49
0.0
 49
0.0
 49
0.0
 49
1.0
 49
0.0
 49
0.0
 49
0.0
 49
0.0
 49
1.0
175
     0
142
0.0208333333333333
142
0.0
142
0.0
142
0.0
142
0.0
142
0.0208333333333333
142
0.0
142
0.0
142
0.0
142
0.0
142
1.0
142
0.0
142
0.0
142
0.0
142
0.0
142
1.0
179
     0
144
0.0208333333333333
144
0.0
144
0.0
144
0.0
144
0.0
144
0.0208333333333333
144
0.0
144
0.0
144
0.0
144
0.0
144
1.0
144
0.0
144
0.0
144
0.0
144
0.0
144
1.0
147
0.0208333333333333
147
0.0
147
0.0
147
0.0
147
0.0
147
0.0208333333333333
147
0.0
147
0.0
147
0.0
147
0.0
147
1.0
147
0.0
147
0.0
147
0.0
147
0.0
147
1.0
  0
MATERIAL
  5
477
102
{ACAD_XDICTIONARY
360
478
102
}
102
{ACAD_REACTORS
330
466
102
}
330
466
100
AcDbMaterial
  1
Global
 72
     0
 43
0.0208333333333333
 43
0.0
 43
0.0
 43
0.0
 43
0.0
 43
0.0208333333333333
 43
0.0
 43
0.0
 43
0.0
 43
0.0
 43
1.0
 43
0.0
 43
0.0
 43
0.0
 43
0.0
 43
1.0
 77
     0
 47
0.0208333333333333
 47
0.0
 47
0.0
 47
0.0
 47
0.0
 47
0.0208333333333333
 47
0.0
 47
0.0
 47
0.0
 47
0.0
 47
1.0
 47
0.0
 47
0.0
 47
0.0
 47
0.0
 47
1.0
171
     0
 49
0.0208333333333333
 49
0.0
 49
0.0
 49
0.0
 49
0.0
 49
0.0208333333333333
 49
0.0
 49
0.0
 49
0.0
 49
0.0
 49
1.0
 49
0.0
 49
0.0
 49
0.0
 49
0.0
 49
1.0
175
     0
142
0.0208333333333333
142
0.0
142
0.0
142
0.0
142
0.0
142
0.0208333333333333
142
0.0
142
0.0
142
0.0
142
0.0
142
1.0
142
0.0
142
0.0
142
0.0
142
0.0
142
1.0
179
     0
144
0.0208333333333333
144
0.0
144
0.0
144
0.0
144
0.0
144
0.0208333333333333
144
0.0
144
0.0
144
0.0
144
0.0
144
1.0
144
0.0
144
0.0
144
0.0
144
0.0
144
1.0
147
0.0208333333333333
147
0.0
147
0.0
147
0.0
147
0.0
147
0.0208333333333333
147
0.0
147
0.0
147
0.0
147
0.0
147
1.0
147
0.0
147
0.0
147
0.0
147
0.0
147
1.0
  0
MLEADERSTYLE
  5
4AE
102
{ACAD_REACTORS
330
4AD
102
}
330
4AD
100
AcDbMLeaderStyle
170
     2
171
     1
172
     0
 90
        2
 40
0.0
 41
0.0
173
     1
 91
-1056964608
340
23C
 92
       -2
290
     1
 42
0.09
291
     1
 43
0.36
  3
Standard
 44
0.18
300

342
23A
174
     1
178
     6
175
     1
176
     0
 93
-1056964608
 45
0.18
292
     0
297
     0
 46
0.18
 94
-1056964608
 47
1.0
 49
1.0
140
1.0
293
     1
141
0.0
294
     1
177
     0
142
1.0
295
     0
296
     0
143
0.125
1001
ACAD_MLEADERVER
1070
     2
  0
MLINESTYLE
  5
240
102
{ACAD_REACTORS
330
23F
102
}
330
23F
100
AcDbMlineStyle
  2
STANDARD
 70
     0
  3

 62
   256
 51
90.0
 52
90.0
 71
     2
 49
0.5
 62
   256
  6
BYLAYER
 49
-0.5
 62
   256
  6
BYLAYER
  0
ACDBPLACEHOLDER
  5
465
102
{ACAD_REACTORS
330
464
102
}
330
464
  0
SCALE
  5
49C
102
{ACAD_REACTORS
330
49B
102
}
330
49B
100
AcDbScale
 70
     0
300
1:1
140
1.0
141
1.0
290
     1
  0
SCALE
  5
49D
102
{ACAD_REACTORS
330
49B
102
}
330
49B
100
AcDbScale
 70
     0
300
1/128" = 1'-0"
140
0.0078125
141
12.0
290
     0
  0
SCALE
  5
49E
102
{ACAD_REACTORS
330
49B
102
}
330
49B
100
AcDbScale
 70
     0
300
1/64" = 1'-0"
140
0.015625
141
12.0
290
     0
  0
SCALE
  5
49F
102
{ACAD_REACTORS
330
49B
102
}
330
49B
100
AcDbScale
 70
     0
300
1/32" = 1'-0"
140
0.03125
141
12.0
290
     0
  0
SCALE
  5
4A0
102
{ACAD_REACTORS
330
49B
102
}
330
49B
100
AcDbScale
 70
     0
300
1/16" = 1'-0"
140
0.0625
141
12.0
290
     0
  0
SCALE
  5
4A1
102
{ACAD_REACTORS
330
49B
102
}
330
49B
100
AcDbScale
 70
     0
300
3/32" = 1'-0"
140
0.09375
141
12.0
290
     0
  0
SCALE
  5
4A2
102
{ACAD_REACTORS
330
49B
102
}
330
49B
100
AcDbScale
 70
     0
300
1/8" = 1'-0"
140
0.125
141
12.0
290
     0
  0
SCALE
  5
4A3
102
{ACAD_REACTORS
330
49B
102
}
330
49B
100
AcDbScale
 70
     0
300
3/16" = 1'-0"
140
0.1875
141
12.0
290
     0
  0
SCALE
  5
4A4
102
{ACAD_REACTORS
330
49B
102
}
330
49B
100
AcDbScale
 70
     0
300
1/4" = 1'-0"
140
0.25
141
12.0
290
     0
  0
SCALE
  5
4A5
102
{ACAD_REACTORS
330
49B
102
}
330
49B
100
AcDbScale
 70
     0
300
3/8" = 1'-0"
140
0.375
141
12.0
290
     0
  0
SCALE
  5
4A6
102
{ACAD_REACTORS
330
49B
102
}
330
49B
100
AcDbScale
 70
     0
300
1/2" = 1'-0"
140
0.5
141
12.0
290
     0
  0
SCALE
  5
4A7
102
{ACAD_REACTORS
330
49B
102
}
330
49B
100
AcDbScale
 70
     0
300
3/4" = 1'-0"
140
0.75
141
12.0
290
     0
  0
SCALE
  5
4A8
102
{ACAD_REACTORS
330
49B
102
}
330
49B
100
AcDbScale
 70
     0
300
1" = 1'-0"
140
1.0
141
12.0
290
     0
  0
SCALE
  5
4A9
102
{ACAD_REACTORS
330
49B
102
}
330
49B
100
AcDbScale
 70
     0
300
1-1/2" = 1'-0"
140
1.5
141
12.0
290
     0
  0
SCALE
  5
4AA
102
{ACAD_REACTORS
330
49B
102
}
330
49B
100
AcDbScale
 70
     0
300
3" = 1'-0"
140
3.0
141
12.0
290
     0
  0
SCALE
  5
4AB
102
{ACAD_REACTORS
330
49B
102
}
330
49B
100
AcDbScale
 70
     0
300
6" = 1'-0"
140
6.0
141
12.0
290
     0
  0
SCALE
  5
4AC
102
{ACAD_REACTORS
330
49B
102
}
330
49B
100
AcDbScale
 70
     0
300
1'-0" = 1'-0"
140
12.0
141
12.0
290
     0
  0
ACDBSECTIONVIEWSTYLE
  5
4B0
102
{ACAD_XDICTIONARY
360
50B
102
}
102
{ACAD_REACTORS
330
4AF
102
}
330
4AF
100
AcDbModelDocViewStyle
 70
     0
  3
Imperial24
290
     0
100
AcDbSectionViewStyle
 70
     0
 71
     0
 90
       78
 71
     1
340
23A
 40
0.24
340
0
340
0
 40
0.24
300
I, O, Q, S, X, Z
 40
0.48
 90
        3
 40
0.18
 90
        1
 71
     2
340
23E
 90
       25
340
23E
 90
       50
 40
0.24
 40
0.0
 40
0.24
 71
     3
340
23A
 40
0.24
 90
        1
 40
0.75
 90
        1
300
%<\AcVar ViewType \f "%tc1">% %<\AcVar ViewSectionStartId>%-%<\AcVar ViewSectionEndId>%\PSCALE %<\AcVar ViewScale \f "%sn">%
 71
     4
300
ANSI31
 40
1.0
 90
        0
290
     0
290
     0
 90
        6
 40
0.0
 40
1.570796326794896
 40
0.2617993877991494
 40
1.308996938995747
 40
-0.2617993877991494
 40
1.832595714594046
  0
TABLESTYLE
  5
49A
102
{ACAD_XDICTIONARY
360
4D2
102
}
102
{ACAD_REACTORS
330
499
102
}
330
499
100
AcDbTableStyle
  3
Standard
 70
     0
 71
     0
 40
0.06
 41
0.06
280
     0
281
     0
  7
STANDARD
140
0.18
170
     2
 62
     0
 63
     7
283
     0
274
    -2
284
     1
 64
     0
275
    -2
285
     1
 65
     0
276
    -2
286
     1
 66
     0
277
    -2
287
     1
 67
     0
278
    -2
288
     1
 68
     0
279
    -2
289
     1
 69
     0
  7
STANDARD
140
0.25
170
     5
 62
     0
 63
     7
283
     0
274
    -2
284
     1
 64
     0
275
    -2
285
     1
 65
     0
276
    -2
286
     1
 66
     0
277
    -2
287
     1
 67
     0
278
    -2
288
     1
 68
     0
279
    -2
289
     1
 69
     0
  7
STANDARD
140
0.18
170
     5
 62
     0
 63
     7
283
     0
274
    -2
284
     1
 64
     0
275
    -2
285
     1
 65
     0
276
    -2
286
     1
 66
     0
277
    -2
287
     1
 67
     0
278
    -2
288
     1
 68
     0
279
    -2
289
     1
 69
     0
  0
VISUALSTYLE
  5
485
102
{ACAD_XDICTIONARY
360
4E3
102
}
102
{ACAD_REACTORS
330
47F
102
}
330
47F
100
AcDbVisualStyle
  2
2dWireframe
 70
     4
 71
     0
 72
     2
 73
     0
 90
        0
 40
-0.6
 41
-30.0
 62
     5
 63
     7
 74
     1
 91
        4
 64
     7
 65
   257
 75
     1
175
     1
 42
1.0
 92
        0
 66
   257
 43
1.0
 76
     1
 77
     6
 78
     2
 67
     7
 79
     5
170
     0
171
     0
290
     0
174
     0
 93
        1
 44
0.0
173
     0
291
     0
 45
0.0
1001
ACAD
1000
AcDbSavedByObjectVersion
1070
     0
  0
VISUALSTYLE
  5
484
102
{ACAD_XDICTIONARY
360
4E1
102
}
102
{ACAD_REACTORS
330
47F
102
}
330
47F
100
AcDbVisualStyle
  2
Basic
 70
     7
 71
     1
 72
     0
 73
     1
 90
        0
 40
-0.6
 41
-30.0
 62
     5
 63
     7
 74
     0
 91
        4
 64
     7
 65
   257
 75
     1
175
     1
 42
1.0
 92
        8
 66
     7
 43
1.0
 76
     1
 77
     6
 78
     2
 67
     7
 79
     5
170
     0
171
     0
290
     0
174
     0
 93
        1
 44
0.0
173
     0
291
     1
 45
0.0
1001
ACAD
1000
AcDbSavedByObjectVersion
1070
     0
  0
VISUALSTYLE
  5
48B
102
{ACAD_XDICTIONARY
360
4EF
102
}
102
{ACAD_REACTORS
330
47F
102
}
330
47F
100
AcDbVisualStyle
  2
Brighten
 70
    12
 71
     2
 72
     2
 73
     0
 90
        0
 40
-0.6
 41
-30.0
 62
     5
 63
     7
 74
     1
 91
        4
 64
     7
 65
   257
 75
     1
175
     1
 42
1.0
 92
        8
 66
     7
 43
1.0
 76
     1
 77
     6
 78
     2
 67
     7
 79
     5
170
     0
171
     0
290
     0
174
     0
 93
        1
 44
50.0
173
     0
291
     1
 45
0.0
1001
ACAD
1000
AcDbSavedByObjectVersion
1070
     0
  0
VISUALSTYLE
  5
48F
102
{ACAD_XDICTIONARY
360
4F7
102
}
102
{ACAD_REACTORS
330
47F
102
}
330
47F
100
AcDbVisualStyle
  2
ColorChange
 70
    16
 71
     2
 72
     2
 73
     3
 90
        0
 40
-0.6
 41
-30.0
 62
     5
 63
     8
 74
     1
 91
        4
 64
     7
 65
   257
 75
     1
175
     1
 42
1.0
 92
        8
 66
     8
 43
1.0
 76
     1
 77
     6
 78
     2
 67
     7
 79
     5
170
     0
171
     0
290
     0
174
     0
 93
        1
 44
0.0
173
     0
291
     1
 45
0.0
1001
ACAD
1000
AcDbSavedByObjectVersion
1070
     0
  0
VISUALSTYLE
  5
488
102
{ACAD_XDICTIONARY
360
4E9
102
}
102
{ACAD_REACTORS
330
47F
102
}
330
47F
100
AcDbVisualStyle
  2
Conceptual
 70
     9
 71
     3
 72
     2
 73
     0
 90
        0
 40
-0.6
 41
-30.0
 62
     5
 63
     7
 74
     2
 91
        2
 64
     7
 65
   257
 75
     1
175
     1
 42
179.0
 92
        8
 66
     7
 43
1.0
 76
     1
 77
     6
 78
     2
 67
     7
 79
     3
170
     0
171
     0
290
     0
174
     0
 93
        1
 44
0.0
173
     0
291
     0
 45
0.0
1001
ACAD
1000
AcDbSavedByObjectVersion
1070
     0
  0
VISUALSTYLE
  5
48A
102
{ACAD_XDICTIONARY
360
4ED
102
}
102
{ACAD_REACTORS
330
47F
102
}
330
47F
100
AcDbVisualStyle
  2
Dim
 70
    11
 71
     2
 72
     2
 73
     0
 90
        0
 40
-0.6
 41
-30.0
 62
     5
 63
     7
 74
     1
 91
        4
 64
     7
 65
   257
 75
     1
175
     1
 42
1.0
 92
        8
 66
     7
 43
1.0
 76
     1
 77
     6
 78
     2
 67
     7
 79
     5
170
     0
171
     0
290
     0
174
     0
 93
        1
 44
-50.0
173
     0
291
     1
 45
0.0
1001
ACAD
1000
AcDbSavedByObjectVersion
1070
     0
  0
VISUALSTYLE
  5
497
102
{ACAD_XDICTIONARY
360
507
102
}
102
{ACAD_REACTORS
330
47F
102
}
330
47F
100
AcDbVisualStyle
  2
EdgeColorOff
 70
    22
 71
     2
 72
     2
 73
     0
 90
        0
 40
-0.6
 41
-30.0
 62
     5
 63
     7
 74
     1
 91
        4
 64
     7
 65
   257
 75
     1
175
     1
 42
1.0
 92
        8
 66
     7
 43
1.0
 76
     1
 77
     6
 78
     2
 67
     7
 79
     5
170
     0
171
     0
290
     0
174
     0
 93
        1
 44
0.0
173
     0
291
     1
 45
0.0
1001
ACAD
1000
AcDbSavedByObjectVersion
1070
     0
  0
VISUALSTYLE
  5
48E
102
{ACAD_XDICTIONARY
360
4F5
102
}
102
{ACAD_REACTORS
330
47F
102
}
330
47F
100
AcDbVisualStyle
  2
Facepattern
 70
    15
 71
     2
 72
     2
 73
     0
 90
        0
 40
-0.6
 41
-30.0
 62
     5
 63
     7
 74
     1
 91
        4
 64
     7
 65
   257
 75
     1
175
     1
 42
1.0
 92
        8
 66
     7
 43
1.0
 76
     1
 77
     6
 78
     2
 67
     7
 79
     5
170
     0
171
     0
290
     0
174
     0
 93
        1
 44
0.0
173
     0
291
     1
 45
0.0
1001
ACAD
1000
AcDbSavedByObjectVersion
1070
     0
  0
VISUALSTYLE
  5
480
102
{ACAD_XDICTIONARY
360
4D9
102
}
102
{ACAD_REACTORS
330
47F
102
}
330
47F
100
AcDbVisualStyle
  2
Flat
 70
     0
 71
     2
 72
     1
 73
     1
 90
        2
 40
-0.6
 41
30.0
 62
     5
 63
     7
 74
     0
 91
        0
 64
     7
 65
   257
 75
     1
175
     1
 42
1.0
 92
        8
 66
     7
 43
1.0
 76
     1
 77
     6
 78
     2
 67
     7
 79
     5
170
     0
171
     0
290
     0
174
     0
 93
       13
 44
0.0
173
     0
291
     1
 45
0.0
1001
ACAD
1000
AcDbSavedByObjectVersion
1070
     0
  0
VISUALSTYLE
  5
481
102
{ACAD_XDICTIONARY
360
4DB
102
}
102
{ACAD_REACTORS
330
47F
102
}
330
47F
100
AcDbVisualStyle
  2
FlatWithEdges
 70
     1
 71
     2
 72
     1
 73
     1
 90
        2
 40
-0.6
 41
30.0
 62
     5
 63
     7
 74
     1
 91
        0
 64
     7
 65
   257
 75
     1
175
     1
 42
1.0
 92
        0
 66
   257
 43
1.0
 76
     1
 77
     6
 78
     2
 67
     7
 79
     5
170
     0
171
     0
290
     0
174
     0
 93
       13
 44
0.0
173
     0
291
     1
 45
0.0
1001
ACAD
1000
AcDbSavedByObjectVersion
1070
     0
  0
VISUALSTYLE
  5
482
102
{ACAD_XDICTIONARY
360
4DD
102
}
102
{ACAD_REACTORS
330
47F
102
}
330
47F
100
AcDbVisualStyle
  2
Gouraud
 70
     2
 71
     2
 72
     2
 73
     1
 90
        2
 40
-0.6
 41
30.0
 62
     5
 63
     7
 74
     0
 91
        0
 64
     7
 65
   257
 75
     1
175
     1
 42
1.0
 92
        0
 66
     7
 43
1.0
 76
     1
 77
     6
 78
     2
 67
     7
 79
     5
170
     0
171
     0
290
     0
174
     0
 93
       13
 44
0.0
173
     0
291
     1
 45
0.0
1001
ACAD
1000
AcDbSavedByObjectVersion
1070
     0
  0
VISUALSTYLE
  5
483
102
{ACAD_XDICTIONARY
360
4DF
102
}
102
{ACAD_REACTORS
330
47F
102
}
330
47F
100
AcDbVisualStyle
  2
GouraudWithEdges
 70
     3
 71
     2
 72
     2
 73
     1
 90
        2
 40
-0.6
 41
30.0
 62
     5
 63
     7
 74
     1
 91
        0
 64
     7
 65
   257
 75
     1
175
     1
 42
1.0
 92
        0
 66
   257
 43
1.0
 76
     1
 77
     6
 78
     2
 67
     7
 79
     5
170
     0
171
     0
290
     0
174
     0
 93
       13
 44
0.0
173
     0
291
     1
 45
0.0
1001
ACAD
1000
AcDbSavedByObjectVersion
1070
     0
  0
VISUALSTYLE
  5
487
102
{ACAD_XDICTIONARY
360
4E7
102
}
102
{ACAD_REACTORS
330
47F
102
}
330
47F
100
AcDbVisualStyle
  2
Hidden
 70
     6
 71
     1
 72
     2
 73
     2
 90
        0
 40
-0.6
 41
-30.0
 62
     5
 63
     7
 74
     2
 91
        2
 64
     7
 65
   257
 75
     2
175
     1
 42
40.0
 92
        0
 66
   257
 43
1.0
 76
     1
 77
     6
 78
     2
 67
     7
 79
     3
170
     0
171
     0
290
     0
174
     0
 93
        1
 44
0.0
173
     0
291
     0
 45
0.0
1001
ACAD
1000
AcDbSavedByObjectVersion
1070
     0
  0
VISUALSTYLE
  5
495
102
{ACAD_XDICTIONARY
360
503
102
}
102
{ACAD_REACTORS
330
47F
102
}
330
47F
100
AcDbVisualStyle
  2
JitterOff
 70
    20
 71
     2
 72
     2
 73
     0
 90
        0
 40
-0.6
 41
-30.0
 62
     5
 63
     7
 74
     1
 91
        4
 64
     7
 65
   257
 75
     1
175
     1
 42
1.0
 92
       10
 66
     7
 43
1.0
 76
     1
 77
     6
 78
     2
 67
     7
 79
     5
170
     0
171
     0
290
     0
174
     0
 93
        1
 44
0.0
173
     0
291
     1
 45
0.0
1001
ACAD
1000
AcDbSavedByObjectVersion
1070
     0
  0
VISUALSTYLE
  5
48D
102
{ACAD_XDICTIONARY
360
4F3
102
}
102
{ACAD_REACTORS
330
47F
102
}
330
47F
100
AcDbVisualStyle
  2
Linepattern
 70
    14
 71
     2
 72
     2
 73
     0
 90
        0
 40
-0.6
 41
-30.0
 62
     5
 63
     7
 74
     1
 91
        4
 64
     7
 65
   257
 75
     7
175
     7
 42
1.0
 92
        8
 66
     7
 43
1.0
 76
     1
 77
     6
 78
     2
 67
     7
 79
     5
170
     0
171
     0
290
     0
174
     0
 93
        1
 44
0.0
173
     0
291
     1
 45
0.0
1001
ACAD
1000
AcDbSavedByObjectVersion
1070
     0
  0
VISUALSTYLE
  5
496
102
{ACAD_XDICTIONARY
360
505
102
}
102
{ACAD_REACTORS
330
47F
102
}
330
47F
100
AcDbVisualStyle
  2
OverhangOff
 70
    21
 71
     2
 72
     2
 73
     0
 90
        0
 40
-0.6
 41
-30.0
 62
     5
 63
     7
 74
     1
 91
        4
 64
     7
 65
   257
 75
     1
175
     1
 42
1.0
 92
        9
 66
     7
 43
1.0
 76
     1
 77
     6
 78
     2
 67
     7
 79
     5
170
     0
171
     0
290
     0
174
     0
 93
        1
 44
0.0
173
     0
291
     1
 45
0.0
1001
ACAD
1000
AcDbSavedByObjectVersion
1070
     0
  0
VISUALSTYLE
  5
489
102
{ACAD_XDICTIONARY
360
4EB
102
}
102
{ACAD_REACTORS
330
47F
102
}
330
47F
100
AcDbVisualStyle
  2
Realistic
 70
     8
 71
     2
 72
     3
 73
     0
 90
        2
 40
-0.6
 41
30.0
 62
     5
 63
     7
 74
     0
 91
        0
 64
     7
 65
   257
 75
     1
175
     1
 42
1.0
 92
        8
 66
   257
 43
1.0
 76
     1
 77
     6
 78
     2
 67
     7
 79
     3
170
     0
171
     0
290
     0
174
     0
 93
       13
 44
0.0
173
     0
291
     0
 45
0.0
1001
ACAD
1000
AcDbSavedByObjectVersion
1070
     0
  0
VISUALSTYLE
  5
494
102
{ACAD_XDICTIONARY
360
501
102
}
102
{ACAD_REACTORS
330
47F
102
}
330
47F
100
AcDbVisualStyle
  2
Shaded
 70
    27
 71
     2
 72
     2
 73
     1
 90
        2
 40
-0.6
 41
30.0
 62
     5
 63
     7
 74
     0
 91
        4
 64
     7
 65
   257
 75
     1
175
     1
 42
1.0
 92
        8
 66
   257
 43
1.0
 76
     1
 77
     6
 78
     2
 67
     8
 79
     3
170
     0
171
     0
290
     0
174
     0
 93
        5
 44
0.0
173
     0
291
     0
 45
0.0
1001
ACAD
1000
AcDbSavedByObjectVersion
1070
     0
  0
VISUALSTYLE
  5
493
102
{ACAD_XDICTIONARY
360
4FF
102
}
102
{ACAD_REACTORS
330
47F
102
}
330
47F
100
AcDbVisualStyle
  2
Shaded with edges
 70
    26
 71
     2
 72
     2
 73
     1
 90
        2
 40
-0.6
 41
30.0
 62
     5
 63
     7
 74
     1
 91
       10
 64
     7
 65
   257
 75
     2
175
     1
 42
1.0
 92
        8
 66
   257
 43
1.0
 76
     1
 77
     6
 78
     2
 67
     7
 79
     3
170
     0
171
     0
290
     0
174
     0
 93
        5
 44
0.0
173
     0
291
     0
 45
0.0
1001
ACAD
1000
AcDbSavedByObjectVersion
1070
     0
  0
VISUALSTYLE
  5
490
102
{ACAD_XDICTIONARY
360
4F9
102
}
102
{ACAD_REACTORS
330
47F
102
}
330
47F
100
AcDbVisualStyle
  2
Shades of Gray
 70
    23
 71
     2
 72
     2
 73
     3
 90
        0
 40
-0.6
 41
-30.0
 62
     5
 63
     7
 74
     2
 91
        2
 64
     7
 65
     7
 75
     1
175
     1
 42
40.0
 92
        8
 66
     7
 43
1.0
 76
     1
 77
     6
 78
     2
 67
     7
 79
     3
170
     0
171
     0
290
     0
174
     0
 93
        1
 44
0.0
173
     0
291
     0
 45
0.0
1001
ACAD
1000
AcDbSavedByObjectVersion
1070
     0
  0
VISUALSTYLE
  5
491
102
{ACAD_XDICTIONARY
360
4FB
102
}
102
{ACAD_REACTORS
330
47F
102
}
330
47F
100
AcDbVisualStyle
  2
Sketchy
 70
    24
 71
     1
 72
     2
 73
     2
 90
        0
 40
-0.6
 41
-30.0
 62
     5
 63
     7
 74
     2
 91
        2
 64
     7
 65
     7
 75
     1
175
     1
 42
40.0
 92
       11
 66
     7
 43
1.0
 76
     1
 77
     6
 78
     2
 67
     7
 79
     6
170
     0
171
     0
290
     0
174
     0
 93
        1
 44
0.0
173
     0
291
     0
 45
0.0
1001
ACAD
1000
AcDbSavedByObjectVersion
1070
     0
  0
VISUALSTYLE
  5
48C
102
{ACAD_XDICTIONARY
360
4F1
102
}
102
{ACAD_REACTORS
330
47F
102
}
330
47F
100
AcDbVisualStyle
  2
Thicken
 70
    13
 71
     2
 72
     2
 73
     0
 90
        0
 40
-0.6
 41
-30.0
 62
     5
 63
     7
 74
     1
 91
        4
 64
     7
 65
   257
 75
     1
175
     1
 42
1.0
 92
       12
 66
     7
 43
1.0
 76
     1
 77
     6
 78
     2
 67
     7
 79
     5
170
     0
171
     0
290
     0
174
     0
 93
        1
 44
0.0
173
     0
291
     1
 45
0.0
1001
ACAD
1000
AcDbSavedByObjectVersion
1070
     0
  0
VISUALSTYLE
  5
486
102
{ACAD_XDICTIONARY
360
4E5
102
}
102
{ACAD_REACTORS
330
47F
102
}
330
47F
100
AcDbVisualStyle
  2
Wireframe
 70
     5
 71
     0
 72
     2
 73
     0
 90
        0
 40
-0.6
 41
-30.0
 62
     5
 63
     7
 74
     1
 91
        4
 64
     7
 65
   257
 75
     1
175
     1
 42
1.0
 92
        0
 66
   257
 43
1.0
 76
     1
 77
     6
 78
     2
 67
     7
 79
     3
170
     0
171
     0
290
     0
174
     0
 93
        1
 44
0.0
173
     0
291
     0
 45
0.0
1001
ACAD
1000
AcDbSavedByObjectVersion
1070
     0
  0
VISUALSTYLE
  5
492
102
{ACAD_XDICTIONARY
360
4FD
102
}
102
{ACAD_REACTORS
330
47F
102
}
330
47F
100
AcDbVisualStyle
  2
X-Ray
 70
    25
 71
     2
 72
     2
 73
     1
 90
        1
 40
0.5
 41
-30.0
 62
     5
 63
     7
 74
     1
 91
        0
 64
     7
 65
   257
 75
     1
175
     1
 42
1.0
 92
        8
 66
     7
 43
1.0
 76
     1
 77
     6
 78
     2
 67
     7
 79
     3
170
     0
171
     0
290
     0
174
     0
 93
       13
 44
0.0
173
     0
291
     0
 45
0.0
1001
ACAD
1000
AcDbSavedByObjectVersion
1070
     0
  0
DICTIONARYVAR
  5
4CC
102
{ACAD_REACTORS
330
4C7
102
}
330
4C7
100
DictionaryVariables
280
     0
  1
1:1
  0
DICTIONARYVAR
  5
4C9
102
{ACAD_REACTORS
330
4C7
102
}
330
4C7
100
DictionaryVariables
280
     0
  1
STANDARD
  0
DICTIONARYVAR
  5
4C8
102
{ACAD_REACTORS
330
4C7
102
}
330
4C7
100
DictionaryVariables
280
     0
  1
STANDARD
  0
DICTIONARYVAR
  5
4CA
102
{ACAD_REACTORS
330
4C7
102
}
330
4C7
100
DictionaryVariables
280
     0
  1
Imperial24
  0
DICTIONARYVAR
  5
4CB
102
{ACAD_REACTORS
330
4C7
102
}
330
4C7
100
DictionaryVariables
280
     0
  1
Imperial24
  0
DICTIONARYVAR
  5
4CF
102
{ACAD_REACTORS
330
4C7
102
}
330
4C7
100
DictionaryVariables
280
     0
  1
1
  0
DICTIONARYVAR
  5
4CE
102
{ACAD_REACTORS
330
4C7
102
}
330
4C7
100
DictionaryVariables
280
     0
  1
0
  0
DICTIONARYVAR
  5
4CD
102
{ACAD_REACTORS
330
4C7
102
}
330
4C7
100
DictionaryVariables
280
     0
  1
127
  0
DICTIONARYVAR
  5
4D0
102
{ACAD_REACTORS
330
4C7
102
}
330
4C7
100
DictionaryVariables
280
     0
  1
2
  0
DICTIONARY
  5
50D
330
4B2
100
AcDbDictionary
280
     1
281
     1
  3
ACAD_XREC_ROUNDTRIP
360
50E
  0
DICTIONARY
  5
50F
330
4B3
100
AcDbDictionary
280
     1
281
     1
  3
ACAD_XREC_ROUNDTRIP
360
510
  0
DICTIONARY
  5
511
330
4B4
100
AcDbDictionary
280
     1
281
     1
  3
ACAD_XREC_ROUNDTRIP
360
512
  0
DICTIONARY
  5
470
330
46F
100
AcDbDictionary
280
     1
281
     1
  3
ACAD_XREC_ROUNDTRIP
360
4D7
  3
BUMPTILE
360
472
  3
DIFFUSETILE
360
471
  3
OPACITYTILE
360
475
  3
REFLECTIONTILE
360
474
  3
REFRACTIONTILE
360
476
  3
SPECULARTILE
360
473
  0
DICTIONARY
  5
468
330
467
100
AcDbDictionary
280
     1
281
     1
  3
ACAD_XREC_ROUNDTRIP
360
4D6
  3
BUMPTILE
360
46A
  3
DIFFUSETILE
360
469
  3
OPACITYTILE
360
46D
  3
REFLECTIONTILE
360
46C
  3
REFRACTIONTILE
360
46E
  3
SPECULARTILE
360
46B
  0
DICTIONARY
  5
478
330
477
100
AcDbDictionary
280
     1
281
     1
  3
ACAD_XREC_ROUNDTRIP
360
4D8
  3
BUMPTILE
360
47A
  3
DIFFUSETILE
360
479
  3
OPACITYTILE
360
47D
  3
REFLECTIONTILE
360
47C
  3
REFRACTIONTILE
360
47E
  3
SPECULARTILE
360
47B
  0
DICTIONARY
  5
50B
330
4B0
100
AcDbDictionary
280
     1
281
     1
  3
ACAD_XREC_ROUNDTRIP
360
50C
  0
DICTIONARY
  5
4D2
330
49A
100
AcDbDictionary
280
     1
281
     1
  3
ACAD_ROUNDTRIP_2008_TABLESTYLE_CELLSTYLEMAP
360
4D3
  3
ACAD_XREC_ROUNDTRIP
360
509
  0
DICTIONARY
  5
4E3
330
485
100
AcDbDictionary
280
     1
281
     1
  3
ACAD_XREC_ROUNDTRIP
360
4E4
  0
DICTIONARY
  5
4E1
330
484
100
AcDbDictionary
280
     1
281
     1
  3
ACAD_XREC_ROUNDTRIP
360
4E2
  0
DICTIONARY
  5
4EF
330
48B
100
AcDbDictionary
280
     1
281
     1
  3
ACAD_XREC_ROUNDTRIP
360
4F0
  0
DICTIONARY
  5
4F7
330
48F
100
AcDbDictionary
280
     1
281
     1
  3
ACAD_XREC_ROUNDTRIP
360
4F8
  0
DICTIONARY
  5
4E9
330
488
100
AcDbDictionary
280
     1
281
     1
  3
ACAD_XREC_ROUNDTRIP
360
4EA
  0
DICTIONARY
  5
4ED
330
48A
100
AcDbDictionary
280
     1
281
     1
  3
ACAD_XREC_ROUNDTRIP
360
4EE
  0
DICTIONARY
  5
507
330
497
100
AcDbDictionary
280
     1
281
     1
  3
ACAD_XREC_ROUNDTRIP
360
508
  0
DICTIONARY
  5
4F5
330
48E
100
AcDbDictionary
280
     1
281
     1
  3
ACAD_XREC_ROUNDTRIP
360
4F6
  0
DICTIONARY
  5
4D9
330
480
100
AcDbDictionary
280
     1
281
     1
  3
ACAD_XREC_ROUNDTRIP
360
4DA
  0
DICTIONARY
  5
4DB
330
481
100
AcDbDictionary
280
     1
281
     1
  3
ACAD_XREC_ROUNDTRIP
360
4DC
  0
DICTIONARY
  5
4DD
330
482
100
AcDbDictionary
280
     1
281
     1
  3
ACAD_XREC_ROUNDTRIP
360
4DE
  0
DICTIONARY
  5
4DF
330
483
100
AcDbDictionary
280
     1
281
     1
  3
ACAD_XREC_ROUNDTRIP
360
4E0
  0
DICTIONARY
  5
4E7
330
487
100
AcDbDictionary
280
     1
281
     1
  3
ACAD_XREC_ROUNDTRIP
360
4E8
  0
DICTIONARY
  5
503
330
495
100
AcDbDictionary
280
     1
281
     1
  3
ACAD_XREC_ROUNDTRIP
360
504
  0
DICTIONARY
  5
4F3
330
48D
100
AcDbDictionary
280
     1
281
     1
  3
ACAD_XREC_ROUNDTRIP
360
4F4
  0
DICTIONARY
  5
505
330
496
100
AcDbDictionary
280
     1
281
     1
  3
ACAD_XREC_ROUNDTRIP
360
506
  0
DICTIONARY
  5
4EB
330
489
100
AcDbDictionary
280
     1
281
     1
  3
ACAD_XREC_ROUNDTRIP
360
4EC
  0
DICTIONARY
  5
501
330
494
100
AcDbDictionary
280
     1
281
     1
  3
ACAD_XREC_ROUNDTRIP
360
502
  0
DICTIONARY
  5
4FF
330
493
100
AcDbDictionary
280
     1
281
     1
  3
ACAD_XREC_ROUNDTRIP
360
500
  0
DICTIONARY
  5
4F9
330
490
100
AcDbDictionary
280
     1
281
     1
  3
ACAD_XREC_ROUNDTRIP
360
4FA
  0
DICTIONARY
  5
4FB
330
491
100
AcDbDictionary
280
     1
281
     1
  3
ACAD_XREC_ROUNDTRIP
360
4FC
  0
DICTIONARY
  5
4F1
330
48C
100
AcDbDictionary
280
     1
281
     1
  3
ACAD_XREC_ROUNDTRIP
360
4F2
  0
DICTIONARY
  5
4E5
330
486
100
AcDbDictionary
280
     1
281
     1
  3
ACAD_XREC_ROUNDTRIP
360
4E6
  0
DICTIONARY
  5
4FD
330
492
100
AcDbDictionary
280
     1
281
     1
  3
ACAD_XREC_ROUNDTRIP
360
4FE
  0
XRECORD
  5
50E
102
{ACAD_REACTORS
330
50D
102
}
330
50D
100
AcDbXrecord
280
     1
102
DISPLAYNAME
  1
Imperial24
102
FLAGS
 90
        0
  0
XRECORD
  5
510
102
{ACAD_REACTORS
330
50F
102
}
330
50F
100
AcDbXrecord
280
     1
102
SHADEPLOT
 70
     0
102
SHADEPLOTRESLEVEL
 70
     2
102
SHADEPLOTCUSTOMDPI
 70
   300
  0
XRECORD
  5
512
102
{ACAD_REACTORS
330
511
102
}
330
511
100
AcDbXrecord
280
     1
102
SHADEPLOT
 70
     0
102
SHADEPLOTRESLEVEL
 70
     2
102
SHADEPLOTCUSTOMDPI
 70
   300
  0
XRECORD
  5
4D7
102
{ACAD_REACTORS
330
470
102
}
330
470
100
AcDbXrecord
280
     1
102
MATERIAL
148
0.0
149
0.0
149
0.0
 93
        0
 94
      127
282
     0
 72
     0
 77
     0
171
     0
175
     0
179
     0
273
     0
  0
XRECORD
  5
472
102
{ACAD_REACTORS
330
470
102
}
330
470
100
AcDbXrecord
280
     1
270
     1
271
     1
  0
XRECORD
  5
471
102
{ACAD_REACTORS
330
470
102
}
330
470
100
AcDbXrecord
280
     1
270
     1
271
     1
  0
XRECORD
  5
475
102
{ACAD_REACTORS
330
470
102
}
330
470
100
AcDbXrecord
280
     1
270
     1
271
     1
  0
XRECORD
  5
474
102
{ACAD_REACTORS
330
470
102
}
330
470
100
AcDbXrecord
280
     1
270
     1
271
     1
  0
XRECORD
  5
476
102
{ACAD_REACTORS
330
470
102
}
330
470
100
AcDbXrecord
280
     1
270
     1
271
     1
  0
XRECORD
  5
473
102
{ACAD_REACTORS
330
470
102
}
330
470
100
AcDbXrecord
280
     1
270
     1
271
     1
  0
XRECORD
  5
4D6
102
{ACAD_REACTORS
330
468
102
}
330
468
100
AcDbXrecord
280
     1
102
MATERIAL
148
0.0
149
0.0
149
0.0
 93
        0
 94
      127
282
     0
 72
     0
 77
     0
171
     0
175
     0
179
     0
273
     0
  0
XRECORD
  5
46A
102
{ACAD_REACTORS
330
468
102
}
330
468
100
AcDbXrecord
280
     1
270
     1
271
     1
  0
XRECORD
  5
469
102
{ACAD_REACTORS
330
468
102
}
330
468
100
AcDbXrecord
280
     1
270
     1
271
     1
  0
XRECORD
  5
46D
102
{ACAD_REACTORS
330
468
102
}
330
468
100
AcDbXrecord
280
     1
270
     1
271
     1
  0
XRECORD
  5
46C
102
{ACAD_REACTORS
330
468
102
}
330
468
100
AcDbXrecord
280
     1
270
     1
271
     1
  0
XRECORD
  5
46E
102
{ACAD_REACTORS
330
468
102
}
330
468
100
AcDbXrecord
280
     1
270
     1
271
     1
  0
XRECORD
  5
46B
102
{ACAD_REACTORS
330
468
102
}
330
468
100
AcDbXrecord
280
     1
270
     1
271
     1
  0
XRECORD
  5
4D8
102
{ACAD_REACTORS
330
478
102
}
330
478
100
AcDbXrecord
280
     1
102
MATERIAL
148
0.0
149
0.0
149
0.0
 93
        0
 94
      127
282
     0
 72
     0
 77
     0
171
     0
175
     0
179
     0
273
     0
  0
XRECORD
  5
47A
102
{ACAD_REACTORS
330
478
102
}
330
478
100
AcDbXrecord
280
     1
270
     1
271
     1
  0
XRECORD
  5
479
102
{ACAD_REACTORS
330
478
102
}
330
478
100
AcDbXrecord
280
     1
270
     1
271
     1
  0
XRECORD
  5
47D
102
{ACAD_REACTORS
330
478
102
}
330
478
100
AcDbXrecord
280
     1
270
     1
271
     1
  0
XRECORD
  5
47C
102
{ACAD_REACTORS
330
478
102
}
330
478
100
AcDbXrecord
280
     1
270
     1
271
     1
  0
XRECORD
  5
47E
102
{ACAD_REACTORS
330
478
102
}
330
478
100
AcDbXrecord
280
     1
270
     1
271
     1
  0
XRECORD
  5
47B
102
{ACAD_REACTORS
330
478
102
}
330
478
100
AcDbXrecord
280
     1
270
     1
271
     1
  0
XRECORD
  5
50C
102
{ACAD_REACTORS
330
50B
102
}
330
50B
100
AcDbXrecord
280
     1
102
DISPLAYNAME
  1
Imperial24
102
FLAGS
 90
        0
  0
CELLSTYLEMAP
  5
4D3
102
{ACAD_REACTORS
330
4D2
102
}
330
4D2
100
AcDbCellStyleMap
 90
        3
300
CELLSTYLE
  1
TABLEFORMAT_BEGIN
 90
        5
170
     1
 91
        0
 92
    32768
 62
   257
 93
        1
300
CONTENTFORMAT
  1
CONTENTFORMAT_BEGIN
 90
        0
 91
        0
 92
      512
 93
        0
300

 40
0.0
140
1.0
 94
        5
 62
     0
340
23A
144
0.25
309
CONTENTFORMAT_END
171
     0
 94
        0
309
TABLEFORMAT_END
  1
CELLSTYLE_BEGIN
 90
        1
 91
        1
300
_TITLE
309
CELLSTYLE_END
300
CELLSTYLE
  1
TABLEFORMAT_BEGIN
 90
        5
170
     1
 91
        0
 92
        0
 62
   257
 93
        1
300
CONTENTFORMAT
  1
CONTENTFORMAT_BEGIN
 90
        0
 91
        0
 92
      512
 93
        0
300

 40
0.0
140
1.0
 94
        5
 62
     0
340
23A
144
0.18
309
CONTENTFORMAT_END
171
     0
 94
        0
309
TABLEFORMAT_END
  1
CELLSTYLE_BEGIN
 90
        2
 91
        1
300
_HEADER
309
CELLSTYLE_END
300
CELLSTYLE
  1
TABLEFORMAT_BEGIN
 90
        5
170
     1
 91
        0
 92
        0
 62
   257
 93
        1
300
CONTENTFORMAT
  1
CONTENTFORMAT_BEGIN
 90
        0
 91
        0
 92
      512
 93
        0
300

 40
0.0
140
1.0
 94
        2
 62
     0
340
23A
144
0.18
309
CONTENTFORMAT_END
171
     0
 94
        0
309
TABLEFORMAT_END
  1
CELLSTYLE_BEGIN
 90
        3
 91
        2
300
_DATA
309
CELLSTYLE_END
  0
XRECORD
  5
509
102
{ACAD_REACTORS
330
4D2
102
}
330
4D2
100
AcDbXrecord
280
     1
102
ACAD_ROUNDTRIP_PRE2007_TABLESTYLE
 90
      512
 91
        0
  1

 92
      512
 93
        0
  2

 94
      512
 95
        0
  3

  0
XRECORD
  5
4E4
102
{ACAD_REACTORS
330
4E3
102
}
330
4E3
100
AcDbXrecord
280
     1
102
RTVSPost2010Prop28
280
     1
102
RTVSPost2010PropOp28
 70
     1
102
RTVSPost2010Prop29
280
     1
102
RTVSPost2010PropOp29
 70
     1
102
RTVSPost2010Prop30
280
     0
102
RTVSPost2010PropOp30
 70
     1
102
RTVSPost2010Prop31
280
     0
102
RTVSPost2010PropOp31
 70
     1
102
RTVSPost2010Prop32
280
     0
102
RTVSPost2010PropOp32
 70
     1
102
RTVSPost2010Prop33
280
     0
102
RTVSPost2010PropOp33
 70
     1
102
RTVSPost2010Prop34
280
     0
102
RTVSPost2010PropOp34
 70
     1
102
RTVSPost2010Prop35
280
     0
102
RTVSPost2010PropOp35
 70
     1
102
RTVSPost2010Prop36
280
     0
102
RTVSPost2010PropOp36
 70
     1
102
RTVSPost2010Prop37
 90
       50
102
RTVSPost2010PropOp37
 70
     1
102
RTVSPost2010Prop38
140
0.0
102
RTVSPost2010PropOp38
 70
     1
102
RTVSPost2010Prop39
140
1.0
102
RTVSPost2010PropOp39
 70
     1
102
RTVSPost2010Prop40
 90
        0
102
RTVSPost2010PropOp40
 70
     1
102
RTVSPost2010Prop41ColorIndex
 90
       18
102
RTVSPost2010Prop41ColorRGB
 90
        0
102
RTVSPost2010PropOp41
 70
     1
102
RTVSPost2010Prop42
 90
       50
102
RTVSPost2010PropOp42
 70
     1
102
RTVSPost2010Prop43
 90
        3
102
RTVSPost2010PropOp43
 70
     1
102
RTVSPost2010Prop44ColorIndex
 90
        5
102
RTVSPost2010Prop44ColorRGB
 90
      255
102
RTVSPost2010PropOp44
 70
     1
102
RTVSPost2010Prop45
280
     0
102
RTVSPost2010PropOp45
 70
     1
102
RTVSPost2010Prop46
 90
       50
102
RTVSPost2010PropOp46
 70
     1
102
RTVSPost2010Prop47
 90
       50
102
RTVSPost2010PropOp47
 70
     1
102
RTVSPost2010Prop48
 90
       50
102
RTVSPost2010PropOp48
 70
     1
102
RTVSPost2010Prop49
280
     0
102
RTVSPost2010PropOp49
 70
     1
102
RTVSPost2010Prop50
 90
       50
102
RTVSPost2010PropOp50
 70
     1
102
RTVSPost2010Prop51ColorIndex
 90
      256
102
RTVSPost2010Prop51ColorRGB
 90
-16777216
102
RTVSPost2010PropOp51
 70
     0
102
RTVSPost2010Prop52
140
1.0
102
RTVSPost2010PropOp52
 70
     0
102
RTVSPost2010Prop53
 90
        2
102
RTVSPost2010PropOp53
 70
     1
102
RTVSPost2010Prop54
  1
strokes_ogs.tif
102
RTVSPost2010PropOp54
 70
     1
102
RTVSPost2010Prop55
280
     0
102
RTVSPost2010PropOp55
 70
     1
102
RTVSPost2010Prop56
140
1.0
102
RTVSPost2010PropOp56
 70
     1
102
RTVSPost2010Prop57
140
1.0
102
RTVSPost2010PropOp57
 70
     1
102
RTVSPropertyOp0
 70
     1
102
RTVSPropertyOp1
 70
     1
102
RTVSPropertyOp2
 70
     1
102
RTVSPropertyOp3
 70
     1
102
RTVSPropertyOp4
 70
     1
102
RTVSPropertyOp5
 70
     1
102
RTVSPropertyOp6
 70
     1
102
RTVSPropertyOp7
 70
     1
102
RTVSPropertyOp8
 70
     1
102
RTVSPropertyOp9
 70
     1
102
RTVSPropertyOp10
 70
     1
102
RTVSPropertyOp11
 70
     1
102
RTVSPropertyOp12
 70
     1
102
RTVSPropertyOp13
 70
     1
102
RTVSPropertyOp14
 70
     1
102
RTVSPropertyOp15
 70
     1
102
RTVSPropertyOp16
 70
     1
102
RTVSPropertyOp17
 70
     1
102
RTVSPropertyOp18
 70
     1
102
RTVSPropertyOp19
 70
     1
102
RTVSPropertyOp20
 70
     1
102
RTVSPropertyOp21
 70
     1
102
RTVSPropertyOp22
 70
     1
102
RTVSPropertyOp23
 70
     1
102
RTVSPropertyOp24
 70
     1
102
RTVSPropertyOp25
 70
     1
102
RTVSPropertyOp26
 70
     1
102
RTVSPropertyOp27
 70
     1
102
RTVSPropertyOp28
 70
     1
102
RTVSPropertyOp29
 70
     1
102
RTVSPropertyOp30
 70
     1
102
RTVSPropertyOp31
 70
     1
102
RTVSPropertyOp32
 70
     1
102
RTVSPropertyOp33
 70
     1
102
RTVSPropertyOp34
 70
     1
102
RTVSPropertyOp35
 70
     1
102
RTVSPropertyOp36
 70
     1
102
RTVSPropertyOp37
 70
     1
102
RTVSPropertyOp38
 70
     1
102
RTVSPropertyOp39
 70
     1
102
RTVSPropertyOp40
 70
     1
102
RTVSPropertyOp41
 70
     1
102
RTVSPropertyOp42
 70
     1
102
RTVSPropertyOp43
 70
     1
102
RTVSPropertyOp44
 70
     1
102
RTVSPropertyOp45
 70
     1
102
RTVSPropertyOp46
 70
     1
102
RTVSPropertyOp47
 70
     1
102
RTVSPropertyOp48
 70
     1
102
RTVSPropertyOp49
 70
     1
102
RTVSPropertyOp50
 70
     1
102
RTVSPropertyOp51
 70
     0
102
RTVSPropertyOp52
 70
     0
102
RTVSPropertyOp53
 70
     1
102
RTVSPropertyOp54
 70
     1
102
RTVSPropertyOp55
 70
     1
102
RTVSPropertyOp56
 70
     1
102
RTVSPropertyOp57
 70
     1
102
RTVSPropertyOp58
 70
     1
102
RTVSPropertyOp59
 70
     1
102
RTVSPropertyOp60
 70
     1
102
RTVSPropertyOp61
 70
     1
102
RTVSPropertyOp62
 70
     1
  0
XRECORD
  5
4E2
102
{ACAD_REACTORS
330
4E1
102
}
330
4E1
100
AcDbXrecord
280
     1
102
RTVSPost2010Prop28
280
     0
102
RTVSPost2010PropOp28
 70
     1
102
RTVSPost2010Prop29
280
     1
102
RTVSPost2010PropOp29
 70
     1
102
RTVSPost2010Prop30
280
     1
102
RTVSPost2010PropOp30
 70
     1
102
RTVSPost2010Prop31
280
     0
102
RTVSPost2010PropOp31
 70
     1
102
RTVSPost2010Prop32
280
     0
102
RTVSPost2010PropOp32
 70
     1
102
RTVSPost2010Prop33
280
     0
102
RTVSPost2010PropOp33
 70
     1
102
RTVSPost2010Prop34
280
     0
102
RTVSPost2010PropOp34
 70
     1
102
RTVSPost2010Prop35
280
     0
102
RTVSPost2010PropOp35
 70
     1
102
RTVSPost2010Prop36
280
     0
102
RTVSPost2010PropOp36
 70
     1
102
RTVSPost2010Prop37
 90
       50
102
RTVSPost2010PropOp37
 70
     1
102
RTVSPost2010Prop38
140
0.0
102
RTVSPost2010PropOp38
 70
     1
102
RTVSPost2010Prop39
140
1.0
102
RTVSPost2010PropOp39
 70
     1
102
RTVSPost2010Prop40
 90
        0
102
RTVSPost2010PropOp40
 70
     1
102
RTVSPost2010Prop41ColorIndex
 90
       18
102
RTVSPost2010Prop41ColorRGB
 90
        0
102
RTVSPost2010PropOp41
 70
     1
102
RTVSPost2010Prop42
 90
       50
102
RTVSPost2010PropOp42
 70
     1
102
RTVSPost2010Prop43
 90
        3
102
RTVSPost2010PropOp43
 70
     1
102
RTVSPost2010Prop44ColorIndex
 90
        5
102
RTVSPost2010Prop44ColorRGB
 90
      255
102
RTVSPost2010PropOp44
 70
     1
102
RTVSPost2010Prop45
280
     0
102
RTVSPost2010PropOp45
 70
     1
102
RTVSPost2010Prop46
 90
       50
102
RTVSPost2010PropOp46
 70
     1
102
RTVSPost2010Prop47
 90
       50
102
RTVSPost2010PropOp47
 70
     1
102
RTVSPost2010Prop48
 90
       50
102
RTVSPost2010PropOp48
 70
     1
102
RTVSPost2010Prop49
280
     0
102
RTVSPost2010PropOp49
 70
     1
102
RTVSPost2010Prop50
 90
       50
102
RTVSPost2010PropOp50
 70
     1
102
RTVSPost2010Prop51ColorIndex
 90
      256
102
RTVSPost2010Prop51ColorRGB
 90
-16777216
102
RTVSPost2010PropOp51
 70
     0
102
RTVSPost2010Prop52
140
1.0
102
RTVSPost2010PropOp52
 70
     0
102
RTVSPost2010Prop53
 90
        2
102
RTVSPost2010PropOp53
 70
     1
102
RTVSPost2010Prop54
  1
strokes_ogs.tif
102
RTVSPost2010PropOp54
 70
     1
102
RTVSPost2010Prop55
280
     0
102
RTVSPost2010PropOp55
 70
     1
102
RTVSPost2010Prop56
140
1.0
102
RTVSPost2010PropOp56
 70
     1
102
RTVSPost2010Prop57
140
1.0
102
RTVSPost2010PropOp57
 70
     1
102
RTVSPropertyOp0
 70
     1
102
RTVSPropertyOp1
 70
     1
102
RTVSPropertyOp2
 70
     1
102
RTVSPropertyOp3
 70
     1
102
RTVSPropertyOp4
 70
     1
102
RTVSPropertyOp5
 70
     1
102
RTVSPropertyOp6
 70
     1
102
RTVSPropertyOp7
 70
     1
102
RTVSPropertyOp8
 70
     1
102
RTVSPropertyOp9
 70
     1
102
RTVSPropertyOp10
 70
     1
102
RTVSPropertyOp11
 70
     1
102
RTVSPropertyOp12
 70
     1
102
RTVSPropertyOp13
 70
     1
102
RTVSPropertyOp14
 70
     1
102
RTVSPropertyOp15
 70
     1
102
RTVSPropertyOp16
 70
     1
102
RTVSPropertyOp17
 70
     1
102
RTVSPropertyOp18
 70
     1
102
RTVSPropertyOp19
 70
     1
102
RTVSPropertyOp20
 70
     1
102
RTVSPropertyOp21
 70
     1
102
RTVSPropertyOp22
 70
     1
102
RTVSPropertyOp23
 70
     1
102
RTVSPropertyOp24
 70
     1
102
RTVSPropertyOp25
 70
     1
102
RTVSPropertyOp26
 70
     1
102
RTVSPropertyOp27
 70
     1
102
RTVSPropertyOp28
 70
     1
102
RTVSPropertyOp29
 70
     1
102
RTVSPropertyOp30
 70
     1
102
RTVSPropertyOp31
 70
     1
102
RTVSPropertyOp32
 70
     1
102
RTVSPropertyOp33
 70
     1
102
RTVSPropertyOp34
 70
     1
102
RTVSPropertyOp35
 70
     1
102
RTVSPropertyOp36
 70
     1
102
RTVSPropertyOp37
 70
     1
102
RTVSPropertyOp38
 70
     1
102
RTVSPropertyOp39
 70
     1
102
RTVSPropertyOp40
 70
     1
102
RTVSPropertyOp41
 70
     1
102
RTVSPropertyOp42
 70
     1
102
RTVSPropertyOp43
 70
     1
102
RTVSPropertyOp44
 70
     1
102
RTVSPropertyOp45
 70
     1
102
RTVSPropertyOp46
 70
     1
102
RTVSPropertyOp47
 70
     1
102
RTVSPropertyOp48
 70
     1
102
RTVSPropertyOp49
 70
     1
102
RTVSPropertyOp50
 70
     1
102
RTVSPropertyOp51
 70
     0
102
RTVSPropertyOp52
 70
     0
102
RTVSPropertyOp53
 70
     1
102
RTVSPropertyOp54
 70
     1
102
RTVSPropertyOp55
 70
     1
102
RTVSPropertyOp56
 70
     1
102
RTVSPropertyOp57
 70
     1
102
RTVSPropertyOp58
 70
     1
102
RTVSPropertyOp59
 70
     1
102
RTVSPropertyOp60
 70
     1
102
RTVSPropertyOp61
 70
     1
102
RTVSPropertyOp62
 70
     1
  0
XRECORD
  5
4F0
102
{ACAD_REACTORS
330
4EF
102
}
330
4EF
100
AcDbXrecord
280
     1
102
RTVSPost2010Prop28
280
     0
102
RTVSPost2010PropOp28
 70
     1
102
RTVSPost2010Prop29
280
     1
102
RTVSPost2010PropOp29
 70
     1
102
RTVSPost2010Prop30
280
     1
102
RTVSPost2010PropOp30
 70
     1
102
RTVSPost2010Prop31
280
     0
102
RTVSPost2010PropOp31
 70
     1
102
RTVSPost2010Prop32
280
     0
102
RTVSPost2010PropOp32
 70
     1
102
RTVSPost2010Prop33
280
     0
102
RTVSPost2010PropOp33
 70
     1
102
RTVSPost2010Prop34
280
     0
102
RTVSPost2010PropOp34
 70
     1
102
RTVSPost2010Prop35
280
     0
102
RTVSPost2010PropOp35
 70
     1
102
RTVSPost2010Prop36
280
     0
102
RTVSPost2010PropOp36
 70
     1
102
RTVSPost2010Prop37
 90
       50
102
RTVSPost2010PropOp37
 70
     1
102
RTVSPost2010Prop38
140
0.0
102
RTVSPost2010PropOp38
 70
     1
102
RTVSPost2010Prop39
140
1.0
102
RTVSPost2010PropOp39
 70
     1
102
RTVSPost2010Prop40
 90
        0
102
RTVSPost2010PropOp40
 70
     1
102
RTVSPost2010Prop41ColorIndex
 90
       18
102
RTVSPost2010Prop41ColorRGB
 90
        0
102
RTVSPost2010PropOp41
 70
     1
102
RTVSPost2010Prop42
 90
       50
102
RTVSPost2010PropOp42
 70
     1
102
RTVSPost2010Prop43
 90
        3
102
RTVSPost2010PropOp43
 70
     1
102
RTVSPost2010Prop44ColorIndex
 90
        5
102
RTVSPost2010Prop44ColorRGB
 90
      255
102
RTVSPost2010PropOp44
 70
     1
102
RTVSPost2010Prop45
280
     0
102
RTVSPost2010PropOp45
 70
     1
102
RTVSPost2010Prop46
 90
       50
102
RTVSPost2010PropOp46
 70
     1
102
RTVSPost2010Prop47
 90
       50
102
RTVSPost2010PropOp47
 70
     1
102
RTVSPost2010Prop48
 90
       50
102
RTVSPost2010PropOp48
 70
     1
102
RTVSPost2010Prop49
280
     0
102
RTVSPost2010PropOp49
 70
     1
102
RTVSPost2010Prop50
 90
       50
102
RTVSPost2010PropOp50
 70
     1
102
RTVSPost2010Prop51ColorIndex
 90
      256
102
RTVSPost2010Prop51ColorRGB
 90
-16777216
102
RTVSPost2010PropOp51
 70
     0
102
RTVSPost2010Prop52
140
1.0
102
RTVSPost2010PropOp52
 70
     0
102
RTVSPost2010Prop53
 90
        2
102
RTVSPost2010PropOp53
 70
     1
102
RTVSPost2010Prop54
  1
strokes_ogs.tif
102
RTVSPost2010PropOp54
 70
     1
102
RTVSPost2010Prop55
280
     0
102
RTVSPost2010PropOp55
 70
     1
102
RTVSPost2010Prop56
140
1.0
102
RTVSPost2010PropOp56
 70
     1
102
RTVSPost2010Prop57
140
1.0
102
RTVSPost2010PropOp57
 70
     1
102
RTVSPropertyOp0
 70
     1
102
RTVSPropertyOp1
 70
     1
102
RTVSPropertyOp2
 70
     1
102
RTVSPropertyOp3
 70
     1
102
RTVSPropertyOp4
 70
     1
102
RTVSPropertyOp5
 70
     1
102
RTVSPropertyOp6
 70
     1
102
RTVSPropertyOp7
 70
     1
102
RTVSPropertyOp8
 70
     1
102
RTVSPropertyOp9
 70
     1
102
RTVSPropertyOp10
 70
     1
102
RTVSPropertyOp11
 70
     1
102
RTVSPropertyOp12
 70
     1
102
RTVSPropertyOp13
 70
     1
102
RTVSPropertyOp14
 70
     1
102
RTVSPropertyOp15
 70
     1
102
RTVSPropertyOp16
 70
     1
102
RTVSPropertyOp17
 70
     1
102
RTVSPropertyOp18
 70
     1
102
RTVSPropertyOp19
 70
     1
102
RTVSPropertyOp20
 70
     1
102
RTVSPropertyOp21
 70
     1
102
RTVSPropertyOp22
 70
     1
102
RTVSPropertyOp23
 70
     1
102
RTVSPropertyOp24
 70
     1
102
RTVSPropertyOp25
 70
     1
102
RTVSPropertyOp26
 70
     1
102
RTVSPropertyOp27
 70
     1
102
RTVSPropertyOp28
 70
     1
102
RTVSPropertyOp29
 70
     1
102
RTVSPropertyOp30
 70
     1
102
RTVSPropertyOp31
 70
     1
102
RTVSPropertyOp32
 70
     1
102
RTVSPropertyOp33
 70
     1
102
RTVSPropertyOp34
 70
     1
102
RTVSPropertyOp35
 70
     1
102
RTVSPropertyOp36
 70
     1
102
RTVSPropertyOp37
 70
     1
102
RTVSPropertyOp38
 70
     1
102
RTVSPropertyOp39
 70
     1
102
RTVSPropertyOp40
 70
     1
102
RTVSPropertyOp41
 70
     1
102
RTVSPropertyOp42
 70
     1
102
RTVSPropertyOp43
 70
     1
102
RTVSPropertyOp44
 70
     1
102
RTVSPropertyOp45
 70
     1
102
RTVSPropertyOp46
 70
     1
102
RTVSPropertyOp47
 70
     1
102
RTVSPropertyOp48
 70
     1
102
RTVSPropertyOp49
 70
     1
102
RTVSPropertyOp50
 70
     1
102
RTVSPropertyOp51
 70
     0
102
RTVSPropertyOp52
 70
     0
102
RTVSPropertyOp53
 70
     1
102
RTVSPropertyOp54
 70
     1
102
RTVSPropertyOp55
 70
     1
102
RTVSPropertyOp56
 70
     1
102
RTVSPropertyOp57
 70
     1
102
RTVSPropertyOp58
 70
     1
102
RTVSPropertyOp59
 70
     1
102
RTVSPropertyOp60
 70
     1
102
RTVSPropertyOp61
 70
     1
102
RTVSPropertyOp62
 70
     1
  0
XRECORD
  5
4F8
102
{ACAD_REACTORS
330
4F7
102
}
330
4F7
100
AcDbXrecord
280
     1
102
RTVSPost2010Prop28
280
     0
102
RTVSPost2010PropOp28
 70
     1
102
RTVSPost2010Prop29
280
     1
102
RTVSPost2010PropOp29
 70
     1
102
RTVSPost2010Prop30
280
     1
102
RTVSPost2010PropOp30
 70
     1
102
RTVSPost2010Prop31
280
     0
102
RTVSPost2010PropOp31
 70
     1
102
RTVSPost2010Prop32
280
     0
102
RTVSPost2010PropOp32
 70
     1
102
RTVSPost2010Prop33
280
     0
102
RTVSPost2010PropOp33
 70
     1
102
RTVSPost2010Prop34
280
     0
102
RTVSPost2010PropOp34
 70
     1
102
RTVSPost2010Prop35
280
     0
102
RTVSPost2010PropOp35
 70
     1
102
RTVSPost2010Prop36
280
     0
102
RTVSPost2010PropOp36
 70
     1
102
RTVSPost2010Prop37
 90
       50
102
RTVSPost2010PropOp37
 70
     1
102
RTVSPost2010Prop38
140
0.0
102
RTVSPost2010PropOp38
 70
     1
102
RTVSPost2010Prop39
140
1.0
102
RTVSPost2010PropOp39
 70
     1
102
RTVSPost2010Prop40
 90
        0
102
RTVSPost2010PropOp40
 70
     1
102
RTVSPost2010Prop41ColorIndex
 90
       18
102
RTVSPost2010Prop41ColorRGB
 90
        0
102
RTVSPost2010PropOp41
 70
     1
102
RTVSPost2010Prop42
 90
       50
102
RTVSPost2010PropOp42
 70
     1
102
RTVSPost2010Prop43
 90
        3
102
RTVSPost2010PropOp43
 70
     1
102
RTVSPost2010Prop44ColorIndex
 90
        5
102
RTVSPost2010Prop44ColorRGB
 90
      255
102
RTVSPost2010PropOp44
 70
     1
102
RTVSPost2010Prop45
280
     0
102
RTVSPost2010PropOp45
 70
     1
102
RTVSPost2010Prop46
 90
       50
102
RTVSPost2010PropOp46
 70
     1
102
RTVSPost2010Prop47
 90
       50
102
RTVSPost2010PropOp47
 70
     1
102
RTVSPost2010Prop48
 90
       50
102
RTVSPost2010PropOp48
 70
     1
102
RTVSPost2010Prop49
280
     0
102
RTVSPost2010PropOp49
 70
     1
102
RTVSPost2010Prop50
 90
       50
102
RTVSPost2010PropOp50
 70
     1
102
RTVSPost2010Prop51ColorIndex
 90
      256
102
RTVSPost2010Prop51ColorRGB
 90
-16777216
102
RTVSPost2010PropOp51
 70
     0
102
RTVSPost2010Prop52
140
1.0
102
RTVSPost2010PropOp52
 70
     0
102
RTVSPost2010Prop53
 90
        2
102
RTVSPost2010PropOp53
 70
     1
102
RTVSPost2010Prop54
  1
strokes_ogs.tif
102
RTVSPost2010PropOp54
 70
     1
102
RTVSPost2010Prop55
280
     0
102
RTVSPost2010PropOp55
 70
     1
102
RTVSPost2010Prop56
140
1.0
102
RTVSPost2010PropOp56
 70
     1
102
RTVSPost2010Prop57
140
1.0
102
RTVSPost2010PropOp57
 70
     1
102
RTVSPropertyOp0
 70
     1
102
RTVSPropertyOp1
 70
     1
102
RTVSPropertyOp2
 70
     1
102
RTVSPropertyOp3
 70
     1
102
RTVSPropertyOp4
 70
     1
102
RTVSPropertyOp5
 70
     1
102
RTVSPropertyOp6
 70
     1
102
RTVSPropertyOp7
 70
     1
102
RTVSPropertyOp8
 70
     1
102
RTVSPropertyOp9
 70
     1
102
RTVSPropertyOp10
 70
     1
102
RTVSPropertyOp11
 70
     1
102
RTVSPropertyOp12
 70
     1
102
RTVSPropertyOp13
 70
     1
102
RTVSPropertyOp14
 70
     1
102
RTVSPropertyOp15
 70
     1
102
RTVSPropertyOp16
 70
     1
102
RTVSPropertyOp17
 70
     1
102
RTVSPropertyOp18
 70
     1
102
RTVSPropertyOp19
 70
     1
102
RTVSPropertyOp20
 70
     1
102
RTVSPropertyOp21
 70
     1
102
RTVSPropertyOp22
 70
     1
102
RTVSPropertyOp23
 70
     1
102
RTVSPropertyOp24
 70
     1
102
RTVSPropertyOp25
 70
     1
102
RTVSPropertyOp26
 70
     1
102
RTVSPropertyOp27
 70
     1
102
RTVSPropertyOp28
 70
     1
102
RTVSPropertyOp29
 70
     1
102
RTVSPropertyOp30
 70
     1
102
RTVSPropertyOp31
 70
     1
102
RTVSPropertyOp32
 70
     1
102
RTVSPropertyOp33
 70
     1
102
RTVSPropertyOp34
 70
     1
102
RTVSPropertyOp35
 70
     1
102
RTVSPropertyOp36
 70
     1
102
RTVSPropertyOp37
 70
     1
102
RTVSPropertyOp38
 70
     1
102
RTVSPropertyOp39
 70
     1
102
RTVSPropertyOp40
 70
     1
102
RTVSPropertyOp41
 70
     1
102
RTVSPropertyOp42
 70
     1
102
RTVSPropertyOp43
 70
     1
102
RTVSPropertyOp44
 70
     1
102
RTVSPropertyOp45
 70
     1
102
RTVSPropertyOp46
 70
     1
102
RTVSPropertyOp47
 70
     1
102
RTVSPropertyOp48
 70
     1
102
RTVSPropertyOp49
 70
     1
102
RTVSPropertyOp50
 70
     1
102
RTVSPropertyOp51
 70
     0
102
RTVSPropertyOp52
 70
     0
102
RTVSPropertyOp53
 70
     1
102
RTVSPropertyOp54
 70
     1
102
RTVSPropertyOp55
 70
     1
102
RTVSPropertyOp56
 70
     1
102
RTVSPropertyOp57
 70
     1
102
RTVSPropertyOp58
 70
     1
102
RTVSPropertyOp59
 70
     1
102
RTVSPropertyOp60
 70
     1
102
RTVSPropertyOp61
 70
     1
102
RTVSPropertyOp62
 70
     1
  0
XRECORD
  5
4EA
102
{ACAD_REACTORS
330
4E9
102
}
330
4E9
100
AcDbXrecord
280
     1
102
RTVSPost2010Prop28
280
     0
102
RTVSPost2010PropOp28
 70
     1
102
RTVSPost2010Prop29
280
     1
102
RTVSPost2010PropOp29
 70
     1
102
RTVSPost2010Prop30
280
     1
102
RTVSPost2010PropOp30
 70
     1
102
RTVSPost2010Prop31
280
     0
102
RTVSPost2010PropOp31
 70
     1
102
RTVSPost2010Prop32
280
     0
102
RTVSPost2010PropOp32
 70
     1
102
RTVSPost2010Prop33
280
     0
102
RTVSPost2010PropOp33
 70
     1
102
RTVSPost2010Prop34
280
     0
102
RTVSPost2010PropOp34
 70
     1
102
RTVSPost2010Prop35
280
     0
102
RTVSPost2010PropOp35
 70
     1
102
RTVSPost2010Prop36
280
     0
102
RTVSPost2010PropOp36
 70
     1
102
RTVSPost2010Prop37
 90
       50
102
RTVSPost2010PropOp37
 70
     1
102
RTVSPost2010Prop38
140
0.0
102
RTVSPost2010PropOp38
 70
     1
102
RTVSPost2010Prop39
140
1.0
102
RTVSPost2010PropOp39
 70
     1
102
RTVSPost2010Prop40
 90
        0
102
RTVSPost2010PropOp40
 70
     1
102
RTVSPost2010Prop41ColorIndex
 90
       18
102
RTVSPost2010Prop41ColorRGB
 90
        0
102
RTVSPost2010PropOp41
 70
     1
102
RTVSPost2010Prop42
 90
       50
102
RTVSPost2010PropOp42
 70
     1
102
RTVSPost2010Prop43
 90
        3
102
RTVSPost2010PropOp43
 70
     1
102
RTVSPost2010Prop44ColorIndex
 90
        5
102
RTVSPost2010Prop44ColorRGB
 90
      255
102
RTVSPost2010PropOp44
 70
     1
102
RTVSPost2010Prop45
280
     0
102
RTVSPost2010PropOp45
 70
     1
102
RTVSPost2010Prop46
 90
       50
102
RTVSPost2010PropOp46
 70
     1
102
RTVSPost2010Prop47
 90
       50
102
RTVSPost2010PropOp47
 70
     1
102
RTVSPost2010Prop48
 90
       50
102
RTVSPost2010PropOp48
 70
     1
102
RTVSPost2010Prop49
280
     0
102
RTVSPost2010PropOp49
 70
     1
102
RTVSPost2010Prop50
 90
       50
102
RTVSPost2010PropOp50
 70
     1
102
RTVSPost2010Prop51ColorIndex
 90
      256
102
RTVSPost2010Prop51ColorRGB
 90
-16777216
102
RTVSPost2010PropOp51
 70
     0
102
RTVSPost2010Prop52
140
1.0
102
RTVSPost2010PropOp52
 70
     0
102
RTVSPost2010Prop53
 90
        2
102
RTVSPost2010PropOp53
 70
     1
102
RTVSPost2010Prop54
  1
strokes_ogs.tif
102
RTVSPost2010PropOp54
 70
     1
102
RTVSPost2010Prop55
280
     0
102
RTVSPost2010PropOp55
 70
     1
102
RTVSPost2010Prop56
140
1.0
102
RTVSPost2010PropOp56
 70
     1
102
RTVSPost2010Prop57
140
1.0
102
RTVSPost2010PropOp57
 70
     1
102
RTVSPropertyOp0
 70
     1
102
RTVSPropertyOp1
 70
     1
102
RTVSPropertyOp2
 70
     1
102
RTVSPropertyOp3
 70
     1
102
RTVSPropertyOp4
 70
     1
102
RTVSPropertyOp5
 70
     1
102
RTVSPropertyOp6
 70
     1
102
RTVSPropertyOp7
 70
     1
102
RTVSPropertyOp8
 70
     1
102
RTVSPropertyOp9
 70
     1
102
RTVSPropertyOp10
 70
     1
102
RTVSPropertyOp11
 70
     1
102
RTVSPropertyOp12
 70
     1
102
RTVSPropertyOp13
 70
     1
102
RTVSPropertyOp14
 70
     1
102
RTVSPropertyOp15
 70
     1
102
RTVSPropertyOp16
 70
     1
102
RTVSPropertyOp17
 70
     1
102
RTVSPropertyOp18
 70
     1
102
RTVSPropertyOp19
 70
     1
102
RTVSPropertyOp20
 70
     1
102
RTVSPropertyOp21
 70
     1
102
RTVSPropertyOp22
 70
     1
102
RTVSPropertyOp23
 70
     1
102
RTVSPropertyOp24
 70
     1
102
RTVSPropertyOp25
 70
     1
102
RTVSPropertyOp26
 70
     1
102
RTVSPropertyOp27
 70
     1
102
RTVSPropertyOp28
 70
     1
102
RTVSPropertyOp29
 70
     1
102
RTVSPropertyOp30
 70
     1
102
RTVSPropertyOp31
 70
     1
102
RTVSPropertyOp32
 70
     1
102
RTVSPropertyOp33
 70
     1
102
RTVSPropertyOp34
 70
     1
102
RTVSPropertyOp35
 70
     1
102
RTVSPropertyOp36
 70
     1
102
RTVSPropertyOp37
 70
     1
102
RTVSPropertyOp38
 70
     1
102
RTVSPropertyOp39
 70
     1
102
RTVSPropertyOp40
 70
     1
102
RTVSPropertyOp41
 70
     1
102
RTVSPropertyOp42
 70
     1
102
RTVSPropertyOp43
 70
     1
102
RTVSPropertyOp44
 70
     1
102
RTVSPropertyOp45
 70
     1
102
RTVSPropertyOp46
 70
     1
102
RTVSPropertyOp47
 70
     1
102
RTVSPropertyOp48
 70
     1
102
RTVSPropertyOp49
 70
     1
102
RTVSPropertyOp50
 70
     1
102
RTVSPropertyOp51
 70
     0
102
RTVSPropertyOp52
 70
     0
102
RTVSPropertyOp53
 70
     1
102
RTVSPropertyOp54
 70
     1
102
RTVSPropertyOp55
 70
     1
102
RTVSPropertyOp56
 70
     1
102
RTVSPropertyOp57
 70
     1
102
RTVSPropertyOp58
 70
     1
102
RTVSPropertyOp59
 70
     1
102
RTVSPropertyOp60
 70
     1
102
RTVSPropertyOp61
 70
     1
102
RTVSPropertyOp62
 70
     1
  0
XRECORD
  5
4EE
102
{ACAD_REACTORS
330
4ED
102
}
330
4ED
100
AcDbXrecord
280
     1
102
RTVSPost2010Prop28
280
     0
102
RTVSPost2010PropOp28
 70
     1
102
RTVSPost2010Prop29
280
     1
102
RTVSPost2010PropOp29
 70
     1
102
RTVSPost2010Prop30
280
     1
102
RTVSPost2010PropOp30
 70
     1
102
RTVSPost2010Prop31
280
     0
102
RTVSPost2010PropOp31
 70
     1
102
RTVSPost2010Prop32
280
     0
102
RTVSPost2010PropOp32
 70
     1
102
RTVSPost2010Prop33
280
     0
102
RTVSPost2010PropOp33
 70
     1
102
RTVSPost2010Prop34
280
     0
102
RTVSPost2010PropOp34
 70
     1
102
RTVSPost2010Prop35
280
     0
102
RTVSPost2010PropOp35
 70
     1
102
RTVSPost2010Prop36
280
     0
102
RTVSPost2010PropOp36
 70
     1
102
RTVSPost2010Prop37
 90
       50
102
RTVSPost2010PropOp37
 70
     1
102
RTVSPost2010Prop38
140
0.0
102
RTVSPost2010PropOp38
 70
     1
102
RTVSPost2010Prop39
140
1.0
102
RTVSPost2010PropOp39
 70
     1
102
RTVSPost2010Prop40
 90
        0
102
RTVSPost2010PropOp40
 70
     1
102
RTVSPost2010Prop41ColorIndex
 90
       18
102
RTVSPost2010Prop41ColorRGB
 90
        0
102
RTVSPost2010PropOp41
 70
     1
102
RTVSPost2010Prop42
 90
       50
102
RTVSPost2010PropOp42
 70
     1
102
RTVSPost2010Prop43
 90
        3
102
RTVSPost2010PropOp43
 70
     1
102
RTVSPost2010Prop44ColorIndex
 90
        5
102
RTVSPost2010Prop44ColorRGB
 90
      255
102
RTVSPost2010PropOp44
 70
     1
102
RTVSPost2010Prop45
280
     0
102
RTVSPost2010PropOp45
 70
     1
102
RTVSPost2010Prop46
 90
       50
102
RTVSPost2010PropOp46
 70
     1
102
RTVSPost2010Prop47
 90
       50
102
RTVSPost2010PropOp47
 70
     1
102
RTVSPost2010Prop48
 90
       50
102
RTVSPost2010PropOp48
 70
     1
102
RTVSPost2010Prop49
280
     0
102
RTVSPost2010PropOp49
 70
     1
102
RTVSPost2010Prop50
 90
       50
102
RTVSPost2010PropOp50
 70
     1
102
RTVSPost2010Prop51ColorIndex
 90
      256
102
RTVSPost2010Prop51ColorRGB
 90
-16777216
102
RTVSPost2010PropOp51
 70
     0
102
RTVSPost2010Prop52
140
1.0
102
RTVSPost2010PropOp52
 70
     0
102
RTVSPost2010Prop53
 90
        2
102
RTVSPost2010PropOp53
 70
     1
102
RTVSPost2010Prop54
  1
strokes_ogs.tif
102
RTVSPost2010PropOp54
 70
     1
102
RTVSPost2010Prop55
280
     0
102
RTVSPost2010PropOp55
 70
     1
102
RTVSPost2010Prop56
140
1.0
102
RTVSPost2010PropOp56
 70
     1
102
RTVSPost2010Prop57
140
1.0
102
RTVSPost2010PropOp57
 70
     1
102
RTVSPropertyOp0
 70
     1
102
RTVSPropertyOp1
 70
     1
102
RTVSPropertyOp2
 70
     1
102
RTVSPropertyOp3
 70
     1
102
RTVSPropertyOp4
 70
     1
102
RTVSPropertyOp5
 70
     1
102
RTVSPropertyOp6
 70
     1
102
RTVSPropertyOp7
 70
     1
102
RTVSPropertyOp8
 70
     1
102
RTVSPropertyOp9
 70
     1
102
RTVSPropertyOp10
 70
     1
102
RTVSPropertyOp11
 70
     1
102
RTVSPropertyOp12
 70
     1
102
RTVSPropertyOp13
 70
     1
102
RTVSPropertyOp14
 70
     1
102
RTVSPropertyOp15
 70
     1
102
RTVSPropertyOp16
 70
     1
102
RTVSPropertyOp17
 70
     1
102
RTVSPropertyOp18
 70
     1
102
RTVSPropertyOp19
 70
     1
102
RTVSPropertyOp20
 70
     1
102
RTVSPropertyOp21
 70
     1
102
RTVSPropertyOp22
 70
     1
102
RTVSPropertyOp23
 70
     1
102
RTVSPropertyOp24
 70
     1
102
RTVSPropertyOp25
 70
     1
102
RTVSPropertyOp26
 70
     1
102
RTVSPropertyOp27
 70
     1
102
RTVSPropertyOp28
 70
     1
102
RTVSPropertyOp29
 70
     1
102
RTVSPropertyOp30
 70
     1
102
RTVSPropertyOp31
 70
     1
102
RTVSPropertyOp32
 70
     1
102
RTVSPropertyOp33
 70
     1
102
RTVSPropertyOp34
 70
     1
102
RTVSPropertyOp35
 70
     1
102
RTVSPropertyOp36
 70
     1
102
RTVSPropertyOp37
 70
     1
102
RTVSPropertyOp38
 70
     1
102
RTVSPropertyOp39
 70
     1
102
RTVSPropertyOp40
 70
     1
102
RTVSPropertyOp41
 70
     1
102
RTVSPropertyOp42
 70
     1
102
RTVSPropertyOp43
 70
     1
102
RTVSPropertyOp44
 70
     1
102
RTVSPropertyOp45
 70
     1
102
RTVSPropertyOp46
 70
     1
102
RTVSPropertyOp47
 70
     1
102
RTVSPropertyOp48
 70
     1
102
RTVSPropertyOp49
 70
     1
102
RTVSPropertyOp50
 70
     1
102
RTVSPropertyOp51
 70
     0
102
RTVSPropertyOp52
 70
     0
102
RTVSPropertyOp53
 70
     1
102
RTVSPropertyOp54
 70
     1
102
RTVSPropertyOp55
 70
     1
102
RTVSPropertyOp56
 70
     1
102
RTVSPropertyOp57
 70
     1
102
RTVSPropertyOp58
 70
     1
102
RTVSPropertyOp59
 70
     1
102
RTVSPropertyOp60
 70
     1
102
RTVSPropertyOp61
 70
     1
102
RTVSPropertyOp62
 70
     1
  0
XRECORD
  5
508
102
{ACAD_REACTORS
330
507
102
}
330
507
100
AcDbXrecord
280
     1
102
RTVSPost2010Prop28
280
     0
102
RTVSPost2010PropOp28
 70
     1
102
RTVSPost2010Prop29
280
     1
102
RTVSPost2010PropOp29
 70
     1
102
RTVSPost2010Prop30
280
     1
102
RTVSPost2010PropOp30
 70
     1
102
RTVSPost2010Prop31
280
     0
102
RTVSPost2010PropOp31
 70
     1
102
RTVSPost2010Prop32
280
     0
102
RTVSPost2010PropOp32
 70
     1
102
RTVSPost2010Prop33
280
     0
102
RTVSPost2010PropOp33
 70
     1
102
RTVSPost2010Prop34
280
     0
102
RTVSPost2010PropOp34
 70
     1
102
RTVSPost2010Prop35
280
     0
102
RTVSPost2010PropOp35
 70
     1
102
RTVSPost2010Prop36
280
     0
102
RTVSPost2010PropOp36
 70
     1
102
RTVSPost2010Prop37
 90
       50
102
RTVSPost2010PropOp37
 70
     0
102
RTVSPost2010Prop38
140
0.0
102
RTVSPost2010PropOp38
 70
     0
102
RTVSPost2010Prop39
140
1.0
102
RTVSPost2010PropOp39
 70
     0
102
RTVSPost2010Prop40
 90
        0
102
RTVSPost2010PropOp40
 70
     0
102
RTVSPost2010Prop41ColorIndex
 90
       18
102
RTVSPost2010Prop41ColorRGB
 90
        0
102
RTVSPost2010PropOp41
 70
     0
102
RTVSPost2010Prop42
 90
       50
102
RTVSPost2010PropOp42
 70
     0
102
RTVSPost2010Prop43
 90
        3
102
RTVSPost2010PropOp43
 70
     0
102
RTVSPost2010Prop44ColorIndex
 90
        5
102
RTVSPost2010Prop44ColorRGB
 90
      255
102
RTVSPost2010PropOp44
 70
     0
102
RTVSPost2010Prop45
280
     0
102
RTVSPost2010PropOp45
 70
     1
102
RTVSPost2010Prop46
 90
       50
102
RTVSPost2010PropOp46
 70
     0
102
RTVSPost2010Prop47
 90
       50
102
RTVSPost2010PropOp47
 70
     0
102
RTVSPost2010Prop48
 90
       50
102
RTVSPost2010PropOp48
 70
     0
102
RTVSPost2010Prop49
280
     0
102
RTVSPost2010PropOp49
 70
     1
102
RTVSPost2010Prop50
 90
       50
102
RTVSPost2010PropOp50
 70
     0
102
RTVSPost2010Prop51ColorIndex
 90
      256
102
RTVSPost2010Prop51ColorRGB
 90
-16777216
102
RTVSPost2010PropOp51
 70
     0
102
RTVSPost2010Prop52
140
1.0
102
RTVSPost2010PropOp52
 70
     0
102
RTVSPost2010Prop53
 90
        2
102
RTVSPost2010PropOp53
 70
     0
102
RTVSPost2010Prop54
  1
strokes_ogs.tif
102
RTVSPost2010PropOp54
 70
     0
102
RTVSPost2010Prop55
280
     0
102
RTVSPost2010PropOp55
 70
     1
102
RTVSPost2010Prop56
140
1.0
102
RTVSPost2010PropOp56
 70
     0
102
RTVSPost2010Prop57
140
1.0
102
RTVSPost2010PropOp57
 70
     0
102
RTVSPropertyOp0
 70
     0
102
RTVSPropertyOp1
 70
     0
102
RTVSPropertyOp2
 70
     0
102
RTVSPropertyOp3
 70
     0
102
RTVSPropertyOp4
 70
     0
102
RTVSPropertyOp5
 70
     0
102
RTVSPropertyOp6
 70
     0
102
RTVSPropertyOp7
 70
     0
102
RTVSPropertyOp8
 70
     0
102
RTVSPropertyOp9
 70
     0
102
RTVSPropertyOp10
 70
     0
102
RTVSPropertyOp11
 70
     0
102
RTVSPropertyOp12
 70
     0
102
RTVSPropertyOp13
 70
     0
102
RTVSPropertyOp14
 70
     2
102
RTVSPropertyOp15
 70
     0
102
RTVSPropertyOp16
 70
     0
102
RTVSPropertyOp17
 70
     0
102
RTVSPropertyOp18
 70
     0
102
RTVSPropertyOp19
 70
     0
102
RTVSPropertyOp20
 70
     0
102
RTVSPropertyOp21
 70
     0
102
RTVSPropertyOp22
 70
     0
102
RTVSPropertyOp23
 70
     0
102
RTVSPropertyOp24
 70
     0
102
RTVSPropertyOp25
 70
     0
102
RTVSPropertyOp26
 70
     0
102
RTVSPropertyOp27
 70
     0
102
RTVSPropertyOp28
 70
     1
102
RTVSPropertyOp29
 70
     1
102
RTVSPropertyOp30
 70
     1
102
RTVSPropertyOp31
 70
     1
102
RTVSPropertyOp32
 70
     1
102
RTVSPropertyOp33
 70
     1
102
RTVSPropertyOp34
 70
     1
102
RTVSPropertyOp35
 70
     1
102
RTVSPropertyOp36
 70
     1
102
RTVSPropertyOp37
 70
     0
102
RTVSPropertyOp38
 70
     0
102
RTVSPropertyOp39
 70
     0
102
RTVSPropertyOp40
 70
     0
102
RTVSPropertyOp41
 70
     0
102
RTVSPropertyOp42
 70
     0
102
RTVSPropertyOp43
 70
     0
102
RTVSPropertyOp44
 70
     0
102
RTVSPropertyOp45
 70
     1
102
RTVSPropertyOp46
 70
     0
102
RTVSPropertyOp47
 70
     0
102
RTVSPropertyOp48
 70
     0
102
RTVSPropertyOp49
 70
     1
102
RTVSPropertyOp50
 70
     0
102
RTVSPropertyOp51
 70
     0
102
RTVSPropertyOp52
 70
     0
102
RTVSPropertyOp53
 70
     0
102
RTVSPropertyOp54
 70
     0
102
RTVSPropertyOp55
 70
     1
102
RTVSPropertyOp56
 70
     0
102
RTVSPropertyOp57
 70
     0
102
RTVSPropertyOp58
 70
     0
102
RTVSPropertyOp59
 70
     0
102
RTVSPropertyOp60
 70
     0
102
RTVSPropertyOp61
 70
     0
102
RTVSPropertyOp62
 70
     0
  0
XRECORD
  5
4F6
102
{ACAD_REACTORS
330
4F5
102
}
330
4F5
100
AcDbXrecord
280
     1
102
RTVSPost2010Prop28
280
     0
102
RTVSPost2010PropOp28
 70
     1
102
RTVSPost2010Prop29
280
     1
102
RTVSPost2010PropOp29
 70
     1
102
RTVSPost2010Prop30
280
     1
102
RTVSPost2010PropOp30
 70
     1
102
RTVSPost2010Prop31
280
     0
102
RTVSPost2010PropOp31
 70
     1
102
RTVSPost2010Prop32
280
     0
102
RTVSPost2010PropOp32
 70
     1
102
RTVSPost2010Prop33
280
     0
102
RTVSPost2010PropOp33
 70
     1
102
RTVSPost2010Prop34
280
     0
102
RTVSPost2010PropOp34
 70
     1
102
RTVSPost2010Prop35
280
     0
102
RTVSPost2010PropOp35
 70
     1
102
RTVSPost2010Prop36
280
     0
102
RTVSPost2010PropOp36
 70
     1
102
RTVSPost2010Prop37
 90
       50
102
RTVSPost2010PropOp37
 70
     1
102
RTVSPost2010Prop38
140
0.0
102
RTVSPost2010PropOp38
 70
     1
102
RTVSPost2010Prop39
140
1.0
102
RTVSPost2010PropOp39
 70
     1
102
RTVSPost2010Prop40
 90
        0
102
RTVSPost2010PropOp40
 70
     1
102
RTVSPost2010Prop41ColorIndex
 90
       18
102
RTVSPost2010Prop41ColorRGB
 90
        0
102
RTVSPost2010PropOp41
 70
     1
102
RTVSPost2010Prop42
 90
       50
102
RTVSPost2010PropOp42
 70
     1
102
RTVSPost2010Prop43
 90
        3
102
RTVSPost2010PropOp43
 70
     1
102
RTVSPost2010Prop44ColorIndex
 90
        5
102
RTVSPost2010Prop44ColorRGB
 90
      255
102
RTVSPost2010PropOp44
 70
     1
102
RTVSPost2010Prop45
280
     0
102
RTVSPost2010PropOp45
 70
     1
102
RTVSPost2010Prop46
 90
       50
102
RTVSPost2010PropOp46
 70
     1
102
RTVSPost2010Prop47
 90
       50
102
RTVSPost2010PropOp47
 70
     1
102
RTVSPost2010Prop48
 90
       50
102
RTVSPost2010PropOp48
 70
     1
102
RTVSPost2010Prop49
280
     0
102
RTVSPost2010PropOp49
 70
     1
102
RTVSPost2010Prop50
 90
       50
102
RTVSPost2010PropOp50
 70
     1
102
RTVSPost2010Prop51ColorIndex
 90
      256
102
RTVSPost2010Prop51ColorRGB
 90
-16777216
102
RTVSPost2010PropOp51
 70
     0
102
RTVSPost2010Prop52
140
1.0
102
RTVSPost2010PropOp52
 70
     0
102
RTVSPost2010Prop53
 90
        2
102
RTVSPost2010PropOp53
 70
     1
102
RTVSPost2010Prop54
  1
strokes_ogs.tif
102
RTVSPost2010PropOp54
 70
     1
102
RTVSPost2010Prop55
280
     0
102
RTVSPost2010PropOp55
 70
     1
102
RTVSPost2010Prop56
140
1.0
102
RTVSPost2010PropOp56
 70
     1
102
RTVSPost2010Prop57
140
1.0
102
RTVSPost2010PropOp57
 70
     1
102
RTVSPropertyOp0
 70
     1
102
RTVSPropertyOp1
 70
     1
102
RTVSPropertyOp2
 70
     1
102
RTVSPropertyOp3
 70
     1
102
RTVSPropertyOp4
 70
     1
102
RTVSPropertyOp5
 70
     1
102
RTVSPropertyOp6
 70
     1
102
RTVSPropertyOp7
 70
     1
102
RTVSPropertyOp8
 70
     1
102
RTVSPropertyOp9
 70
     1
102
RTVSPropertyOp10
 70
     1
102
RTVSPropertyOp11
 70
     1
102
RTVSPropertyOp12
 70
     1
102
RTVSPropertyOp13
 70
     1
102
RTVSPropertyOp14
 70
     1
102
RTVSPropertyOp15
 70
     1
102
RTVSPropertyOp16
 70
     1
102
RTVSPropertyOp17
 70
     1
102
RTVSPropertyOp18
 70
     1
102
RTVSPropertyOp19
 70
     1
102
RTVSPropertyOp20
 70
     1
102
RTVSPropertyOp21
 70
     1
102
RTVSPropertyOp22
 70
     1
102
RTVSPropertyOp23
 70
     1
102
RTVSPropertyOp24
 70
     1
102
RTVSPropertyOp25
 70
     1
102
RTVSPropertyOp26
 70
     1
102
RTVSPropertyOp27
 70
     1
102
RTVSPropertyOp28
 70
     1
102
RTVSPropertyOp29
 70
     1
102
RTVSPropertyOp30
 70
     1
102
RTVSPropertyOp31
 70
     1
102
RTVSPropertyOp32
 70
     1
102
RTVSPropertyOp33
 70
     1
102
RTVSPropertyOp34
 70
     1
102
RTVSPropertyOp35
 70
     1
102
RTVSPropertyOp36
 70
     1
102
RTVSPropertyOp37
 70
     1
102
RTVSPropertyOp38
 70
     1
102
RTVSPropertyOp39
 70
     1
102
RTVSPropertyOp40
 70
     1
102
RTVSPropertyOp41
 70
     1
102
RTVSPropertyOp42
 70
     1
102
RTVSPropertyOp43
 70
     1
102
RTVSPropertyOp44
 70
     1
102
RTVSPropertyOp45
 70
     1
102
RTVSPropertyOp46
 70
     1
102
RTVSPropertyOp47
 70
     1
102
RTVSPropertyOp48
 70
     1
102
RTVSPropertyOp49
 70
     1
102
RTVSPropertyOp50
 70
     1
102
RTVSPropertyOp51
 70
     0
102
RTVSPropertyOp52
 70
     0
102
RTVSPropertyOp53
 70
     1
102
RTVSPropertyOp54
 70
     1
102
RTVSPropertyOp55
 70
     1
102
RTVSPropertyOp56
 70
     1
102
RTVSPropertyOp57
 70
     1
102
RTVSPropertyOp58
 70
     1
102
RTVSPropertyOp59
 70
     1
102
RTVSPropertyOp60
 70
     1
102
RTVSPropertyOp61
 70
     1
102
RTVSPropertyOp62
 70
     1
  0
XRECORD
  5
4DA
102
{ACAD_REACTORS
330
4D9
102
}
330
4D9
100
AcDbXrecord
280
     1
102
RTVSPost2010Prop28
280
     0
102
RTVSPost2010PropOp28
 70
     1
102
RTVSPost2010Prop29
280
     1
102
RTVSPost2010PropOp29
 70
     1
102
RTVSPost2010Prop30
280
     1
102
RTVSPost2010PropOp30
 70
     1
102
RTVSPost2010Prop31
280
     0
102
RTVSPost2010PropOp31
 70
     1
102
RTVSPost2010Prop32
280
     0
102
RTVSPost2010PropOp32
 70
     1
102
RTVSPost2010Prop33
280
     0
102
RTVSPost2010PropOp33
 70
     1
102
RTVSPost2010Prop34
280
     0
102
RTVSPost2010PropOp34
 70
     1
102
RTVSPost2010Prop35
280
     0
102
RTVSPost2010PropOp35
 70
     1
102
RTVSPost2010Prop36
280
     0
102
RTVSPost2010PropOp36
 70
     1
102
RTVSPost2010Prop37
 90
       50
102
RTVSPost2010PropOp37
 70
     1
102
RTVSPost2010Prop38
140
0.0
102
RTVSPost2010PropOp38
 70
     1
102
RTVSPost2010Prop39
140
1.0
102
RTVSPost2010PropOp39
 70
     1
102
RTVSPost2010Prop40
 90
        0
102
RTVSPost2010PropOp40
 70
     1
102
RTVSPost2010Prop41ColorIndex
 90
       18
102
RTVSPost2010Prop41ColorRGB
 90
        0
102
RTVSPost2010PropOp41
 70
     1
102
RTVSPost2010Prop42
 90
       50
102
RTVSPost2010PropOp42
 70
     1
102
RTVSPost2010Prop43
 90
        3
102
RTVSPost2010PropOp43
 70
     1
102
RTVSPost2010Prop44ColorIndex
 90
        5
102
RTVSPost2010Prop44ColorRGB
 90
      255
102
RTVSPost2010PropOp44
 70
     1
102
RTVSPost2010Prop45
280
     0
102
RTVSPost2010PropOp45
 70
     1
102
RTVSPost2010Prop46
 90
       50
102
RTVSPost2010PropOp46
 70
     1
102
RTVSPost2010Prop47
 90
       50
102
RTVSPost2010PropOp47
 70
     1
102
RTVSPost2010Prop48
 90
       50
102
RTVSPost2010PropOp48
 70
     1
102
RTVSPost2010Prop49
280
     0
102
RTVSPost2010PropOp49
 70
     1
102
RTVSPost2010Prop50
 90
       50
102
RTVSPost2010PropOp50
 70
     1
102
RTVSPost2010Prop51ColorIndex
 90
      256
102
RTVSPost2010Prop51ColorRGB
 90
-16777216
102
RTVSPost2010PropOp51
 70
     0
102
RTVSPost2010Prop52
140
1.0
102
RTVSPost2010PropOp52
 70
     0
102
RTVSPost2010Prop53
 90
        2
102
RTVSPost2010PropOp53
 70
     1
102
RTVSPost2010Prop54
  1
strokes_ogs.tif
102
RTVSPost2010PropOp54
 70
     1
102
RTVSPost2010Prop55
280
     0
102
RTVSPost2010PropOp55
 70
     1
102
RTVSPost2010Prop56
140
1.0
102
RTVSPost2010PropOp56
 70
     1
102
RTVSPost2010Prop57
140
1.0
102
RTVSPost2010PropOp57
 70
     1
102
RTVSPropertyOp0
 70
     1
102
RTVSPropertyOp1
 70
     1
102
RTVSPropertyOp2
 70
     1
102
RTVSPropertyOp3
 70
     1
102
RTVSPropertyOp4
 70
     1
102
RTVSPropertyOp5
 70
     1
102
RTVSPropertyOp6
 70
     1
102
RTVSPropertyOp7
 70
     1
102
RTVSPropertyOp8
 70
     1
102
RTVSPropertyOp9
 70
     1
102
RTVSPropertyOp10
 70
     1
102
RTVSPropertyOp11
 70
     1
102
RTVSPropertyOp12
 70
     1
102
RTVSPropertyOp13
 70
     1
102
RTVSPropertyOp14
 70
     1
102
RTVSPropertyOp15
 70
     1
102
RTVSPropertyOp16
 70
     1
102
RTVSPropertyOp17
 70
     1
102
RTVSPropertyOp18
 70
     1
102
RTVSPropertyOp19
 70
     1
102
RTVSPropertyOp20
 70
     1
102
RTVSPropertyOp21
 70
     1
102
RTVSPropertyOp22
 70
     1
102
RTVSPropertyOp23
 70
     1
102
RTVSPropertyOp24
 70
     1
102
RTVSPropertyOp25
 70
     1
102
RTVSPropertyOp26
 70
     1
102
RTVSPropertyOp27
 70
     1
102
RTVSPropertyOp28
 70
     1
102
RTVSPropertyOp29
 70
     1
102
RTVSPropertyOp30
 70
     1
102
RTVSPropertyOp31
 70
     1
102
RTVSPropertyOp32
 70
     1
102
RTVSPropertyOp33
 70
     1
102
RTVSPropertyOp34
 70
     1
102
RTVSPropertyOp35
 70
     1
102
RTVSPropertyOp36
 70
     1
102
RTVSPropertyOp37
 70
     1
102
RTVSPropertyOp38
 70
     1
102
RTVSPropertyOp39
 70
     1
102
RTVSPropertyOp40
 70
     1
102
RTVSPropertyOp41
 70
     1
102
RTVSPropertyOp42
 70
     1
102
RTVSPropertyOp43
 70
     1
102
RTVSPropertyOp44
 70
     1
102
RTVSPropertyOp45
 70
     1
102
RTVSPropertyOp46
 70
     1
102
RTVSPropertyOp47
 70
     1
102
RTVSPropertyOp48
 70
     1
102
RTVSPropertyOp49
 70
     1
102
RTVSPropertyOp50
 70
     1
102
RTVSPropertyOp51
 70
     0
102
RTVSPropertyOp52
 70
     0
102
RTVSPropertyOp53
 70
     1
102
RTVSPropertyOp54
 70
     1
102
RTVSPropertyOp55
 70
     1
102
RTVSPropertyOp56
 70
     1
102
RTVSPropertyOp57
 70
     1
102
RTVSPropertyOp58
 70
     1
102
RTVSPropertyOp59
 70
     1
102
RTVSPropertyOp60
 70
     1
102
RTVSPropertyOp61
 70
     1
102
RTVSPropertyOp62
 70
     1
  0
XRECORD
  5
4DC
102
{ACAD_REACTORS
330
4DB
102
}
330
4DB
100
AcDbXrecord
280
     1
102
RTVSPost2010Prop28
280
     0
102
RTVSPost2010PropOp28
 70
     1
102
RTVSPost2010Prop29
280
     1
102
RTVSPost2010PropOp29
 70
     1
102
RTVSPost2010Prop30
280
     1
102
RTVSPost2010PropOp30
 70
     1
102
RTVSPost2010Prop31
280
     0
102
RTVSPost2010PropOp31
 70
     1
102
RTVSPost2010Prop32
280
     0
102
RTVSPost2010PropOp32
 70
     1
102
RTVSPost2010Prop33
280
     0
102
RTVSPost2010PropOp33
 70
     1
102
RTVSPost2010Prop34
280
     0
102
RTVSPost2010PropOp34
 70
     1
102
RTVSPost2010Prop35
280
     0
102
RTVSPost2010PropOp35
 70
     1
102
RTVSPost2010Prop36
280
     0
102
RTVSPost2010PropOp36
 70
     1
102
RTVSPost2010Prop37
 90
       50
102
RTVSPost2010PropOp37
 70
     1
102
RTVSPost2010Prop38
140
0.0
102
RTVSPost2010PropOp38
 70
     1
102
RTVSPost2010Prop39
140
1.0
102
RTVSPost2010PropOp39
 70
     1
102
RTVSPost2010Prop40
 90
        0
102
RTVSPost2010PropOp40
 70
     1
102
RTVSPost2010Prop41ColorIndex
 90
       18
102
RTVSPost2010Prop41ColorRGB
 90
        0
102
RTVSPost2010PropOp41
 70
     1
102
RTVSPost2010Prop42
 90
       50
102
RTVSPost2010PropOp42
 70
     1
102
RTVSPost2010Prop43
 90
        3
102
RTVSPost2010PropOp43
 70
     1
102
RTVSPost2010Prop44ColorIndex
 90
        5
102
RTVSPost2010Prop44ColorRGB
 90
      255
102
RTVSPost2010PropOp44
 70
     1
102
RTVSPost2010Prop45
280
     0
102
RTVSPost2010PropOp45
 70
     1
102
RTVSPost2010Prop46
 90
       50
102
RTVSPost2010PropOp46
 70
     1
102
RTVSPost2010Prop47
 90
       50
102
RTVSPost2010PropOp47
 70
     1
102
RTVSPost2010Prop48
 90
       50
102
RTVSPost2010PropOp48
 70
     1
102
RTVSPost2010Prop49
280
     0
102
RTVSPost2010PropOp49
 70
     1
102
RTVSPost2010Prop50
 90
       50
102
RTVSPost2010PropOp50
 70
     1
102
RTVSPost2010Prop51ColorIndex
 90
      256
102
RTVSPost2010Prop51ColorRGB
 90
-16777216
102
RTVSPost2010PropOp51
 70
     0
102
RTVSPost2010Prop52
140
1.0
102
RTVSPost2010PropOp52
 70
     0
102
RTVSPost2010Prop53
 90
        2
102
RTVSPost2010PropOp53
 70
     1
102
RTVSPost2010Prop54
  1
strokes_ogs.tif
102
RTVSPost2010PropOp54
 70
     1
102
RTVSPost2010Prop55
280
     0
102
RTVSPost2010PropOp55
 70
     1
102
RTVSPost2010Prop56
140
1.0
102
RTVSPost2010PropOp56
 70
     1
102
RTVSPost2010Prop57
140
1.0
102
RTVSPost2010PropOp57
 70
     1
102
RTVSPropertyOp0
 70
     1
102
RTVSPropertyOp1
 70
     1
102
RTVSPropertyOp2
 70
     1
102
RTVSPropertyOp3
 70
     1
102
RTVSPropertyOp4
 70
     1
102
RTVSPropertyOp5
 70
     1
102
RTVSPropertyOp6
 70
     1
102
RTVSPropertyOp7
 70
     1
102
RTVSPropertyOp8
 70
     1
102
RTVSPropertyOp9
 70
     1
102
RTVSPropertyOp10
 70
     1
102
RTVSPropertyOp11
 70
     1
102
RTVSPropertyOp12
 70
     1
102
RTVSPropertyOp13
 70
     1
102
RTVSPropertyOp14
 70
     1
102
RTVSPropertyOp15
 70
     1
102
RTVSPropertyOp16
 70
     1
102
RTVSPropertyOp17
 70
     1
102
RTVSPropertyOp18
 70
     1
102
RTVSPropertyOp19
 70
     1
102
RTVSPropertyOp20
 70
     1
102
RTVSPropertyOp21
 70
     1
102
RTVSPropertyOp22
 70
     1
102
RTVSPropertyOp23
 70
     1
102
RTVSPropertyOp24
 70
     1
102
RTVSPropertyOp25
 70
     1
102
RTVSPropertyOp26
 70
     1
102
RTVSPropertyOp27
 70
     1
102
RTVSPropertyOp28
 70
     1
102
RTVSPropertyOp29
 70
     1
102
RTVSPropertyOp30
 70
     1
102
RTVSPropertyOp31
 70
     1
102
RTVSPropertyOp32
 70
     1
102
RTVSPropertyOp33
 70
     1
102
RTVSPropertyOp34
 70
     1
102
RTVSPropertyOp35
 70
     1
102
RTVSPropertyOp36
 70
     1
102
RTVSPropertyOp37
 70
     1
102
RTVSPropertyOp38
 70
     1
102
RTVSPropertyOp39
 70
     1
102
RTVSPropertyOp40
 70
     1
102
RTVSPropertyOp41
 70
     1
102
RTVSPropertyOp42
 70
     1
102
RTVSPropertyOp43
 70
     1
102
RTVSPropertyOp44
 70
     1
102
RTVSPropertyOp45
 70
     1
102
RTVSPropertyOp46
 70
     1
102
RTVSPropertyOp47
 70
     1
102
RTVSPropertyOp48
 70
     1
102
RTVSPropertyOp49
 70
     1
102
RTVSPropertyOp50
 70
     1
102
RTVSPropertyOp51
 70
     0
102
RTVSPropertyOp52
 70
     0
102
RTVSPropertyOp53
 70
     1
102
RTVSPropertyOp54
 70
     1
102
RTVSPropertyOp55
 70
     1
102
RTVSPropertyOp56
 70
     1
102
RTVSPropertyOp57
 70
     1
102
RTVSPropertyOp58
 70
     1
102
RTVSPropertyOp59
 70
     1
102
RTVSPropertyOp60
 70
     1
102
RTVSPropertyOp61
 70
     1
102
RTVSPropertyOp62
 70
     1
  0
XRECORD
  5
4DE
102
{ACAD_REACTORS
330
4DD
102
}
330
4DD
100
AcDbXrecord
280
     1
102
RTVSPost2010Prop28
280
     0
102
RTVSPost2010PropOp28
 70
     1
102
RTVSPost2010Prop29
280
     1
102
RTVSPost2010PropOp29
 70
     1
102
RTVSPost2010Prop30
280
     1
102
RTVSPost2010PropOp30
 70
     1
102
RTVSPost2010Prop31
280
     0
102
RTVSPost2010PropOp31
 70
     1
102
RTVSPost2010Prop32
280
     0
102
RTVSPost2010PropOp32
 70
     1
102
RTVSPost2010Prop33
280
     0
102
RTVSPost2010PropOp33
 70
     1
102
RTVSPost2010Prop34
280
     0
102
RTVSPost2010PropOp34
 70
     1
102
RTVSPost2010Prop35
280
     0
102
RTVSPost2010PropOp35
 70
     1
102
RTVSPost2010Prop36
280
     0
102
RTVSPost2010PropOp36
 70
     1
102
RTVSPost2010Prop37
 90
       50
102
RTVSPost2010PropOp37
 70
     1
102
RTVSPost2010Prop38
140
0.0
102
RTVSPost2010PropOp38
 70
     1
102
RTVSPost2010Prop39
140
1.0
102
RTVSPost2010PropOp39
 70
     1
102
RTVSPost2010Prop40
 90
        0
102
RTVSPost2010PropOp40
 70
     1
102
RTVSPost2010Prop41ColorIndex
 90
       18
102
RTVSPost2010Prop41ColorRGB
 90
        0
102
RTVSPost2010PropOp41
 70
     1
102
RTVSPost2010Prop42
 90
       50
102
RTVSPost2010PropOp42
 70
     1
102
RTVSPost2010Prop43
 90
        3
102
RTVSPost2010PropOp43
 70
     1
102
RTVSPost2010Prop44ColorIndex
 90
        5
102
RTVSPost2010Prop44ColorRGB
 90
      255
102
RTVSPost2010PropOp44
 70
     1
102
RTVSPost2010Prop45
280
     0
102
RTVSPost2010PropOp45
 70
     1
102
RTVSPost2010Prop46
 90
       50
102
RTVSPost2010PropOp46
 70
     1
102
RTVSPost2010Prop47
 90
       50
102
RTVSPost2010PropOp47
 70
     1
102
RTVSPost2010Prop48
 90
       50
102
RTVSPost2010PropOp48
 70
     1
102
RTVSPost2010Prop49
280
     0
102
RTVSPost2010PropOp49
 70
     1
102
RTVSPost2010Prop50
 90
       50
102
RTVSPost2010PropOp50
 70
     1
102
RTVSPost2010Prop51ColorIndex
 90
      256
102
RTVSPost2010Prop51ColorRGB
 90
-16777216
102
RTVSPost2010PropOp51
 70
     0
102
RTVSPost2010Prop52
140
1.0
102
RTVSPost2010PropOp52
 70
     0
102
RTVSPost2010Prop53
 90
        2
102
RTVSPost2010PropOp53
 70
     1
102
RTVSPost2010Prop54
  1
strokes_ogs.tif
102
RTVSPost2010PropOp54
 70
     1
102
RTVSPost2010Prop55
280
     0
102
RTVSPost2010PropOp55
 70
     1
102
RTVSPost2010Prop56
140
1.0
102
RTVSPost2010PropOp56
 70
     1
102
RTVSPost2010Prop57
140
1.0
102
RTVSPost2010PropOp57
 70
     1
102
RTVSPropertyOp0
 70
     1
102
RTVSPropertyOp1
 70
     1
102
RTVSPropertyOp2
 70
     1
102
RTVSPropertyOp3
 70
     1
102
RTVSPropertyOp4
 70
     1
102
RTVSPropertyOp5
 70
     1
102
RTVSPropertyOp6
 70
     1
102
RTVSPropertyOp7
 70
     1
102
RTVSPropertyOp8
 70
     1
102
RTVSPropertyOp9
 70
     1
102
RTVSPropertyOp10
 70
     1
102
RTVSPropertyOp11
 70
     1
102
RTVSPropertyOp12
 70
     1
102
RTVSPropertyOp13
 70
     1
102
RTVSPropertyOp14
 70
     1
102
RTVSPropertyOp15
 70
     1
102
RTVSPropertyOp16
 70
     1
102
RTVSPropertyOp17
 70
     1
102
RTVSPropertyOp18
 70
     1
102
RTVSPropertyOp19
 70
     1
102
RTVSPropertyOp20
 70
     1
102
RTVSPropertyOp21
 70
     1
102
RTVSPropertyOp22
 70
     1
102
RTVSPropertyOp23
 70
     1
102
RTVSPropertyOp24
 70
     1
102
RTVSPropertyOp25
 70
     1
102
RTVSPropertyOp26
 70
     1
102
RTVSPropertyOp27
 70
     1
102
RTVSPropertyOp28
 70
     1
102
RTVSPropertyOp29
 70
     1
102
RTVSPropertyOp30
 70
     1
102
RTVSPropertyOp31
 70
     1
102
RTVSPropertyOp32
 70
     1
102
RTVSPropertyOp33
 70
     1
102
RTVSPropertyOp34
 70
     1
102
RTVSPropertyOp35
 70
     1
102
RTVSPropertyOp36
 70
     1
102
RTVSPropertyOp37
 70
     1
102
RTVSPropertyOp38
 70
     1
102
RTVSPropertyOp39
 70
     1
102
RTVSPropertyOp40
 70
     1
102
RTVSPropertyOp41
 70
     1
102
RTVSPropertyOp42
 70
     1
102
RTVSPropertyOp43
 70
     1
102
RTVSPropertyOp44
 70
     1
102
RTVSPropertyOp45
 70
     1
102
RTVSPropertyOp46
 70
     1
102
RTVSPropertyOp47
 70
     1
102
RTVSPropertyOp48
 70
     1
102
RTVSPropertyOp49
 70
     1
102
RTVSPropertyOp50
 70
     1
102
RTVSPropertyOp51
 70
     0
102
RTVSPropertyOp52
 70
     0
102
RTVSPropertyOp53
 70
     1
102
RTVSPropertyOp54
 70
     1
102
RTVSPropertyOp55
 70
     1
102
RTVSPropertyOp56
 70
     1
102
RTVSPropertyOp57
 70
     1
102
RTVSPropertyOp58
 70
     1
102
RTVSPropertyOp59
 70
     1
102
RTVSPropertyOp60
 70
     1
102
RTVSPropertyOp61
 70
     1
102
RTVSPropertyOp62
 70
     1
  0
XRECORD
  5
4E0
102
{ACAD_REACTORS
330
4DF
102
}
330
4DF
100
AcDbXrecord
280
     1
102
RTVSPost2010Prop28
280
     0
102
RTVSPost2010PropOp28
 70
     1
102
RTVSPost2010Prop29
280
     1
102
RTVSPost2010PropOp29
 70
     1
102
RTVSPost2010Prop30
280
     1
102
RTVSPost2010PropOp30
 70
     1
102
RTVSPost2010Prop31
280
     0
102
RTVSPost2010PropOp31
 70
     1
102
RTVSPost2010Prop32
280
     0
102
RTVSPost2010PropOp32
 70
     1
102
RTVSPost2010Prop33
280
     0
102
RTVSPost2010PropOp33
 70
     1
102
RTVSPost2010Prop34
280
     0
102
RTVSPost2010PropOp34
 70
     1
102
RTVSPost2010Prop35
280
     0
102
RTVSPost2010PropOp35
 70
     1
102
RTVSPost2010Prop36
280
     0
102
RTVSPost2010PropOp36
 70
     1
102
RTVSPost2010Prop37
 90
       50
102
RTVSPost2010PropOp37
 70
     1
102
RTVSPost2010Prop38
140
0.0
102
RTVSPost2010PropOp38
 70
     1
102
RTVSPost2010Prop39
140
1.0
102
RTVSPost2010PropOp39
 70
     1
102
RTVSPost2010Prop40
 90
        0
102
RTVSPost2010PropOp40
 70
     1
102
RTVSPost2010Prop41ColorIndex
 90
       18
102
RTVSPost2010Prop41ColorRGB
 90
        0
102
RTVSPost2010PropOp41
 70
     1
102
RTVSPost2010Prop42
 90
       50
102
RTVSPost2010PropOp42
 70
     1
102
RTVSPost2010Prop43
 90
        3
102
RTVSPost2010PropOp43
 70
     1
102
RTVSPost2010Prop44ColorIndex
 90
        5
102
RTVSPost2010Prop44ColorRGB
 90
      255
102
RTVSPost2010PropOp44
 70
     1
102
RTVSPost2010Prop45
280
     0
102
RTVSPost2010PropOp45
 70
     1
102
RTVSPost2010Prop46
 90
       50
102
RTVSPost2010PropOp46
 70
     1
102
RTVSPost2010Prop47
 90
       50
102
RTVSPost2010PropOp47
 70
     1
102
RTVSPost2010Prop48
 90
       50
102
RTVSPost2010PropOp48
 70
     1
102
RTVSPost2010Prop49
280
     0
102
RTVSPost2010PropOp49
 70
     1
102
RTVSPost2010Prop50
 90
       50
102
RTVSPost2010PropOp50
 70
     1
102
RTVSPost2010Prop51ColorIndex
 90
      256
102
RTVSPost2010Prop51ColorRGB
 90
-16777216
102
RTVSPost2010PropOp51
 70
     0
102
RTVSPost2010Prop52
140
1.0
102
RTVSPost2010PropOp52
 70
     0
102
RTVSPost2010Prop53
 90
        2
102
RTVSPost2010PropOp53
 70
     1
102
RTVSPost2010Prop54
  1
strokes_ogs.tif
102
RTVSPost2010PropOp54
 70
     1
102
RTVSPost2010Prop55
280
     0
102
RTVSPost2010PropOp55
 70
     1
102
RTVSPost2010Prop56
140
1.0
102
RTVSPost2010PropOp56
 70
     1
102
RTVSPost2010Prop57
140
1.0
102
RTVSPost2010PropOp57
 70
     1
102
RTVSPropertyOp0
 70
     1
102
RTVSPropertyOp1
 70
     1
102
RTVSPropertyOp2
 70
     1
102
RTVSPropertyOp3
 70
     1
102
RTVSPropertyOp4
 70
     1
102
RTVSPropertyOp5
 70
     1
102
RTVSPropertyOp6
 70
     1
102
RTVSPropertyOp7
 70
     1
102
RTVSPropertyOp8
 70
     1
102
RTVSPropertyOp9
 70
     1
102
RTVSPropertyOp10
 70
     1
102
RTVSPropertyOp11
 70
     1
102
RTVSPropertyOp12
 70
     1
102
RTVSPropertyOp13
 70
     1
102
RTVSPropertyOp14
 70
     1
102
RTVSPropertyOp15
 70
     1
102
RTVSPropertyOp16
 70
     1
102
RTVSPropertyOp17
 70
     1
102
RTVSPropertyOp18
 70
     1
102
RTVSPropertyOp19
 70
     1
102
RTVSPropertyOp20
 70
     1
102
RTVSPropertyOp21
 70
     1
102
RTVSPropertyOp22
 70
     1
102
RTVSPropertyOp23
 70
     1
102
RTVSPropertyOp24
 70
     1
102
RTVSPropertyOp25
 70
     1
102
RTVSPropertyOp26
 70
     1
102
RTVSPropertyOp27
 70
     1
102
RTVSPropertyOp28
 70
     1
102
RTVSPropertyOp29
 70
     1
102
RTVSPropertyOp30
 70
     1
102
RTVSPropertyOp31
 70
     1
102
RTVSPropertyOp32
 70
     1
102
RTVSPropertyOp33
 70
     1
102
RTVSPropertyOp34
 70
     1
102
RTVSPropertyOp35
 70
     1
102
RTVSPropertyOp36
 70
     1
102
RTVSPropertyOp37
 70
     1
102
RTVSPropertyOp38
 70
     1
102
RTVSPropertyOp39
 70
     1
102
RTVSPropertyOp40
 70
     1
102
RTVSPropertyOp41
 70
     1
102
RTVSPropertyOp42
 70
     1
102
RTVSPropertyOp43
 70
     1
102
RTVSPropertyOp44
 70
     1
102
RTVSPropertyOp45
 70
     1
102
RTVSPropertyOp46
 70
     1
102
RTVSPropertyOp47
 70
     1
102
RTVSPropertyOp48
 70
     1
102
RTVSPropertyOp49
 70
     1
102
RTVSPropertyOp50
 70
     1
102
RTVSPropertyOp51
 70
     0
102
RTVSPropertyOp52
 70
     0
102
RTVSPropertyOp53
 70
     1
102
RTVSPropertyOp54
 70
     1
102
RTVSPropertyOp55
 70
     1
102
RTVSPropertyOp56
 70
     1
102
RTVSPropertyOp57
 70
     1
102
RTVSPropertyOp58
 70
     1
102
RTVSPropertyOp59
 70
     1
102
RTVSPropertyOp60
 70
     1
102
RTVSPropertyOp61
 70
     1
102
RTVSPropertyOp62
 70
     1
  0
XRECORD
  5
4E8
102
{ACAD_REACTORS
330
4E7
102
}
330
4E7
100
AcDbXrecord
280
     1
102
RTVSPost2010Prop28
280
     0
102
RTVSPost2010PropOp28
 70
     1
102
RTVSPost2010Prop29
280
     1
102
RTVSPost2010PropOp29
 70
     1
102
RTVSPost2010Prop30
280
     1
102
RTVSPost2010PropOp30
 70
     1
102
RTVSPost2010Prop31
280
     0
102
RTVSPost2010PropOp31
 70
     1
102
RTVSPost2010Prop32
280
     0
102
RTVSPost2010PropOp32
 70
     1
102
RTVSPost2010Prop33
280
     0
102
RTVSPost2010PropOp33
 70
     1
102
RTVSPost2010Prop34
280
     0
102
RTVSPost2010PropOp34
 70
     1
102
RTVSPost2010Prop35
280
     0
102
RTVSPost2010PropOp35
 70
     1
102
RTVSPost2010Prop36
280
     0
102
RTVSPost2010PropOp36
 70
     1
102
RTVSPost2010Prop37
 90
       50
102
RTVSPost2010PropOp37
 70
     1
102
RTVSPost2010Prop38
140
0.0
102
RTVSPost2010PropOp38
 70
     1
102
RTVSPost2010Prop39
140
1.0
102
RTVSPost2010PropOp39
 70
     1
102
RTVSPost2010Prop40
 90
        0
102
RTVSPost2010PropOp40
 70
     1
102
RTVSPost2010Prop41ColorIndex
 90
       18
102
RTVSPost2010Prop41ColorRGB
 90
        0
102
RTVSPost2010PropOp41
 70
     1
102
RTVSPost2010Prop42
 90
       50
102
RTVSPost2010PropOp42
 70
     1
102
RTVSPost2010Prop43
 90
        3
102
RTVSPost2010PropOp43
 70
     1
102
RTVSPost2010Prop44ColorIndex
 90
        5
102
RTVSPost2010Prop44ColorRGB
 90
      255
102
RTVSPost2010PropOp44
 70
     1
102
RTVSPost2010Prop45
280
     0
102
RTVSPost2010PropOp45
 70
     1
102
RTVSPost2010Prop46
 90
       50
102
RTVSPost2010PropOp46
 70
     1
102
RTVSPost2010Prop47
 90
       50
102
RTVSPost2010PropOp47
 70
     1
102
RTVSPost2010Prop48
 90
       50
102
RTVSPost2010PropOp48
 70
     1
102
RTVSPost2010Prop49
280
     0
102
RTVSPost2010PropOp49
 70
     1
102
RTVSPost2010Prop50
 90
       50
102
RTVSPost2010PropOp50
 70
     1
102
RTVSPost2010Prop51ColorIndex
 90
      256
102
RTVSPost2010Prop51ColorRGB
 90
-16777216
102
RTVSPost2010PropOp51
 70
     0
102
RTVSPost2010Prop52
140
1.0
102
RTVSPost2010PropOp52
 70
     0
102
RTVSPost2010Prop53
 90
        2
102
RTVSPost2010PropOp53
 70
     1
102
RTVSPost2010Prop54
  1
strokes_ogs.tif
102
RTVSPost2010PropOp54
 70
     1
102
RTVSPost2010Prop55
280
     0
102
RTVSPost2010PropOp55
 70
     1
102
RTVSPost2010Prop56
140
1.0
102
RTVSPost2010PropOp56
 70
     1
102
RTVSPost2010Prop57
140
1.0
102
RTVSPost2010PropOp57
 70
     1
102
RTVSPropertyOp0
 70
     1
102
RTVSPropertyOp1
 70
     1
102
RTVSPropertyOp2
 70
     1
102
RTVSPropertyOp3
 70
     1
102
RTVSPropertyOp4
 70
     1
102
RTVSPropertyOp5
 70
     1
102
RTVSPropertyOp6
 70
     1
102
RTVSPropertyOp7
 70
     1
102
RTVSPropertyOp8
 70
     1
102
RTVSPropertyOp9
 70
     1
102
RTVSPropertyOp10
 70
     1
102
RTVSPropertyOp11
 70
     1
102
RTVSPropertyOp12
 70
     1
102
RTVSPropertyOp13
 70
     1
102
RTVSPropertyOp14
 70
     1
102
RTVSPropertyOp15
 70
     1
102
RTVSPropertyOp16
 70
     1
102
RTVSPropertyOp17
 70
     1
102
RTVSPropertyOp18
 70
     1
102
RTVSPropertyOp19
 70
     1
102
RTVSPropertyOp20
 70
     1
102
RTVSPropertyOp21
 70
     1
102
RTVSPropertyOp22
 70
     1
102
RTVSPropertyOp23
 70
     1
102
RTVSPropertyOp24
 70
     1
102
RTVSPropertyOp25
 70
     1
102
RTVSPropertyOp26
 70
     1
102
RTVSPropertyOp27
 70
     1
102
RTVSPropertyOp28
 70
     1
102
RTVSPropertyOp29
 70
     1
102
RTVSPropertyOp30
 70
     1
102
RTVSPropertyOp31
 70
     1
102
RTVSPropertyOp32
 70
     1
102
RTVSPropertyOp33
 70
     1
102
RTVSPropertyOp34
 70
     1
102
RTVSPropertyOp35
 70
     1
102
RTVSPropertyOp36
 70
     1
102
RTVSPropertyOp37
 70
     1
102
RTVSPropertyOp38
 70
     1
102
RTVSPropertyOp39
 70
     1
102
RTVSPropertyOp40
 70
     1
102
RTVSPropertyOp41
 70
     1
102
RTVSPropertyOp42
 70
     1
102
RTVSPropertyOp43
 70
     1
102
RTVSPropertyOp44
 70
     1
102
RTVSPropertyOp45
 70
     1
102
RTVSPropertyOp46
 70
     1
102
RTVSPropertyOp47
 70
     1
102
RTVSPropertyOp48
 70
     1
102
RTVSPropertyOp49
 70
     1
102
RTVSPropertyOp50
 70
     1
102
RTVSPropertyOp51
 70
     0
102
RTVSPropertyOp52
 70
     0
102
RTVSPropertyOp53
 70
     1
102
RTVSPropertyOp54
 70
     1
102
RTVSPropertyOp55
 70
     1
102
RTVSPropertyOp56
 70
     1
102
RTVSPropertyOp57
 70
     1
102
RTVSPropertyOp58
 70
     1
102
RTVSPropertyOp59
 70
     1
102
RTVSPropertyOp60
 70
     1
102
RTVSPropertyOp61
 70
     1
102
RTVSPropertyOp62
 70
     1
  0
XRECORD
  5
504
102
{ACAD_REACTORS
330
503
102
}
330
503
100
AcDbXrecord
280
     1
102
RTVSPost2010Prop28
280
     0
102
RTVSPost2010PropOp28
 70
     1
102
RTVSPost2010Prop29
280
     1
102
RTVSPost2010PropOp29
 70
     1
102
RTVSPost2010Prop30
280
     1
102
RTVSPost2010PropOp30
 70
     1
102
RTVSPost2010Prop31
280
     0
102
RTVSPost2010PropOp31
 70
     1
102
RTVSPost2010Prop32
280
     0
102
RTVSPost2010PropOp32
 70
     1
102
RTVSPost2010Prop33
280
     0
102
RTVSPost2010PropOp33
 70
     1
102
RTVSPost2010Prop34
280
     0
102
RTVSPost2010PropOp34
 70
     1
102
RTVSPost2010Prop35
280
     0
102
RTVSPost2010PropOp35
 70
     1
102
RTVSPost2010Prop36
280
     0
102
RTVSPost2010PropOp36
 70
     1
102
RTVSPost2010Prop37
 90
       50
102
RTVSPost2010PropOp37
 70
     0
102
RTVSPost2010Prop38
140
0.0
102
RTVSPost2010PropOp38
 70
     0
102
RTVSPost2010Prop39
140
1.0
102
RTVSPost2010PropOp39
 70
     0
102
RTVSPost2010Prop40
 90
        0
102
RTVSPost2010PropOp40
 70
     0
102
RTVSPost2010Prop41ColorIndex
 90
       18
102
RTVSPost2010Prop41ColorRGB
 90
        0
102
RTVSPost2010PropOp41
 70
     0
102
RTVSPost2010Prop42
 90
       50
102
RTVSPost2010PropOp42
 70
     0
102
RTVSPost2010Prop43
 90
        3
102
RTVSPost2010PropOp43
 70
     0
102
RTVSPost2010Prop44ColorIndex
 90
        5
102
RTVSPost2010Prop44ColorRGB
 90
      255
102
RTVSPost2010PropOp44
 70
     0
102
RTVSPost2010Prop45
280
     0
102
RTVSPost2010PropOp45
 70
     1
102
RTVSPost2010Prop46
 90
       50
102
RTVSPost2010PropOp46
 70
     0
102
RTVSPost2010Prop47
 90
       50
102
RTVSPost2010PropOp47
 70
     0
102
RTVSPost2010Prop48
 90
       50
102
RTVSPost2010PropOp48
 70
     0
102
RTVSPost2010Prop49
280
     0
102
RTVSPost2010PropOp49
 70
     1
102
RTVSPost2010Prop50
 90
       50
102
RTVSPost2010PropOp50
 70
     0
102
RTVSPost2010Prop51ColorIndex
 90
      256
102
RTVSPost2010Prop51ColorRGB
 90
-16777216
102
RTVSPost2010PropOp51
 70
     0
102
RTVSPost2010Prop52
140
1.0
102
RTVSPost2010PropOp52
 70
     0
102
RTVSPost2010Prop53
 90
        2
102
RTVSPost2010PropOp53
 70
     0
102
RTVSPost2010Prop54
  1
strokes_ogs.tif
102
RTVSPost2010PropOp54
 70
     0
102
RTVSPost2010Prop55
280
     0
102
RTVSPost2010PropOp55
 70
     1
102
RTVSPost2010Prop56
140
1.0
102
RTVSPost2010PropOp56
 70
     0
102
RTVSPost2010Prop57
140
1.0
102
RTVSPost2010PropOp57
 70
     0
102
RTVSPropertyOp0
 70
     0
102
RTVSPropertyOp1
 70
     0
102
RTVSPropertyOp2
 70
     0
102
RTVSPropertyOp3
 70
     0
102
RTVSPropertyOp4
 70
     0
102
RTVSPropertyOp5
 70
     0
102
RTVSPropertyOp6
 70
     0
102
RTVSPropertyOp7
 70
     0
102
RTVSPropertyOp8
 70
     0
102
RTVSPropertyOp9
 70
     0
102
RTVSPropertyOp10
 70
     0
102
RTVSPropertyOp11
 70
     0
102
RTVSPropertyOp12
 70
     0
102
RTVSPropertyOp13
 70
     0
102
RTVSPropertyOp14
 70
     2
102
RTVSPropertyOp15
 70
     0
102
RTVSPropertyOp16
 70
     0
102
RTVSPropertyOp17
 70
     0
102
RTVSPropertyOp18
 70
     0
102
RTVSPropertyOp19
 70
     0
102
RTVSPropertyOp20
 70
     0
102
RTVSPropertyOp21
 70
     0
102
RTVSPropertyOp22
 70
     0
102
RTVSPropertyOp23
 70
     0
102
RTVSPropertyOp24
 70
     0
102
RTVSPropertyOp25
 70
     0
102
RTVSPropertyOp26
 70
     0
102
RTVSPropertyOp27
 70
     0
102
RTVSPropertyOp28
 70
     1
102
RTVSPropertyOp29
 70
     1
102
RTVSPropertyOp30
 70
     1
102
RTVSPropertyOp31
 70
     1
102
RTVSPropertyOp32
 70
     1
102
RTVSPropertyOp33
 70
     1
102
RTVSPropertyOp34
 70
     1
102
RTVSPropertyOp35
 70
     1
102
RTVSPropertyOp36
 70
     1
102
RTVSPropertyOp37
 70
     0
102
RTVSPropertyOp38
 70
     0
102
RTVSPropertyOp39
 70
     0
102
RTVSPropertyOp40
 70
     0
102
RTVSPropertyOp41
 70
     0
102
RTVSPropertyOp42
 70
     0
102
RTVSPropertyOp43
 70
     0
102
RTVSPropertyOp44
 70
     0
102
RTVSPropertyOp45
 70
     1
102
RTVSPropertyOp46
 70
     0
102
RTVSPropertyOp47
 70
     0
102
RTVSPropertyOp48
 70
     0
102
RTVSPropertyOp49
 70
     1
102
RTVSPropertyOp50
 70
     0
102
RTVSPropertyOp51
 70
     0
102
RTVSPropertyOp52
 70
     0
102
RTVSPropertyOp53
 70
     0
102
RTVSPropertyOp54
 70
     0
102
RTVSPropertyOp55
 70
     1
102
RTVSPropertyOp56
 70
     0
102
RTVSPropertyOp57
 70
     0
102
RTVSPropertyOp58
 70
     0
102
RTVSPropertyOp59
 70
     0
102
RTVSPropertyOp60
 70
     0
102
RTVSPropertyOp61
 70
     0
102
RTVSPropertyOp62
 70
     0
  0
XRECORD
  5
4F4
102
{ACAD_REACTORS
330
4F3
102
}
330
4F3
100
AcDbXrecord
280
     1
102
RTVSPost2010Prop28
280
     0
102
RTVSPost2010PropOp28
 70
     1
102
RTVSPost2010Prop29
280
     1
102
RTVSPost2010PropOp29
 70
     1
102
RTVSPost2010Prop30
280
     1
102
RTVSPost2010PropOp30
 70
     1
102
RTVSPost2010Prop31
280
     0
102
RTVSPost2010PropOp31
 70
     1
102
RTVSPost2010Prop32
280
     0
102
RTVSPost2010PropOp32
 70
     1
102
RTVSPost2010Prop33
280
     0
102
RTVSPost2010PropOp33
 70
     1
102
RTVSPost2010Prop34
280
     0
102
RTVSPost2010PropOp34
 70
     1
102
RTVSPost2010Prop35
280
     0
102
RTVSPost2010PropOp35
 70
     1
102
RTVSPost2010Prop36
280
     0
102
RTVSPost2010PropOp36
 70
     1
102
RTVSPost2010Prop37
 90
       50
102
RTVSPost2010PropOp37
 70
     1
102
RTVSPost2010Prop38
140
0.0
102
RTVSPost2010PropOp38
 70
     1
102
RTVSPost2010Prop39
140
1.0
102
RTVSPost2010PropOp39
 70
     1
102
RTVSPost2010Prop40
 90
        0
102
RTVSPost2010PropOp40
 70
     1
102
RTVSPost2010Prop41ColorIndex
 90
       18
102
RTVSPost2010Prop41ColorRGB
 90
        0
102
RTVSPost2010PropOp41
 70
     1
102
RTVSPost2010Prop42
 90
       50
102
RTVSPost2010PropOp42
 70
     1
102
RTVSPost2010Prop43
 90
        3
102
RTVSPost2010PropOp43
 70
     1
102
RTVSPost2010Prop44ColorIndex
 90
        5
102
RTVSPost2010Prop44ColorRGB
 90
      255
102
RTVSPost2010PropOp44
 70
     1
102
RTVSPost2010Prop45
280
     0
102
RTVSPost2010PropOp45
 70
     1
102
RTVSPost2010Prop46
 90
       50
102
RTVSPost2010PropOp46
 70
     1
102
RTVSPost2010Prop47
 90
       50
102
RTVSPost2010PropOp47
 70
     1
102
RTVSPost2010Prop48
 90
       50
102
RTVSPost2010PropOp48
 70
     1
102
RTVSPost2010Prop49
280
     0
102
RTVSPost2010PropOp49
 70
     1
102
RTVSPost2010Prop50
 90
       50
102
RTVSPost2010PropOp50
 70
     1
102
RTVSPost2010Prop51ColorIndex
 90
      256
102
RTVSPost2010Prop51ColorRGB
 90
-16777216
102
RTVSPost2010PropOp51
 70
     0
102
RTVSPost2010Prop52
140
1.0
102
RTVSPost2010PropOp52
 70
     0
102
RTVSPost2010Prop53
 90
        2
102
RTVSPost2010PropOp53
 70
     1
102
RTVSPost2010Prop54
  1
strokes_ogs.tif
102
RTVSPost2010PropOp54
 70
     1
102
RTVSPost2010Prop55
280
     0
102
RTVSPost2010PropOp55
 70
     1
102
RTVSPost2010Prop56
140
1.0
102
RTVSPost2010PropOp56
 70
     1
102
RTVSPost2010Prop57
140
1.0
102
RTVSPost2010PropOp57
 70
     1
102
RTVSPropertyOp0
 70
     1
102
RTVSPropertyOp1
 70
     1
102
RTVSPropertyOp2
 70
     1
102
RTVSPropertyOp3
 70
     1
102
RTVSPropertyOp4
 70
     1
102
RTVSPropertyOp5
 70
     1
102
RTVSPropertyOp6
 70
     1
102
RTVSPropertyOp7
 70
     1
102
RTVSPropertyOp8
 70
     1
102
RTVSPropertyOp9
 70
     1
102
RTVSPropertyOp10
 70
     1
102
RTVSPropertyOp11
 70
     1
102
RTVSPropertyOp12
 70
     1
102
RTVSPropertyOp13
 70
     1
102
RTVSPropertyOp14
 70
     1
102
RTVSPropertyOp15
 70
     1
102
RTVSPropertyOp16
 70
     1
102
RTVSPropertyOp17
 70
     1
102
RTVSPropertyOp18
 70
     1
102
RTVSPropertyOp19
 70
     1
102
RTVSPropertyOp20
 70
     1
102
RTVSPropertyOp21
 70
     1
102
RTVSPropertyOp22
 70
     1
102
RTVSPropertyOp23
 70
     1
102
RTVSPropertyOp24
 70
     1
102
RTVSPropertyOp25
 70
     1
102
RTVSPropertyOp26
 70
     1
102
RTVSPropertyOp27
 70
     1
102
RTVSPropertyOp28
 70
     1
102
RTVSPropertyOp29
 70
     1
102
RTVSPropertyOp30
 70
     1
102
RTVSPropertyOp31
 70
     1
102
RTVSPropertyOp32
 70
     1
102
RTVSPropertyOp33
 70
     1
102
RTVSPropertyOp34
 70
     1
102
RTVSPropertyOp35
 70
     1
102
RTVSPropertyOp36
 70
     1
102
RTVSPropertyOp37
 70
     1
102
RTVSPropertyOp38
 70
     1
102
RTVSPropertyOp39
 70
     1
102
RTVSPropertyOp40
 70
     1
102
RTVSPropertyOp41
 70
     1
102
RTVSPropertyOp42
 70
     1
102
RTVSPropertyOp43
 70
     1
102
RTVSPropertyOp44
 70
     1
102
RTVSPropertyOp45
 70
     1
102
RTVSPropertyOp46
 70
     1
102
RTVSPropertyOp47
 70
     1
102
RTVSPropertyOp48
 70
     1
102
RTVSPropertyOp49
 70
     1
102
RTVSPropertyOp50
 70
     1
102
RTVSPropertyOp51
 70
     0
102
RTVSPropertyOp52
 70
     0
102
RTVSPropertyOp53
 70
     1
102
RTVSPropertyOp54
 70
     1
102
RTVSPropertyOp55
 70
     1
102
RTVSPropertyOp56
 70
     1
102
RTVSPropertyOp57
 70
     1
102
RTVSPropertyOp58
 70
     1
102
RTVSPropertyOp59
 70
     1
102
RTVSPropertyOp60
 70
     1
102
RTVSPropertyOp61
 70
     1
102
RTVSPropertyOp62
 70
     1
  0
XRECORD
  5
506
102
{ACAD_REACTORS
330
505
102
}
330
505
100
AcDbXrecord
280
     1
102
RTVSPost2010Prop28
280
     0
102
RTVSPost2010PropOp28
 70
     1
102
RTVSPost2010Prop29
280
     1
102
RTVSPost2010PropOp29
 70
     1
102
RTVSPost2010Prop30
280
     1
102
RTVSPost2010PropOp30
 70
     1
102
RTVSPost2010Prop31
280
     0
102
RTVSPost2010PropOp31
 70
     1
102
RTVSPost2010Prop32
280
     0
102
RTVSPost2010PropOp32
 70
     1
102
RTVSPost2010Prop33
280
     0
102
RTVSPost2010PropOp33
 70
     1
102
RTVSPost2010Prop34
280
     0
102
RTVSPost2010PropOp34
 70
     1
102
RTVSPost2010Prop35
280
     0
102
RTVSPost2010PropOp35
 70
     1
102
RTVSPost2010Prop36
280
     0
102
RTVSPost2010PropOp36
 70
     1
102
RTVSPost2010Prop37
 90
       50
102
RTVSPost2010PropOp37
 70
     0
102
RTVSPost2010Prop38
140
0.0
102
RTVSPost2010PropOp38
 70
     0
102
RTVSPost2010Prop39
140
1.0
102
RTVSPost2010PropOp39
 70
     0
102
RTVSPost2010Prop40
 90
        0
102
RTVSPost2010PropOp40
 70
     0
102
RTVSPost2010Prop41ColorIndex
 90
       18
102
RTVSPost2010Prop41ColorRGB
 90
        0
102
RTVSPost2010PropOp41
 70
     0
102
RTVSPost2010Prop42
 90
       50
102
RTVSPost2010PropOp42
 70
     0
102
RTVSPost2010Prop43
 90
        3
102
RTVSPost2010PropOp43
 70
     0
102
RTVSPost2010Prop44ColorIndex
 90
        5
102
RTVSPost2010Prop44ColorRGB
 90
      255
102
RTVSPost2010PropOp44
 70
     0
102
RTVSPost2010Prop45
280
     0
102
RTVSPost2010PropOp45
 70
     1
102
RTVSPost2010Prop46
 90
       50
102
RTVSPost2010PropOp46
 70
     0
102
RTVSPost2010Prop47
 90
       50
102
RTVSPost2010PropOp47
 70
     0
102
RTVSPost2010Prop48
 90
       50
102
RTVSPost2010PropOp48
 70
     0
102
RTVSPost2010Prop49
280
     0
102
RTVSPost2010PropOp49
 70
     1
102
RTVSPost2010Prop50
 90
       50
102
RTVSPost2010PropOp50
 70
     0
102
RTVSPost2010Prop51ColorIndex
 90
      256
102
RTVSPost2010Prop51ColorRGB
 90
-16777216
102
RTVSPost2010PropOp51
 70
     0
102
RTVSPost2010Prop52
140
1.0
102
RTVSPost2010PropOp52
 70
     0
102
RTVSPost2010Prop53
 90
        2
102
RTVSPost2010PropOp53
 70
     0
102
RTVSPost2010Prop54
  1
strokes_ogs.tif
102
RTVSPost2010PropOp54
 70
     0
102
RTVSPost2010Prop55
280
     0
102
RTVSPost2010PropOp55
 70
     1
102
RTVSPost2010Prop56
140
1.0
102
RTVSPost2010PropOp56
 70
     0
102
RTVSPost2010Prop57
140
1.0
102
RTVSPost2010PropOp57
 70
     0
102
RTVSPropertyOp0
 70
     0
102
RTVSPropertyOp1
 70
     0
102
RTVSPropertyOp2
 70
     0
102
RTVSPropertyOp3
 70
     0
102
RTVSPropertyOp4
 70
     0
102
RTVSPropertyOp5
 70
     0
102
RTVSPropertyOp6
 70
     0
102
RTVSPropertyOp7
 70
     0
102
RTVSPropertyOp8
 70
     0
102
RTVSPropertyOp9
 70
     0
102
RTVSPropertyOp10
 70
     0
102
RTVSPropertyOp11
 70
     0
102
RTVSPropertyOp12
 70
     0
102
RTVSPropertyOp13
 70
     0
102
RTVSPropertyOp14
 70
     2
102
RTVSPropertyOp15
 70
     0
102
RTVSPropertyOp16
 70
     0
102
RTVSPropertyOp17
 70
     0
102
RTVSPropertyOp18
 70
     0
102
RTVSPropertyOp19
 70
     0
102
RTVSPropertyOp20
 70
     0
102
RTVSPropertyOp21
 70
     0
102
RTVSPropertyOp22
 70
     0
102
RTVSPropertyOp23
 70
     0
102
RTVSPropertyOp24
 70
     0
102
RTVSPropertyOp25
 70
     0
102
RTVSPropertyOp26
 70
     0
102
RTVSPropertyOp27
 70
     0
102
RTVSPropertyOp28
 70
     1
102
RTVSPropertyOp29
 70
     1
102
RTVSPropertyOp30
 70
     1
102
RTVSPropertyOp31
 70
     1
102
RTVSPropertyOp32
 70
     1
102
RTVSPropertyOp33
 70
     1
102
RTVSPropertyOp34
 70
     1
102
RTVSPropertyOp35
 70
     1
102
RTVSPropertyOp36
 70
     1
102
RTVSPropertyOp37
 70
     0
102
RTVSPropertyOp38
 70
     0
102
RTVSPropertyOp39
 70
     0
102
RTVSPropertyOp40
 70
     0
102
RTVSPropertyOp41
 70
     0
102
RTVSPropertyOp42
 70
     0
102
RTVSPropertyOp43
 70
     0
102
RTVSPropertyOp44
 70
     0
102
RTVSPropertyOp45
 70
     1
102
RTVSPropertyOp46
 70
     0
102
RTVSPropertyOp47
 70
     0
102
RTVSPropertyOp48
 70
     0
102
RTVSPropertyOp49
 70
     1
102
RTVSPropertyOp50
 70
     0
102
RTVSPropertyOp51
 70
     0
102
RTVSPropertyOp52
 70
     0
102
RTVSPropertyOp53
 70
     0
102
RTVSPropertyOp54
 70
     0
102
RTVSPropertyOp55
 70
     1
102
RTVSPropertyOp56
 70
     0
102
RTVSPropertyOp57
 70
     0
102
RTVSPropertyOp58
 70
     0
102
RTVSPropertyOp59
 70
     0
102
RTVSPropertyOp60
 70
     0
102
RTVSPropertyOp61
 70
     0
102
RTVSPropertyOp62
 70
     0
  0
XRECORD
  5
4EC
102
{ACAD_REACTORS
330
4EB
102
}
330
4EB
100
AcDbXrecord
280
     1
102
RTVSPost2010Prop28
280
     0
102
RTVSPost2010PropOp28
 70
     1
102
RTVSPost2010Prop29
280
     1
102
RTVSPost2010PropOp29
 70
     1
102
RTVSPost2010Prop30
280
     1
102
RTVSPost2010PropOp30
 70
     1
102
RTVSPost2010Prop31
280
     0
102
RTVSPost2010PropOp31
 70
     1
102
RTVSPost2010Prop32
280
     0
102
RTVSPost2010PropOp32
 70
     1
102
RTVSPost2010Prop33
280
     0
102
RTVSPost2010PropOp33
 70
     1
102
RTVSPost2010Prop34
280
     0
102
RTVSPost2010PropOp34
 70
     1
102
RTVSPost2010Prop35
280
     0
102
RTVSPost2010PropOp35
 70
     1
102
RTVSPost2010Prop36
280
     0
102
RTVSPost2010PropOp36
 70
     1
102
RTVSPost2010Prop37
 90
       50
102
RTVSPost2010PropOp37
 70
     1
102
RTVSPost2010Prop38
140
0.0
102
RTVSPost2010PropOp38
 70
     1
102
RTVSPost2010Prop39
140
1.0
102
RTVSPost2010PropOp39
 70
     1
102
RTVSPost2010Prop40
 90
        0
102
RTVSPost2010PropOp40
 70
     1
102
RTVSPost2010Prop41ColorIndex
 90
       18
102
RTVSPost2010Prop41ColorRGB
 90
        0
102
RTVSPost2010PropOp41
 70
     1
102
RTVSPost2010Prop42
 90
       50
102
RTVSPost2010PropOp42
 70
     1
102
RTVSPost2010Prop43
 90
        3
102
RTVSPost2010PropOp43
 70
     1
102
RTVSPost2010Prop44ColorIndex
 90
        5
102
RTVSPost2010Prop44ColorRGB
 90
      255
102
RTVSPost2010PropOp44
 70
     1
102
RTVSPost2010Prop45
280
     0
102
RTVSPost2010PropOp45
 70
     1
102
RTVSPost2010Prop46
 90
       50
102
RTVSPost2010PropOp46
 70
     1
102
RTVSPost2010Prop47
 90
       50
102
RTVSPost2010PropOp47
 70
     1
102
RTVSPost2010Prop48
 90
       50
102
RTVSPost2010PropOp48
 70
     1
102
RTVSPost2010Prop49
280
     0
102
RTVSPost2010PropOp49
 70
     1
102
RTVSPost2010Prop50
 90
       50
102
RTVSPost2010PropOp50
 70
     1
102
RTVSPost2010Prop51ColorIndex
 90
      256
102
RTVSPost2010Prop51ColorRGB
 90
-16777216
102
RTVSPost2010PropOp51
 70
     0
102
RTVSPost2010Prop52
140
1.0
102
RTVSPost2010PropOp52
 70
     0
102
RTVSPost2010Prop53
 90
        2
102
RTVSPost2010PropOp53
 70
     1
102
RTVSPost2010Prop54
  1
strokes_ogs.tif
102
RTVSPost2010PropOp54
 70
     1
102
RTVSPost2010Prop55
280
     0
102
RTVSPost2010PropOp55
 70
     1
102
RTVSPost2010Prop56
140
1.0
102
RTVSPost2010PropOp56
 70
     1
102
RTVSPost2010Prop57
140
1.0
102
RTVSPost2010PropOp57
 70
     1
102
RTVSPropertyOp0
 70
     1
102
RTVSPropertyOp1
 70
     1
102
RTVSPropertyOp2
 70
     1
102
RTVSPropertyOp3
 70
     1
102
RTVSPropertyOp4
 70
     1
102
RTVSPropertyOp5
 70
     1
102
RTVSPropertyOp6
 70
     1
102
RTVSPropertyOp7
 70
     1
102
RTVSPropertyOp8
 70
     1
102
RTVSPropertyOp9
 70
     1
102
RTVSPropertyOp10
 70
     1
102
RTVSPropertyOp11
 70
     1
102
RTVSPropertyOp12
 70
     1
102
RTVSPropertyOp13
 70
     1
102
RTVSPropertyOp14
 70
     1
102
RTVSPropertyOp15
 70
     1
102
RTVSPropertyOp16
 70
     1
102
RTVSPropertyOp17
 70
     1
102
RTVSPropertyOp18
 70
     1
102
RTVSPropertyOp19
 70
     1
102
RTVSPropertyOp20
 70
     1
102
RTVSPropertyOp21
 70
     1
102
RTVSPropertyOp22
 70
     1
102
RTVSPropertyOp23
 70
     1
102
RTVSPropertyOp24
 70
     1
102
RTVSPropertyOp25
 70
     1
102
RTVSPropertyOp26
 70
     1
102
RTVSPropertyOp27
 70
     1
102
RTVSPropertyOp28
 70
     1
102
RTVSPropertyOp29
 70
     1
102
RTVSPropertyOp30
 70
     1
102
RTVSPropertyOp31
 70
     1
102
RTVSPropertyOp32
 70
     1
102
RTVSPropertyOp33
 70
     1
102
RTVSPropertyOp34
 70
     1
102
RTVSPropertyOp35
 70
     1
102
RTVSPropertyOp36
 70
     1
102
RTVSPropertyOp37
 70
     1
102
RTVSPropertyOp38
 70
     1
102
RTVSPropertyOp39
 70
     1
102
RTVSPropertyOp40
 70
     1
102
RTVSPropertyOp41
 70
     1
102
RTVSPropertyOp42
 70
     1
102
RTVSPropertyOp43
 70
     1
102
RTVSPropertyOp44
 70
     1
102
RTVSPropertyOp45
 70
     1
102
RTVSPropertyOp46
 70
     1
102
RTVSPropertyOp47
 70
     1
102
RTVSPropertyOp48
 70
     1
102
RTVSPropertyOp49
 70
     1
102
RTVSPropertyOp50
 70
     1
102
RTVSPropertyOp51
 70
     0
102
RTVSPropertyOp52
 70
     0
102
RTVSPropertyOp53
 70
     1
102
RTVSPropertyOp54
 70
     1
102
RTVSPropertyOp55
 70
     1
102
RTVSPropertyOp56
 70
     1
102
RTVSPropertyOp57
 70
     1
102
RTVSPropertyOp58
 70
     1
102
RTVSPropertyOp59
 70
     1
102
RTVSPropertyOp60
 70
     1
102
RTVSPropertyOp61
 70
     1
102
RTVSPropertyOp62
 70
     1
  0
XRECORD
  5
502
102
{ACAD_REACTORS
330
501
102
}
330
501
100
AcDbXrecord
280
     1
102
RTVSPost2010Prop28
280
     0
102
RTVSPost2010PropOp28
 70
     1
102
RTVSPost2010Prop29
280
     1
102
RTVSPost2010PropOp29
 70
     1
102
RTVSPost2010Prop30
280
     1
102
RTVSPost2010PropOp30
 70
     1
102
RTVSPost2010Prop31
280
     0
102
RTVSPost2010PropOp31
 70
     1
102
RTVSPost2010Prop32
280
     0
102
RTVSPost2010PropOp32
 70
     1
102
RTVSPost2010Prop33
280
     0
102
RTVSPost2010PropOp33
 70
     1
102
RTVSPost2010Prop34
280
     0
102
RTVSPost2010PropOp34
 70
     1
102
RTVSPost2010Prop35
280
     0
102
RTVSPost2010PropOp35
 70
     1
102
RTVSPost2010Prop36
280
     0
102
RTVSPost2010PropOp36
 70
     1
102
RTVSPost2010Prop37
 90
       50
102
RTVSPost2010PropOp37
 70
     1
102
RTVSPost2010Prop38
140
0.0
102
RTVSPost2010PropOp38
 70
     1
102
RTVSPost2010Prop39
140
1.0
102
RTVSPost2010PropOp39
 70
     1
102
RTVSPost2010Prop40
 90
        0
102
RTVSPost2010PropOp40
 70
     1
102
RTVSPost2010Prop41ColorIndex
 90
       18
102
RTVSPost2010Prop41ColorRGB
 90
        0
102
RTVSPost2010PropOp41
 70
     1
102
RTVSPost2010Prop42
 90
       50
102
RTVSPost2010PropOp42
 70
     1
102
RTVSPost2010Prop43
 90
        3
102
RTVSPost2010PropOp43
 70
     1
102
RTVSPost2010Prop44ColorIndex
 90
        5
102
RTVSPost2010Prop44ColorRGB
 90
      255
102
RTVSPost2010PropOp44
 70
     1
102
RTVSPost2010Prop45
280
     0
102
RTVSPost2010PropOp45
 70
     1
102
RTVSPost2010Prop46
 90
       50
102
RTVSPost2010PropOp46
 70
     1
102
RTVSPost2010Prop47
 90
       50
102
RTVSPost2010PropOp47
 70
     1
102
RTVSPost2010Prop48
 90
       50
102
RTVSPost2010PropOp48
 70
     1
102
RTVSPost2010Prop49
280
     0
102
RTVSPost2010PropOp49
 70
     1
102
RTVSPost2010Prop50
 90
       50
102
RTVSPost2010PropOp50
 70
     1
102
RTVSPost2010Prop51ColorIndex
 90
      256
102
RTVSPost2010Prop51ColorRGB
 90
-16777216
102
RTVSPost2010PropOp51
 70
     0
102
RTVSPost2010Prop52
140
1.0
102
RTVSPost2010PropOp52
 70
     0
102
RTVSPost2010Prop53
 90
        2
102
RTVSPost2010PropOp53
 70
     1
102
RTVSPost2010Prop54
  1
strokes_ogs.tif
102
RTVSPost2010PropOp54
 70
     1
102
RTVSPost2010Prop55
280
     0
102
RTVSPost2010PropOp55
 70
     1
102
RTVSPost2010Prop56
140
1.0
102
RTVSPost2010PropOp56
 70
     1
102
RTVSPost2010Prop57
140
1.0
102
RTVSPost2010PropOp57
 70
     1
102
RTVSPropertyOp0
 70
     1
102
RTVSPropertyOp1
 70
     1
102
RTVSPropertyOp2
 70
     1
102
RTVSPropertyOp3
 70
     1
102
RTVSPropertyOp4
 70
     1
102
RTVSPropertyOp5
 70
     1
102
RTVSPropertyOp6
 70
     1
102
RTVSPropertyOp7
 70
     1
102
RTVSPropertyOp8
 70
     1
102
RTVSPropertyOp9
 70
     1
102
RTVSPropertyOp10
 70
     1
102
RTVSPropertyOp11
 70
     1
102
RTVSPropertyOp12
 70
     1
102
RTVSPropertyOp13
 70
     1
102
RTVSPropertyOp14
 70
     1
102
RTVSPropertyOp15
 70
     1
102
RTVSPropertyOp16
 70
     1
102
RTVSPropertyOp17
 70
     1
102
RTVSPropertyOp18
 70
     1
102
RTVSPropertyOp19
 70
     1
102
RTVSPropertyOp20
 70
     1
102
RTVSPropertyOp21
 70
     1
102
RTVSPropertyOp22
 70
     1
102
RTVSPropertyOp23
 70
     1
102
RTVSPropertyOp24
 70
     1
102
RTVSPropertyOp25
 70
     1
102
RTVSPropertyOp26
 70
     1
102
RTVSPropertyOp27
 70
     1
102
RTVSPropertyOp28
 70
     1
102
RTVSPropertyOp29
 70
     1
102
RTVSPropertyOp30
 70
     1
102
RTVSPropertyOp31
 70
     1
102
RTVSPropertyOp32
 70
     1
102
RTVSPropertyOp33
 70
     1
102
RTVSPropertyOp34
 70
     1
102
RTVSPropertyOp35
 70
     1
102
RTVSPropertyOp36
 70
     1
102
RTVSPropertyOp37
 70
     1
102
RTVSPropertyOp38
 70
     1
102
RTVSPropertyOp39
 70
     1
102
RTVSPropertyOp40
 70
     1
102
RTVSPropertyOp41
 70
     1
102
RTVSPropertyOp42
 70
     1
102
RTVSPropertyOp43
 70
     1
102
RTVSPropertyOp44
 70
     1
102
RTVSPropertyOp45
 70
     1
102
RTVSPropertyOp46
 70
     1
102
RTVSPropertyOp47
 70
     1
102
RTVSPropertyOp48
 70
     1
102
RTVSPropertyOp49
 70
     1
102
RTVSPropertyOp50
 70
     1
102
RTVSPropertyOp51
 70
     0
102
RTVSPropertyOp52
 70
     0
102
RTVSPropertyOp53
 70
     1
102
RTVSPropertyOp54
 70
     1
102
RTVSPropertyOp55
 70
     1
102
RTVSPropertyOp56
 70
     1
102
RTVSPropertyOp57
 70
     1
102
RTVSPropertyOp58
 70
     1
102
RTVSPropertyOp59
 70
     1
102
RTVSPropertyOp60
 70
     1
102
RTVSPropertyOp61
 70
     1
102
RTVSPropertyOp62
 70
     1
  0
XRECORD
  5
500
102
{ACAD_REACTORS
330
4FF
102
}
330
4FF
100
AcDbXrecord
280
     1
102
RTVSPost2010Prop28
280
     0
102
RTVSPost2010PropOp28
 70
     1
102
RTVSPost2010Prop29
280
     1
102
RTVSPost2010PropOp29
 70
     1
102
RTVSPost2010Prop30
280
     1
102
RTVSPost2010PropOp30
 70
     1
102
RTVSPost2010Prop31
280
     0
102
RTVSPost2010PropOp31
 70
     1
102
RTVSPost2010Prop32
280
     0
102
RTVSPost2010PropOp32
 70
     1
102
RTVSPost2010Prop33
280
     0
102
RTVSPost2010PropOp33
 70
     1
102
RTVSPost2010Prop34
280
     0
102
RTVSPost2010PropOp34
 70
     1
102
RTVSPost2010Prop35
280
     0
102
RTVSPost2010PropOp35
 70
     1
102
RTVSPost2010Prop36
280
     0
102
RTVSPost2010PropOp36
 70
     1
102
RTVSPost2010Prop37
 90
       50
102
RTVSPost2010PropOp37
 70
     1
102
RTVSPost2010Prop38
140
0.0
102
RTVSPost2010PropOp38
 70
     1
102
RTVSPost2010Prop39
140
1.0
102
RTVSPost2010PropOp39
 70
     1
102
RTVSPost2010Prop40
 90
        0
102
RTVSPost2010PropOp40
 70
     1
102
RTVSPost2010Prop41ColorIndex
 90
       18
102
RTVSPost2010Prop41ColorRGB
 90
        0
102
RTVSPost2010PropOp41
 70
     1
102
RTVSPost2010Prop42
 90
       50
102
RTVSPost2010PropOp42
 70
     1
102
RTVSPost2010Prop43
 90
        3
102
RTVSPost2010PropOp43
 70
     1
102
RTVSPost2010Prop44ColorIndex
 90
        5
102
RTVSPost2010Prop44ColorRGB
 90
      255
102
RTVSPost2010PropOp44
 70
     1
102
RTVSPost2010Prop45
280
     0
102
RTVSPost2010PropOp45
 70
     1
102
RTVSPost2010Prop46
 90
       50
102
RTVSPost2010PropOp46
 70
     1
102
RTVSPost2010Prop47
 90
       50
102
RTVSPost2010PropOp47
 70
     1
102
RTVSPost2010Prop48
 90
       50
102
RTVSPost2010PropOp48
 70
     1
102
RTVSPost2010Prop49
280
     0
102
RTVSPost2010PropOp49
 70
     1
102
RTVSPost2010Prop50
 90
       50
102
RTVSPost2010PropOp50
 70
     1
102
RTVSPost2010Prop51ColorIndex
 90
      256
102
RTVSPost2010Prop51ColorRGB
 90
-16777216
102
RTVSPost2010PropOp51
 70
     0
102
RTVSPost2010Prop52
140
1.0
102
RTVSPost2010PropOp52
 70
     0
102
RTVSPost2010Prop53
 90
        2
102
RTVSPost2010PropOp53
 70
     1
102
RTVSPost2010Prop54
  1
strokes_ogs.tif
102
RTVSPost2010PropOp54
 70
     1
102
RTVSPost2010Prop55
280
     0
102
RTVSPost2010PropOp55
 70
     1
102
RTVSPost2010Prop56
140
1.0
102
RTVSPost2010PropOp56
 70
     1
102
RTVSPost2010Prop57
140
1.0
102
RTVSPost2010PropOp57
 70
     1
102
RTVSPropertyOp0
 70
     1
102
RTVSPropertyOp1
 70
     1
102
RTVSPropertyOp2
 70
     1
102
RTVSPropertyOp3
 70
     1
102
RTVSPropertyOp4
 70
     1
102
RTVSPropertyOp5
 70
     1
102
RTVSPropertyOp6
 70
     1
102
RTVSPropertyOp7
 70
     1
102
RTVSPropertyOp8
 70
     1
102
RTVSPropertyOp9
 70
     1
102
RTVSPropertyOp10
 70
     1
102
RTVSPropertyOp11
 70
     1
102
RTVSPropertyOp12
 70
     1
102
RTVSPropertyOp13
 70
     1
102
RTVSPropertyOp14
 70
     1
102
RTVSPropertyOp15
 70
     1
102
RTVSPropertyOp16
 70
     1
102
RTVSPropertyOp17
 70
     1
102
RTVSPropertyOp18
 70
     1
102
RTVSPropertyOp19
 70
     1
102
RTVSPropertyOp20
 70
     1
102
RTVSPropertyOp21
 70
     1
102
RTVSPropertyOp22
 70
     1
102
RTVSPropertyOp23
 70
     1
102
RTVSPropertyOp24
 70
     1
102
RTVSPropertyOp25
 70
     1
102
RTVSPropertyOp26
 70
     1
102
RTVSPropertyOp27
 70
     1
102
RTVSPropertyOp28
 70
     1
102
RTVSPropertyOp29
 70
     1
102
RTVSPropertyOp30
 70
     1
102
RTVSPropertyOp31
 70
     1
102
RTVSPropertyOp32
 70
     1
102
RTVSPropertyOp33
 70
     1
102
RTVSPropertyOp34
 70
     1
102
RTVSPropertyOp35
 70
     1
102
RTVSPropertyOp36
 70
     1
102
RTVSPropertyOp37
 70
     1
102
RTVSPropertyOp38
 70
     1
102
RTVSPropertyOp39
 70
     1
102
RTVSPropertyOp40
 70
     1
102
RTVSPropertyOp41
 70
     1
102
RTVSPropertyOp42
 70
     1
102
RTVSPropertyOp43
 70
     1
102
RTVSPropertyOp44
 70
     1
102
RTVSPropertyOp45
 70
     1
102
RTVSPropertyOp46
 70
     1
102
RTVSPropertyOp47
 70
     1
102
RTVSPropertyOp48
 70
     1
102
RTVSPropertyOp49
 70
     1
102
RTVSPropertyOp50
 70
     1
102
RTVSPropertyOp51
 70
     0
102
RTVSPropertyOp52
 70
     0
102
RTVSPropertyOp53
 70
     1
102
RTVSPropertyOp54
 70
     1
102
RTVSPropertyOp55
 70
     1
102
RTVSPropertyOp56
 70
     1
102
RTVSPropertyOp57
 70
     1
102
RTVSPropertyOp58
 70
     1
102
RTVSPropertyOp59
 70
     1
102
RTVSPropertyOp60
 70
     1
102
RTVSPropertyOp61
 70
     1
102
RTVSPropertyOp62
 70
     1
  0
XRECORD
  5
4FA
102
{ACAD_REACTORS
330
4F9
102
}
330
4F9
100
AcDbXrecord
280
     1
102
RTVSPost2010Prop28
280
     0
102
RTVSPost2010PropOp28
 70
     1
102
RTVSPost2010Prop29
280
     1
102
RTVSPost2010PropOp29
 70
     1
102
RTVSPost2010Prop30
280
     1
102
RTVSPost2010PropOp30
 70
     1
102
RTVSPost2010Prop31
280
     0
102
RTVSPost2010PropOp31
 70
     1
102
RTVSPost2010Prop32
280
     0
102
RTVSPost2010PropOp32
 70
     1
102
RTVSPost2010Prop33
280
     0
102
RTVSPost2010PropOp33
 70
     1
102
RTVSPost2010Prop34
280
     0
102
RTVSPost2010PropOp34
 70
     1
102
RTVSPost2010Prop35
280
     0
102
RTVSPost2010PropOp35
 70
     1
102
RTVSPost2010Prop36
280
     0
102
RTVSPost2010PropOp36
 70
     1
102
RTVSPost2010Prop37
 90
       50
102
RTVSPost2010PropOp37
 70
     1
102
RTVSPost2010Prop38
140
0.0
102
RTVSPost2010PropOp38
 70
     1
102
RTVSPost2010Prop39
140
1.0
102
RTVSPost2010PropOp39
 70
     1
102
RTVSPost2010Prop40
 90
        0
102
RTVSPost2010PropOp40
 70
     1
102
RTVSPost2010Prop41ColorIndex
 90
       18
102
RTVSPost2010Prop41ColorRGB
 90
        0
102
RTVSPost2010PropOp41
 70
     1
102
RTVSPost2010Prop42
 90
       50
102
RTVSPost2010PropOp42
 70
     1
102
RTVSPost2010Prop43
 90
        3
102
RTVSPost2010PropOp43
 70
     1
102
RTVSPost2010Prop44ColorIndex
 90
        5
102
RTVSPost2010Prop44ColorRGB
 90
      255
102
RTVSPost2010PropOp44
 70
     1
102
RTVSPost2010Prop45
280
     0
102
RTVSPost2010PropOp45
 70
     1
102
RTVSPost2010Prop46
 90
       50
102
RTVSPost2010PropOp46
 70
     1
102
RTVSPost2010Prop47
 90
       50
102
RTVSPost2010PropOp47
 70
     1
102
RTVSPost2010Prop48
 90
       50
102
RTVSPost2010PropOp48
 70
     1
102
RTVSPost2010Prop49
280
     0
102
RTVSPost2010PropOp49
 70
     1
102
RTVSPost2010Prop50
 90
       50
102
RTVSPost2010PropOp50
 70
     1
102
RTVSPost2010Prop51ColorIndex
 90
      256
102
RTVSPost2010Prop51ColorRGB
 90
-16777216
102
RTVSPost2010PropOp51
 70
     0
102
RTVSPost2010Prop52
140
1.0
102
RTVSPost2010PropOp52
 70
     0
102
RTVSPost2010Prop53
 90
        2
102
RTVSPost2010PropOp53
 70
     1
102
RTVSPost2010Prop54
  1
strokes_ogs.tif
102
RTVSPost2010PropOp54
 70
     1
102
RTVSPost2010Prop55
280
     0
102
RTVSPost2010PropOp55
 70
     1
102
RTVSPost2010Prop56
140
1.0
102
RTVSPost2010PropOp56
 70
     1
102
RTVSPost2010Prop57
140
1.0
102
RTVSPost2010PropOp57
 70
     1
102
RTVSPropertyOp0
 70
     1
102
RTVSPropertyOp1
 70
     1
102
RTVSPropertyOp2
 70
     1
102
RTVSPropertyOp3
 70
     1
102
RTVSPropertyOp4
 70
     1
102
RTVSPropertyOp5
 70
     1
102
RTVSPropertyOp6
 70
     1
102
RTVSPropertyOp7
 70
     1
102
RTVSPropertyOp8
 70
     1
102
RTVSPropertyOp9
 70
     1
102
RTVSPropertyOp10
 70
     1
102
RTVSPropertyOp11
 70
     1
102
RTVSPropertyOp12
 70
     1
102
RTVSPropertyOp13
 70
     1
102
RTVSPropertyOp14
 70
     1
102
RTVSPropertyOp15
 70
     1
102
RTVSPropertyOp16
 70
     1
102
RTVSPropertyOp17
 70
     1
102
RTVSPropertyOp18
 70
     1
102
RTVSPropertyOp19
 70
     1
102
RTVSPropertyOp20
 70
     1
102
RTVSPropertyOp21
 70
     1
102
RTVSPropertyOp22
 70
     1
102
RTVSPropertyOp23
 70
     1
102
RTVSPropertyOp24
 70
     1
102
RTVSPropertyOp25
 70
     1
102
RTVSPropertyOp26
 70
     1
102
RTVSPropertyOp27
 70
     1
102
RTVSPropertyOp28
 70
     1
102
RTVSPropertyOp29
 70
     1
102
RTVSPropertyOp30
 70
     1
102
RTVSPropertyOp31
 70
     1
102
RTVSPropertyOp32
 70
     1
102
RTVSPropertyOp33
 70
     1
102
RTVSPropertyOp34
 70
     1
102
RTVSPropertyOp35
 70
     1
102
RTVSPropertyOp36
 70
     1
102
RTVSPropertyOp37
 70
     1
102
RTVSPropertyOp38
 70
     1
102
RTVSPropertyOp39
 70
     1
102
RTVSPropertyOp40
 70
     1
102
RTVSPropertyOp41
 70
     1
102
RTVSPropertyOp42
 70
     1
102
RTVSPropertyOp43
 70
     1
102
RTVSPropertyOp44
 70
     1
102
RTVSPropertyOp45
 70
     1
102
RTVSPropertyOp46
 70
     1
102
RTVSPropertyOp47
 70
     1
102
RTVSPropertyOp48
 70
     1
102
RTVSPropertyOp49
 70
     1
102
RTVSPropertyOp50
 70
     1
102
RTVSPropertyOp51
 70
     0
102
RTVSPropertyOp52
 70
     0
102
RTVSPropertyOp53
 70
     1
102
RTVSPropertyOp54
 70
     1
102
RTVSPropertyOp55
 70
     1
102
RTVSPropertyOp56
 70
     1
102
RTVSPropertyOp57
 70
     1
102
RTVSPropertyOp58
 70
     1
102
RTVSPropertyOp59
 70
     1
102
RTVSPropertyOp60
 70
     1
102
RTVSPropertyOp61
 70
     1
102
RTVSPropertyOp62
 70
     1
  0
XRECORD
  5
4FC
102
{ACAD_REACTORS
330
4FB
102
}
330
4FB
100
AcDbXrecord
280
     1
102
RTVSPost2010Prop28
280
     0
102
RTVSPost2010PropOp28
 70
     1
102
RTVSPost2010Prop29
280
     1
102
RTVSPost2010PropOp29
 70
     1
102
RTVSPost2010Prop30
280
     1
102
RTVSPost2010PropOp30
 70
     1
102
RTVSPost2010Prop31
280
     0
102
RTVSPost2010PropOp31
 70
     1
102
RTVSPost2010Prop32
280
     0
102
RTVSPost2010PropOp32
 70
     1
102
RTVSPost2010Prop33
280
     0
102
RTVSPost2010PropOp33
 70
     1
102
RTVSPost2010Prop34
280
     0
102
RTVSPost2010PropOp34
 70
     1
102
RTVSPost2010Prop35
280
     0
102
RTVSPost2010PropOp35
 70
     1
102
RTVSPost2010Prop36
280
     0
102
RTVSPost2010PropOp36
 70
     1
102
RTVSPost2010Prop37
 90
       50
102
RTVSPost2010PropOp37
 70
     1
102
RTVSPost2010Prop38
140
0.0
102
RTVSPost2010PropOp38
 70
     1
102
RTVSPost2010Prop39
140
1.0
102
RTVSPost2010PropOp39
 70
     1
102
RTVSPost2010Prop40
 90
        0
102
RTVSPost2010PropOp40
 70
     1
102
RTVSPost2010Prop41ColorIndex
 90
       18
102
RTVSPost2010Prop41ColorRGB
 90
        0
102
RTVSPost2010PropOp41
 70
     1
102
RTVSPost2010Prop42
 90
       50
102
RTVSPost2010PropOp42
 70
     1
102
RTVSPost2010Prop43
 90
        3
102
RTVSPost2010PropOp43
 70
     1
102
RTVSPost2010Prop44ColorIndex
 90
        5
102
RTVSPost2010Prop44ColorRGB
 90
      255
102
RTVSPost2010PropOp44
 70
     1
102
RTVSPost2010Prop45
280
     0
102
RTVSPost2010PropOp45
 70
     1
102
RTVSPost2010Prop46
 90
       50
102
RTVSPost2010PropOp46
 70
     1
102
RTVSPost2010Prop47
 90
       50
102
RTVSPost2010PropOp47
 70
     1
102
RTVSPost2010Prop48
 90
       50
102
RTVSPost2010PropOp48
 70
     1
102
RTVSPost2010Prop49
280
     0
102
RTVSPost2010PropOp49
 70
     1
102
RTVSPost2010Prop50
 90
       50
102
RTVSPost2010PropOp50
 70
     1
102
RTVSPost2010Prop51ColorIndex
 90
      256
102
RTVSPost2010Prop51ColorRGB
 90
-16777216
102
RTVSPost2010PropOp51
 70
     0
102
RTVSPost2010Prop52
140
1.0
102
RTVSPost2010PropOp52
 70
     0
102
RTVSPost2010Prop53
 90
        2
102
RTVSPost2010PropOp53
 70
     1
102
RTVSPost2010Prop54
  1
strokes_ogs.tif
102
RTVSPost2010PropOp54
 70
     1
102
RTVSPost2010Prop55
280
     0
102
RTVSPost2010PropOp55
 70
     1
102
RTVSPost2010Prop56
140
1.0
102
RTVSPost2010PropOp56
 70
     1
102
RTVSPost2010Prop57
140
1.0
102
RTVSPost2010PropOp57
 70
     1
102
RTVSPropertyOp0
 70
     1
102
RTVSPropertyOp1
 70
     1
102
RTVSPropertyOp2
 70
     1
102
RTVSPropertyOp3
 70
     1
102
RTVSPropertyOp4
 70
     1
102
RTVSPropertyOp5
 70
     1
102
RTVSPropertyOp6
 70
     1
102
RTVSPropertyOp7
 70
     1
102
RTVSPropertyOp8
 70
     1
102
RTVSPropertyOp9
 70
     1
102
RTVSPropertyOp10
 70
     1
102
RTVSPropertyOp11
 70
     1
102
RTVSPropertyOp12
 70
     1
102
RTVSPropertyOp13
 70
     1
102
RTVSPropertyOp14
 70
     1
102
RTVSPropertyOp15
 70
     1
102
RTVSPropertyOp16
 70
     1
102
RTVSPropertyOp17
 70
     1
102
RTVSPropertyOp18
 70
     1
102
RTVSPropertyOp19
 70
     1
102
RTVSPropertyOp20
 70
     1
102
RTVSPropertyOp21
 70
     1
102
RTVSPropertyOp22
 70
     1
102
RTVSPropertyOp23
 70
     1
102
RTVSPropertyOp24
 70
     1
102
RTVSPropertyOp25
 70
     1
102
RTVSPropertyOp26
 70
     1
102
RTVSPropertyOp27
 70
     1
102
RTVSPropertyOp28
 70
     1
102
RTVSPropertyOp29
 70
     1
102
RTVSPropertyOp30
 70
     1
102
RTVSPropertyOp31
 70
     1
102
RTVSPropertyOp32
 70
     1
102
RTVSPropertyOp33
 70
     1
102
RTVSPropertyOp34
 70
     1
102
RTVSPropertyOp35
 70
     1
102
RTVSPropertyOp36
 70
     1
102
RTVSPropertyOp37
 70
     1
102
RTVSPropertyOp38
 70
     1
102
RTVSPropertyOp39
 70
     1
102
RTVSPropertyOp40
 70
     1
102
RTVSPropertyOp41
 70
     1
102
RTVSPropertyOp42
 70
     1
102
RTVSPropertyOp43
 70
     1
102
RTVSPropertyOp44
 70
     1
102
RTVSPropertyOp45
 70
     1
102
RTVSPropertyOp46
 70
     1
102
RTVSPropertyOp47
 70
     1
102
RTVSPropertyOp48
 70
     1
102
RTVSPropertyOp49
 70
     1
102
RTVSPropertyOp50
 70
     1
102
RTVSPropertyOp51
 70
     0
102
RTVSPropertyOp52
 70
     0
102
RTVSPropertyOp53
 70
     1
102
RTVSPropertyOp54
 70
     1
102
RTVSPropertyOp55
 70
     1
102
RTVSPropertyOp56
 70
     1
102
RTVSPropertyOp57
 70
     1
102
RTVSPropertyOp58
 70
     1
102
RTVSPropertyOp59
 70
     1
102
RTVSPropertyOp60
 70
     1
102
RTVSPropertyOp61
 70
     1
102
RTVSPropertyOp62
 70
     1
  0
XRECORD
  5
4F2
102
{ACAD_REACTORS
330
4F1
102
}
330
4F1
100
AcDbXrecord
280
     1
102
RTVSPost2010Prop28
280
     0
102
RTVSPost2010PropOp28
 70
     1
102
RTVSPost2010Prop29
280
     1
102
RTVSPost2010PropOp29
 70
     1
102
RTVSPost2010Prop30
280
     1
102
RTVSPost2010PropOp30
 70
     1
102
RTVSPost2010Prop31
280
     0
102
RTVSPost2010PropOp31
 70
     1
102
RTVSPost2010Prop32
280
     0
102
RTVSPost2010PropOp32
 70
     1
102
RTVSPost2010Prop33
280
     0
102
RTVSPost2010PropOp33
 70
     1
102
RTVSPost2010Prop34
280
     0
102
RTVSPost2010PropOp34
 70
     1
102
RTVSPost2010Prop35
280
     0
102
RTVSPost2010PropOp35
 70
     1
102
RTVSPost2010Prop36
280
     0
102
RTVSPost2010PropOp36
 70
     1
102
RTVSPost2010Prop37
 90
       50
102
RTVSPost2010PropOp37
 70
     1
102
RTVSPost2010Prop38
140
0.0
102
RTVSPost2010PropOp38
 70
     1
102
RTVSPost2010Prop39
140
1.0
102
RTVSPost2010PropOp39
 70
     1
102
RTVSPost2010Prop40
 90
        0
102
RTVSPost2010PropOp40
 70
     1
102
RTVSPost2010Prop41ColorIndex
 90
       18
102
RTVSPost2010Prop41ColorRGB
 90
        0
102
RTVSPost2010PropOp41
 70
     1
102
RTVSPost2010Prop42
 90
       50
102
RTVSPost2010PropOp42
 70
     1
102
RTVSPost2010Prop43
 90
        3
102
RTVSPost2010PropOp43
 70
     1
102
RTVSPost2010Prop44ColorIndex
 90
        5
102
RTVSPost2010Prop44ColorRGB
 90
      255
102
RTVSPost2010PropOp44
 70
     1
102
RTVSPost2010Prop45
280
     0
102
RTVSPost2010PropOp45
 70
     1
102
RTVSPost2010Prop46
 90
       50
102
RTVSPost2010PropOp46
 70
     1
102
RTVSPost2010Prop47
 90
       50
102
RTVSPost2010PropOp47
 70
     1
102
RTVSPost2010Prop48
 90
       50
102
RTVSPost2010PropOp48
 70
     1
102
RTVSPost2010Prop49
280
     0
102
RTVSPost2010PropOp49
 70
     1
102
RTVSPost2010Prop50
 90
       50
102
RTVSPost2010PropOp50
 70
     1
102
RTVSPost2010Prop51ColorIndex
 90
      256
102
RTVSPost2010Prop51ColorRGB
 90
-16777216
102
RTVSPost2010PropOp51
 70
     0
102
RTVSPost2010Prop52
140
1.0
102
RTVSPost2010PropOp52
 70
     0
102
RTVSPost2010Prop53
 90
        2
102
RTVSPost2010PropOp53
 70
     1
102
RTVSPost2010Prop54
  1
strokes_ogs.tif
102
RTVSPost2010PropOp54
 70
     1
102
RTVSPost2010Prop55
280
     0
102
RTVSPost2010PropOp55
 70
     1
102
RTVSPost2010Prop56
140
1.0
102
RTVSPost2010PropOp56
 70
     1
102
RTVSPost2010Prop57
140
1.0
102
RTVSPost2010PropOp57
 70
     1
102
RTVSPropertyOp0
 70
     1
102
RTVSPropertyOp1
 70
     1
102
RTVSPropertyOp2
 70
     1
102
RTVSPropertyOp3
 70
     1
102
RTVSPropertyOp4
 70
     1
102
RTVSPropertyOp5
 70
     1
102
RTVSPropertyOp6
 70
     1
102
RTVSPropertyOp7
 70
     1
102
RTVSPropertyOp8
 70
     1
102
RTVSPropertyOp9
 70
     1
102
RTVSPropertyOp10
 70
     1
102
RTVSPropertyOp11
 70
     1
102
RTVSPropertyOp12
 70
     1
102
RTVSPropertyOp13
 70
     1
102
RTVSPropertyOp14
 70
     1
102
RTVSPropertyOp15
 70
     1
102
RTVSPropertyOp16
 70
     1
102
RTVSPropertyOp17
 70
     1
102
RTVSPropertyOp18
 70
     1
102
RTVSPropertyOp19
 70
     1
102
RTVSPropertyOp20
 70
     1
102
RTVSPropertyOp21
 70
     1
102
RTVSPropertyOp22
 70
     1
102
RTVSPropertyOp23
 70
     1
102
RTVSPropertyOp24
 70
     1
102
RTVSPropertyOp25
 70
     1
102
RTVSPropertyOp26
 70
     1
102
RTVSPropertyOp27
 70
     1
102
RTVSPropertyOp28
 70
     1
102
RTVSPropertyOp29
 70
     1
102
RTVSPropertyOp30
 70
     1
102
RTVSPropertyOp31
 70
     1
102
RTVSPropertyOp32
 70
     1
102
RTVSPropertyOp33
 70
     1
102
RTVSPropertyOp34
 70
     1
102
RTVSPropertyOp35
 70
     1
102
RTVSPropertyOp36
 70
     1
102
RTVSPropertyOp37
 70
     1
102
RTVSPropertyOp38
 70
     1
102
RTVSPropertyOp39
 70
     1
102
RTVSPropertyOp40
 70
     1
102
RTVSPropertyOp41
 70
     1
102
RTVSPropertyOp42
 70
     1
102
RTVSPropertyOp43
 70
     1
102
RTVSPropertyOp44
 70
     1
102
RTVSPropertyOp45
 70
     1
102
RTVSPropertyOp46
 70
     1
102
RTVSPropertyOp47
 70
     1
102
RTVSPropertyOp48
 70
     1
102
RTVSPropertyOp49
 70
     1
102
RTVSPropertyOp50
 70
     1
102
RTVSPropertyOp51
 70
     0
102
RTVSPropertyOp52
 70
     0
102
RTVSPropertyOp53
 70
     1
102
RTVSPropertyOp54
 70
     1
102
RTVSPropertyOp55
 70
     1
102
RTVSPropertyOp56
 70
     1
102
RTVSPropertyOp57
 70
     1
102
RTVSPropertyOp58
 70
     1
102
RTVSPropertyOp59
 70
     1
102
RTVSPropertyOp60
 70
     1
102
RTVSPropertyOp61
 70
     1
102
RTVSPropertyOp62
 70
     1
  0
XRECORD
  5
4E6
102
{ACAD_REACTORS
330
4E5
102
}
330
4E5
100
AcDbXrecord
280
     1
102
RTVSPost2010Prop28
280
     0
102
RTVSPost2010PropOp28
 70
     1
102
RTVSPost2010Prop29
280
     1
102
RTVSPost2010PropOp29
 70
     1
102
RTVSPost2010Prop30
280
     1
102
RTVSPost2010PropOp30
 70
     1
102
RTVSPost2010Prop31
280
     0
102
RTVSPost2010PropOp31
 70
     1
102
RTVSPost2010Prop32
280
     0
102
RTVSPost2010PropOp32
 70
     1
102
RTVSPost2010Prop33
280
     0
102
RTVSPost2010PropOp33
 70
     1
102
RTVSPost2010Prop34
280
     0
102
RTVSPost2010PropOp34
 70
     1
102
RTVSPost2010Prop35
280
     0
102
RTVSPost2010PropOp35
 70
     1
102
RTVSPost2010Prop36
280
     0
102
RTVSPost2010PropOp36
 70
     1
102
RTVSPost2010Prop37
 90
       50
102
RTVSPost2010PropOp37
 70
     1
102
RTVSPost2010Prop38
140
0.0
102
RTVSPost2010PropOp38
 70
     1
102
RTVSPost2010Prop39
140
1.0
102
RTVSPost2010PropOp39
 70
     1
102
RTVSPost2010Prop40
 90
        0
102
RTVSPost2010PropOp40
 70
     1
102
RTVSPost2010Prop41ColorIndex
 90
       18
102
RTVSPost2010Prop41ColorRGB
 90
        0
102
RTVSPost2010PropOp41
 70
     1
102
RTVSPost2010Prop42
 90
       50
102
RTVSPost2010PropOp42
 70
     1
102
RTVSPost2010Prop43
 90
        3
102
RTVSPost2010PropOp43
 70
     1
102
RTVSPost2010Prop44ColorIndex
 90
        5
102
RTVSPost2010Prop44ColorRGB
 90
      255
102
RTVSPost2010PropOp44
 70
     1
102
RTVSPost2010Prop45
280
     0
102
RTVSPost2010PropOp45
 70
     1
102
RTVSPost2010Prop46
 90
       50
102
RTVSPost2010PropOp46
 70
     1
102
RTVSPost2010Prop47
 90
       50
102
RTVSPost2010PropOp47
 70
     1
102
RTVSPost2010Prop48
 90
       50
102
RTVSPost2010PropOp48
 70
     1
102
RTVSPost2010Prop49
280
     0
102
RTVSPost2010PropOp49
 70
     1
102
RTVSPost2010Prop50
 90
       50
102
RTVSPost2010PropOp50
 70
     1
102
RTVSPost2010Prop51ColorIndex
 90
      256
102
RTVSPost2010Prop51ColorRGB
 90
-16777216
102
RTVSPost2010PropOp51
 70
     0
102
RTVSPost2010Prop52
140
1.0
102
RTVSPost2010PropOp52
 70
     0
102
RTVSPost2010Prop53
 90
        2
102
RTVSPost2010PropOp53
 70
     1
102
RTVSPost2010Prop54
  1
strokes_ogs.tif
102
RTVSPost2010PropOp54
 70
     1
102
RTVSPost2010Prop55
280
     0
102
RTVSPost2010PropOp55
 70
     1
102
RTVSPost2010Prop56
140
1.0
102
RTVSPost2010PropOp56
 70
     1
102
RTVSPost2010Prop57
140
1.0
102
RTVSPost2010PropOp57
 70
     1
102
RTVSPropertyOp0
 70
     1
102
RTVSPropertyOp1
 70
     1
102
RTVSPropertyOp2
 70
     1
102
RTVSPropertyOp3
 70
     1
102
RTVSPropertyOp4
 70
     1
102
RTVSPropertyOp5
 70
     1
102
RTVSPropertyOp6
 70
     1
102
RTVSPropertyOp7
 70
     1
102
RTVSPropertyOp8
 70
     1
102
RTVSPropertyOp9
 70
     1
102
RTVSPropertyOp10
 70
     1
102
RTVSPropertyOp11
 70
     1
102
RTVSPropertyOp12
 70
     1
102
RTVSPropertyOp13
 70
     1
102
RTVSPropertyOp14
 70
     1
102
RTVSPropertyOp15
 70
     1
102
RTVSPropertyOp16
 70
     1
102
RTVSPropertyOp17
 70
     1
102
RTVSPropertyOp18
 70
     1
102
RTVSPropertyOp19
 70
     1
102
RTVSPropertyOp20
 70
     1
102
RTVSPropertyOp21
 70
     1
102
RTVSPropertyOp22
 70
     1
102
RTVSPropertyOp23
 70
     1
102
RTVSPropertyOp24
 70
     1
102
RTVSPropertyOp25
 70
     1
102
RTVSPropertyOp26
 70
     1
102
RTVSPropertyOp27
 70
     1
102
RTVSPropertyOp28
 70
     1
102
RTVSPropertyOp29
 70
     1
102
RTVSPropertyOp30
 70
     1
102
RTVSPropertyOp31
 70
     1
102
RTVSPropertyOp32
 70
     1
102
RTVSPropertyOp33
 70
     1
102
RTVSPropertyOp34
 70
     1
102
RTVSPropertyOp35
 70
     1
102
RTVSPropertyOp36
 70
     1
102
RTVSPropertyOp37
 70
     1
102
RTVSPropertyOp38
 70
     1
102
RTVSPropertyOp39
 70
     1
102
RTVSPropertyOp40
 70
     1
102
RTVSPropertyOp41
 70
     1
102
RTVSPropertyOp42
 70
     1
102
RTVSPropertyOp43
 70
     1
102
RTVSPropertyOp44
 70
     1
102
RTVSPropertyOp45
 70
     1
102
RTVSPropertyOp46
 70
     1
102
RTVSPropertyOp47
 70
     1
102
RTVSPropertyOp48
 70
     1
102
RTVSPropertyOp49
 70
     1
102
RTVSPropertyOp50
 70
     1
102
RTVSPropertyOp51
 70
     0
102
RTVSPropertyOp52
 70
     0
102
RTVSPropertyOp53
 70
     1
102
RTVSPropertyOp54
 70
     1
102
RTVSPropertyOp55
 70
     1
102
RTVSPropertyOp56
 70
     1
102
RTVSPropertyOp57
 70
     1
102
RTVSPropertyOp58
 70
     1
102
RTVSPropertyOp59
 70
     1
102
RTVSPropertyOp60
 70
     1
102
RTVSPropertyOp61
 70
     1
102
RTVSPropertyOp62
 70
     1
  0
XRECORD
  5
4FE
102
{ACAD_REACTORS
330
4FD
102
}
330
4FD
100
AcDbXrecord
280
     1
102
RTVSPost2010Prop28
280
     0
102
RTVSPost2010PropOp28
 70
     1
102
RTVSPost2010Prop29
280
     1
102
RTVSPost2010PropOp29
 70
     1
102
RTVSPost2010Prop30
280
     1
102
RTVSPost2010PropOp30
 70
     1
102
RTVSPost2010Prop31
280
     0
102
RTVSPost2010PropOp31
 70
     1
102
RTVSPost2010Prop32
280
     0
102
RTVSPost2010PropOp32
 70
     1
102
RTVSPost2010Prop33
280
     0
102
RTVSPost2010PropOp33
 70
     1
102
RTVSPost2010Prop34
280
     0
102
RTVSPost2010PropOp34
 70
     1
102
RTVSPost2010Prop35
280
     0
102
RTVSPost2010PropOp35
 70
     1
102
RTVSPost2010Prop36
280
     0
102
RTVSPost2010PropOp36
 70
     1
102
RTVSPost2010Prop37
 90
       50
102
RTVSPost2010PropOp37
 70
     1
102
RTVSPost2010Prop38
140
0.0
102
RTVSPost2010PropOp38
 70
     1
102
RTVSPost2010Prop39
140
1.0
102
RTVSPost2010PropOp39
 70
     1
102
RTVSPost2010Prop40
 90
        0
102
RTVSPost2010PropOp40
 70
     1
102
RTVSPost2010Prop41ColorIndex
 90
       18
102
RTVSPost2010Prop41ColorRGB
 90
        0
102
RTVSPost2010PropOp41
 70
     1
102
RTVSPost2010Prop42
 90
       50
102
RTVSPost2010PropOp42
 70
     1
102
RTVSPost2010Prop43
 90
        3
102
RTVSPost2010PropOp43
 70
     1
102
RTVSPost2010Prop44ColorIndex
 90
        5
102
RTVSPost2010Prop44ColorRGB
 90
      255
102
RTVSPost2010PropOp44
 70
     1
102
RTVSPost2010Prop45
280
     0
102
RTVSPost2010PropOp45
 70
     1
102
RTVSPost2010Prop46
 90
       50
102
RTVSPost2010PropOp46
 70
     1
102
RTVSPost2010Prop47
 90
       50
102
RTVSPost2010PropOp47
 70
     1
102
RTVSPost2010Prop48
 90
       50
102
RTVSPost2010PropOp48
 70
     1
102
RTVSPost2010Prop49
280
     0
102
RTVSPost2010PropOp49
 70
     1
102
RTVSPost2010Prop50
 90
       50
102
RTVSPost2010PropOp50
 70
     1
102
RTVSPost2010Prop51ColorIndex
 90
      256
102
RTVSPost2010Prop51ColorRGB
 90
-16777216
102
RTVSPost2010PropOp51
 70
     0
102
RTVSPost2010Prop52
140
1.0
102
RTVSPost2010PropOp52
 70
     0
102
RTVSPost2010Prop53
 90
        2
102
RTVSPost2010PropOp53
 70
     1
102
RTVSPost2010Prop54
  1
strokes_ogs.tif
102
RTVSPost2010PropOp54
 70
     1
102
RTVSPost2010Prop55
280
     0
102
RTVSPost2010PropOp55
 70
     1
102
RTVSPost2010Prop56
140
1.0
102
RTVSPost2010PropOp56
 70
     1
102
RTVSPost2010Prop57
140
1.0
102
RTVSPost2010PropOp57
 70
     1
102
RTVSPropertyOp0
 70
     1
102
RTVSPropertyOp1
 70
     1
102
RTVSPropertyOp2
 70
     1
102
RTVSPropertyOp3
 70
     1
102
RTVSPropertyOp4
 70
     1
102
RTVSPropertyOp5
 70
     1
102
RTVSPropertyOp6
 70
     1
102
RTVSPropertyOp7
 70
     1
102
RTVSPropertyOp8
 70
     1
102
RTVSPropertyOp9
 70
     1
102
RTVSPropertyOp10
 70
     1
102
RTVSPropertyOp11
 70
     1
102
RTVSPropertyOp12
 70
     1
102
RTVSPropertyOp13
 70
     1
102
RTVSPropertyOp14
 70
     1
102
RTVSPropertyOp15
 70
     1
102
RTVSPropertyOp16
 70
     1
102
RTVSPropertyOp17
 70
     1
102
RTVSPropertyOp18
 70
     1
102
RTVSPropertyOp19
 70
     1
102
RTVSPropertyOp20
 70
     1
102
RTVSPropertyOp21
 70
     1
102
RTVSPropertyOp22
 70
     1
102
RTVSPropertyOp23
 70
     1
102
RTVSPropertyOp24
 70
     1
102
RTVSPropertyOp25
 70
     1
102
RTVSPropertyOp26
 70
     1
102
RTVSPropertyOp27
 70
     1
102
RTVSPropertyOp28
 70
     1
102
RTVSPropertyOp29
 70
     1
102
RTVSPropertyOp30
 70
     1
102
RTVSPropertyOp31
 70
     1
102
RTVSPropertyOp32
 70
     1
102
RTVSPropertyOp33
 70
     1
102
RTVSPropertyOp34
 70
     1
102
RTVSPropertyOp35
 70
     1
102
RTVSPropertyOp36
 70
     1
102
RTVSPropertyOp37
 70
     1
102
RTVSPropertyOp38
 70
     1
102
RTVSPropertyOp39
 70
     1
102
RTVSPropertyOp40
 70
     1
102
RTVSPropertyOp41
 70
     1
102
RTVSPropertyOp42
 70
     1
102
RTVSPropertyOp43
 70
     1
102
RTVSPropertyOp44
 70
     1
102
RTVSPropertyOp45
 70
     1
102
RTVSPropertyOp46
 70
     1
102
RTVSPropertyOp47
 70
     1
102
RTVSPropertyOp48
 70
     1
102
RTVSPropertyOp49
 70
     1
102
RTVSPropertyOp50
 70
     1
102
RTVSPropertyOp51
 70
     0
102
RTVSPropertyOp52
 70
     0
102
RTVSPropertyOp53
 70
     1
102
RTVSPropertyOp54
 70
     1
102
RTVSPropertyOp55
 70
     1
102
RTVSPropertyOp56
 70
     1
102
RTVSPropertyOp57
 70
     1
102
RTVSPropertyOp58
 70
     1
102
RTVSPropertyOp59
 70
     1
102
RTVSPropertyOp60
 70
     1
102
RTVSPropertyOp61
 70
     1
102
RTVSPropertyOp62
 70
     1
  0
ENDSEC
  0
EOF
