  0
SECTION
  2
HEADER
  9
$ACADVER
  1
AC1015
  9
$ACADMAINTVER
 70
    20
  9
$DWGCODEPAGE
  3
ANSI_932
  9
$INSBASE
 10
0.0
 20
0.0
 30
0.0
  9
$EXTMIN
 10
9.999997999999999
 20
10.000001
 30
0.0
  9
$EXTMAX
 10
345.522667
 20
233.65122
 30
0.0
  9
$LIMMIN
 10
0.000002
 20
0.0
  9
$LIMMAX
 10
396.0000019999998
 20
273.0
  9
$ORTHOMODE
 70
     0
  9
$REGENMODE
 70
     1
  9
$FILLMODE
 70
     1
  9
$QTEXTMODE
 70
     0
  9
$MIRRTEXT
 70
     1
  9
$LTSCALE
 40
1.0
  9
$ATTMODE
 70
     1
  9
$TEXTSIZE
 40
2.5
  9
$TRACEWID
 40
1.0
  9
$TEXTSTYLE
  7
STANDARD
  9
$CLAYER
  8
0
  9
$CELTYPE
  6
BYLAYER
  9
$CECOLOR
 62
   256
  9
$CELTSCALE
 40
1.0
  9
$DISPSILH
 70
     0
  9
$DIMSCALE
 40
1.0
  9
$DIMASZ
 40
3.0
  9
$DIMEXO
 40
1.0
  9
$DIMDLI
 40
10.0
  9
$DIMRND
 40
0.0
  9
$DIMDLE
 40
0.0
  9
$DIMEXE
 40
1.0
  9
$DIMTP
 40
0.0
  9
$DIMTM
 40
0.0
  9
$DIMTXT
 40
2.5
  9
$DIMCEN
 40
0.0
  9
$DIMTSZ
 40
0.0
  9
$DIMTOL
 70
     0
  9
$DIMLIM
 70
     0
  9
$DIMTIH
 70
     0
  9
$DIMTOH
 70
     0
  9
$DIMSE1
 70
     0
  9
$DIMSE2
 70
     0
  9
$DIMTAD
 70
     3
  9
$DIMZIN
 70
     8
  9
$DIMBLK
  1

  9
$DIMASO
 70
     1
  9
$DIMSHO
 70
     1
  9
$DIMPOST
  1

  9
$DIMAPOST
  1

  9
$DIMALT
 70
     0
  9
$DIMALTD
 70
     2
  9
$DIMALTF
 40
25.4
  9
$DIMLFAC
 40
1.0
  9
$DIMTOFL
 70
     1
  9
$DIMTVP
 40
0.0
  9
$DIMTIX
 70
     0
  9
$DIMSOXD
 70
     0
  9
$DIMSAH
 70
     1
  9
$DIMBLK1
  1
OPEN
  9
$DIMBLK2
  1
OPEN
  9
$DIMSTYLE
  2
STANDARD
  9
$DIMCLRD
 70
     0
  9
$DIMCLRE
 70
     0
  9
$DIMCLRT
 70
     0
  9
$DIMTFAC
 40
1.0
  9
$DIMGAP
 40
1.0
  9
$DIMJUST
 70
     0
  9
$DIMSD1
 70
     0
  9
$DIMSD2
 70
     0
  9
$DIMTOLJ
 70
     1
  9
$DIMTZIN
 70
     0
  9
$DIMALTZ
 70
     0
  9
$DIMALTTZ
 70
     0
  9
$DIMUPT
 70
     0
  9
$DIMDEC
 70
     4
  9
$DIMTDEC
 70
     4
  9
$DIMALTU
 70
     2
  9
$DIMALTTD
 70
     2
  9
$DIMTXSTY
  7
STANDARD
  9
$DIMAUNIT
 70
     0
  9
$DIMADEC
 70
     0
  9
$DIMALTRND
 40
0.0
  9
$DIMAZIN
 70
     0
  9
$DIMDSEP
 70
    46
  9
$DIMATFIT
 70
     3
  9
$DIMFRAC
 70
     0
  9
$DIMLDRBLK
  1
OPEN
  9
$DIMLUNIT
 70
     2
  9
$DIMLWD
 70
    -2
  9
$DIMLWE
 70
    -2
  9
$DIMTMOVE
 70
     0
  9
$LUNITS
 70
     2
  9
$LUPREC
 70
     4
  9
$SKETCHINC
 40
1.0
  9
$FILLETRAD
 40
0.0
  9
$AUNITS
 70
     0
  9
$AUPREC
 70
     0
  9
$MENU
  1
.
  9
$ELEVATION
 40
0.0
  9
$PELEVATION
 40
0.0
  9
$THICKNESS
 40
0.0
  9
$LIMCHECK
 70
     0
  9
$CHAMFERA
 40
10.0
  9
$CHAMFERB
 40
10.0
  9
$CHAMFERC
 40
0.0
  9
$CHAMFERD
 40
0.0
  9
$SKPOLY
 70
     0
  9
$TDCREATE
 40
2451649.366452998
  9
$TDUCREATE
 40
2451648.991452997
  9
$TDUPDATE
 40
2457192.601535926
  9
$TDUUPDATE
 40
2457192.226535926
  9
$TDINDWG
 40
0.0709438542
  9
$TDUSRTIMER
 40
0.0709435417
  9
$USRTIMER
 70
     1
  9
$ANGBASE
 50
0.0
  9
$ANGDIR
 70
     0
  9
$PDMODE
 70
     0
  9
$PDSIZE
 40
0.0
  9
$PLINEWID
 40
0.0
  9
$SPLFRAME
 70
     0
  9
$SPLINETYPE
 70
     6
  9
$SPLINESEGS
 70
     8
  9
$HANDSEED
  5
19C5
  9
$SURFTAB1
 70
     6
  9
$SURFTAB2
 70
     6
  9
$SURFTYPE
 70
     6
  9
$SURFU
 70
     6
  9
$SURFV
 70
     6
  9
$UCSBASE
  2

  9
$UCSNAME
  2

  9
$UCSORG
 10
0.0
 20
0.0
 30
0.0
  9
$UCSXDIR
 10
1.0
 20
0.0
 30
0.0
  9
$UCSYDIR
 10
0.0
 20
1.0
 30
0.0
  9
$UCSORTHOREF
  2

  9
$UCSORTHOVIEW
 70
     0
  9
$UCSORGTOP
 10
0.0
 20
0.0
 30
0.0
  9
$UCSORGBOTTOM
 10
0.0
 20
0.0
 30
0.0
  9
$UCSORGLEFT
 10
0.0
 20
0.0
 30
0.0
  9
$UCSORGRIGHT
 10
0.0
 20
0.0
 30
0.0
  9
$UCSORGFRONT
 10
0.0
 20
0.0
 30
0.0
  9
$UCSORGBACK
 10
0.0
 20
0.0
 30
0.0
  9
$PUCSBASE
  2

  9
$PUCSNAME
  2

  9
$PUCSORG
 10
0.0
 20
0.0
 30
0.0
  9
$PUCSXDIR
 10
1.0
 20
0.0
 30
0.0
  9
$PUCSYDIR
 10
0.0
 20
1.0
 30
0.0
  9
$PUCSORTHOREF
  2

  9
$PUCSORTHOVIEW
 70
     0
  9
$PUCSORGTOP
 10
0.0
 20
0.0
 30
0.0
  9
$PUCSORGBOTTOM
 10
0.0
 20
0.0
 30
0.0
  9
$PUCSORGLEFT
 10
0.0
 20
0.0
 30
0.0
  9
$PUCSORGRIGHT
 10
0.0
 20
0.0
 30
0.0
  9
$PUCSORGFRONT
 10
0.0
 20
0.0
 30
0.0
  9
$PUCSORGBACK
 10
0.0
 20
0.0
 30
0.0
  9
$USERI1
 70
     0
  9
$USERI2
 70
     0
  9
$USERI3
 70
     0
  9
$USERI4
 70
     0
  9
$USERI5
 70
     0
  9
$USERR1
 40
0.0
  9
$USERR2
 40
0.0
  9
$USERR3
 40
0.0
  9
$USERR4
 40
0.0
  9
$USERR5
 40
0.0
  9
$WORLDVIEW
 70
     1
  9
$SHADEDGE
 70
     3
  9
$SHADEDIF
 70
    70
  9
$TILEMODE
 70
     1
  9
$MAXACTVP
 70
    48
  9
$PINSBASE
 10
0.0
 20
0.0
 30
0.0
  9
$PLIMCHECK
 70
     0
  9
$PEXTMIN
 10
1.000000000000000E+20
 20
1.000000000000000E+20
 30
1.000000000000000E+20
  9
$PEXTMAX
 10
-1.000000000000000E+20
 20
-1.000000000000000E+20
 30
-1.000000000000000E+20
  9
$PLIMMIN
 10
0.0
 20
0.0
  9
$PLIMMAX
 10
420.0
 20
297.0
  9
$UNITMODE
 70
     0
  9
$VISRETAIN
 70
     1
  9
$PLINEGEN
 70
     0
  9
$PSLTSCALE
 70
     1
  9
$TREEDEPTH
 70
  3020
  9
$CMLSTYLE
  2
STANDARD
  9
$CMLJUST
 70
     0
  9
$CMLSCALE
 40
1.0
  9
$PROXYGRAPHICS
 70
     1
  9
$MEASUREMENT
 70
     0
  9
$CELWEIGHT
370
    -1
  9
$ENDCAPS
280
     0
  9
$JOINSTYLE
280
     0
  9
$LWDISPLAY
290
     0
  9
$INSUNITS
 70
     0
  9
$HYPERLINKBASE
  1

  9
$STYLESHEET
  1

  9
$XEDIT
290
     1
  9
$CEPSNTYPE
380
     0
  9
$PSTYLEMODE
290
     1
  9
$FINGERPRINTGUID
  2
{5BAC22A0-B514-4379-AFF6-027368BA29C2}
  9
$VERSIONGUID
  2
{FD334E86-00C4-4425-B8F4-01DCC6EEC351}
  9
$EXTNAMES
290
     1
  9
$PSVPSCALE
 40
0.0
  9
$OLESTARTUP
290
     0
  0
ENDSEC
  0
SECTION
  2
CLASSES
  0
CLASS
  1
ACDBDICTIONARYWDFLT
  2
AcDbDictionaryWithDefault
  3
ObjectDBX Classes
 90
        0
280
     0
281
     0
  0
CLASS
  1
ACDBPLACEHOLDER
  2
AcDbPlaceHolder
  3
ObjectDBX Classes
 90
        0
280
     0
281
     0
  0
CLASS
  1
LAYOUT
  2
AcDbLayout
  3
ObjectDBX Classes
 90
        0
280
     0
281
     0
  0
CLASS
  1
DICTIONARYVAR
  2
AcDbDictionaryVar
  3
ObjectDBX Classes
 90
        0
280
     0
281
     0
  0
CLASS
  1
MATERIAL
  2
AcDbMaterial
  3
ObjectDBX Classes
 90
     1153
280
     0
281
     0
  0
CLASS
  1
VISUALSTYLE
  2
AcDbVisualStyle
  3
ObjectDBX Classes
 90
     4095
280
     0
281
     0
  0
CLASS
  1
TABLESTYLE
  2
AcDbTableStyle
  3
ObjectDBX Classes
 90
     4095
280
     0
281
     0
  0
CLASS
  1
SCALE
  2
AcDbScale
  3
ObjectDBX Classes
 90
     1153
280
     0
281
     0
  0
CLASS
  1
MLEADERSTYLE
  2
AcDbMLeaderStyle
  3
ACDB_MLEADERSTYLE_CLASS
 90
     4095
280
     0
281
     0
  0
CLASS
  1
ACDBSECTIONVIEWSTYLE
  2
AcDbSectionViewStyle
  3
ObjectDBX Classes
 90
     1025
280
     0
281
     0
  0
CLASS
  1
ACDBDETAILVIEWSTYLE
  2
AcDbDetailViewStyle
  3
ObjectDBX Classes
 90
     1025
280
     0
281
     0
  0
CLASS
  1
CELLSTYLEMAP
  2
AcDbCellStyleMap
  3
ObjectDBX Classes
 90
     1152
280
     0
281
     0
  0
ENDSEC
  0
SECTION
  2
TABLES
  0
TABLE
  2
VPORT
  5
16CF
330
0
100
AcDbSymbolTable
 70
     1
  0
VPORT
  5
190E
330
16CF
100
AcDbSymbolTableRecord
100
AcDbViewportTableRecord
  2
*ACTIVE
 70
     0
 10
0.0
 20
0.0
 11
1.0
 21
1.0
 12
245.5046770493251
 22
121.8265005575102
 13
0.0
 23
0.0
 14
10.0
 24
10.0
 15
10.0
 25
10.0
 16
0.0
 26
0.0
 36
1.0
 17
0.0
 27
0.0
 37
0.0
 40
226.1762147691252
 41
1.899603698811096
 42
50.0
 43
0.0
 44
0.0
 50
0.0
 51
0.0
 71
     0
 72
   100
 73
     1
 74
     0
 75
     0
 76
     0
 77
     0
 78
     0
281
     0
 65
     1
110
0.0
120
0.0
130
0.0
111
1.0
121
0.0
131
0.0
112
0.0
122
1.0
132
0.0
 79
     0
146
0.0
1001
ACAD_NAV_VCDISPLAY
1070
     3
  0
ENDTAB
  0
TABLE
  2
LTYPE
  5
16CC
330
0
100
AcDbSymbolTable
 70
     4
  0
LTYPE
  5
16DA
330
16CC
100
AcDbSymbolTableRecord
100
AcDbLinetypeTableRecord
  2
BYBLOCK
 70
     0
  3

 72
    65
 73
     0
 40
0.0
  0
LTYPE
  5
16DB
330
16CC
100
AcDbSymbolTableRecord
100
AcDbLinetypeTableRecord
  2
BYLAYER
 70
     0
  3

 72
    65
 73
     0
 40
0.0
  0
LTYPE
  5
16DC
330
16CC
100
AcDbSymbolTableRecord
100
AcDbLinetypeTableRecord
  2
CONTINUOUS
 70
     0
  3
Solid line
 72
    65
 73
     0
 40
0.0
  0
LTYPE
  5
16EA
330
16CC
100
AcDbSymbolTableRecord
100
AcDbLinetypeTableRecord
  2
DASHED
 70
     0
  3
Dashed __ __ __ __ __ __ __ __ __ __ __ __ __ _
 72
    65
 73
     2
 40
19.05
 49
12.7
 74
     0
 49
-6.349999999999997
 74
     0
  0
LTYPE
  5
16EB
330
16CC
100
AcDbSymbolTableRecord
100
AcDbLinetypeTableRecord
  2
CENTER
 70
     0
  3
Center ____ _ ____ _ ____ _ ____ _ ____ _ ____
 72
    65
 73
     4
 40
50.8
 49
31.75
 74
     0
 49
-6.349999999999997
 74
     0
 49
6.349999999999997
 74
     0
 49
-6.349999999999997
 74
     0
  0
LTYPE
  5
16EC
330
16CC
100
AcDbSymbolTableRecord
100
AcDbLinetypeTableRecord
  2
PHANTOM
 70
     0
  3
Phantom ______  __  __  ______  __  __  ______
 72
    65
 73
     6
 40
63.5
 49
31.75
 74
     0
 49
-6.349999999999997
 74
     0
 49
6.349999999999997
 74
     0
 49
-6.349999999999997
 74
     0
 49
6.349999999999997
 74
     0
 49
-6.349999999999997
 74
     0
  0
ENDTAB
  0
TABLE
  2
LAYER
  5
16C9
330
0
100
AcDbSymbolTable
 70
     8
  0
LAYER
  5
16D7
102
{ACAD_XDICTIONARY
360
1969
102
}
330
16C9
100
AcDbSymbolTableRecord
100
AcDbLayerTableRecord
  2
0
 70
     0
 62
     7
  6
CONTINUOUS
370
    -3
390
1917
  0
LAYER
  5
16ED
102
{ACAD_XDICTIONARY
360
196B
102
}
330
16C9
100
AcDbSymbolTableRecord
100
AcDbLayerTableRecord
  2
4
 70
     0
 62
     1
  6
CENTER
370
    -3
390
1917
  0
LAYER
  5
16EE
102
{ACAD_XDICTIONARY
360
196D
102
}
330
16C9
100
AcDbSymbolTableRecord
100
AcDbLayerTableRecord
  2
5
 70
     0
 62
     6
  6
PHANTOM
370
    -3
390
1917
  0
LAYER
  5
16EF
102
{ACAD_XDICTIONARY
360
196F
102
}
330
16C9
100
AcDbSymbolTableRecord
100
AcDbLayerTableRecord
  2
1
 70
     0
 62
     7
  6
CONTINUOUS
370
    -3
390
1917
  0
LAYER
  5
16F0
102
{ACAD_XDICTIONARY
360
1971
102
}
330
16C9
100
AcDbSymbolTableRecord
100
AcDbLayerTableRecord
  2
2
 70
     0
 62
     4
  6
CONTINUOUS
370
    -3
390
1917
  0
LAYER
  5
16F1
102
{ACAD_XDICTIONARY
360
1973
102
}
330
16C9
100
AcDbSymbolTableRecord
100
AcDbLayerTableRecord
  2
3
 70
     0
 62
     2
  6
DASHED
370
    -3
390
1917
  0
LAYER
  5
16F2
102
{ACAD_XDICTIONARY
360
1975
102
}
330
16C9
100
AcDbSymbolTableRecord
100
AcDbLayerTableRecord
  2
6
 70
     0
 62
     5
  6
CONTINUOUS
370
    -3
390
1917
  0
LAYER
  5
16F3
102
{ACAD_XDICTIONARY
360
1977
102
}
330
16C9
100
AcDbSymbolTableRecord
100
AcDbLayerTableRecord
  2
7
 70
     0
 62
     3
  6
CONTINUOUS
370
    -3
390
1917
  0
ENDTAB
  0
TABLE
  2
STYLE
  5
16CA
330
0
100
AcDbSymbolTable
 70
     1
  0
STYLE
  5
16D8
330
16CA
100
AcDbSymbolTableRecord
100
AcDbTextStyleTableRecord
  2
STANDARD
 70
     0
 40
0.0
 41
1.0
 50
0.0
 71
     0
 42
2.5
  3
txt
  4

  0
ENDTAB
  0
TABLE
  2
VIEW
  5
16CD
330
0
100
AcDbSymbolTable
 70
     0
  0
ENDTAB
  0
TABLE
  2
UCS
  5
16CE
330
0
100
AcDbSymbolTable
 70
     0
  0
ENDTAB
  0
TABLE
  2
APPID
  5
16D0
330
0
100
AcDbSymbolTable
 70
     7
  0
APPID
  5
16D9
330
16D0
100
AcDbSymbolTableRecord
100
AcDbRegAppTableRecord
  2
ACAD
 70
     0
  0
APPID
  5
16F4
330
16D0
100
AcDbSymbolTableRecord
100
AcDbRegAppTableRecord
  2
CONTENTTABDATA
 70
     0
  0
APPID
  5
16F5
330
16D0
100
AcDbSymbolTableRecord
100
AcDbRegAppTableRecord
  2
CONTENTCURRENTTAB
 70
     0
  0
APPID
  5
16F6
330
16D0
100
AcDbSymbolTableRecord
100
AcDbRegAppTableRecord
  2
CONTENTBLOCKDESCRIPTION
 70
     0
  0
APPID
  5
16F7
330
16D0
100
AcDbSymbolTableRecord
100
AcDbRegAppTableRecord
  2
CONTENTBLOCKICON
 70
     0
  0
APPID
  5
1983
330
16D0
100
AcDbSymbolTableRecord
100
AcDbRegAppTableRecord
  2
ACAD_NAV_VCDISPLAY
 70
     0
  0
APPID
  5
19BC
330
16D0
100
AcDbSymbolTableRecord
100
AcDbRegAppTableRecord
  2
ACAD_MLEADERVER
 70
     0
  0
ENDTAB
  0
TABLE
  2
DIMSTYLE
  5
16D1
330
0
100
AcDbSymbolTable
 70
     1
100
AcDbDimStyleTable
 71
     0
  0
DIMSTYLE
105
16F8
330
16D1
100
AcDbSymbolTableRecord
100
AcDbDimStyleTableRecord
  2
STANDARD
 70
     0
 41
3.0
 42
1.0
 43
10.0
 44
1.0
 73
     0
 74
     0
 77
     3
 78
     8
140
2.5
141
0.0
147
1.0
172
     1
173
     1
284
     8
285
     8
286
     8
340
16D8
  0
ENDTAB
  0
TABLE
  2
BLOCK_RECORD
  5
16C8
330
0
100
AcDbSymbolTable
 70
     1
  0
BLOCK_RECORD
  5
16E5
102
{ACAD_XDICTIONARY
360
1911
102
}
330
16C8
100
AcDbSymbolTableRecord
100
AcDbBlockTableRecord
  2
*MODEL_SPACE
340
1965
  0
BLOCK_RECORD
  5
16E1
102
{ACAD_XDICTIONARY
360
190F
102
}
330
16C8
100
AcDbSymbolTableRecord
100
AcDbBlockTableRecord
  2
*PAPER_SPACE
340
1966
  0
BLOCK_RECORD
  5
1700
330
16C8
100
AcDbSymbolTableRecord
100
AcDbBlockTableRecord
  2
_OPEN
340
0
  0
ENDTAB
  0
ENDSEC
  0
SECTION
  2
BLOCKS
  0
BLOCK
  5
16E6
330
16E5
100
AcDbEntity
  8
0
100
AcDbBlockBegin
  2
*MODEL_SPACE
 70
     0
 10
0.0
 20
0.0
 30
0.0
  3
*MODEL_SPACE
  1

  0
ENDBLK
  5
16E7
330
16E5
100
AcDbEntity
  8
0
100
AcDbBlockEnd
  0
BLOCK
  5
16E2
330
16E1
100
AcDbEntity
 67
     1
  8
0
100
AcDbBlockBegin
  2
*PAPER_SPACE
 70
     0
 10
0.0
 20
0.0
 30
0.0
  3
*PAPER_SPACE
  1

  0
ENDBLK
  5
16E3
330
16E1
100
AcDbEntity
 67
     1
  8
0
100
AcDbBlockEnd
  0
BLOCK
  5
1701
330
1700
100
AcDbEntity
  8
0
100
AcDbBlockBegin
  2
_OPEN
 70
     0
 10
0.0
 20
0.0
 30
0.0
  3
_OPEN
  1

  0
LINE
  5
1702
330
1700
100
AcDbEntity
  8
0
  6
ByBlock
 62
     0
100
AcDbLine
 10
-1.0
 20
0.166667
 30
0.0
 11
0.0
 21
0.0
 31
0.0
  0
LINE
  5
1703
330
1700
100
AcDbEntity
  8
0
  6
ByBlock
 62
     0
100
AcDbLine
 10
0.0
 20
0.0
 30
0.0
 11
-1.0
 21
-0.166667
 31
0.0
  0
LINE
  5
1704
330
1700
100
AcDbEntity
  8
0
  6
ByBlock
 62
     0
100
AcDbLine
 10
0.0
 20
0.0
 30
0.0
 11
-1.0
 21
0.0
 31
0.0
  0
ENDBLK
  5
1705
330
1700
100
AcDbEntity
  8
0
100
AcDbBlockEnd
  0
ENDSEC
  0
SECTION
  2
ENTITIES
  0
TEXT
  5
1706
330
16E5
100
AcDbEntity
  8
4
  6
CENTER
100
AcDbText
 10
23.979509
 20
10.048738
 30
0.0
 40
1.399999999999999
  1
4
100
AcDbText
  0
TEXT
  5
1707
330
16E5
100
AcDbEntity
  8
7
  6
Continuous
100
AcDbText
 10
9.999997999999999
 20
26.000001
 30
0.0
 40
3.0
  1
CODE No.1906
100
AcDbText
  0
TEXT
  5
1708
330
16E5
100
AcDbEntity
  8
7
  6
Continuous
100
AcDbText
 10
9.999997999999999
 20
18.000001
 30
0.0
 40
3.0
  1
TYPE No.TL-321-1
100
AcDbText
  0
TEXT
  5
1709
330
16E5
100
AcDbEntity
  8
1
  6
Continuous
100
AcDbText
 10
9.999997999999999
 20
10.000001
 30
0.0
 40
1.399999999999999
  1
LAYER
100
AcDbText
  0
TEXT
  5
170A
330
16E5
100
AcDbEntity
  8
2
  6
Continuous
100
AcDbText
 10
19.979509
 20
10.048738
 30
0.0
 40
1.399999999999999
  1
2
100
AcDbText
  0
TEXT
  5
170B
330
16E5
100
AcDbEntity
  8
3
  6
DASHED
100
AcDbText
 10
21.97950899999999
 20
10.048738
 30
0.0
 40
1.399999999999999
  1
3
100
AcDbText
  0
TEXT
  5
170C
330
16E5
100
AcDbEntity
  8
1
  6
Continuous
100
AcDbText
 10
17.979509
 20
10.048738
 30
0.0
 40
1.399999999999999
  1
1
100
AcDbText
  0
TEXT
  5
170D
330
16E5
100
AcDbEntity
  8
5
  6
PHANTOM
100
AcDbText
 10
25.979509
 20
10.048738
 30
0.0
 40
1.399999999999999
  1
5
100
AcDbText
  0
TEXT
  5
170E
330
16E5
100
AcDbEntity
  8
6
  6
Continuous
100
AcDbText
 10
27.979509
 20
10.048738
 30
0.0
 40
1.399999999999999
  1
6
100
AcDbText
  0
TEXT
  5
170F
330
16E5
100
AcDbEntity
  8
7
  6
Continuous
100
AcDbText
 10
29.97950900000001
 20
10.048738
 30
0.0
 40
1.399999999999999
  1
7
100
AcDbText
  0
LINE
  5
1710
330
16E5
100
AcDbEntity
  8
4
  6
CENTER
100
AcDbLine
 10
113.3408889999999
 20
135.82561
 30
0.0
 11
159.3408889999998
 21
135.82561
 31
0.0
  0
LINE
  5
1711
330
16E5
100
AcDbEntity
  8
4
  6
CENTER
100
AcDbLine
 10
136.3408889999998
 20
149.1256129999999
 30
0.0
 11
136.3408889999998
 21
122.5256069999999
 31
0.0
  0
LINE
  5
1712
330
16E5
100
AcDbEntity
  8
4
  6
CENTER
100
AcDbLine
 10
136.3408889999998
 20
38.0
 30
0.0
 11
136.3408889999998
 21
80.5
 31
0.0
  0
LINE
  5
1713
330
16E5
100
AcDbEntity
  8
1
  6
Continuous
100
AcDbLine
 10
122.1654629999999
 20
135.82561
 30
0.0
 11
122.3408889999999
 21
135.521762
 31
0.0
  0
LINE
  5
1714
330
16E5
100
AcDbEntity
  8
1
  6
Continuous
100
AcDbLine
 10
122.3408889999999
 20
136.129458
 30
0.0
 11
122.1654629999999
 21
135.82561
 31
0.0
  0
LINE
  5
1715
330
16E5
100
AcDbEntity
  8
4
  6
CENTER
100
AcDbLine
 10
125.3408889999999
 20
138.6256099999999
 30
0.0
 11
125.3408889999999
 21
133.0256099999998
 31
0.0
  0
LINE
  5
1716
330
16E5
100
AcDbEntity
  8
4
  6
CENTER
100
AcDbLine
 10
147.3408889999998
 20
138.6256099999999
 30
0.0
 11
147.3408889999998
 21
133.0256099999998
 31
0.0
  0
LINE
  5
1717
330
16E5
100
AcDbEntity
  8
1
  6
Continuous
100
AcDbLine
 10
116.3408889999999
 20
48.200001
 30
0.0
 11
116.3408889999999
 21
62.5
 31
0.0
  0
LINE
  5
1718
330
16E5
100
AcDbEntity
  8
1
  6
Continuous
100
AcDbLine
 10
129.7408889999998
 20
41.0
 30
0.0
 11
129.7408889999998
 21
46.700001
 31
0.0
  0
LINE
  5
1719
330
16E5
100
AcDbEntity
  8
1
  6
Continuous
100
AcDbLine
 10
142.94089
 20
41.0
 30
0.0
 11
142.94089
 21
46.700001
 31
0.0
  0
LINE
  5
171A
330
16E5
100
AcDbEntity
  8
1
  6
Continuous
100
AcDbLine
 10
117.3408889999999
 20
47.200001
 30
0.0
 11
136.3408889999998
 21
47.200001
 31
0.0
  0
LINE
  5
171B
330
16E5
100
AcDbEntity
  8
1
  6
Continuous
100
AcDbLine
 10
136.3408889999998
 20
47.200001
 30
0.0
 11
151.3408889999998
 21
47.200001
 31
0.0
  0
LINE
  5
171C
330
16E5
100
AcDbEntity
  8
1
  6
Continuous
100
AcDbLine
 10
116.3408889999999
 20
62.5
 30
0.0
 11
151.3408889999998
 21
62.5
 31
0.0
  0
LINE
  5
171D
330
16E5
100
AcDbEntity
  8
1
  6
Continuous
100
AcDbLine
 10
151.3408889999998
 20
47.200001
 30
0.0
 11
151.3408889999998
 21
62.5
 31
0.0
  0
LINE
  5
171E
330
16E5
100
AcDbEntity
  8
1
  6
Continuous
100
AcDbLine
 10
121.3408889999999
 20
48.200001
 30
0.0
 11
121.3408889999999
 21
62.5
 31
0.0
  0
LINE
  5
171F
330
16E5
100
AcDbEntity
  8
1
  6
Continuous
100
AcDbLine
 10
129.7408889999998
 20
41.0
 30
0.0
 11
142.94089
 21
41.0
 31
0.0
  0
LINE
  5
1720
330
16E5
100
AcDbEntity
  8
1
  6
Continuous
100
AcDbLine
 10
139.8408889999998
 20
46.700001
 30
0.0
 11
139.8408889999998
 21
41.0
 31
0.0
  0
LINE
  5
1721
330
16E5
100
AcDbEntity
  8
1
  6
Continuous
100
AcDbLine
 10
132.8408889999997
 20
46.700001
 30
0.0
 11
132.8408889999997
 21
41.0
 31
0.0
  0
LINE
  5
1722
330
16E5
100
AcDbEntity
  8
1
  6
Continuous
100
AcDbLine
 10
116.3408889999999
 20
139.275607
 30
0.0
 11
121.3408889999999
 21
139.275607
 31
0.0
  0
LINE
  5
1723
330
16E5
100
AcDbEntity
  8
1
  6
Continuous
100
AcDbLine
 10
116.3408889999999
 20
143.1256129999999
 30
0.0
 11
120.8658659999999
 21
145.8405939999998
 31
0.0
  0
LINE
  5
1724
330
16E5
100
AcDbEntity
  8
1
  6
Continuous
100
AcDbLine
 10
116.3408889999999
 20
128.525607
 30
0.0
 11
116.3408889999999
 21
143.1256129999999
 31
0.0
  0
LINE
  5
1725
330
16E5
100
AcDbEntity
  8
1
  6
Continuous
100
AcDbLine
 10
150.3408889999998
 20
138.1575729999999
 30
0.0
 11
150.3408889999998
 21
133.493648
 31
0.0
  0
LINE
  5
1726
330
16E5
100
AcDbEntity
  8
1
  6
Continuous
100
AcDbLine
 10
122.3408889999999
 20
138.1575729999999
 30
0.0
 11
122.3408889999999
 21
133.493648
 31
0.0
  0
LINE
  5
1727
330
16E5
100
AcDbEntity
  8
1
  6
Continuous
100
AcDbLine
 10
134.0408899999999
 20
130.425609
 30
0.0
 11
134.0408899999999
 21
128.925609
 31
0.0
  0
LINE
  5
1728
330
16E5
100
AcDbEntity
  8
1
  6
Continuous
100
AcDbLine
 10
138.640889
 20
130.425609
 30
0.0
 11
138.640889
 21
128.925609
 31
0.0
  0
LINE
  5
1729
330
16E5
100
AcDbEntity
  8
1
  6
Continuous
100
AcDbLine
 10
138.640889
 20
141.225612
 30
0.0
 11
138.640889
 21
142.725612
 31
0.0
  0
LINE
  5
172A
330
16E5
100
AcDbEntity
  8
1
  6
Continuous
100
AcDbLine
 10
134.0408899999999
 20
141.225612
 30
0.0
 11
134.0408899999999
 21
142.725612
 31
0.0
  0
LINE
  5
172B
330
16E5
100
AcDbEntity
  8
1
  6
Continuous
100
AcDbLine
 10
121.894858
 20
146.1256129999999
 30
0.0
 11
151.3408889999998
 21
146.1256129999999
 31
0.0
  0
LINE
  5
172C
330
16E5
100
AcDbEntity
  8
1
  6
Continuous
100
AcDbLine
 10
151.3408889999998
 20
132.3756129999999
 30
0.0
 11
151.3408889999998
 21
125.5256069999999
 31
0.0
  0
LINE
  5
172D
330
16E5
100
AcDbEntity
  8
1
  6
Continuous
100
AcDbLine
 10
138.640889
 20
141.225612
 30
0.0
 11
139.1267459999999
 21
141.225612
 31
0.0
  0
LINE
  5
172E
330
16E5
100
AcDbEntity
  8
1
  6
Continuous
100
AcDbLine
 10
138.640889
 20
130.425609
 30
0.0
 11
139.1267459999999
 21
130.425609
 31
0.0
  0
LINE
  5
172F
330
16E5
100
AcDbEntity
  8
1
  6
Continuous
100
AcDbLine
 10
141.7408889999999
 20
135.82561
 30
0.0
 11
141.7408889999999
 21
138.111468
 31
0.0
  0
LINE
  5
1730
330
16E5
100
AcDbEntity
  8
1
  6
Continuous
100
AcDbLine
 10
134.0408899999999
 20
142.725612
 30
0.0
 11
138.640889
 21
142.725612
 31
0.0
  0
LINE
  5
1731
330
16E5
100
AcDbEntity
  8
1
  6
Continuous
100
AcDbLine
 10
134.0408899999999
 20
128.925609
 30
0.0
 11
138.640889
 21
128.925609
 31
0.0
  0
LINE
  5
1732
330
16E5
100
AcDbEntity
  8
1
  6
Continuous
100
AcDbLine
 10
131.4408899999999
 20
130.425609
 30
0.0
 11
132.126745
 21
130.425609
 31
0.0
  0
LINE
  5
1733
330
16E5
100
AcDbEntity
  8
1
  6
Continuous
100
AcDbLine
 10
131.4408899999999
 20
141.225612
 30
0.0
 11
132.126745
 21
141.225612
 31
0.0
  0
LINE
  5
1734
330
16E5
100
AcDbEntity
  8
1
  6
Continuous
100
AcDbLine
 10
130.9408899999999
 20
130.925609
 30
0.0
 11
130.9408899999999
 21
132.1114679999998
 31
0.0
  0
LINE
  5
1735
330
16E5
100
AcDbEntity
  8
1
  6
Continuous
100
AcDbLine
 10
130.9408899999999
 20
135.82561
 30
0.0
 11
130.9408899999999
 21
138.111468
 31
0.0
  0
LINE
  5
1736
330
16E5
100
AcDbEntity
  8
1
  6
Continuous
100
AcDbLine
 10
141.7408889999999
 20
130.925609
 30
0.0
 11
141.7408889999999
 21
132.1114679999998
 31
0.0
  0
LINE
  5
1737
330
16E5
100
AcDbEntity
  8
1
  6
Continuous
100
AcDbLine
 10
121.894858
 20
125.5256069999999
 30
0.0
 11
151.3408889999998
 21
125.5256069999999
 31
0.0
  0
LINE
  5
1738
330
16E5
100
AcDbEntity
  8
1
  6
Continuous
100
AcDbLine
 10
116.3408889999999
 20
132.3756129999999
 30
0.0
 11
121.3408889999999
 21
132.3756129999999
 31
0.0
  0
LINE
  5
1739
330
16E5
100
AcDbEntity
  8
1
  6
Continuous
100
AcDbLine
 10
151.3408889999998
 20
146.1256129999999
 30
0.0
 11
151.3408889999998
 21
139.275607
 31
0.0
  0
LINE
  5
173A
330
16E5
100
AcDbEntity
  8
1
  6
Continuous
100
AcDbLine
 10
116.3408889999999
 20
128.525607
 30
0.0
 11
120.8658659999999
 21
125.8106259999999
 31
0.0
  0
LINE
  5
173B
330
16E5
100
AcDbEntity
  8
1
  6
Continuous
100
AcDbLine
 10
141.7408889999999
 20
133.5397519999999
 30
0.0
 11
141.7408889999999
 21
135.82561
 31
0.0
  0
LINE
  5
173C
330
16E5
100
AcDbEntity
  8
1
  6
Continuous
100
AcDbLine
 10
141.7408889999999
 20
139.5397519999999
 30
0.0
 11
141.7408889999999
 21
140.725612
 31
0.0
  0
LINE
  5
173D
330
16E5
100
AcDbEntity
  8
1
  6
Continuous
100
AcDbLine
 10
140.555032
 20
141.225612
 30
0.0
 11
141.2408889999998
 21
141.225612
 31
0.0
  0
LINE
  5
173E
330
16E5
100
AcDbEntity
  8
1
  6
Continuous
100
AcDbLine
 10
140.555032
 20
130.425609
 30
0.0
 11
141.2408889999998
 21
130.425609
 31
0.0
  0
LINE
  5
173F
330
16E5
100
AcDbEntity
  8
1
  6
Continuous
100
AcDbLine
 10
133.555033
 20
130.425609
 30
0.0
 11
134.0408899999999
 21
130.425609
 31
0.0
  0
LINE
  5
1740
330
16E5
100
AcDbEntity
  8
1
  6
Continuous
100
AcDbLine
 10
130.9408899999999
 20
133.5397519999999
 30
0.0
 11
130.9408899999999
 21
135.82561
 31
0.0
  0
LINE
  5
1741
330
16E5
100
AcDbEntity
  8
1
  6
Continuous
100
AcDbLine
 10
130.9408899999999
 20
139.5397519999999
 30
0.0
 11
130.9408899999999
 21
140.725612
 31
0.0
  0
LINE
  5
1742
330
16E5
100
AcDbEntity
  8
1
  6
Continuous
100
AcDbLine
 10
133.555033
 20
141.225612
 30
0.0
 11
134.0408899999999
 21
141.225612
 31
0.0
  0
LINE
  5
1743
330
16E5
100
AcDbEntity
  8
1
  6
Continuous
100
AcDbLine
 10
151.3408889999998
 20
139.275607
 30
0.0
 11
150.893676
 21
139.052005
 31
0.0
  0
LINE
  5
1744
330
16E5
100
AcDbEntity
  8
1
  6
Continuous
100
AcDbLine
 10
116.3408889999999
 20
137.6256129999999
 30
0.0
 11
122.3408889999999
 21
137.6256129999999
 31
0.0
  0
LINE
  5
1745
330
16E5
100
AcDbEntity
  8
1
  6
Continuous
100
AcDbLine
 10
121.3408889999999
 20
132.3756129999999
 30
0.0
 11
121.788103
 21
132.5992149999999
 31
0.0
  0
LINE
  5
1746
330
16E5
100
AcDbEntity
  8
1
  6
Continuous
100
AcDbLine
 10
151.3408889999998
 20
132.3756129999999
 30
0.0
 11
150.893676
 21
132.5992149999999
 31
0.0
  0
LINE
  5
1747
330
16E5
100
AcDbEntity
  8
1
  6
Continuous
100
AcDbLine
 10
121.3408889999999
 20
139.275607
 30
0.0
 11
121.788103
 21
139.052005
 31
0.0
  0
LINE
  5
1748
330
16E5
100
AcDbEntity
  8
1
  6
Continuous
100
AcDbLine
 10
116.3408889999999
 20
134.025607
 30
0.0
 11
122.3408889999999
 21
134.025607
 31
0.0
  0
LINE
  5
1749
330
16E5
100
AcDbEntity
  8
1
  6
Continuous
100
AcDbLine
 10
151.3408889999998
 20
135.32561
 30
0.0
 11
154.3408889999998
 21
135.32561
 31
0.0
  0
LINE
  5
174A
330
16E5
100
AcDbEntity
  8
1
  6
Continuous
100
AcDbLine
 10
151.3408889999998
 20
136.32561
 30
0.0
 11
154.3408889999998
 21
136.32561
 31
0.0
  0
LINE
  5
174B
330
16E5
100
AcDbEntity
  8
1
  6
Continuous
100
AcDbLine
 10
150.8408889999998
 20
139.025607
 30
0.0
 11
150.8408889999998
 21
136.82561
 31
0.0
  0
LINE
  5
174C
330
16E5
100
AcDbEntity
  8
1
  6
Continuous
100
AcDbLine
 10
150.8408889999998
 20
134.82561
 30
0.0
 11
150.8408889999998
 21
132.6256129999999
 31
0.0
  0
LINE
  5
174D
330
16E5
100
AcDbEntity
  8
1
  6
Continuous
100
AcDbLine
 10
134.0408899999999
 20
129.025607
 30
0.0
 11
138.640889
 21
129.025607
 31
0.0
  0
LINE
  5
174E
330
16E5
100
AcDbEntity
  8
1
  6
Continuous
100
AcDbLine
 10
134.0408899999999
 20
130.32561
 30
0.0
 11
134.640888
 21
130.32561
 31
0.0
  0
LINE
  5
174F
330
16E5
100
AcDbEntity
  8
1
  6
Continuous
100
AcDbLine
 10
134.0408899999999
 20
141.32561
 30
0.0
 11
134.640888
 21
141.32561
 31
0.0
  0
LINE
  5
1750
330
16E5
100
AcDbEntity
  8
1
  6
Continuous
100
AcDbLine
 10
156.3408889999998
 20
58.0
 30
0.0
 11
156.3408889999998
 21
56.5
 31
0.0
  0
LINE
  5
1751
330
16E5
100
AcDbEntity
  8
1
  6
Continuous
100
AcDbLine
 10
151.3408889999998
 20
58.5
 30
0.0
 11
155.8408889999998
 21
58.5
 31
0.0
  0
LINE
  5
1752
330
16E5
100
AcDbEntity
  8
1
  6
Continuous
100
AcDbLine
 10
156.3408889999998
 20
56.5
 30
0.0
 11
151.3408889999998
 21
49.76923
 31
0.0
  0
LINE
  5
1753
330
16E5
100
AcDbEntity
  8
1
  6
Continuous
100
AcDbLine
 10
141.3408889999998
 20
139.82561
 30
0.0
 11
141.3408889999998
 21
131.82561
 31
0.0
  0
LINE
  5
1754
330
16E5
100
AcDbEntity
  8
1
  6
Continuous
100
AcDbLine
 10
132.3408889999998
 20
130.82561
 30
0.0
 11
140.3408889999997
 21
130.82561
 31
0.0
  0
LINE
  5
1755
330
16E5
100
AcDbEntity
  8
1
  6
Continuous
100
AcDbLine
 10
132.3408889999998
 20
140.82561
 30
0.0
 11
140.3408889999997
 21
140.82561
 31
0.0
  0
LINE
  5
1756
330
16E5
100
AcDbEntity
  8
1
  6
Continuous
100
AcDbLine
 10
131.3408889999998
 20
139.82561
 30
0.0
 11
131.3408889999998
 21
131.82561
 31
0.0
  0
LINE
  5
1757
330
16E5
100
AcDbEntity
  8
1
  6
Continuous
100
AcDbLine
 10
134.640888
 20
142.32561
 30
0.0
 11
138.0408889999999
 21
142.32561
 31
0.0
  0
LINE
  5
1758
330
16E5
100
AcDbEntity
  8
1
  6
Continuous
100
AcDbLine
 10
134.640888
 20
129.32561
 30
0.0
 11
138.0408889999999
 21
129.32561
 31
0.0
  0
LINE
  5
1759
330
16E5
100
AcDbEntity
  8
1
  6
Continuous
100
AcDbLine
 10
134.640888
 20
142.32561
 30
0.0
 11
134.640888
 21
140.82561
 31
0.0
  0
LINE
  5
175A
330
16E5
100
AcDbEntity
  8
1
  6
Continuous
100
AcDbLine
 10
138.0408889999999
 20
142.32561
 30
0.0
 11
138.0408889999999
 21
140.82561
 31
0.0
  0
LINE
  5
175B
330
16E5
100
AcDbEntity
  8
1
  6
Continuous
100
AcDbLine
 10
134.640888
 20
130.82561
 30
0.0
 11
134.640888
 21
129.32561
 31
0.0
  0
LINE
  5
175C
330
16E5
100
AcDbEntity
  8
1
  6
Continuous
100
AcDbLine
 10
138.0408889999999
 20
130.82561
 30
0.0
 11
138.0408889999999
 21
129.32561
 31
0.0
  0
LINE
  5
175D
330
16E5
100
AcDbEntity
  8
1
  6
Continuous
100
AcDbLine
 10
130.9408899999999
 20
137.82561
 30
0.0
 11
131.3408889999998
 21
137.82561
 31
0.0
  0
LINE
  5
175E
330
16E5
100
AcDbEntity
  8
1
  6
Continuous
100
AcDbLine
 10
130.9408899999999
 20
133.82561
 30
0.0
 11
131.3408889999998
 21
133.82561
 31
0.0
  0
LINE
  5
175F
330
16E5
100
AcDbEntity
  8
1
  6
Continuous
100
AcDbLine
 10
141.3408889999998
 20
133.82561
 30
0.0
 11
141.7408889999999
 21
133.82561
 31
0.0
  0
LINE
  5
1760
330
16E5
100
AcDbEntity
  8
1
  6
Continuous
100
AcDbLine
 10
141.3408889999998
 20
137.82561
 30
0.0
 11
141.7408889999999
 21
137.82561
 31
0.0
  0
LINE
  5
1761
330
16E5
100
AcDbEntity
  8
1
  6
Continuous
100
AcDbLine
 10
131.3408889999998
 20
76.5
 30
0.0
 11
131.3408889999998
 21
62.5
 31
0.0
  0
LINE
  5
1762
330
16E5
100
AcDbEntity
  8
1
  6
Continuous
100
AcDbLine
 10
141.3408889999998
 20
76.5
 30
0.0
 11
141.3408889999998
 21
62.5
 31
0.0
  0
LINE
  5
1763
330
16E5
100
AcDbEntity
  8
1
  6
Continuous
100
AcDbLine
 10
132.3408889999998
 20
77.5
 30
0.0
 11
140.3408889999997
 21
77.5
 31
0.0
  0
LINE
  5
1764
330
16E5
100
AcDbEntity
  8
1
  6
Continuous
100
AcDbLine
 10
138.0408889999999
 20
130.32561
 30
0.0
 11
138.640889
 21
130.32561
 31
0.0
  0
LINE
  5
1765
330
16E5
100
AcDbEntity
  8
1
  6
Continuous
100
AcDbLine
 10
138.0408889999999
 20
141.32561
 30
0.0
 11
138.640889
 21
141.32561
 31
0.0
  0
LINE
  5
1766
330
16E5
100
AcDbEntity
  8
1
  6
Continuous
100
AcDbLine
 10
134.0408899999999
 20
142.6256129999998
 30
0.0
 11
138.640889
 21
142.6256129999998
 31
0.0
  0
LINE
  5
1767
330
16E5
100
AcDbEntity
  8
1
  6
Continuous
100
AcDbLine
 10
151.3408889999998
 20
143.32561
 30
0.0
 11
155.3408889999998
 21
143.32561
 31
0.0
  0
LINE
  5
1768
330
16E5
100
AcDbEntity
  8
1
  6
Continuous
100
AcDbLine
 10
151.3408889999998
 20
128.32561
 30
0.0
 11
155.3408889999998
 21
128.32561
 31
0.0
  0
LINE
  5
1769
330
16E5
100
AcDbEntity
  8
1
  6
Continuous
100
AcDbLine
 10
156.3408889999998
 20
142.32561
 30
0.0
 11
156.3408889999998
 21
129.32561
 31
0.0
  0
LINE
  5
176A
330
16E5
100
AcDbEntity
  8
1
  6
Continuous
100
AcDbLine
 10
151.3408889999998
 20
141.32561
 30
0.0
 11
154.3408889999998
 21
141.32561
 31
0.0
  0
LINE
  5
176B
330
16E5
100
AcDbEntity
  8
1
  6
Continuous
100
AcDbLine
 10
151.3408889999998
 20
130.32561
 30
0.0
 11
154.3408889999998
 21
130.32561
 31
0.0
  0
LINE
  5
176C
330
16E5
100
AcDbEntity
  8
1
  6
Continuous
100
AcDbLine
 10
154.8408889999998
 20
140.82561
 30
0.0
 11
154.8408889999998
 21
130.82561
 31
0.0
  0
CIRCLE
  5
176D
330
16E5
100
AcDbEntity
  8
2
  6
Continuous
100
AcDbCircle
 10
125.3408889999999
 20
135.82561
 30
0.0
 40
1.5
  0
ARC
  5
176E
330
16E5
100
AcDbEntity
  8
1
  6
Continuous
100
AcDbCircle
 10
117.3408889999999
 20
48.200001
 30
0.0
 40
1.0
100
AcDbArc
 50
179.999997
 51
270.0
  0
ARC
  5
176F
330
16E5
100
AcDbEntity
  8
1
  6
Continuous
100
AcDbCircle
 10
142.4408899999999
 20
132.82561
 30
0.0
 40
1.0
100
AcDbArc
 50
134.427001
 51
225.5729969999999
  0
ARC
  5
1770
330
16E5
100
AcDbEntity
  8
1
  6
Continuous
100
AcDbCircle
 10
130.2408889999999
 20
132.82561
 30
0.0
 40
1.0
100
AcDbArc
 50
314.4270029999999
 51
45.57299899999999
  0
ARC
  5
1771
330
16E5
100
AcDbEntity
  8
1
  6
Continuous
100
AcDbCircle
 10
139.8408889999998
 20
129.725612
 30
0.0
 40
1.0
100
AcDbArc
 50
44.427006
 51
135.5729979999999
  0
ARC
  5
1772
330
16E5
100
AcDbEntity
  8
1
  6
Continuous
100
AcDbCircle
 10
132.8408889999997
 20
129.725612
 30
0.0
 40
1.0
100
AcDbArc
 50
44.427006
 51
135.5729979999999
  0
ARC
  5
1773
330
16E5
100
AcDbEntity
  8
1
  6
Continuous
100
AcDbCircle
 10
142.4408899999999
 20
138.82561
 30
0.0
 40
1.0
100
AcDbArc
 50
134.427001
 51
225.5729969999999
  0
ARC
  5
1774
330
16E5
100
AcDbEntity
  8
1
  6
Continuous
100
AcDbCircle
 10
130.2408889999999
 20
138.82561
 30
0.0
 40
1.0
100
AcDbArc
 50
314.4270029999999
 51
45.57299899999999
  0
ARC
  5
1775
330
16E5
100
AcDbEntity
  8
1
  6
Continuous
100
AcDbCircle
 10
139.8408889999998
 20
141.925609
 30
0.0
 40
1.0
100
AcDbArc
 50
224.4270039999999
 51
315.5729959999998
  0
ARC
  5
1776
330
16E5
100
AcDbEntity
  8
1
  6
Continuous
100
AcDbCircle
 10
132.8408889999997
 20
141.925609
 30
0.0
 40
1.0
100
AcDbArc
 50
224.4270039999999
 51
315.5729959999998
  0
ARC
  5
1777
330
16E5
100
AcDbEntity
  8
1
  6
Continuous
100
AcDbCircle
 10
141.2408889999998
 20
140.725612
 30
0.0
 40
0.5
100
AcDbArc
 50
359.999999
 51
89.99999499999999
  0
ARC
  5
1778
330
16E5
100
AcDbEntity
  8
1
  6
Continuous
100
AcDbCircle
 10
131.4408899999999
 20
140.725612
 30
0.0
 40
0.5
100
AcDbArc
 50
89.99999499999999
 51
179.999997
  0
ARC
  5
1779
330
16E5
100
AcDbEntity
  8
1
  6
Continuous
100
AcDbCircle
 10
131.4408899999999
 20
130.925609
 30
0.0
 40
0.5
100
AcDbArc
 50
179.999997
 51
270.0
  0
ARC
  5
177A
330
16E5
100
AcDbEntity
  8
1
  6
Continuous
100
AcDbCircle
 10
141.2408889999998
 20
130.925609
 30
0.0
 40
0.5
100
AcDbArc
 50
270.0
 51
0.000003
  0
CIRCLE
  5
177B
330
16E5
100
AcDbEntity
  8
1
  6
Continuous
100
AcDbCircle
 10
147.3408889999998
 20
135.82561
 30
0.0
 40
1.8
  0
CIRCLE
  5
177C
330
16E5
100
AcDbEntity
  8
1
  6
Continuous
100
AcDbCircle
 10
125.3408889999999
 20
135.82561
 30
0.0
 40
1.8
  0
ARC
  5
177D
330
16E5
100
AcDbEntity
  8
1
  6
Continuous
100
AcDbCircle
 10
151.3408889999998
 20
136.82561
 30
0.0
 40
0.5
100
AcDbArc
 50
179.999997
 51
270.0
  0
ARC
  5
177E
330
16E5
100
AcDbEntity
  8
1
  6
Continuous
100
AcDbCircle
 10
151.3408889999998
 20
134.82561
 30
0.0
 40
0.5
100
AcDbArc
 50
89.99999499999999
 51
179.999997
  0
ARC
  5
177F
330
16E5
100
AcDbEntity
  8
1
  6
Continuous
100
AcDbCircle
 10
155.8408889999998
 20
58.0
 30
0.0
 40
0.5
100
AcDbArc
 50
359.999999
 51
89.99999499999999
  0
ARC
  5
1780
330
16E5
100
AcDbEntity
  8
1
  6
Continuous
100
AcDbCircle
 10
132.3408889999998
 20
131.82561
 30
0.0
 40
1.0
100
AcDbArc
 50
179.999997
 51
270.0
  0
ARC
  5
1781
330
16E5
100
AcDbEntity
  8
1
  6
Continuous
100
AcDbCircle
 10
140.3408889999997
 20
139.82561
 30
0.0
 40
1.0
100
AcDbArc
 50
359.999999
 51
89.99999499999999
  0
ARC
  5
1782
330
16E5
100
AcDbEntity
  8
1
  6
Continuous
100
AcDbCircle
 10
132.3408889999998
 20
139.82561
 30
0.0
 40
1.0
100
AcDbArc
 50
89.99999499999999
 51
179.999997
  0
ARC
  5
1783
330
16E5
100
AcDbEntity
  8
1
  6
Continuous
100
AcDbCircle
 10
140.3408889999997
 20
131.82561
 30
0.0
 40
1.0
100
AcDbArc
 50
270.0
 51
0.000003
  0
ARC
  5
1784
330
16E5
100
AcDbEntity
  8
1
  6
Continuous
100
AcDbCircle
 10
140.3408889999997
 20
76.5
 30
0.0
 40
1.0
100
AcDbArc
 50
359.999999
 51
89.99999499999999
  0
ARC
  5
1785
330
16E5
100
AcDbEntity
  8
1
  6
Continuous
100
AcDbCircle
 10
132.3408889999998
 20
76.5
 30
0.0
 40
1.0
100
AcDbArc
 50
89.99999499999999
 51
179.999997
  0
ARC
  5
1786
330
16E5
100
AcDbEntity
  8
1
  6
Continuous
100
AcDbCircle
 10
121.3408889999999
 20
138.1575729999999
 30
0.0
 40
1.0
100
AcDbArc
 50
0.000003
 51
63.43495400000001
  0
ARC
  5
1787
330
16E5
100
AcDbEntity
  8
1
  6
Continuous
100
AcDbCircle
 10
121.3408889999999
 20
133.493648
 30
0.0
 40
1.0
100
AcDbArc
 50
296.5650509999999
 51
0.000003
  0
ARC
  5
1788
330
16E5
100
AcDbEntity
  8
1
  6
Continuous
100
AcDbCircle
 10
151.3408889999998
 20
138.1575729999999
 30
0.0
 40
1.0
100
AcDbArc
 50
116.565046
 51
179.999997
  0
ARC
  5
1789
330
16E5
100
AcDbEntity
  8
1
  6
Continuous
100
AcDbCircle
 10
151.3408889999998
 20
133.493648
 30
0.0
 40
1.0
100
AcDbArc
 50
179.999997
 51
243.4349489999999
  0
ARC
  5
178A
330
16E5
100
AcDbEntity
  8
1
  6
Continuous
100
AcDbCircle
 10
154.3408889999998
 20
140.82561
 30
0.0
 40
0.5
100
AcDbArc
 50
359.999999
 51
89.99999499999999
  0
ARC
  5
178B
330
16E5
100
AcDbEntity
  8
1
  6
Continuous
100
AcDbCircle
 10
154.3408889999998
 20
130.82561
 30
0.0
 40
0.5
100
AcDbArc
 50
270.0
 51
0.000003
  0
ARC
  5
178C
330
16E5
100
AcDbEntity
  8
1
  6
Continuous
100
AcDbCircle
 10
154.3408889999998
 20
136.82561
 30
0.0
 40
0.5
100
AcDbArc
 50
270.0
 51
0.000003
  0
ARC
  5
178D
330
16E5
100
AcDbEntity
  8
1
  6
Continuous
100
AcDbCircle
 10
154.3408889999998
 20
134.82561
 30
0.0
 40
0.5
100
AcDbArc
 50
359.999999
 51
89.99999499999999
  0
ARC
  5
178E
330
16E5
100
AcDbEntity
  8
1
  6
Continuous
100
AcDbCircle
 10
155.3408889999998
 20
142.32561
 30
0.0
 40
1.0
100
AcDbArc
 50
359.999999
 51
89.99999499999999
  0
ARC
  5
178F
330
16E5
100
AcDbEntity
  8
1
  6
Continuous
100
AcDbCircle
 10
155.3408889999998
 20
129.32561
 30
0.0
 40
1.0
100
AcDbArc
 50
270.0
 51
0.000003
  0
ARC
  5
1790
330
16E5
100
AcDbEntity
  8
1
  6
Continuous
100
AcDbCircle
 10
121.894858
 20
127.5256069999999
 30
0.0
 40
2.0
100
AcDbArc
 50
239.0362419999999
 51
270.0
  0
ARC
  5
1791
330
16E5
100
AcDbEntity
  8
1
  6
Continuous
100
AcDbCircle
 10
121.894858
 20
144.125613
 30
0.0
 40
2.0
100
AcDbArc
 50
89.99999499999999
 51
120.963756
  0
CIRCLE
  5
1792
330
16E5
100
AcDbEntity
  8
2
  6
Continuous
100
AcDbCircle
 10
147.3408889999998
 20
135.82561
 30
0.0
 40
1.5
  0
ARC
  5
1793
330
16E5
100
AcDbEntity
  8
1
  6
Continuous
100
AcDbCircle
 10
129.2408889999999
 20
46.700001
 30
0.0
 40
0.5
100
AcDbArc
 50
359.999999
 51
89.99999499999999
  0
ARC
  5
1794
330
16E5
100
AcDbEntity
  8
1
  6
Continuous
100
AcDbCircle
 10
132.3408889999998
 20
46.700001
 30
0.0
 40
0.5
100
AcDbArc
 50
359.999999
 51
89.99999499999999
  0
ARC
  5
1795
330
16E5
100
AcDbEntity
  8
1
  6
Continuous
100
AcDbCircle
 10
140.3408889999997
 20
46.700001
 30
0.0
 40
0.5
100
AcDbArc
 50
89.99999499999999
 51
179.999997
  0
ARC
  5
1796
330
16E5
100
AcDbEntity
  8
1
  6
Continuous
100
AcDbCircle
 10
143.44089
 20
46.700001
 30
0.0
 40
0.5
100
AcDbArc
 50
89.99999499999999
 51
179.999997
  0
LINE
  5
1797
330
16E5
100
AcDbEntity
  8
1
  6
Continuous
100
AcDbLine
 10
229.281777
 20
135.82561
 30
0.0
 11
227.4817769999999
 21
135.82561
 31
0.0
  0
LINE
  5
1798
330
16E5
100
AcDbEntity
  8
1
  6
Continuous
100
AcDbLine
 10
227.4817769999999
 20
133.07561
 30
0.0
 11
229.281777
 21
133.07561
 31
0.0
  0
LINE
  5
1799
330
16E5
100
AcDbEntity
  8
1
  6
Continuous
100
AcDbLine
 10
227.4817769999999
 20
138.57561
 30
0.0
 11
229.281777
 21
138.57561
 31
0.0
  0
LINE
  5
179A
330
16E5
100
AcDbEntity
  8
1
  6
Continuous
100
AcDbLine
 10
229.281777
 20
138.57561
 30
0.0
 11
229.281777
 21
133.07561
 31
0.0
  0
LINE
  5
179B
330
16E5
100
AcDbEntity
  8
1
  6
Continuous
100
AcDbLine
 10
227.4817769999999
 20
138.57561
 30
0.0
 11
227.4817769999999
 21
133.07561
 31
0.0
  0
LINE
  5
179C
330
16E5
100
AcDbEntity
  8
1
  6
Continuous
100
AcDbLine
 10
228.1817779999999
 20
140.275607
 30
0.0
 11
230.1817779999999
 21
140.275607
 31
0.0
  0
LINE
  5
179D
330
16E5
100
AcDbEntity
  8
1
  6
Continuous
100
AcDbLine
 10
247.6817779999998
 20
142.425609
 30
0.0
 11
241.9817769999999
 21
142.425609
 31
0.0
  0
LINE
  5
179E
330
16E5
100
AcDbEntity
  8
1
  6
Continuous
100
AcDbLine
 10
247.6817779999998
 20
129.225612
 30
0.0
 11
241.9817769999999
 21
129.225612
 31
0.0
  0
LINE
  5
179F
330
16E5
100
AcDbEntity
  8
1
  6
Continuous
100
AcDbLine
 10
247.6817779999998
 20
143.925609
 30
0.0
 11
247.6817779999998
 21
127.725612
 31
0.0
  0
LINE
  5
17A0
330
16E5
100
AcDbEntity
  8
1
  6
Continuous
100
AcDbLine
 10
226.1817779999999
 20
125.5256069999999
 30
0.0
 11
240.481777
 21
125.5256069999999
 31
0.0
  0
LINE
  5
17A1
330
16E5
100
AcDbEntity
  8
1
  6
Continuous
100
AcDbLine
 10
228.1817779999999
 20
131.3756129999999
 30
0.0
 11
230.1817779999999
 21
131.3756129999999
 31
0.0
  0
LINE
  5
17A2
330
16E5
100
AcDbEntity
  8
1
  6
Continuous
100
AcDbLine
 10
241.4817769999999
 20
145.1256129999999
 30
0.0
 11
241.4817769999999
 21
126.5256069999999
 31
0.0
  0
LINE
  5
17A3
330
16E5
100
AcDbEntity
  8
1
  6
Continuous
100
AcDbLine
 10
239.9817769999999
 20
144.125613
 30
0.0
 11
239.9817769999999
 21
127.5256069999999
 31
0.0
  0
LINE
  5
17A4
330
16E5
100
AcDbEntity
  8
1
  6
Continuous
100
AcDbLine
 10
229.3817789999999
 20
134.025607
 30
0.0
 11
230.1817779999999
 21
134.025607
 31
0.0
  0
LINE
  5
17A5
330
16E5
100
AcDbEntity
  8
1
  6
Continuous
100
AcDbLine
 10
228.1817779999999
 20
128.925609
 30
0.0
 11
229.519581
 21
128.824176
 31
0.0
  0
LINE
  5
17A6
330
16E5
100
AcDbEntity
  8
1
  6
Continuous
100
AcDbLine
 10
232.381779
 20
126.5256069999999
 30
0.0
 11
232.381779
 21
127.925609
 31
0.0
  0
LINE
  5
17A7
330
16E5
100
AcDbEntity
  8
1
  6
Continuous
100
AcDbLine
 10
229.3817789999999
 20
137.6256129999999
 30
0.0
 11
230.1817779999999
 21
137.6256129999999
 31
0.0
  0
LINE
  5
17A8
330
16E5
100
AcDbEntity
  8
1
  6
Continuous
100
AcDbLine
 10
232.8817789999999
 20
128.025607
 30
0.0
 11
233.3817789999999
 21
128.025607
 31
0.0
  0
LINE
  5
17A9
330
16E5
100
AcDbEntity
  8
1
  6
Continuous
100
AcDbLine
 10
232.381779
 20
127.025607
 30
0.0
 11
239.4817769999999
 21
127.025607
 31
0.0
  0
LINE
  5
17AA
330
16E5
100
AcDbEntity
  8
1
  6
Continuous
100
AcDbLine
 10
228.1817779999999
 20
126.5256069999999
 30
0.0
 11
232.381779
 21
126.5256069999999
 31
0.0
  0
LINE
  5
17AB
330
16E5
100
AcDbEntity
  8
1
  6
Continuous
100
AcDbLine
 10
233.8817789999999
 20
127.025607
 30
0.0
 11
233.8817789999999
 21
127.5256069999999
 31
0.0
  0
LINE
  5
17AC
330
16E5
100
AcDbEntity
  8
1
  6
Continuous
100
AcDbLine
 10
226.1817779999999
 20
132.3756129999999
 30
0.0
 11
229.3817789999999
 21
132.3756129999999
 31
0.0
  0
LINE
  5
17AD
330
16E5
100
AcDbEntity
  8
1
  6
Continuous
100
AcDbLine
 10
228.1817779999999
 20
142.725612
 30
0.0
 11
229.519581
 21
142.827044
 31
0.0
  0
LINE
  5
17AE
330
16E5
100
AcDbEntity
  8
1
  6
Continuous
100
AcDbLine
 10
228.1817779999999
 20
143.925609
 30
0.0
 11
229.519581
 21
143.8241759999999
 31
0.0
  0
LINE
  5
17AF
330
16E5
100
AcDbEntity
  8
1
  6
Continuous
100
AcDbLine
 10
227.881779
 20
132.8756129999999
 30
0.0
 11
228.0660099999999
 21
133.07561
 31
0.0
  0
LINE
  5
17B0
330
16E5
100
AcDbEntity
  8
1
  6
Continuous
100
AcDbLine
 10
227.881779
 20
138.775607
 30
0.0
 11
228.0660099999999
 21
138.57561
 31
0.0
  0
LINE
  5
17B1
330
16E5
100
AcDbEntity
  8
1
  6
Continuous
100
AcDbLine
 10
228.8817789999999
 20
138.775607
 30
0.0
 11
228.6975439999999
 21
138.57561
 31
0.0
  0
LINE
  5
17B2
330
16E5
100
AcDbEntity
  8
1
  6
Continuous
100
AcDbLine
 10
228.8817789999999
 20
132.8756129999999
 30
0.0
 11
228.6975439999999
 21
133.07561
 31
0.0
  0
LINE
  5
17B3
330
16E5
100
AcDbEntity
  8
1
  6
Continuous
100
AcDbLine
 10
232.8817789999999
 20
143.6256129999998
 30
0.0
 11
233.3817789999999
 21
143.6256129999998
 31
0.0
  0
LINE
  5
17B4
330
16E5
100
AcDbEntity
  8
1
  6
Continuous
100
AcDbLine
 10
233.8817789999999
 20
144.6256129999999
 30
0.0
 11
233.8817789999999
 21
144.125613
 31
0.0
  0
LINE
  5
17B5
330
16E5
100
AcDbEntity
  8
1
  6
Continuous
100
AcDbLine
 10
228.1817779999999
 20
145.1256129999999
 30
0.0
 11
232.381779
 21
145.1256129999999
 31
0.0
  0
LINE
  5
17B6
330
16E5
100
AcDbEntity
  8
1
  6
Continuous
100
AcDbLine
 10
232.381779
 20
145.1256129999999
 30
0.0
 11
232.381779
 21
143.725612
 31
0.0
  0
LINE
  5
17B7
330
16E5
100
AcDbEntity
  8
1
  6
Continuous
100
AcDbLine
 10
228.1817779999999
 20
145.1256129999999
 30
0.0
 11
228.1817779999999
 21
143.925609
 31
0.0
  0
LINE
  5
17B8
330
16E5
100
AcDbEntity
  8
1
  6
Continuous
100
AcDbLine
 10
232.381779
 20
144.6256129999999
 30
0.0
 11
239.4817769999999
 21
144.6256129999999
 31
0.0
  0
LINE
  5
17B9
330
16E5
100
AcDbEntity
  8
1
  6
Continuous
100
AcDbLine
 10
226.1817779999999
 20
146.1256129999999
 30
0.0
 11
240.481777
 21
146.1256129999999
 31
0.0
  0
LINE
  5
17BA
330
16E5
100
AcDbEntity
  8
1
  6
Continuous
100
AcDbLine
 10
226.1817779999999
 20
139.275607
 30
0.0
 11
229.3817789999999
 21
139.275607
 31
0.0
  0
LINE
  5
17BB
330
16E5
100
AcDbEntity
  8
1
  6
Continuous
100
AcDbLine
 10
239.1817779999998
 20
129.374896
 30
0.0
 11
239.4817769999999
 21
129.374896
 31
0.0
  0
LINE
  5
17BC
330
16E5
100
AcDbEntity
  8
1
  6
Continuous
100
AcDbLine
 10
239.1817779999998
 20
142.2763239999999
 30
0.0
 11
239.4817769999999
 21
142.2763239999999
 31
0.0
  0
LINE
  5
17BD
330
16E5
100
AcDbEntity
  8
1
  6
Continuous
100
AcDbLine
 10
226.1817779999999
 20
132.8756129999999
 30
0.0
 11
228.9817769999999
 21
132.8756129999999
 31
0.0
  0
LINE
  5
17BE
330
16E5
100
AcDbEntity
  8
1
  6
Continuous
100
AcDbLine
 10
229.3817789999999
 20
140.275607
 30
0.0
 11
229.3817789999999
 21
131.3756129999999
 31
0.0
  0
LINE
  5
17BF
330
16E5
100
AcDbEntity
  8
1
  6
Continuous
100
AcDbLine
 10
227.3817789999999
 20
138.3756129999998
 30
0.0
 11
227.3817789999999
 21
133.275607
 31
0.0
  0
LINE
  5
17C0
330
16E5
100
AcDbEntity
  8
1
  6
Continuous
100
AcDbLine
 10
228.1817779999999
 20
127.725612
 30
0.0
 11
228.1817779999999
 21
126.5256069999999
 31
0.0
  0
LINE
  5
17C1
330
16E5
100
AcDbEntity
  8
1
  6
Continuous
100
AcDbLine
 10
226.1817779999999
 20
138.775607
 30
0.0
 11
228.9817769999999
 21
138.775607
 31
0.0
  0
LINE
  5
17C2
330
16E5
100
AcDbEntity
  8
1
  6
Continuous
100
AcDbLine
 10
228.1817779999999
 20
127.725612
 30
0.0
 11
229.519581
 21
127.827044
 31
0.0
  0
LINE
  5
17C3
330
16E5
100
AcDbEntity
  8
1
  6
Continuous
100
AcDbLine
 10
240.6817779999999
 20
136.82561
 30
0.0
 11
240.6817779999999
 21
134.82561
 31
0.0
  0
LINE
  5
17C4
330
16E5
100
AcDbEntity
  8
1
  6
Continuous
100
AcDbLine
 10
226.1817779999999
 20
146.1256129999999
 30
0.0
 11
226.1817779999999
 21
125.5256069999999
 31
0.0
  0
LINE
  5
17C5
330
16E5
100
AcDbEntity
  8
1
  6
Continuous
100
AcDbLine
 10
247.6817779999998
 20
143.925609
 30
0.0
 11
241.9817769999999
 21
143.925609
 31
0.0
  0
LINE
  5
17C6
330
16E5
100
AcDbEntity
  8
1
  6
Continuous
100
AcDbLine
 10
247.6817779999998
 20
127.725612
 30
0.0
 11
241.9817769999999
 21
127.725612
 31
0.0
  0
LINE
  5
17C7
330
16E5
100
AcDbEntity
  8
1
  6
Continuous
100
AcDbLine
 10
239.9817769999999
 20
136.82561
 30
0.0
 11
240.6817779999999
 21
136.82561
 31
0.0
  0
LINE
  5
17C8
330
16E5
100
AcDbEntity
  8
1
  6
Continuous
100
AcDbLine
 10
239.9817769999999
 20
134.82561
 30
0.0
 11
240.6817779999999
 21
134.82561
 31
0.0
  0
LINE
  5
17C9
330
16E5
100
AcDbEntity
  8
1
  6
Continuous
100
AcDbLine
 10
229.281777
 20
135.82561
 30
0.0
 11
227.4817769999999
 21
135.82561
 31
0.0
  0
LINE
  5
17CA
330
16E5
100
AcDbEntity
  8
1
  6
Continuous
100
AcDbLine
 10
228.1817779999999
 20
142.725612
 30
0.0
 11
228.1817779999999
 21
140.275607
 31
0.0
  0
LINE
  5
17CB
330
16E5
100
AcDbEntity
  8
1
  6
Continuous
100
AcDbLine
 10
228.1817779999999
 20
131.3756129999999
 30
0.0
 11
228.1817779999999
 21
128.925609
 31
0.0
  0
LINE
  5
17CC
330
16E5
100
AcDbEntity
  8
1
  6
Continuous
100
AcDbLine
 10
230.1817779999999
 20
144.725612
 30
0.0
 11
230.1817779999999
 21
126.925609
 31
0.0
  0
LINE
  5
17CD
330
16E5
100
AcDbEntity
  8
1
  6
Continuous
100
AcDbLine
 10
230.1817779999999
 20
144.725612
 30
0.0
 11
232.1817779999999
 21
144.725612
 31
0.0
  0
LINE
  5
17CE
330
16E5
100
AcDbEntity
  8
1
  6
Continuous
100
AcDbLine
 10
239.1817779999998
 20
143.425609
 30
0.0
 11
239.1817779999998
 21
128.225612
 31
0.0
  0
LINE
  5
17CF
330
16E5
100
AcDbEntity
  8
1
  6
Continuous
100
AcDbLine
 10
230.1817779999999
 20
126.925609
 30
0.0
 11
232.1817779999999
 21
126.925609
 31
0.0
  0
LINE
  5
17D0
330
16E5
100
AcDbEntity
  8
1
  6
Continuous
100
AcDbLine
 10
232.6817779999998
 20
128.225612
 30
0.0
 11
239.1817779999998
 21
128.225612
 31
0.0
  0
LINE
  5
17D1
330
16E5
100
AcDbEntity
  8
1
  6
Continuous
100
AcDbLine
 10
232.6817779999998
 20
143.425609
 30
0.0
 11
239.1817779999998
 21
143.425609
 31
0.0
  0
LINE
  5
17D2
330
16E5
100
AcDbEntity
  8
1
  6
Continuous
100
AcDbLine
 10
239.1817779999998
 20
136.57561
 30
0.0
 11
239.9817769999999
 21
136.57561
 31
0.0
  0
LINE
  5
17D3
330
16E5
100
AcDbEntity
  8
1
  6
Continuous
100
AcDbLine
 10
239.1817779999998
 20
135.07561
 30
0.0
 11
239.9817769999999
 21
135.07561
 31
0.0
  0
LINE
  5
17D4
330
16E5
100
AcDbEntity
  8
1
  6
Continuous
100
AcDbLine
 10
228.1817779999999
 20
142.32561
 30
0.0
 11
230.1817779999999
 21
142.32561
 31
0.0
  0
LINE
  5
17D5
330
16E5
100
AcDbEntity
  8
1
  6
Continuous
100
AcDbLine
 10
211.1817779999999
 20
131.82561
 30
0.0
 11
211.1817779999999
 21
139.82561
 31
0.0
  0
LINE
  5
17D6
330
16E5
100
AcDbEntity
  8
1
  6
Continuous
100
AcDbLine
 10
212.1817779999998
 20
140.82561
 30
0.0
 11
226.1817779999999
 21
140.82561
 31
0.0
  0
LINE
  5
17D7
330
16E5
100
AcDbEntity
  8
1
  6
Continuous
100
AcDbLine
 10
212.1817779999998
 20
130.82561
 30
0.0
 11
226.1817779999999
 21
130.82561
 31
0.0
  0
LINE
  5
17D8
330
16E5
100
AcDbEntity
  8
1
  6
Continuous
100
AcDbLine
 10
228.1817779999999
 20
129.32561
 30
0.0
 11
230.1817779999999
 21
129.32561
 31
0.0
  0
LINE
  5
17D9
330
16E5
100
AcDbEntity
  8
1
  6
Continuous
100
AcDbLine
 10
239.1817779999998
 20
140.82561
 30
0.0
 11
239.9817769999999
 21
140.82561
 31
0.0
  0
LINE
  5
17DA
330
16E5
100
AcDbEntity
  8
1
  6
Continuous
100
AcDbLine
 10
239.1817779999998
 20
130.82561
 30
0.0
 11
239.9817769999999
 21
130.82561
 31
0.0
  0
LINE
  5
17DB
330
16E5
100
AcDbEntity
  8
1
  6
Continuous
100
AcDbLine
 10
228.1817779999999
 20
140.82561
 30
0.0
 11
230.1817779999999
 21
140.82561
 31
0.0
  0
LINE
  5
17DC
330
16E5
100
AcDbEntity
  8
1
  6
Continuous
100
AcDbLine
 10
228.1817779999999
 20
130.82561
 30
0.0
 11
230.1817779999999
 21
130.82561
 31
0.0
  0
LINE
  5
17DD
330
16E5
100
AcDbEntity
  8
1
  6
Continuous
100
AcDbLine
 10
230.6817779999998
 20
143.32561
 30
0.0
 11
238.6817779999999
 21
143.32561
 31
0.0
  0
LINE
  5
17DE
330
16E5
100
AcDbEntity
  8
1
  6
Continuous
100
AcDbLine
 10
230.6817779999998
 20
128.32561
 30
0.0
 11
238.6817779999999
 21
128.32561
 31
0.0
  0
LINE
  5
17DF
330
16E5
100
AcDbEntity
  8
1
  6
Continuous
100
AcDbLine
 10
232.1817779999999
 20
144.725612
 30
0.0
 11
232.1817779999999
 21
143.32561
 31
0.0
  0
LINE
  5
17E0
330
16E5
100
AcDbEntity
  8
1
  6
Continuous
100
AcDbLine
 10
232.1817779999999
 20
142.82561
 30
0.0
 11
232.1817779999999
 21
128.82561
 31
0.0
  0
LINE
  5
17E1
330
16E5
100
AcDbEntity
  8
1
  6
Continuous
100
AcDbLine
 10
232.1817779999999
 20
128.32561
 30
0.0
 11
232.1817779999999
 21
126.925609
 31
0.0
  0
ARC
  5
17E2
330
16E5
100
AcDbEntity
  8
1
  6
Continuous
100
AcDbCircle
 10
239.4817769999999
 20
127.5256069999999
 30
0.0
 40
0.5
100
AcDbArc
 50
270.0
 51
0.000003
  0
ARC
  5
17E3
330
16E5
100
AcDbEntity
  8
1
  6
Continuous
100
AcDbCircle
 10
239.4817769999999
 20
144.125613
 30
0.0
 40
0.5
100
AcDbArc
 50
359.999999
 51
89.99999499999999
  0
ARC
  5
17E4
330
16E5
100
AcDbEntity
  8
1
  6
Continuous
100
AcDbCircle
 10
229.4817769999999
 20
143.32561
 30
0.0
 40
0.5
100
AcDbArc
 50
270.0
 51
85.664174
  0
ARC
  5
17E5
330
16E5
100
AcDbEntity
  8
1
  6
Continuous
100
AcDbCircle
 10
239.4817769999999
 20
144.125613
 30
0.0
 40
0.5
100
AcDbArc
 50
359.999999
 51
89.99999499999999
  0
ARC
  5
17E6
330
16E5
100
AcDbEntity
  8
1
  6
Continuous
100
AcDbCircle
 10
239.4817769999999
 20
141.776324
 30
0.0
 40
0.5
100
AcDbArc
 50
359.999999
 51
89.99999499999999
  0
ARC
  5
17E7
330
16E5
100
AcDbEntity
  8
1
  6
Continuous
100
AcDbCircle
 10
239.4817769999999
 20
129.874896
 30
0.0
 40
0.5
100
AcDbArc
 50
270.0
 51
0.000003
  0
ARC
  5
17E8
330
16E5
100
AcDbEntity
  8
1
  6
Continuous
100
AcDbCircle
 10
232.8817789999999
 20
127.5256069999999
 30
0.0
 40
0.5
100
AcDbArc
 50
89.99999499999999
 51
179.999997
  0
ARC
  5
17E9
330
16E5
100
AcDbEntity
  8
1
  6
Continuous
100
AcDbCircle
 10
232.8817789999999
 20
144.125613
 30
0.0
 40
0.5
100
AcDbArc
 50
179.999997
 51
270.0
  0
ARC
  5
17EA
330
16E5
100
AcDbEntity
  8
1
  6
Continuous
100
AcDbCircle
 10
233.3817789999999
 20
144.125613
 30
0.0
 40
0.5
100
AcDbArc
 50
270.0
 51
0.000003
  0
ARC
  5
17EB
330
16E5
100
AcDbEntity
  8
1
  6
Continuous
100
AcDbCircle
 10
233.3817789999999
 20
127.5256069999999
 30
0.0
 40
0.5
100
AcDbArc
 50
359.999999
 51
89.99999499999999
  0
ARC
  5
17EC
330
16E5
100
AcDbEntity
  8
1
  6
Continuous
100
AcDbCircle
 10
229.4817769999999
 20
128.32561
 30
0.0
 40
0.5
100
AcDbArc
 50
274.335823
 51
90.00000500000002
  0
ARC
  5
17ED
330
16E5
100
AcDbEntity
  8
1
  6
Continuous
100
AcDbCircle
 10
212.1817779999998
 20
139.82561
 30
0.0
 40
1.0
100
AcDbArc
 50
89.99999499999999
 51
179.999997
  0
ARC
  5
17EE
330
16E5
100
AcDbEntity
  8
1
  6
Continuous
100
AcDbCircle
 10
212.1817779999998
 20
131.82561
 30
0.0
 40
1.0
100
AcDbArc
 50
179.999997
 51
270.0
  0
ARC
  5
17EF
330
16E5
100
AcDbEntity
  8
1
  6
Continuous
100
AcDbCircle
 10
232.6817779999998
 20
143.725612
 30
0.0
 40
0.3
100
AcDbArc
 50
179.999997
 51
270.0
  0
ARC
  5
17F0
330
16E5
100
AcDbEntity
  8
1
  6
Continuous
100
AcDbCircle
 10
232.6817779999998
 20
127.925609
 30
0.0
 40
0.3
100
AcDbArc
 50
89.99999499999999
 51
179.999997
  0
ARC
  5
17F1
330
16E5
100
AcDbEntity
  8
1
  6
Continuous
100
AcDbCircle
 10
238.6817779999999
 20
142.82561
 30
0.0
 40
0.5
100
AcDbArc
 50
359.999999
 51
89.99999499999999
  0
ARC
  5
17F2
330
16E5
100
AcDbEntity
  8
1
  6
Continuous
100
AcDbCircle
 10
230.6817779999998
 20
142.82561
 30
0.0
 40
0.5
100
AcDbArc
 50
89.99999499999999
 51
179.999997
  0
ARC
  5
17F3
330
16E5
100
AcDbEntity
  8
1
  6
Continuous
100
AcDbCircle
 10
238.6817779999999
 20
128.82561
 30
0.0
 40
0.5
100
AcDbArc
 50
270.0
 51
0.000003
  0
ARC
  5
17F4
330
16E5
100
AcDbEntity
  8
1
  6
Continuous
100
AcDbCircle
 10
230.6817779999998
 20
128.82561
 30
0.0
 40
0.5
100
AcDbArc
 50
179.999997
 51
270.0
  0
ARC
  5
17F5
330
16E5
100
AcDbEntity
  8
1
  6
Continuous
100
AcDbCircle
 10
227.7817769999999
 20
138.3756129999998
 30
0.0
 40
0.4
100
AcDbArc
 50
89.99999499999999
 51
179.999997
  0
ARC
  5
17F6
330
16E5
100
AcDbEntity
  8
1
  6
Continuous
100
AcDbCircle
 10
228.9817769999999
 20
138.3756129999998
 30
0.0
 40
0.4
100
AcDbArc
 50
359.999999
 51
89.99999499999999
  0
ARC
  5
17F7
330
16E5
100
AcDbEntity
  8
1
  6
Continuous
100
AcDbCircle
 10
227.7817769999999
 20
133.275607
 30
0.0
 40
0.4
100
AcDbArc
 50
179.999997
 51
270.0
  0
ARC
  5
17F8
330
16E5
100
AcDbEntity
  8
1
  6
Continuous
100
AcDbCircle
 10
228.9817769999999
 20
133.275607
 30
0.0
 40
0.4
100
AcDbArc
 50
270.0
 51
0.000003
  0
ARC
  5
17F9
330
16E5
100
AcDbEntity
  8
1
  6
Continuous
100
AcDbCircle
 10
240.481777
 20
145.1256129999999
 30
0.0
 40
1.0
100
AcDbArc
 50
359.999999
 51
89.99999499999999
  0
ARC
  5
17FA
330
16E5
100
AcDbEntity
  8
1
  6
Continuous
100
AcDbCircle
 10
240.481777
 20
126.5256069999999
 30
0.0
 40
1.0
100
AcDbArc
 50
270.0
 51
0.000003
  0
ARC
  5
17FB
330
16E5
100
AcDbEntity
  8
1
  6
Continuous
100
AcDbCircle
 10
241.9817769999999
 20
127.225612
 30
0.0
 40
0.5
100
AcDbArc
 50
89.99999499999999
 51
179.999997
  0
ARC
  5
17FC
330
16E5
100
AcDbEntity
  8
1
  6
Continuous
100
AcDbCircle
 10
241.9817769999999
 20
144.425609
 30
0.0
 40
0.5
100
AcDbArc
 50
179.999997
 51
270.0
  0
ARC
  5
17FD
330
16E5
100
AcDbEntity
  8
1
  6
Continuous
100
AcDbCircle
 10
241.9817769999999
 20
142.925609
 30
0.0
 40
0.5
100
AcDbArc
 50
179.999997
 51
270.0
  0
ARC
  5
17FE
330
16E5
100
AcDbEntity
  8
1
  6
Continuous
100
AcDbCircle
 10
241.9817769999999
 20
128.725612
 30
0.0
 40
0.5
100
AcDbArc
 50
89.99999499999999
 51
179.999997
  0
LINE
  5
17FF
330
16E5
100
AcDbEntity
  8
4
  6
CENTER
100
AcDbLine
 10
208.181778
 20
135.82561
 30
0.0
 11
250.6817779999999
 21
135.82561
 31
0.0
  0
LINE
  5
1800
330
16E5
100
AcDbEntity
  8
5
  6
PHANTOM
100
AcDbLine
 10
216.1817779999998
 20
131.82561
 30
0.0
 11
216.1817779999998
 21
139.82561
 31
0.0
  0
ARC
  5
1801
330
16E5
100
AcDbEntity
  8
5
  6
PHANTOM
100
AcDbCircle
 10
217.181778
 20
139.82561
 30
0.0
 40
1.0
100
AcDbArc
 50
89.99999499999999
 51
179.999997
  0
ARC
  5
1802
330
16E5
100
AcDbEntity
  8
5
  6
PHANTOM
100
AcDbCircle
 10
217.181778
 20
131.82561
 30
0.0
 40
1.0
100
AcDbArc
 50
179.999997
 51
270.0
  0
LINE
  5
1803
330
16E5
100
AcDbEntity
  8
5
  6
PHANTOM
100
AcDbLine
 10
132.3408889999998
 20
72.5
 30
0.0
 11
140.3408889999997
 21
72.5
 31
0.0
  0
ARC
  5
1804
330
16E5
100
AcDbEntity
  8
5
  6
PHANTOM
100
AcDbCircle
 10
140.3408889999997
 20
71.5
 30
0.0
 40
1.0
100
AcDbArc
 50
359.999999
 51
89.99999499999999
  0
ARC
  5
1805
330
16E5
100
AcDbEntity
  8
5
  6
PHANTOM
100
AcDbCircle
 10
132.3408889999998
 20
71.5
 30
0.0
 40
1.0
100
AcDbArc
 50
89.99999499999999
 51
179.999997
  0
CIRCLE
  5
1806
330
16E5
100
AcDbEntity
  8
1
  6
Continuous
100
AcDbCircle
 10
147.3408889999998
 20
135.82561
 30
0.0
 40
1.2295
  0
CIRCLE
  5
1807
330
16E5
100
AcDbEntity
  8
1
  6
Continuous
100
AcDbCircle
 10
125.3408889999999
 20
135.82561
 30
0.0
 40
1.2295
  0
LINE
  5
1808
330
16E5
100
AcDbEntity
  8
1
  6
Continuous
100
AcDbLine
 10
133.1408889999998
 20
139.32561
 30
0.0
 11
139.5408889999999
 21
139.32561
 31
0.0
  0
LINE
  5
1809
330
16E5
100
AcDbEntity
  8
1
  6
Continuous
100
AcDbLine
 10
133.1408889999998
 20
132.32561
 30
0.0
 11
139.5408889999999
 21
132.32561
 31
0.0
  0
LINE
  5
180A
330
16E5
100
AcDbEntity
  8
1
  6
Continuous
100
AcDbLine
 10
139.8408889999998
 20
139.02561
 30
0.0
 11
139.8408889999998
 21
132.6256099999999
 31
0.0
  0
LINE
  5
180B
330
16E5
100
AcDbEntity
  8
1
  6
Continuous
100
AcDbLine
 10
132.8408889999997
 20
139.02561
 30
0.0
 11
132.8408889999997
 21
132.6256099999999
 31
0.0
  0
LINE
  5
180C
330
16E5
100
AcDbEntity
  8
1
  6
Continuous
100
AcDbLine
 10
25.0
 20
143.925609
 30
0.0
 11
30.700001
 21
143.925609
 31
0.0
  0
LINE
  5
180D
330
16E5
100
AcDbEntity
  8
1
  6
Continuous
100
AcDbLine
 10
25.0
 20
142.425609
 30
0.0
 11
30.700001
 21
142.425609
 31
0.0
  0
LINE
  5
180E
330
16E5
100
AcDbEntity
  8
1
  6
Continuous
100
AcDbLine
 10
25.0
 20
129.225612
 30
0.0
 11
30.700001
 21
129.225612
 31
0.0
  0
LINE
  5
180F
330
16E5
100
AcDbEntity
  8
1
  6
Continuous
100
AcDbLine
 10
25.0
 20
127.725612
 30
0.0
 11
30.700001
 21
127.725612
 31
0.0
  0
LINE
  5
1810
330
16E5
100
AcDbEntity
  8
1
  6
Continuous
100
AcDbLine
 10
31.200001
 20
145.1256129999999
 30
0.0
 11
31.200001
 21
126.5256069999999
 31
0.0
  0
LINE
  5
1811
330
16E5
100
AcDbEntity
  8
1
  6
Continuous
100
AcDbLine
 10
46.5
 20
146.1256129999999
 30
0.0
 11
46.5
 21
125.5256069999999
 31
0.0
  0
LINE
  5
1812
330
16E5
100
AcDbEntity
  8
1
  6
Continuous
100
AcDbLine
 10
42.5
 20
137.6256129999999
 30
0.0
 11
42.5
 21
134.025607
 31
0.0
  0
ARC
  5
1813
330
16E5
100
AcDbEntity
  8
1
  6
Continuous
100
AcDbCircle
 10
30.700001
 20
144.425609
 30
0.0
 40
0.5
100
AcDbArc
 50
270.0
 51
0.000003
  0
LINE
  5
1814
330
16E5
100
AcDbEntity
  8
4
  6
CENTER
100
AcDbLine
 10
64.5
 20
135.82561
 30
0.0
 11
22.0
 21
135.82561
 31
0.0
  0
LINE
  5
1815
330
16E5
100
AcDbEntity
  8
1
  6
Continuous
100
AcDbLine
 10
60.5
 20
140.82561
 30
0.0
 11
46.5
 21
140.82561
 31
0.0
  0
LINE
  5
1816
330
16E5
100
AcDbEntity
  8
1
  6
Continuous
100
AcDbLine
 10
60.5
 20
130.82561
 30
0.0
 11
46.5
 21
130.82561
 31
0.0
  0
LINE
  5
1817
330
16E5
100
AcDbEntity
  8
1
  6
Continuous
100
AcDbLine
 10
61.5
 20
131.82561
 30
0.0
 11
61.5
 21
139.82561
 31
0.0
  0
ARC
  5
1818
330
16E5
100
AcDbEntity
  8
1
  6
Continuous
100
AcDbCircle
 10
60.5
 20
131.82561
 30
0.0
 40
1.0
100
AcDbArc
 50
270.0
 51
0.000003
  0
ARC
  5
1819
330
16E5
100
AcDbEntity
  8
1
  6
Continuous
100
AcDbCircle
 10
60.5
 20
139.82561
 30
0.0
 40
1.0
100
AcDbArc
 50
0.000003
 51
90.00000500000002
  0
LINE
  5
181A
330
16E5
100
AcDbEntity
  8
1
  6
Continuous
100
AcDbLine
 10
46.5
 20
125.5256069999999
 30
0.0
 11
32.200001
 21
125.5256069999999
 31
0.0
  0
LINE
  5
181B
330
16E5
100
AcDbEntity
  8
1
  6
Continuous
100
AcDbLine
 10
43.400001
 20
138.57561
 30
0.0
 11
43.400001
 21
133.07561
 31
0.0
  0
LINE
  5
181C
330
16E5
100
AcDbEntity
  8
1
  6
Continuous
100
AcDbLine
 10
45.20000099999999
 20
138.57561
 30
0.0
 11
45.20000099999999
 21
133.07561
 31
0.0
  0
LINE
  5
181D
330
16E5
100
AcDbEntity
  8
1
  6
Continuous
100
AcDbLine
 10
43.29999899999999
 20
139.275607
 30
0.0
 11
43.29999899999999
 21
137.6256129999999
 31
0.0
  0
ARC
  5
181E
330
16E5
100
AcDbEntity
  8
1
  6
Continuous
100
AcDbCircle
 10
44.900001
 20
133.275607
 30
0.0
 40
0.4
100
AcDbArc
 50
270.0
 51
0.000003
  0
ARC
  5
181F
330
16E5
100
AcDbEntity
  8
1
  6
Continuous
100
AcDbCircle
 10
43.700001
 20
133.275607
 30
0.0
 40
0.4
100
AcDbArc
 50
179.999997
 51
270.0
  0
LINE
  5
1820
330
16E5
100
AcDbEntity
  8
5
  6
PHANTOM
100
AcDbLine
 10
56.5
 20
131.82561
 30
0.0
 11
56.5
 21
139.82561
 31
0.0
  0
ARC
  5
1821
330
16E5
100
AcDbEntity
  8
5
  6
PHANTOM
100
AcDbCircle
 10
55.5
 20
131.82561
 30
0.0
 40
1.0
100
AcDbArc
 50
270.0
 51
0.000003
  0
LINE
  5
1822
330
16E5
100
AcDbEntity
  8
1
  6
Continuous
100
AcDbLine
 10
44.799999
 20
132.8756129999999
 30
0.0
 11
44.615768
 21
133.07561
 31
0.0
  0
LINE
  5
1823
330
16E5
100
AcDbEntity
  8
1
  6
Continuous
100
AcDbLine
 10
43.799999
 20
132.8756129999999
 30
0.0
 11
43.984234
 21
133.07561
 31
0.0
  0
LINE
  5
1824
330
16E5
100
AcDbEntity
  8
1
  6
Continuous
100
AcDbLine
 10
45.20000099999999
 20
133.07561
 30
0.0
 11
43.400001
 21
133.07561
 31
0.0
  0
LINE
  5
1825
330
16E5
100
AcDbEntity
  8
1
  6
Continuous
100
AcDbLine
 10
46.5
 20
132.3756129999999
 30
0.0
 11
43.29999899999999
 21
132.3756129999999
 31
0.0
  0
LINE
  5
1826
330
16E5
100
AcDbEntity
  8
1
  6
Continuous
100
AcDbLine
 10
46.5
 20
132.8756129999999
 30
0.0
 11
43.700001
 21
132.8756129999999
 31
0.0
  0
ARC
  5
1827
330
16E5
100
AcDbEntity
  8
5
  6
PHANTOM
100
AcDbCircle
 10
55.5
 20
139.82561
 30
0.0
 40
1.0
100
AcDbArc
 50
0.000003
 51
90.00000500000002
  0
LINE
  5
1828
330
16E5
100
AcDbEntity
  8
1
  6
Continuous
100
AcDbLine
 10
43.29999899999999
 20
134.025607
 30
0.0
 11
42.5
 21
134.025607
 31
0.0
  0
LINE
  5
1829
330
16E5
100
AcDbEntity
  8
1
  6
Continuous
100
AcDbLine
 10
43.29999899999999
 20
137.6256129999999
 30
0.0
 11
42.5
 21
137.6256129999999
 31
0.0
  0
LINE
  5
182A
330
16E5
100
AcDbEntity
  8
1
  6
Continuous
100
AcDbLine
 10
44.799999
 20
138.775607
 30
0.0
 11
44.615768
 21
138.57561
 31
0.0
  0
LINE
  5
182B
330
16E5
100
AcDbEntity
  8
1
  6
Continuous
100
AcDbLine
 10
43.799999
 20
138.775607
 30
0.0
 11
43.984234
 21
138.57561
 31
0.0
  0
ARC
  5
182C
330
16E5
100
AcDbEntity
  8
1
  6
Continuous
100
AcDbCircle
 10
43.700001
 20
138.3756129999998
 30
0.0
 40
0.4
100
AcDbArc
 50
90.00000500000002
 51
180.0000009999999
  0
LINE
  5
182D
330
16E5
100
AcDbEntity
  8
1
  6
Continuous
100
AcDbLine
 10
45.29999899999999
 20
138.3756129999998
 30
0.0
 11
45.29999899999999
 21
133.275607
 31
0.0
  0
LINE
  5
182E
330
16E5
100
AcDbEntity
  8
1
  6
Continuous
100
AcDbLine
 10
43.400001
 20
135.82561
 30
0.0
 11
45.20000099999999
 21
135.82561
 31
0.0
  0
LINE
  5
182F
330
16E5
100
AcDbEntity
  8
1
  6
Continuous
100
AcDbLine
 10
45.20000099999999
 20
138.57561
 30
0.0
 11
43.400001
 21
138.57561
 31
0.0
  0
LINE
  5
1830
330
16E5
100
AcDbEntity
  8
1
  6
Continuous
100
AcDbLine
 10
46.5
 20
139.275607
 30
0.0
 11
43.29999899999999
 21
139.275607
 31
0.0
  0
LINE
  5
1831
330
16E5
100
AcDbEntity
  8
1
  6
Continuous
100
AcDbLine
 10
46.5
 20
138.775607
 30
0.0
 11
43.700001
 21
138.775607
 31
0.0
  0
LINE
  5
1832
330
16E5
100
AcDbEntity
  8
1
  6
Continuous
100
AcDbLine
 10
43.400001
 20
135.82561
 30
0.0
 11
45.20000099999999
 21
135.82561
 31
0.0
  0
ARC
  5
1833
330
16E5
100
AcDbEntity
  8
1
  6
Continuous
100
AcDbCircle
 10
44.900001
 20
138.3756129999998
 30
0.0
 40
0.4
100
AcDbArc
 50
0.000003
 51
90.00000500000002
  0
ARC
  5
1834
330
16E5
100
AcDbEntity
  8
1
  6
Continuous
100
AcDbCircle
 10
32.200001
 20
126.5256069999999
 30
0.0
 40
1.0
100
AcDbArc
 50
179.999997
 51
270.0
  0
ARC
  5
1835
330
16E5
100
AcDbEntity
  8
1
  6
Continuous
100
AcDbCircle
 10
30.700001
 20
127.225612
 30
0.0
 40
0.5
100
AcDbArc
 50
0.000003
 51
90.00000500000002
  0
ARC
  5
1836
330
16E5
100
AcDbEntity
  8
1
  6
Continuous
100
AcDbCircle
 10
30.700001
 20
128.725612
 30
0.0
 40
0.5
100
AcDbArc
 50
0.000003
 51
90.00000500000002
  0
ARC
  5
1837
330
16E5
100
AcDbEntity
  8
1
  6
Continuous
100
AcDbCircle
 10
30.700001
 20
142.925609
 30
0.0
 40
0.5
100
AcDbArc
 50
270.0
 51
0.000003
  0
LINE
  5
1838
330
16E5
100
AcDbEntity
  8
1
  6
Continuous
100
AcDbLine
 10
46.5
 20
146.1256129999999
 30
0.0
 11
32.200001
 21
146.1256129999999
 31
0.0
  0
ARC
  5
1839
330
16E5
100
AcDbEntity
  8
1
  6
Continuous
100
AcDbCircle
 10
32.200001
 20
145.1256129999999
 30
0.0
 40
1.0
100
AcDbArc
 50
90.00000500000002
 51
180.0000009999999
  0
LINE
  5
183A
330
16E5
100
AcDbEntity
  8
1
  6
Continuous
100
AcDbLine
 10
25.0
 20
143.925609
 30
0.0
 11
25.0
 21
127.725612
 31
0.0
  0
LINE
  5
183B
330
16E5
100
AcDbEntity
  8
1
  6
Continuous
100
AcDbLine
 10
43.29999899999999
 20
134.025607
 30
0.0
 11
43.29999899999999
 21
132.3756129999999
 31
0.0
  0
LINE
  5
183C
330
16E5
100
AcDbEntity
  8
1
  6
Continuous
100
AcDbLine
 10
46.5
 20
143.1256129999999
 30
0.0
 11
32.200001
 21
143.1256129999999
 31
0.0
  0
LINE
  5
183D
330
16E5
100
AcDbEntity
  8
1
  6
Continuous
100
AcDbLine
 10
46.5
 20
128.525607
 30
0.0
 11
32.200001
 21
128.525607
 31
0.0
  0
LINE
  5
183E
330
16E5
100
AcDbEntity
  8
1
  6
Continuous
100
AcDbLine
 10
117.3408889999999
 20
224.4512199999999
 30
0.0
 11
136.3408889999998
 21
224.4512199999999
 31
0.0
  0
LINE
  5
183F
330
16E5
100
AcDbEntity
  8
1
  6
Continuous
100
AcDbLine
 10
116.3408889999999
 20
209.1512199999999
 30
0.0
 11
151.3408889999998
 21
209.1512199999999
 31
0.0
  0
LINE
  5
1840
330
16E5
100
AcDbEntity
  8
1
  6
Continuous
100
AcDbLine
 10
121.3408889999999
 20
223.45122
 30
0.0
 11
121.3408889999999
 21
209.1512199999999
 31
0.0
  0
LINE
  5
1841
330
16E5
100
AcDbEntity
  8
1
  6
Continuous
100
AcDbLine
 10
116.3408889999999
 20
223.45122
 30
0.0
 11
116.3408889999999
 21
209.1512199999999
 31
0.0
  0
ARC
  5
1842
330
16E5
100
AcDbEntity
  8
1
  6
Continuous
100
AcDbCircle
 10
117.3408889999999
 20
223.45122
 30
0.0
 40
1.0
100
AcDbArc
 50
90.0
 51
180.0000029999999
  0
LINE
  5
1843
330
16E5
100
AcDbEntity
  8
1
  6
Continuous
100
AcDbLine
 10
131.3408889999998
 20
195.1512199999999
 30
0.0
 11
131.3408889999998
 21
209.1512199999999
 31
0.0
  0
LINE
  5
1844
330
16E5
100
AcDbEntity
  8
1
  6
Continuous
100
AcDbLine
 10
141.3408889999998
 20
195.1512199999999
 30
0.0
 11
141.3408889999998
 21
209.1512199999999
 31
0.0
  0
LINE
  5
1845
330
16E5
100
AcDbEntity
  8
4
  6
CENTER
100
AcDbLine
 10
136.3408889999998
 20
233.65122
 30
0.0
 11
136.3408889999998
 21
191.1512199999999
 31
0.0
  0
LINE
  5
1846
330
16E5
100
AcDbEntity
  8
1
  6
Continuous
100
AcDbLine
 10
151.3408889999998
 20
213.15122
 30
0.0
 11
155.8408889999998
 21
213.15122
 31
0.0
  0
LINE
  5
1847
330
16E5
100
AcDbEntity
  8
1
  6
Continuous
100
AcDbLine
 10
156.3408889999998
 20
215.15122
 30
0.0
 11
151.3408889999998
 21
221.88199
 31
0.0
  0
LINE
  5
1848
330
16E5
100
AcDbEntity
  8
1
  6
Continuous
100
AcDbLine
 10
151.3408889999998
 20
224.4512199999999
 30
0.0
 11
151.3408889999998
 21
209.1512199999999
 31
0.0
  0
LINE
  5
1849
330
16E5
100
AcDbEntity
  8
1
  6
Continuous
100
AcDbLine
 10
129.7408889999998
 20
230.65122
 30
0.0
 11
142.94089
 21
230.65122
 31
0.0
  0
LINE
  5
184A
330
16E5
100
AcDbEntity
  8
1
  6
Continuous
100
AcDbLine
 10
136.3408889999998
 20
224.4512199999999
 30
0.0
 11
151.3408889999998
 21
224.4512199999999
 31
0.0
  0
LINE
  5
184B
330
16E5
100
AcDbEntity
  8
1
  6
Continuous
100
AcDbLine
 10
132.8408889999997
 20
224.95122
 30
0.0
 11
132.8408889999997
 21
230.65122
 31
0.0
  0
LINE
  5
184C
330
16E5
100
AcDbEntity
  8
1
  6
Continuous
100
AcDbLine
 10
129.7408889999998
 20
230.65122
 30
0.0
 11
129.7408889999998
 21
224.95122
 31
0.0
  0
ARC
  5
184D
330
16E5
100
AcDbEntity
  8
1
  6
Continuous
100
AcDbCircle
 10
129.2408889999999
 20
224.95122
 30
0.0
 40
0.5
100
AcDbArc
 50
270.0000049999998
 51
0.000001
  0
ARC
  5
184E
330
16E5
100
AcDbEntity
  8
1
  6
Continuous
100
AcDbCircle
 10
132.3408889999998
 20
224.95122
 30
0.0
 40
0.5
100
AcDbArc
 50
270.0000049999998
 51
0.000001
  0
LINE
  5
184F
330
16E5
100
AcDbEntity
  8
1
  6
Continuous
100
AcDbLine
 10
139.8408889999998
 20
224.95122
 30
0.0
 11
139.8408889999998
 21
230.65122
 31
0.0
  0
LINE
  5
1850
330
16E5
100
AcDbEntity
  8
1
  6
Continuous
100
AcDbLine
 10
142.94089
 20
230.65122
 30
0.0
 11
142.94089
 21
224.95122
 31
0.0
  0
ARC
  5
1851
330
16E5
100
AcDbEntity
  8
1
  6
Continuous
100
AcDbCircle
 10
140.3408889999997
 20
224.95122
 30
0.0
 40
0.5
100
AcDbArc
 50
180.0000029999999
 51
270.0000049999998
  0
ARC
  5
1852
330
16E5
100
AcDbEntity
  8
1
  6
Continuous
100
AcDbCircle
 10
143.44089
 20
224.95122
 30
0.0
 40
0.5
100
AcDbArc
 50
180.0000029999999
 51
270.0000049999998
  0
LINE
  5
1853
330
16E5
100
AcDbEntity
  8
5
  6
PHANTOM
100
AcDbLine
 10
132.3408889999998
 20
199.15122
 30
0.0
 11
140.3408889999997
 21
199.15122
 31
0.0
  0
ARC
  5
1854
330
16E5
100
AcDbEntity
  8
5
  6
PHANTOM
100
AcDbCircle
 10
132.3408889999998
 20
200.15122
 30
0.0
 40
1.0
100
AcDbArc
 50
180.0000029999999
 51
270.0000049999998
  0
ARC
  5
1855
330
16E5
100
AcDbEntity
  8
5
  6
PHANTOM
100
AcDbCircle
 10
140.3408889999997
 20
200.15122
 30
0.0
 40
1.0
100
AcDbArc
 50
270.0000049999998
 51
0.000001
  0
ARC
  5
1856
330
16E5
100
AcDbEntity
  8
1
  6
Continuous
100
AcDbCircle
 10
155.8408889999998
 20
213.65122
 30
0.0
 40
0.5
100
AcDbArc
 50
270.0000049999998
 51
0.000001
  0
LINE
  5
1857
330
16E5
100
AcDbEntity
  8
1
  6
Continuous
100
AcDbLine
 10
156.3408889999998
 20
213.65122
 30
0.0
 11
156.3408889999998
 21
215.15122
 31
0.0
  0
LINE
  5
1858
330
16E5
100
AcDbEntity
  8
1
  6
Continuous
100
AcDbLine
 10
132.3408889999998
 20
194.15122
 30
0.0
 11
140.3408889999997
 21
194.15122
 31
0.0
  0
ARC
  5
1859
330
16E5
100
AcDbEntity
  8
1
  6
Continuous
100
AcDbCircle
 10
132.3408889999998
 20
195.1512199999999
 30
0.0
 40
1.0
100
AcDbArc
 50
180.0000029999999
 51
270.0000049999998
  0
ARC
  5
185A
330
16E5
100
AcDbEntity
  8
1
  6
Continuous
100
AcDbCircle
 10
140.3408889999997
 20
195.1512199999999
 30
0.0
 40
1.0
100
AcDbArc
 50
270.0000049999998
 51
0.000001
  0
LINE
  5
185B
330
16E5
100
AcDbEntity
  8
1
  6
Continuous
100
AcDbLine
 10
336.968698
 20
146.1256129999999
 30
0.0
 11
307.522667
 21
146.1256129999999
 31
0.0
  0
LINE
  5
185C
330
16E5
100
AcDbEntity
  8
1
  6
Continuous
100
AcDbLine
 10
336.968698
 20
125.5256069999999
 30
0.0
 11
307.522667
 21
125.5256069999999
 31
0.0
  0
LINE
  5
185D
330
16E5
100
AcDbEntity
  8
4
  6
CENTER
100
AcDbLine
 10
345.522667
 20
135.82561
 30
0.0
 11
299.522667
 21
135.82561
 31
0.0
  0
LINE
  5
185E
330
16E5
100
AcDbEntity
  8
1
  6
Continuous
100
AcDbLine
 10
342.522667
 20
143.1256129999999
 30
0.0
 11
337.9976899999999
 21
145.8405939999998
 31
0.0
  0
LINE
  5
185F
330
16E5
100
AcDbEntity
  8
1
  6
Continuous
100
AcDbLine
 10
342.522667
 20
128.525607
 30
0.0
 11
342.522667
 21
143.1256129999999
 31
0.0
  0
ARC
  5
1860
330
16E5
100
AcDbEntity
  8
1
  6
Continuous
100
AcDbCircle
 10
336.968698
 20
127.5256069999999
 30
0.0
 40
2.0
100
AcDbArc
 50
270.0
 51
300.9637579999999
  0
LINE
  5
1861
330
16E5
100
AcDbEntity
  8
1
  6
Continuous
100
AcDbLine
 10
342.522667
 20
128.525607
 30
0.0
 11
337.9976899999999
 21
125.8106259999999
 31
0.0
  0
ARC
  5
1862
330
16E5
100
AcDbEntity
  8
1
  6
Continuous
100
AcDbCircle
 10
336.968698
 20
144.125613
 30
0.0
 40
2.0
100
AcDbArc
 50
59.03624399999999
 51
90.00000500000002
  0
LINE
  5
1863
330
16E5
100
AcDbEntity
  8
1
  6
Continuous
100
AcDbLine
 10
307.522667
 20
146.1256129999999
 30
0.0
 11
307.522667
 21
125.5256069999999
 31
0.0
  0
LINE
  5
1864
330
16E5
100
AcDbEntity
  8
4
  6
CENTER
100
AcDbLine
 10
322.522667
 20
149.1256129999999
 30
0.0
 11
322.522667
 21
122.5256069999999
 31
0.0
  0
LINE
  5
1865
330
16E5
100
AcDbEntity
  8
1
  6
Continuous
100
AcDbLine
 10
307.522667
 20
143.32561
 30
0.0
 11
303.522667
 21
143.32561
 31
0.0
  0
LINE
  5
1866
330
16E5
100
AcDbEntity
  8
1
  6
Continuous
100
AcDbLine
 10
307.522667
 20
128.32561
 30
0.0
 11
303.522667
 21
128.32561
 31
0.0
  0
LINE
  5
1867
330
16E5
100
AcDbEntity
  8
1
  6
Continuous
100
AcDbLine
 10
324.2226679999999
 20
142.32561
 30
0.0
 11
320.8226669999999
 21
142.32561
 31
0.0
  0
LINE
  5
1868
330
16E5
100
AcDbEntity
  8
1
  6
Continuous
100
AcDbLine
 10
324.822666
 20
142.725612
 30
0.0
 11
320.2226669999999
 21
142.725612
 31
0.0
  0
LINE
  5
1869
330
16E5
100
AcDbEntity
  8
1
  6
Continuous
100
AcDbLine
 10
325.4226669999998
 20
139.32561
 30
0.0
 11
323.522667
 21
139.32561
 31
0.0
  0
LINE
  5
186A
330
16E5
100
AcDbEntity
  8
1
  6
Continuous
100
AcDbLine
 10
324.2226679999999
 20
129.32561
 30
0.0
 11
320.8226669999999
 21
129.32561
 31
0.0
  0
LINE
  5
186B
330
16E5
100
AcDbEntity
  8
1
  6
Continuous
100
AcDbLine
 10
324.822666
 20
128.925609
 30
0.0
 11
320.2226669999999
 21
128.925609
 31
0.0
  0
LINE
  5
186C
330
16E5
100
AcDbEntity
  8
1
  6
Continuous
100
AcDbLine
 10
325.4226669999998
 20
132.32561
 30
0.0
 11
323.522667
 21
132.32561
 31
0.0
  0
LINE
  5
186D
330
16E5
100
AcDbEntity
  8
1
  6
Continuous
100
AcDbLine
 10
326.522667
 20
140.82561
 30
0.0
 11
318.522667
 21
140.82561
 31
0.0
  0
LINE
  5
186E
330
16E5
100
AcDbEntity
  8
1
  6
Continuous
100
AcDbLine
 10
326.522667
 20
130.82561
 30
0.0
 11
318.522667
 21
130.82561
 31
0.0
  0
ARC
  5
186F
330
16E5
100
AcDbEntity
  8
1
  6
Continuous
100
AcDbCircle
 10
328.622667
 20
132.82561
 30
0.0
 40
1.0
100
AcDbArc
 50
134.427001
 51
225.5729969999999
  0
LINE
  5
1870
330
16E5
100
AcDbEntity
  8
1
  6
Continuous
100
AcDbLine
 10
327.522667
 20
139.82561
 30
0.0
 11
327.522667
 21
131.82561
 31
0.0
  0
LINE
  5
1871
330
16E5
100
AcDbEntity
  8
1
  6
Continuous
100
AcDbLine
 10
326.022667
 20
138.7256099999999
 30
0.0
 11
326.022667
 21
132.92561
 31
0.0
  0
LINE
  5
1872
330
16E5
100
AcDbEntity
  8
1
  6
Continuous
100
AcDbLine
 10
324.2226679999999
 20
130.82561
 30
0.0
 11
324.2226679999999
 21
129.32561
 31
0.0
  0
LINE
  5
1873
330
16E5
100
AcDbEntity
  8
1
  6
Continuous
100
AcDbLine
 10
324.822666
 20
130.32561
 30
0.0
 11
324.2226679999999
 21
130.32561
 31
0.0
  0
LINE
  5
1874
330
16E5
100
AcDbEntity
  8
1
  6
Continuous
100
AcDbLine
 10
325.3085229999999
 20
130.425609
 30
0.0
 11
324.822666
 21
130.425609
 31
0.0
  0
LINE
  5
1875
330
16E5
100
AcDbEntity
  8
1
  6
Continuous
100
AcDbLine
 10
324.822666
 20
130.425609
 30
0.0
 11
324.822666
 21
128.925609
 31
0.0
  0
ARC
  5
1876
330
16E5
100
AcDbEntity
  8
1
  6
Continuous
100
AcDbCircle
 10
326.522667
 20
131.82561
 30
0.0
 40
1.0
100
AcDbArc
 50
270.0
 51
0.000003
  0
ARC
  5
1877
330
16E5
100
AcDbEntity
  8
1
  6
Continuous
100
AcDbCircle
 10
327.422667
 20
130.925609
 30
0.0
 40
0.5
100
AcDbArc
 50
270.0
 51
0.000003
  0
LINE
  5
1878
330
16E5
100
AcDbEntity
  8
1
  6
Continuous
100
AcDbLine
 10
327.9226669999999
 20
130.925609
 30
0.0
 11
327.9226669999999
 21
132.1114679999998
 31
0.0
  0
LINE
  5
1879
330
16E5
100
AcDbEntity
  8
1
  6
Continuous
100
AcDbLine
 10
327.422667
 20
130.425609
 30
0.0
 11
326.736811
 21
130.425609
 31
0.0
  0
ARC
  5
187A
330
16E5
100
AcDbEntity
  8
1
  6
Continuous
100
AcDbCircle
 10
326.022667
 20
129.725612
 30
0.0
 40
1.0
100
AcDbArc
 50
44.42700199999999
 51
135.572994
  0
ARC
  5
187B
330
16E5
100
AcDbEntity
  8
1
  6
Continuous
100
AcDbCircle
 10
325.4226669999998
 20
132.92561
 30
0.0
 40
0.6
100
AcDbArc
 50
270.0
 51
0.0
  0
LINE
  5
187C
330
16E5
100
AcDbEntity
  8
1
  6
Continuous
100
AcDbLine
 10
324.2226679999999
 20
142.32561
 30
0.0
 11
324.2226679999999
 21
140.82561
 31
0.0
  0
LINE
  5
187D
330
16E5
100
AcDbEntity
  8
1
  6
Continuous
100
AcDbLine
 10
324.822666
 20
141.32561
 30
0.0
 11
324.2226679999999
 21
141.32561
 31
0.0
  0
LINE
  5
187E
330
16E5
100
AcDbEntity
  8
1
  6
Continuous
100
AcDbLine
 10
325.3085229999999
 20
141.225612
 30
0.0
 11
324.822666
 21
141.225612
 31
0.0
  0
LINE
  5
187F
330
16E5
100
AcDbEntity
  8
1
  6
Continuous
100
AcDbLine
 10
324.822666
 20
141.225612
 30
0.0
 11
324.822666
 21
142.725612
 31
0.0
  0
ARC
  5
1880
330
16E5
100
AcDbEntity
  8
1
  6
Continuous
100
AcDbCircle
 10
326.522667
 20
139.82561
 30
0.0
 40
1.0
100
AcDbArc
 50
0.000003
 51
90.00000500000002
  0
ARC
  5
1881
330
16E5
100
AcDbEntity
  8
1
  6
Continuous
100
AcDbCircle
 10
327.422667
 20
140.725612
 30
0.0
 40
0.5
100
AcDbArc
 50
0.000003
 51
90.00000500000002
  0
ARC
  5
1882
330
16E5
100
AcDbEntity
  8
1
  6
Continuous
100
AcDbCircle
 10
328.622667
 20
138.82561
 30
0.0
 40
1.0
100
AcDbArc
 50
134.427001
 51
225.5729969999999
  0
LINE
  5
1883
330
16E5
100
AcDbEntity
  8
1
  6
Continuous
100
AcDbLine
 10
327.9226669999999
 20
133.82561
 30
0.0
 11
327.522667
 21
133.82561
 31
0.0
  0
LINE
  5
1884
330
16E5
100
AcDbEntity
  8
1
  6
Continuous
100
AcDbLine
 10
327.9226669999999
 20
137.82561
 30
0.0
 11
327.522667
 21
137.82561
 31
0.0
  0
LINE
  5
1885
330
16E5
100
AcDbEntity
  8
1
  6
Continuous
100
AcDbLine
 10
327.9226669999999
 20
139.5397519999999
 30
0.0
 11
327.9226669999999
 21
140.725612
 31
0.0
  0
LINE
  5
1886
330
16E5
100
AcDbEntity
  8
1
  6
Continuous
100
AcDbLine
 10
327.9226669999999
 20
133.5397519999999
 30
0.0
 11
327.9226669999999
 21
135.82561
 31
0.0
  0
LINE
  5
1887
330
16E5
100
AcDbEntity
  8
1
  6
Continuous
100
AcDbLine
 10
327.9226669999999
 20
135.82561
 30
0.0
 11
327.9226669999999
 21
138.111468
 31
0.0
  0
LINE
  5
1888
330
16E5
100
AcDbEntity
  8
1
  6
Continuous
100
AcDbLine
 10
327.422667
 20
141.225612
 30
0.0
 11
326.736811
 21
141.225612
 31
0.0
  0
ARC
  5
1889
330
16E5
100
AcDbEntity
  8
1
  6
Continuous
100
AcDbCircle
 10
326.022667
 20
141.925609
 30
0.0
 40
1.0
100
AcDbArc
 50
224.4270039999999
 51
315.5729959999998
  0
ARC
  5
188A
330
16E5
100
AcDbEntity
  8
1
  6
Continuous
100
AcDbCircle
 10
325.4226669999998
 20
138.7256099999999
 30
0.0
 40
0.6
100
AcDbArc
 50
0.0
 51
90.0
  0
ARC
  5
188B
330
16E5
100
AcDbEntity
  8
1
  6
Continuous
100
AcDbCircle
 10
316.422667
 20
132.82561
 30
0.0
 40
1.0
100
AcDbArc
 50
314.4270029999999
 51
45.57299899999999
  0
LINE
  5
188C
330
16E5
100
AcDbEntity
  8
1
  6
Continuous
100
AcDbLine
 10
317.522667
 20
139.82561
 30
0.0
 11
317.522667
 21
131.82561
 31
0.0
  0
LINE
  5
188D
330
16E5
100
AcDbEntity
  8
1
  6
Continuous
100
AcDbLine
 10
319.022667
 20
138.7256099999999
 30
0.0
 11
319.022667
 21
132.92561
 31
0.0
  0
ARC
  5
188E
330
16E5
100
AcDbEntity
  8
1
  6
Continuous
100
AcDbCircle
 10
317.6226679999999
 20
130.925609
 30
0.0
 40
0.5
100
AcDbArc
 50
179.999997
 51
270.0
  0
LINE
  5
188F
330
16E5
100
AcDbEntity
  8
1
  6
Continuous
100
AcDbLine
 10
317.1226679999999
 20
130.925609
 30
0.0
 11
317.1226679999999
 21
132.1114679999998
 31
0.0
  0
ARC
  5
1890
330
16E5
100
AcDbEntity
  8
1
  6
Continuous
100
AcDbCircle
 10
319.022667
 20
129.725612
 30
0.0
 40
1.0
100
AcDbArc
 50
44.42700199999999
 51
135.572994
  0
LINE
  5
1891
330
16E5
100
AcDbEntity
  8
1
  6
Continuous
100
AcDbLine
 10
320.8226669999999
 20
130.32561
 30
0.0
 11
320.2226669999999
 21
130.32561
 31
0.0
  0
LINE
  5
1892
330
16E5
100
AcDbEntity
  8
1
  6
Continuous
100
AcDbLine
 10
320.8226669999999
 20
130.82561
 30
0.0
 11
320.8226669999999
 21
129.32561
 31
0.0
  0
LINE
  5
1893
330
16E5
100
AcDbEntity
  8
1
  6
Continuous
100
AcDbLine
 10
320.2226669999999
 20
130.425609
 30
0.0
 11
319.7368099999998
 21
130.425609
 31
0.0
  0
LINE
  5
1894
330
16E5
100
AcDbEntity
  8
1
  6
Continuous
100
AcDbLine
 10
320.2226669999999
 20
130.425609
 30
0.0
 11
320.2226669999999
 21
128.925609
 31
0.0
  0
ARC
  5
1895
330
16E5
100
AcDbEntity
  8
1
  6
Continuous
100
AcDbCircle
 10
319.6226669999999
 20
132.92561
 30
0.0
 40
0.6
100
AcDbArc
 50
180.0
 51
270.0
  0
ARC
  5
1896
330
16E5
100
AcDbEntity
  8
1
  6
Continuous
100
AcDbCircle
 10
318.522667
 20
131.82561
 30
0.0
 40
1.0
100
AcDbArc
 50
179.999997
 51
270.0
  0
LINE
  5
1897
330
16E5
100
AcDbEntity
  8
1
  6
Continuous
100
AcDbLine
 10
318.308524
 20
130.425609
 30
0.0
 11
317.6226679999999
 21
130.425609
 31
0.0
  0
ARC
  5
1898
330
16E5
100
AcDbEntity
  8
1
  6
Continuous
100
AcDbCircle
 10
317.6226679999999
 20
140.725612
 30
0.0
 40
0.5
100
AcDbArc
 50
90.00000500000002
 51
180.0000009999999
  0
ARC
  5
1899
330
16E5
100
AcDbEntity
  8
1
  6
Continuous
100
AcDbCircle
 10
316.422667
 20
138.82561
 30
0.0
 40
1.0
100
AcDbArc
 50
314.4270029999999
 51
45.57299899999999
  0
LINE
  5
189A
330
16E5
100
AcDbEntity
  8
1
  6
Continuous
100
AcDbLine
 10
317.522667
 20
137.82561
 30
0.0
 11
317.1226679999999
 21
137.82561
 31
0.0
  0
LINE
  5
189B
330
16E5
100
AcDbEntity
  8
1
  6
Continuous
100
AcDbLine
 10
317.522667
 20
133.82561
 30
0.0
 11
317.1226679999999
 21
133.82561
 31
0.0
  0
LINE
  5
189C
330
16E5
100
AcDbEntity
  8
1
  6
Continuous
100
AcDbLine
 10
317.1226679999999
 20
139.5397519999999
 30
0.0
 11
317.1226679999999
 21
140.725612
 31
0.0
  0
LINE
  5
189D
330
16E5
100
AcDbEntity
  8
1
  6
Continuous
100
AcDbLine
 10
317.1226679999999
 20
133.5397519999999
 30
0.0
 11
317.1226679999999
 21
135.82561
 31
0.0
  0
LINE
  5
189E
330
16E5
100
AcDbEntity
  8
1
  6
Continuous
100
AcDbLine
 10
317.1226679999999
 20
135.82561
 30
0.0
 11
317.1226679999999
 21
138.111468
 31
0.0
  0
ARC
  5
189F
330
16E5
100
AcDbEntity
  8
1
  6
Continuous
100
AcDbCircle
 10
319.022667
 20
141.925609
 30
0.0
 40
1.0
100
AcDbArc
 50
224.4270039999999
 51
315.5729959999998
  0
LINE
  5
18A0
330
16E5
100
AcDbEntity
  8
1
  6
Continuous
100
AcDbLine
 10
320.8226669999999
 20
141.32561
 30
0.0
 11
320.2226669999999
 21
141.32561
 31
0.0
  0
LINE
  5
18A1
330
16E5
100
AcDbEntity
  8
1
  6
Continuous
100
AcDbLine
 10
320.8226669999999
 20
142.32561
 30
0.0
 11
320.8226669999999
 21
140.82561
 31
0.0
  0
LINE
  5
18A2
330
16E5
100
AcDbEntity
  8
1
  6
Continuous
100
AcDbLine
 10
320.2226669999999
 20
141.225612
 30
0.0
 11
319.7368099999998
 21
141.225612
 31
0.0
  0
LINE
  5
18A3
330
16E5
100
AcDbEntity
  8
1
  6
Continuous
100
AcDbLine
 10
320.2226669999999
 20
141.225612
 30
0.0
 11
320.2226669999999
 21
142.725612
 31
0.0
  0
ARC
  5
18A4
330
16E5
100
AcDbEntity
  8
1
  6
Continuous
100
AcDbCircle
 10
319.6226669999999
 20
138.7256099999999
 30
0.0
 40
0.6
100
AcDbArc
 50
90.0
 51
180.0
  0
ARC
  5
18A5
330
16E5
100
AcDbEntity
  8
1
  6
Continuous
100
AcDbCircle
 10
318.522667
 20
139.82561
 30
0.0
 40
1.0
100
AcDbArc
 50
90.00000500000002
 51
180.0000009999999
  0
LINE
  5
18A6
330
16E5
100
AcDbEntity
  8
1
  6
Continuous
100
AcDbLine
 10
318.308524
 20
141.225612
 30
0.0
 11
317.6226679999999
 21
141.225612
 31
0.0
  0
LINE
  5
18A7
330
16E5
100
AcDbEntity
  8
1
  6
Continuous
100
AcDbLine
 10
302.522667
 20
142.32561
 30
0.0
 11
302.522667
 21
129.32561
 31
0.0
  0
ARC
  5
18A8
330
16E5
100
AcDbEntity
  8
1
  6
Continuous
100
AcDbCircle
 10
303.522667
 20
129.32561
 30
0.0
 40
1.0
100
AcDbArc
 50
179.999997
 51
270.0
  0
ARC
  5
18A9
330
16E5
100
AcDbEntity
  8
1
  6
Continuous
100
AcDbCircle
 10
303.522667
 20
142.32561
 30
0.0
 40
1.0
100
AcDbArc
 50
90.00000500000002
 51
180.0000009999999
  0
ARC
  5
18AA
330
16E5
100
AcDbEntity
  8
1
  6
Continuous
100
AcDbCircle
 10
322.522667
 20
139.32561
 30
0.0
 40
1.0
100
AcDbArc
 50
180.0
 51
0.0
  0
ARC
  5
18AB
330
16E5
100
AcDbEntity
  8
1
  6
Continuous
100
AcDbCircle
 10
322.522667
 20
132.32561
 30
0.0
 40
1.0
100
AcDbArc
 50
0.0
 51
180.0
  0
LINE
  5
18AC
330
16E5
100
AcDbEntity
  8
1
  6
Continuous
100
AcDbLine
 10
321.522667
 20
139.32561
 30
0.0
 11
319.6226669999999
 21
139.32561
 31
0.0
  0
LINE
  5
18AD
330
16E5
100
AcDbEntity
  8
1
  6
Continuous
100
AcDbLine
 10
321.522667
 20
132.32561
 30
0.0
 11
319.6226669999999
 21
132.32561
 31
0.0
  0
LINE
  5
18AE
330
16E5
100
AcDbEntity
  8
1
  6
Continuous
100
AcDbLine
 10
319.022668
 20
142.425612
 30
0.0
 11
316.922667
 21
142.425612
 31
0.0
  0
LINE
  5
18AF
330
16E5
100
AcDbEntity
  8
1
  6
Continuous
100
AcDbLine
 10
315.9226679999999
 20
130.2256089999999
 30
0.0
 11
315.9226679999999
 21
141.425612
 31
0.0
  0
LINE
  5
18B0
330
16E5
100
AcDbEntity
  8
1
  6
Continuous
100
AcDbLine
 10
329.1226669999999
 20
130.2256089999999
 30
0.0
 11
329.1226659999999
 21
141.425612
 31
0.0
  0
LINE
  5
18B1
330
16E5
100
AcDbEntity
  8
1
  6
Continuous
100
AcDbLine
 10
326.022666
 20
142.425612
 30
0.0
 11
326.022666
 21
142.92561
 31
0.0
  0
LINE
  5
18B2
330
16E5
100
AcDbEntity
  8
1
  6
Continuous
100
AcDbLine
 10
328.1226669999999
 20
142.425612
 30
0.0
 11
326.022666
 21
142.425612
 31
0.0
  0
LINE
  5
18B3
330
16E5
100
AcDbEntity
  8
1
  6
Continuous
100
AcDbLine
 10
325.022666
 20
143.92561
 30
0.0
 11
320.022668
 21
143.92561
 31
0.0
  0
LINE
  5
18B4
330
16E5
100
AcDbEntity
  8
1
  6
Continuous
100
AcDbLine
 10
319.022668
 20
142.425612
 30
0.0
 11
319.022668
 21
142.92561
 31
0.0
  0
LINE
  5
18B5
330
16E5
100
AcDbEntity
  8
1
  6
Continuous
100
AcDbLine
 10
319.022668
 20
129.2256089999999
 30
0.0
 11
319.022668
 21
128.72561
 31
0.0
  0
LINE
  5
18B6
330
16E5
100
AcDbEntity
  8
1
  6
Continuous
100
AcDbLine
 10
319.022668
 20
129.2256089999999
 30
0.0
 11
316.9226679999999
 21
129.2256089999999
 31
0.0
  0
LINE
  5
18B7
330
16E5
100
AcDbEntity
  8
1
  6
Continuous
100
AcDbLine
 10
325.022666
 20
127.72561
 30
0.0
 11
320.022668
 21
127.72561
 31
0.0
  0
LINE
  5
18B8
330
16E5
100
AcDbEntity
  8
1
  6
Continuous
100
AcDbLine
 10
326.022666
 20
129.2256089999999
 30
0.0
 11
326.022666
 21
128.72561
 31
0.0
  0
LINE
  5
18B9
330
16E5
100
AcDbEntity
  8
1
  6
Continuous
100
AcDbLine
 10
328.1226669999999
 20
129.2256089999999
 30
0.0
 11
326.022666
 21
129.2256089999999
 31
0.0
  0
LINE
  5
18BA
330
16E5
100
AcDbEntity
  8
1
  6
Continuous
100
AcDbLine
 10
309.237617
 20
139.8520949999999
 30
0.0
 11
309.237617
 21
138.5991149999999
 31
0.0
  0
LINE
  5
18BB
330
16E5
100
AcDbEntity
  8
1
  6
Continuous
100
AcDbLine
 10
310.222667
 20
137.751128
 30
0.0
 11
310.222667
 21
137.124578
 31
0.0
  0
LINE
  5
18BC
330
16E5
100
AcDbEntity
  8
1
  6
Continuous
100
AcDbLine
 10
311.222667
 20
142.009615
 30
0.0
 11
311.222667
 21
140.43464
 31
0.0
  0
LINE
  5
18BD
330
16E5
100
AcDbEntity
  8
1
  6
Continuous
100
AcDbLine
 10
311.222667
 20
141.22561
 30
0.0
 11
309.222667
 21
141.22561
 31
0.0
  0
LINE
  5
18BE
330
16E5
100
AcDbEntity
  8
1
  6
Continuous
100
AcDbLine
 10
311.2376219999999
 20
139.8520949999999
 30
0.0
 11
309.237617
 21
139.8520949999999
 31
0.0
  0
LINE
  5
18BF
330
16E5
100
AcDbEntity
  8
1
  6
Continuous
100
AcDbLine
 10
312.816822
 20
129.5763049999999
 30
0.0
 11
312.816822
 21
128.485755
 31
0.0
  0
LINE
  5
18C0
330
16E5
100
AcDbEntity
  8
1
  6
Continuous
100
AcDbLine
 10
314.2625069999998
 20
129.022005
 30
0.0
 11
312.215387
 21
128.264705
 31
0.0
  0
LINE
  5
18C1
330
16E5
100
AcDbEntity
  8
1
  6
Continuous
100
AcDbLine
 10
313.258912
 20
137.206705
 30
0.0
 11
313.258912
 21
135.909705
 31
0.0
  0
LINE
  5
18C2
330
16E5
100
AcDbEntity
  8
1
  6
Continuous
100
AcDbLine
 10
314.2226669999999
 20
142.71399
 30
0.0
 11
312.2226669999998
 21
142.71399
 31
0.0
  0
LINE
  5
18C3
330
16E5
100
AcDbEntity
  8
1
  6
Continuous
100
AcDbLine
 10
314.2226669999999
 20
143.5256099999998
 30
0.0
 11
314.2226669999999
 21
141.8951899999999
 31
0.0
  0
LINE
  5
18C4
330
16E5
100
AcDbEntity
  8
1
  6
Continuous
100
AcDbLine
 10
314.3096319999999
 20
137.206705
 30
0.0
 11
312.2081919999998
 21
137.206705
 31
0.0
  0
LINE
  5
18C5
330
16E5
100
AcDbEntity
  8
1
  6
Continuous
100
AcDbLine
 10
313.1574719999999
 20
133.569055
 30
0.0
 11
313.1574719999999
 21
132.8661549999999
 31
0.0
  0
LINE
  5
18C6
330
16E5
100
AcDbEntity
  8
1
  6
Continuous
100
AcDbLine
 10
314.3096319999999
 20
135.909705
 30
0.0
 11
312.2081919999998
 21
135.909705
 31
0.0
  0
LINE
  5
18C7
330
16E5
100
AcDbEntity
  8
1
  6
Continuous
100
AcDbLine
 10
314.3096319999999
 20
135.206705
 30
0.0
 11
312.2081919999998
 21
135.206705
 31
0.0
  0
LINE
  5
18C8
330
16E5
100
AcDbEntity
  8
1
  6
Continuous
100
AcDbLine
 10
314.258912
 20
129.022005
 30
0.0
 11
312.215392
 21
129.8154549999999
 31
0.0
  0
LINE
  5
18C9
330
16E5
100
AcDbEntity
  8
1
  6
Continuous
100
AcDbLine
 10
313.1501819999999
 20
130.8879049999999
 30
0.0
 11
312.2081919999998
 21
130.8879049999999
 31
0.0
  0
LINE
  5
18CA
330
16E5
100
AcDbEntity
  8
1
  6
Continuous
100
AcDbLine
 10
312.859397
 20
132.8661549999999
 30
0.0
 11
312.2226669999998
 21
132.8661549999999
 31
0.0
  0
LINE
  5
18CB
330
16E5
100
AcDbEntity
  8
1
  6
Continuous
100
AcDbLine
 10
314.3096319999999
 20
132.286455
 30
0.0
 11
312.2081919999998
 21
132.286455
 31
0.0
  0
LINE
  5
18CC
330
16E5
100
AcDbEntity
  8
1
  6
Continuous
100
AcDbLine
 10
313.1501769999999
 20
130.8879049999999
 30
0.0
 11
314.325527
 21
130.209305
 31
0.0
  0
LINE
  5
18CD
330
16E5
100
AcDbEntity
  8
1
  6
Continuous
100
AcDbLine
 10
313.153787
 20
130.8879049999999
 30
0.0
 11
314.324267
 21
131.5616049999999
 31
0.0
  0
LINE
  5
18CE
330
16E5
100
AcDbEntity
  8
1
  6
Continuous
100
AcDbLine
 10
311.2226719999999
 20
131.2096149999999
 30
0.0
 11
309.222667
 21
131.2096149999999
 31
0.0
  0
LINE
  5
18CF
330
16E5
100
AcDbEntity
  8
1
  6
Continuous
100
AcDbLine
 10
311.222667
 20
131.2096149999999
 30
0.0
 11
311.008917
 21
131.4303149999997
 31
0.0
  0
LINE
  5
18D0
330
16E5
100
AcDbEntity
  8
1
  6
Continuous
100
AcDbLine
 10
309.2362669999999
 20
133.8160039999999
 30
0.0
 11
310.3293869999999
 21
132.7704889999999
 31
0.0
  0
LINE
  5
18D1
330
16E5
100
AcDbEntity
  8
1
  6
Continuous
100
AcDbLine
 10
309.2362669999999
 20
133.8160039999999
 30
0.0
 11
309.2362669999999
 21
132.6288539999999
 31
0.0
  0
LINE
  5
18D2
330
16E5
100
AcDbEntity
  8
1
  6
Continuous
100
AcDbLine
 10
310.2376169999998
 20
135.568748
 30
0.0
 11
310.2376169999998
 21
135.276038
 31
0.0
  0
ARC
  5
18D3
330
16E5
100
AcDbEntity
  8
1
  6
Continuous
100
AcDbCircle
 10
313.292027
 20
138.397455
 30
0.0
 40
1.067529999999997
100
AcDbArc
 50
48.932
 51
131.0679999999998
  0
ARC
  5
18D4
330
16E5
100
AcDbEntity
  8
1
  6
Continuous
100
AcDbCircle
 10
313.093767
 20
138.6250049999999
 30
0.0
 40
0.76574
100
AcDbArc
 50
131.0679999999998
 51
199.193
  0
ARC
  5
18D5
330
16E5
100
AcDbEntity
  8
1
  6
Continuous
100
AcDbCircle
 10
313.490287
 20
138.6250049999999
 30
0.0
 40
0.76574
100
AcDbArc
 50
340.8072
 51
48.932
  0
ARC
  5
18D6
330
16E5
100
AcDbEntity
  8
1
  6
Continuous
100
AcDbCircle
 10
313.7288419999998
 20
138.5419549999998
 30
0.0
 40
0.513145
100
AcDbArc
 50
275.65924
 51
340.8072
  0
ARC
  5
18D7
330
16E5
100
AcDbEntity
  8
1
  6
Continuous
100
AcDbCircle
 10
312.855212
 20
138.5419549999998
 30
0.0
 40
0.513145
100
AcDbArc
 50
199.193
 51
264.341
  0
ARC
  5
18D8
330
16E5
100
AcDbEntity
  8
1
  6
Continuous
100
AcDbCircle
 10
313.692542
 20
133.493505
 30
0.0
 40
0.513145
100
AcDbArc
 50
275.65924
 51
340.8072
  0
ARC
  5
18D9
330
16E5
100
AcDbEntity
  8
1
  6
Continuous
100
AcDbCircle
 10
313.4539869999999
 20
133.576555
 30
0.0
 40
0.76574
100
AcDbArc
 50
340.8072
 51
48.932
  0
ARC
  5
18DA
330
16E5
100
AcDbEntity
  8
1
  6
Continuous
100
AcDbCircle
 10
313.2557269999999
 20
133.349055
 30
0.0
 40
1.067529999999997
100
AcDbArc
 50
48.932
 51
131.0679999999998
  0
ARC
  5
18DB
330
16E5
100
AcDbEntity
  8
1
  6
Continuous
100
AcDbCircle
 10
313.0574619999998
 20
133.576555
 30
0.0
 40
0.76574
100
AcDbArc
 50
131.0679999999998
 51
186.5909999999999
  0
ARC
  5
18DC
330
16E5
100
AcDbEntity
  8
1
  6
Continuous
100
AcDbCircle
 10
313.0120269999999
 20
133.571305
 30
0.0
 40
0.72
100
AcDbArc
 50
179.5819999999999
 51
281.6541
  0
ARC
  5
18DD
330
16E5
100
AcDbEntity
  8
1
  6
Continuous
100
AcDbCircle
 10
313.281427
 20
140.496105
 30
0.0
 40
1.067529999999997
100
AcDbArc
 50
48.932
 51
131.0679999999998
  0
ARC
  5
18DE
330
16E5
100
AcDbEntity
  8
1
  6
Continuous
100
AcDbCircle
 10
313.281427
 20
140.9511599999999
 30
0.0
 40
1.067529999999997
100
AcDbArc
 50
228.932
 51
311.0679
  0
ARC
  5
18DF
330
16E5
100
AcDbEntity
  8
1
  6
Continuous
100
AcDbCircle
 10
313.083167
 20
140.72363
 30
0.0
 40
0.76574
100
AcDbArc
 50
131.0679999999998
 51
228.932
  0
ARC
  5
18E0
330
16E5
100
AcDbEntity
  8
1
  6
Continuous
100
AcDbCircle
 10
313.479687
 20
140.72363
 30
0.0
 40
0.76574
100
AcDbArc
 50
311.0679
 51
48.932
  0
ARC
  5
18E1
330
16E5
100
AcDbEntity
  8
1
  6
Continuous
100
AcDbCircle
 10
310.610892
 20
133.222429
 30
0.0
 40
0.6253750000000001
100
AcDbArc
 50
317.1304
 51
42.86999999999999
  0
ARC
  5
18E2
330
16E5
100
AcDbEntity
  8
1
  6
Continuous
100
AcDbCircle
 10
310.6862669999998
 20
133.1524589999999
 30
0.0
 40
0.5225300000000001
100
AcDbArc
 50
222.8699999999999
 51
317.1304
  0
ARC
  5
18E3
330
16E5
100
AcDbEntity
  8
1
  6
Continuous
100
AcDbCircle
 10
310.6862669999998
 20
133.2923989999999
 30
0.0
 40
0.5225300000000001
100
AcDbArc
 50
42.86999999999999
 51
114.2769999999999
  0
ARC
  5
18E4
330
16E5
100
AcDbEntity
  8
1
  6
Continuous
100
AcDbCircle
 10
310.7629919999999
 20
135.6152679999999
 30
0.0
 40
0.6253750000000001
100
AcDbArc
 50
212.8499999999999
 51
222.8699999999999
  0
ARC
  5
18E5
330
16E5
100
AcDbEntity
  8
1
  6
Continuous
100
AcDbCircle
 10
310.6122419999999
 20
135.6152679999999
 30
0.0
 40
0.6253750000000001
100
AcDbArc
 50
317.1304
 51
42.86999999999999
  0
ARC
  5
18E6
330
16E5
100
AcDbEntity
  8
1
  6
Continuous
100
AcDbCircle
 10
310.687617
 20
135.545298
 30
0.0
 40
0.5225300000000001
100
AcDbArc
 50
222.8699999999999
 51
317.1304
  0
ARC
  5
18E7
330
16E5
100
AcDbEntity
  8
1
  6
Continuous
100
AcDbCircle
 10
310.687617
 20
135.685238
 30
0.0
 40
0.5225300000000001
100
AcDbArc
 50
42.86999999999999
 51
108.2079999999999
  0
ARC
  5
18E8
330
16E5
100
AcDbEntity
  8
1
  6
Continuous
100
AcDbCircle
 10
309.862992
 20
135.6152679999999
 30
0.0
 40
0.6253750000000001
100
AcDbArc
 50
137.1299999999999
 51
222.8699999999999
  0
ARC
  5
18E9
330
16E5
100
AcDbEntity
  8
1
  6
Continuous
100
AcDbCircle
 10
309.7122399999999
 20
135.6152679999999
 30
0.0
 40
0.6253750000000001
100
AcDbArc
 50
317.1304
 51
327.1503
  0
ARC
  5
18EA
330
16E5
100
AcDbEntity
  8
1
  6
Continuous
100
AcDbCircle
 10
309.787617
 20
135.545298
 30
0.0
 40
0.5225300000000001
100
AcDbArc
 50
222.8699999999999
 51
317.1304
  0
ARC
  5
18EB
330
16E5
100
AcDbEntity
  8
1
  6
Continuous
100
AcDbCircle
 10
309.787617
 20
135.685238
 30
0.0
 40
0.5225300000000001
100
AcDbArc
 50
103.0139999999999
 51
137.1299999999999
  0
LINE
  5
18EC
330
16E5
100
AcDbEntity
  8
4
  6
CENTER
100
AcDbLine
 10
125.3408889999999
 20
213.4021049999998
 30
0.0
 11
125.3408889999999
 21
206.802105
 31
0.0
  0
LINE
  5
18ED
330
16E5
100
AcDbEntity
  8
4
  6
CENTER
100
AcDbLine
 10
147.3408889999998
 20
213.4021049999998
 30
0.0
 11
147.3408889999998
 21
206.802105
 31
0.0
  0
LINE
  5
18EE
330
16E5
100
AcDbEntity
  8
4
  6
CENTER
100
AcDbLine
 10
125.3408889999999
 20
58.249115
 30
0.0
 11
125.3408889999999
 21
64.84911499999999
 31
0.0
  0
LINE
  5
18EF
330
16E5
100
AcDbEntity
  8
4
  6
CENTER
100
AcDbLine
 10
147.3408889999998
 20
58.249115
 30
0.0
 11
147.3408889999998
 21
64.84911499999999
 31
0.0
  0
ARC
  5
18F0
330
16E5
100
AcDbEntity
  8
1
  6
Continuous
100
AcDbCircle
 10
139.5408889999999
 20
139.02561
 30
0.0
 40
0.3
100
AcDbArc
 50
0.0
 51
90.0
  0
ARC
  5
18F1
330
16E5
100
AcDbEntity
  8
1
  6
Continuous
100
AcDbCircle
 10
133.1408889999998
 20
139.02561
 30
0.0
 40
0.3
100
AcDbArc
 50
90.0
 51
180.0
  0
ARC
  5
18F2
330
16E5
100
AcDbEntity
  8
1
  6
Continuous
100
AcDbCircle
 10
133.1408889999998
 20
132.6256099999999
 30
0.0
 40
0.3
100
AcDbArc
 50
180.0
 51
270.0
  0
ARC
  5
18F3
330
16E5
100
AcDbEntity
  8
1
  6
Continuous
100
AcDbCircle
 10
139.5408889999999
 20
132.6256099999999
 30
0.0
 40
0.3
100
AcDbArc
 50
270.0
 51
0.0
  0
ARC
  5
18F4
330
16E5
100
AcDbEntity
  8
1
  6
Continuous
100
AcDbCircle
 10
325.022666
 20
128.72561
 30
0.0
 40
1.0
100
AcDbArc
 50
270.0
 51
0.0
  0
ARC
  5
18F5
330
16E5
100
AcDbEntity
  8
1
  6
Continuous
100
AcDbCircle
 10
328.1226669999999
 20
130.2256089999999
 30
0.0
 40
1.0
100
AcDbArc
 50
270.0
 51
0.0
  0
ARC
  5
18F6
330
16E5
100
AcDbEntity
  8
1
  6
Continuous
100
AcDbCircle
 10
328.1226669999999
 20
141.425612
 30
0.0
 40
1.0
100
AcDbArc
 50
0.0
 51
90.0
  0
ARC
  5
18F7
330
16E5
100
AcDbEntity
  8
1
  6
Continuous
100
AcDbCircle
 10
325.022666
 20
142.92561
 30
0.0
 40
1.0
100
AcDbArc
 50
0.0
 51
90.0
  0
ARC
  5
18F8
330
16E5
100
AcDbEntity
  8
1
  6
Continuous
100
AcDbCircle
 10
320.022668
 20
142.92561
 30
0.0
 40
1.0
100
AcDbArc
 50
90.0
 51
180.0
  0
ARC
  5
18F9
330
16E5
100
AcDbEntity
  8
1
  6
Continuous
100
AcDbCircle
 10
316.922667
 20
141.425612
 30
0.0
 40
1.0
100
AcDbArc
 50
90.0
 51
180.0
  0
ARC
  5
18FA
330
16E5
100
AcDbEntity
  8
1
  6
Continuous
100
AcDbCircle
 10
316.9226679999999
 20
130.2256089999999
 30
0.0
 40
1.0
100
AcDbArc
 50
180.0
 51
270.0
  0
ARC
  5
18FB
330
16E5
100
AcDbEntity
  8
1
  6
Continuous
100
AcDbCircle
 10
320.022668
 20
128.72561
 30
0.0
 40
1.0
100
AcDbArc
 50
180.0
 51
270.0
  0
LINE
  5
18FC
330
16E5
100
AcDbEntity
  8
1
  6
Continuous
100
AcDbLine
 10
341.022667
 20
134.82561
 30
0.0
 11
341.022667
 21
136.82561
 31
0.0
  0
LINE
  5
18FD
330
16E5
100
AcDbEntity
  8
1
  6
Continuous
100
AcDbLine
 10
332.522667
 20
134.82561
 30
0.0
 11
332.522667
 21
136.82561
 31
0.0
  0
LINE
  5
18FE
330
16E5
100
AcDbEntity
  8
1
  6
Continuous
100
AcDbLine
 10
341.022667
 20
136.82561
 30
0.0
 11
332.522667
 21
136.82561
 31
0.0
  0
LINE
  5
18FF
330
16E5
100
AcDbEntity
  8
1
  6
Continuous
100
AcDbLine
 10
341.022667
 20
134.82561
 30
0.0
 11
332.522667
 21
134.82561
 31
0.0
  0
LINE
  5
1900
330
16E5
100
AcDbEntity
  8
1
  6
Continuous
100
AcDbLine
 10
339.022667
 20
134.82561
 30
0.0
 11
339.022667
 21
136.82561
 31
0.0
  0
ARC
  5
1901
330
16E5
100
AcDbEntity
  8
1
  6
Continuous
100
AcDbCircle
 10
337.022667
 20
135.82561
 30
0.0
 40
1.0
100
AcDbArc
 50
90.0
 51
270.0
  0
LINE
  5
1902
330
16E5
100
AcDbEntity
  8
1
  6
Continuous
100
AcDbLine
 10
334.522667
 20
136.57561
 30
0.0
 11
332.522667
 21
136.57561
 31
0.0
  0
LINE
  5
1903
330
16E5
100
AcDbEntity
  8
1
  6
Continuous
100
AcDbLine
 10
334.522667
 20
135.07561
 30
0.0
 11
332.522667
 21
135.07561
 31
0.0
  0
LINE
  5
1904
330
16E5
100
AcDbEntity
  8
1
  6
Continuous
100
AcDbLine
 10
334.522667
 20
135.07561
 30
0.0
 11
334.522667
 21
136.57561
 31
0.0
  0
ENDSEC
  0
SECTION
  2
OBJECTS
  0
DICTIONARY
  5
16D3
330
0
100
AcDbDictionary
281
     1
  3
ACAD_CIP_PREVIOUS_PRODUCT_INFO
350
1968
  3
ACAD_COLOR
350
194A
  3
ACAD_DETAILVIEWSTYLE
350
1963
  3
ACAD_GROUP
350
16D4
  3
ACAD_LAYOUT
350
16E0
  3
ACAD_MATERIAL
350
1918
  3
ACAD_MLEADERSTYLE
350
195F
  3
ACAD_MLINESTYLE
350
16DD
  3
ACAD_PLOTSETTINGS
350
16DF
  3
ACAD_PLOTSTYLENAME
350
1916
  3
ACAD_SCALELIST
350
194D
  3
ACAD_SECTIONVIEWSTYLE
350
1961
  3
ACAD_TABLESTYLE
350
194B
  3
ACAD_VISUALSTYLE
350
1931
  3
ACDB_RECOMPOSE_DATA
350
1986
  3
AcDbVariableDictionary
350
1979
  3
DWGPROPS
350
1987
  0
DICTIONARY
  5
1969
330
16D7
100
AcDbDictionary
280
     1
281
     1
  3
ADSK_XREC_LAYER_RECONCILED
360
196A
  0
DICTIONARY
  5
196B
330
16ED
100
AcDbDictionary
280
     1
281
     1
  3
ADSK_XREC_LAYER_RECONCILED
360
196C
  0
DICTIONARY
  5
196D
330
16EE
100
AcDbDictionary
280
     1
281
     1
  3
ADSK_XREC_LAYER_RECONCILED
360
196E
  0
DICTIONARY
  5
196F
330
16EF
100
AcDbDictionary
280
     1
281
     1
  3
ADSK_XREC_LAYER_RECONCILED
360
1970
  0
DICTIONARY
  5
1971
330
16F0
100
AcDbDictionary
280
     1
281
     1
  3
ADSK_XREC_LAYER_RECONCILED
360
1972
  0
DICTIONARY
  5
1973
330
16F1
100
AcDbDictionary
280
     1
281
     1
  3
ADSK_XREC_LAYER_RECONCILED
360
1974
  0
DICTIONARY
  5
1975
330
16F2
100
AcDbDictionary
280
     1
281
     1
  3
ADSK_XREC_LAYER_RECONCILED
360
1976
  0
DICTIONARY
  5
1977
330
16F3
100
AcDbDictionary
280
     1
281
     1
  3
ADSK_XREC_LAYER_RECONCILED
360
1978
  0
DICTIONARY
  5
1911
330
16E5
100
AcDbDictionary
281
     1
  3
ACAD_LAYOUTSELFREF
350
1912
  0
DICTIONARY
  5
190F
330
16E1
100
AcDbDictionary
281
     1
  3
ACAD_LAYOUTSELFREF
350
1910
  0
XRECORD
  5
1968
102
{ACAD_REACTORS
330
16D3
102
}
330
16D3
100
AcDbXrecord
280
     1
300
ACDLT
300
2014
300
ACDLT_F_S
  0
DICTIONARY
  5
194A
102
{ACAD_REACTORS
330
16D3
102
}
330
16D3
100
AcDbDictionary
281
     1
  0
DICTIONARY
  5
1963
102
{ACAD_REACTORS
330
16D3
102
}
330
16D3
100
AcDbDictionary
281
     1
  3
Imperial24
350
1964
  0
DICTIONARY
  5
16D4
102
{ACAD_REACTORS
330
16D3
102
}
330
16D3
100
AcDbDictionary
281
     1
  0
DICTIONARY
  5
16E0
102
{ACAD_REACTORS
330
16D3
102
}
330
16D3
100
AcDbDictionary
281
     1
  3
Model
350
1965
  3
レイアウト1
350
1966
  0
DICTIONARY
  5
1918
102
{ACAD_REACTORS
330
16D3
102
}
330
16D3
100
AcDbDictionary
281
     1
  3
ByBlock
350
1921
  3
ByLayer
350
1919
  3
Global
350
1929
  0
DICTIONARY
  5
195F
102
{ACAD_REACTORS
330
16D3
102
}
330
16D3
100
AcDbDictionary
281
     1
  3
Standard
350
1960
  0
DICTIONARY
  5
16DD
102
{ACAD_REACTORS
330
16D3
102
}
330
16D3
100
AcDbDictionary
281
     1
  3
STANDARD
350
16DE
  0
DICTIONARY
  5
16DF
102
{ACAD_REACTORS
330
16D3
102
}
330
16D3
100
AcDbDictionary
281
     1
  0
ACDBDICTIONARYWDFLT
  5
1916
102
{ACAD_REACTORS
330
16D3
102
}
330
16D3
100
AcDbDictionary
281
     1
  3
Normal
350
1917
100
AcDbDictionaryWithDefault
340
1917
  0
DICTIONARY
  5
194D
102
{ACAD_REACTORS
330
16D3
102
}
330
16D3
100
AcDbDictionary
281
     1
  3
A0
350
194E
  3
A1
350
194F
  3
A2
350
1950
  3
A3
350
1951
  3
A4
350
1952
  3
A5
350
1953
  3
A6
350
1954
  3
A7
350
1955
  3
A8
350
1956
  3
A9
350
1957
  3
B0
350
1958
  3
B1
350
1959
  3
B2
350
195A
  3
B3
350
195B
  3
B4
350
195C
  3
B5
350
195D
  3
B6
350
195E
  0
DICTIONARY
  5
1961
102
{ACAD_REACTORS
330
16D3
102
}
330
16D3
100
AcDbDictionary
281
     1
  3
Imperial24
350
1962
  0
DICTIONARY
  5
194B
102
{ACAD_REACTORS
330
16D3
102
}
330
16D3
100
AcDbDictionary
281
     1
  3
Standard
350
194C
  0
DICTIONARY
  5
1931
102
{ACAD_REACTORS
330
16D3
102
}
330
16D3
100
AcDbDictionary
281
     1
  3
2dWireframe
350
1937
  3
Basic
350
1936
  3
Brighten
350
193D
  3
ColorChange
350
1941
  3
Conceptual
350
193A
  3
Dim
350
193C
  3
EdgeColorOff
350
1949
  3
Facepattern
350
1940
  3
Flat
350
1932
  3
FlatWithEdges
350
1933
  3
Gouraud
350
1934
  3
GouraudWithEdges
350
1935
  3
Hidden
350
1939
  3
JitterOff
350
1947
  3
Linepattern
350
193F
  3
OverhangOff
350
1948
  3
Realistic
350
193B
  3
Shaded
350
1946
  3
Shaded with edges
350
1945
  3
Shades of Gray
350
1942
  3
Sketchy
350
1943
  3
Thicken
350
193E
  3
Wireframe
350
1938
  3
X-Ray
350
1944
  0
XRECORD
  5
1986
102
{ACAD_REACTORS
330
16D3
102
}
330
16D3
100
AcDbXrecord
280
     1
 90
        1
330
194C
  0
DICTIONARY
  5
1979
102
{ACAD_REACTORS
330
16D3
102
}
330
16D3
100
AcDbDictionary
281
     1
  3
CANNOSCALE
350
197E
  3
CMLEADERSTYLE
350
197B
  3
CTABLESTYLE
350
197A
  3
CVIEWDETAILSTYLE
350
197C
  3
CVIEWSECTIONSTYLE
350
197D
  3
DIMASSOC
350
1981
  3
INDEXCTL
350
1980
  3
SORTENTS
350
197F
  3
XCLIPFRAME
350
1982
  0
XRECORD
  5
1987
102
{ACAD_REACTORS
330
16D3
102
}
330
16D3
100
AcDbXrecord
280
     1
  1
DWGPROPS COOKIE
  2

  3

  4

  6

  7

  8
Yoshitsune
  9

300
=
301
=
302
=
303
=
304
=
305
=
306
=
307
=
308
=
309
=
 40
0.0709431828703704
 41
2451649.366452998
 42
2457192.601535926
  1

 90
        0
  0
XRECORD
  5
196A
102
{ACAD_REACTORS
330
1969
102
}
330
1969
100
AcDbXrecord
280
     1
290
     1
  0
XRECORD
  5
196C
102
{ACAD_REACTORS
330
196B
102
}
330
196B
100
AcDbXrecord
280
     1
290
     1
  0
XRECORD
  5
196E
102
{ACAD_REACTORS
330
196D
102
}
330
196D
100
AcDbXrecord
280
     1
290
     1
  0
XRECORD
  5
1970
102
{ACAD_REACTORS
330
196F
102
}
330
196F
100
AcDbXrecord
280
     1
290
     1
  0
XRECORD
  5
1972
102
{ACAD_REACTORS
330
1971
102
}
330
1971
100
AcDbXrecord
280
     1
290
     1
  0
XRECORD
  5
1974
102
{ACAD_REACTORS
330
1973
102
}
330
1973
100
AcDbXrecord
280
     1
290
     1
  0
XRECORD
  5
1976
102
{ACAD_REACTORS
330
1975
102
}
330
1975
100
AcDbXrecord
280
     1
290
     1
  0
XRECORD
  5
1978
102
{ACAD_REACTORS
330
1977
102
}
330
1977
100
AcDbXrecord
280
     1
290
     1
  0
XRECORD
  5
1912
102
{ACAD_REACTORS
330
1911
102
}
330
1911
100
AcDbXrecord
280
     1
340
16E5
  0
XRECORD
  5
1910
102
{ACAD_REACTORS
330
190F
102
}
330
190F
100
AcDbXrecord
280
     1
340
16E1
  0
ACDBDETAILVIEWSTYLE
  5
1964
102
{ACAD_XDICTIONARY
360
19BF
102
}
102
{ACAD_REACTORS
330
1963
102
}
330
1963
100
AcDbModelDocViewStyle
 70
     0
  3
Imperial24
290
     0
100
AcDbDetailViewStyle
 70
     0
 71
     0
 90
        3
 71
     1
340
16D8
 40
0.24
340
0
 40
0.24
300

 40
0.36
280
     3
 71
     2
340
16DC
 90
       25
 71
     3
340
16D8
 40
0.24
 90
        1
 40
0.75
 90
        1
300
%<\AcVar ViewType \f "%tc1">% %<\AcVar ViewDetailId>%\PSCALE %<\AcVar ViewScale \f "%sn">%
 71
     4
340
16DC
 90
       25
340
16DC
 90
       25
280
     0
  0
LAYOUT
  5
1965
102
{ACAD_XDICTIONARY
360
19C1
102
}
102
{ACAD_REACTORS
330
16E0
102
}
330
16E0
100
AcDbPlotSettings
  1

  2
Canon LBP9100C
  4

  6

 40
0.0
 41
0.0
 42
0.0
 43
0.0
 44
0.0
 45
0.0
 46
0.0
 47
0.0
 48
0.0
 49
0.0
140
0.0
141
0.0
142
1.0
143
1.0
 70
  1712
 72
     0
 73
     0
 74
     0
  7

 75
     0
147
1.0
148
0.0
149
0.0
100
AcDbLayout
  1
Model
 70
     1
 71
     0
 10
0.0
 20
0.0
 11
12.0
 21
9.0
 12
0.0
 22
0.0
 32
0.0
 14
0.0
 24
0.0
 34
0.0
 15
0.0
 25
0.0
 35
0.0
146
0.0
 13
0.0
 23
0.0
 33
0.0
 16
1.0
 26
0.0
 36
0.0
 17
0.0
 27
1.0
 37
0.0
 76
     0
330
16E5
331
190E
  0
LAYOUT
  5
1966
102
{ACAD_XDICTIONARY
360
19C3
102
}
102
{ACAD_REACTORS
330
16E0
102
}
330
16E0
100
AcDbPlotSettings
  1

  2
Canon LBP9100C
  4

  6

 40
0.0
 41
0.0
 42
0.0
 43
0.0
 44
0.0
 45
0.0
 46
0.0
 47
0.0
 48
0.0
 49
0.0
140
0.0
141
0.0
142
1.0
143
1.0
 70
   688
 72
     0
 73
     0
 74
     5
  7

 75
    16
147
1.0
148
0.0
149
0.0
100
AcDbLayout
  1
レイアウト1
 70
     1
 71
     1
 10
0.0
 20
0.0
 11
420.0
 21
297.0
 12
0.0
 22
0.0
 32
0.0
 14
1.000000000000000E+20
 24
1.000000000000000E+20
 34
1.000000000000000E+20
 15
-1.000000000000000E+20
 25
-1.000000000000000E+20
 35
-1.000000000000000E+20
146
0.0
 13
0.0
 23
0.0
 33
0.0
 16
1.0
 26
0.0
 36
0.0
 17
0.0
 27
1.0
 37
0.0
 76
     0
330
16E1
  0
MATERIAL
  5
1921
102
{ACAD_XDICTIONARY
360
1922
102
}
102
{ACAD_REACTORS
330
1918
102
}
330
1918
100
AcDbMaterial
  1
ByBlock
 72
     0
 43
0.0208333333333333
 43
0.0
 43
0.0
 43
0.0
 43
0.0
 43
0.0208333333333333
 43
0.0
 43
0.0
 43
0.0
 43
0.0
 43
1.0
 43
0.0
 43
0.0
 43
0.0
 43
0.0
 43
1.0
 77
     0
 47
0.0208333333333333
 47
0.0
 47
0.0
 47
0.0
 47
0.0
 47
0.0208333333333333
 47
0.0
 47
0.0
 47
0.0
 47
0.0
 47
1.0
 47
0.0
 47
0.0
 47
0.0
 47
0.0
 47
1.0
171
     0
 49
0.0208333333333333
 49
0.0
 49
0.0
 49
0.0
 49
0.0
 49
0.0208333333333333
 49
0.0
 49
0.0
 49
0.0
 49
0.0
 49
1.0
 49
0.0
 49
0.0
 49
0.0
 49
0.0
 49
1.0
175
     0
142
0.0208333333333333
142
0.0
142
0.0
142
0.0
142
0.0
142
0.0208333333333333
142
0.0
142
0.0
142
0.0
142
0.0
142
1.0
142
0.0
142
0.0
142
0.0
142
0.0
142
1.0
179
     0
144
0.0208333333333333
144
0.0
144
0.0
144
0.0
144
0.0
144
0.0208333333333333
144
0.0
144
0.0
144
0.0
144
0.0
144
1.0
144
0.0
144
0.0
144
0.0
144
0.0
144
1.0
147
0.0208333333333333
147
0.0
147
0.0
147
0.0
147
0.0
147
0.0208333333333333
147
0.0
147
0.0
147
0.0
147
0.0
147
1.0
147
0.0
147
0.0
147
0.0
147
0.0
147
1.0
  0
MATERIAL
  5
1919
102
{ACAD_XDICTIONARY
360
191A
102
}
102
{ACAD_REACTORS
330
1918
102
}
330
1918
100
AcDbMaterial
  1
ByLayer
 72
     0
 43
0.0208333333333333
 43
0.0
 43
0.0
 43
0.0
 43
0.0
 43
0.0208333333333333
 43
0.0
 43
0.0
 43
0.0
 43
0.0
 43
1.0
 43
0.0
 43
0.0
 43
0.0
 43
0.0
 43
1.0
 77
     0
 47
0.0208333333333333
 47
0.0
 47
0.0
 47
0.0
 47
0.0
 47
0.0208333333333333
 47
0.0
 47
0.0
 47
0.0
 47
0.0
 47
1.0
 47
0.0
 47
0.0
 47
0.0
 47
0.0
 47
1.0
171
     0
 49
0.0208333333333333
 49
0.0
 49
0.0
 49
0.0
 49
0.0
 49
0.0208333333333333
 49
0.0
 49
0.0
 49
0.0
 49
0.0
 49
1.0
 49
0.0
 49
0.0
 49
0.0
 49
0.0
 49
1.0
175
     0
142
0.0208333333333333
142
0.0
142
0.0
142
0.0
142
0.0
142
0.0208333333333333
142
0.0
142
0.0
142
0.0
142
0.0
142
1.0
142
0.0
142
0.0
142
0.0
142
0.0
142
1.0
179
     0
144
0.0208333333333333
144
0.0
144
0.0
144
0.0
144
0.0
144
0.0208333333333333
144
0.0
144
0.0
144
0.0
144
0.0
144
1.0
144
0.0
144
0.0
144
0.0
144
0.0
144
1.0
147
0.0208333333333333
147
0.0
147
0.0
147
0.0
147
0.0
147
0.0208333333333333
147
0.0
147
0.0
147
0.0
147
0.0
147
1.0
147
0.0
147
0.0
147
0.0
147
0.0
147
1.0
  0
MATERIAL
  5
1929
102
{ACAD_XDICTIONARY
360
192A
102
}
102
{ACAD_REACTORS
330
1918
102
}
330
1918
100
AcDbMaterial
  1
Global
 72
     0
 43
0.0208333333333333
 43
0.0
 43
0.0
 43
0.0
 43
0.0
 43
0.0208333333333333
 43
0.0
 43
0.0
 43
0.0
 43
0.0
 43
1.0
 43
0.0
 43
0.0
 43
0.0
 43
0.0
 43
1.0
 77
     0
 47
0.0208333333333333
 47
0.0
 47
0.0
 47
0.0
 47
0.0
 47
0.0208333333333333
 47
0.0
 47
0.0
 47
0.0
 47
0.0
 47
1.0
 47
0.0
 47
0.0
 47
0.0
 47
0.0
 47
1.0
171
     0
 49
0.0208333333333333
 49
0.0
 49
0.0
 49
0.0
 49
0.0
 49
0.0208333333333333
 49
0.0
 49
0.0
 49
0.0
 49
0.0
 49
1.0
 49
0.0
 49
0.0
 49
0.0
 49
0.0
 49
1.0
175
     0
142
0.0208333333333333
142
0.0
142
0.0
142
0.0
142
0.0
142
0.0208333333333333
142
0.0
142
0.0
142
0.0
142
0.0
142
1.0
142
0.0
142
0.0
142
0.0
142
0.0
142
1.0
179
     0
144
0.0208333333333333
144
0.0
144
0.0
144
0.0
144
0.0
144
0.0208333333333333
144
0.0
144
0.0
144
0.0
144
0.0
144
1.0
144
0.0
144
0.0
144
0.0
144
0.0
144
1.0
147
0.0208333333333333
147
0.0
147
0.0
147
0.0
147
0.0
147
0.0208333333333333
147
0.0
147
0.0
147
0.0
147
0.0
147
1.0
147
0.0
147
0.0
147
0.0
147
0.0
147
1.0
  0
MLEADERSTYLE
  5
1960
102
{ACAD_REACTORS
330
195F
102
}
330
195F
100
AcDbMLeaderStyle
170
     2
171
     1
172
     0
 90
        2
 40
0.0
 41
0.0
173
     1
 91
-1056964608
340
16DA
 92
       -2
290
     1
 42
0.09
291
     1
 43
0.36
  3
Standard
 44
0.18
300

342
16D8
174
     1
178
     6
175
     1
176
     0
 93
-1056964608
 45
0.18
292
     0
297
     0
 46
0.18
 94
-1056964608
 47
1.0
 49
1.0
140
1.0
293
     1
141
0.0
294
     1
177
     0
142
1.0
295
     0
296
     0
143
0.125
1001
ACAD_MLEADERVER
1070
     2
  0
MLINESTYLE
  5
16DE
102
{ACAD_REACTORS
330
16DD
102
}
330
16DD
100
AcDbMlineStyle
  2
STANDARD
 70
     0
  3

 62
   256
 51
90.0
 52
90.0
 71
     2
 49
0.5
 62
   256
  6
BYLAYER
 49
-0.5
 62
   256
  6
BYLAYER
  0
ACDBPLACEHOLDER
  5
1917
102
{ACAD_REACTORS
330
1916
102
}
330
1916
  0
SCALE
  5
194E
102
{ACAD_REACTORS
330
194D
102
}
330
194D
100
AcDbScale
 70
     0
300
1:1
140
1.0
141
1.0
290
     1
  0
SCALE
  5
194F
102
{ACAD_REACTORS
330
194D
102
}
330
194D
100
AcDbScale
 70
     0
300
1/128" = 1'-0"
140
0.0078125
141
12.0
290
     0
  0
SCALE
  5
1950
102
{ACAD_REACTORS
330
194D
102
}
330
194D
100
AcDbScale
 70
     0
300
1/64" = 1'-0"
140
0.015625
141
12.0
290
     0
  0
SCALE
  5
1951
102
{ACAD_REACTORS
330
194D
102
}
330
194D
100
AcDbScale
 70
     0
300
1/32" = 1'-0"
140
0.03125
141
12.0
290
     0
  0
SCALE
  5
1952
102
{ACAD_REACTORS
330
194D
102
}
330
194D
100
AcDbScale
 70
     0
300
1/16" = 1'-0"
140
0.0625
141
12.0
290
     0
  0
SCALE
  5
1953
102
{ACAD_REACTORS
330
194D
102
}
330
194D
100
AcDbScale
 70
     0
300
3/32" = 1'-0"
140
0.09375
141
12.0
290
     0
  0
SCALE
  5
1954
102
{ACAD_REACTORS
330
194D
102
}
330
194D
100
AcDbScale
 70
     0
300
1/8" = 1'-0"
140
0.125
141
12.0
290
     0
  0
SCALE
  5
1955
102
{ACAD_REACTORS
330
194D
102
}
330
194D
100
AcDbScale
 70
     0
300
3/16" = 1'-0"
140
0.1875
141
12.0
290
     0
  0
SCALE
  5
1956
102
{ACAD_REACTORS
330
194D
102
}
330
194D
100
AcDbScale
 70
     0
300
1/4" = 1'-0"
140
0.25
141
12.0
290
     0
  0
SCALE
  5
1957
102
{ACAD_REACTORS
330
194D
102
}
330
194D
100
AcDbScale
 70
     0
300
3/8" = 1'-0"
140
0.375
141
12.0
290
     0
  0
SCALE
  5
1958
102
{ACAD_REACTORS
330
194D
102
}
330
194D
100
AcDbScale
 70
     0
300
1/2" = 1'-0"
140
0.5
141
12.0
290
     0
  0
SCALE
  5
1959
102
{ACAD_REACTORS
330
194D
102
}
330
194D
100
AcDbScale
 70
     0
300
3/4" = 1'-0"
140
0.75
141
12.0
290
     0
  0
SCALE
  5
195A
102
{ACAD_REACTORS
330
194D
102
}
330
194D
100
AcDbScale
 70
     0
300
1" = 1'-0"
140
1.0
141
12.0
290
     0
  0
SCALE
  5
195B
102
{ACAD_REACTORS
330
194D
102
}
330
194D
100
AcDbScale
 70
     0
300
1-1/2" = 1'-0"
140
1.5
141
12.0
290
     0
  0
SCALE
  5
195C
102
{ACAD_REACTORS
330
194D
102
}
330
194D
100
AcDbScale
 70
     0
300
3" = 1'-0"
140
3.0
141
12.0
290
     0
  0
SCALE
  5
195D
102
{ACAD_REACTORS
330
194D
102
}
330
194D
100
AcDbScale
 70
     0
300
6" = 1'-0"
140
6.0
141
12.0
290
     0
  0
SCALE
  5
195E
102
{ACAD_REACTORS
330
194D
102
}
330
194D
100
AcDbScale
 70
     0
300
1'-0" = 1'-0"
140
12.0
141
12.0
290
     0
  0
ACDBSECTIONVIEWSTYLE
  5
1962
102
{ACAD_XDICTIONARY
360
19BD
102
}
102
{ACAD_REACTORS
330
1961
102
}
330
1961
100
AcDbModelDocViewStyle
 70
     0
  3
Imperial24
290
     0
100
AcDbSectionViewStyle
 70
     0
 71
     0
 90
       78
 71
     1
340
16D8
 40
0.24
340
0
340
0
 40
0.24
300
I, O, Q, S, X, Z
 40
0.48
 90
        3
 40
0.18
 90
        1
 71
     2
340
16DC
 90
       25
340
16DC
 90
       50
 40
0.24
 40
0.0
 40
0.24
 71
     3
340
16D8
 40
0.24
 90
        1
 40
0.75
 90
        1
300
%<\AcVar ViewType \f "%tc1">% %<\AcVar ViewSectionStartId>%-%<\AcVar ViewSectionEndId>%\PSCALE %<\AcVar ViewScale \f "%sn">%
 71
     4
300
ANSI31
 40
1.0
 90
        0
290
     0
290
     0
 90
        6
 40
0.0
 40
1.570796326794896
 40
0.2617993877991494
 40
1.308996938995747
 40
-0.2617993877991494
 40
1.832595714594046
  0
TABLESTYLE
  5
194C
102
{ACAD_XDICTIONARY
360
1984
102
}
102
{ACAD_REACTORS
330
194B
102
}
330
194B
100
AcDbTableStyle
  3
Standard
 70
     0
 71
     0
 40
0.06
 41
0.06
280
     0
281
     0
  7
STANDARD
140
0.18
170
     2
 62
     0
 63
     7
283
     0
274
    -2
284
     1
 64
     0
275
    -2
285
     1
 65
     0
276
    -2
286
     1
 66
     0
277
    -2
287
     1
 67
     0
278
    -2
288
     1
 68
     0
279
    -2
289
     1
 69
     0
  7
STANDARD
140
0.25
170
     5
 62
     0
 63
     7
283
     0
274
    -2
284
     1
 64
     0
275
    -2
285
     1
 65
     0
276
    -2
286
     1
 66
     0
277
    -2
287
     1
 67
     0
278
    -2
288
     1
 68
     0
279
    -2
289
     1
 69
     0
  7
STANDARD
140
0.18
170
     5
 62
     0
 63
     7
283
     0
274
    -2
284
     1
 64
     0
275
    -2
285
     1
 65
     0
276
    -2
286
     1
 66
     0
277
    -2
287
     1
 67
     0
278
    -2
288
     1
 68
     0
279
    -2
289
     1
 69
     0
  0
VISUALSTYLE
  5
1937
102
{ACAD_XDICTIONARY
360
1995
102
}
102
{ACAD_REACTORS
330
1931
102
}
330
1931
100
AcDbVisualStyle
  2
2dWireframe
 70
     4
 71
     0
 72
     2
 73
     0
 90
        0
 40
-0.6
 41
-30.0
 62
     5
 63
     7
 74
     1
 91
        4
 64
     7
 65
   257
 75
     1
175
     1
 42
1.0
 92
        0
 66
   257
 43
1.0
 76
     1
 77
     6
 78
     2
 67
     7
 79
     5
170
     0
171
     0
290
     0
174
     0
 93
        1
 44
0.0
173
     0
291
     0
 45
0.0
1001
ACAD
1000
AcDbSavedByObjectVersion
1070
     0
  0
VISUALSTYLE
  5
1936
102
{ACAD_XDICTIONARY
360
1993
102
}
102
{ACAD_REACTORS
330
1931
102
}
330
1931
100
AcDbVisualStyle
  2
Basic
 70
     7
 71
     1
 72
     0
 73
     1
 90
        0
 40
-0.6
 41
-30.0
 62
     5
 63
     7
 74
     0
 91
        4
 64
     7
 65
   257
 75
     1
175
     1
 42
1.0
 92
        8
 66
     7
 43
1.0
 76
     1
 77
     6
 78
     2
 67
     7
 79
     5
170
     0
171
     0
290
     0
174
     0
 93
        1
 44
0.0
173
     0
291
     1
 45
0.0
1001
ACAD
1000
AcDbSavedByObjectVersion
1070
     0
  0
VISUALSTYLE
  5
193D
102
{ACAD_XDICTIONARY
360
19A1
102
}
102
{ACAD_REACTORS
330
1931
102
}
330
1931
100
AcDbVisualStyle
  2
Brighten
 70
    12
 71
     2
 72
     2
 73
     0
 90
        0
 40
-0.6
 41
-30.0
 62
     5
 63
     7
 74
     1
 91
        4
 64
     7
 65
   257
 75
     1
175
     1
 42
1.0
 92
        8
 66
     7
 43
1.0
 76
     1
 77
     6
 78
     2
 67
     7
 79
     5
170
     0
171
     0
290
     0
174
     0
 93
        1
 44
50.0
173
     0
291
     1
 45
0.0
1001
ACAD
1000
AcDbSavedByObjectVersion
1070
     0
  0
VISUALSTYLE
  5
1941
102
{ACAD_XDICTIONARY
360
19A9
102
}
102
{ACAD_REACTORS
330
1931
102
}
330
1931
100
AcDbVisualStyle
  2
ColorChange
 70
    16
 71
     2
 72
     2
 73
     3
 90
        0
 40
-0.6
 41
-30.0
 62
     5
 63
     8
 74
     1
 91
        4
 64
     7
 65
   257
 75
     1
175
     1
 42
1.0
 92
        8
 66
     8
 43
1.0
 76
     1
 77
     6
 78
     2
 67
     7
 79
     5
170
     0
171
     0
290
     0
174
     0
 93
        1
 44
0.0
173
     0
291
     1
 45
0.0
1001
ACAD
1000
AcDbSavedByObjectVersion
1070
     0
  0
VISUALSTYLE
  5
193A
102
{ACAD_XDICTIONARY
360
199B
102
}
102
{ACAD_REACTORS
330
1931
102
}
330
1931
100
AcDbVisualStyle
  2
Conceptual
 70
     9
 71
     3
 72
     2
 73
     0
 90
        0
 40
-0.6
 41
-30.0
 62
     5
 63
     7
 74
     2
 91
        2
 64
     7
 65
   257
 75
     1
175
     1
 42
179.0
 92
        8
 66
     7
 43
1.0
 76
     1
 77
     6
 78
     2
 67
     7
 79
     3
170
     0
171
     0
290
     0
174
     0
 93
        1
 44
0.0
173
     0
291
     0
 45
0.0
1001
ACAD
1000
AcDbSavedByObjectVersion
1070
     0
  0
VISUALSTYLE
  5
193C
102
{ACAD_XDICTIONARY
360
199F
102
}
102
{ACAD_REACTORS
330
1931
102
}
330
1931
100
AcDbVisualStyle
  2
Dim
 70
    11
 71
     2
 72
     2
 73
     0
 90
        0
 40
-0.6
 41
-30.0
 62
     5
 63
     7
 74
     1
 91
        4
 64
     7
 65
   257
 75
     1
175
     1
 42
1.0
 92
        8
 66
     7
 43
1.0
 76
     1
 77
     6
 78
     2
 67
     7
 79
     5
170
     0
171
     0
290
     0
174
     0
 93
        1
 44
-50.0
173
     0
291
     1
 45
0.0
1001
ACAD
1000
AcDbSavedByObjectVersion
1070
     0
  0
VISUALSTYLE
  5
1949
102
{ACAD_XDICTIONARY
360
19B9
102
}
102
{ACAD_REACTORS
330
1931
102
}
330
1931
100
AcDbVisualStyle
  2
EdgeColorOff
 70
    22
 71
     2
 72
     2
 73
     0
 90
        0
 40
-0.6
 41
-30.0
 62
     5
 63
     7
 74
     1
 91
        4
 64
     7
 65
   257
 75
     1
175
     1
 42
1.0
 92
        8
 66
     7
 43
1.0
 76
     1
 77
     6
 78
     2
 67
     7
 79
     5
170
     0
171
     0
290
     0
174
     0
 93
        1
 44
0.0
173
     0
291
     1
 45
0.0
1001
ACAD
1000
AcDbSavedByObjectVersion
1070
     0
  0
VISUALSTYLE
  5
1940
102
{ACAD_XDICTIONARY
360
19A7
102
}
102
{ACAD_REACTORS
330
1931
102
}
330
1931
100
AcDbVisualStyle
  2
Facepattern
 70
    15
 71
     2
 72
     2
 73
     0
 90
        0
 40
-0.6
 41
-30.0
 62
     5
 63
     7
 74
     1
 91
        4
 64
     7
 65
   257
 75
     1
175
     1
 42
1.0
 92
        8
 66
     7
 43
1.0
 76
     1
 77
     6
 78
     2
 67
     7
 79
     5
170
     0
171
     0
290
     0
174
     0
 93
        1
 44
0.0
173
     0
291
     1
 45
0.0
1001
ACAD
1000
AcDbSavedByObjectVersion
1070
     0
  0
VISUALSTYLE
  5
1932
102
{ACAD_XDICTIONARY
360
198B
102
}
102
{ACAD_REACTORS
330
1931
102
}
330
1931
100
AcDbVisualStyle
  2
Flat
 70
     0
 71
     2
 72
     1
 73
     1
 90
        2
 40
-0.6
 41
30.0
 62
     5
 63
     7
 74
     0
 91
        0
 64
     7
 65
   257
 75
     1
175
     1
 42
1.0
 92
        8
 66
     7
 43
1.0
 76
     1
 77
     6
 78
     2
 67
     7
 79
     5
170
     0
171
     0
290
     0
174
     0
 93
       13
 44
0.0
173
     0
291
     1
 45
0.0
1001
ACAD
1000
AcDbSavedByObjectVersion
1070
     0
  0
VISUALSTYLE
  5
1933
102
{ACAD_XDICTIONARY
360
198D
102
}
102
{ACAD_REACTORS
330
1931
102
}
330
1931
100
AcDbVisualStyle
  2
FlatWithEdges
 70
     1
 71
     2
 72
     1
 73
     1
 90
        2
 40
-0.6
 41
30.0
 62
     5
 63
     7
 74
     1
 91
        0
 64
     7
 65
   257
 75
     1
175
     1
 42
1.0
 92
        0
 66
   257
 43
1.0
 76
     1
 77
     6
 78
     2
 67
     7
 79
     5
170
     0
171
     0
290
     0
174
     0
 93
       13
 44
0.0
173
     0
291
     1
 45
0.0
1001
ACAD
1000
AcDbSavedByObjectVersion
1070
     0
  0
VISUALSTYLE
  5
1934
102
{ACAD_XDICTIONARY
360
198F
102
}
102
{ACAD_REACTORS
330
1931
102
}
330
1931
100
AcDbVisualStyle
  2
Gouraud
 70
     2
 71
     2
 72
     2
 73
     1
 90
        2
 40
-0.6
 41
30.0
 62
     5
 63
     7
 74
     0
 91
        0
 64
     7
 65
   257
 75
     1
175
     1
 42
1.0
 92
        0
 66
     7
 43
1.0
 76
     1
 77
     6
 78
     2
 67
     7
 79
     5
170
     0
171
     0
290
     0
174
     0
 93
       13
 44
0.0
173
     0
291
     1
 45
0.0
1001
ACAD
1000
AcDbSavedByObjectVersion
1070
     0
  0
VISUALSTYLE
  5
1935
102
{ACAD_XDICTIONARY
360
1991
102
}
102
{ACAD_REACTORS
330
1931
102
}
330
1931
100
AcDbVisualStyle
  2
GouraudWithEdges
 70
     3
 71
     2
 72
     2
 73
     1
 90
        2
 40
-0.6
 41
30.0
 62
     5
 63
     7
 74
     1
 91
        0
 64
     7
 65
   257
 75
     1
175
     1
 42
1.0
 92
        0
 66
   257
 43
1.0
 76
     1
 77
     6
 78
     2
 67
     7
 79
     5
170
     0
171
     0
290
     0
174
     0
 93
       13
 44
0.0
173
     0
291
     1
 45
0.0
1001
ACAD
1000
AcDbSavedByObjectVersion
1070
     0
  0
VISUALSTYLE
  5
1939
102
{ACAD_XDICTIONARY
360
1999
102
}
102
{ACAD_REACTORS
330
1931
102
}
330
1931
100
AcDbVisualStyle
  2
Hidden
 70
     6
 71
     1
 72
     2
 73
     2
 90
        0
 40
-0.6
 41
-30.0
 62
     5
 63
     7
 74
     2
 91
        2
 64
     7
 65
   257
 75
     2
175
     1
 42
40.0
 92
        0
 66
   257
 43
1.0
 76
     1
 77
     6
 78
     2
 67
     7
 79
     3
170
     0
171
     0
290
     0
174
     0
 93
        1
 44
0.0
173
     0
291
     0
 45
0.0
1001
ACAD
1000
AcDbSavedByObjectVersion
1070
     0
  0
VISUALSTYLE
  5
1947
102
{ACAD_XDICTIONARY
360
19B5
102
}
102
{ACAD_REACTORS
330
1931
102
}
330
1931
100
AcDbVisualStyle
  2
JitterOff
 70
    20
 71
     2
 72
     2
 73
     0
 90
        0
 40
-0.6
 41
-30.0
 62
     5
 63
     7
 74
     1
 91
        4
 64
     7
 65
   257
 75
     1
175
     1
 42
1.0
 92
       10
 66
     7
 43
1.0
 76
     1
 77
     6
 78
     2
 67
     7
 79
     5
170
     0
171
     0
290
     0
174
     0
 93
        1
 44
0.0
173
     0
291
     1
 45
0.0
1001
ACAD
1000
AcDbSavedByObjectVersion
1070
     0
  0
VISUALSTYLE
  5
193F
102
{ACAD_XDICTIONARY
360
19A5
102
}
102
{ACAD_REACTORS
330
1931
102
}
330
1931
100
AcDbVisualStyle
  2
Linepattern
 70
    14
 71
     2
 72
     2
 73
     0
 90
        0
 40
-0.6
 41
-30.0
 62
     5
 63
     7
 74
     1
 91
        4
 64
     7
 65
   257
 75
     7
175
     7
 42
1.0
 92
        8
 66
     7
 43
1.0
 76
     1
 77
     6
 78
     2
 67
     7
 79
     5
170
     0
171
     0
290
     0
174
     0
 93
        1
 44
0.0
173
     0
291
     1
 45
0.0
1001
ACAD
1000
AcDbSavedByObjectVersion
1070
     0
  0
VISUALSTYLE
  5
1948
102
{ACAD_XDICTIONARY
360
19B7
102
}
102
{ACAD_REACTORS
330
1931
102
}
330
1931
100
AcDbVisualStyle
  2
OverhangOff
 70
    21
 71
     2
 72
     2
 73
     0
 90
        0
 40
-0.6
 41
-30.0
 62
     5
 63
     7
 74
     1
 91
        4
 64
     7
 65
   257
 75
     1
175
     1
 42
1.0
 92
        9
 66
     7
 43
1.0
 76
     1
 77
     6
 78
     2
 67
     7
 79
     5
170
     0
171
     0
290
     0
174
     0
 93
        1
 44
0.0
173
     0
291
     1
 45
0.0
1001
ACAD
1000
AcDbSavedByObjectVersion
1070
     0
  0
VISUALSTYLE
  5
193B
102
{ACAD_XDICTIONARY
360
199D
102
}
102
{ACAD_REACTORS
330
1931
102
}
330
1931
100
AcDbVisualStyle
  2
Realistic
 70
     8
 71
     2
 72
     3
 73
     0
 90
        2
 40
-0.6
 41
30.0
 62
     5
 63
     7
 74
     0
 91
        0
 64
     7
 65
   257
 75
     1
175
     1
 42
1.0
 92
        8
 66
   257
 43
1.0
 76
     1
 77
     6
 78
     2
 67
     7
 79
     3
170
     0
171
     0
290
     0
174
     0
 93
       13
 44
0.0
173
     0
291
     0
 45
0.0
1001
ACAD
1000
AcDbSavedByObjectVersion
1070
     0
  0
VISUALSTYLE
  5
1946
102
{ACAD_XDICTIONARY
360
19B3
102
}
102
{ACAD_REACTORS
330
1931
102
}
330
1931
100
AcDbVisualStyle
  2
Shaded
 70
    27
 71
     2
 72
     2
 73
     1
 90
        2
 40
-0.6
 41
30.0
 62
     5
 63
     7
 74
     0
 91
        4
 64
     7
 65
   257
 75
     1
175
     1
 42
1.0
 92
        8
 66
   257
 43
1.0
 76
     1
 77
     6
 78
     2
 67
     8
 79
     3
170
     0
171
     0
290
     0
174
     0
 93
        5
 44
0.0
173
     0
291
     0
 45
0.0
1001
ACAD
1000
AcDbSavedByObjectVersion
1070
     0
  0
VISUALSTYLE
  5
1945
102
{ACAD_XDICTIONARY
360
19B1
102
}
102
{ACAD_REACTORS
330
1931
102
}
330
1931
100
AcDbVisualStyle
  2
Shaded with edges
 70
    26
 71
     2
 72
     2
 73
     1
 90
        2
 40
-0.6
 41
30.0
 62
     5
 63
     7
 74
     1
 91
       10
 64
     7
 65
   257
 75
     2
175
     1
 42
1.0
 92
        8
 66
   257
 43
1.0
 76
     1
 77
     6
 78
     2
 67
     7
 79
     3
170
     0
171
     0
290
     0
174
     0
 93
        5
 44
0.0
173
     0
291
     0
 45
0.0
1001
ACAD
1000
AcDbSavedByObjectVersion
1070
     0
  0
VISUALSTYLE
  5
1942
102
{ACAD_XDICTIONARY
360
19AB
102
}
102
{ACAD_REACTORS
330
1931
102
}
330
1931
100
AcDbVisualStyle
  2
Shades of Gray
 70
    23
 71
     2
 72
     2
 73
     3
 90
        0
 40
-0.6
 41
-30.0
 62
     5
 63
     7
 74
     2
 91
        2
 64
     7
 65
     7
 75
     1
175
     1
 42
40.0
 92
        8
 66
     7
 43
1.0
 76
     1
 77
     6
 78
     2
 67
     7
 79
     3
170
     0
171
     0
290
     0
174
     0
 93
        1
 44
0.0
173
     0
291
     0
 45
0.0
1001
ACAD
1000
AcDbSavedByObjectVersion
1070
     0
  0
VISUALSTYLE
  5
1943
102
{ACAD_XDICTIONARY
360
19AD
102
}
102
{ACAD_REACTORS
330
1931
102
}
330
1931
100
AcDbVisualStyle
  2
Sketchy
 70
    24
 71
     1
 72
     2
 73
     2
 90
        0
 40
-0.6
 41
-30.0
 62
     5
 63
     7
 74
     2
 91
        2
 64
     7
 65
     7
 75
     1
175
     1
 42
40.0
 92
       11
 66
     7
 43
1.0
 76
     1
 77
     6
 78
     2
 67
     7
 79
     6
170
     0
171
     0
290
     0
174
     0
 93
        1
 44
0.0
173
     0
291
     0
 45
0.0
1001
ACAD
1000
AcDbSavedByObjectVersion
1070
     0
  0
VISUALSTYLE
  5
193E
102
{ACAD_XDICTIONARY
360
19A3
102
}
102
{ACAD_REACTORS
330
1931
102
}
330
1931
100
AcDbVisualStyle
  2
Thicken
 70
    13
 71
     2
 72
     2
 73
     0
 90
        0
 40
-0.6
 41
-30.0
 62
     5
 63
     7
 74
     1
 91
        4
 64
     7
 65
   257
 75
     1
175
     1
 42
1.0
 92
       12
 66
     7
 43
1.0
 76
     1
 77
     6
 78
     2
 67
     7
 79
     5
170
     0
171
     0
290
     0
174
     0
 93
        1
 44
0.0
173
     0
291
     1
 45
0.0
1001
ACAD
1000
AcDbSavedByObjectVersion
1070
     0
  0
VISUALSTYLE
  5
1938
102
{ACAD_XDICTIONARY
360
1997
102
}
102
{ACAD_REACTORS
330
1931
102
}
330
1931
100
AcDbVisualStyle
  2
Wireframe
 70
     5
 71
     0
 72
     2
 73
     0
 90
        0
 40
-0.6
 41
-30.0
 62
     5
 63
     7
 74
     1
 91
        4
 64
     7
 65
   257
 75
     1
175
     1
 42
1.0
 92
        0
 66
   257
 43
1.0
 76
     1
 77
     6
 78
     2
 67
     7
 79
     3
170
     0
171
     0
290
     0
174
     0
 93
        1
 44
0.0
173
     0
291
     0
 45
0.0
1001
ACAD
1000
AcDbSavedByObjectVersion
1070
     0
  0
VISUALSTYLE
  5
1944
102
{ACAD_XDICTIONARY
360
19AF
102
}
102
{ACAD_REACTORS
330
1931
102
}
330
1931
100
AcDbVisualStyle
  2
X-Ray
 70
    25
 71
     2
 72
     2
 73
     1
 90
        1
 40
0.5
 41
-30.0
 62
     5
 63
     7
 74
     1
 91
        0
 64
     7
 65
   257
 75
     1
175
     1
 42
1.0
 92
        8
 66
     7
 43
1.0
 76
     1
 77
     6
 78
     2
 67
     7
 79
     3
170
     0
171
     0
290
     0
174
     0
 93
       13
 44
0.0
173
     0
291
     0
 45
0.0
1001
ACAD
1000
AcDbSavedByObjectVersion
1070
     0
  0
DICTIONARYVAR
  5
197E
102
{ACAD_REACTORS
330
1979
102
}
330
1979
100
DictionaryVariables
280
     0
  1
1:1
  0
DICTIONARYVAR
  5
197B
102
{ACAD_REACTORS
330
1979
102
}
330
1979
100
DictionaryVariables
280
     0
  1
STANDARD
  0
DICTIONARYVAR
  5
197A
102
{ACAD_REACTORS
330
1979
102
}
330
1979
100
DictionaryVariables
280
     0
  1
STANDARD
  0
DICTIONARYVAR
  5
197C
102
{ACAD_REACTORS
330
1979
102
}
330
1979
100
DictionaryVariables
280
     0
  1
Imperial24
  0
DICTIONARYVAR
  5
197D
102
{ACAD_REACTORS
330
1979
102
}
330
1979
100
DictionaryVariables
280
     0
  1
Imperial24
  0
DICTIONARYVAR
  5
1981
102
{ACAD_REACTORS
330
1979
102
}
330
1979
100
DictionaryVariables
280
     0
  1
1
  0
DICTIONARYVAR
  5
1980
102
{ACAD_REACTORS
330
1979
102
}
330
1979
100
DictionaryVariables
280
     0
  1
0
  0
DICTIONARYVAR
  5
197F
102
{ACAD_REACTORS
330
1979
102
}
330
1979
100
DictionaryVariables
280
     0
  1
127
  0
DICTIONARYVAR
  5
1982
102
{ACAD_REACTORS
330
1979
102
}
330
1979
100
DictionaryVariables
280
     0
  1
2
  0
DICTIONARY
  5
19BF
330
1964
100
AcDbDictionary
280
     1
281
     1
  3
ACAD_XREC_ROUNDTRIP
360
19C0
  0
DICTIONARY
  5
19C1
330
1965
100
AcDbDictionary
280
     1
281
     1
  3
ACAD_XREC_ROUNDTRIP
360
19C2
  0
DICTIONARY
  5
19C3
330
1966
100
AcDbDictionary
280
     1
281
     1
  3
ACAD_XREC_ROUNDTRIP
360
19C4
  0
DICTIONARY
  5
1922
330
1921
100
AcDbDictionary
280
     1
281
     1
  3
ACAD_XREC_ROUNDTRIP
360
1989
  3
BUMPTILE
360
1924
  3
DIFFUSETILE
360
1923
  3
OPACITYTILE
360
1927
  3
REFLECTIONTILE
360
1926
  3
REFRACTIONTILE
360
1928
  3
SPECULARTILE
360
1925
  0
DICTIONARY
  5
191A
330
1919
100
AcDbDictionary
280
     1
281
     1
  3
ACAD_XREC_ROUNDTRIP
360
1988
  3
BUMPTILE
360
191C
  3
DIFFUSETILE
360
191B
  3
OPACITYTILE
360
191F
  3
REFLECTIONTILE
360
191E
  3
REFRACTIONTILE
360
1920
  3
SPECULARTILE
360
191D
  0
DICTIONARY
  5
192A
330
1929
100
AcDbDictionary
280
     1
281
     1
  3
ACAD_XREC_ROUNDTRIP
360
198A
  3
BUMPTILE
360
192C
  3
DIFFUSETILE
360
192B
  3
OPACITYTILE
360
192F
  3
REFLECTIONTILE
360
192E
  3
REFRACTIONTILE
360
1930
  3
SPECULARTILE
360
192D
  0
DICTIONARY
  5
19BD
330
1962
100
AcDbDictionary
280
     1
281
     1
  3
ACAD_XREC_ROUNDTRIP
360
19BE
  0
DICTIONARY
  5
1984
330
194C
100
AcDbDictionary
280
     1
281
     1
  3
ACAD_ROUNDTRIP_2008_TABLESTYLE_CELLSTYLEMAP
360
1985
  3
ACAD_XREC_ROUNDTRIP
360
19BB
  0
DICTIONARY
  5
1995
330
1937
100
AcDbDictionary
280
     1
281
     1
  3
ACAD_XREC_ROUNDTRIP
360
1996
  0
DICTIONARY
  5
1993
330
1936
100
AcDbDictionary
280
     1
281
     1
  3
ACAD_XREC_ROUNDTRIP
360
1994
  0
DICTIONARY
  5
19A1
330
193D
100
AcDbDictionary
280
     1
281
     1
  3
ACAD_XREC_ROUNDTRIP
360
19A2
  0
DICTIONARY
  5
19A9
330
1941
100
AcDbDictionary
280
     1
281
     1
  3
ACAD_XREC_ROUNDTRIP
360
19AA
  0
DICTIONARY
  5
199B
330
193A
100
AcDbDictionary
280
     1
281
     1
  3
ACAD_XREC_ROUNDTRIP
360
199C
  0
DICTIONARY
  5
199F
330
193C
100
AcDbDictionary
280
     1
281
     1
  3
ACAD_XREC_ROUNDTRIP
360
19A0
  0
DICTIONARY
  5
19B9
330
1949
100
AcDbDictionary
280
     1
281
     1
  3
ACAD_XREC_ROUNDTRIP
360
19BA
  0
DICTIONARY
  5
19A7
330
1940
100
AcDbDictionary
280
     1
281
     1
  3
ACAD_XREC_ROUNDTRIP
360
19A8
  0
DICTIONARY
  5
198B
330
1932
100
AcDbDictionary
280
     1
281
     1
  3
ACAD_XREC_ROUNDTRIP
360
198C
  0
DICTIONARY
  5
198D
330
1933
100
AcDbDictionary
280
     1
281
     1
  3
ACAD_XREC_ROUNDTRIP
360
198E
  0
DICTIONARY
  5
198F
330
1934
100
AcDbDictionary
280
     1
281
     1
  3
ACAD_XREC_ROUNDTRIP
360
1990
  0
DICTIONARY
  5
1991
330
1935
100
AcDbDictionary
280
     1
281
     1
  3
ACAD_XREC_ROUNDTRIP
360
1992
  0
DICTIONARY
  5
1999
330
1939
100
AcDbDictionary
280
     1
281
     1
  3
ACAD_XREC_ROUNDTRIP
360
199A
  0
DICTIONARY
  5
19B5
330
1947
100
AcDbDictionary
280
     1
281
     1
  3
ACAD_XREC_ROUNDTRIP
360
19B6
  0
DICTIONARY
  5
19A5
330
193F
100
AcDbDictionary
280
     1
281
     1
  3
ACAD_XREC_ROUNDTRIP
360
19A6
  0
DICTIONARY
  5
19B7
330
1948
100
AcDbDictionary
280
     1
281
     1
  3
ACAD_XREC_ROUNDTRIP
360
19B8
  0
DICTIONARY
  5
199D
330
193B
100
AcDbDictionary
280
     1
281
     1
  3
ACAD_XREC_ROUNDTRIP
360
199E
  0
DICTIONARY
  5
19B3
330
1946
100
AcDbDictionary
280
     1
281
     1
  3
ACAD_XREC_ROUNDTRIP
360
19B4
  0
DICTIONARY
  5
19B1
330
1945
100
AcDbDictionary
280
     1
281
     1
  3
ACAD_XREC_ROUNDTRIP
360
19B2
  0
DICTIONARY
  5
19AB
330
1942
100
AcDbDictionary
280
     1
281
     1
  3
ACAD_XREC_ROUNDTRIP
360
19AC
  0
DICTIONARY
  5
19AD
330
1943
100
AcDbDictionary
280
     1
281
     1
  3
ACAD_XREC_ROUNDTRIP
360
19AE
  0
DICTIONARY
  5
19A3
330
193E
100
AcDbDictionary
280
     1
281
     1
  3
ACAD_XREC_ROUNDTRIP
360
19A4
  0
DICTIONARY
  5
1997
330
1938
100
AcDbDictionary
280
     1
281
     1
  3
ACAD_XREC_ROUNDTRIP
360
1998
  0
DICTIONARY
  5
19AF
330
1944
100
AcDbDictionary
280
     1
281
     1
  3
ACAD_XREC_ROUNDTRIP
360
19B0
  0
XRECORD
  5
19C0
102
{ACAD_REACTORS
330
19BF
102
}
330
19BF
100
AcDbXrecord
280
     1
102
DISPLAYNAME
  1
Imperial24
102
FLAGS
 90
        0
  0
XRECORD
  5
19C2
102
{ACAD_REACTORS
330
19C1
102
}
330
19C1
100
AcDbXrecord
280
     1
102
SHADEPLOT
 70
     0
102
SHADEPLOTRESLEVEL
 70
     2
102
SHADEPLOTCUSTOMDPI
 70
   300
  0
XRECORD
  5
19C4
102
{ACAD_REACTORS
330
19C3
102
}
330
19C3
100
AcDbXrecord
280
     1
102
SHADEPLOT
 70
     0
102
SHADEPLOTRESLEVEL
 70
     2
102
SHADEPLOTCUSTOMDPI
 70
   300
  0
XRECORD
  5
1989
102
{ACAD_REACTORS
330
1922
102
}
330
1922
100
AcDbXrecord
280
     1
102
MATERIAL
148
0.0
149
0.0
149
0.0
 93
        0
 94
      127
282
     0
 72
     0
 77
     0
171
     0
175
     0
179
     0
273
     0
  0
XRECORD
  5
1924
102
{ACAD_REACTORS
330
1922
102
}
330
1922
100
AcDbXrecord
280
     1
270
     1
271
     1
  0
XRECORD
  5
1923
102
{ACAD_REACTORS
330
1922
102
}
330
1922
100
AcDbXrecord
280
     1
270
     1
271
     1
  0
XRECORD
  5
1927
102
{ACAD_REACTORS
330
1922
102
}
330
1922
100
AcDbXrecord
280
     1
270
     1
271
     1
  0
XRECORD
  5
1926
102
{ACAD_REACTORS
330
1922
102
}
330
1922
100
AcDbXrecord
280
     1
270
     1
271
     1
  0
XRECORD
  5
1928
102
{ACAD_REACTORS
330
1922
102
}
330
1922
100
AcDbXrecord
280
     1
270
     1
271
     1
  0
XRECORD
  5
1925
102
{ACAD_REACTORS
330
1922
102
}
330
1922
100
AcDbXrecord
280
     1
270
     1
271
     1
  0
XRECORD
  5
1988
102
{ACAD_REACTORS
330
191A
102
}
330
191A
100
AcDbXrecord
280
     1
102
MATERIAL
148
0.0
149
0.0
149
0.0
 93
        0
 94
      127
282
     0
 72
     0
 77
     0
171
     0
175
     0
179
     0
273
     0
  0
XRECORD
  5
191C
102
{ACAD_REACTORS
330
191A
102
}
330
191A
100
AcDbXrecord
280
     1
270
     1
271
     1
  0
XRECORD
  5
191B
102
{ACAD_REACTORS
330
191A
102
}
330
191A
100
AcDbXrecord
280
     1
270
     1
271
     1
  0
XRECORD
  5
191F
102
{ACAD_REACTORS
330
191A
102
}
330
191A
100
AcDbXrecord
280
     1
270
     1
271
     1
  0
XRECORD
  5
191E
102
{ACAD_REACTORS
330
191A
102
}
330
191A
100
AcDbXrecord
280
     1
270
     1
271
     1
  0
XRECORD
  5
1920
102
{ACAD_REACTORS
330
191A
102
}
330
191A
100
AcDbXrecord
280
     1
270
     1
271
     1
  0
XRECORD
  5
191D
102
{ACAD_REACTORS
330
191A
102
}
330
191A
100
AcDbXrecord
280
     1
270
     1
271
     1
  0
XRECORD
  5
198A
102
{ACAD_REACTORS
330
192A
102
}
330
192A
100
AcDbXrecord
280
     1
102
MATERIAL
148
0.0
149
0.0
149
0.0
 93
        0
 94
      127
282
     0
 72
     0
 77
     0
171
     0
175
     0
179
     0
273
     0
  0
XRECORD
  5
192C
102
{ACAD_REACTORS
330
192A
102
}
330
192A
100
AcDbXrecord
280
     1
270
     1
271
     1
  0
XRECORD
  5
192B
102
{ACAD_REACTORS
330
192A
102
}
330
192A
100
AcDbXrecord
280
     1
270
     1
271
     1
  0
XRECORD
  5
192F
102
{ACAD_REACTORS
330
192A
102
}
330
192A
100
AcDbXrecord
280
     1
270
     1
271
     1
  0
XRECORD
  5
192E
102
{ACAD_REACTORS
330
192A
102
}
330
192A
100
AcDbXrecord
280
     1
270
     1
271
     1
  0
XRECORD
  5
1930
102
{ACAD_REACTORS
330
192A
102
}
330
192A
100
AcDbXrecord
280
     1
270
     1
271
     1
  0
XRECORD
  5
192D
102
{ACAD_REACTORS
330
192A
102
}
330
192A
100
AcDbXrecord
280
     1
270
     1
271
     1
  0
XRECORD
  5
19BE
102
{ACAD_REACTORS
330
19BD
102
}
330
19BD
100
AcDbXrecord
280
     1
102
DISPLAYNAME
  1
Imperial24
102
FLAGS
 90
        0
  0
CELLSTYLEMAP
  5
1985
102
{ACAD_REACTORS
330
1984
102
}
330
1984
100
AcDbCellStyleMap
 90
        3
300
CELLSTYLE
  1
TABLEFORMAT_BEGIN
 90
        5
170
     1
 91
        0
 92
    32768
 62
   257
 93
        1
300
CONTENTFORMAT
  1
CONTENTFORMAT_BEGIN
 90
        0
 91
        0
 92
      512
 93
        0
300

 40
0.0
140
1.0
 94
        5
 62
     0
340
16D8
144
0.25
309
CONTENTFORMAT_END
171
     0
 94
        0
309
TABLEFORMAT_END
  1
CELLSTYLE_BEGIN
 90
        1
 91
        1
300
_TITLE
309
CELLSTYLE_END
300
CELLSTYLE
  1
TABLEFORMAT_BEGIN
 90
        5
170
     1
 91
        0
 92
        0
 62
   257
 93
        1
300
CONTENTFORMAT
  1
CONTENTFORMAT_BEGIN
 90
        0
 91
        0
 92
      512
 93
        0
300

 40
0.0
140
1.0
 94
        5
 62
     0
340
16D8
144
0.18
309
CONTENTFORMAT_END
171
     0
 94
        0
309
TABLEFORMAT_END
  1
CELLSTYLE_BEGIN
 90
        2
 91
        1
300
_HEADER
309
CELLSTYLE_END
300
CELLSTYLE
  1
TABLEFORMAT_BEGIN
 90
        5
170
     1
 91
        0
 92
        0
 62
   257
 93
        1
300
CONTENTFORMAT
  1
CONTENTFORMAT_BEGIN
 90
        0
 91
        0
 92
      512
 93
        0
300

 40
0.0
140
1.0
 94
        2
 62
     0
340
16D8
144
0.18
309
CONTENTFORMAT_END
171
     0
 94
        0
309
TABLEFORMAT_END
  1
CELLSTYLE_BEGIN
 90
        3
 91
        2
300
_DATA
309
CELLSTYLE_END
  0
XRECORD
  5
19BB
102
{ACAD_REACTORS
330
1984
102
}
330
1984
100
AcDbXrecord
280
     1
102
ACAD_ROUNDTRIP_PRE2007_TABLESTYLE
 90
      512
 91
        0
  1

 92
      512
 93
        0
  2

 94
      512
 95
        0
  3

  0
XRECORD
  5
1996
102
{ACAD_REACTORS
330
1995
102
}
330
1995
100
AcDbXrecord
280
     1
102
RTVSPost2010Prop28
280
     1
102
RTVSPost2010PropOp28
 70
     1
102
RTVSPost2010Prop29
280
     1
102
RTVSPost2010PropOp29
 70
     1
102
RTVSPost2010Prop30
280
     0
102
RTVSPost2010PropOp30
 70
     1
102
RTVSPost2010Prop31
280
     0
102
RTVSPost2010PropOp31
 70
     1
102
RTVSPost2010Prop32
280
     0
102
RTVSPost2010PropOp32
 70
     1
102
RTVSPost2010Prop33
280
     0
102
RTVSPost2010PropOp33
 70
     1
102
RTVSPost2010Prop34
280
     0
102
RTVSPost2010PropOp34
 70
     1
102
RTVSPost2010Prop35
280
     0
102
RTVSPost2010PropOp35
 70
     1
102
RTVSPost2010Prop36
280
     0
102
RTVSPost2010PropOp36
 70
     1
102
RTVSPost2010Prop37
 90
       50
102
RTVSPost2010PropOp37
 70
     1
102
RTVSPost2010Prop38
140
0.0
102
RTVSPost2010PropOp38
 70
     1
102
RTVSPost2010Prop39
140
1.0
102
RTVSPost2010PropOp39
 70
     1
102
RTVSPost2010Prop40
 90
        0
102
RTVSPost2010PropOp40
 70
     1
102
RTVSPost2010Prop41ColorIndex
 90
       18
102
RTVSPost2010Prop41ColorRGB
 90
        0
102
RTVSPost2010PropOp41
 70
     1
102
RTVSPost2010Prop42
 90
       50
102
RTVSPost2010PropOp42
 70
     1
102
RTVSPost2010Prop43
 90
        3
102
RTVSPost2010PropOp43
 70
     1
102
RTVSPost2010Prop44ColorIndex
 90
        5
102
RTVSPost2010Prop44ColorRGB
 90
      255
102
RTVSPost2010PropOp44
 70
     1
102
RTVSPost2010Prop45
280
     0
102
RTVSPost2010PropOp45
 70
     1
102
RTVSPost2010Prop46
 90
       50
102
RTVSPost2010PropOp46
 70
     1
102
RTVSPost2010Prop47
 90
       50
102
RTVSPost2010PropOp47
 70
     1
102
RTVSPost2010Prop48
 90
       50
102
RTVSPost2010PropOp48
 70
     1
102
RTVSPost2010Prop49
280
     0
102
RTVSPost2010PropOp49
 70
     1
102
RTVSPost2010Prop50
 90
       50
102
RTVSPost2010PropOp50
 70
     1
102
RTVSPost2010Prop51ColorIndex
 90
      256
102
RTVSPost2010Prop51ColorRGB
 90
-16777216
102
RTVSPost2010PropOp51
 70
     0
102
RTVSPost2010Prop52
140
1.0
102
RTVSPost2010PropOp52
 70
     0
102
RTVSPost2010Prop53
 90
        2
102
RTVSPost2010PropOp53
 70
     1
102
RTVSPost2010Prop54
  1
strokes_ogs.tif
102
RTVSPost2010PropOp54
 70
     1
102
RTVSPost2010Prop55
280
     0
102
RTVSPost2010PropOp55
 70
     1
102
RTVSPost2010Prop56
140
1.0
102
RTVSPost2010PropOp56
 70
     1
102
RTVSPost2010Prop57
140
1.0
102
RTVSPost2010PropOp57
 70
     1
102
RTVSPropertyOp0
 70
     1
102
RTVSPropertyOp1
 70
     1
102
RTVSPropertyOp2
 70
     1
102
RTVSPropertyOp3
 70
     1
102
RTVSPropertyOp4
 70
     1
102
RTVSPropertyOp5
 70
     1
102
RTVSPropertyOp6
 70
     1
102
RTVSPropertyOp7
 70
     1
102
RTVSPropertyOp8
 70
     1
102
RTVSPropertyOp9
 70
     1
102
RTVSPropertyOp10
 70
     1
102
RTVSPropertyOp11
 70
     1
102
RTVSPropertyOp12
 70
     1
102
RTVSPropertyOp13
 70
     1
102
RTVSPropertyOp14
 70
     1
102
RTVSPropertyOp15
 70
     1
102
RTVSPropertyOp16
 70
     1
102
RTVSPropertyOp17
 70
     1
102
RTVSPropertyOp18
 70
     1
102
RTVSPropertyOp19
 70
     1
102
RTVSPropertyOp20
 70
     1
102
RTVSPropertyOp21
 70
     1
102
RTVSPropertyOp22
 70
     1
102
RTVSPropertyOp23
 70
     1
102
RTVSPropertyOp24
 70
     1
102
RTVSPropertyOp25
 70
     1
102
RTVSPropertyOp26
 70
     1
102
RTVSPropertyOp27
 70
     1
102
RTVSPropertyOp28
 70
     1
102
RTVSPropertyOp29
 70
     1
102
RTVSPropertyOp30
 70
     1
102
RTVSPropertyOp31
 70
     1
102
RTVSPropertyOp32
 70
     1
102
RTVSPropertyOp33
 70
     1
102
RTVSPropertyOp34
 70
     1
102
RTVSPropertyOp35
 70
     1
102
RTVSPropertyOp36
 70
     1
102
RTVSPropertyOp37
 70
     1
102
RTVSPropertyOp38
 70
     1
102
RTVSPropertyOp39
 70
     1
102
RTVSPropertyOp40
 70
     1
102
RTVSPropertyOp41
 70
     1
102
RTVSPropertyOp42
 70
     1
102
RTVSPropertyOp43
 70
     1
102
RTVSPropertyOp44
 70
     1
102
RTVSPropertyOp45
 70
     1
102
RTVSPropertyOp46
 70
     1
102
RTVSPropertyOp47
 70
     1
102
RTVSPropertyOp48
 70
     1
102
RTVSPropertyOp49
 70
     1
102
RTVSPropertyOp50
 70
     1
102
RTVSPropertyOp51
 70
     0
102
RTVSPropertyOp52
 70
     0
102
RTVSPropertyOp53
 70
     1
102
RTVSPropertyOp54
 70
     1
102
RTVSPropertyOp55
 70
     1
102
RTVSPropertyOp56
 70
     1
102
RTVSPropertyOp57
 70
     1
102
RTVSPropertyOp58
 70
     1
102
RTVSPropertyOp59
 70
     1
102
RTVSPropertyOp60
 70
     1
102
RTVSPropertyOp61
 70
     1
102
RTVSPropertyOp62
 70
     1
  0
XRECORD
  5
1994
102
{ACAD_REACTORS
330
1993
102
}
330
1993
100
AcDbXrecord
280
     1
102
RTVSPost2010Prop28
280
     0
102
RTVSPost2010PropOp28
 70
     1
102
RTVSPost2010Prop29
280
     1
102
RTVSPost2010PropOp29
 70
     1
102
RTVSPost2010Prop30
280
     1
102
RTVSPost2010PropOp30
 70
     1
102
RTVSPost2010Prop31
280
     0
102
RTVSPost2010PropOp31
 70
     1
102
RTVSPost2010Prop32
280
     0
102
RTVSPost2010PropOp32
 70
     1
102
RTVSPost2010Prop33
280
     0
102
RTVSPost2010PropOp33
 70
     1
102
RTVSPost2010Prop34
280
     0
102
RTVSPost2010PropOp34
 70
     1
102
RTVSPost2010Prop35
280
     0
102
RTVSPost2010PropOp35
 70
     1
102
RTVSPost2010Prop36
280
     0
102
RTVSPost2010PropOp36
 70
     1
102
RTVSPost2010Prop37
 90
       50
102
RTVSPost2010PropOp37
 70
     1
102
RTVSPost2010Prop38
140
0.0
102
RTVSPost2010PropOp38
 70
     1
102
RTVSPost2010Prop39
140
1.0
102
RTVSPost2010PropOp39
 70
     1
102
RTVSPost2010Prop40
 90
        0
102
RTVSPost2010PropOp40
 70
     1
102
RTVSPost2010Prop41ColorIndex
 90
       18
102
RTVSPost2010Prop41ColorRGB
 90
        0
102
RTVSPost2010PropOp41
 70
     1
102
RTVSPost2010Prop42
 90
       50
102
RTVSPost2010PropOp42
 70
     1
102
RTVSPost2010Prop43
 90
        3
102
RTVSPost2010PropOp43
 70
     1
102
RTVSPost2010Prop44ColorIndex
 90
        5
102
RTVSPost2010Prop44ColorRGB
 90
      255
102
RTVSPost2010PropOp44
 70
     1
102
RTVSPost2010Prop45
280
     0
102
RTVSPost2010PropOp45
 70
     1
102
RTVSPost2010Prop46
 90
       50
102
RTVSPost2010PropOp46
 70
     1
102
RTVSPost2010Prop47
 90
       50
102
RTVSPost2010PropOp47
 70
     1
102
RTVSPost2010Prop48
 90
       50
102
RTVSPost2010PropOp48
 70
     1
102
RTVSPost2010Prop49
280
     0
102
RTVSPost2010PropOp49
 70
     1
102
RTVSPost2010Prop50
 90
       50
102
RTVSPost2010PropOp50
 70
     1
102
RTVSPost2010Prop51ColorIndex
 90
      256
102
RTVSPost2010Prop51ColorRGB
 90
-16777216
102
RTVSPost2010PropOp51
 70
     0
102
RTVSPost2010Prop52
140
1.0
102
RTVSPost2010PropOp52
 70
     0
102
RTVSPost2010Prop53
 90
        2
102
RTVSPost2010PropOp53
 70
     1
102
RTVSPost2010Prop54
  1
strokes_ogs.tif
102
RTVSPost2010PropOp54
 70
     1
102
RTVSPost2010Prop55
280
     0
102
RTVSPost2010PropOp55
 70
     1
102
RTVSPost2010Prop56
140
1.0
102
RTVSPost2010PropOp56
 70
     1
102
RTVSPost2010Prop57
140
1.0
102
RTVSPost2010PropOp57
 70
     1
102
RTVSPropertyOp0
 70
     1
102
RTVSPropertyOp1
 70
     1
102
RTVSPropertyOp2
 70
     1
102
RTVSPropertyOp3
 70
     1
102
RTVSPropertyOp4
 70
     1
102
RTVSPropertyOp5
 70
     1
102
RTVSPropertyOp6
 70
     1
102
RTVSPropertyOp7
 70
     1
102
RTVSPropertyOp8
 70
     1
102
RTVSPropertyOp9
 70
     1
102
RTVSPropertyOp10
 70
     1
102
RTVSPropertyOp11
 70
     1
102
RTVSPropertyOp12
 70
     1
102
RTVSPropertyOp13
 70
     1
102
RTVSPropertyOp14
 70
     1
102
RTVSPropertyOp15
 70
     1
102
RTVSPropertyOp16
 70
     1
102
RTVSPropertyOp17
 70
     1
102
RTVSPropertyOp18
 70
     1
102
RTVSPropertyOp19
 70
     1
102
RTVSPropertyOp20
 70
     1
102
RTVSPropertyOp21
 70
     1
102
RTVSPropertyOp22
 70
     1
102
RTVSPropertyOp23
 70
     1
102
RTVSPropertyOp24
 70
     1
102
RTVSPropertyOp25
 70
     1
102
RTVSPropertyOp26
 70
     1
102
RTVSPropertyOp27
 70
     1
102
RTVSPropertyOp28
 70
     1
102
RTVSPropertyOp29
 70
     1
102
RTVSPropertyOp30
 70
     1
102
RTVSPropertyOp31
 70
     1
102
RTVSPropertyOp32
 70
     1
102
RTVSPropertyOp33
 70
     1
102
RTVSPropertyOp34
 70
     1
102
RTVSPropertyOp35
 70
     1
102
RTVSPropertyOp36
 70
     1
102
RTVSPropertyOp37
 70
     1
102
RTVSPropertyOp38
 70
     1
102
RTVSPropertyOp39
 70
     1
102
RTVSPropertyOp40
 70
     1
102
RTVSPropertyOp41
 70
     1
102
RTVSPropertyOp42
 70
     1
102
RTVSPropertyOp43
 70
     1
102
RTVSPropertyOp44
 70
     1
102
RTVSPropertyOp45
 70
     1
102
RTVSPropertyOp46
 70
     1
102
RTVSPropertyOp47
 70
     1
102
RTVSPropertyOp48
 70
     1
102
RTVSPropertyOp49
 70
     1
102
RTVSPropertyOp50
 70
     1
102
RTVSPropertyOp51
 70
     0
102
RTVSPropertyOp52
 70
     0
102
RTVSPropertyOp53
 70
     1
102
RTVSPropertyOp54
 70
     1
102
RTVSPropertyOp55
 70
     1
102
RTVSPropertyOp56
 70
     1
102
RTVSPropertyOp57
 70
     1
102
RTVSPropertyOp58
 70
     1
102
RTVSPropertyOp59
 70
     1
102
RTVSPropertyOp60
 70
     1
102
RTVSPropertyOp61
 70
     1
102
RTVSPropertyOp62
 70
     1
  0
XRECORD
  5
19A2
102
{ACAD_REACTORS
330
19A1
102
}
330
19A1
100
AcDbXrecord
280
     1
102
RTVSPost2010Prop28
280
     0
102
RTVSPost2010PropOp28
 70
     1
102
RTVSPost2010Prop29
280
     1
102
RTVSPost2010PropOp29
 70
     1
102
RTVSPost2010Prop30
280
     1
102
RTVSPost2010PropOp30
 70
     1
102
RTVSPost2010Prop31
280
     0
102
RTVSPost2010PropOp31
 70
     1
102
RTVSPost2010Prop32
280
     0
102
RTVSPost2010PropOp32
 70
     1
102
RTVSPost2010Prop33
280
     0
102
RTVSPost2010PropOp33
 70
     1
102
RTVSPost2010Prop34
280
     0
102
RTVSPost2010PropOp34
 70
     1
102
RTVSPost2010Prop35
280
     0
102
RTVSPost2010PropOp35
 70
     1
102
RTVSPost2010Prop36
280
     0
102
RTVSPost2010PropOp36
 70
     1
102
RTVSPost2010Prop37
 90
       50
102
RTVSPost2010PropOp37
 70
     1
102
RTVSPost2010Prop38
140
0.0
102
RTVSPost2010PropOp38
 70
     1
102
RTVSPost2010Prop39
140
1.0
102
RTVSPost2010PropOp39
 70
     1
102
RTVSPost2010Prop40
 90
        0
102
RTVSPost2010PropOp40
 70
     1
102
RTVSPost2010Prop41ColorIndex
 90
       18
102
RTVSPost2010Prop41ColorRGB
 90
        0
102
RTVSPost2010PropOp41
 70
     1
102
RTVSPost2010Prop42
 90
       50
102
RTVSPost2010PropOp42
 70
     1
102
RTVSPost2010Prop43
 90
        3
102
RTVSPost2010PropOp43
 70
     1
102
RTVSPost2010Prop44ColorIndex
 90
        5
102
RTVSPost2010Prop44ColorRGB
 90
      255
102
RTVSPost2010PropOp44
 70
     1
102
RTVSPost2010Prop45
280
     0
102
RTVSPost2010PropOp45
 70
     1
102
RTVSPost2010Prop46
 90
       50
102
RTVSPost2010PropOp46
 70
     1
102
RTVSPost2010Prop47
 90
       50
102
RTVSPost2010PropOp47
 70
     1
102
RTVSPost2010Prop48
 90
       50
102
RTVSPost2010PropOp48
 70
     1
102
RTVSPost2010Prop49
280
     0
102
RTVSPost2010PropOp49
 70
     1
102
RTVSPost2010Prop50
 90
       50
102
RTVSPost2010PropOp50
 70
     1
102
RTVSPost2010Prop51ColorIndex
 90
      256
102
RTVSPost2010Prop51ColorRGB
 90
-16777216
102
RTVSPost2010PropOp51
 70
     0
102
RTVSPost2010Prop52
140
1.0
102
RTVSPost2010PropOp52
 70
     0
102
RTVSPost2010Prop53
 90
        2
102
RTVSPost2010PropOp53
 70
     1
102
RTVSPost2010Prop54
  1
strokes_ogs.tif
102
RTVSPost2010PropOp54
 70
     1
102
RTVSPost2010Prop55
280
     0
102
RTVSPost2010PropOp55
 70
     1
102
RTVSPost2010Prop56
140
1.0
102
RTVSPost2010PropOp56
 70
     1
102
RTVSPost2010Prop57
140
1.0
102
RTVSPost2010PropOp57
 70
     1
102
RTVSPropertyOp0
 70
     1
102
RTVSPropertyOp1
 70
     1
102
RTVSPropertyOp2
 70
     1
102
RTVSPropertyOp3
 70
     1
102
RTVSPropertyOp4
 70
     1
102
RTVSPropertyOp5
 70
     1
102
RTVSPropertyOp6
 70
     1
102
RTVSPropertyOp7
 70
     1
102
RTVSPropertyOp8
 70
     1
102
RTVSPropertyOp9
 70
     1
102
RTVSPropertyOp10
 70
     1
102
RTVSPropertyOp11
 70
     1
102
RTVSPropertyOp12
 70
     1
102
RTVSPropertyOp13
 70
     1
102
RTVSPropertyOp14
 70
     1
102
RTVSPropertyOp15
 70
     1
102
RTVSPropertyOp16
 70
     1
102
RTVSPropertyOp17
 70
     1
102
RTVSPropertyOp18
 70
     1
102
RTVSPropertyOp19
 70
     1
102
RTVSPropertyOp20
 70
     1
102
RTVSPropertyOp21
 70
     1
102
RTVSPropertyOp22
 70
     1
102
RTVSPropertyOp23
 70
     1
102
RTVSPropertyOp24
 70
     1
102
RTVSPropertyOp25
 70
     1
102
RTVSPropertyOp26
 70
     1
102
RTVSPropertyOp27
 70
     1
102
RTVSPropertyOp28
 70
     1
102
RTVSPropertyOp29
 70
     1
102
RTVSPropertyOp30
 70
     1
102
RTVSPropertyOp31
 70
     1
102
RTVSPropertyOp32
 70
     1
102
RTVSPropertyOp33
 70
     1
102
RTVSPropertyOp34
 70
     1
102
RTVSPropertyOp35
 70
     1
102
RTVSPropertyOp36
 70
     1
102
RTVSPropertyOp37
 70
     1
102
RTVSPropertyOp38
 70
     1
102
RTVSPropertyOp39
 70
     1
102
RTVSPropertyOp40
 70
     1
102
RTVSPropertyOp41
 70
     1
102
RTVSPropertyOp42
 70
     1
102
RTVSPropertyOp43
 70
     1
102
RTVSPropertyOp44
 70
     1
102
RTVSPropertyOp45
 70
     1
102
RTVSPropertyOp46
 70
     1
102
RTVSPropertyOp47
 70
     1
102
RTVSPropertyOp48
 70
     1
102
RTVSPropertyOp49
 70
     1
102
RTVSPropertyOp50
 70
     1
102
RTVSPropertyOp51
 70
     0
102
RTVSPropertyOp52
 70
     0
102
RTVSPropertyOp53
 70
     1
102
RTVSPropertyOp54
 70
     1
102
RTVSPropertyOp55
 70
     1
102
RTVSPropertyOp56
 70
     1
102
RTVSPropertyOp57
 70
     1
102
RTVSPropertyOp58
 70
     1
102
RTVSPropertyOp59
 70
     1
102
RTVSPropertyOp60
 70
     1
102
RTVSPropertyOp61
 70
     1
102
RTVSPropertyOp62
 70
     1
  0
XRECORD
  5
19AA
102
{ACAD_REACTORS
330
19A9
102
}
330
19A9
100
AcDbXrecord
280
     1
102
RTVSPost2010Prop28
280
     0
102
RTVSPost2010PropOp28
 70
     1
102
RTVSPost2010Prop29
280
     1
102
RTVSPost2010PropOp29
 70
     1
102
RTVSPost2010Prop30
280
     1
102
RTVSPost2010PropOp30
 70
     1
102
RTVSPost2010Prop31
280
     0
102
RTVSPost2010PropOp31
 70
     1
102
RTVSPost2010Prop32
280
     0
102
RTVSPost2010PropOp32
 70
     1
102
RTVSPost2010Prop33
280
     0
102
RTVSPost2010PropOp33
 70
     1
102
RTVSPost2010Prop34
280
     0
102
RTVSPost2010PropOp34
 70
     1
102
RTVSPost2010Prop35
280
     0
102
RTVSPost2010PropOp35
 70
     1
102
RTVSPost2010Prop36
280
     0
102
RTVSPost2010PropOp36
 70
     1
102
RTVSPost2010Prop37
 90
       50
102
RTVSPost2010PropOp37
 70
     1
102
RTVSPost2010Prop38
140
0.0
102
RTVSPost2010PropOp38
 70
     1
102
RTVSPost2010Prop39
140
1.0
102
RTVSPost2010PropOp39
 70
     1
102
RTVSPost2010Prop40
 90
        0
102
RTVSPost2010PropOp40
 70
     1
102
RTVSPost2010Prop41ColorIndex
 90
       18
102
RTVSPost2010Prop41ColorRGB
 90
        0
102
RTVSPost2010PropOp41
 70
     1
102
RTVSPost2010Prop42
 90
       50
102
RTVSPost2010PropOp42
 70
     1
102
RTVSPost2010Prop43
 90
        3
102
RTVSPost2010PropOp43
 70
     1
102
RTVSPost2010Prop44ColorIndex
 90
        5
102
RTVSPost2010Prop44ColorRGB
 90
      255
102
RTVSPost2010PropOp44
 70
     1
102
RTVSPost2010Prop45
280
     0
102
RTVSPost2010PropOp45
 70
     1
102
RTVSPost2010Prop46
 90
       50
102
RTVSPost2010PropOp46
 70
     1
102
RTVSPost2010Prop47
 90
       50
102
RTVSPost2010PropOp47
 70
     1
102
RTVSPost2010Prop48
 90
       50
102
RTVSPost2010PropOp48
 70
     1
102
RTVSPost2010Prop49
280
     0
102
RTVSPost2010PropOp49
 70
     1
102
RTVSPost2010Prop50
 90
       50
102
RTVSPost2010PropOp50
 70
     1
102
RTVSPost2010Prop51ColorIndex
 90
      256
102
RTVSPost2010Prop51ColorRGB
 90
-16777216
102
RTVSPost2010PropOp51
 70
     0
102
RTVSPost2010Prop52
140
1.0
102
RTVSPost2010PropOp52
 70
     0
102
RTVSPost2010Prop53
 90
        2
102
RTVSPost2010PropOp53
 70
     1
102
RTVSPost2010Prop54
  1
strokes_ogs.tif
102
RTVSPost2010PropOp54
 70
     1
102
RTVSPost2010Prop55
280
     0
102
RTVSPost2010PropOp55
 70
     1
102
RTVSPost2010Prop56
140
1.0
102
RTVSPost2010PropOp56
 70
     1
102
RTVSPost2010Prop57
140
1.0
102
RTVSPost2010PropOp57
 70
     1
102
RTVSPropertyOp0
 70
     1
102
RTVSPropertyOp1
 70
     1
102
RTVSPropertyOp2
 70
     1
102
RTVSPropertyOp3
 70
     1
102
RTVSPropertyOp4
 70
     1
102
RTVSPropertyOp5
 70
     1
102
RTVSPropertyOp6
 70
     1
102
RTVSPropertyOp7
 70
     1
102
RTVSPropertyOp8
 70
     1
102
RTVSPropertyOp9
 70
     1
102
RTVSPropertyOp10
 70
     1
102
RTVSPropertyOp11
 70
     1
102
RTVSPropertyOp12
 70
     1
102
RTVSPropertyOp13
 70
     1
102
RTVSPropertyOp14
 70
     1
102
RTVSPropertyOp15
 70
     1
102
RTVSPropertyOp16
 70
     1
102
RTVSPropertyOp17
 70
     1
102
RTVSPropertyOp18
 70
     1
102
RTVSPropertyOp19
 70
     1
102
RTVSPropertyOp20
 70
     1
102
RTVSPropertyOp21
 70
     1
102
RTVSPropertyOp22
 70
     1
102
RTVSPropertyOp23
 70
     1
102
RTVSPropertyOp24
 70
     1
102
RTVSPropertyOp25
 70
     1
102
RTVSPropertyOp26
 70
     1
102
RTVSPropertyOp27
 70
     1
102
RTVSPropertyOp28
 70
     1
102
RTVSPropertyOp29
 70
     1
102
RTVSPropertyOp30
 70
     1
102
RTVSPropertyOp31
 70
     1
102
RTVSPropertyOp32
 70
     1
102
RTVSPropertyOp33
 70
     1
102
RTVSPropertyOp34
 70
     1
102
RTVSPropertyOp35
 70
     1
102
RTVSPropertyOp36
 70
     1
102
RTVSPropertyOp37
 70
     1
102
RTVSPropertyOp38
 70
     1
102
RTVSPropertyOp39
 70
     1
102
RTVSPropertyOp40
 70
     1
102
RTVSPropertyOp41
 70
     1
102
RTVSPropertyOp42
 70
     1
102
RTVSPropertyOp43
 70
     1
102
RTVSPropertyOp44
 70
     1
102
RTVSPropertyOp45
 70
     1
102
RTVSPropertyOp46
 70
     1
102
RTVSPropertyOp47
 70
     1
102
RTVSPropertyOp48
 70
     1
102
RTVSPropertyOp49
 70
     1
102
RTVSPropertyOp50
 70
     1
102
RTVSPropertyOp51
 70
     0
102
RTVSPropertyOp52
 70
     0
102
RTVSPropertyOp53
 70
     1
102
RTVSPropertyOp54
 70
     1
102
RTVSPropertyOp55
 70
     1
102
RTVSPropertyOp56
 70
     1
102
RTVSPropertyOp57
 70
     1
102
RTVSPropertyOp58
 70
     1
102
RTVSPropertyOp59
 70
     1
102
RTVSPropertyOp60
 70
     1
102
RTVSPropertyOp61
 70
     1
102
RTVSPropertyOp62
 70
     1
  0
XRECORD
  5
199C
102
{ACAD_REACTORS
330
199B
102
}
330
199B
100
AcDbXrecord
280
     1
102
RTVSPost2010Prop28
280
     0
102
RTVSPost2010PropOp28
 70
     1
102
RTVSPost2010Prop29
280
     1
102
RTVSPost2010PropOp29
 70
     1
102
RTVSPost2010Prop30
280
     1
102
RTVSPost2010PropOp30
 70
     1
102
RTVSPost2010Prop31
280
     0
102
RTVSPost2010PropOp31
 70
     1
102
RTVSPost2010Prop32
280
     0
102
RTVSPost2010PropOp32
 70
     1
102
RTVSPost2010Prop33
280
     0
102
RTVSPost2010PropOp33
 70
     1
102
RTVSPost2010Prop34
280
     0
102
RTVSPost2010PropOp34
 70
     1
102
RTVSPost2010Prop35
280
     0
102
RTVSPost2010PropOp35
 70
     1
102
RTVSPost2010Prop36
280
     0
102
RTVSPost2010PropOp36
 70
     1
102
RTVSPost2010Prop37
 90
       50
102
RTVSPost2010PropOp37
 70
     1
102
RTVSPost2010Prop38
140
0.0
102
RTVSPost2010PropOp38
 70
     1
102
RTVSPost2010Prop39
140
1.0
102
RTVSPost2010PropOp39
 70
     1
102
RTVSPost2010Prop40
 90
        0
102
RTVSPost2010PropOp40
 70
     1
102
RTVSPost2010Prop41ColorIndex
 90
       18
102
RTVSPost2010Prop41ColorRGB
 90
        0
102
RTVSPost2010PropOp41
 70
     1
102
RTVSPost2010Prop42
 90
       50
102
RTVSPost2010PropOp42
 70
     1
102
RTVSPost2010Prop43
 90
        3
102
RTVSPost2010PropOp43
 70
     1
102
RTVSPost2010Prop44ColorIndex
 90
        5
102
RTVSPost2010Prop44ColorRGB
 90
      255
102
RTVSPost2010PropOp44
 70
     1
102
RTVSPost2010Prop45
280
     0
102
RTVSPost2010PropOp45
 70
     1
102
RTVSPost2010Prop46
 90
       50
102
RTVSPost2010PropOp46
 70
     1
102
RTVSPost2010Prop47
 90
       50
102
RTVSPost2010PropOp47
 70
     1
102
RTVSPost2010Prop48
 90
       50
102
RTVSPost2010PropOp48
 70
     1
102
RTVSPost2010Prop49
280
     0
102
RTVSPost2010PropOp49
 70
     1
102
RTVSPost2010Prop50
 90
       50
102
RTVSPost2010PropOp50
 70
     1
102
RTVSPost2010Prop51ColorIndex
 90
      256
102
RTVSPost2010Prop51ColorRGB
 90
-16777216
102
RTVSPost2010PropOp51
 70
     0
102
RTVSPost2010Prop52
140
1.0
102
RTVSPost2010PropOp52
 70
     0
102
RTVSPost2010Prop53
 90
        2
102
RTVSPost2010PropOp53
 70
     1
102
RTVSPost2010Prop54
  1
strokes_ogs.tif
102
RTVSPost2010PropOp54
 70
     1
102
RTVSPost2010Prop55
280
     0
102
RTVSPost2010PropOp55
 70
     1
102
RTVSPost2010Prop56
140
1.0
102
RTVSPost2010PropOp56
 70
     1
102
RTVSPost2010Prop57
140
1.0
102
RTVSPost2010PropOp57
 70
     1
102
RTVSPropertyOp0
 70
     1
102
RTVSPropertyOp1
 70
     1
102
RTVSPropertyOp2
 70
     1
102
RTVSPropertyOp3
 70
     1
102
RTVSPropertyOp4
 70
     1
102
RTVSPropertyOp5
 70
     1
102
RTVSPropertyOp6
 70
     1
102
RTVSPropertyOp7
 70
     1
102
RTVSPropertyOp8
 70
     1
102
RTVSPropertyOp9
 70
     1
102
RTVSPropertyOp10
 70
     1
102
RTVSPropertyOp11
 70
     1
102
RTVSPropertyOp12
 70
     1
102
RTVSPropertyOp13
 70
     1
102
RTVSPropertyOp14
 70
     1
102
RTVSPropertyOp15
 70
     1
102
RTVSPropertyOp16
 70
     1
102
RTVSPropertyOp17
 70
     1
102
RTVSPropertyOp18
 70
     1
102
RTVSPropertyOp19
 70
     1
102
RTVSPropertyOp20
 70
     1
102
RTVSPropertyOp21
 70
     1
102
RTVSPropertyOp22
 70
     1
102
RTVSPropertyOp23
 70
     1
102
RTVSPropertyOp24
 70
     1
102
RTVSPropertyOp25
 70
     1
102
RTVSPropertyOp26
 70
     1
102
RTVSPropertyOp27
 70
     1
102
RTVSPropertyOp28
 70
     1
102
RTVSPropertyOp29
 70
     1
102
RTVSPropertyOp30
 70
     1
102
RTVSPropertyOp31
 70
     1
102
RTVSPropertyOp32
 70
     1
102
RTVSPropertyOp33
 70
     1
102
RTVSPropertyOp34
 70
     1
102
RTVSPropertyOp35
 70
     1
102
RTVSPropertyOp36
 70
     1
102
RTVSPropertyOp37
 70
     1
102
RTVSPropertyOp38
 70
     1
102
RTVSPropertyOp39
 70
     1
102
RTVSPropertyOp40
 70
     1
102
RTVSPropertyOp41
 70
     1
102
RTVSPropertyOp42
 70
     1
102
RTVSPropertyOp43
 70
     1
102
RTVSPropertyOp44
 70
     1
102
RTVSPropertyOp45
 70
     1
102
RTVSPropertyOp46
 70
     1
102
RTVSPropertyOp47
 70
     1
102
RTVSPropertyOp48
 70
     1
102
RTVSPropertyOp49
 70
     1
102
RTVSPropertyOp50
 70
     1
102
RTVSPropertyOp51
 70
     0
102
RTVSPropertyOp52
 70
     0
102
RTVSPropertyOp53
 70
     1
102
RTVSPropertyOp54
 70
     1
102
RTVSPropertyOp55
 70
     1
102
RTVSPropertyOp56
 70
     1
102
RTVSPropertyOp57
 70
     1
102
RTVSPropertyOp58
 70
     1
102
RTVSPropertyOp59
 70
     1
102
RTVSPropertyOp60
 70
     1
102
RTVSPropertyOp61
 70
     1
102
RTVSPropertyOp62
 70
     1
  0
XRECORD
  5
19A0
102
{ACAD_REACTORS
330
199F
102
}
330
199F
100
AcDbXrecord
280
     1
102
RTVSPost2010Prop28
280
     0
102
RTVSPost2010PropOp28
 70
     1
102
RTVSPost2010Prop29
280
     1
102
RTVSPost2010PropOp29
 70
     1
102
RTVSPost2010Prop30
280
     1
102
RTVSPost2010PropOp30
 70
     1
102
RTVSPost2010Prop31
280
     0
102
RTVSPost2010PropOp31
 70
     1
102
RTVSPost2010Prop32
280
     0
102
RTVSPost2010PropOp32
 70
     1
102
RTVSPost2010Prop33
280
     0
102
RTVSPost2010PropOp33
 70
     1
102
RTVSPost2010Prop34
280
     0
102
RTVSPost2010PropOp34
 70
     1
102
RTVSPost2010Prop35
280
     0
102
RTVSPost2010PropOp35
 70
     1
102
RTVSPost2010Prop36
280
     0
102
RTVSPost2010PropOp36
 70
     1
102
RTVSPost2010Prop37
 90
       50
102
RTVSPost2010PropOp37
 70
     1
102
RTVSPost2010Prop38
140
0.0
102
RTVSPost2010PropOp38
 70
     1
102
RTVSPost2010Prop39
140
1.0
102
RTVSPost2010PropOp39
 70
     1
102
RTVSPost2010Prop40
 90
        0
102
RTVSPost2010PropOp40
 70
     1
102
RTVSPost2010Prop41ColorIndex
 90
       18
102
RTVSPost2010Prop41ColorRGB
 90
        0
102
RTVSPost2010PropOp41
 70
     1
102
RTVSPost2010Prop42
 90
       50
102
RTVSPost2010PropOp42
 70
     1
102
RTVSPost2010Prop43
 90
        3
102
RTVSPost2010PropOp43
 70
     1
102
RTVSPost2010Prop44ColorIndex
 90
        5
102
RTVSPost2010Prop44ColorRGB
 90
      255
102
RTVSPost2010PropOp44
 70
     1
102
RTVSPost2010Prop45
280
     0
102
RTVSPost2010PropOp45
 70
     1
102
RTVSPost2010Prop46
 90
       50
102
RTVSPost2010PropOp46
 70
     1
102
RTVSPost2010Prop47
 90
       50
102
RTVSPost2010PropOp47
 70
     1
102
RTVSPost2010Prop48
 90
       50
102
RTVSPost2010PropOp48
 70
     1
102
RTVSPost2010Prop49
280
     0
102
RTVSPost2010PropOp49
 70
     1
102
RTVSPost2010Prop50
 90
       50
102
RTVSPost2010PropOp50
 70
     1
102
RTVSPost2010Prop51ColorIndex
 90
      256
102
RTVSPost2010Prop51ColorRGB
 90
-16777216
102
RTVSPost2010PropOp51
 70
     0
102
RTVSPost2010Prop52
140
1.0
102
RTVSPost2010PropOp52
 70
     0
102
RTVSPost2010Prop53
 90
        2
102
RTVSPost2010PropOp53
 70
     1
102
RTVSPost2010Prop54
  1
strokes_ogs.tif
102
RTVSPost2010PropOp54
 70
     1
102
RTVSPost2010Prop55
280
     0
102
RTVSPost2010PropOp55
 70
     1
102
RTVSPost2010Prop56
140
1.0
102
RTVSPost2010PropOp56
 70
     1
102
RTVSPost2010Prop57
140
1.0
102
RTVSPost2010PropOp57
 70
     1
102
RTVSPropertyOp0
 70
     1
102
RTVSPropertyOp1
 70
     1
102
RTVSPropertyOp2
 70
     1
102
RTVSPropertyOp3
 70
     1
102
RTVSPropertyOp4
 70
     1
102
RTVSPropertyOp5
 70
     1
102
RTVSPropertyOp6
 70
     1
102
RTVSPropertyOp7
 70
     1
102
RTVSPropertyOp8
 70
     1
102
RTVSPropertyOp9
 70
     1
102
RTVSPropertyOp10
 70
     1
102
RTVSPropertyOp11
 70
     1
102
RTVSPropertyOp12
 70
     1
102
RTVSPropertyOp13
 70
     1
102
RTVSPropertyOp14
 70
     1
102
RTVSPropertyOp15
 70
     1
102
RTVSPropertyOp16
 70
     1
102
RTVSPropertyOp17
 70
     1
102
RTVSPropertyOp18
 70
     1
102
RTVSPropertyOp19
 70
     1
102
RTVSPropertyOp20
 70
     1
102
RTVSPropertyOp21
 70
     1
102
RTVSPropertyOp22
 70
     1
102
RTVSPropertyOp23
 70
     1
102
RTVSPropertyOp24
 70
     1
102
RTVSPropertyOp25
 70
     1
102
RTVSPropertyOp26
 70
     1
102
RTVSPropertyOp27
 70
     1
102
RTVSPropertyOp28
 70
     1
102
RTVSPropertyOp29
 70
     1
102
RTVSPropertyOp30
 70
     1
102
RTVSPropertyOp31
 70
     1
102
RTVSPropertyOp32
 70
     1
102
RTVSPropertyOp33
 70
     1
102
RTVSPropertyOp34
 70
     1
102
RTVSPropertyOp35
 70
     1
102
RTVSPropertyOp36
 70
     1
102
RTVSPropertyOp37
 70
     1
102
RTVSPropertyOp38
 70
     1
102
RTVSPropertyOp39
 70
     1
102
RTVSPropertyOp40
 70
     1
102
RTVSPropertyOp41
 70
     1
102
RTVSPropertyOp42
 70
     1
102
RTVSPropertyOp43
 70
     1
102
RTVSPropertyOp44
 70
     1
102
RTVSPropertyOp45
 70
     1
102
RTVSPropertyOp46
 70
     1
102
RTVSPropertyOp47
 70
     1
102
RTVSPropertyOp48
 70
     1
102
RTVSPropertyOp49
 70
     1
102
RTVSPropertyOp50
 70
     1
102
RTVSPropertyOp51
 70
     0
102
RTVSPropertyOp52
 70
     0
102
RTVSPropertyOp53
 70
     1
102
RTVSPropertyOp54
 70
     1
102
RTVSPropertyOp55
 70
     1
102
RTVSPropertyOp56
 70
     1
102
RTVSPropertyOp57
 70
     1
102
RTVSPropertyOp58
 70
     1
102
RTVSPropertyOp59
 70
     1
102
RTVSPropertyOp60
 70
     1
102
RTVSPropertyOp61
 70
     1
102
RTVSPropertyOp62
 70
     1
  0
XRECORD
  5
19BA
102
{ACAD_REACTORS
330
19B9
102
}
330
19B9
100
AcDbXrecord
280
     1
102
RTVSPost2010Prop28
280
     0
102
RTVSPost2010PropOp28
 70
     1
102
RTVSPost2010Prop29
280
     1
102
RTVSPost2010PropOp29
 70
     1
102
RTVSPost2010Prop30
280
     1
102
RTVSPost2010PropOp30
 70
     1
102
RTVSPost2010Prop31
280
     0
102
RTVSPost2010PropOp31
 70
     1
102
RTVSPost2010Prop32
280
     0
102
RTVSPost2010PropOp32
 70
     1
102
RTVSPost2010Prop33
280
     0
102
RTVSPost2010PropOp33
 70
     1
102
RTVSPost2010Prop34
280
     0
102
RTVSPost2010PropOp34
 70
     1
102
RTVSPost2010Prop35
280
     0
102
RTVSPost2010PropOp35
 70
     1
102
RTVSPost2010Prop36
280
     0
102
RTVSPost2010PropOp36
 70
     1
102
RTVSPost2010Prop37
 90
       50
102
RTVSPost2010PropOp37
 70
     0
102
RTVSPost2010Prop38
140
0.0
102
RTVSPost2010PropOp38
 70
     0
102
RTVSPost2010Prop39
140
1.0
102
RTVSPost2010PropOp39
 70
     0
102
RTVSPost2010Prop40
 90
        0
102
RTVSPost2010PropOp40
 70
     0
102
RTVSPost2010Prop41ColorIndex
 90
       18
102
RTVSPost2010Prop41ColorRGB
 90
        0
102
RTVSPost2010PropOp41
 70
     0
102
RTVSPost2010Prop42
 90
       50
102
RTVSPost2010PropOp42
 70
     0
102
RTVSPost2010Prop43
 90
        3
102
RTVSPost2010PropOp43
 70
     0
102
RTVSPost2010Prop44ColorIndex
 90
        5
102
RTVSPost2010Prop44ColorRGB
 90
      255
102
RTVSPost2010PropOp44
 70
     0
102
RTVSPost2010Prop45
280
     0
102
RTVSPost2010PropOp45
 70
     1
102
RTVSPost2010Prop46
 90
       50
102
RTVSPost2010PropOp46
 70
     0
102
RTVSPost2010Prop47
 90
       50
102
RTVSPost2010PropOp47
 70
     0
102
RTVSPost2010Prop48
 90
       50
102
RTVSPost2010PropOp48
 70
     0
102
RTVSPost2010Prop49
280
     0
102
RTVSPost2010PropOp49
 70
     1
102
RTVSPost2010Prop50
 90
       50
102
RTVSPost2010PropOp50
 70
     0
102
RTVSPost2010Prop51ColorIndex
 90
      256
102
RTVSPost2010Prop51ColorRGB
 90
-16777216
102
RTVSPost2010PropOp51
 70
     0
102
RTVSPost2010Prop52
140
1.0
102
RTVSPost2010PropOp52
 70
     0
102
RTVSPost2010Prop53
 90
        2
102
RTVSPost2010PropOp53
 70
     0
102
RTVSPost2010Prop54
  1
strokes_ogs.tif
102
RTVSPost2010PropOp54
 70
     0
102
RTVSPost2010Prop55
280
     0
102
RTVSPost2010PropOp55
 70
     1
102
RTVSPost2010Prop56
140
1.0
102
RTVSPost2010PropOp56
 70
     0
102
RTVSPost2010Prop57
140
1.0
102
RTVSPost2010PropOp57
 70
     0
102
RTVSPropertyOp0
 70
     0
102
RTVSPropertyOp1
 70
     0
102
RTVSPropertyOp2
 70
     0
102
RTVSPropertyOp3
 70
     0
102
RTVSPropertyOp4
 70
     0
102
RTVSPropertyOp5
 70
     0
102
RTVSPropertyOp6
 70
     0
102
RTVSPropertyOp7
 70
     0
102
RTVSPropertyOp8
 70
     0
102
RTVSPropertyOp9
 70
     0
102
RTVSPropertyOp10
 70
     0
102
RTVSPropertyOp11
 70
     0
102
RTVSPropertyOp12
 70
     0
102
RTVSPropertyOp13
 70
     0
102
RTVSPropertyOp14
 70
     2
102
RTVSPropertyOp15
 70
     0
102
RTVSPropertyOp16
 70
     0
102
RTVSPropertyOp17
 70
     0
102
RTVSPropertyOp18
 70
     0
102
RTVSPropertyOp19
 70
     0
102
RTVSPropertyOp20
 70
     0
102
RTVSPropertyOp21
 70
     0
102
RTVSPropertyOp22
 70
     0
102
RTVSPropertyOp23
 70
     0
102
RTVSPropertyOp24
 70
     0
102
RTVSPropertyOp25
 70
     0
102
RTVSPropertyOp26
 70
     0
102
RTVSPropertyOp27
 70
     0
102
RTVSPropertyOp28
 70
     1
102
RTVSPropertyOp29
 70
     1
102
RTVSPropertyOp30
 70
     1
102
RTVSPropertyOp31
 70
     1
102
RTVSPropertyOp32
 70
     1
102
RTVSPropertyOp33
 70
     1
102
RTVSPropertyOp34
 70
     1
102
RTVSPropertyOp35
 70
     1
102
RTVSPropertyOp36
 70
     1
102
RTVSPropertyOp37
 70
     0
102
RTVSPropertyOp38
 70
     0
102
RTVSPropertyOp39
 70
     0
102
RTVSPropertyOp40
 70
     0
102
RTVSPropertyOp41
 70
     0
102
RTVSPropertyOp42
 70
     0
102
RTVSPropertyOp43
 70
     0
102
RTVSPropertyOp44
 70
     0
102
RTVSPropertyOp45
 70
     1
102
RTVSPropertyOp46
 70
     0
102
RTVSPropertyOp47
 70
     0
102
RTVSPropertyOp48
 70
     0
102
RTVSPropertyOp49
 70
     1
102
RTVSPropertyOp50
 70
     0
102
RTVSPropertyOp51
 70
     0
102
RTVSPropertyOp52
 70
     0
102
RTVSPropertyOp53
 70
     0
102
RTVSPropertyOp54
 70
     0
102
RTVSPropertyOp55
 70
     1
102
RTVSPropertyOp56
 70
     0
102
RTVSPropertyOp57
 70
     0
102
RTVSPropertyOp58
 70
     0
102
RTVSPropertyOp59
 70
     0
102
RTVSPropertyOp60
 70
     0
102
RTVSPropertyOp61
 70
     0
102
RTVSPropertyOp62
 70
     0
  0
XRECORD
  5
19A8
102
{ACAD_REACTORS
330
19A7
102
}
330
19A7
100
AcDbXrecord
280
     1
102
RTVSPost2010Prop28
280
     0
102
RTVSPost2010PropOp28
 70
     1
102
RTVSPost2010Prop29
280
     1
102
RTVSPost2010PropOp29
 70
     1
102
RTVSPost2010Prop30
280
     1
102
RTVSPost2010PropOp30
 70
     1
102
RTVSPost2010Prop31
280
     0
102
RTVSPost2010PropOp31
 70
     1
102
RTVSPost2010Prop32
280
     0
102
RTVSPost2010PropOp32
 70
     1
102
RTVSPost2010Prop33
280
     0
102
RTVSPost2010PropOp33
 70
     1
102
RTVSPost2010Prop34
280
     0
102
RTVSPost2010PropOp34
 70
     1
102
RTVSPost2010Prop35
280
     0
102
RTVSPost2010PropOp35
 70
     1
102
RTVSPost2010Prop36
280
     0
102
RTVSPost2010PropOp36
 70
     1
102
RTVSPost2010Prop37
 90
       50
102
RTVSPost2010PropOp37
 70
     1
102
RTVSPost2010Prop38
140
0.0
102
RTVSPost2010PropOp38
 70
     1
102
RTVSPost2010Prop39
140
1.0
102
RTVSPost2010PropOp39
 70
     1
102
RTVSPost2010Prop40
 90
        0
102
RTVSPost2010PropOp40
 70
     1
102
RTVSPost2010Prop41ColorIndex
 90
       18
102
RTVSPost2010Prop41ColorRGB
 90
        0
102
RTVSPost2010PropOp41
 70
     1
102
RTVSPost2010Prop42
 90
       50
102
RTVSPost2010PropOp42
 70
     1
102
RTVSPost2010Prop43
 90
        3
102
RTVSPost2010PropOp43
 70
     1
102
RTVSPost2010Prop44ColorIndex
 90
        5
102
RTVSPost2010Prop44ColorRGB
 90
      255
102
RTVSPost2010PropOp44
 70
     1
102
RTVSPost2010Prop45
280
     0
102
RTVSPost2010PropOp45
 70
     1
102
RTVSPost2010Prop46
 90
       50
102
RTVSPost2010PropOp46
 70
     1
102
RTVSPost2010Prop47
 90
       50
102
RTVSPost2010PropOp47
 70
     1
102
RTVSPost2010Prop48
 90
       50
102
RTVSPost2010PropOp48
 70
     1
102
RTVSPost2010Prop49
280
     0
102
RTVSPost2010PropOp49
 70
     1
102
RTVSPost2010Prop50
 90
       50
102
RTVSPost2010PropOp50
 70
     1
102
RTVSPost2010Prop51ColorIndex
 90
      256
102
RTVSPost2010Prop51ColorRGB
 90
-16777216
102
RTVSPost2010PropOp51
 70
     0
102
RTVSPost2010Prop52
140
1.0
102
RTVSPost2010PropOp52
 70
     0
102
RTVSPost2010Prop53
 90
        2
102
RTVSPost2010PropOp53
 70
     1
102
RTVSPost2010Prop54
  1
strokes_ogs.tif
102
RTVSPost2010PropOp54
 70
     1
102
RTVSPost2010Prop55
280
     0
102
RTVSPost2010PropOp55
 70
     1
102
RTVSPost2010Prop56
140
1.0
102
RTVSPost2010PropOp56
 70
     1
102
RTVSPost2010Prop57
140
1.0
102
RTVSPost2010PropOp57
 70
     1
102
RTVSPropertyOp0
 70
     1
102
RTVSPropertyOp1
 70
     1
102
RTVSPropertyOp2
 70
     1
102
RTVSPropertyOp3
 70
     1
102
RTVSPropertyOp4
 70
     1
102
RTVSPropertyOp5
 70
     1
102
RTVSPropertyOp6
 70
     1
102
RTVSPropertyOp7
 70
     1
102
RTVSPropertyOp8
 70
     1
102
RTVSPropertyOp9
 70
     1
102
RTVSPropertyOp10
 70
     1
102
RTVSPropertyOp11
 70
     1
102
RTVSPropertyOp12
 70
     1
102
RTVSPropertyOp13
 70
     1
102
RTVSPropertyOp14
 70
     1
102
RTVSPropertyOp15
 70
     1
102
RTVSPropertyOp16
 70
     1
102
RTVSPropertyOp17
 70
     1
102
RTVSPropertyOp18
 70
     1
102
RTVSPropertyOp19
 70
     1
102
RTVSPropertyOp20
 70
     1
102
RTVSPropertyOp21
 70
     1
102
RTVSPropertyOp22
 70
     1
102
RTVSPropertyOp23
 70
     1
102
RTVSPropertyOp24
 70
     1
102
RTVSPropertyOp25
 70
     1
102
RTVSPropertyOp26
 70
     1
102
RTVSPropertyOp27
 70
     1
102
RTVSPropertyOp28
 70
     1
102
RTVSPropertyOp29
 70
     1
102
RTVSPropertyOp30
 70
     1
102
RTVSPropertyOp31
 70
     1
102
RTVSPropertyOp32
 70
     1
102
RTVSPropertyOp33
 70
     1
102
RTVSPropertyOp34
 70
     1
102
RTVSPropertyOp35
 70
     1
102
RTVSPropertyOp36
 70
     1
102
RTVSPropertyOp37
 70
     1
102
RTVSPropertyOp38
 70
     1
102
RTVSPropertyOp39
 70
     1
102
RTVSPropertyOp40
 70
     1
102
RTVSPropertyOp41
 70
     1
102
RTVSPropertyOp42
 70
     1
102
RTVSPropertyOp43
 70
     1
102
RTVSPropertyOp44
 70
     1
102
RTVSPropertyOp45
 70
     1
102
RTVSPropertyOp46
 70
     1
102
RTVSPropertyOp47
 70
     1
102
RTVSPropertyOp48
 70
     1
102
RTVSPropertyOp49
 70
     1
102
RTVSPropertyOp50
 70
     1
102
RTVSPropertyOp51
 70
     0
102
RTVSPropertyOp52
 70
     0
102
RTVSPropertyOp53
 70
     1
102
RTVSPropertyOp54
 70
     1
102
RTVSPropertyOp55
 70
     1
102
RTVSPropertyOp56
 70
     1
102
RTVSPropertyOp57
 70
     1
102
RTVSPropertyOp58
 70
     1
102
RTVSPropertyOp59
 70
     1
102
RTVSPropertyOp60
 70
     1
102
RTVSPropertyOp61
 70
     1
102
RTVSPropertyOp62
 70
     1
  0
XRECORD
  5
198C
102
{ACAD_REACTORS
330
198B
102
}
330
198B
100
AcDbXrecord
280
     1
102
RTVSPost2010Prop28
280
     0
102
RTVSPost2010PropOp28
 70
     1
102
RTVSPost2010Prop29
280
     1
102
RTVSPost2010PropOp29
 70
     1
102
RTVSPost2010Prop30
280
     1
102
RTVSPost2010PropOp30
 70
     1
102
RTVSPost2010Prop31
280
     0
102
RTVSPost2010PropOp31
 70
     1
102
RTVSPost2010Prop32
280
     0
102
RTVSPost2010PropOp32
 70
     1
102
RTVSPost2010Prop33
280
     0
102
RTVSPost2010PropOp33
 70
     1
102
RTVSPost2010Prop34
280
     0
102
RTVSPost2010PropOp34
 70
     1
102
RTVSPost2010Prop35
280
     0
102
RTVSPost2010PropOp35
 70
     1
102
RTVSPost2010Prop36
280
     0
102
RTVSPost2010PropOp36
 70
     1
102
RTVSPost2010Prop37
 90
       50
102
RTVSPost2010PropOp37
 70
     1
102
RTVSPost2010Prop38
140
0.0
102
RTVSPost2010PropOp38
 70
     1
102
RTVSPost2010Prop39
140
1.0
102
RTVSPost2010PropOp39
 70
     1
102
RTVSPost2010Prop40
 90
        0
102
RTVSPost2010PropOp40
 70
     1
102
RTVSPost2010Prop41ColorIndex
 90
       18
102
RTVSPost2010Prop41ColorRGB
 90
        0
102
RTVSPost2010PropOp41
 70
     1
102
RTVSPost2010Prop42
 90
       50
102
RTVSPost2010PropOp42
 70
     1
102
RTVSPost2010Prop43
 90
        3
102
RTVSPost2010PropOp43
 70
     1
102
RTVSPost2010Prop44ColorIndex
 90
        5
102
RTVSPost2010Prop44ColorRGB
 90
      255
102
RTVSPost2010PropOp44
 70
     1
102
RTVSPost2010Prop45
280
     0
102
RTVSPost2010PropOp45
 70
     1
102
RTVSPost2010Prop46
 90
       50
102
RTVSPost2010PropOp46
 70
     1
102
RTVSPost2010Prop47
 90
       50
102
RTVSPost2010PropOp47
 70
     1
102
RTVSPost2010Prop48
 90
       50
102
RTVSPost2010PropOp48
 70
     1
102
RTVSPost2010Prop49
280
     0
102
RTVSPost2010PropOp49
 70
     1
102
RTVSPost2010Prop50
 90
       50
102
RTVSPost2010PropOp50
 70
     1
102
RTVSPost2010Prop51ColorIndex
 90
      256
102
RTVSPost2010Prop51ColorRGB
 90
-16777216
102
RTVSPost2010PropOp51
 70
     0
102
RTVSPost2010Prop52
140
1.0
102
RTVSPost2010PropOp52
 70
     0
102
RTVSPost2010Prop53
 90
        2
102
RTVSPost2010PropOp53
 70
     1
102
RTVSPost2010Prop54
  1
strokes_ogs.tif
102
RTVSPost2010PropOp54
 70
     1
102
RTVSPost2010Prop55
280
     0
102
RTVSPost2010PropOp55
 70
     1
102
RTVSPost2010Prop56
140
1.0
102
RTVSPost2010PropOp56
 70
     1
102
RTVSPost2010Prop57
140
1.0
102
RTVSPost2010PropOp57
 70
     1
102
RTVSPropertyOp0
 70
     1
102
RTVSPropertyOp1
 70
     1
102
RTVSPropertyOp2
 70
     1
102
RTVSPropertyOp3
 70
     1
102
RTVSPropertyOp4
 70
     1
102
RTVSPropertyOp5
 70
     1
102
RTVSPropertyOp6
 70
     1
102
RTVSPropertyOp7
 70
     1
102
RTVSPropertyOp8
 70
     1
102
RTVSPropertyOp9
 70
     1
102
RTVSPropertyOp10
 70
     1
102
RTVSPropertyOp11
 70
     1
102
RTVSPropertyOp12
 70
     1
102
RTVSPropertyOp13
 70
     1
102
RTVSPropertyOp14
 70
     1
102
RTVSPropertyOp15
 70
     1
102
RTVSPropertyOp16
 70
     1
102
RTVSPropertyOp17
 70
     1
102
RTVSPropertyOp18
 70
     1
102
RTVSPropertyOp19
 70
     1
102
RTVSPropertyOp20
 70
     1
102
RTVSPropertyOp21
 70
     1
102
RTVSPropertyOp22
 70
     1
102
RTVSPropertyOp23
 70
     1
102
RTVSPropertyOp24
 70
     1
102
RTVSPropertyOp25
 70
     1
102
RTVSPropertyOp26
 70
     1
102
RTVSPropertyOp27
 70
     1
102
RTVSPropertyOp28
 70
     1
102
RTVSPropertyOp29
 70
     1
102
RTVSPropertyOp30
 70
     1
102
RTVSPropertyOp31
 70
     1
102
RTVSPropertyOp32
 70
     1
102
RTVSPropertyOp33
 70
     1
102
RTVSPropertyOp34
 70
     1
102
RTVSPropertyOp35
 70
     1
102
RTVSPropertyOp36
 70
     1
102
RTVSPropertyOp37
 70
     1
102
RTVSPropertyOp38
 70
     1
102
RTVSPropertyOp39
 70
     1
102
RTVSPropertyOp40
 70
     1
102
RTVSPropertyOp41
 70
     1
102
RTVSPropertyOp42
 70
     1
102
RTVSPropertyOp43
 70
     1
102
RTVSPropertyOp44
 70
     1
102
RTVSPropertyOp45
 70
     1
102
RTVSPropertyOp46
 70
     1
102
RTVSPropertyOp47
 70
     1
102
RTVSPropertyOp48
 70
     1
102
RTVSPropertyOp49
 70
     1
102
RTVSPropertyOp50
 70
     1
102
RTVSPropertyOp51
 70
     0
102
RTVSPropertyOp52
 70
     0
102
RTVSPropertyOp53
 70
     1
102
RTVSPropertyOp54
 70
     1
102
RTVSPropertyOp55
 70
     1
102
RTVSPropertyOp56
 70
     1
102
RTVSPropertyOp57
 70
     1
102
RTVSPropertyOp58
 70
     1
102
RTVSPropertyOp59
 70
     1
102
RTVSPropertyOp60
 70
     1
102
RTVSPropertyOp61
 70
     1
102
RTVSPropertyOp62
 70
     1
  0
XRECORD
  5
198E
102
{ACAD_REACTORS
330
198D
102
}
330
198D
100
AcDbXrecord
280
     1
102
RTVSPost2010Prop28
280
     0
102
RTVSPost2010PropOp28
 70
     1
102
RTVSPost2010Prop29
280
     1
102
RTVSPost2010PropOp29
 70
     1
102
RTVSPost2010Prop30
280
     1
102
RTVSPost2010PropOp30
 70
     1
102
RTVSPost2010Prop31
280
     0
102
RTVSPost2010PropOp31
 70
     1
102
RTVSPost2010Prop32
280
     0
102
RTVSPost2010PropOp32
 70
     1
102
RTVSPost2010Prop33
280
     0
102
RTVSPost2010PropOp33
 70
     1
102
RTVSPost2010Prop34
280
     0
102
RTVSPost2010PropOp34
 70
     1
102
RTVSPost2010Prop35
280
     0
102
RTVSPost2010PropOp35
 70
     1
102
RTVSPost2010Prop36
280
     0
102
RTVSPost2010PropOp36
 70
     1
102
RTVSPost2010Prop37
 90
       50
102
RTVSPost2010PropOp37
 70
     1
102
RTVSPost2010Prop38
140
0.0
102
RTVSPost2010PropOp38
 70
     1
102
RTVSPost2010Prop39
140
1.0
102
RTVSPost2010PropOp39
 70
     1
102
RTVSPost2010Prop40
 90
        0
102
RTVSPost2010PropOp40
 70
     1
102
RTVSPost2010Prop41ColorIndex
 90
       18
102
RTVSPost2010Prop41ColorRGB
 90
        0
102
RTVSPost2010PropOp41
 70
     1
102
RTVSPost2010Prop42
 90
       50
102
RTVSPost2010PropOp42
 70
     1
102
RTVSPost2010Prop43
 90
        3
102
RTVSPost2010PropOp43
 70
     1
102
RTVSPost2010Prop44ColorIndex
 90
        5
102
RTVSPost2010Prop44ColorRGB
 90
      255
102
RTVSPost2010PropOp44
 70
     1
102
RTVSPost2010Prop45
280
     0
102
RTVSPost2010PropOp45
 70
     1
102
RTVSPost2010Prop46
 90
       50
102
RTVSPost2010PropOp46
 70
     1
102
RTVSPost2010Prop47
 90
       50
102
RTVSPost2010PropOp47
 70
     1
102
RTVSPost2010Prop48
 90
       50
102
RTVSPost2010PropOp48
 70
     1
102
RTVSPost2010Prop49
280
     0
102
RTVSPost2010PropOp49
 70
     1
102
RTVSPost2010Prop50
 90
       50
102
RTVSPost2010PropOp50
 70
     1
102
RTVSPost2010Prop51ColorIndex
 90
      256
102
RTVSPost2010Prop51ColorRGB
 90
-16777216
102
RTVSPost2010PropOp51
 70
     0
102
RTVSPost2010Prop52
140
1.0
102
RTVSPost2010PropOp52
 70
     0
102
RTVSPost2010Prop53
 90
        2
102
RTVSPost2010PropOp53
 70
     1
102
RTVSPost2010Prop54
  1
strokes_ogs.tif
102
RTVSPost2010PropOp54
 70
     1
102
RTVSPost2010Prop55
280
     0
102
RTVSPost2010PropOp55
 70
     1
102
RTVSPost2010Prop56
140
1.0
102
RTVSPost2010PropOp56
 70
     1
102
RTVSPost2010Prop57
140
1.0
102
RTVSPost2010PropOp57
 70
     1
102
RTVSPropertyOp0
 70
     1
102
RTVSPropertyOp1
 70
     1
102
RTVSPropertyOp2
 70
     1
102
RTVSPropertyOp3
 70
     1
102
RTVSPropertyOp4
 70
     1
102
RTVSPropertyOp5
 70
     1
102
RTVSPropertyOp6
 70
     1
102
RTVSPropertyOp7
 70
     1
102
RTVSPropertyOp8
 70
     1
102
RTVSPropertyOp9
 70
     1
102
RTVSPropertyOp10
 70
     1
102
RTVSPropertyOp11
 70
     1
102
RTVSPropertyOp12
 70
     1
102
RTVSPropertyOp13
 70
     1
102
RTVSPropertyOp14
 70
     1
102
RTVSPropertyOp15
 70
     1
102
RTVSPropertyOp16
 70
     1
102
RTVSPropertyOp17
 70
     1
102
RTVSPropertyOp18
 70
     1
102
RTVSPropertyOp19
 70
     1
102
RTVSPropertyOp20
 70
     1
102
RTVSPropertyOp21
 70
     1
102
RTVSPropertyOp22
 70
     1
102
RTVSPropertyOp23
 70
     1
102
RTVSPropertyOp24
 70
     1
102
RTVSPropertyOp25
 70
     1
102
RTVSPropertyOp26
 70
     1
102
RTVSPropertyOp27
 70
     1
102
RTVSPropertyOp28
 70
     1
102
RTVSPropertyOp29
 70
     1
102
RTVSPropertyOp30
 70
     1
102
RTVSPropertyOp31
 70
     1
102
RTVSPropertyOp32
 70
     1
102
RTVSPropertyOp33
 70
     1
102
RTVSPropertyOp34
 70
     1
102
RTVSPropertyOp35
 70
     1
102
RTVSPropertyOp36
 70
     1
102
RTVSPropertyOp37
 70
     1
102
RTVSPropertyOp38
 70
     1
102
RTVSPropertyOp39
 70
     1
102
RTVSPropertyOp40
 70
     1
102
RTVSPropertyOp41
 70
     1
102
RTVSPropertyOp42
 70
     1
102
RTVSPropertyOp43
 70
     1
102
RTVSPropertyOp44
 70
     1
102
RTVSPropertyOp45
 70
     1
102
RTVSPropertyOp46
 70
     1
102
RTVSPropertyOp47
 70
     1
102
RTVSPropertyOp48
 70
     1
102
RTVSPropertyOp49
 70
     1
102
RTVSPropertyOp50
 70
     1
102
RTVSPropertyOp51
 70
     0
102
RTVSPropertyOp52
 70
     0
102
RTVSPropertyOp53
 70
     1
102
RTVSPropertyOp54
 70
     1
102
RTVSPropertyOp55
 70
     1
102
RTVSPropertyOp56
 70
     1
102
RTVSPropertyOp57
 70
     1
102
RTVSPropertyOp58
 70
     1
102
RTVSPropertyOp59
 70
     1
102
RTVSPropertyOp60
 70
     1
102
RTVSPropertyOp61
 70
     1
102
RTVSPropertyOp62
 70
     1
  0
XRECORD
  5
1990
102
{ACAD_REACTORS
330
198F
102
}
330
198F
100
AcDbXrecord
280
     1
102
RTVSPost2010Prop28
280
     0
102
RTVSPost2010PropOp28
 70
     1
102
RTVSPost2010Prop29
280
     1
102
RTVSPost2010PropOp29
 70
     1
102
RTVSPost2010Prop30
280
     1
102
RTVSPost2010PropOp30
 70
     1
102
RTVSPost2010Prop31
280
     0
102
RTVSPost2010PropOp31
 70
     1
102
RTVSPost2010Prop32
280
     0
102
RTVSPost2010PropOp32
 70
     1
102
RTVSPost2010Prop33
280
     0
102
RTVSPost2010PropOp33
 70
     1
102
RTVSPost2010Prop34
280
     0
102
RTVSPost2010PropOp34
 70
     1
102
RTVSPost2010Prop35
280
     0
102
RTVSPost2010PropOp35
 70
     1
102
RTVSPost2010Prop36
280
     0
102
RTVSPost2010PropOp36
 70
     1
102
RTVSPost2010Prop37
 90
       50
102
RTVSPost2010PropOp37
 70
     1
102
RTVSPost2010Prop38
140
0.0
102
RTVSPost2010PropOp38
 70
     1
102
RTVSPost2010Prop39
140
1.0
102
RTVSPost2010PropOp39
 70
     1
102
RTVSPost2010Prop40
 90
        0
102
RTVSPost2010PropOp40
 70
     1
102
RTVSPost2010Prop41ColorIndex
 90
       18
102
RTVSPost2010Prop41ColorRGB
 90
        0
102
RTVSPost2010PropOp41
 70
     1
102
RTVSPost2010Prop42
 90
       50
102
RTVSPost2010PropOp42
 70
     1
102
RTVSPost2010Prop43
 90
        3
102
RTVSPost2010PropOp43
 70
     1
102
RTVSPost2010Prop44ColorIndex
 90
        5
102
RTVSPost2010Prop44ColorRGB
 90
      255
102
RTVSPost2010PropOp44
 70
     1
102
RTVSPost2010Prop45
280
     0
102
RTVSPost2010PropOp45
 70
     1
102
RTVSPost2010Prop46
 90
       50
102
RTVSPost2010PropOp46
 70
     1
102
RTVSPost2010Prop47
 90
       50
102
RTVSPost2010PropOp47
 70
     1
102
RTVSPost2010Prop48
 90
       50
102
RTVSPost2010PropOp48
 70
     1
102
RTVSPost2010Prop49
280
     0
102
RTVSPost2010PropOp49
 70
     1
102
RTVSPost2010Prop50
 90
       50
102
RTVSPost2010PropOp50
 70
     1
102
RTVSPost2010Prop51ColorIndex
 90
      256
102
RTVSPost2010Prop51ColorRGB
 90
-16777216
102
RTVSPost2010PropOp51
 70
     0
102
RTVSPost2010Prop52
140
1.0
102
RTVSPost2010PropOp52
 70
     0
102
RTVSPost2010Prop53
 90
        2
102
RTVSPost2010PropOp53
 70
     1
102
RTVSPost2010Prop54
  1
strokes_ogs.tif
102
RTVSPost2010PropOp54
 70
     1
102
RTVSPost2010Prop55
280
     0
102
RTVSPost2010PropOp55
 70
     1
102
RTVSPost2010Prop56
140
1.0
102
RTVSPost2010PropOp56
 70
     1
102
RTVSPost2010Prop57
140
1.0
102
RTVSPost2010PropOp57
 70
     1
102
RTVSPropertyOp0
 70
     1
102
RTVSPropertyOp1
 70
     1
102
RTVSPropertyOp2
 70
     1
102
RTVSPropertyOp3
 70
     1
102
RTVSPropertyOp4
 70
     1
102
RTVSPropertyOp5
 70
     1
102
RTVSPropertyOp6
 70
     1
102
RTVSPropertyOp7
 70
     1
102
RTVSPropertyOp8
 70
     1
102
RTVSPropertyOp9
 70
     1
102
RTVSPropertyOp10
 70
     1
102
RTVSPropertyOp11
 70
     1
102
RTVSPropertyOp12
 70
     1
102
RTVSPropertyOp13
 70
     1
102
RTVSPropertyOp14
 70
     1
102
RTVSPropertyOp15
 70
     1
102
RTVSPropertyOp16
 70
     1
102
RTVSPropertyOp17
 70
     1
102
RTVSPropertyOp18
 70
     1
102
RTVSPropertyOp19
 70
     1
102
RTVSPropertyOp20
 70
     1
102
RTVSPropertyOp21
 70
     1
102
RTVSPropertyOp22
 70
     1
102
RTVSPropertyOp23
 70
     1
102
RTVSPropertyOp24
 70
     1
102
RTVSPropertyOp25
 70
     1
102
RTVSPropertyOp26
 70
     1
102
RTVSPropertyOp27
 70
     1
102
RTVSPropertyOp28
 70
     1
102
RTVSPropertyOp29
 70
     1
102
RTVSPropertyOp30
 70
     1
102
RTVSPropertyOp31
 70
     1
102
RTVSPropertyOp32
 70
     1
102
RTVSPropertyOp33
 70
     1
102
RTVSPropertyOp34
 70
     1
102
RTVSPropertyOp35
 70
     1
102
RTVSPropertyOp36
 70
     1
102
RTVSPropertyOp37
 70
     1
102
RTVSPropertyOp38
 70
     1
102
RTVSPropertyOp39
 70
     1
102
RTVSPropertyOp40
 70
     1
102
RTVSPropertyOp41
 70
     1
102
RTVSPropertyOp42
 70
     1
102
RTVSPropertyOp43
 70
     1
102
RTVSPropertyOp44
 70
     1
102
RTVSPropertyOp45
 70
     1
102
RTVSPropertyOp46
 70
     1
102
RTVSPropertyOp47
 70
     1
102
RTVSPropertyOp48
 70
     1
102
RTVSPropertyOp49
 70
     1
102
RTVSPropertyOp50
 70
     1
102
RTVSPropertyOp51
 70
     0
102
RTVSPropertyOp52
 70
     0
102
RTVSPropertyOp53
 70
     1
102
RTVSPropertyOp54
 70
     1
102
RTVSPropertyOp55
 70
     1
102
RTVSPropertyOp56
 70
     1
102
RTVSPropertyOp57
 70
     1
102
RTVSPropertyOp58
 70
     1
102
RTVSPropertyOp59
 70
     1
102
RTVSPropertyOp60
 70
     1
102
RTVSPropertyOp61
 70
     1
102
RTVSPropertyOp62
 70
     1
  0
XRECORD
  5
1992
102
{ACAD_REACTORS
330
1991
102
}
330
1991
100
AcDbXrecord
280
     1
102
RTVSPost2010Prop28
280
     0
102
RTVSPost2010PropOp28
 70
     1
102
RTVSPost2010Prop29
280
     1
102
RTVSPost2010PropOp29
 70
     1
102
RTVSPost2010Prop30
280
     1
102
RTVSPost2010PropOp30
 70
     1
102
RTVSPost2010Prop31
280
     0
102
RTVSPost2010PropOp31
 70
     1
102
RTVSPost2010Prop32
280
     0
102
RTVSPost2010PropOp32
 70
     1
102
RTVSPost2010Prop33
280
     0
102
RTVSPost2010PropOp33
 70
     1
102
RTVSPost2010Prop34
280
     0
102
RTVSPost2010PropOp34
 70
     1
102
RTVSPost2010Prop35
280
     0
102
RTVSPost2010PropOp35
 70
     1
102
RTVSPost2010Prop36
280
     0
102
RTVSPost2010PropOp36
 70
     1
102
RTVSPost2010Prop37
 90
       50
102
RTVSPost2010PropOp37
 70
     1
102
RTVSPost2010Prop38
140
0.0
102
RTVSPost2010PropOp38
 70
     1
102
RTVSPost2010Prop39
140
1.0
102
RTVSPost2010PropOp39
 70
     1
102
RTVSPost2010Prop40
 90
        0
102
RTVSPost2010PropOp40
 70
     1
102
RTVSPost2010Prop41ColorIndex
 90
       18
102
RTVSPost2010Prop41ColorRGB
 90
        0
102
RTVSPost2010PropOp41
 70
     1
102
RTVSPost2010Prop42
 90
       50
102
RTVSPost2010PropOp42
 70
     1
102
RTVSPost2010Prop43
 90
        3
102
RTVSPost2010PropOp43
 70
     1
102
RTVSPost2010Prop44ColorIndex
 90
        5
102
RTVSPost2010Prop44ColorRGB
 90
      255
102
RTVSPost2010PropOp44
 70
     1
102
RTVSPost2010Prop45
280
     0
102
RTVSPost2010PropOp45
 70
     1
102
RTVSPost2010Prop46
 90
       50
102
RTVSPost2010PropOp46
 70
     1
102
RTVSPost2010Prop47
 90
       50
102
RTVSPost2010PropOp47
 70
     1
102
RTVSPost2010Prop48
 90
       50
102
RTVSPost2010PropOp48
 70
     1
102
RTVSPost2010Prop49
280
     0
102
RTVSPost2010PropOp49
 70
     1
102
RTVSPost2010Prop50
 90
       50
102
RTVSPost2010PropOp50
 70
     1
102
RTVSPost2010Prop51ColorIndex
 90
      256
102
RTVSPost2010Prop51ColorRGB
 90
-16777216
102
RTVSPost2010PropOp51
 70
     0
102
RTVSPost2010Prop52
140
1.0
102
RTVSPost2010PropOp52
 70
     0
102
RTVSPost2010Prop53
 90
        2
102
RTVSPost2010PropOp53
 70
     1
102
RTVSPost2010Prop54
  1
strokes_ogs.tif
102
RTVSPost2010PropOp54
 70
     1
102
RTVSPost2010Prop55
280
     0
102
RTVSPost2010PropOp55
 70
     1
102
RTVSPost2010Prop56
140
1.0
102
RTVSPost2010PropOp56
 70
     1
102
RTVSPost2010Prop57
140
1.0
102
RTVSPost2010PropOp57
 70
     1
102
RTVSPropertyOp0
 70
     1
102
RTVSPropertyOp1
 70
     1
102
RTVSPropertyOp2
 70
     1
102
RTVSPropertyOp3
 70
     1
102
RTVSPropertyOp4
 70
     1
102
RTVSPropertyOp5
 70
     1
102
RTVSPropertyOp6
 70
     1
102
RTVSPropertyOp7
 70
     1
102
RTVSPropertyOp8
 70
     1
102
RTVSPropertyOp9
 70
     1
102
RTVSPropertyOp10
 70
     1
102
RTVSPropertyOp11
 70
     1
102
RTVSPropertyOp12
 70
     1
102
RTVSPropertyOp13
 70
     1
102
RTVSPropertyOp14
 70
     1
102
RTVSPropertyOp15
 70
     1
102
RTVSPropertyOp16
 70
     1
102
RTVSPropertyOp17
 70
     1
102
RTVSPropertyOp18
 70
     1
102
RTVSPropertyOp19
 70
     1
102
RTVSPropertyOp20
 70
     1
102
RTVSPropertyOp21
 70
     1
102
RTVSPropertyOp22
 70
     1
102
RTVSPropertyOp23
 70
     1
102
RTVSPropertyOp24
 70
     1
102
RTVSPropertyOp25
 70
     1
102
RTVSPropertyOp26
 70
     1
102
RTVSPropertyOp27
 70
     1
102
RTVSPropertyOp28
 70
     1
102
RTVSPropertyOp29
 70
     1
102
RTVSPropertyOp30
 70
     1
102
RTVSPropertyOp31
 70
     1
102
RTVSPropertyOp32
 70
     1
102
RTVSPropertyOp33
 70
     1
102
RTVSPropertyOp34
 70
     1
102
RTVSPropertyOp35
 70
     1
102
RTVSPropertyOp36
 70
     1
102
RTVSPropertyOp37
 70
     1
102
RTVSPropertyOp38
 70
     1
102
RTVSPropertyOp39
 70
     1
102
RTVSPropertyOp40
 70
     1
102
RTVSPropertyOp41
 70
     1
102
RTVSPropertyOp42
 70
     1
102
RTVSPropertyOp43
 70
     1
102
RTVSPropertyOp44
 70
     1
102
RTVSPropertyOp45
 70
     1
102
RTVSPropertyOp46
 70
     1
102
RTVSPropertyOp47
 70
     1
102
RTVSPropertyOp48
 70
     1
102
RTVSPropertyOp49
 70
     1
102
RTVSPropertyOp50
 70
     1
102
RTVSPropertyOp51
 70
     0
102
RTVSPropertyOp52
 70
     0
102
RTVSPropertyOp53
 70
     1
102
RTVSPropertyOp54
 70
     1
102
RTVSPropertyOp55
 70
     1
102
RTVSPropertyOp56
 70
     1
102
RTVSPropertyOp57
 70
     1
102
RTVSPropertyOp58
 70
     1
102
RTVSPropertyOp59
 70
     1
102
RTVSPropertyOp60
 70
     1
102
RTVSPropertyOp61
 70
     1
102
RTVSPropertyOp62
 70
     1
  0
XRECORD
  5
199A
102
{ACAD_REACTORS
330
1999
102
}
330
1999
100
AcDbXrecord
280
     1
102
RTVSPost2010Prop28
280
     0
102
RTVSPost2010PropOp28
 70
     1
102
RTVSPost2010Prop29
280
     1
102
RTVSPost2010PropOp29
 70
     1
102
RTVSPost2010Prop30
280
     1
102
RTVSPost2010PropOp30
 70
     1
102
RTVSPost2010Prop31
280
     0
102
RTVSPost2010PropOp31
 70
     1
102
RTVSPost2010Prop32
280
     0
102
RTVSPost2010PropOp32
 70
     1
102
RTVSPost2010Prop33
280
     0
102
RTVSPost2010PropOp33
 70
     1
102
RTVSPost2010Prop34
280
     0
102
RTVSPost2010PropOp34
 70
     1
102
RTVSPost2010Prop35
280
     0
102
RTVSPost2010PropOp35
 70
     1
102
RTVSPost2010Prop36
280
     0
102
RTVSPost2010PropOp36
 70
     1
102
RTVSPost2010Prop37
 90
       50
102
RTVSPost2010PropOp37
 70
     1
102
RTVSPost2010Prop38
140
0.0
102
RTVSPost2010PropOp38
 70
     1
102
RTVSPost2010Prop39
140
1.0
102
RTVSPost2010PropOp39
 70
     1
102
RTVSPost2010Prop40
 90
        0
102
RTVSPost2010PropOp40
 70
     1
102
RTVSPost2010Prop41ColorIndex
 90
       18
102
RTVSPost2010Prop41ColorRGB
 90
        0
102
RTVSPost2010PropOp41
 70
     1
102
RTVSPost2010Prop42
 90
       50
102
RTVSPost2010PropOp42
 70
     1
102
RTVSPost2010Prop43
 90
        3
102
RTVSPost2010PropOp43
 70
     1
102
RTVSPost2010Prop44ColorIndex
 90
        5
102
RTVSPost2010Prop44ColorRGB
 90
      255
102
RTVSPost2010PropOp44
 70
     1
102
RTVSPost2010Prop45
280
     0
102
RTVSPost2010PropOp45
 70
     1
102
RTVSPost2010Prop46
 90
       50
102
RTVSPost2010PropOp46
 70
     1
102
RTVSPost2010Prop47
 90
       50
102
RTVSPost2010PropOp47
 70
     1
102
RTVSPost2010Prop48
 90
       50
102
RTVSPost2010PropOp48
 70
     1
102
RTVSPost2010Prop49
280
     0
102
RTVSPost2010PropOp49
 70
     1
102
RTVSPost2010Prop50
 90
       50
102
RTVSPost2010PropOp50
 70
     1
102
RTVSPost2010Prop51ColorIndex
 90
      256
102
RTVSPost2010Prop51ColorRGB
 90
-16777216
102
RTVSPost2010PropOp51
 70
     0
102
RTVSPost2010Prop52
140
1.0
102
RTVSPost2010PropOp52
 70
     0
102
RTVSPost2010Prop53
 90
        2
102
RTVSPost2010PropOp53
 70
     1
102
RTVSPost2010Prop54
  1
strokes_ogs.tif
102
RTVSPost2010PropOp54
 70
     1
102
RTVSPost2010Prop55
280
     0
102
RTVSPost2010PropOp55
 70
     1
102
RTVSPost2010Prop56
140
1.0
102
RTVSPost2010PropOp56
 70
     1
102
RTVSPost2010Prop57
140
1.0
102
RTVSPost2010PropOp57
 70
     1
102
RTVSPropertyOp0
 70
     1
102
RTVSPropertyOp1
 70
     1
102
RTVSPropertyOp2
 70
     1
102
RTVSPropertyOp3
 70
     1
102
RTVSPropertyOp4
 70
     1
102
RTVSPropertyOp5
 70
     1
102
RTVSPropertyOp6
 70
     1
102
RTVSPropertyOp7
 70
     1
102
RTVSPropertyOp8
 70
     1
102
RTVSPropertyOp9
 70
     1
102
RTVSPropertyOp10
 70
     1
102
RTVSPropertyOp11
 70
     1
102
RTVSPropertyOp12
 70
     1
102
RTVSPropertyOp13
 70
     1
102
RTVSPropertyOp14
 70
     1
102
RTVSPropertyOp15
 70
     1
102
RTVSPropertyOp16
 70
     1
102
RTVSPropertyOp17
 70
     1
102
RTVSPropertyOp18
 70
     1
102
RTVSPropertyOp19
 70
     1
102
RTVSPropertyOp20
 70
     1
102
RTVSPropertyOp21
 70
     1
102
RTVSPropertyOp22
 70
     1
102
RTVSPropertyOp23
 70
     1
102
RTVSPropertyOp24
 70
     1
102
RTVSPropertyOp25
 70
     1
102
RTVSPropertyOp26
 70
     1
102
RTVSPropertyOp27
 70
     1
102
RTVSPropertyOp28
 70
     1
102
RTVSPropertyOp29
 70
     1
102
RTVSPropertyOp30
 70
     1
102
RTVSPropertyOp31
 70
     1
102
RTVSPropertyOp32
 70
     1
102
RTVSPropertyOp33
 70
     1
102
RTVSPropertyOp34
 70
     1
102
RTVSPropertyOp35
 70
     1
102
RTVSPropertyOp36
 70
     1
102
RTVSPropertyOp37
 70
     1
102
RTVSPropertyOp38
 70
     1
102
RTVSPropertyOp39
 70
     1
102
RTVSPropertyOp40
 70
     1
102
RTVSPropertyOp41
 70
     1
102
RTVSPropertyOp42
 70
     1
102
RTVSPropertyOp43
 70
     1
102
RTVSPropertyOp44
 70
     1
102
RTVSPropertyOp45
 70
     1
102
RTVSPropertyOp46
 70
     1
102
RTVSPropertyOp47
 70
     1
102
RTVSPropertyOp48
 70
     1
102
RTVSPropertyOp49
 70
     1
102
RTVSPropertyOp50
 70
     1
102
RTVSPropertyOp51
 70
     0
102
RTVSPropertyOp52
 70
     0
102
RTVSPropertyOp53
 70
     1
102
RTVSPropertyOp54
 70
     1
102
RTVSPropertyOp55
 70
     1
102
RTVSPropertyOp56
 70
     1
102
RTVSPropertyOp57
 70
     1
102
RTVSPropertyOp58
 70
     1
102
RTVSPropertyOp59
 70
     1
102
RTVSPropertyOp60
 70
     1
102
RTVSPropertyOp61
 70
     1
102
RTVSPropertyOp62
 70
     1
  0
XRECORD
  5
19B6
102
{ACAD_REACTORS
330
19B5
102
}
330
19B5
100
AcDbXrecord
280
     1
102
RTVSPost2010Prop28
280
     0
102
RTVSPost2010PropOp28
 70
     1
102
RTVSPost2010Prop29
280
     1
102
RTVSPost2010PropOp29
 70
     1
102
RTVSPost2010Prop30
280
     1
102
RTVSPost2010PropOp30
 70
     1
102
RTVSPost2010Prop31
280
     0
102
RTVSPost2010PropOp31
 70
     1
102
RTVSPost2010Prop32
280
     0
102
RTVSPost2010PropOp32
 70
     1
102
RTVSPost2010Prop33
280
     0
102
RTVSPost2010PropOp33
 70
     1
102
RTVSPost2010Prop34
280
     0
102
RTVSPost2010PropOp34
 70
     1
102
RTVSPost2010Prop35
280
     0
102
RTVSPost2010PropOp35
 70
     1
102
RTVSPost2010Prop36
280
     0
102
RTVSPost2010PropOp36
 70
     1
102
RTVSPost2010Prop37
 90
       50
102
RTVSPost2010PropOp37
 70
     0
102
RTVSPost2010Prop38
140
0.0
102
RTVSPost2010PropOp38
 70
     0
102
RTVSPost2010Prop39
140
1.0
102
RTVSPost2010PropOp39
 70
     0
102
RTVSPost2010Prop40
 90
        0
102
RTVSPost2010PropOp40
 70
     0
102
RTVSPost2010Prop41ColorIndex
 90
       18
102
RTVSPost2010Prop41ColorRGB
 90
        0
102
RTVSPost2010PropOp41
 70
     0
102
RTVSPost2010Prop42
 90
       50
102
RTVSPost2010PropOp42
 70
     0
102
RTVSPost2010Prop43
 90
        3
102
RTVSPost2010PropOp43
 70
     0
102
RTVSPost2010Prop44ColorIndex
 90
        5
102
RTVSPost2010Prop44ColorRGB
 90
      255
102
RTVSPost2010PropOp44
 70
     0
102
RTVSPost2010Prop45
280
     0
102
RTVSPost2010PropOp45
 70
     1
102
RTVSPost2010Prop46
 90
       50
102
RTVSPost2010PropOp46
 70
     0
102
RTVSPost2010Prop47
 90
       50
102
RTVSPost2010PropOp47
 70
     0
102
RTVSPost2010Prop48
 90
       50
102
RTVSPost2010PropOp48
 70
     0
102
RTVSPost2010Prop49
280
     0
102
RTVSPost2010PropOp49
 70
     1
102
RTVSPost2010Prop50
 90
       50
102
RTVSPost2010PropOp50
 70
     0
102
RTVSPost2010Prop51ColorIndex
 90
      256
102
RTVSPost2010Prop51ColorRGB
 90
-16777216
102
RTVSPost2010PropOp51
 70
     0
102
RTVSPost2010Prop52
140
1.0
102
RTVSPost2010PropOp52
 70
     0
102
RTVSPost2010Prop53
 90
        2
102
RTVSPost2010PropOp53
 70
     0
102
RTVSPost2010Prop54
  1
strokes_ogs.tif
102
RTVSPost2010PropOp54
 70
     0
102
RTVSPost2010Prop55
280
     0
102
RTVSPost2010PropOp55
 70
     1
102
RTVSPost2010Prop56
140
1.0
102
RTVSPost2010PropOp56
 70
     0
102
RTVSPost2010Prop57
140
1.0
102
RTVSPost2010PropOp57
 70
     0
102
RTVSPropertyOp0
 70
     0
102
RTVSPropertyOp1
 70
     0
102
RTVSPropertyOp2
 70
     0
102
RTVSPropertyOp3
 70
     0
102
RTVSPropertyOp4
 70
     0
102
RTVSPropertyOp5
 70
     0
102
RTVSPropertyOp6
 70
     0
102
RTVSPropertyOp7
 70
     0
102
RTVSPropertyOp8
 70
     0
102
RTVSPropertyOp9
 70
     0
102
RTVSPropertyOp10
 70
     0
102
RTVSPropertyOp11
 70
     0
102
RTVSPropertyOp12
 70
     0
102
RTVSPropertyOp13
 70
     0
102
RTVSPropertyOp14
 70
     2
102
RTVSPropertyOp15
 70
     0
102
RTVSPropertyOp16
 70
     0
102
RTVSPropertyOp17
 70
     0
102
RTVSPropertyOp18
 70
     0
102
RTVSPropertyOp19
 70
     0
102
RTVSPropertyOp20
 70
     0
102
RTVSPropertyOp21
 70
     0
102
RTVSPropertyOp22
 70
     0
102
RTVSPropertyOp23
 70
     0
102
RTVSPropertyOp24
 70
     0
102
RTVSPropertyOp25
 70
     0
102
RTVSPropertyOp26
 70
     0
102
RTVSPropertyOp27
 70
     0
102
RTVSPropertyOp28
 70
     1
102
RTVSPropertyOp29
 70
     1
102
RTVSPropertyOp30
 70
     1
102
RTVSPropertyOp31
 70
     1
102
RTVSPropertyOp32
 70
     1
102
RTVSPropertyOp33
 70
     1
102
RTVSPropertyOp34
 70
     1
102
RTVSPropertyOp35
 70
     1
102
RTVSPropertyOp36
 70
     1
102
RTVSPropertyOp37
 70
     0
102
RTVSPropertyOp38
 70
     0
102
RTVSPropertyOp39
 70
     0
102
RTVSPropertyOp40
 70
     0
102
RTVSPropertyOp41
 70
     0
102
RTVSPropertyOp42
 70
     0
102
RTVSPropertyOp43
 70
     0
102
RTVSPropertyOp44
 70
     0
102
RTVSPropertyOp45
 70
     1
102
RTVSPropertyOp46
 70
     0
102
RTVSPropertyOp47
 70
     0
102
RTVSPropertyOp48
 70
     0
102
RTVSPropertyOp49
 70
     1
102
RTVSPropertyOp50
 70
     0
102
RTVSPropertyOp51
 70
     0
102
RTVSPropertyOp52
 70
     0
102
RTVSPropertyOp53
 70
     0
102
RTVSPropertyOp54
 70
     0
102
RTVSPropertyOp55
 70
     1
102
RTVSPropertyOp56
 70
     0
102
RTVSPropertyOp57
 70
     0
102
RTVSPropertyOp58
 70
     0
102
RTVSPropertyOp59
 70
     0
102
RTVSPropertyOp60
 70
     0
102
RTVSPropertyOp61
 70
     0
102
RTVSPropertyOp62
 70
     0
  0
XRECORD
  5
19A6
102
{ACAD_REACTORS
330
19A5
102
}
330
19A5
100
AcDbXrecord
280
     1
102
RTVSPost2010Prop28
280
     0
102
RTVSPost2010PropOp28
 70
     1
102
RTVSPost2010Prop29
280
     1
102
RTVSPost2010PropOp29
 70
     1
102
RTVSPost2010Prop30
280
     1
102
RTVSPost2010PropOp30
 70
     1
102
RTVSPost2010Prop31
280
     0
102
RTVSPost2010PropOp31
 70
     1
102
RTVSPost2010Prop32
280
     0
102
RTVSPost2010PropOp32
 70
     1
102
RTVSPost2010Prop33
280
     0
102
RTVSPost2010PropOp33
 70
     1
102
RTVSPost2010Prop34
280
     0
102
RTVSPost2010PropOp34
 70
     1
102
RTVSPost2010Prop35
280
     0
102
RTVSPost2010PropOp35
 70
     1
102
RTVSPost2010Prop36
280
     0
102
RTVSPost2010PropOp36
 70
     1
102
RTVSPost2010Prop37
 90
       50
102
RTVSPost2010PropOp37
 70
     1
102
RTVSPost2010Prop38
140
0.0
102
RTVSPost2010PropOp38
 70
     1
102
RTVSPost2010Prop39
140
1.0
102
RTVSPost2010PropOp39
 70
     1
102
RTVSPost2010Prop40
 90
        0
102
RTVSPost2010PropOp40
 70
     1
102
RTVSPost2010Prop41ColorIndex
 90
       18
102
RTVSPost2010Prop41ColorRGB
 90
        0
102
RTVSPost2010PropOp41
 70
     1
102
RTVSPost2010Prop42
 90
       50
102
RTVSPost2010PropOp42
 70
     1
102
RTVSPost2010Prop43
 90
        3
102
RTVSPost2010PropOp43
 70
     1
102
RTVSPost2010Prop44ColorIndex
 90
        5
102
RTVSPost2010Prop44ColorRGB
 90
      255
102
RTVSPost2010PropOp44
 70
     1
102
RTVSPost2010Prop45
280
     0
102
RTVSPost2010PropOp45
 70
     1
102
RTVSPost2010Prop46
 90
       50
102
RTVSPost2010PropOp46
 70
     1
102
RTVSPost2010Prop47
 90
       50
102
RTVSPost2010PropOp47
 70
     1
102
RTVSPost2010Prop48
 90
       50
102
RTVSPost2010PropOp48
 70
     1
102
RTVSPost2010Prop49
280
     0
102
RTVSPost2010PropOp49
 70
     1
102
RTVSPost2010Prop50
 90
       50
102
RTVSPost2010PropOp50
 70
     1
102
RTVSPost2010Prop51ColorIndex
 90
      256
102
RTVSPost2010Prop51ColorRGB
 90
-16777216
102
RTVSPost2010PropOp51
 70
     0
102
RTVSPost2010Prop52
140
1.0
102
RTVSPost2010PropOp52
 70
     0
102
RTVSPost2010Prop53
 90
        2
102
RTVSPost2010PropOp53
 70
     1
102
RTVSPost2010Prop54
  1
strokes_ogs.tif
102
RTVSPost2010PropOp54
 70
     1
102
RTVSPost2010Prop55
280
     0
102
RTVSPost2010PropOp55
 70
     1
102
RTVSPost2010Prop56
140
1.0
102
RTVSPost2010PropOp56
 70
     1
102
RTVSPost2010Prop57
140
1.0
102
RTVSPost2010PropOp57
 70
     1
102
RTVSPropertyOp0
 70
     1
102
RTVSPropertyOp1
 70
     1
102
RTVSPropertyOp2
 70
     1
102
RTVSPropertyOp3
 70
     1
102
RTVSPropertyOp4
 70
     1
102
RTVSPropertyOp5
 70
     1
102
RTVSPropertyOp6
 70
     1
102
RTVSPropertyOp7
 70
     1
102
RTVSPropertyOp8
 70
     1
102
RTVSPropertyOp9
 70
     1
102
RTVSPropertyOp10
 70
     1
102
RTVSPropertyOp11
 70
     1
102
RTVSPropertyOp12
 70
     1
102
RTVSPropertyOp13
 70
     1
102
RTVSPropertyOp14
 70
     1
102
RTVSPropertyOp15
 70
     1
102
RTVSPropertyOp16
 70
     1
102
RTVSPropertyOp17
 70
     1
102
RTVSPropertyOp18
 70
     1
102
RTVSPropertyOp19
 70
     1
102
RTVSPropertyOp20
 70
     1
102
RTVSPropertyOp21
 70
     1
102
RTVSPropertyOp22
 70
     1
102
RTVSPropertyOp23
 70
     1
102
RTVSPropertyOp24
 70
     1
102
RTVSPropertyOp25
 70
     1
102
RTVSPropertyOp26
 70
     1
102
RTVSPropertyOp27
 70
     1
102
RTVSPropertyOp28
 70
     1
102
RTVSPropertyOp29
 70
     1
102
RTVSPropertyOp30
 70
     1
102
RTVSPropertyOp31
 70
     1
102
RTVSPropertyOp32
 70
     1
102
RTVSPropertyOp33
 70
     1
102
RTVSPropertyOp34
 70
     1
102
RTVSPropertyOp35
 70
     1
102
RTVSPropertyOp36
 70
     1
102
RTVSPropertyOp37
 70
     1
102
RTVSPropertyOp38
 70
     1
102
RTVSPropertyOp39
 70
     1
102
RTVSPropertyOp40
 70
     1
102
RTVSPropertyOp41
 70
     1
102
RTVSPropertyOp42
 70
     1
102
RTVSPropertyOp43
 70
     1
102
RTVSPropertyOp44
 70
     1
102
RTVSPropertyOp45
 70
     1
102
RTVSPropertyOp46
 70
     1
102
RTVSPropertyOp47
 70
     1
102
RTVSPropertyOp48
 70
     1
102
RTVSPropertyOp49
 70
     1
102
RTVSPropertyOp50
 70
     1
102
RTVSPropertyOp51
 70
     0
102
RTVSPropertyOp52
 70
     0
102
RTVSPropertyOp53
 70
     1
102
RTVSPropertyOp54
 70
     1
102
RTVSPropertyOp55
 70
     1
102
RTVSPropertyOp56
 70
     1
102
RTVSPropertyOp57
 70
     1
102
RTVSPropertyOp58
 70
     1
102
RTVSPropertyOp59
 70
     1
102
RTVSPropertyOp60
 70
     1
102
RTVSPropertyOp61
 70
     1
102
RTVSPropertyOp62
 70
     1
  0
XRECORD
  5
19B8
102
{ACAD_REACTORS
330
19B7
102
}
330
19B7
100
AcDbXrecord
280
     1
102
RTVSPost2010Prop28
280
     0
102
RTVSPost2010PropOp28
 70
     1
102
RTVSPost2010Prop29
280
     1
102
RTVSPost2010PropOp29
 70
     1
102
RTVSPost2010Prop30
280
     1
102
RTVSPost2010PropOp30
 70
     1
102
RTVSPost2010Prop31
280
     0
102
RTVSPost2010PropOp31
 70
     1
102
RTVSPost2010Prop32
280
     0
102
RTVSPost2010PropOp32
 70
     1
102
RTVSPost2010Prop33
280
     0
102
RTVSPost2010PropOp33
 70
     1
102
RTVSPost2010Prop34
280
     0
102
RTVSPost2010PropOp34
 70
     1
102
RTVSPost2010Prop35
280
     0
102
RTVSPost2010PropOp35
 70
     1
102
RTVSPost2010Prop36
280
     0
102
RTVSPost2010PropOp36
 70
     1
102
RTVSPost2010Prop37
 90
       50
102
RTVSPost2010PropOp37
 70
     0
102
RTVSPost2010Prop38
140
0.0
102
RTVSPost2010PropOp38
 70
     0
102
RTVSPost2010Prop39
140
1.0
102
RTVSPost2010PropOp39
 70
     0
102
RTVSPost2010Prop40
 90
        0
102
RTVSPost2010PropOp40
 70
     0
102
RTVSPost2010Prop41ColorIndex
 90
       18
102
RTVSPost2010Prop41ColorRGB
 90
        0
102
RTVSPost2010PropOp41
 70
     0
102
RTVSPost2010Prop42
 90
       50
102
RTVSPost2010PropOp42
 70
     0
102
RTVSPost2010Prop43
 90
        3
102
RTVSPost2010PropOp43
 70
     0
102
RTVSPost2010Prop44ColorIndex
 90
        5
102
RTVSPost2010Prop44ColorRGB
 90
      255
102
RTVSPost2010PropOp44
 70
     0
102
RTVSPost2010Prop45
280
     0
102
RTVSPost2010PropOp45
 70
     1
102
RTVSPost2010Prop46
 90
       50
102
RTVSPost2010PropOp46
 70
     0
102
RTVSPost2010Prop47
 90
       50
102
RTVSPost2010PropOp47
 70
     0
102
RTVSPost2010Prop48
 90
       50
102
RTVSPost2010PropOp48
 70
     0
102
RTVSPost2010Prop49
280
     0
102
RTVSPost2010PropOp49
 70
     1
102
RTVSPost2010Prop50
 90
       50
102
RTVSPost2010PropOp50
 70
     0
102
RTVSPost2010Prop51ColorIndex
 90
      256
102
RTVSPost2010Prop51ColorRGB
 90
-16777216
102
RTVSPost2010PropOp51
 70
     0
102
RTVSPost2010Prop52
140
1.0
102
RTVSPost2010PropOp52
 70
     0
102
RTVSPost2010Prop53
 90
        2
102
RTVSPost2010PropOp53
 70
     0
102
RTVSPost2010Prop54
  1
strokes_ogs.tif
102
RTVSPost2010PropOp54
 70
     0
102
RTVSPost2010Prop55
280
     0
102
RTVSPost2010PropOp55
 70
     1
102
RTVSPost2010Prop56
140
1.0
102
RTVSPost2010PropOp56
 70
     0
102
RTVSPost2010Prop57
140
1.0
102
RTVSPost2010PropOp57
 70
     0
102
RTVSPropertyOp0
 70
     0
102
RTVSPropertyOp1
 70
     0
102
RTVSPropertyOp2
 70
     0
102
RTVSPropertyOp3
 70
     0
102
RTVSPropertyOp4
 70
     0
102
RTVSPropertyOp5
 70
     0
102
RTVSPropertyOp6
 70
     0
102
RTVSPropertyOp7
 70
     0
102
RTVSPropertyOp8
 70
     0
102
RTVSPropertyOp9
 70
     0
102
RTVSPropertyOp10
 70
     0
102
RTVSPropertyOp11
 70
     0
102
RTVSPropertyOp12
 70
     0
102
RTVSPropertyOp13
 70
     0
102
RTVSPropertyOp14
 70
     2
102
RTVSPropertyOp15
 70
     0
102
RTVSPropertyOp16
 70
     0
102
RTVSPropertyOp17
 70
     0
102
RTVSPropertyOp18
 70
     0
102
RTVSPropertyOp19
 70
     0
102
RTVSPropertyOp20
 70
     0
102
RTVSPropertyOp21
 70
     0
102
RTVSPropertyOp22
 70
     0
102
RTVSPropertyOp23
 70
     0
102
RTVSPropertyOp24
 70
     0
102
RTVSPropertyOp25
 70
     0
102
RTVSPropertyOp26
 70
     0
102
RTVSPropertyOp27
 70
     0
102
RTVSPropertyOp28
 70
     1
102
RTVSPropertyOp29
 70
     1
102
RTVSPropertyOp30
 70
     1
102
RTVSPropertyOp31
 70
     1
102
RTVSPropertyOp32
 70
     1
102
RTVSPropertyOp33
 70
     1
102
RTVSPropertyOp34
 70
     1
102
RTVSPropertyOp35
 70
     1
102
RTVSPropertyOp36
 70
     1
102
RTVSPropertyOp37
 70
     0
102
RTVSPropertyOp38
 70
     0
102
RTVSPropertyOp39
 70
     0
102
RTVSPropertyOp40
 70
     0
102
RTVSPropertyOp41
 70
     0
102
RTVSPropertyOp42
 70
     0
102
RTVSPropertyOp43
 70
     0
102
RTVSPropertyOp44
 70
     0
102
RTVSPropertyOp45
 70
     1
102
RTVSPropertyOp46
 70
     0
102
RTVSPropertyOp47
 70
     0
102
RTVSPropertyOp48
 70
     0
102
RTVSPropertyOp49
 70
     1
102
RTVSPropertyOp50
 70
     0
102
RTVSPropertyOp51
 70
     0
102
RTVSPropertyOp52
 70
     0
102
RTVSPropertyOp53
 70
     0
102
RTVSPropertyOp54
 70
     0
102
RTVSPropertyOp55
 70
     1
102
RTVSPropertyOp56
 70
     0
102
RTVSPropertyOp57
 70
     0
102
RTVSPropertyOp58
 70
     0
102
RTVSPropertyOp59
 70
     0
102
RTVSPropertyOp60
 70
     0
102
RTVSPropertyOp61
 70
     0
102
RTVSPropertyOp62
 70
     0
  0
XRECORD
  5
199E
102
{ACAD_REACTORS
330
199D
102
}
330
199D
100
AcDbXrecord
280
     1
102
RTVSPost2010Prop28
280
     0
102
RTVSPost2010PropOp28
 70
     1
102
RTVSPost2010Prop29
280
     1
102
RTVSPost2010PropOp29
 70
     1
102
RTVSPost2010Prop30
280
     1
102
RTVSPost2010PropOp30
 70
     1
102
RTVSPost2010Prop31
280
     0
102
RTVSPost2010PropOp31
 70
     1
102
RTVSPost2010Prop32
280
     0
102
RTVSPost2010PropOp32
 70
     1
102
RTVSPost2010Prop33
280
     0
102
RTVSPost2010PropOp33
 70
     1
102
RTVSPost2010Prop34
280
     0
102
RTVSPost2010PropOp34
 70
     1
102
RTVSPost2010Prop35
280
     0
102
RTVSPost2010PropOp35
 70
     1
102
RTVSPost2010Prop36
280
     0
102
RTVSPost2010PropOp36
 70
     1
102
RTVSPost2010Prop37
 90
       50
102
RTVSPost2010PropOp37
 70
     1
102
RTVSPost2010Prop38
140
0.0
102
RTVSPost2010PropOp38
 70
     1
102
RTVSPost2010Prop39
140
1.0
102
RTVSPost2010PropOp39
 70
     1
102
RTVSPost2010Prop40
 90
        0
102
RTVSPost2010PropOp40
 70
     1
102
RTVSPost2010Prop41ColorIndex
 90
       18
102
RTVSPost2010Prop41ColorRGB
 90
        0
102
RTVSPost2010PropOp41
 70
     1
102
RTVSPost2010Prop42
 90
       50
102
RTVSPost2010PropOp42
 70
     1
102
RTVSPost2010Prop43
 90
        3
102
RTVSPost2010PropOp43
 70
     1
102
RTVSPost2010Prop44ColorIndex
 90
        5
102
RTVSPost2010Prop44ColorRGB
 90
      255
102
RTVSPost2010PropOp44
 70
     1
102
RTVSPost2010Prop45
280
     0
102
RTVSPost2010PropOp45
 70
     1
102
RTVSPost2010Prop46
 90
       50
102
RTVSPost2010PropOp46
 70
     1
102
RTVSPost2010Prop47
 90
       50
102
RTVSPost2010PropOp47
 70
     1
102
RTVSPost2010Prop48
 90
       50
102
RTVSPost2010PropOp48
 70
     1
102
RTVSPost2010Prop49
280
     0
102
RTVSPost2010PropOp49
 70
     1
102
RTVSPost2010Prop50
 90
       50
102
RTVSPost2010PropOp50
 70
     1
102
RTVSPost2010Prop51ColorIndex
 90
      256
102
RTVSPost2010Prop51ColorRGB
 90
-16777216
102
RTVSPost2010PropOp51
 70
     0
102
RTVSPost2010Prop52
140
1.0
102
RTVSPost2010PropOp52
 70
     0
102
RTVSPost2010Prop53
 90
        2
102
RTVSPost2010PropOp53
 70
     1
102
RTVSPost2010Prop54
  1
strokes_ogs.tif
102
RTVSPost2010PropOp54
 70
     1
102
RTVSPost2010Prop55
280
     0
102
RTVSPost2010PropOp55
 70
     1
102
RTVSPost2010Prop56
140
1.0
102
RTVSPost2010PropOp56
 70
     1
102
RTVSPost2010Prop57
140
1.0
102
RTVSPost2010PropOp57
 70
     1
102
RTVSPropertyOp0
 70
     1
102
RTVSPropertyOp1
 70
     1
102
RTVSPropertyOp2
 70
     1
102
RTVSPropertyOp3
 70
     1
102
RTVSPropertyOp4
 70
     1
102
RTVSPropertyOp5
 70
     1
102
RTVSPropertyOp6
 70
     1
102
RTVSPropertyOp7
 70
     1
102
RTVSPropertyOp8
 70
     1
102
RTVSPropertyOp9
 70
     1
102
RTVSPropertyOp10
 70
     1
102
RTVSPropertyOp11
 70
     1
102
RTVSPropertyOp12
 70
     1
102
RTVSPropertyOp13
 70
     1
102
RTVSPropertyOp14
 70
     1
102
RTVSPropertyOp15
 70
     1
102
RTVSPropertyOp16
 70
     1
102
RTVSPropertyOp17
 70
     1
102
RTVSPropertyOp18
 70
     1
102
RTVSPropertyOp19
 70
     1
102
RTVSPropertyOp20
 70
     1
102
RTVSPropertyOp21
 70
     1
102
RTVSPropertyOp22
 70
     1
102
RTVSPropertyOp23
 70
     1
102
RTVSPropertyOp24
 70
     1
102
RTVSPropertyOp25
 70
     1
102
RTVSPropertyOp26
 70
     1
102
RTVSPropertyOp27
 70
     1
102
RTVSPropertyOp28
 70
     1
102
RTVSPropertyOp29
 70
     1
102
RTVSPropertyOp30
 70
     1
102
RTVSPropertyOp31
 70
     1
102
RTVSPropertyOp32
 70
     1
102
RTVSPropertyOp33
 70
     1
102
RTVSPropertyOp34
 70
     1
102
RTVSPropertyOp35
 70
     1
102
RTVSPropertyOp36
 70
     1
102
RTVSPropertyOp37
 70
     1
102
RTVSPropertyOp38
 70
     1
102
RTVSPropertyOp39
 70
     1
102
RTVSPropertyOp40
 70
     1
102
RTVSPropertyOp41
 70
     1
102
RTVSPropertyOp42
 70
     1
102
RTVSPropertyOp43
 70
     1
102
RTVSPropertyOp44
 70
     1
102
RTVSPropertyOp45
 70
     1
102
RTVSPropertyOp46
 70
     1
102
RTVSPropertyOp47
 70
     1
102
RTVSPropertyOp48
 70
     1
102
RTVSPropertyOp49
 70
     1
102
RTVSPropertyOp50
 70
     1
102
RTVSPropertyOp51
 70
     0
102
RTVSPropertyOp52
 70
     0
102
RTVSPropertyOp53
 70
     1
102
RTVSPropertyOp54
 70
     1
102
RTVSPropertyOp55
 70
     1
102
RTVSPropertyOp56
 70
     1
102
RTVSPropertyOp57
 70
     1
102
RTVSPropertyOp58
 70
     1
102
RTVSPropertyOp59
 70
     1
102
RTVSPropertyOp60
 70
     1
102
RTVSPropertyOp61
 70
     1
102
RTVSPropertyOp62
 70
     1
  0
XRECORD
  5
19B4
102
{ACAD_REACTORS
330
19B3
102
}
330
19B3
100
AcDbXrecord
280
     1
102
RTVSPost2010Prop28
280
     0
102
RTVSPost2010PropOp28
 70
     1
102
RTVSPost2010Prop29
280
     1
102
RTVSPost2010PropOp29
 70
     1
102
RTVSPost2010Prop30
280
     1
102
RTVSPost2010PropOp30
 70
     1
102
RTVSPost2010Prop31
280
     0
102
RTVSPost2010PropOp31
 70
     1
102
RTVSPost2010Prop32
280
     0
102
RTVSPost2010PropOp32
 70
     1
102
RTVSPost2010Prop33
280
     0
102
RTVSPost2010PropOp33
 70
     1
102
RTVSPost2010Prop34
280
     0
102
RTVSPost2010PropOp34
 70
     1
102
RTVSPost2010Prop35
280
     0
102
RTVSPost2010PropOp35
 70
     1
102
RTVSPost2010Prop36
280
     0
102
RTVSPost2010PropOp36
 70
     1
102
RTVSPost2010Prop37
 90
       50
102
RTVSPost2010PropOp37
 70
     1
102
RTVSPost2010Prop38
140
0.0
102
RTVSPost2010PropOp38
 70
     1
102
RTVSPost2010Prop39
140
1.0
102
RTVSPost2010PropOp39
 70
     1
102
RTVSPost2010Prop40
 90
        0
102
RTVSPost2010PropOp40
 70
     1
102
RTVSPost2010Prop41ColorIndex
 90
       18
102
RTVSPost2010Prop41ColorRGB
 90
        0
102
RTVSPost2010PropOp41
 70
     1
102
RTVSPost2010Prop42
 90
       50
102
RTVSPost2010PropOp42
 70
     1
102
RTVSPost2010Prop43
 90
        3
102
RTVSPost2010PropOp43
 70
     1
102
RTVSPost2010Prop44ColorIndex
 90
        5
102
RTVSPost2010Prop44ColorRGB
 90
      255
102
RTVSPost2010PropOp44
 70
     1
102
RTVSPost2010Prop45
280
     0
102
RTVSPost2010PropOp45
 70
     1
102
RTVSPost2010Prop46
 90
       50
102
RTVSPost2010PropOp46
 70
     1
102
RTVSPost2010Prop47
 90
       50
102
RTVSPost2010PropOp47
 70
     1
102
RTVSPost2010Prop48
 90
       50
102
RTVSPost2010PropOp48
 70
     1
102
RTVSPost2010Prop49
280
     0
102
RTVSPost2010PropOp49
 70
     1
102
RTVSPost2010Prop50
 90
       50
102
RTVSPost2010PropOp50
 70
     1
102
RTVSPost2010Prop51ColorIndex
 90
      256
102
RTVSPost2010Prop51ColorRGB
 90
-16777216
102
RTVSPost2010PropOp51
 70
     0
102
RTVSPost2010Prop52
140
1.0
102
RTVSPost2010PropOp52
 70
     0
102
RTVSPost2010Prop53
 90
        2
102
RTVSPost2010PropOp53
 70
     1
102
RTVSPost2010Prop54
  1
strokes_ogs.tif
102
RTVSPost2010PropOp54
 70
     1
102
RTVSPost2010Prop55
280
     0
102
RTVSPost2010PropOp55
 70
     1
102
RTVSPost2010Prop56
140
1.0
102
RTVSPost2010PropOp56
 70
     1
102
RTVSPost2010Prop57
140
1.0
102
RTVSPost2010PropOp57
 70
     1
102
RTVSPropertyOp0
 70
     1
102
RTVSPropertyOp1
 70
     1
102
RTVSPropertyOp2
 70
     1
102
RTVSPropertyOp3
 70
     1
102
RTVSPropertyOp4
 70
     1
102
RTVSPropertyOp5
 70
     1
102
RTVSPropertyOp6
 70
     1
102
RTVSPropertyOp7
 70
     1
102
RTVSPropertyOp8
 70
     1
102
RTVSPropertyOp9
 70
     1
102
RTVSPropertyOp10
 70
     1
102
RTVSPropertyOp11
 70
     1
102
RTVSPropertyOp12
 70
     1
102
RTVSPropertyOp13
 70
     1
102
RTVSPropertyOp14
 70
     1
102
RTVSPropertyOp15
 70
     1
102
RTVSPropertyOp16
 70
     1
102
RTVSPropertyOp17
 70
     1
102
RTVSPropertyOp18
 70
     1
102
RTVSPropertyOp19
 70
     1
102
RTVSPropertyOp20
 70
     1
102
RTVSPropertyOp21
 70
     1
102
RTVSPropertyOp22
 70
     1
102
RTVSPropertyOp23
 70
     1
102
RTVSPropertyOp24
 70
     1
102
RTVSPropertyOp25
 70
     1
102
RTVSPropertyOp26
 70
     1
102
RTVSPropertyOp27
 70
     1
102
RTVSPropertyOp28
 70
     1
102
RTVSPropertyOp29
 70
     1
102
RTVSPropertyOp30
 70
     1
102
RTVSPropertyOp31
 70
     1
102
RTVSPropertyOp32
 70
     1
102
RTVSPropertyOp33
 70
     1
102
RTVSPropertyOp34
 70
     1
102
RTVSPropertyOp35
 70
     1
102
RTVSPropertyOp36
 70
     1
102
RTVSPropertyOp37
 70
     1
102
RTVSPropertyOp38
 70
     1
102
RTVSPropertyOp39
 70
     1
102
RTVSPropertyOp40
 70
     1
102
RTVSPropertyOp41
 70
     1
102
RTVSPropertyOp42
 70
     1
102
RTVSPropertyOp43
 70
     1
102
RTVSPropertyOp44
 70
     1
102
RTVSPropertyOp45
 70
     1
102
RTVSPropertyOp46
 70
     1
102
RTVSPropertyOp47
 70
     1
102
RTVSPropertyOp48
 70
     1
102
RTVSPropertyOp49
 70
     1
102
RTVSPropertyOp50
 70
     1
102
RTVSPropertyOp51
 70
     0
102
RTVSPropertyOp52
 70
     0
102
RTVSPropertyOp53
 70
     1
102
RTVSPropertyOp54
 70
     1
102
RTVSPropertyOp55
 70
     1
102
RTVSPropertyOp56
 70
     1
102
RTVSPropertyOp57
 70
     1
102
RTVSPropertyOp58
 70
     1
102
RTVSPropertyOp59
 70
     1
102
RTVSPropertyOp60
 70
     1
102
RTVSPropertyOp61
 70
     1
102
RTVSPropertyOp62
 70
     1
  0
XRECORD
  5
19B2
102
{ACAD_REACTORS
330
19B1
102
}
330
19B1
100
AcDbXrecord
280
     1
102
RTVSPost2010Prop28
280
     0
102
RTVSPost2010PropOp28
 70
     1
102
RTVSPost2010Prop29
280
     1
102
RTVSPost2010PropOp29
 70
     1
102
RTVSPost2010Prop30
280
     1
102
RTVSPost2010PropOp30
 70
     1
102
RTVSPost2010Prop31
280
     0
102
RTVSPost2010PropOp31
 70
     1
102
RTVSPost2010Prop32
280
     0
102
RTVSPost2010PropOp32
 70
     1
102
RTVSPost2010Prop33
280
     0
102
RTVSPost2010PropOp33
 70
     1
102
RTVSPost2010Prop34
280
     0
102
RTVSPost2010PropOp34
 70
     1
102
RTVSPost2010Prop35
280
     0
102
RTVSPost2010PropOp35
 70
     1
102
RTVSPost2010Prop36
280
     0
102
RTVSPost2010PropOp36
 70
     1
102
RTVSPost2010Prop37
 90
       50
102
RTVSPost2010PropOp37
 70
     1
102
RTVSPost2010Prop38
140
0.0
102
RTVSPost2010PropOp38
 70
     1
102
RTVSPost2010Prop39
140
1.0
102
RTVSPost2010PropOp39
 70
     1
102
RTVSPost2010Prop40
 90
        0
102
RTVSPost2010PropOp40
 70
     1
102
RTVSPost2010Prop41ColorIndex
 90
       18
102
RTVSPost2010Prop41ColorRGB
 90
        0
102
RTVSPost2010PropOp41
 70
     1
102
RTVSPost2010Prop42
 90
       50
102
RTVSPost2010PropOp42
 70
     1
102
RTVSPost2010Prop43
 90
        3
102
RTVSPost2010PropOp43
 70
     1
102
RTVSPost2010Prop44ColorIndex
 90
        5
102
RTVSPost2010Prop44ColorRGB
 90
      255
102
RTVSPost2010PropOp44
 70
     1
102
RTVSPost2010Prop45
280
     0
102
RTVSPost2010PropOp45
 70
     1
102
RTVSPost2010Prop46
 90
       50
102
RTVSPost2010PropOp46
 70
     1
102
RTVSPost2010Prop47
 90
       50
102
RTVSPost2010PropOp47
 70
     1
102
RTVSPost2010Prop48
 90
       50
102
RTVSPost2010PropOp48
 70
     1
102
RTVSPost2010Prop49
280
     0
102
RTVSPost2010PropOp49
 70
     1
102
RTVSPost2010Prop50
 90
       50
102
RTVSPost2010PropOp50
 70
     1
102
RTVSPost2010Prop51ColorIndex
 90
      256
102
RTVSPost2010Prop51ColorRGB
 90
-16777216
102
RTVSPost2010PropOp51
 70
     0
102
RTVSPost2010Prop52
140
1.0
102
RTVSPost2010PropOp52
 70
     0
102
RTVSPost2010Prop53
 90
        2
102
RTVSPost2010PropOp53
 70
     1
102
RTVSPost2010Prop54
  1
strokes_ogs.tif
102
RTVSPost2010PropOp54
 70
     1
102
RTVSPost2010Prop55
280
     0
102
RTVSPost2010PropOp55
 70
     1
102
RTVSPost2010Prop56
140
1.0
102
RTVSPost2010PropOp56
 70
     1
102
RTVSPost2010Prop57
140
1.0
102
RTVSPost2010PropOp57
 70
     1
102
RTVSPropertyOp0
 70
     1
102
RTVSPropertyOp1
 70
     1
102
RTVSPropertyOp2
 70
     1
102
RTVSPropertyOp3
 70
     1
102
RTVSPropertyOp4
 70
     1
102
RTVSPropertyOp5
 70
     1
102
RTVSPropertyOp6
 70
     1
102
RTVSPropertyOp7
 70
     1
102
RTVSPropertyOp8
 70
     1
102
RTVSPropertyOp9
 70
     1
102
RTVSPropertyOp10
 70
     1
102
RTVSPropertyOp11
 70
     1
102
RTVSPropertyOp12
 70
     1
102
RTVSPropertyOp13
 70
     1
102
RTVSPropertyOp14
 70
     1
102
RTVSPropertyOp15
 70
     1
102
RTVSPropertyOp16
 70
     1
102
RTVSPropertyOp17
 70
     1
102
RTVSPropertyOp18
 70
     1
102
RTVSPropertyOp19
 70
     1
102
RTVSPropertyOp20
 70
     1
102
RTVSPropertyOp21
 70
     1
102
RTVSPropertyOp22
 70
     1
102
RTVSPropertyOp23
 70
     1
102
RTVSPropertyOp24
 70
     1
102
RTVSPropertyOp25
 70
     1
102
RTVSPropertyOp26
 70
     1
102
RTVSPropertyOp27
 70
     1
102
RTVSPropertyOp28
 70
     1
102
RTVSPropertyOp29
 70
     1
102
RTVSPropertyOp30
 70
     1
102
RTVSPropertyOp31
 70
     1
102
RTVSPropertyOp32
 70
     1
102
RTVSPropertyOp33
 70
     1
102
RTVSPropertyOp34
 70
     1
102
RTVSPropertyOp35
 70
     1
102
RTVSPropertyOp36
 70
     1
102
RTVSPropertyOp37
 70
     1
102
RTVSPropertyOp38
 70
     1
102
RTVSPropertyOp39
 70
     1
102
RTVSPropertyOp40
 70
     1
102
RTVSPropertyOp41
 70
     1
102
RTVSPropertyOp42
 70
     1
102
RTVSPropertyOp43
 70
     1
102
RTVSPropertyOp44
 70
     1
102
RTVSPropertyOp45
 70
     1
102
RTVSPropertyOp46
 70
     1
102
RTVSPropertyOp47
 70
     1
102
RTVSPropertyOp48
 70
     1
102
RTVSPropertyOp49
 70
     1
102
RTVSPropertyOp50
 70
     1
102
RTVSPropertyOp51
 70
     0
102
RTVSPropertyOp52
 70
     0
102
RTVSPropertyOp53
 70
     1
102
RTVSPropertyOp54
 70
     1
102
RTVSPropertyOp55
 70
     1
102
RTVSPropertyOp56
 70
     1
102
RTVSPropertyOp57
 70
     1
102
RTVSPropertyOp58
 70
     1
102
RTVSPropertyOp59
 70
     1
102
RTVSPropertyOp60
 70
     1
102
RTVSPropertyOp61
 70
     1
102
RTVSPropertyOp62
 70
     1
  0
XRECORD
  5
19AC
102
{ACAD_REACTORS
330
19AB
102
}
330
19AB
100
AcDbXrecord
280
     1
102
RTVSPost2010Prop28
280
     0
102
RTVSPost2010PropOp28
 70
     1
102
RTVSPost2010Prop29
280
     1
102
RTVSPost2010PropOp29
 70
     1
102
RTVSPost2010Prop30
280
     1
102
RTVSPost2010PropOp30
 70
     1
102
RTVSPost2010Prop31
280
     0
102
RTVSPost2010PropOp31
 70
     1
102
RTVSPost2010Prop32
280
     0
102
RTVSPost2010PropOp32
 70
     1
102
RTVSPost2010Prop33
280
     0
102
RTVSPost2010PropOp33
 70
     1
102
RTVSPost2010Prop34
280
     0
102
RTVSPost2010PropOp34
 70
     1
102
RTVSPost2010Prop35
280
     0
102
RTVSPost2010PropOp35
 70
     1
102
RTVSPost2010Prop36
280
     0
102
RTVSPost2010PropOp36
 70
     1
102
RTVSPost2010Prop37
 90
       50
102
RTVSPost2010PropOp37
 70
     1
102
RTVSPost2010Prop38
140
0.0
102
RTVSPost2010PropOp38
 70
     1
102
RTVSPost2010Prop39
140
1.0
102
RTVSPost2010PropOp39
 70
     1
102
RTVSPost2010Prop40
 90
        0
102
RTVSPost2010PropOp40
 70
     1
102
RTVSPost2010Prop41ColorIndex
 90
       18
102
RTVSPost2010Prop41ColorRGB
 90
        0
102
RTVSPost2010PropOp41
 70
     1
102
RTVSPost2010Prop42
 90
       50
102
RTVSPost2010PropOp42
 70
     1
102
RTVSPost2010Prop43
 90
        3
102
RTVSPost2010PropOp43
 70
     1
102
RTVSPost2010Prop44ColorIndex
 90
        5
102
RTVSPost2010Prop44ColorRGB
 90
      255
102
RTVSPost2010PropOp44
 70
     1
102
RTVSPost2010Prop45
280
     0
102
RTVSPost2010PropOp45
 70
     1
102
RTVSPost2010Prop46
 90
       50
102
RTVSPost2010PropOp46
 70
     1
102
RTVSPost2010Prop47
 90
       50
102
RTVSPost2010PropOp47
 70
     1
102
RTVSPost2010Prop48
 90
       50
102
RTVSPost2010PropOp48
 70
     1
102
RTVSPost2010Prop49
280
     0
102
RTVSPost2010PropOp49
 70
     1
102
RTVSPost2010Prop50
 90
       50
102
RTVSPost2010PropOp50
 70
     1
102
RTVSPost2010Prop51ColorIndex
 90
      256
102
RTVSPost2010Prop51ColorRGB
 90
-16777216
102
RTVSPost2010PropOp51
 70
     0
102
RTVSPost2010Prop52
140
1.0
102
RTVSPost2010PropOp52
 70
     0
102
RTVSPost2010Prop53
 90
        2
102
RTVSPost2010PropOp53
 70
     1
102
RTVSPost2010Prop54
  1
strokes_ogs.tif
102
RTVSPost2010PropOp54
 70
     1
102
RTVSPost2010Prop55
280
     0
102
RTVSPost2010PropOp55
 70
     1
102
RTVSPost2010Prop56
140
1.0
102
RTVSPost2010PropOp56
 70
     1
102
RTVSPost2010Prop57
140
1.0
102
RTVSPost2010PropOp57
 70
     1
102
RTVSPropertyOp0
 70
     1
102
RTVSPropertyOp1
 70
     1
102
RTVSPropertyOp2
 70
     1
102
RTVSPropertyOp3
 70
     1
102
RTVSPropertyOp4
 70
     1
102
RTVSPropertyOp5
 70
     1
102
RTVSPropertyOp6
 70
     1
102
RTVSPropertyOp7
 70
     1
102
RTVSPropertyOp8
 70
     1
102
RTVSPropertyOp9
 70
     1
102
RTVSPropertyOp10
 70
     1
102
RTVSPropertyOp11
 70
     1
102
RTVSPropertyOp12
 70
     1
102
RTVSPropertyOp13
 70
     1
102
RTVSPropertyOp14
 70
     1
102
RTVSPropertyOp15
 70
     1
102
RTVSPropertyOp16
 70
     1
102
RTVSPropertyOp17
 70
     1
102
RTVSPropertyOp18
 70
     1
102
RTVSPropertyOp19
 70
     1
102
RTVSPropertyOp20
 70
     1
102
RTVSPropertyOp21
 70
     1
102
RTVSPropertyOp22
 70
     1
102
RTVSPropertyOp23
 70
     1
102
RTVSPropertyOp24
 70
     1
102
RTVSPropertyOp25
 70
     1
102
RTVSPropertyOp26
 70
     1
102
RTVSPropertyOp27
 70
     1
102
RTVSPropertyOp28
 70
     1
102
RTVSPropertyOp29
 70
     1
102
RTVSPropertyOp30
 70
     1
102
RTVSPropertyOp31
 70
     1
102
RTVSPropertyOp32
 70
     1
102
RTVSPropertyOp33
 70
     1
102
RTVSPropertyOp34
 70
     1
102
RTVSPropertyOp35
 70
     1
102
RTVSPropertyOp36
 70
     1
102
RTVSPropertyOp37
 70
     1
102
RTVSPropertyOp38
 70
     1
102
RTVSPropertyOp39
 70
     1
102
RTVSPropertyOp40
 70
     1
102
RTVSPropertyOp41
 70
     1
102
RTVSPropertyOp42
 70
     1
102
RTVSPropertyOp43
 70
     1
102
RTVSPropertyOp44
 70
     1
102
RTVSPropertyOp45
 70
     1
102
RTVSPropertyOp46
 70
     1
102
RTVSPropertyOp47
 70
     1
102
RTVSPropertyOp48
 70
     1
102
RTVSPropertyOp49
 70
     1
102
RTVSPropertyOp50
 70
     1
102
RTVSPropertyOp51
 70
     0
102
RTVSPropertyOp52
 70
     0
102
RTVSPropertyOp53
 70
     1
102
RTVSPropertyOp54
 70
     1
102
RTVSPropertyOp55
 70
     1
102
RTVSPropertyOp56
 70
     1
102
RTVSPropertyOp57
 70
     1
102
RTVSPropertyOp58
 70
     1
102
RTVSPropertyOp59
 70
     1
102
RTVSPropertyOp60
 70
     1
102
RTVSPropertyOp61
 70
     1
102
RTVSPropertyOp62
 70
     1
  0
XRECORD
  5
19AE
102
{ACAD_REACTORS
330
19AD
102
}
330
19AD
100
AcDbXrecord
280
     1
102
RTVSPost2010Prop28
280
     0
102
RTVSPost2010PropOp28
 70
     1
102
RTVSPost2010Prop29
280
     1
102
RTVSPost2010PropOp29
 70
     1
102
RTVSPost2010Prop30
280
     1
102
RTVSPost2010PropOp30
 70
     1
102
RTVSPost2010Prop31
280
     0
102
RTVSPost2010PropOp31
 70
     1
102
RTVSPost2010Prop32
280
     0
102
RTVSPost2010PropOp32
 70
     1
102
RTVSPost2010Prop33
280
     0
102
RTVSPost2010PropOp33
 70
     1
102
RTVSPost2010Prop34
280
     0
102
RTVSPost2010PropOp34
 70
     1
102
RTVSPost2010Prop35
280
     0
102
RTVSPost2010PropOp35
 70
     1
102
RTVSPost2010Prop36
280
     0
102
RTVSPost2010PropOp36
 70
     1
102
RTVSPost2010Prop37
 90
       50
102
RTVSPost2010PropOp37
 70
     1
102
RTVSPost2010Prop38
140
0.0
102
RTVSPost2010PropOp38
 70
     1
102
RTVSPost2010Prop39
140
1.0
102
RTVSPost2010PropOp39
 70
     1
102
RTVSPost2010Prop40
 90
        0
102
RTVSPost2010PropOp40
 70
     1
102
RTVSPost2010Prop41ColorIndex
 90
       18
102
RTVSPost2010Prop41ColorRGB
 90
        0
102
RTVSPost2010PropOp41
 70
     1
102
RTVSPost2010Prop42
 90
       50
102
RTVSPost2010PropOp42
 70
     1
102
RTVSPost2010Prop43
 90
        3
102
RTVSPost2010PropOp43
 70
     1
102
RTVSPost2010Prop44ColorIndex
 90
        5
102
RTVSPost2010Prop44ColorRGB
 90
      255
102
RTVSPost2010PropOp44
 70
     1
102
RTVSPost2010Prop45
280
     0
102
RTVSPost2010PropOp45
 70
     1
102
RTVSPost2010Prop46
 90
       50
102
RTVSPost2010PropOp46
 70
     1
102
RTVSPost2010Prop47
 90
       50
102
RTVSPost2010PropOp47
 70
     1
102
RTVSPost2010Prop48
 90
       50
102
RTVSPost2010PropOp48
 70
     1
102
RTVSPost2010Prop49
280
     0
102
RTVSPost2010PropOp49
 70
     1
102
RTVSPost2010Prop50
 90
       50
102
RTVSPost2010PropOp50
 70
     1
102
RTVSPost2010Prop51ColorIndex
 90
      256
102
RTVSPost2010Prop51ColorRGB
 90
-16777216
102
RTVSPost2010PropOp51
 70
     0
102
RTVSPost2010Prop52
140
1.0
102
RTVSPost2010PropOp52
 70
     0
102
RTVSPost2010Prop53
 90
        2
102
RTVSPost2010PropOp53
 70
     1
102
RTVSPost2010Prop54
  1
strokes_ogs.tif
102
RTVSPost2010PropOp54
 70
     1
102
RTVSPost2010Prop55
280
     0
102
RTVSPost2010PropOp55
 70
     1
102
RTVSPost2010Prop56
140
1.0
102
RTVSPost2010PropOp56
 70
     1
102
RTVSPost2010Prop57
140
1.0
102
RTVSPost2010PropOp57
 70
     1
102
RTVSPropertyOp0
 70
     1
102
RTVSPropertyOp1
 70
     1
102
RTVSPropertyOp2
 70
     1
102
RTVSPropertyOp3
 70
     1
102
RTVSPropertyOp4
 70
     1
102
RTVSPropertyOp5
 70
     1
102
RTVSPropertyOp6
 70
     1
102
RTVSPropertyOp7
 70
     1
102
RTVSPropertyOp8
 70
     1
102
RTVSPropertyOp9
 70
     1
102
RTVSPropertyOp10
 70
     1
102
RTVSPropertyOp11
 70
     1
102
RTVSPropertyOp12
 70
     1
102
RTVSPropertyOp13
 70
     1
102
RTVSPropertyOp14
 70
     1
102
RTVSPropertyOp15
 70
     1
102
RTVSPropertyOp16
 70
     1
102
RTVSPropertyOp17
 70
     1
102
RTVSPropertyOp18
 70
     1
102
RTVSPropertyOp19
 70
     1
102
RTVSPropertyOp20
 70
     1
102
RTVSPropertyOp21
 70
     1
102
RTVSPropertyOp22
 70
     1
102
RTVSPropertyOp23
 70
     1
102
RTVSPropertyOp24
 70
     1
102
RTVSPropertyOp25
 70
     1
102
RTVSPropertyOp26
 70
     1
102
RTVSPropertyOp27
 70
     1
102
RTVSPropertyOp28
 70
     1
102
RTVSPropertyOp29
 70
     1
102
RTVSPropertyOp30
 70
     1
102
RTVSPropertyOp31
 70
     1
102
RTVSPropertyOp32
 70
     1
102
RTVSPropertyOp33
 70
     1
102
RTVSPropertyOp34
 70
     1
102
RTVSPropertyOp35
 70
     1
102
RTVSPropertyOp36
 70
     1
102
RTVSPropertyOp37
 70
     1
102
RTVSPropertyOp38
 70
     1
102
RTVSPropertyOp39
 70
     1
102
RTVSPropertyOp40
 70
     1
102
RTVSPropertyOp41
 70
     1
102
RTVSPropertyOp42
 70
     1
102
RTVSPropertyOp43
 70
     1
102
RTVSPropertyOp44
 70
     1
102
RTVSPropertyOp45
 70
     1
102
RTVSPropertyOp46
 70
     1
102
RTVSPropertyOp47
 70
     1
102
RTVSPropertyOp48
 70
     1
102
RTVSPropertyOp49
 70
     1
102
RTVSPropertyOp50
 70
     1
102
RTVSPropertyOp51
 70
     0
102
RTVSPropertyOp52
 70
     0
102
RTVSPropertyOp53
 70
     1
102
RTVSPropertyOp54
 70
     1
102
RTVSPropertyOp55
 70
     1
102
RTVSPropertyOp56
 70
     1
102
RTVSPropertyOp57
 70
     1
102
RTVSPropertyOp58
 70
     1
102
RTVSPropertyOp59
 70
     1
102
RTVSPropertyOp60
 70
     1
102
RTVSPropertyOp61
 70
     1
102
RTVSPropertyOp62
 70
     1
  0
XRECORD
  5
19A4
102
{ACAD_REACTORS
330
19A3
102
}
330
19A3
100
AcDbXrecord
280
     1
102
RTVSPost2010Prop28
280
     0
102
RTVSPost2010PropOp28
 70
     1
102
RTVSPost2010Prop29
280
     1
102
RTVSPost2010PropOp29
 70
     1
102
RTVSPost2010Prop30
280
     1
102
RTVSPost2010PropOp30
 70
     1
102
RTVSPost2010Prop31
280
     0
102
RTVSPost2010PropOp31
 70
     1
102
RTVSPost2010Prop32
280
     0
102
RTVSPost2010PropOp32
 70
     1
102
RTVSPost2010Prop33
280
     0
102
RTVSPost2010PropOp33
 70
     1
102
RTVSPost2010Prop34
280
     0
102
RTVSPost2010PropOp34
 70
     1
102
RTVSPost2010Prop35
280
     0
102
RTVSPost2010PropOp35
 70
     1
102
RTVSPost2010Prop36
280
     0
102
RTVSPost2010PropOp36
 70
     1
102
RTVSPost2010Prop37
 90
       50
102
RTVSPost2010PropOp37
 70
     1
102
RTVSPost2010Prop38
140
0.0
102
RTVSPost2010PropOp38
 70
     1
102
RTVSPost2010Prop39
140
1.0
102
RTVSPost2010PropOp39
 70
     1
102
RTVSPost2010Prop40
 90
        0
102
RTVSPost2010PropOp40
 70
     1
102
RTVSPost2010Prop41ColorIndex
 90
       18
102
RTVSPost2010Prop41ColorRGB
 90
        0
102
RTVSPost2010PropOp41
 70
     1
102
RTVSPost2010Prop42
 90
       50
102
RTVSPost2010PropOp42
 70
     1
102
RTVSPost2010Prop43
 90
        3
102
RTVSPost2010PropOp43
 70
     1
102
RTVSPost2010Prop44ColorIndex
 90
        5
102
RTVSPost2010Prop44ColorRGB
 90
      255
102
RTVSPost2010PropOp44
 70
     1
102
RTVSPost2010Prop45
280
     0
102
RTVSPost2010PropOp45
 70
     1
102
RTVSPost2010Prop46
 90
       50
102
RTVSPost2010PropOp46
 70
     1
102
RTVSPost2010Prop47
 90
       50
102
RTVSPost2010PropOp47
 70
     1
102
RTVSPost2010Prop48
 90
       50
102
RTVSPost2010PropOp48
 70
     1
102
RTVSPost2010Prop49
280
     0
102
RTVSPost2010PropOp49
 70
     1
102
RTVSPost2010Prop50
 90
       50
102
RTVSPost2010PropOp50
 70
     1
102
RTVSPost2010Prop51ColorIndex
 90
      256
102
RTVSPost2010Prop51ColorRGB
 90
-16777216
102
RTVSPost2010PropOp51
 70
     0
102
RTVSPost2010Prop52
140
1.0
102
RTVSPost2010PropOp52
 70
     0
102
RTVSPost2010Prop53
 90
        2
102
RTVSPost2010PropOp53
 70
     1
102
RTVSPost2010Prop54
  1
strokes_ogs.tif
102
RTVSPost2010PropOp54
 70
     1
102
RTVSPost2010Prop55
280
     0
102
RTVSPost2010PropOp55
 70
     1
102
RTVSPost2010Prop56
140
1.0
102
RTVSPost2010PropOp56
 70
     1
102
RTVSPost2010Prop57
140
1.0
102
RTVSPost2010PropOp57
 70
     1
102
RTVSPropertyOp0
 70
     1
102
RTVSPropertyOp1
 70
     1
102
RTVSPropertyOp2
 70
     1
102
RTVSPropertyOp3
 70
     1
102
RTVSPropertyOp4
 70
     1
102
RTVSPropertyOp5
 70
     1
102
RTVSPropertyOp6
 70
     1
102
RTVSPropertyOp7
 70
     1
102
RTVSPropertyOp8
 70
     1
102
RTVSPropertyOp9
 70
     1
102
RTVSPropertyOp10
 70
     1
102
RTVSPropertyOp11
 70
     1
102
RTVSPropertyOp12
 70
     1
102
RTVSPropertyOp13
 70
     1
102
RTVSPropertyOp14
 70
     1
102
RTVSPropertyOp15
 70
     1
102
RTVSPropertyOp16
 70
     1
102
RTVSPropertyOp17
 70
     1
102
RTVSPropertyOp18
 70
     1
102
RTVSPropertyOp19
 70
     1
102
RTVSPropertyOp20
 70
     1
102
RTVSPropertyOp21
 70
     1
102
RTVSPropertyOp22
 70
     1
102
RTVSPropertyOp23
 70
     1
102
RTVSPropertyOp24
 70
     1
102
RTVSPropertyOp25
 70
     1
102
RTVSPropertyOp26
 70
     1
102
RTVSPropertyOp27
 70
     1
102
RTVSPropertyOp28
 70
     1
102
RTVSPropertyOp29
 70
     1
102
RTVSPropertyOp30
 70
     1
102
RTVSPropertyOp31
 70
     1
102
RTVSPropertyOp32
 70
     1
102
RTVSPropertyOp33
 70
     1
102
RTVSPropertyOp34
 70
     1
102
RTVSPropertyOp35
 70
     1
102
RTVSPropertyOp36
 70
     1
102
RTVSPropertyOp37
 70
     1
102
RTVSPropertyOp38
 70
     1
102
RTVSPropertyOp39
 70
     1
102
RTVSPropertyOp40
 70
     1
102
RTVSPropertyOp41
 70
     1
102
RTVSPropertyOp42
 70
     1
102
RTVSPropertyOp43
 70
     1
102
RTVSPropertyOp44
 70
     1
102
RTVSPropertyOp45
 70
     1
102
RTVSPropertyOp46
 70
     1
102
RTVSPropertyOp47
 70
     1
102
RTVSPropertyOp48
 70
     1
102
RTVSPropertyOp49
 70
     1
102
RTVSPropertyOp50
 70
     1
102
RTVSPropertyOp51
 70
     0
102
RTVSPropertyOp52
 70
     0
102
RTVSPropertyOp53
 70
     1
102
RTVSPropertyOp54
 70
     1
102
RTVSPropertyOp55
 70
     1
102
RTVSPropertyOp56
 70
     1
102
RTVSPropertyOp57
 70
     1
102
RTVSPropertyOp58
 70
     1
102
RTVSPropertyOp59
 70
     1
102
RTVSPropertyOp60
 70
     1
102
RTVSPropertyOp61
 70
     1
102
RTVSPropertyOp62
 70
     1
  0
XRECORD
  5
1998
102
{ACAD_REACTORS
330
1997
102
}
330
1997
100
AcDbXrecord
280
     1
102
RTVSPost2010Prop28
280
     0
102
RTVSPost2010PropOp28
 70
     1
102
RTVSPost2010Prop29
280
     1
102
RTVSPost2010PropOp29
 70
     1
102
RTVSPost2010Prop30
280
     1
102
RTVSPost2010PropOp30
 70
     1
102
RTVSPost2010Prop31
280
     0
102
RTVSPost2010PropOp31
 70
     1
102
RTVSPost2010Prop32
280
     0
102
RTVSPost2010PropOp32
 70
     1
102
RTVSPost2010Prop33
280
     0
102
RTVSPost2010PropOp33
 70
     1
102
RTVSPost2010Prop34
280
     0
102
RTVSPost2010PropOp34
 70
     1
102
RTVSPost2010Prop35
280
     0
102
RTVSPost2010PropOp35
 70
     1
102
RTVSPost2010Prop36
280
     0
102
RTVSPost2010PropOp36
 70
     1
102
RTVSPost2010Prop37
 90
       50
102
RTVSPost2010PropOp37
 70
     1
102
RTVSPost2010Prop38
140
0.0
102
RTVSPost2010PropOp38
 70
     1
102
RTVSPost2010Prop39
140
1.0
102
RTVSPost2010PropOp39
 70
     1
102
RTVSPost2010Prop40
 90
        0
102
RTVSPost2010PropOp40
 70
     1
102
RTVSPost2010Prop41ColorIndex
 90
       18
102
RTVSPost2010Prop41ColorRGB
 90
        0
102
RTVSPost2010PropOp41
 70
     1
102
RTVSPost2010Prop42
 90
       50
102
RTVSPost2010PropOp42
 70
     1
102
RTVSPost2010Prop43
 90
        3
102
RTVSPost2010PropOp43
 70
     1
102
RTVSPost2010Prop44ColorIndex
 90
        5
102
RTVSPost2010Prop44ColorRGB
 90
      255
102
RTVSPost2010PropOp44
 70
     1
102
RTVSPost2010Prop45
280
     0
102
RTVSPost2010PropOp45
 70
     1
102
RTVSPost2010Prop46
 90
       50
102
RTVSPost2010PropOp46
 70
     1
102
RTVSPost2010Prop47
 90
       50
102
RTVSPost2010PropOp47
 70
     1
102
RTVSPost2010Prop48
 90
       50
102
RTVSPost2010PropOp48
 70
     1
102
RTVSPost2010Prop49
280
     0
102
RTVSPost2010PropOp49
 70
     1
102
RTVSPost2010Prop50
 90
       50
102
RTVSPost2010PropOp50
 70
     1
102
RTVSPost2010Prop51ColorIndex
 90
      256
102
RTVSPost2010Prop51ColorRGB
 90
-16777216
102
RTVSPost2010PropOp51
 70
     0
102
RTVSPost2010Prop52
140
1.0
102
RTVSPost2010PropOp52
 70
     0
102
RTVSPost2010Prop53
 90
        2
102
RTVSPost2010PropOp53
 70
     1
102
RTVSPost2010Prop54
  1
strokes_ogs.tif
102
RTVSPost2010PropOp54
 70
     1
102
RTVSPost2010Prop55
280
     0
102
RTVSPost2010PropOp55
 70
     1
102
RTVSPost2010Prop56
140
1.0
102
RTVSPost2010PropOp56
 70
     1
102
RTVSPost2010Prop57
140
1.0
102
RTVSPost2010PropOp57
 70
     1
102
RTVSPropertyOp0
 70
     1
102
RTVSPropertyOp1
 70
     1
102
RTVSPropertyOp2
 70
     1
102
RTVSPropertyOp3
 70
     1
102
RTVSPropertyOp4
 70
     1
102
RTVSPropertyOp5
 70
     1
102
RTVSPropertyOp6
 70
     1
102
RTVSPropertyOp7
 70
     1
102
RTVSPropertyOp8
 70
     1
102
RTVSPropertyOp9
 70
     1
102
RTVSPropertyOp10
 70
     1
102
RTVSPropertyOp11
 70
     1
102
RTVSPropertyOp12
 70
     1
102
RTVSPropertyOp13
 70
     1
102
RTVSPropertyOp14
 70
     1
102
RTVSPropertyOp15
 70
     1
102
RTVSPropertyOp16
 70
     1
102
RTVSPropertyOp17
 70
     1
102
RTVSPropertyOp18
 70
     1
102
RTVSPropertyOp19
 70
     1
102
RTVSPropertyOp20
 70
     1
102
RTVSPropertyOp21
 70
     1
102
RTVSPropertyOp22
 70
     1
102
RTVSPropertyOp23
 70
     1
102
RTVSPropertyOp24
 70
     1
102
RTVSPropertyOp25
 70
     1
102
RTVSPropertyOp26
 70
     1
102
RTVSPropertyOp27
 70
     1
102
RTVSPropertyOp28
 70
     1
102
RTVSPropertyOp29
 70
     1
102
RTVSPropertyOp30
 70
     1
102
RTVSPropertyOp31
 70
     1
102
RTVSPropertyOp32
 70
     1
102
RTVSPropertyOp33
 70
     1
102
RTVSPropertyOp34
 70
     1
102
RTVSPropertyOp35
 70
     1
102
RTVSPropertyOp36
 70
     1
102
RTVSPropertyOp37
 70
     1
102
RTVSPropertyOp38
 70
     1
102
RTVSPropertyOp39
 70
     1
102
RTVSPropertyOp40
 70
     1
102
RTVSPropertyOp41
 70
     1
102
RTVSPropertyOp42
 70
     1
102
RTVSPropertyOp43
 70
     1
102
RTVSPropertyOp44
 70
     1
102
RTVSPropertyOp45
 70
     1
102
RTVSPropertyOp46
 70
     1
102
RTVSPropertyOp47
 70
     1
102
RTVSPropertyOp48
 70
     1
102
RTVSPropertyOp49
 70
     1
102
RTVSPropertyOp50
 70
     1
102
RTVSPropertyOp51
 70
     0
102
RTVSPropertyOp52
 70
     0
102
RTVSPropertyOp53
 70
     1
102
RTVSPropertyOp54
 70
     1
102
RTVSPropertyOp55
 70
     1
102
RTVSPropertyOp56
 70
     1
102
RTVSPropertyOp57
 70
     1
102
RTVSPropertyOp58
 70
     1
102
RTVSPropertyOp59
 70
     1
102
RTVSPropertyOp60
 70
     1
102
RTVSPropertyOp61
 70
     1
102
RTVSPropertyOp62
 70
     1
  0
XRECORD
  5
19B0
102
{ACAD_REACTORS
330
19AF
102
}
330
19AF
100
AcDbXrecord
280
     1
102
RTVSPost2010Prop28
280
     0
102
RTVSPost2010PropOp28
 70
     1
102
RTVSPost2010Prop29
280
     1
102
RTVSPost2010PropOp29
 70
     1
102
RTVSPost2010Prop30
280
     1
102
RTVSPost2010PropOp30
 70
     1
102
RTVSPost2010Prop31
280
     0
102
RTVSPost2010PropOp31
 70
     1
102
RTVSPost2010Prop32
280
     0
102
RTVSPost2010PropOp32
 70
     1
102
RTVSPost2010Prop33
280
     0
102
RTVSPost2010PropOp33
 70
     1
102
RTVSPost2010Prop34
280
     0
102
RTVSPost2010PropOp34
 70
     1
102
RTVSPost2010Prop35
280
     0
102
RTVSPost2010PropOp35
 70
     1
102
RTVSPost2010Prop36
280
     0
102
RTVSPost2010PropOp36
 70
     1
102
RTVSPost2010Prop37
 90
       50
102
RTVSPost2010PropOp37
 70
     1
102
RTVSPost2010Prop38
140
0.0
102
RTVSPost2010PropOp38
 70
     1
102
RTVSPost2010Prop39
140
1.0
102
RTVSPost2010PropOp39
 70
     1
102
RTVSPost2010Prop40
 90
        0
102
RTVSPost2010PropOp40
 70
     1
102
RTVSPost2010Prop41ColorIndex
 90
       18
102
RTVSPost2010Prop41ColorRGB
 90
        0
102
RTVSPost2010PropOp41
 70
     1
102
RTVSPost2010Prop42
 90
       50
102
RTVSPost2010PropOp42
 70
     1
102
RTVSPost2010Prop43
 90
        3
102
RTVSPost2010PropOp43
 70
     1
102
RTVSPost2010Prop44ColorIndex
 90
        5
102
RTVSPost2010Prop44ColorRGB
 90
      255
102
RTVSPost2010PropOp44
 70
     1
102
RTVSPost2010Prop45
280
     0
102
RTVSPost2010PropOp45
 70
     1
102
RTVSPost2010Prop46
 90
       50
102
RTVSPost2010PropOp46
 70
     1
102
RTVSPost2010Prop47
 90
       50
102
RTVSPost2010PropOp47
 70
     1
102
RTVSPost2010Prop48
 90
       50
102
RTVSPost2010PropOp48
 70
     1
102
RTVSPost2010Prop49
280
     0
102
RTVSPost2010PropOp49
 70
     1
102
RTVSPost2010Prop50
 90
       50
102
RTVSPost2010PropOp50
 70
     1
102
RTVSPost2010Prop51ColorIndex
 90
      256
102
RTVSPost2010Prop51ColorRGB
 90
-16777216
102
RTVSPost2010PropOp51
 70
     0
102
RTVSPost2010Prop52
140
1.0
102
RTVSPost2010PropOp52
 70
     0
102
RTVSPost2010Prop53
 90
        2
102
RTVSPost2010PropOp53
 70
     1
102
RTVSPost2010Prop54
  1
strokes_ogs.tif
102
RTVSPost2010PropOp54
 70
     1
102
RTVSPost2010Prop55
280
     0
102
RTVSPost2010PropOp55
 70
     1
102
RTVSPost2010Prop56
140
1.0
102
RTVSPost2010PropOp56
 70
     1
102
RTVSPost2010Prop57
140
1.0
102
RTVSPost2010PropOp57
 70
     1
102
RTVSPropertyOp0
 70
     1
102
RTVSPropertyOp1
 70
     1
102
RTVSPropertyOp2
 70
     1
102
RTVSPropertyOp3
 70
     1
102
RTVSPropertyOp4
 70
     1
102
RTVSPropertyOp5
 70
     1
102
RTVSPropertyOp6
 70
     1
102
RTVSPropertyOp7
 70
     1
102
RTVSPropertyOp8
 70
     1
102
RTVSPropertyOp9
 70
     1
102
RTVSPropertyOp10
 70
     1
102
RTVSPropertyOp11
 70
     1
102
RTVSPropertyOp12
 70
     1
102
RTVSPropertyOp13
 70
     1
102
RTVSPropertyOp14
 70
     1
102
RTVSPropertyOp15
 70
     1
102
RTVSPropertyOp16
 70
     1
102
RTVSPropertyOp17
 70
     1
102
RTVSPropertyOp18
 70
     1
102
RTVSPropertyOp19
 70
     1
102
RTVSPropertyOp20
 70
     1
102
RTVSPropertyOp21
 70
     1
102
RTVSPropertyOp22
 70
     1
102
RTVSPropertyOp23
 70
     1
102
RTVSPropertyOp24
 70
     1
102
RTVSPropertyOp25
 70
     1
102
RTVSPropertyOp26
 70
     1
102
RTVSPropertyOp27
 70
     1
102
RTVSPropertyOp28
 70
     1
102
RTVSPropertyOp29
 70
     1
102
RTVSPropertyOp30
 70
     1
102
RTVSPropertyOp31
 70
     1
102
RTVSPropertyOp32
 70
     1
102
RTVSPropertyOp33
 70
     1
102
RTVSPropertyOp34
 70
     1
102
RTVSPropertyOp35
 70
     1
102
RTVSPropertyOp36
 70
     1
102
RTVSPropertyOp37
 70
     1
102
RTVSPropertyOp38
 70
     1
102
RTVSPropertyOp39
 70
     1
102
RTVSPropertyOp40
 70
     1
102
RTVSPropertyOp41
 70
     1
102
RTVSPropertyOp42
 70
     1
102
RTVSPropertyOp43
 70
     1
102
RTVSPropertyOp44
 70
     1
102
RTVSPropertyOp45
 70
     1
102
RTVSPropertyOp46
 70
     1
102
RTVSPropertyOp47
 70
     1
102
RTVSPropertyOp48
 70
     1
102
RTVSPropertyOp49
 70
     1
102
RTVSPropertyOp50
 70
     1
102
RTVSPropertyOp51
 70
     0
102
RTVSPropertyOp52
 70
     0
102
RTVSPropertyOp53
 70
     1
102
RTVSPropertyOp54
 70
     1
102
RTVSPropertyOp55
 70
     1
102
RTVSPropertyOp56
 70
     1
102
RTVSPropertyOp57
 70
     1
102
RTVSPropertyOp58
 70
     1
102
RTVSPropertyOp59
 70
     1
102
RTVSPropertyOp60
 70
     1
102
RTVSPropertyOp61
 70
     1
102
RTVSPropertyOp62
 70
     1
  0
ENDSEC
  0
EOF
