  0
SECTION
  2
HEADER
  9
$ACADVER
  1
AC1015
  9
$ACADMAINTVER
 70
    20
  9
$DWGCODEPAGE
  3
ANSI_932
  9
$INSBASE
 10
0.0
 20
0.0
 30
0.0
  9
$EXTMIN
 10
9.999997999999999
 20
10.000001
 30
0.0
  9
$EXTMAX
 10
400.9250429999998
 20
226.499928
 30
0.0
  9
$LIMMIN
 10
0.000002
 20
0.0
  9
$LIMMAX
 10
495.0000019999998
 20
341.25
  9
$ORTHOMODE
 70
     1
  9
$REGENMODE
 70
     1
  9
$FILLMODE
 70
     1
  9
$QTEXTMODE
 70
     0
  9
$MIRRTEXT
 70
     1
  9
$LTSCALE
 40
1.0
  9
$ATTMODE
 70
     1
  9
$TEXTSIZE
 40
2.5
  9
$TRACEWID
 40
1.0
  9
$TEXTSTYLE
  7
STANDARD
  9
$CLAYER
  8
0
  9
$CELTYPE
  6
BYLAYER
  9
$CECOLOR
 62
   256
  9
$CELTSCALE
 40
1.0
  9
$DISPSILH
 70
     0
  9
$DIMSCALE
 40
1.0
  9
$DIMASZ
 40
3.0
  9
$DIMEXO
 40
1.0
  9
$DIMDLI
 40
10.0
  9
$DIMRND
 40
0.0
  9
$DIMDLE
 40
0.0
  9
$DIMEXE
 40
1.0
  9
$DIMTP
 40
0.0
  9
$DIMTM
 40
0.0
  9
$DIMTXT
 40
3.2
  9
$DIMCEN
 40
0.0
  9
$DIMTSZ
 40
0.0
  9
$DIMTOL
 70
     0
  9
$DIMLIM
 70
     0
  9
$DIMTIH
 70
     0
  9
$DIMTOH
 70
     0
  9
$DIMSE1
 70
     0
  9
$DIMSE2
 70
     0
  9
$DIMTAD
 70
     3
  9
$DIMZIN
 70
     8
  9
$DIMBLK
  1

  9
$DIMASO
 70
     1
  9
$DIMSHO
 70
     1
  9
$DIMPOST
  1

  9
$DIMAPOST
  1

  9
$DIMALT
 70
     0
  9
$DIMALTD
 70
     2
  9
$DIMALTF
 40
25.4
  9
$DIMLFAC
 40
1.0
  9
$DIMTOFL
 70
     1
  9
$DIMTVP
 40
0.0
  9
$DIMTIX
 70
     0
  9
$DIMSOXD
 70
     0
  9
$DIMSAH
 70
     1
  9
$DIMBLK1
  1
OPEN
  9
$DIMBLK2
  1
OPEN
  9
$DIMSTYLE
  2
STANDARD
  9
$DIMCLRD
 70
     0
  9
$DIMCLRE
 70
     0
  9
$DIMCLRT
 70
     0
  9
$DIMTFAC
 40
1.0
  9
$DIMGAP
 40
1.0
  9
$DIMJUST
 70
     0
  9
$DIMSD1
 70
     0
  9
$DIMSD2
 70
     0
  9
$DIMTOLJ
 70
     1
  9
$DIMTZIN
 70
     0
  9
$DIMALTZ
 70
     0
  9
$DIMALTTZ
 70
     0
  9
$DIMUPT
 70
     0
  9
$DIMDEC
 70
     4
  9
$DIMTDEC
 70
     4
  9
$DIMALTU
 70
     2
  9
$DIMALTTD
 70
     2
  9
$DIMTXSTY
  7
STANDARD
  9
$DIMAUNIT
 70
     0
  9
$DIMADEC
 70
     0
  9
$DIMALTRND
 40
0.0
  9
$DIMAZIN
 70
     0
  9
$DIMDSEP
 70
    46
  9
$DIMATFIT
 70
     3
  9
$DIMFRAC
 70
     0
  9
$DIMLDRBLK
  1
OPEN
  9
$DIMLUNIT
 70
     2
  9
$DIMLWD
 70
    -2
  9
$DIMLWE
 70
    -2
  9
$DIMTMOVE
 70
     0
  9
$LUNITS
 70
     2
  9
$LUPREC
 70
     4
  9
$SKETCHINC
 40
1.0
  9
$FILLETRAD
 40
0.0
  9
$AUNITS
 70
     0
  9
$AUPREC
 70
     0
  9
$MENU
  1
.
  9
$ELEVATION
 40
0.0
  9
$PELEVATION
 40
0.0
  9
$THICKNESS
 40
0.0
  9
$LIMCHECK
 70
     0
  9
$CHAMFERA
 40
10.0
  9
$CHAMFERB
 40
10.0
  9
$CHAMFERC
 40
0.0
  9
$CHAMFERD
 40
0.0
  9
$SKPOLY
 70
     0
  9
$TDCREATE
 40
2451650.385882998
  9
$TDUCREATE
 40
2451650.010882998
  9
$TDUPDATE
 40
2457192.601576505
  9
$TDUUPDATE
 40
2457192.226576505
  9
$TDINDWG
 40
0.1178594213
  9
$TDUSRTIMER
 40
0.1178591088
  9
$USRTIMER
 70
     1
  9
$ANGBASE
 50
0.0
  9
$ANGDIR
 70
     0
  9
$PDMODE
 70
     0
  9
$PDSIZE
 40
0.0
  9
$PLINEWID
 40
0.0
  9
$SPLFRAME
 70
     0
  9
$SPLINETYPE
 70
     6
  9
$SPLINESEGS
 70
     8
  9
$HANDSEED
  5
1AB2
  9
$SURFTAB1
 70
     6
  9
$SURFTAB2
 70
     6
  9
$SURFTYPE
 70
     6
  9
$SURFU
 70
     6
  9
$SURFV
 70
     6
  9
$UCSBASE
  2

  9
$UCSNAME
  2

  9
$UCSORG
 10
0.0
 20
0.0
 30
0.0
  9
$UCSXDIR
 10
1.0
 20
0.0
 30
0.0
  9
$UCSYDIR
 10
0.0
 20
1.0
 30
0.0
  9
$UCSORTHOREF
  2

  9
$UCSORTHOVIEW
 70
     0
  9
$UCSORGTOP
 10
0.0
 20
0.0
 30
0.0
  9
$UCSORGBOTTOM
 10
0.0
 20
0.0
 30
0.0
  9
$UCSORGLEFT
 10
0.0
 20
0.0
 30
0.0
  9
$UCSORGRIGHT
 10
0.0
 20
0.0
 30
0.0
  9
$UCSORGFRONT
 10
0.0
 20
0.0
 30
0.0
  9
$UCSORGBACK
 10
0.0
 20
0.0
 30
0.0
  9
$PUCSBASE
  2

  9
$PUCSNAME
  2

  9
$PUCSORG
 10
0.0
 20
0.0
 30
0.0
  9
$PUCSXDIR
 10
1.0
 20
0.0
 30
0.0
  9
$PUCSYDIR
 10
0.0
 20
1.0
 30
0.0
  9
$PUCSORTHOREF
  2

  9
$PUCSORTHOVIEW
 70
     0
  9
$PUCSORGTOP
 10
0.0
 20
0.0
 30
0.0
  9
$PUCSORGBOTTOM
 10
0.0
 20
0.0
 30
0.0
  9
$PUCSORGLEFT
 10
0.0
 20
0.0
 30
0.0
  9
$PUCSORGRIGHT
 10
0.0
 20
0.0
 30
0.0
  9
$PUCSORGFRONT
 10
0.0
 20
0.0
 30
0.0
  9
$PUCSORGBACK
 10
0.0
 20
0.0
 30
0.0
  9
$USERI1
 70
     0
  9
$USERI2
 70
     0
  9
$USERI3
 70
     0
  9
$USERI4
 70
     0
  9
$USERI5
 70
     0
  9
$USERR1
 40
0.0
  9
$USERR2
 40
0.0
  9
$USERR3
 40
0.0
  9
$USERR4
 40
0.0
  9
$USERR5
 40
0.0
  9
$WORLDVIEW
 70
     1
  9
$SHADEDGE
 70
     3
  9
$SHADEDIF
 70
    70
  9
$TILEMODE
 70
     1
  9
$MAXACTVP
 70
    48
  9
$PINSBASE
 10
0.0
 20
0.0
 30
0.0
  9
$PLIMCHECK
 70
     0
  9
$PEXTMIN
 10
1.000000000000000E+20
 20
1.000000000000000E+20
 30
1.000000000000000E+20
  9
$PEXTMAX
 10
-1.000000000000000E+20
 20
-1.000000000000000E+20
 30
-1.000000000000000E+20
  9
$PLIMMIN
 10
0.0
 20
0.0
  9
$PLIMMAX
 10
420.0
 20
297.0
  9
$UNITMODE
 70
     0
  9
$VISRETAIN
 70
     1
  9
$PLINEGEN
 70
     0
  9
$PSLTSCALE
 70
     1
  9
$TREEDEPTH
 70
  3020
  9
$CMLSTYLE
  2
STANDARD
  9
$CMLJUST
 70
     0
  9
$CMLSCALE
 40
1.0
  9
$PROXYGRAPHICS
 70
     1
  9
$MEASUREMENT
 70
     0
  9
$CELWEIGHT
370
    -1
  9
$ENDCAPS
280
     0
  9
$JOINSTYLE
280
     0
  9
$LWDISPLAY
290
     0
  9
$INSUNITS
 70
     0
  9
$HYPERLINKBASE
  1

  9
$STYLESHEET
  1

  9
$XEDIT
290
     1
  9
$CEPSNTYPE
380
     0
  9
$PSTYLEMODE
290
     1
  9
$FINGERPRINTGUID
  2
{D1F7A937-4363-404A-8380-A2D53501855D}
  9
$VERSIONGUID
  2
{D7FFFB35-FBBE-4BA6-ABCF-FC1BBEF58F13}
  9
$EXTNAMES
290
     1
  9
$PSVPSCALE
 40
0.0
  9
$OLESTARTUP
290
     0
  0
ENDSEC
  0
SECTION
  2
CLASSES
  0
CLASS
  1
ACDBDICTIONARYWDFLT
  2
AcDbDictionaryWithDefault
  3
ObjectDBX Classes
 90
        0
280
     0
281
     0
  0
CLASS
  1
ACDBPLACEHOLDER
  2
AcDbPlaceHolder
  3
ObjectDBX Classes
 90
        0
280
     0
281
     0
  0
CLASS
  1
LAYOUT
  2
AcDbLayout
  3
ObjectDBX Classes
 90
        0
280
     0
281
     0
  0
CLASS
  1
DICTIONARYVAR
  2
AcDbDictionaryVar
  3
ObjectDBX Classes
 90
        0
280
     0
281
     0
  0
CLASS
  1
MATERIAL
  2
AcDbMaterial
  3
ObjectDBX Classes
 90
     1153
280
     0
281
     0
  0
CLASS
  1
VISUALSTYLE
  2
AcDbVisualStyle
  3
ObjectDBX Classes
 90
     4095
280
     0
281
     0
  0
CLASS
  1
TABLESTYLE
  2
AcDbTableStyle
  3
ObjectDBX Classes
 90
     4095
280
     0
281
     0
  0
CLASS
  1
SCALE
  2
AcDbScale
  3
ObjectDBX Classes
 90
     1153
280
     0
281
     0
  0
CLASS
  1
MLEADERSTYLE
  2
AcDbMLeaderStyle
  3
ACDB_MLEADERSTYLE_CLASS
 90
     4095
280
     0
281
     0
  0
CLASS
  1
ACDBSECTIONVIEWSTYLE
  2
AcDbSectionViewStyle
  3
ObjectDBX Classes
 90
     1025
280
     0
281
     0
  0
CLASS
  1
ACDBDETAILVIEWSTYLE
  2
AcDbDetailViewStyle
  3
ObjectDBX Classes
 90
     1025
280
     0
281
     0
  0
CLASS
  1
CELLSTYLEMAP
  2
AcDbCellStyleMap
  3
ObjectDBX Classes
 90
     1152
280
     0
281
     0
  0
ENDSEC
  0
SECTION
  2
TABLES
  0
TABLE
  2
VPORT
  5
17DA
330
0
100
AcDbSymbolTable
 70
     1
  0
VPORT
  5
19FB
330
17DA
100
AcDbSymbolTableRecord
100
AcDbViewportTableRecord
  2
*ACTIVE
 70
     0
 10
0.0
 20
0.0
 11
1.0
 21
1.0
 12
272.777934423149
 22
118.2549770061507
 13
0.0
 23
0.0
 14
10.0
 24
10.0
 15
10.0
 25
10.0
 16
0.0
 26
0.0
 36
1.0
 17
0.0
 27
0.0
 37
0.0
 40
224.7204509925515
 41
1.899603698811096
 42
50.0
 43
0.0
 44
0.0
 50
0.0
 51
0.0
 71
     0
 72
   100
 73
     1
 74
     0
 75
     0
 76
     0
 77
     0
 78
     0
281
     0
 65
     1
110
0.0
120
0.0
130
0.0
111
1.0
121
0.0
131
0.0
112
0.0
122
1.0
132
0.0
 79
     0
146
0.0
1001
ACAD_NAV_VCDISPLAY
1070
     3
  0
ENDTAB
  0
TABLE
  2
LTYPE
  5
17D7
330
0
100
AcDbSymbolTable
 70
     4
  0
LTYPE
  5
17E5
330
17D7
100
AcDbSymbolTableRecord
100
AcDbLinetypeTableRecord
  2
BYBLOCK
 70
     0
  3

 72
    65
 73
     0
 40
0.0
  0
LTYPE
  5
17E6
330
17D7
100
AcDbSymbolTableRecord
100
AcDbLinetypeTableRecord
  2
BYLAYER
 70
     0
  3

 72
    65
 73
     0
 40
0.0
  0
LTYPE
  5
17E7
330
17D7
100
AcDbSymbolTableRecord
100
AcDbLinetypeTableRecord
  2
CONTINUOUS
 70
     0
  3
Solid line
 72
    65
 73
     0
 40
0.0
  0
LTYPE
  5
17F5
330
17D7
100
AcDbSymbolTableRecord
100
AcDbLinetypeTableRecord
  2
DASHED
 70
     0
  3
Dashed __ __ __ __ __ __ __ __ __ __ __ __ __ _
 72
    65
 73
     2
 40
19.05
 49
12.7
 74
     0
 49
-6.349999999999997
 74
     0
  0
LTYPE
  5
17F6
330
17D7
100
AcDbSymbolTableRecord
100
AcDbLinetypeTableRecord
  2
CENTER
 70
     0
  3
Center ____ _ ____ _ ____ _ ____ _ ____ _ ____
 72
    65
 73
     4
 40
50.8
 49
31.75
 74
     0
 49
-6.349999999999997
 74
     0
 49
6.349999999999997
 74
     0
 49
-6.349999999999997
 74
     0
  0
LTYPE
  5
17F7
330
17D7
100
AcDbSymbolTableRecord
100
AcDbLinetypeTableRecord
  2
PHANTOM
 70
     0
  3
Phantom ______  __  __  ______  __  __  ______
 72
    65
 73
     6
 40
63.5
 49
31.75
 74
     0
 49
-6.349999999999997
 74
     0
 49
6.349999999999997
 74
     0
 49
-6.349999999999997
 74
     0
 49
6.349999999999997
 74
     0
 49
-6.349999999999997
 74
     0
  0
ENDTAB
  0
TABLE
  2
LAYER
  5
17D4
330
0
100
AcDbSymbolTable
 70
     8
  0
LAYER
  5
17E2
102
{ACAD_XDICTIONARY
360
1A56
102
}
330
17D4
100
AcDbSymbolTableRecord
100
AcDbLayerTableRecord
  2
0
 70
     0
 62
     7
  6
CONTINUOUS
370
    -3
390
1A04
  0
LAYER
  5
17F8
102
{ACAD_XDICTIONARY
360
1A58
102
}
330
17D4
100
AcDbSymbolTableRecord
100
AcDbLayerTableRecord
  2
4
 70
     0
 62
     1
  6
CENTER
370
    -3
390
1A04
  0
LAYER
  5
17F9
102
{ACAD_XDICTIONARY
360
1A5A
102
}
330
17D4
100
AcDbSymbolTableRecord
100
AcDbLayerTableRecord
  2
5
 70
     0
 62
     6
  6
PHANTOM
370
    -3
390
1A04
  0
LAYER
  5
17FA
102
{ACAD_XDICTIONARY
360
1A5C
102
}
330
17D4
100
AcDbSymbolTableRecord
100
AcDbLayerTableRecord
  2
1
 70
     0
 62
     7
  6
CONTINUOUS
370
    -3
390
1A04
  0
LAYER
  5
17FB
102
{ACAD_XDICTIONARY
360
1A5E
102
}
330
17D4
100
AcDbSymbolTableRecord
100
AcDbLayerTableRecord
  2
2
 70
     0
 62
     4
  6
CONTINUOUS
370
    -3
390
1A04
  0
LAYER
  5
17FC
102
{ACAD_XDICTIONARY
360
1A60
102
}
330
17D4
100
AcDbSymbolTableRecord
100
AcDbLayerTableRecord
  2
3
 70
     0
 62
     2
  6
DASHED
370
    -3
390
1A04
  0
LAYER
  5
17FD
102
{ACAD_XDICTIONARY
360
1A62
102
}
330
17D4
100
AcDbSymbolTableRecord
100
AcDbLayerTableRecord
  2
6
 70
     0
 62
     5
  6
CONTINUOUS
370
    -3
390
1A04
  0
LAYER
  5
17FE
102
{ACAD_XDICTIONARY
360
1A64
102
}
330
17D4
100
AcDbSymbolTableRecord
100
AcDbLayerTableRecord
  2
7
 70
     0
 62
     3
  6
CONTINUOUS
370
    -3
390
1A04
  0
ENDTAB
  0
TABLE
  2
STYLE
  5
17D5
330
0
100
AcDbSymbolTable
 70
     1
  0
STYLE
  5
17E3
330
17D5
100
AcDbSymbolTableRecord
100
AcDbTextStyleTableRecord
  2
STANDARD
 70
     0
 40
0.0
 41
1.0
 50
0.0
 71
     0
 42
2.5
  3
txt
  4

  0
ENDTAB
  0
TABLE
  2
VIEW
  5
17D8
330
0
100
AcDbSymbolTable
 70
     0
  0
ENDTAB
  0
TABLE
  2
UCS
  5
17D9
330
0
100
AcDbSymbolTable
 70
     0
  0
ENDTAB
  0
TABLE
  2
APPID
  5
17DB
330
0
100
AcDbSymbolTable
 70
     7
  0
APPID
  5
17E4
330
17DB
100
AcDbSymbolTableRecord
100
AcDbRegAppTableRecord
  2
ACAD
 70
     0
  0
APPID
  5
17FF
330
17DB
100
AcDbSymbolTableRecord
100
AcDbRegAppTableRecord
  2
CONTENTTABDATA
 70
     0
  0
APPID
  5
1800
330
17DB
100
AcDbSymbolTableRecord
100
AcDbRegAppTableRecord
  2
CONTENTCURRENTTAB
 70
     0
  0
APPID
  5
1801
330
17DB
100
AcDbSymbolTableRecord
100
AcDbRegAppTableRecord
  2
CONTENTBLOCKDESCRIPTION
 70
     0
  0
APPID
  5
1802
330
17DB
100
AcDbSymbolTableRecord
100
AcDbRegAppTableRecord
  2
CONTENTBLOCKICON
 70
     0
  0
APPID
  5
1A70
330
17DB
100
AcDbSymbolTableRecord
100
AcDbRegAppTableRecord
  2
ACAD_NAV_VCDISPLAY
 70
     0
  0
APPID
  5
1AA9
330
17DB
100
AcDbSymbolTableRecord
100
AcDbRegAppTableRecord
  2
ACAD_MLEADERVER
 70
     0
  0
ENDTAB
  0
TABLE
  2
DIMSTYLE
  5
17DC
330
0
100
AcDbSymbolTable
 70
     1
100
AcDbDimStyleTable
 71
     0
  0
DIMSTYLE
105
1803
330
17DC
100
AcDbSymbolTableRecord
100
AcDbDimStyleTableRecord
  2
STANDARD
 70
     0
 41
3.0
 42
1.0
 43
10.0
 44
1.0
 73
     0
 74
     0
 77
     3
 78
     8
140
3.2
141
0.0
147
1.0
172
     1
173
     1
284
     8
285
     8
286
     8
340
17E3
  0
ENDTAB
  0
TABLE
  2
BLOCK_RECORD
  5
17D3
330
0
100
AcDbSymbolTable
 70
     1
  0
BLOCK_RECORD
  5
17F0
102
{ACAD_XDICTIONARY
360
19FE
102
}
330
17D3
100
AcDbSymbolTableRecord
100
AcDbBlockTableRecord
  2
*MODEL_SPACE
340
1A52
  0
BLOCK_RECORD
  5
17EC
102
{ACAD_XDICTIONARY
360
19FC
102
}
330
17D3
100
AcDbSymbolTableRecord
100
AcDbBlockTableRecord
  2
*PAPER_SPACE
340
1A53
  0
BLOCK_RECORD
  5
180B
330
17D3
100
AcDbSymbolTableRecord
100
AcDbBlockTableRecord
  2
_OPEN
340
0
  0
ENDTAB
  0
ENDSEC
  0
SECTION
  2
BLOCKS
  0
BLOCK
  5
17F1
330
17F0
100
AcDbEntity
  8
0
100
AcDbBlockBegin
  2
*MODEL_SPACE
 70
     0
 10
0.0
 20
0.0
 30
0.0
  3
*MODEL_SPACE
  1

  0
ENDBLK
  5
17F2
330
17F0
100
AcDbEntity
  8
0
100
AcDbBlockEnd
  0
BLOCK
  5
17ED
330
17EC
100
AcDbEntity
 67
     1
  8
0
100
AcDbBlockBegin
  2
*PAPER_SPACE
 70
     0
 10
0.0
 20
0.0
 30
0.0
  3
*PAPER_SPACE
  1

  0
ENDBLK
  5
17EE
330
17EC
100
AcDbEntity
 67
     1
  8
0
100
AcDbBlockEnd
  0
BLOCK
  5
180C
330
180B
100
AcDbEntity
  8
0
100
AcDbBlockBegin
  2
_OPEN
 70
     0
 10
0.0
 20
0.0
 30
0.0
  3
_OPEN
  1

  0
LINE
  5
180D
330
180B
100
AcDbEntity
  8
0
  6
ByBlock
 62
     0
100
AcDbLine
 10
-1.0
 20
0.166667
 30
0.0
 11
0.0
 21
0.0
 31
0.0
  0
LINE
  5
180E
330
180B
100
AcDbEntity
  8
0
  6
ByBlock
 62
     0
100
AcDbLine
 10
0.0
 20
0.0
 30
0.0
 11
-1.0
 21
-0.166667
 31
0.0
  0
LINE
  5
180F
330
180B
100
AcDbEntity
  8
0
  6
ByBlock
 62
     0
100
AcDbLine
 10
0.0
 20
0.0
 30
0.0
 11
-1.0
 21
0.0
 31
0.0
  0
ENDBLK
  5
1810
330
180B
100
AcDbEntity
  8
0
100
AcDbBlockEnd
  0
ENDSEC
  0
SECTION
  2
ENTITIES
  0
TEXT
  5
1811
330
17F0
100
AcDbEntity
  8
4
  6
CENTER
100
AcDbText
 10
23.979509
 20
10.048738
 30
0.0
 40
1.399999999999999
  1
4
100
AcDbText
  0
TEXT
  5
1812
330
17F0
100
AcDbEntity
  8
7
  6
Continuous
100
AcDbText
 10
9.999997999999999
 20
26.000001
 30
0.0
 40
3.0
  1
CODE No.1926
100
AcDbText
  0
TEXT
  5
1813
330
17F0
100
AcDbEntity
  8
7
  6
Continuous
100
AcDbText
 10
9.999997999999999
 20
18.000001
 30
0.0
 40
3.0
  1
TYPE No.TL-323-1
100
AcDbText
  0
TEXT
  5
1814
330
17F0
100
AcDbEntity
  8
1
  6
Continuous
100
AcDbText
 10
9.999997999999999
 20
10.000001
 30
0.0
 40
1.399999999999999
  1
LAYER
100
AcDbText
  0
TEXT
  5
1815
330
17F0
100
AcDbEntity
  8
2
  6
Continuous
100
AcDbText
 10
19.979509
 20
10.048738
 30
0.0
 40
1.399999999999999
  1
2
100
AcDbText
  0
TEXT
  5
1816
330
17F0
100
AcDbEntity
  8
3
  6
DASHED
100
AcDbText
 10
21.97950899999999
 20
10.048738
 30
0.0
 40
1.399999999999999
  1
3
100
AcDbText
  0
TEXT
  5
1817
330
17F0
100
AcDbEntity
  8
1
  6
Continuous
100
AcDbText
 10
17.979509
 20
10.048738
 30
0.0
 40
1.399999999999999
  1
1
100
AcDbText
  0
TEXT
  5
1818
330
17F0
100
AcDbEntity
  8
5
  6
PHANTOM
100
AcDbText
 10
25.979509
 20
10.048738
 30
0.0
 40
1.399999999999999
  1
5
100
AcDbText
  0
TEXT
  5
1819
330
17F0
100
AcDbEntity
  8
6
  6
Continuous
100
AcDbText
 10
27.979509
 20
10.048738
 30
0.0
 40
1.399999999999999
  1
6
100
AcDbText
  0
TEXT
  5
181A
330
17F0
100
AcDbEntity
  8
7
  6
Continuous
100
AcDbText
 10
29.97950900000001
 20
10.048738
 30
0.0
 40
1.399999999999999
  1
7
100
AcDbText
  0
LINE
  5
181B
330
17F0
100
AcDbEntity
  8
1
  6
Continuous
100
AcDbLine
 10
181.9083479999999
 20
52.0
 30
0.0
 11
181.9083479999999
 21
45.0
 31
0.0
  0
LINE
  5
181C
330
17F0
100
AcDbEntity
  8
1
  6
Continuous
100
AcDbLine
 10
176.9083479999999
 20
52.0
 30
0.0
 11
176.9083479999999
 21
45.0
 31
0.0
  0
LINE
  5
181D
330
17F0
100
AcDbEntity
  8
1
  6
Continuous
100
AcDbLine
 10
181.4083479999999
 20
44.5
 30
0.0
 11
177.4083479999999
 21
44.5
 31
0.0
  0
LINE
  5
181E
330
17F0
100
AcDbEntity
  8
1
  6
Continuous
100
AcDbLine
 10
181.4083479999999
 20
52.5
 30
0.0
 11
177.4083479999999
 21
52.5
 31
0.0
  0
LINE
  5
181F
330
17F0
100
AcDbEntity
  8
1
  6
Continuous
100
AcDbLine
 10
176.9083479999999
 20
52.0
 30
0.0
 11
177.4083479999999
 21
52.5
 31
0.0
  0
LINE
  5
1820
330
17F0
100
AcDbEntity
  8
1
  6
Continuous
100
AcDbLine
 10
181.4083479999999
 20
52.5
 30
0.0
 11
181.9083479999999
 21
52.0
 31
0.0
  0
LINE
  5
1821
330
17F0
100
AcDbEntity
  8
1
  6
Continuous
100
AcDbLine
 10
181.9083479999999
 20
45.0
 30
0.0
 11
181.4083479999999
 21
44.5
 31
0.0
  0
LINE
  5
1822
330
17F0
100
AcDbEntity
  8
1
  6
Continuous
100
AcDbLine
 10
177.4083479999999
 20
44.5
 30
0.0
 11
176.9083479999999
 21
45.0
 31
0.0
  0
LINE
  5
1823
330
17F0
100
AcDbEntity
  8
1
  6
Continuous
100
AcDbLine
 10
177.4083479999999
 20
44.5
 30
0.0
 11
177.4083479999999
 21
52.5
 31
0.0
  0
LINE
  5
1824
330
17F0
100
AcDbEntity
  8
1
  6
Continuous
100
AcDbLine
 10
181.4083479999999
 20
52.5
 30
0.0
 11
181.4083479999999
 21
44.5
 31
0.0
  0
LINE
  5
1825
330
17F0
100
AcDbEntity
  8
1
  6
Continuous
100
AcDbLine
 10
115.908348
 20
55.0
 30
0.0
 11
115.908348
 21
41.0
 31
0.0
  0
LINE
  5
1826
330
17F0
100
AcDbEntity
  8
1
  6
Continuous
100
AcDbLine
 10
165.9083479999999
 20
54.5
 30
0.0
 11
165.9083479999999
 21
41.0
 31
0.0
  0
LINE
  5
1827
330
17F0
100
AcDbEntity
  8
1
  6
Continuous
100
AcDbLine
 10
165.9083479999999
 20
45.49999999999999
 30
0.0
 11
176.9083479999999
 21
45.49999999999999
 31
0.0
  0
LINE
  5
1828
330
17F0
100
AcDbEntity
  8
1
  6
Continuous
100
AcDbLine
 10
165.9083479999999
 20
51.5
 30
0.0
 11
176.9083479999999
 21
51.5
 31
0.0
  0
ARC
  5
1829
330
17F0
100
AcDbEntity
  8
1
  6
Continuous
100
AcDbCircle
 10
164.4083479999999
 20
54.5
 30
0.0
 40
1.5
100
AcDbArc
 50
0.0
 51
90.0
  0
LINE
  5
182A
330
17F0
100
AcDbEntity
  8
1
  6
Continuous
100
AcDbLine
 10
123.408348
 20
54.5
 30
0.0
 11
123.408348
 21
55.0
 31
0.0
  0
LINE
  5
182B
330
17F0
100
AcDbEntity
  8
1
  6
Continuous
100
AcDbLine
 10
124.408379
 20
54.5
 30
0.0
 11
124.408379
 21
56.0
 31
0.0
  0
LINE
  5
182C
330
17F0
100
AcDbEntity
  8
1
  6
Continuous
100
AcDbLine
 10
134.4083479999998
 20
56.0
 30
0.0
 11
124.408348
 21
56.0
 31
0.0
  0
LINE
  5
182D
330
17F0
100
AcDbEntity
  8
1
  6
Continuous
100
AcDbLine
 10
134.4083479999998
 20
54.5
 30
0.0
 11
134.4083479999998
 21
56.0
 31
0.0
  0
LINE
  5
182E
330
17F0
100
AcDbEntity
  8
1
  6
Continuous
100
AcDbLine
 10
135.4083479999999
 20
54.5
 30
0.0
 11
135.4083479999999
 21
55.0
 31
0.0
  0
LINE
  5
182F
330
17F0
100
AcDbEntity
  8
1
  6
Continuous
100
AcDbLine
 10
123.3083479999999
 20
56.0
 30
0.0
 11
116.908348
 21
56.0
 31
0.0
  0
LINE
  5
1830
330
17F0
100
AcDbEntity
  8
1
  6
Continuous
100
AcDbLine
 10
164.4083479999999
 20
56.0
 30
0.0
 11
135.508348
 21
56.0
 31
0.0
  0
LINE
  5
1831
330
17F0
100
AcDbEntity
  8
1
  6
Continuous
100
AcDbLine
 10
135.508348
 20
54.5
 30
0.0
 11
123.3083479999999
 21
54.5
 31
0.0
  0
LINE
  5
1832
330
17F0
100
AcDbEntity
  8
4
  6
CENTER
100
AcDbLine
 10
184.908348
 20
132.9999639999998
 30
0.0
 11
102.908348
 21
132.9999639999998
 31
0.0
  0
LINE
  5
1833
330
17F0
100
AcDbEntity
  8
1
  6
Continuous
100
AcDbLine
 10
135.508348
 20
127.9999639999999
 30
0.0
 11
123.3083479999999
 21
127.9999639999999
 31
0.0
  0
LINE
  5
1834
330
17F0
100
AcDbEntity
  8
1
  6
Continuous
100
AcDbLine
 10
135.508348
 20
137.9999639999998
 30
0.0
 11
123.3083479999999
 21
137.9999639999998
 31
0.0
  0
LINE
  5
1835
330
17F0
100
AcDbEntity
  8
1
  6
Continuous
100
AcDbLine
 10
115.908348
 20
139.4999639999997
 30
0.0
 11
115.908348
 21
126.4999639999999
 31
0.0
  0
LINE
  5
1836
330
17F0
100
AcDbEntity
  8
1
  6
Continuous
100
AcDbLine
 10
165.9083479999999
 20
142.9999639999998
 30
0.0
 11
165.9083479999999
 21
122.9999639999999
 31
0.0
  0
LINE
  5
1837
330
17F0
100
AcDbEntity
  8
1
  6
Continuous
100
AcDbLine
 10
160.9083479999999
 20
117.9999639999999
 30
0.0
 11
123.5083479999999
 21
117.9999639999999
 31
0.0
  0
LINE
  5
1838
330
17F0
100
AcDbEntity
  8
1
  6
Continuous
100
AcDbLine
 10
160.9083479999999
 20
147.9999639999998
 30
0.0
 11
123.5083479999999
 21
147.9999639999998
 31
0.0
  0
ARC
  5
1839
330
17F0
100
AcDbEntity
  8
1
  6
Continuous
100
AcDbCircle
 10
160.9083479999999
 20
142.9999639999998
 30
0.0
 40
5.0
100
AcDbArc
 50
0.0
 51
90.0
  0
ARC
  5
183A
330
17F0
100
AcDbEntity
  8
1
  6
Continuous
100
AcDbCircle
 10
160.9083479999999
 20
122.9999639999999
 30
0.0
 40
5.0
100
AcDbArc
 50
270.0
 51
0.0
  0
LINE
  5
183B
330
17F0
100
AcDbEntity
  8
1
  6
Continuous
100
AcDbLine
 10
181.9083479999999
 20
136.4999639999997
 30
0.0
 11
181.9083479999999
 21
129.4999639999998
 31
0.0
  0
LINE
  5
183C
330
17F0
100
AcDbEntity
  8
1
  6
Continuous
100
AcDbLine
 10
176.9083479999999
 20
136.4999639999997
 30
0.0
 11
176.9083479999999
 21
129.4999639999998
 31
0.0
  0
LINE
  5
183D
330
17F0
100
AcDbEntity
  8
1
  6
Continuous
100
AcDbLine
 10
181.4083479999999
 20
128.9999639999997
 30
0.0
 11
177.4083479999999
 21
128.9999639999997
 31
0.0
  0
LINE
  5
183E
330
17F0
100
AcDbEntity
  8
1
  6
Continuous
100
AcDbLine
 10
181.4083479999999
 20
136.9999639999998
 30
0.0
 11
177.4083479999999
 21
136.9999639999998
 31
0.0
  0
LINE
  5
183F
330
17F0
100
AcDbEntity
  8
1
  6
Continuous
100
AcDbLine
 10
176.9083479999999
 20
136.4999639999997
 30
0.0
 11
177.4083479999999
 21
136.9999639999998
 31
0.0
  0
LINE
  5
1840
330
17F0
100
AcDbEntity
  8
1
  6
Continuous
100
AcDbLine
 10
181.4083479999999
 20
136.9999639999998
 30
0.0
 11
181.9083479999999
 21
136.4999639999997
 31
0.0
  0
LINE
  5
1841
330
17F0
100
AcDbEntity
  8
1
  6
Continuous
100
AcDbLine
 10
181.9083479999999
 20
129.4999639999998
 30
0.0
 11
181.4083479999999
 21
128.9999639999997
 31
0.0
  0
LINE
  5
1842
330
17F0
100
AcDbEntity
  8
1
  6
Continuous
100
AcDbLine
 10
177.4083479999999
 20
128.9999639999997
 30
0.0
 11
176.9083479999999
 21
129.4999639999998
 31
0.0
  0
LINE
  5
1843
330
17F0
100
AcDbEntity
  8
1
  6
Continuous
100
AcDbLine
 10
177.4083479999999
 20
128.9999639999997
 30
0.0
 11
177.4083479999999
 21
136.9999639999998
 31
0.0
  0
LINE
  5
1844
330
17F0
100
AcDbEntity
  8
1
  6
Continuous
100
AcDbLine
 10
181.4083479999999
 20
136.9999639999998
 30
0.0
 11
181.4083479999999
 21
128.9999639999997
 31
0.0
  0
LINE
  5
1845
330
17F0
100
AcDbEntity
  8
1
  6
Continuous
100
AcDbLine
 10
165.9083479999999
 20
129.9999639999998
 30
0.0
 11
176.9083479999999
 21
129.9999639999998
 31
0.0
  0
LINE
  5
1846
330
17F0
100
AcDbEntity
  8
1
  6
Continuous
100
AcDbLine
 10
165.9083479999999
 20
135.9999639999998
 30
0.0
 11
176.9083479999999
 21
135.9999639999998
 31
0.0
  0
LINE
  5
1847
330
17F0
100
AcDbEntity
  8
1
  6
Continuous
100
AcDbLine
 10
135.4083479999999
 20
128.099964
 30
0.0
 11
123.3083479999999
 21
128.099964
 31
0.0
  0
LINE
  5
1848
330
17F0
100
AcDbEntity
  8
1
  6
Continuous
100
AcDbLine
 10
135.4083479999999
 20
137.8999639999999
 30
0.0
 11
123.3083479999999
 21
137.8999639999999
 31
0.0
  0
ARC
  5
1849
330
17F0
100
AcDbEntity
  8
1
  6
Continuous
100
AcDbCircle
 10
165.9083479999999
 20
54.5
 30
0.0
 40
1.5
100
AcDbArc
 50
180.0
 51
255.522488
  0
LINE
  5
184A
330
17F0
100
AcDbEntity
  8
1
  6
Continuous
100
AcDbLine
 10
164.4083479999999
 20
54.5
 30
0.0
 11
164.4083479999999
 21
56.0
 31
0.0
  0
LINE
  5
184B
330
17F0
100
AcDbEntity
  8
1
  6
Continuous
100
AcDbLine
 10
123.3083479999999
 20
54.5
 30
0.0
 11
123.3083479999999
 21
56.0
 31
0.0
  0
LINE
  5
184C
330
17F0
100
AcDbEntity
  8
1
  6
Continuous
100
AcDbLine
 10
135.508348
 20
54.5
 30
0.0
 11
135.508348
 21
56.0
 31
0.0
  0
LINE
  5
184D
330
17F0
100
AcDbEntity
  8
1
  6
Continuous
100
AcDbLine
 10
165.9083479999999
 20
42.5
 30
0.0
 11
118.508348
 21
42.5
 31
0.0
  0
LINE
  5
184E
330
17F0
100
AcDbEntity
  8
4
  6
CENTER
100
AcDbLine
 10
125.908348
 20
44.0
 30
0.0
 11
125.908348
 21
39.5
 31
0.0
  0
LINE
  5
184F
330
17F0
100
AcDbEntity
  8
4
  6
CENTER
100
AcDbLine
 10
155.9083479999999
 20
44.0
 30
0.0
 11
155.9083479999999
 21
39.5
 31
0.0
  0
LINE
  5
1850
330
17F0
100
AcDbEntity
  8
1
  6
Continuous
100
AcDbLine
 10
135.508348
 20
126.4999639999999
 30
0.0
 11
135.508348
 21
139.4999639999997
 31
0.0
  0
LINE
  5
1851
330
17F0
100
AcDbEntity
  8
1
  6
Continuous
100
AcDbLine
 10
135.4083479999999
 20
128.099964
 30
0.0
 11
135.4083479999999
 21
137.8999639999999
 31
0.0
  0
LINE
  5
1852
330
17F0
100
AcDbEntity
  8
1
  6
Continuous
100
AcDbLine
 10
123.408348
 20
128.099964
 30
0.0
 11
123.408348
 21
137.8999639999999
 31
0.0
  0
LINE
  5
1853
330
17F0
100
AcDbEntity
  8
1
  6
Continuous
100
AcDbLine
 10
123.3083479999999
 20
126.4999639999999
 30
0.0
 11
123.3083479999999
 21
139.4999639999997
 31
0.0
  0
ARC
  5
1854
330
17F0
100
AcDbEntity
  8
1
  6
Continuous
100
AcDbCircle
 10
165.9083479999999
 20
126.4999639999999
 30
0.0
 40
1.5
100
AcDbArc
 50
90.0
 51
180.0
  0
ARC
  5
1855
330
17F0
100
AcDbEntity
  8
1
  6
Continuous
100
AcDbCircle
 10
165.9083479999999
 20
139.4999639999997
 30
0.0
 40
1.5
100
AcDbArc
 50
180.0
 51
270.0
  0
LINE
  5
1856
330
17F0
100
AcDbEntity
  8
5
  6
PHANTOM
100
AcDbLine
 10
134.4083479999998
 20
58.0
 30
0.0
 11
124.408348
 21
58.0
 31
0.0
  0
LINE
  5
1857
330
17F0
100
AcDbEntity
  8
5
  6
PHANTOM
100
AcDbLine
 10
123.408348
 20
57.0
 30
0.0
 11
123.408348
 21
55.0
 31
0.0
  0
LINE
  5
1858
330
17F0
100
AcDbEntity
  8
5
  6
PHANTOM
100
AcDbLine
 10
124.408348
 20
58.0
 30
0.0
 11
124.408348
 21
56.0
 31
0.0
  0
LINE
  5
1859
330
17F0
100
AcDbEntity
  8
5
  6
PHANTOM
100
AcDbLine
 10
134.4083479999998
 20
58.0
 30
0.0
 11
134.4083479999998
 21
56.0
 31
0.0
  0
LINE
  5
185A
330
17F0
100
AcDbEntity
  8
5
  6
PHANTOM
100
AcDbLine
 10
135.4083479999999
 20
57.0
 30
0.0
 11
135.4083479999999
 21
55.0
 31
0.0
  0
LINE
  5
185B
330
17F0
100
AcDbEntity
  8
5
  6
PHANTOM
100
AcDbLine
 10
135.4083479999999
 20
56.0
 30
0.0
 11
134.4083479999998
 21
56.0
 31
0.0
  0
LINE
  5
185C
330
17F0
100
AcDbEntity
  8
5
  6
PHANTOM
100
AcDbLine
 10
123.408348
 20
56.0
 30
0.0
 11
124.408348
 21
56.0
 31
0.0
  0
LINE
  5
185D
330
17F0
100
AcDbEntity
  8
4
  6
CENTER
100
AcDbLine
 10
129.4083479999999
 20
59.5
 30
0.0
 11
129.4083479999999
 21
54.5
 31
0.0
  0
LINE
  5
185E
330
17F0
100
AcDbEntity
  8
4
  6
CENTER
100
AcDbLine
 10
129.4083479999999
 20
126.5999639999999
 30
0.0
 11
129.4083479999999
 21
139.3999639999998
 31
0.0
  0
ARC
  5
185F
330
17F0
100
AcDbEntity
  8
1
  6
Continuous
100
AcDbCircle
 10
165.4083479999999
 20
52.56350799999999
 30
0.0
 40
0.5
100
AcDbArc
 50
0.0
 51
75.52248799999998
  0
LINE
  5
1860
330
17F0
100
AcDbEntity
  8
5
  6
PHANTOM
100
AcDbLine
 10
105.9083479999999
 20
134.9999639999998
 30
0.0
 11
105.9083479999999
 21
130.9999639999998
 31
0.0
  0
LINE
  5
1861
330
17F0
100
AcDbEntity
  8
5
  6
PHANTOM
100
AcDbLine
 10
105.9083479999999
 20
134.9999639999998
 30
0.0
 11
106.658348
 21
135.7499639999998
 31
0.0
  0
LINE
  5
1862
330
17F0
100
AcDbEntity
  8
5
  6
PHANTOM
100
AcDbLine
 10
105.9083479999999
 20
130.9999639999998
 30
0.0
 11
106.658348
 21
130.2499639999997
 31
0.0
  0
LINE
  5
1863
330
17F0
100
AcDbEntity
  8
5
  6
PHANTOM
100
AcDbLine
 10
106.9083479999999
 20
131.341652
 30
0.0
 11
106.9083479999999
 21
130.2499639999997
 31
0.0
  0
LINE
  5
1864
330
17F0
100
AcDbEntity
  8
5
  6
PHANTOM
100
AcDbLine
 10
106.9083479999999
 20
135.7499639999998
 30
0.0
 11
106.9083479999999
 21
134.6582759999998
 31
0.0
  0
ARC
  5
1865
330
17F0
100
AcDbEntity
  8
5
  6
PHANTOM
100
AcDbCircle
 10
109.408348
 20
132.9999639999998
 30
0.0
 40
3.0
100
AcDbArc
 50
146.44269
 51
213.55731
  0
LINE
  5
1866
330
17F0
100
AcDbEntity
  8
5
  6
PHANTOM
100
AcDbLine
 10
106.658348
 20
130.2499639999997
 30
0.0
 11
115.908348
 21
130.2499639999997
 31
0.0
  0
LINE
  5
1867
330
17F0
100
AcDbEntity
  8
5
  6
PHANTOM
100
AcDbLine
 10
106.9083479999999
 20
131.341652
 30
0.0
 11
115.908348
 21
131.341652
 31
0.0
  0
LINE
  5
1868
330
17F0
100
AcDbEntity
  8
5
  6
PHANTOM
100
AcDbLine
 10
106.9083479999999
 20
134.6582759999998
 30
0.0
 11
115.908348
 21
134.6582759999998
 31
0.0
  0
LINE
  5
1869
330
17F0
100
AcDbEntity
  8
5
  6
PHANTOM
100
AcDbLine
 10
106.658348
 20
135.7499639999998
 30
0.0
 11
115.908348
 21
135.7499639999998
 31
0.0
  0
LINE
  5
186A
330
17F0
100
AcDbEntity
  8
5
  6
PHANTOM
100
AcDbLine
 10
105.9083479999999
 20
46.5
 30
0.0
 11
106.408348
 21
46.0
 31
0.0
  0
LINE
  5
186B
330
17F0
100
AcDbEntity
  8
5
  6
PHANTOM
100
AcDbLine
 10
115.908348
 20
46.0
 30
0.0
 11
106.408348
 21
46.0
 31
0.0
  0
LINE
  5
186C
330
17F0
100
AcDbEntity
  8
5
  6
PHANTOM
100
AcDbLine
 10
106.9083479999999
 20
47.30104199999998
 30
0.0
 11
106.9083479999999
 21
46.0
 31
0.0
  0
LINE
  5
186D
330
17F0
100
AcDbEntity
  8
5
  6
PHANTOM
100
AcDbLine
 10
106.9083479999999
 20
47.30104199999998
 30
0.0
 11
115.908348
 21
47.30104199999998
 31
0.0
  0
LINE
  5
186E
330
17F0
100
AcDbEntity
  8
5
  6
PHANTOM
100
AcDbLine
 10
106.9083479999999
 20
47.30104199999998
 30
0.0
 11
115.908348
 21
49.356398
 31
0.0
  0
LINE
  5
186F
330
17F0
100
AcDbEntity
  8
5
  6
PHANTOM
100
AcDbLine
 10
106.9083479999999
 20
49.69895799999999
 30
0.0
 11
115.908348
 21
47.643602
 31
0.0
  0
LINE
  5
1870
330
17F0
100
AcDbEntity
  8
5
  6
PHANTOM
100
AcDbLine
 10
106.9083479999999
 20
49.69895799999999
 30
0.0
 11
115.908348
 21
49.69895799999999
 31
0.0
  0
LINE
  5
1871
330
17F0
100
AcDbEntity
  8
5
  6
PHANTOM
100
AcDbLine
 10
115.908348
 20
51.0
 30
0.0
 11
106.408348
 21
51.0
 31
0.0
  0
LINE
  5
1872
330
17F0
100
AcDbEntity
  8
5
  6
PHANTOM
100
AcDbLine
 10
106.9083479999999
 20
51.0
 30
0.0
 11
106.9083479999999
 21
49.69895799999999
 31
0.0
  0
ARC
  5
1873
330
17F0
100
AcDbEntity
  8
5
  6
PHANTOM
100
AcDbCircle
 10
109.658348
 20
48.5
 30
0.0
 40
3.0
100
AcDbArc
 50
156.443536
 51
203.556464
  0
LINE
  5
1874
330
17F0
100
AcDbEntity
  8
5
  6
PHANTOM
100
AcDbLine
 10
105.9083479999999
 20
50.5
 30
0.0
 11
106.408348
 21
51.0
 31
0.0
  0
LINE
  5
1875
330
17F0
100
AcDbEntity
  8
5
  6
PHANTOM
100
AcDbLine
 10
105.9083479999999
 20
50.5
 30
0.0
 11
105.9083479999999
 21
46.5
 31
0.0
  0
LINE
  5
1876
330
17F0
100
AcDbEntity
  8
5
  6
PHANTOM
100
AcDbLine
 10
106.9083479999999
 20
131.341652
 30
0.0
 11
115.908348
 21
134.6582759999998
 31
0.0
  0
LINE
  5
1877
330
17F0
100
AcDbEntity
  8
5
  6
PHANTOM
100
AcDbLine
 10
115.908348
 20
131.341652
 30
0.0
 11
106.9083479999999
 21
134.6582759999998
 31
0.0
  0
ARC
  5
1878
330
17F0
100
AcDbEntity
  8
1
  6
Continuous
100
AcDbCircle
 10
123.408348
 20
128.099964
 30
0.0
 40
1.0
100
AcDbArc
 50
0.0
 51
90.0
  0
ARC
  5
1879
330
17F0
100
AcDbEntity
  8
1
  6
Continuous
100
AcDbCircle
 10
135.4083479999999
 20
128.099964
 30
0.0
 40
1.0
100
AcDbArc
 50
90.0
 51
180.0
  0
ARC
  5
187A
330
17F0
100
AcDbEntity
  8
1
  6
Continuous
100
AcDbCircle
 10
135.4083479999999
 20
137.8999639999999
 30
0.0
 40
1.0
100
AcDbArc
 50
180.0
 51
270.0
  0
ARC
  5
187B
330
17F0
100
AcDbEntity
  8
1
  6
Continuous
100
AcDbCircle
 10
123.408348
 20
137.8999639999999
 30
0.0
 40
1.0
100
AcDbArc
 50
270.0
 51
0.0
  0
POLYLINE
  5
187C
330
17F0
100
AcDbEntity
  8
1
  6
Continuous
100
AcDb2dPolyline
 66
     1
 10
0.0
 20
0.0
 30
0.0
 70
     2
  0
VERTEX
  5
187D
330
187C
100
AcDbEntity
  8
1
  6
Continuous
100
AcDbVertex
100
AcDb2dVertex
 10
135.4083479999999
 20
130.485646
 30
0.0
 42
0.013013
  0
VERTEX
  5
187E
330
187C
100
AcDbEntity
  8
1
  6
Continuous
100
AcDbVertex
100
AcDb2dVertex
 10
135.508348
 20
130.764125
 30
0.0
  0
SEQEND
  5
187F
330
187C
100
AcDbEntity
  8
1
  6
Continuous
  0
POLYLINE
  5
1880
330
17F0
100
AcDbEntity
  8
1
  6
Continuous
100
AcDb2dPolyline
 66
     1
 10
0.0
 20
0.0
 30
0.0
 70
     2
  0
VERTEX
  5
1881
330
1880
100
AcDbEntity
  8
1
  6
Continuous
100
AcDbVertex
100
AcDb2dVertex
 10
135.508348
 20
135.2358029999997
 30
0.0
 42
0.01284
  0
VERTEX
  5
1882
330
1880
100
AcDbEntity
  8
1
  6
Continuous
100
AcDbVertex
100
AcDb2dVertex
 10
135.4083479999999
 20
135.514282
 30
0.0
  0
SEQEND
  5
1883
330
1880
100
AcDbEntity
  8
1
  6
Continuous
  0
ARC
  5
1884
330
17F0
100
AcDbEntity
  8
1
  6
Continuous
100
AcDbCircle
 10
123.5083479999999
 20
122.9999639999999
 30
0.0
 40
5.0
100
AcDbArc
 50
180.0
 51
270.0
  0
LINE
  5
1885
330
17F0
100
AcDbEntity
  8
1
  6
Continuous
100
AcDbLine
 10
118.508348
 20
122.9999639999999
 30
0.0
 11
118.508348
 21
127.9999639999999
 31
0.0
  0
ARC
  5
1886
330
17F0
100
AcDbEntity
  8
1
  6
Continuous
100
AcDbCircle
 10
123.5083479999999
 20
142.9999639999998
 30
0.0
 40
5.0
100
AcDbArc
 50
90.0
 51
180.0
  0
LINE
  5
1887
330
17F0
100
AcDbEntity
  8
1
  6
Continuous
100
AcDbLine
 10
118.508348
 20
137.9999639999998
 30
0.0
 11
118.508348
 21
142.9999639999998
 31
0.0
  0
LINE
  5
1888
330
17F0
100
AcDbEntity
  8
1
  6
Continuous
100
AcDbLine
 10
117.4083479999999
 20
139.4999639999997
 30
0.0
 11
117.4083479999999
 21
137.9999639999998
 31
0.0
  0
LINE
  5
1889
330
17F0
100
AcDbEntity
  8
1
  6
Continuous
100
AcDbLine
 10
118.508348
 20
137.9999639999998
 30
0.0
 11
115.908348
 21
137.9999639999998
 31
0.0
  0
LINE
  5
188A
330
17F0
100
AcDbEntity
  8
1
  6
Continuous
100
AcDbLine
 10
117.4083479999999
 20
127.9999639999999
 30
0.0
 11
117.4083479999999
 21
126.4999639999999
 31
0.0
  0
LINE
  5
188B
330
17F0
100
AcDbEntity
  8
1
  6
Continuous
100
AcDbLine
 10
118.508348
 20
127.9999639999999
 30
0.0
 11
115.908348
 21
127.9999639999999
 31
0.0
  0
LINE
  5
188C
330
17F0
100
AcDbEntity
  8
1
  6
Continuous
100
AcDbLine
 10
117.4083479999999
 20
126.4999639999999
 30
0.0
 11
115.908348
 21
126.4999639999999
 31
0.0
  0
LINE
  5
188D
330
17F0
100
AcDbEntity
  8
1
  6
Continuous
100
AcDbLine
 10
165.9083479999999
 20
126.4999639999999
 30
0.0
 11
118.508348
 21
126.4999639999999
 31
0.0
  0
LINE
  5
188E
330
17F0
100
AcDbEntity
  8
1
  6
Continuous
100
AcDbLine
 10
117.4083479999999
 20
139.4999639999997
 30
0.0
 11
115.908348
 21
139.4999639999997
 31
0.0
  0
LINE
  5
188F
330
17F0
100
AcDbEntity
  8
1
  6
Continuous
100
AcDbLine
 10
165.9083479999999
 20
139.4999639999997
 30
0.0
 11
118.508348
 21
139.4999639999997
 31
0.0
  0
ARC
  5
1890
330
17F0
100
AcDbEntity
  8
1
  6
Continuous
100
AcDbCircle
 10
124.408348
 20
55.0
 30
0.0
 40
1.0
100
AcDbArc
 50
90.0
 51
180.0
  0
ARC
  5
1891
330
17F0
100
AcDbEntity
  8
1
  6
Continuous
100
AcDbCircle
 10
134.4083479999998
 20
55.0
 30
0.0
 40
1.0
100
AcDbArc
 50
0.0
 51
90.0
  0
ARC
  5
1892
330
17F0
100
AcDbEntity
  8
5
  6
PHANTOM
100
AcDbCircle
 10
134.4083479999998
 20
57.0
 30
0.0
 40
1.0
100
AcDbArc
 50
0.0
 51
90.0
  0
ARC
  5
1893
330
17F0
100
AcDbEntity
  8
5
  6
PHANTOM
100
AcDbCircle
 10
124.408348
 20
57.0
 30
0.0
 40
1.0
100
AcDbArc
 50
90.0
 51
180.0
  0
LINE
  5
1894
330
17F0
100
AcDbEntity
  8
1
  6
Continuous
100
AcDbLine
 10
117.4083479999999
 20
54.5
 30
0.0
 11
117.4083479999999
 21
41.0
 31
0.0
  0
LINE
  5
1895
330
17F0
100
AcDbEntity
  8
1
  6
Continuous
100
AcDbLine
 10
118.4083479999999
 20
51.5
 30
0.0
 11
118.4083479999999
 21
41.0
 31
0.0
  0
LINE
  5
1896
330
17F0
100
AcDbEntity
  8
1
  6
Continuous
100
AcDbLine
 10
118.508348
 20
56.0
 30
0.0
 11
118.508348
 21
41.0
 31
0.0
  0
LINE
  5
1897
330
17F0
100
AcDbEntity
  8
1
  6
Continuous
100
AcDbLine
 10
118.508348
 20
51.5
 30
0.0
 11
117.4083479999999
 21
51.5
 31
0.0
  0
ARC
  5
1898
330
17F0
100
AcDbEntity
  8
1
  6
Continuous
100
AcDbCircle
 10
118.4083479999999
 20
51.5
 30
0.0
 40
1.0
100
AcDbArc
 50
90.0
 51
180.0
  0
LINE
  5
1899
330
17F0
100
AcDbEntity
  8
1
  6
Continuous
100
AcDbLine
 10
115.908348
 20
54.5
 30
0.0
 11
118.508348
 21
54.5
 31
0.0
  0
LINE
  5
189A
330
17F0
100
AcDbEntity
  8
1
  6
Continuous
100
AcDbLine
 10
118.4083479999999
 20
52.5
 30
0.0
 11
118.508348
 21
52.5
 31
0.0
  0
LINE
  5
189B
330
17F0
100
AcDbEntity
  8
1
  6
Continuous
100
AcDbLine
 10
118.508348
 20
51.0
 30
0.0
 11
118.4083479999999
 21
51.0
 31
0.0
  0
LINE
  5
189C
330
17F0
100
AcDbEntity
  8
1
  6
Continuous
100
AcDbLine
 10
118.4083479999999
 20
49.69895799999999
 30
0.0
 11
118.508348
 21
49.69895799999999
 31
0.0
  0
LINE
  5
189D
330
17F0
100
AcDbEntity
  8
1
  6
Continuous
100
AcDbLine
 10
118.4083479999999
 20
49.356398
 30
0.0
 11
118.508348
 21
49.33356100000001
 31
0.0
  0
LINE
  5
189E
330
17F0
100
AcDbEntity
  8
1
  6
Continuous
100
AcDbLine
 10
118.4083479999999
 20
47.643602
 30
0.0
 11
118.508348
 21
47.666439
 31
0.0
  0
LINE
  5
189F
330
17F0
100
AcDbEntity
  8
1
  6
Continuous
100
AcDbLine
 10
118.4083479999999
 20
47.30104199999998
 30
0.0
 11
118.508348
 21
47.30104199999998
 31
0.0
  0
LINE
  5
18A0
330
17F0
100
AcDbEntity
  8
1
  6
Continuous
100
AcDbLine
 10
118.508348
 20
46.0
 30
0.0
 11
118.4083479999999
 21
46.0
 31
0.0
  0
ARC
  5
18A1
330
17F0
100
AcDbEntity
  8
1
  6
Continuous
100
AcDbCircle
 10
116.908348
 20
55.0
 30
0.0
 40
1.0
100
AcDbArc
 50
90.0
 51
180.0
  0
LINE
  5
18A2
330
17F0
100
AcDbEntity
  8
1
  6
Continuous
100
AcDbLine
 10
118.4083479999999
 20
41.0
 30
0.0
 11
115.908348
 21
41.0
 31
0.0
  0
LINE
  5
18A3
330
17F0
100
AcDbEntity
  8
1
  6
Continuous
100
AcDbLine
 10
165.9083479999999
 20
41.0
 30
0.0
 11
118.508348
 21
41.0
 31
0.0
  0
CIRCLE
  5
18A4
330
17F0
100
AcDbEntity
  8
1
  6
Continuous
100
AcDbCircle
 10
155.9083479999999
 20
142.9999639999998
 30
0.0
 40
1.75
  0
CIRCLE
  5
18A5
330
17F0
100
AcDbEntity
  8
1
  6
Continuous
100
AcDbCircle
 10
125.908348
 20
142.9999639999998
 30
0.0
 40
1.75
  0
CIRCLE
  5
18A6
330
17F0
100
AcDbEntity
  8
1
  6
Continuous
100
AcDbCircle
 10
125.908348
 20
122.9999639999999
 30
0.0
 40
1.75
  0
CIRCLE
  5
18A7
330
17F0
100
AcDbEntity
  8
1
  6
Continuous
100
AcDbCircle
 10
155.9083479999999
 20
122.9999639999999
 30
0.0
 40
1.75
  0
LINE
  5
18A8
330
17F0
100
AcDbEntity
  8
4
  6
CENTER
100
AcDbLine
 10
129.1583479999999
 20
122.9999639999999
 30
0.0
 11
122.658348
 21
122.9999639999999
 31
0.0
  0
LINE
  5
18A9
330
17F0
100
AcDbEntity
  8
4
  6
CENTER
100
AcDbLine
 10
125.908348
 20
126.2499639999999
 30
0.0
 11
125.908348
 21
119.7499639999999
 31
0.0
  0
LINE
  5
18AA
330
17F0
100
AcDbEntity
  8
4
  6
CENTER
100
AcDbLine
 10
129.1583479999999
 20
142.9999639999998
 30
0.0
 11
122.658348
 21
142.9999639999998
 31
0.0
  0
LINE
  5
18AB
330
17F0
100
AcDbEntity
  8
4
  6
CENTER
100
AcDbLine
 10
125.908348
 20
146.2499639999998
 30
0.0
 11
125.908348
 21
139.7499639999997
 31
0.0
  0
LINE
  5
18AC
330
17F0
100
AcDbEntity
  8
4
  6
CENTER
100
AcDbLine
 10
159.1583479999999
 20
142.9999639999998
 30
0.0
 11
152.658348
 21
142.9999639999998
 31
0.0
  0
LINE
  5
18AD
330
17F0
100
AcDbEntity
  8
4
  6
CENTER
100
AcDbLine
 10
155.9083479999999
 20
146.2499639999998
 30
0.0
 11
155.9083479999999
 21
139.7499639999997
 31
0.0
  0
LINE
  5
18AE
330
17F0
100
AcDbEntity
  8
4
  6
CENTER
100
AcDbLine
 10
159.1583479999999
 20
122.9999639999999
 30
0.0
 11
152.658348
 21
122.9999639999999
 31
0.0
  0
LINE
  5
18AF
330
17F0
100
AcDbEntity
  8
4
  6
CENTER
100
AcDbLine
 10
155.9083479999999
 20
126.2499639999999
 30
0.0
 11
155.9083479999999
 21
119.7499639999999
 31
0.0
  0
LINE
  5
18B0
330
17F0
100
AcDbEntity
  8
4
  6
CENTER
100
AcDbLine
 10
102.908348
 20
48.5
 30
0.0
 11
184.908348
 21
48.5
 31
0.0
  0
LINE
  5
18B1
330
17F0
100
AcDbEntity
  8
1
  6
Continuous
100
AcDbLine
 10
25.0
 20
147.9999639999998
 30
0.0
 11
25.0
 21
139.4999639999997
 31
0.0
  0
LINE
  5
18B2
330
17F0
100
AcDbEntity
  8
1
  6
Continuous
100
AcDbLine
 10
26.5
 20
147.9999639999998
 30
0.0
 11
26.5
 21
139.4999639999997
 31
0.0
  0
LINE
  5
18B3
330
17F0
100
AcDbEntity
  8
1
  6
Continuous
100
AcDbLine
 10
26.5
 20
147.9999639999998
 30
0.0
 11
25.0
 21
147.9999639999998
 31
0.0
  0
ARC
  5
18B4
330
17F0
100
AcDbEntity
  8
1
  6
Continuous
100
AcDbCircle
 10
37.0
 20
127.9999639999999
 30
0.0
 40
1.5
100
AcDbArc
 50
270.0
 51
0.0
  0
ARC
  5
18B5
330
17F0
100
AcDbEntity
  8
1
  6
Continuous
100
AcDbCircle
 10
37.0
 20
137.9999639999998
 30
0.0
 40
1.5
100
AcDbArc
 50
0.0
 51
90.0
  0
LINE
  5
18B6
330
17F0
100
AcDbEntity
  8
1
  6
Continuous
100
AcDbLine
 10
38.5
 20
126.4999639999999
 30
0.0
 11
26.5
 21
126.4999639999999
 31
0.0
  0
LINE
  5
18B7
330
17F0
100
AcDbEntity
  8
1
  6
Continuous
100
AcDbLine
 10
38.5
 20
139.4999639999997
 30
0.0
 11
26.5
 21
139.4999639999997
 31
0.0
  0
LINE
  5
18B8
330
17F0
100
AcDbEntity
  8
4
  6
CENTER
100
AcDbLine
 10
45.0
 20
132.9999639999998
 30
0.0
 11
22.0
 21
132.9999639999998
 31
0.0
  0
ARC
  5
18B9
330
17F0
100
AcDbEntity
  8
1
  6
Continuous
100
AcDbCircle
 10
32.5
 20
132.9999639999998
 30
0.0
 40
3.049999999999998
100
AcDbArc
 50
293.3598379999999
 51
66.640162
  0
ARC
  5
18BA
330
17F0
100
AcDbEntity
  8
1
  6
Continuous
100
AcDbCircle
 10
32.5
 20
132.9999639999998
 30
0.0
 40
3.049999999999998
100
AcDbArc
 50
113.3598379999999
 51
246.640162
  0
ARC
  5
18BB
330
17F0
100
AcDbEntity
  8
1
  6
Continuous
100
AcDbCircle
 10
32.5
 20
132.9999639999998
 30
0.0
 40
3.0
100
AcDbArc
 50
111.03947
 51
248.96053
  0
ARC
  5
18BC
330
17F0
100
AcDbEntity
  8
1
  6
Continuous
100
AcDbCircle
 10
32.5
 20
132.9999639999998
 30
0.0
 40
3.0
100
AcDbArc
 50
291.0394699999999
 51
68.96053000000001
  0
LINE
  5
18BD
330
17F0
100
AcDbEntity
  8
1
  6
Continuous
100
AcDbLine
 10
25.0
 20
137.9999639999998
 30
0.0
 11
25.0
 21
127.9999639999999
 31
0.0
  0
LINE
  5
18BE
330
17F0
100
AcDbEntity
  8
4
  6
CENTER
100
AcDbLine
 10
32.5
 20
128.6999639999999
 30
0.0
 11
32.5
 21
137.2999639999999
 31
0.0
  0
LINE
  5
18BF
330
17F0
100
AcDbEntity
  8
4
  6
CENTER
100
AcDbLine
 10
28.0
 20
142.9999639999998
 30
0.0
 11
23.5
 21
142.9999639999998
 31
0.0
  0
ARC
  5
18C0
330
17F0
100
AcDbEntity
  8
1
  6
Continuous
100
AcDbCircle
 10
26.5
 20
137.9999639999998
 30
0.0
 40
1.5
100
AcDbArc
 50
90.0
 51
180.0
  0
ARC
  5
18C1
330
17F0
100
AcDbEntity
  8
1
  6
Continuous
100
AcDbCircle
 10
26.5
 20
139.4999639999997
 30
0.0
 40
1.5
100
AcDbArc
 50
180.0
 51
210.0
  0
LINE
  5
18C2
330
17F0
100
AcDbEntity
  8
1
  6
Continuous
100
AcDbLine
 10
33.709339
 20
135.7999639999998
 30
0.0
 11
31.290661
 21
135.7999639999998
 31
0.0
  0
CIRCLE
  5
18C3
330
17F0
100
AcDbEntity
  8
1
  6
Continuous
100
AcDbCircle
 10
32.5
 20
132.9999639999998
 30
0.0
 40
2.0
  0
LINE
  5
18C4
330
17F0
100
AcDbEntity
  8
1
  6
Continuous
100
AcDbLine
 10
31.30104199999999
 20
135.7499639999998
 30
0.0
 11
33.698958
 21
135.7499639999998
 31
0.0
  0
LINE
  5
18C5
330
17F0
100
AcDbEntity
  8
1
  6
Continuous
100
AcDbLine
 10
30.0
 20
134.6582759999998
 30
0.0
 11
30.0
 21
131.341652
 31
0.0
  0
LINE
  5
18C6
330
17F0
100
AcDbEntity
  8
1
  6
Continuous
100
AcDbLine
 10
35.0
 20
134.6582759999998
 30
0.0
 11
35.0
 21
131.341652
 31
0.0
  0
LINE
  5
18C7
330
17F0
100
AcDbEntity
  8
4
  6
CENTER
100
AcDbLine
 10
28.0
 20
122.9999639999999
 30
0.0
 11
23.5
 21
122.9999639999999
 31
0.0
  0
LINE
  5
18C8
330
17F0
100
AcDbEntity
  8
1
  6
Continuous
100
AcDbLine
 10
25.0
 20
126.4999639999999
 30
0.0
 11
25.0
 21
117.9999639999999
 31
0.0
  0
LINE
  5
18C9
330
17F0
100
AcDbEntity
  8
1
  6
Continuous
100
AcDbLine
 10
26.5
 20
126.4999639999999
 30
0.0
 11
26.5
 21
117.9999639999999
 31
0.0
  0
ARC
  5
18CA
330
17F0
100
AcDbEntity
  8
1
  6
Continuous
100
AcDbCircle
 10
26.5
 20
127.9999639999999
 30
0.0
 40
1.5
100
AcDbArc
 50
180.0
 51
270.0
  0
ARC
  5
18CB
330
17F0
100
AcDbEntity
  8
1
  6
Continuous
100
AcDbCircle
 10
26.5
 20
126.4999639999999
 30
0.0
 40
1.5
100
AcDbArc
 50
150.0
 51
180.0
  0
LINE
  5
18CC
330
17F0
100
AcDbEntity
  8
1
  6
Continuous
100
AcDbLine
 10
26.5
 20
117.9999639999999
 30
0.0
 11
25.0
 21
117.9999639999999
 31
0.0
  0
LINE
  5
18CD
330
17F0
100
AcDbEntity
  8
1
  6
Continuous
100
AcDbLine
 10
33.709339
 20
130.199964
 30
0.0
 11
31.290661
 21
130.199964
 31
0.0
  0
LINE
  5
18CE
330
17F0
100
AcDbEntity
  8
1
  6
Continuous
100
AcDbLine
 10
31.30104199999999
 20
130.2499639999997
 30
0.0
 11
33.698958
 21
130.2499639999997
 31
0.0
  0
LINE
  5
18CF
330
17F0
100
AcDbEntity
  8
5
  6
PHANTOM
100
AcDbLine
 10
42.0
 20
136.8999639999999
 30
0.0
 11
42.0
 21
129.099964
 31
0.0
  0
LINE
  5
18D0
330
17F0
100
AcDbEntity
  8
1
  6
Continuous
100
AcDbLine
 10
40.0
 20
137.9999639999998
 30
0.0
 11
40.0
 21
127.9999639999999
 31
0.0
  0
ARC
  5
18D1
330
17F0
100
AcDbEntity
  8
1
  6
Continuous
100
AcDbCircle
 10
38.5
 20
137.9999639999998
 30
0.0
 40
1.5
100
AcDbArc
 50
0.0
 51
90.0
  0
ARC
  5
18D2
330
17F0
100
AcDbEntity
  8
5
  6
PHANTOM
100
AcDbCircle
 10
41.0
 20
136.8999639999999
 30
0.0
 40
1.0
100
AcDbArc
 50
0.0
 51
90.0
  0
LINE
  5
18D3
330
17F0
100
AcDbEntity
  8
5
  6
PHANTOM
100
AcDbLine
 10
41.0
 20
136.8999639999999
 30
0.0
 11
42.0
 21
136.8999639999999
 31
0.0
  0
ARC
  5
18D4
330
17F0
100
AcDbEntity
  8
5
  6
PHANTOM
100
AcDbCircle
 10
41.0
 20
137.8999639999999
 30
0.0
 40
1.0
100
AcDbArc
 50
210.0
 51
270.0
  0
ARC
  5
18D5
330
17F0
100
AcDbEntity
  8
5
  6
PHANTOM
100
AcDbCircle
 10
39.267949
 20
136.8999639999999
 30
0.0
 40
1.0
100
AcDbArc
 50
30.0
 51
42.941403
  0
LINE
  5
18D6
330
17F0
100
AcDbEntity
  8
5
  6
PHANTOM
100
AcDbLine
 10
41.0
 20
137.8999639999999
 30
0.0
 11
40.0
 21
137.8999639999999
 31
0.0
  0
LINE
  5
18D7
330
17F0
100
AcDbEntity
  8
1
  6
Continuous
100
AcDbLine
 10
40.0
 20
137.9999639999998
 30
0.0
 11
38.5
 21
137.9999639999998
 31
0.0
  0
ARC
  5
18D8
330
17F0
100
AcDbEntity
  8
1
  6
Continuous
100
AcDbCircle
 10
38.5
 20
127.9999639999999
 30
0.0
 40
1.5
100
AcDbArc
 50
270.0
 51
0.0
  0
ARC
  5
18D9
330
17F0
100
AcDbEntity
  8
5
  6
PHANTOM
100
AcDbCircle
 10
39.267949
 20
129.099964
 30
0.0
 40
1.0
100
AcDbArc
 50
317.058597
 51
330.0
  0
ARC
  5
18DA
330
17F0
100
AcDbEntity
  8
5
  6
PHANTOM
100
AcDbCircle
 10
41.0
 20
128.099964
 30
0.0
 40
1.0
100
AcDbArc
 50
90.0
 51
150.0
  0
LINE
  5
18DB
330
17F0
100
AcDbEntity
  8
5
  6
PHANTOM
100
AcDbLine
 10
41.0
 20
129.099964
 30
0.0
 11
42.0
 21
129.099964
 31
0.0
  0
ARC
  5
18DC
330
17F0
100
AcDbEntity
  8
5
  6
PHANTOM
100
AcDbCircle
 10
41.0
 20
129.099964
 30
0.0
 40
1.0
100
AcDbArc
 50
270.0
 51
0.0
  0
LINE
  5
18DD
330
17F0
100
AcDbEntity
  8
5
  6
PHANTOM
100
AcDbLine
 10
41.0
 20
128.099964
 30
0.0
 11
40.0
 21
128.099964
 31
0.0
  0
LINE
  5
18DE
330
17F0
100
AcDbEntity
  8
1
  6
Continuous
100
AcDbLine
 10
40.0
 20
127.9999639999999
 30
0.0
 11
38.5
 21
127.9999639999999
 31
0.0
  0
LINE
  5
18DF
330
17F0
100
AcDbEntity
  8
4
  6
CENTER
100
AcDbLine
 10
239.416695
 20
132.9999639999998
 30
0.0
 11
262.416695
 21
132.9999639999998
 31
0.0
  0
LINE
  5
18E0
330
17F0
100
AcDbEntity
  8
1
  6
Continuous
100
AcDbLine
 10
245.916695
 20
126.4999639999999
 30
0.0
 11
257.916695
 21
126.4999639999999
 31
0.0
  0
LINE
  5
18E1
330
17F0
100
AcDbEntity
  8
1
  6
Continuous
100
AcDbLine
 10
245.916695
 20
139.4999639999997
 30
0.0
 11
257.916695
 21
139.4999639999997
 31
0.0
  0
LINE
  5
18E2
330
17F0
100
AcDbEntity
  8
4
  6
CENTER
100
AcDbLine
 10
251.916695
 20
126.9999639999999
 30
0.0
 11
251.916695
 21
138.9999639999998
 31
0.0
  0
LINE
  5
18E3
330
17F0
100
AcDbEntity
  8
1
  6
Continuous
100
AcDbLine
 10
259.4166949999999
 20
137.9999639999998
 30
0.0
 11
259.4166949999999
 21
127.9999639999999
 31
0.0
  0
LINE
  5
18E4
330
17F0
100
AcDbEntity
  8
1
  6
Continuous
100
AcDbLine
 10
259.4166949999999
 20
126.4999639999999
 30
0.0
 11
259.4166949999999
 21
117.9999639999999
 31
0.0
  0
LINE
  5
18E5
330
17F0
100
AcDbEntity
  8
1
  6
Continuous
100
AcDbLine
 10
257.916695
 20
126.4999639999999
 30
0.0
 11
257.916695
 21
117.9999639999999
 31
0.0
  0
LINE
  5
18E6
330
17F0
100
AcDbEntity
  8
4
  6
CENTER
100
AcDbLine
 10
256.416695
 20
122.9999639999999
 30
0.0
 11
260.916695
 21
122.9999639999999
 31
0.0
  0
LINE
  5
18E7
330
17F0
100
AcDbEntity
  8
1
  6
Continuous
100
AcDbLine
 10
257.916695
 20
117.9999639999999
 30
0.0
 11
259.4166949999999
 21
117.9999639999999
 31
0.0
  0
ARC
  5
18E8
330
17F0
100
AcDbEntity
  8
1
  6
Continuous
100
AcDbCircle
 10
257.916695
 20
127.9999639999999
 30
0.0
 40
1.5
100
AcDbArc
 50
330.0
 51
0.0
  0
ARC
  5
18E9
330
17F0
100
AcDbEntity
  8
1
  6
Continuous
100
AcDbCircle
 10
257.916695
 20
126.4999639999999
 30
0.0
 40
1.5
100
AcDbArc
 50
0.0
 51
90.0
  0
LINE
  5
18EA
330
17F0
100
AcDbEntity
  8
1
  6
Continuous
100
AcDbLine
 10
259.4166949999999
 20
147.9999639999998
 30
0.0
 11
259.4166949999999
 21
139.4999639999997
 31
0.0
  0
LINE
  5
18EB
330
17F0
100
AcDbEntity
  8
1
  6
Continuous
100
AcDbLine
 10
257.916695
 20
147.9999639999998
 30
0.0
 11
257.916695
 21
139.4999639999997
 31
0.0
  0
LINE
  5
18EC
330
17F0
100
AcDbEntity
  8
4
  6
CENTER
100
AcDbLine
 10
256.416695
 20
142.9999639999998
 30
0.0
 11
260.916695
 21
142.9999639999998
 31
0.0
  0
ARC
  5
18ED
330
17F0
100
AcDbEntity
  8
1
  6
Continuous
100
AcDbCircle
 10
257.916695
 20
137.9999639999998
 30
0.0
 40
1.5
100
AcDbArc
 50
0.0
 51
30.0
  0
ARC
  5
18EE
330
17F0
100
AcDbEntity
  8
1
  6
Continuous
100
AcDbCircle
 10
257.916695
 20
139.4999639999997
 30
0.0
 40
1.5
100
AcDbArc
 50
270.0
 51
0.0
  0
LINE
  5
18EF
330
17F0
100
AcDbEntity
  8
1
  6
Continuous
100
AcDbLine
 10
257.916695
 20
147.9999639999998
 30
0.0
 11
259.4166949999999
 21
147.9999639999998
 31
0.0
  0
LINE
  5
18F0
330
17F0
100
AcDbEntity
  8
5
  6
PHANTOM
100
AcDbLine
 10
242.416695
 20
136.8999639999999
 30
0.0
 11
242.416695
 21
129.099964
 31
0.0
  0
LINE
  5
18F1
330
17F0
100
AcDbEntity
  8
1
  6
Continuous
100
AcDbLine
 10
244.416695
 20
137.9999639999998
 30
0.0
 11
244.416695
 21
127.9999639999999
 31
0.0
  0
LINE
  5
18F2
330
17F0
100
AcDbEntity
  8
5
  6
PHANTOM
100
AcDbLine
 10
243.416695
 20
129.099964
 30
0.0
 11
242.416695
 21
129.099964
 31
0.0
  0
ARC
  5
18F3
330
17F0
100
AcDbEntity
  8
5
  6
PHANTOM
100
AcDbCircle
 10
243.416695
 20
129.099964
 30
0.0
 40
1.0
100
AcDbArc
 50
180.0
 51
270.0
  0
ARC
  5
18F4
330
17F0
100
AcDbEntity
  8
5
  6
PHANTOM
100
AcDbCircle
 10
243.416695
 20
128.099964
 30
0.0
 40
1.0
100
AcDbArc
 50
30.0
 51
90.0
  0
LINE
  5
18F5
330
17F0
100
AcDbEntity
  8
5
  6
PHANTOM
100
AcDbLine
 10
243.416695
 20
128.099964
 30
0.0
 11
244.416695
 21
128.099964
 31
0.0
  0
ARC
  5
18F6
330
17F0
100
AcDbEntity
  8
5
  6
PHANTOM
100
AcDbCircle
 10
245.148746
 20
129.099964
 30
0.0
 40
1.0
100
AcDbArc
 50
210.0
 51
222.941403
  0
ARC
  5
18F7
330
17F0
100
AcDbEntity
  8
1
  6
Continuous
100
AcDbCircle
 10
245.916695
 20
127.9999639999999
 30
0.0
 40
1.5
100
AcDbArc
 50
180.0
 51
270.0
  0
LINE
  5
18F8
330
17F0
100
AcDbEntity
  8
1
  6
Continuous
100
AcDbLine
 10
244.416695
 20
127.9999639999999
 30
0.0
 11
257.916695
 21
127.9999639999999
 31
0.0
  0
LINE
  5
18F9
330
17F0
100
AcDbEntity
  8
5
  6
PHANTOM
100
AcDbLine
 10
243.416695
 20
136.8999639999999
 30
0.0
 11
242.416695
 21
136.8999639999999
 31
0.0
  0
ARC
  5
18FA
330
17F0
100
AcDbEntity
  8
5
  6
PHANTOM
100
AcDbCircle
 10
243.416695
 20
136.8999639999999
 30
0.0
 40
1.0
100
AcDbArc
 50
90.0
 51
180.0
  0
ARC
  5
18FB
330
17F0
100
AcDbEntity
  8
5
  6
PHANTOM
100
AcDbCircle
 10
243.416695
 20
137.8999639999999
 30
0.0
 40
1.0
100
AcDbArc
 50
270.0
 51
330.0
  0
LINE
  5
18FC
330
17F0
100
AcDbEntity
  8
5
  6
PHANTOM
100
AcDbLine
 10
243.416695
 20
137.8999639999999
 30
0.0
 11
244.416695
 21
137.8999639999999
 31
0.0
  0
ARC
  5
18FD
330
17F0
100
AcDbEntity
  8
5
  6
PHANTOM
100
AcDbCircle
 10
245.148746
 20
136.8999639999999
 30
0.0
 40
1.0
100
AcDbArc
 50
137.058597
 51
150.0
  0
ARC
  5
18FE
330
17F0
100
AcDbEntity
  8
1
  6
Continuous
100
AcDbCircle
 10
245.916695
 20
137.9999639999998
 30
0.0
 40
1.5
100
AcDbArc
 50
90.0
 51
180.0
  0
LINE
  5
18FF
330
17F0
100
AcDbEntity
  8
1
  6
Continuous
100
AcDbLine
 10
244.416695
 20
137.9999639999998
 30
0.0
 11
257.916695
 21
137.9999639999998
 31
0.0
  0
CIRCLE
  5
1900
330
17F0
100
AcDbEntity
  8
1
  6
Continuous
100
AcDbCircle
 10
251.916695
 20
132.9999639999998
 30
0.0
 40
4.0
  0
CIRCLE
  5
1901
330
17F0
100
AcDbEntity
  8
1
  6
Continuous
100
AcDbCircle
 10
251.916695
 20
132.9999639999998
 30
0.0
 40
3.5
  0
ARC
  5
1902
330
17F0
100
AcDbEntity
  8
1
  6
Continuous
100
AcDbCircle
 10
257.916695
 20
129.4999639999998
 30
0.0
 40
1.5
100
AcDbArc
 50
270.0
 51
0.0
  0
ARC
  5
1903
330
17F0
100
AcDbEntity
  8
1
  6
Continuous
100
AcDbCircle
 10
257.916695
 20
136.4999639999997
 30
0.0
 40
1.5
100
AcDbArc
 50
0.0
 51
90.0
  0
LINE
  5
1904
330
17F0
100
AcDbEntity
  8
5
  6
PHANTOM
100
AcDbLine
 10
115.908348
 20
214.9999279999999
 30
0.0
 11
106.408348
 21
214.9999279999999
 31
0.0
  0
LINE
  5
1905
330
17F0
100
AcDbEntity
  8
5
  6
PHANTOM
100
AcDbLine
 10
106.9083479999999
 20
216.3009699999999
 30
0.0
 11
115.908348
 21
216.3009699999999
 31
0.0
  0
LINE
  5
1906
330
17F0
100
AcDbEntity
  8
5
  6
PHANTOM
100
AcDbLine
 10
115.908348
 20
219.9999279999999
 30
0.0
 11
106.408348
 21
219.9999279999999
 31
0.0
  0
LINE
  5
1907
330
17F0
100
AcDbEntity
  8
5
  6
PHANTOM
100
AcDbLine
 10
106.9083479999999
 20
218.698886
 30
0.0
 11
115.908348
 21
218.698886
 31
0.0
  0
LINE
  5
1908
330
17F0
100
AcDbEntity
  8
5
  6
PHANTOM
100
AcDbLine
 10
106.9083479999999
 20
216.3009699999999
 30
0.0
 11
115.908348
 21
218.3563259999999
 31
0.0
  0
LINE
  5
1909
330
17F0
100
AcDbEntity
  8
5
  6
PHANTOM
100
AcDbLine
 10
106.9083479999999
 20
218.698886
 30
0.0
 11
115.908348
 21
216.6435299999999
 31
0.0
  0
LINE
  5
190A
330
17F0
100
AcDbEntity
  8
4
  6
CENTER
100
AcDbLine
 10
102.908348
 20
217.4999279999999
 30
0.0
 11
184.908348
 21
217.4999279999999
 31
0.0
  0
LINE
  5
190B
330
17F0
100
AcDbEntity
  8
5
  6
PHANTOM
100
AcDbLine
 10
105.9083479999999
 20
215.4999279999999
 30
0.0
 11
105.9083479999999
 21
219.4999279999999
 31
0.0
  0
ARC
  5
190C
330
17F0
100
AcDbEntity
  8
5
  6
PHANTOM
100
AcDbCircle
 10
109.658348
 20
217.4999279999999
 30
0.0
 40
3.0
100
AcDbArc
 50
156.443536
 51
203.556464
  0
LINE
  5
190D
330
17F0
100
AcDbEntity
  8
5
  6
PHANTOM
100
AcDbLine
 10
105.9083479999999
 20
219.4999279999999
 30
0.0
 11
106.408348
 21
219.9999279999999
 31
0.0
  0
LINE
  5
190E
330
17F0
100
AcDbEntity
  8
5
  6
PHANTOM
100
AcDbLine
 10
106.9083479999999
 20
218.698886
 30
0.0
 11
106.9083479999999
 21
219.9999279999999
 31
0.0
  0
LINE
  5
190F
330
17F0
100
AcDbEntity
  8
5
  6
PHANTOM
100
AcDbLine
 10
105.9083479999999
 20
215.4999279999999
 30
0.0
 11
106.408348
 21
214.9999279999999
 31
0.0
  0
LINE
  5
1910
330
17F0
100
AcDbEntity
  8
5
  6
PHANTOM
100
AcDbLine
 10
106.9083479999999
 20
214.9999279999999
 30
0.0
 11
106.9083479999999
 21
216.3009699999999
 31
0.0
  0
LINE
  5
1911
330
17F0
100
AcDbEntity
  8
1
  6
Continuous
100
AcDbLine
 10
165.9083479999999
 20
214.4999279999999
 30
0.0
 11
176.9083479999999
 21
214.4999279999999
 31
0.0
  0
LINE
  5
1912
330
17F0
100
AcDbEntity
  8
1
  6
Continuous
100
AcDbLine
 10
165.9083479999999
 20
220.499928
 30
0.0
 11
176.9083479999999
 21
220.499928
 31
0.0
  0
LINE
  5
1913
330
17F0
100
AcDbEntity
  8
1
  6
Continuous
100
AcDbLine
 10
164.4083479999999
 20
209.999928
 30
0.0
 11
135.508348
 21
209.999928
 31
0.0
  0
LINE
  5
1914
330
17F0
100
AcDbEntity
  8
1
  6
Continuous
100
AcDbLine
 10
165.9083479999999
 20
224.9999279999999
 30
0.0
 11
118.508348
 21
224.9999279999999
 31
0.0
  0
LINE
  5
1915
330
17F0
100
AcDbEntity
  8
1
  6
Continuous
100
AcDbLine
 10
165.9083479999999
 20
223.4999279999999
 30
0.0
 11
118.508348
 21
223.4999279999999
 31
0.0
  0
LINE
  5
1916
330
17F0
100
AcDbEntity
  8
1
  6
Continuous
100
AcDbLine
 10
118.508348
 20
209.999928
 30
0.0
 11
118.508348
 21
224.9999279999999
 31
0.0
  0
LINE
  5
1917
330
17F0
100
AcDbEntity
  8
1
  6
Continuous
100
AcDbLine
 10
118.4083479999999
 20
214.4999279999999
 30
0.0
 11
118.4083479999999
 21
224.9999279999999
 31
0.0
  0
LINE
  5
1918
330
17F0
100
AcDbEntity
  8
1
  6
Continuous
100
AcDbLine
 10
117.4083479999999
 20
211.4999279999999
 30
0.0
 11
117.4083479999999
 21
224.9999279999999
 31
0.0
  0
LINE
  5
1919
330
17F0
100
AcDbEntity
  8
1
  6
Continuous
100
AcDbLine
 10
115.908348
 20
210.9999279999999
 30
0.0
 11
115.908348
 21
224.9999279999999
 31
0.0
  0
LINE
  5
191A
330
17F0
100
AcDbEntity
  8
1
  6
Continuous
100
AcDbLine
 10
118.4083479999999
 20
224.9999279999999
 30
0.0
 11
115.908348
 21
224.9999279999999
 31
0.0
  0
LINE
  5
191B
330
17F0
100
AcDbEntity
  8
1
  6
Continuous
100
AcDbLine
 10
118.508348
 20
219.9999279999999
 30
0.0
 11
118.4083479999999
 21
219.9999279999999
 31
0.0
  0
LINE
  5
191C
330
17F0
100
AcDbEntity
  8
1
  6
Continuous
100
AcDbLine
 10
118.4083479999999
 20
218.698886
 30
0.0
 11
118.508348
 21
218.698886
 31
0.0
  0
LINE
  5
191D
330
17F0
100
AcDbEntity
  8
1
  6
Continuous
100
AcDbLine
 10
118.4083479999999
 20
218.3563259999999
 30
0.0
 11
118.508348
 21
218.3334889999999
 31
0.0
  0
LINE
  5
191E
330
17F0
100
AcDbEntity
  8
4
  6
CENTER
100
AcDbLine
 10
125.908348
 20
221.9999279999999
 30
0.0
 11
125.908348
 21
226.499928
 31
0.0
  0
LINE
  5
191F
330
17F0
100
AcDbEntity
  8
5
  6
PHANTOM
100
AcDbLine
 10
134.4083479999998
 20
207.999928
 30
0.0
 11
124.408348
 21
207.999928
 31
0.0
  0
LINE
  5
1920
330
17F0
100
AcDbEntity
  8
1
  6
Continuous
100
AcDbLine
 10
135.508348
 20
211.4999279999999
 30
0.0
 11
123.3083479999999
 21
211.4999279999999
 31
0.0
  0
LINE
  5
1921
330
17F0
100
AcDbEntity
  8
1
  6
Continuous
100
AcDbLine
 10
134.4083479999998
 20
209.999928
 30
0.0
 11
124.408348
 21
209.999928
 31
0.0
  0
LINE
  5
1922
330
17F0
100
AcDbEntity
  8
1
  6
Continuous
100
AcDbLine
 10
115.908348
 20
211.4999279999999
 30
0.0
 11
118.508348
 21
211.4999279999999
 31
0.0
  0
ARC
  5
1923
330
17F0
100
AcDbEntity
  8
1
  6
Continuous
100
AcDbCircle
 10
118.4083479999999
 20
214.4999279999999
 30
0.0
 40
1.0
100
AcDbArc
 50
180.0
 51
270.0
  0
LINE
  5
1924
330
17F0
100
AcDbEntity
  8
1
  6
Continuous
100
AcDbLine
 10
118.508348
 20
214.4999279999999
 30
0.0
 11
117.4083479999999
 21
214.4999279999999
 31
0.0
  0
LINE
  5
1925
330
17F0
100
AcDbEntity
  8
1
  6
Continuous
100
AcDbLine
 10
123.3083479999999
 20
209.999928
 30
0.0
 11
116.908348
 21
209.999928
 31
0.0
  0
ARC
  5
1926
330
17F0
100
AcDbEntity
  8
1
  6
Continuous
100
AcDbCircle
 10
116.908348
 20
210.9999279999999
 30
0.0
 40
1.0
100
AcDbArc
 50
180.0
 51
270.0
  0
ARC
  5
1927
330
17F0
100
AcDbEntity
  8
5
  6
PHANTOM
100
AcDbCircle
 10
124.408348
 20
208.999928
 30
0.0
 40
1.0
100
AcDbArc
 50
180.0
 51
270.0
  0
ARC
  5
1928
330
17F0
100
AcDbEntity
  8
1
  6
Continuous
100
AcDbCircle
 10
124.408348
 20
210.9999279999999
 30
0.0
 40
1.0
100
AcDbArc
 50
180.0
 51
270.0
  0
LINE
  5
1929
330
17F0
100
AcDbEntity
  8
5
  6
PHANTOM
100
AcDbLine
 10
123.408348
 20
209.999928
 30
0.0
 11
124.408348
 21
209.999928
 31
0.0
  0
LINE
  5
192A
330
17F0
100
AcDbEntity
  8
5
  6
PHANTOM
100
AcDbLine
 10
124.408348
 20
207.999928
 30
0.0
 11
124.408348
 21
209.999928
 31
0.0
  0
LINE
  5
192B
330
17F0
100
AcDbEntity
  8
5
  6
PHANTOM
100
AcDbLine
 10
123.408348
 20
208.999928
 30
0.0
 11
123.408348
 21
210.9999279999999
 31
0.0
  0
LINE
  5
192C
330
17F0
100
AcDbEntity
  8
1
  6
Continuous
100
AcDbLine
 10
123.3083479999999
 20
211.4999279999999
 30
0.0
 11
123.3083479999999
 21
209.999928
 31
0.0
  0
LINE
  5
192D
330
17F0
100
AcDbEntity
  8
1
  6
Continuous
100
AcDbLine
 10
124.408379
 20
211.4999279999999
 30
0.0
 11
124.408379
 21
209.999928
 31
0.0
  0
LINE
  5
192E
330
17F0
100
AcDbEntity
  8
1
  6
Continuous
100
AcDbLine
 10
123.408348
 20
211.4999279999999
 30
0.0
 11
123.408348
 21
210.9999279999999
 31
0.0
  0
LINE
  5
192F
330
17F0
100
AcDbEntity
  8
1
  6
Continuous
100
AcDbLine
 10
118.4083479999999
 20
216.6435299999999
 30
0.0
 11
118.508348
 21
216.6663669999998
 31
0.0
  0
LINE
  5
1930
330
17F0
100
AcDbEntity
  8
1
  6
Continuous
100
AcDbLine
 10
118.4083479999999
 20
216.3009699999999
 30
0.0
 11
118.508348
 21
216.3009699999999
 31
0.0
  0
LINE
  5
1931
330
17F0
100
AcDbEntity
  8
1
  6
Continuous
100
AcDbLine
 10
118.508348
 20
214.9999279999999
 30
0.0
 11
118.4083479999999
 21
214.9999279999999
 31
0.0
  0
LINE
  5
1932
330
17F0
100
AcDbEntity
  8
1
  6
Continuous
100
AcDbLine
 10
118.4083479999999
 20
213.4999279999999
 30
0.0
 11
118.508348
 21
213.4999279999999
 31
0.0
  0
LINE
  5
1933
330
17F0
100
AcDbEntity
  8
4
  6
CENTER
100
AcDbLine
 10
129.4083479999999
 20
206.499928
 30
0.0
 11
129.4083479999999
 21
211.4999279999999
 31
0.0
  0
ARC
  5
1934
330
17F0
100
AcDbEntity
  8
5
  6
PHANTOM
100
AcDbCircle
 10
134.4083479999998
 20
208.999928
 30
0.0
 40
1.0
100
AcDbArc
 50
270.0
 51
0.0
  0
ARC
  5
1935
330
17F0
100
AcDbEntity
  8
1
  6
Continuous
100
AcDbCircle
 10
134.4083479999998
 20
210.9999279999999
 30
0.0
 40
1.0
100
AcDbArc
 50
270.0
 51
0.0
  0
LINE
  5
1936
330
17F0
100
AcDbEntity
  8
5
  6
PHANTOM
100
AcDbLine
 10
135.4083479999999
 20
209.999928
 30
0.0
 11
134.4083479999998
 21
209.999928
 31
0.0
  0
LINE
  5
1937
330
17F0
100
AcDbEntity
  8
5
  6
PHANTOM
100
AcDbLine
 10
135.4083479999999
 20
208.999928
 30
0.0
 11
135.4083479999999
 21
210.9999279999999
 31
0.0
  0
LINE
  5
1938
330
17F0
100
AcDbEntity
  8
5
  6
PHANTOM
100
AcDbLine
 10
134.4083479999998
 20
207.999928
 30
0.0
 11
134.4083479999998
 21
209.999928
 31
0.0
  0
LINE
  5
1939
330
17F0
100
AcDbEntity
  8
1
  6
Continuous
100
AcDbLine
 10
135.508348
 20
211.4999279999999
 30
0.0
 11
135.508348
 21
209.999928
 31
0.0
  0
LINE
  5
193A
330
17F0
100
AcDbEntity
  8
1
  6
Continuous
100
AcDbLine
 10
135.4083479999999
 20
211.4999279999999
 30
0.0
 11
135.4083479999999
 21
210.9999279999999
 31
0.0
  0
LINE
  5
193B
330
17F0
100
AcDbEntity
  8
1
  6
Continuous
100
AcDbLine
 10
134.4083479999998
 20
211.4999279999999
 30
0.0
 11
134.4083479999998
 21
209.999928
 31
0.0
  0
LINE
  5
193C
330
17F0
100
AcDbEntity
  8
1
  6
Continuous
100
AcDbLine
 10
165.9083479999999
 20
211.4999279999999
 30
0.0
 11
165.9083479999999
 21
224.9999279999999
 31
0.0
  0
LINE
  5
193D
330
17F0
100
AcDbEntity
  8
4
  6
CENTER
100
AcDbLine
 10
155.9083479999999
 20
221.9999279999999
 30
0.0
 11
155.9083479999999
 21
226.499928
 31
0.0
  0
ARC
  5
193E
330
17F0
100
AcDbEntity
  8
1
  6
Continuous
100
AcDbCircle
 10
165.9083479999999
 20
211.4999279999999
 30
0.0
 40
1.5
100
AcDbArc
 50
104.477512
 51
180.0
  0
ARC
  5
193F
330
17F0
100
AcDbEntity
  8
1
  6
Continuous
100
AcDbCircle
 10
165.4083479999999
 20
213.43642
 30
0.0
 40
0.5
100
AcDbArc
 50
284.4775119999998
 51
0.0
  0
LINE
  5
1940
330
17F0
100
AcDbEntity
  8
1
  6
Continuous
100
AcDbLine
 10
164.4083479999999
 20
211.4999279999999
 30
0.0
 11
164.4083479999999
 21
209.999928
 31
0.0
  0
ARC
  5
1941
330
17F0
100
AcDbEntity
  8
1
  6
Continuous
100
AcDbCircle
 10
164.4083479999999
 20
211.4999279999999
 30
0.0
 40
1.5
100
AcDbArc
 50
270.0
 51
0.0
  0
LINE
  5
1942
330
17F0
100
AcDbEntity
  8
1
  6
Continuous
100
AcDbLine
 10
181.4083479999999
 20
213.4999279999999
 30
0.0
 11
181.4083479999999
 21
221.4999279999999
 31
0.0
  0
LINE
  5
1943
330
17F0
100
AcDbEntity
  8
1
  6
Continuous
100
AcDbLine
 10
177.4083479999999
 20
221.4999279999999
 30
0.0
 11
177.4083479999999
 21
213.4999279999999
 31
0.0
  0
LINE
  5
1944
330
17F0
100
AcDbEntity
  8
1
  6
Continuous
100
AcDbLine
 10
176.9083479999999
 20
213.999928
 30
0.0
 11
176.9083479999999
 21
220.9999279999999
 31
0.0
  0
LINE
  5
1945
330
17F0
100
AcDbEntity
  8
1
  6
Continuous
100
AcDbLine
 10
181.9083479999999
 20
213.999928
 30
0.0
 11
181.9083479999999
 21
220.9999279999999
 31
0.0
  0
LINE
  5
1946
330
17F0
100
AcDbEntity
  8
1
  6
Continuous
100
AcDbLine
 10
181.4083479999999
 20
221.4999279999999
 30
0.0
 11
177.4083479999999
 21
221.4999279999999
 31
0.0
  0
LINE
  5
1947
330
17F0
100
AcDbEntity
  8
1
  6
Continuous
100
AcDbLine
 10
177.4083479999999
 20
221.4999279999999
 30
0.0
 11
176.9083479999999
 21
220.9999279999999
 31
0.0
  0
LINE
  5
1948
330
17F0
100
AcDbEntity
  8
1
  6
Continuous
100
AcDbLine
 10
181.9083479999999
 20
220.9999279999999
 30
0.0
 11
181.4083479999999
 21
221.4999279999999
 31
0.0
  0
LINE
  5
1949
330
17F0
100
AcDbEntity
  8
1
  6
Continuous
100
AcDbLine
 10
181.4083479999999
 20
213.4999279999999
 30
0.0
 11
177.4083479999999
 21
213.4999279999999
 31
0.0
  0
LINE
  5
194A
330
17F0
100
AcDbEntity
  8
1
  6
Continuous
100
AcDbLine
 10
176.9083479999999
 20
213.999928
 30
0.0
 11
177.4083479999999
 21
213.4999279999999
 31
0.0
  0
LINE
  5
194B
330
17F0
100
AcDbEntity
  8
1
  6
Continuous
100
AcDbLine
 10
181.4083479999999
 20
213.4999279999999
 30
0.0
 11
181.9083479999999
 21
213.999928
 31
0.0
  0
LINE
  5
194C
330
17F0
100
AcDbEntity
  8
5
  6
PHANTOM
100
AcDbLine
 10
397.175043
 20
135.7499639999998
 30
0.0
 11
387.925043
 21
135.7499639999998
 31
0.0
  0
LINE
  5
194D
330
17F0
100
AcDbEntity
  8
5
  6
PHANTOM
100
AcDbLine
 10
396.925043
 20
134.6582759999998
 30
0.0
 11
387.925043
 21
134.6582759999998
 31
0.0
  0
LINE
  5
194E
330
17F0
100
AcDbEntity
  8
5
  6
PHANTOM
100
AcDbLine
 10
396.925043
 20
131.341652
 30
0.0
 11
387.925043
 21
131.341652
 31
0.0
  0
LINE
  5
194F
330
17F0
100
AcDbEntity
  8
5
  6
PHANTOM
100
AcDbLine
 10
397.175043
 20
130.2499639999997
 30
0.0
 11
387.925043
 21
130.2499639999997
 31
0.0
  0
LINE
  5
1950
330
17F0
100
AcDbEntity
  8
5
  6
PHANTOM
100
AcDbLine
 10
387.925043
 20
131.341652
 30
0.0
 11
396.925043
 21
134.6582759999998
 31
0.0
  0
LINE
  5
1951
330
17F0
100
AcDbEntity
  8
5
  6
PHANTOM
100
AcDbLine
 10
396.925043
 20
131.341652
 30
0.0
 11
387.925043
 21
134.6582759999998
 31
0.0
  0
LINE
  5
1952
330
17F0
100
AcDbEntity
  8
4
  6
CENTER
100
AcDbLine
 10
318.925043
 20
132.9999639999998
 30
0.0
 11
400.9250429999998
 21
132.9999639999998
 31
0.0
  0
ARC
  5
1953
330
17F0
100
AcDbEntity
  8
5
  6
PHANTOM
100
AcDbCircle
 10
394.425043
 20
132.9999639999998
 30
0.0
 40
3.0
100
AcDbArc
 50
326.4426900000001
 51
33.55731
  0
LINE
  5
1954
330
17F0
100
AcDbEntity
  8
5
  6
PHANTOM
100
AcDbLine
 10
397.925043
 20
134.9999639999998
 30
0.0
 11
397.925043
 21
130.9999639999998
 31
0.0
  0
LINE
  5
1955
330
17F0
100
AcDbEntity
  8
5
  6
PHANTOM
100
AcDbLine
 10
397.925043
 20
130.9999639999998
 30
0.0
 11
397.175043
 21
130.2499639999997
 31
0.0
  0
LINE
  5
1956
330
17F0
100
AcDbEntity
  8
5
  6
PHANTOM
100
AcDbLine
 10
396.925043
 20
131.341652
 30
0.0
 11
396.925043
 21
130.2499639999997
 31
0.0
  0
LINE
  5
1957
330
17F0
100
AcDbEntity
  8
5
  6
PHANTOM
100
AcDbLine
 10
397.925043
 20
134.9999639999998
 30
0.0
 11
397.175043
 21
135.7499639999998
 31
0.0
  0
LINE
  5
1958
330
17F0
100
AcDbEntity
  8
5
  6
PHANTOM
100
AcDbLine
 10
396.925043
 20
135.7499639999998
 30
0.0
 11
396.925043
 21
134.6582759999998
 31
0.0
  0
LINE
  5
1959
330
17F0
100
AcDbEntity
  8
1
  6
Continuous
100
AcDbLine
 10
337.925043
 20
135.9999639999998
 30
0.0
 11
326.925043
 21
135.9999639999998
 31
0.0
  0
LINE
  5
195A
330
17F0
100
AcDbEntity
  8
1
  6
Continuous
100
AcDbLine
 10
337.925043
 20
129.9999639999998
 30
0.0
 11
326.925043
 21
129.9999639999998
 31
0.0
  0
LINE
  5
195B
330
17F0
100
AcDbEntity
  8
1
  6
Continuous
100
AcDbLine
 10
342.925043
 20
147.9999639999998
 30
0.0
 11
380.3250429999998
 21
147.9999639999998
 31
0.0
  0
LINE
  5
195C
330
17F0
100
AcDbEntity
  8
1
  6
Continuous
100
AcDbLine
 10
342.925043
 20
117.9999639999999
 30
0.0
 11
380.3250429999998
 21
117.9999639999999
 31
0.0
  0
LINE
  5
195D
330
17F0
100
AcDbEntity
  8
4
  6
CENTER
100
AcDbLine
 10
374.425043
 20
126.5999639999999
 30
0.0
 11
374.425043
 21
139.3999639999998
 31
0.0
  0
LINE
  5
195E
330
17F0
100
AcDbEntity
  8
1
  6
Continuous
100
AcDbLine
 10
379.625043
 20
128.099964
 30
0.0
 11
379.625043
 21
130.2499639999997
 31
0.0
  0
LINE
  5
195F
330
17F0
100
AcDbEntity
  8
1
  6
Continuous
100
AcDbLine
 10
387.925043
 20
139.4999639999997
 30
0.0
 11
387.925043
 21
126.4999639999999
 31
0.0
  0
CIRCLE
  5
1960
330
17F0
100
AcDbEntity
  8
1
  6
Continuous
100
AcDbCircle
 10
377.925043
 20
122.9999639999999
 30
0.0
 40
1.75
  0
LINE
  5
1961
330
17F0
100
AcDbEntity
  8
4
  6
CENTER
100
AcDbLine
 10
374.675043
 20
122.9999639999999
 30
0.0
 11
381.175043
 21
122.9999639999999
 31
0.0
  0
LINE
  5
1962
330
17F0
100
AcDbEntity
  8
1
  6
Continuous
100
AcDbLine
 10
365.625043
 20
128.099964
 30
0.0
 11
386.425043
 21
128.099964
 31
0.0
  0
LINE
  5
1963
330
17F0
100
AcDbEntity
  8
1
  6
Continuous
100
AcDbLine
 10
337.925043
 20
127.9999639999999
 30
0.0
 11
386.425043
 21
127.9999639999999
 31
0.0
  0
ARC
  5
1964
330
17F0
100
AcDbEntity
  8
1
  6
Continuous
100
AcDbCircle
 10
380.3250429999998
 20
122.9999639999999
 30
0.0
 40
5.0
100
AcDbArc
 50
270.0
 51
0.0
  0
LINE
  5
1965
330
17F0
100
AcDbEntity
  8
1
  6
Continuous
100
AcDbLine
 10
386.425043
 20
126.4999639999999
 30
0.0
 11
387.925043
 21
126.4999639999999
 31
0.0
  0
LINE
  5
1966
330
17F0
100
AcDbEntity
  8
4
  6
CENTER
100
AcDbLine
 10
377.925043
 20
126.2499639999999
 30
0.0
 11
377.925043
 21
119.7499639999999
 31
0.0
  0
CIRCLE
  5
1967
330
17F0
100
AcDbEntity
  8
1
  6
Continuous
100
AcDbCircle
 10
377.925043
 20
142.9999639999998
 30
0.0
 40
1.75
  0
LINE
  5
1968
330
17F0
100
AcDbEntity
  8
1
  6
Continuous
100
AcDbLine
 10
365.625043
 20
137.8999639999999
 30
0.0
 11
386.425043
 21
137.8999639999999
 31
0.0
  0
LINE
  5
1969
330
17F0
100
AcDbEntity
  8
4
  6
CENTER
100
AcDbLine
 10
374.675043
 20
142.9999639999998
 30
0.0
 11
381.175043
 21
142.9999639999998
 31
0.0
  0
ARC
  5
196A
330
17F0
100
AcDbEntity
  8
1
  6
Continuous
100
AcDbCircle
 10
380.3250429999998
 20
142.9999639999998
 30
0.0
 40
5.0
100
AcDbArc
 50
0.0
 51
90.0
  0
LINE
  5
196B
330
17F0
100
AcDbEntity
  8
1
  6
Continuous
100
AcDbLine
 10
386.425043
 20
139.4999639999997
 30
0.0
 11
387.925043
 21
139.4999639999997
 31
0.0
  0
LINE
  5
196C
330
17F0
100
AcDbEntity
  8
1
  6
Continuous
100
AcDbLine
 10
337.925043
 20
137.9999639999998
 30
0.0
 11
386.425043
 21
137.9999639999998
 31
0.0
  0
LINE
  5
196D
330
17F0
100
AcDbEntity
  8
1
  6
Continuous
100
AcDbLine
 10
386.425043
 20
139.4999639999997
 30
0.0
 11
386.425043
 21
126.4999639999999
 31
0.0
  0
LINE
  5
196E
330
17F0
100
AcDbEntity
  8
1
  6
Continuous
100
AcDbLine
 10
385.325043
 20
122.9999639999999
 30
0.0
 11
385.325043
 21
127.9999639999999
 31
0.0
  0
LINE
  5
196F
330
17F0
100
AcDbEntity
  8
4
  6
CENTER
100
AcDbLine
 10
377.925043
 20
146.2499639999998
 30
0.0
 11
377.925043
 21
139.7499639999997
 31
0.0
  0
LINE
  5
1970
330
17F0
100
AcDbEntity
  8
1
  6
Continuous
100
AcDbLine
 10
337.925043
 20
142.9999639999998
 30
0.0
 11
337.925043
 21
122.9999639999999
 31
0.0
  0
LINE
  5
1971
330
17F0
100
AcDbEntity
  8
4
  6
CENTER
100
AcDbLine
 10
344.675043
 20
122.9999639999999
 30
0.0
 11
351.175043
 21
122.9999639999999
 31
0.0
  0
CIRCLE
  5
1972
330
17F0
100
AcDbEntity
  8
1
  6
Continuous
100
AcDbCircle
 10
347.925043
 20
122.9999639999999
 30
0.0
 40
1.75
  0
LINE
  5
1973
330
17F0
100
AcDbEntity
  8
4
  6
CENTER
100
AcDbLine
 10
347.925043
 20
126.2499639999999
 30
0.0
 11
347.925043
 21
119.7499639999999
 31
0.0
  0
ARC
  5
1974
330
17F0
100
AcDbEntity
  8
1
  6
Continuous
100
AcDbCircle
 10
342.925043
 20
122.9999639999999
 30
0.0
 40
5.0
100
AcDbArc
 50
180.0
 51
270.0
  0
LINE
  5
1975
330
17F0
100
AcDbEntity
  8
4
  6
CENTER
100
AcDbLine
 10
344.675043
 20
142.9999639999998
 30
0.0
 11
351.175043
 21
142.9999639999998
 31
0.0
  0
CIRCLE
  5
1976
330
17F0
100
AcDbEntity
  8
1
  6
Continuous
100
AcDbCircle
 10
347.925043
 20
142.9999639999998
 30
0.0
 40
1.75
  0
LINE
  5
1977
330
17F0
100
AcDbEntity
  8
4
  6
CENTER
100
AcDbLine
 10
347.925043
 20
146.2499639999998
 30
0.0
 11
347.925043
 21
139.7499639999997
 31
0.0
  0
ARC
  5
1978
330
17F0
100
AcDbEntity
  8
1
  6
Continuous
100
AcDbCircle
 10
342.925043
 20
142.9999639999998
 30
0.0
 40
5.0
100
AcDbArc
 50
90.0
 51
180.0
  0
LINE
  5
1979
330
17F0
100
AcDbEntity
  8
1
  6
Continuous
100
AcDbLine
 10
322.425043
 20
136.9999639999998
 30
0.0
 11
322.425043
 21
128.9999639999997
 31
0.0
  0
LINE
  5
197A
330
17F0
100
AcDbEntity
  8
1
  6
Continuous
100
AcDbLine
 10
326.425043
 20
128.9999639999997
 30
0.0
 11
326.425043
 21
136.9999639999998
 31
0.0
  0
LINE
  5
197B
330
17F0
100
AcDbEntity
  8
1
  6
Continuous
100
AcDbLine
 10
326.925043
 20
136.4999639999997
 30
0.0
 11
326.925043
 21
129.4999639999998
 31
0.0
  0
LINE
  5
197C
330
17F0
100
AcDbEntity
  8
1
  6
Continuous
100
AcDbLine
 10
321.925043
 20
136.4999639999997
 30
0.0
 11
321.925043
 21
129.4999639999998
 31
0.0
  0
LINE
  5
197D
330
17F0
100
AcDbEntity
  8
1
  6
Continuous
100
AcDbLine
 10
322.425043
 20
128.9999639999997
 30
0.0
 11
326.425043
 21
128.9999639999997
 31
0.0
  0
LINE
  5
197E
330
17F0
100
AcDbEntity
  8
1
  6
Continuous
100
AcDbLine
 10
326.425043
 20
128.9999639999997
 30
0.0
 11
326.925043
 21
129.4999639999998
 31
0.0
  0
LINE
  5
197F
330
17F0
100
AcDbEntity
  8
1
  6
Continuous
100
AcDbLine
 10
321.925043
 20
129.4999639999998
 30
0.0
 11
322.425043
 21
128.9999639999997
 31
0.0
  0
LINE
  5
1980
330
17F0
100
AcDbEntity
  8
1
  6
Continuous
100
AcDbLine
 10
322.425043
 20
136.9999639999998
 30
0.0
 11
326.425043
 21
136.9999639999998
 31
0.0
  0
LINE
  5
1981
330
17F0
100
AcDbEntity
  8
1
  6
Continuous
100
AcDbLine
 10
326.925043
 20
136.4999639999997
 30
0.0
 11
326.425043
 21
136.9999639999998
 31
0.0
  0
LINE
  5
1982
330
17F0
100
AcDbEntity
  8
1
  6
Continuous
100
AcDbLine
 10
322.425043
 20
136.9999639999998
 30
0.0
 11
321.925043
 21
136.4999639999997
 31
0.0
  0
LINE
  5
1983
330
17F0
100
AcDbEntity
  8
1
  6
Continuous
100
AcDbLine
 10
385.325043
 20
137.9999639999998
 30
0.0
 11
385.325043
 21
142.9999639999998
 31
0.0
  0
LINE
  5
1984
330
17F0
100
AcDbEntity
  8
2
  6
Continuous
100
AcDbLine
 10
385.625043
 20
131.752282
 30
0.0
 11
376.425043
 21
134.6582759999998
 31
0.0
  0
LINE
  5
1985
330
17F0
100
AcDbEntity
  8
2
  6
Continuous
100
AcDbLine
 10
376.425043
 20
131.341652
 30
0.0
 11
385.625043
 21
134.247646
 31
0.0
  0
LINE
  5
1986
330
17F0
100
AcDbEntity
  8
1
  6
Continuous
100
AcDbLine
 10
385.625043
 20
130.2499639999997
 30
0.0
 11
376.425043
 21
130.2499639999997
 31
0.0
  0
LINE
  5
1987
330
17F0
100
AcDbEntity
  8
1
  6
Continuous
100
AcDbLine
 10
385.625043
 20
131.341652
 30
0.0
 11
376.425043
 21
131.341652
 31
0.0
  0
LINE
  5
1988
330
17F0
100
AcDbEntity
  8
1
  6
Continuous
100
AcDbLine
 10
385.625043
 20
134.6582759999998
 30
0.0
 11
376.425043
 21
134.6582759999998
 31
0.0
  0
LINE
  5
1989
330
17F0
100
AcDbEntity
  8
1
  6
Continuous
100
AcDbLine
 10
385.625043
 20
135.7499639999998
 30
0.0
 11
376.425043
 21
135.7499639999998
 31
0.0
  0
LINE
  5
198A
330
17F0
100
AcDbEntity
  8
1
  6
Continuous
100
AcDbLine
 10
379.625043
 20
135.7499639999998
 30
0.0
 11
379.625043
 21
137.8999639999999
 31
0.0
  0
LINE
  5
198B
330
17F0
100
AcDbEntity
  8
1
  6
Continuous
100
AcDbLine
 10
376.425043
 20
135.7499639999998
 30
0.0
 11
376.425043
 21
130.2499639999997
 31
0.0
  0
LINE
  5
198C
330
17F0
100
AcDbEntity
  8
1
  6
Continuous
100
AcDbLine
 10
375.425043
 20
135.9999639999998
 30
0.0
 11
375.425043
 21
129.9999639999998
 31
0.0
  0
LINE
  5
198D
330
17F0
100
AcDbEntity
  8
1
  6
Continuous
100
AcDbLine
 10
375.425043
 20
134.4999639999997
 30
0.0
 11
376.425043
 21
134.4999639999997
 31
0.0
  0
LINE
  5
198E
330
17F0
100
AcDbEntity
  8
1
  6
Continuous
100
AcDbLine
 10
375.425043
 20
131.4999639999998
 30
0.0
 11
376.425043
 21
131.4999639999998
 31
0.0
  0
LINE
  5
198F
330
17F0
100
AcDbEntity
  8
1
  6
Continuous
100
AcDbLine
 10
341.0250409999998
 20
135.9999639999998
 30
0.0
 11
341.4529589999999
 21
135.9999639999998
 31
0.0
  0
LINE
  5
1990
330
17F0
100
AcDbEntity
  8
1
  6
Continuous
100
AcDbLine
 10
341.0250409999998
 20
129.9999639999998
 30
0.0
 11
341.7958169999999
 21
129.9999639999998
 31
0.0
  0
LINE
  5
1991
330
17F0
100
AcDbEntity
  8
1
  6
Continuous
100
AcDbLine
 10
339.425043
 20
137.9999639999998
 30
0.0
 11
339.425043
 21
127.9999639999999
 31
0.0
  0
LINE
  5
1992
330
17F0
100
AcDbEntity
  8
1
  6
Continuous
100
AcDbLine
 10
247.416695
 20
139.4999639999997
 30
0.0
 11
247.416695
 21
137.9999639999998
 31
0.0
  0
LINE
  5
1993
330
17F0
100
AcDbEntity
  8
1
  6
Continuous
100
AcDbLine
 10
247.416695
 20
127.9999639999999
 30
0.0
 11
247.416695
 21
126.4999639999999
 31
0.0
  0
LINE
  5
1994
330
17F0
100
AcDbEntity
  8
1
  6
Continuous
100
AcDbLine
 10
385.625043
 20
137.8999639999999
 30
0.0
 11
385.625043
 21
128.099964
 31
0.0
  0
LINE
  5
1995
330
17F0
100
AcDbEntity
  8
1
  6
Continuous
100
AcDbLine
 10
372.175043
 20
137.0999639999998
 30
0.0
 11
379.625043
 21
137.0999639999998
 31
0.0
  0
LINE
  5
1996
330
17F0
100
AcDbEntity
  8
1
  6
Continuous
100
AcDbLine
 10
372.175043
 20
128.8999639999999
 30
0.0
 11
379.625043
 21
128.8999639999999
 31
0.0
  0
LINE
  5
1997
330
17F0
100
AcDbEntity
  8
1
  6
Continuous
100
AcDbLine
 10
365.625043
 20
137.8999639999999
 30
0.0
 11
365.625043
 21
137.4999639999997
 31
0.0
  0
LINE
  5
1998
330
17F0
100
AcDbEntity
  8
1
  6
Continuous
100
AcDbLine
 10
340.0250409999998
 20
137.7499639999998
 30
0.0
 11
340.0250409999998
 21
128.2499639999997
 31
0.0
  0
LINE
  5
1999
330
17F0
100
AcDbEntity
  8
1
  6
Continuous
100
AcDbLine
 10
339.425043
 20
137.4999639999997
 30
0.0
 11
340.0250409999998
 21
137.4999639999997
 31
0.0
  0
LINE
  5
199A
330
17F0
100
AcDbEntity
  8
1
  6
Continuous
100
AcDbLine
 10
341.0250409999998
 20
137.7499639999998
 30
0.0
 11
341.0250409999998
 21
128.2499639999997
 31
0.0
  0
LINE
  5
199B
330
17F0
100
AcDbEntity
  8
1
  6
Continuous
100
AcDbLine
 10
340.0250409999998
 20
137.7499639999998
 30
0.0
 11
341.0250409999998
 21
137.7499639999998
 31
0.0
  0
LINE
  5
199C
330
17F0
100
AcDbEntity
  8
1
  6
Continuous
100
AcDbLine
 10
340.0250409999998
 20
128.2499639999997
 30
0.0
 11
341.0250409999998
 21
128.2499639999997
 31
0.0
  0
LINE
  5
199D
330
17F0
100
AcDbEntity
  8
1
  6
Continuous
100
AcDbLine
 10
339.425043
 20
128.4999639999998
 30
0.0
 11
340.0250409999998
 21
128.4999639999998
 31
0.0
  0
LINE
  5
199E
330
17F0
100
AcDbEntity
  8
1
  6
Continuous
100
AcDbLine
 10
372.175043
 20
137.8999639999999
 30
0.0
 11
372.175043
 21
128.099964
 31
0.0
  0
LINE
  5
199F
330
17F0
100
AcDbEntity
  8
1
  6
Continuous
100
AcDbLine
 10
371.4822219999998
 20
137.8999639999999
 30
0.0
 11
371.4822219999998
 21
128.099964
 31
0.0
  0
LINE
  5
19A0
330
17F0
100
AcDbEntity
  8
1
  6
Continuous
100
AcDbLine
 10
372.175043
 20
135.9999639999998
 30
0.0
 11
375.425043
 21
135.9999639999998
 31
0.0
  0
LINE
  5
19A1
330
17F0
100
AcDbEntity
  8
1
  6
Continuous
100
AcDbLine
 10
372.175043
 20
129.9999639999998
 30
0.0
 11
375.425043
 21
129.9999639999998
 31
0.0
  0
LINE
  5
19A2
330
17F0
100
AcDbEntity
  8
1
  6
Continuous
100
AcDbLine
 10
359.284999
 20
137.4999639999997
 30
0.0
 11
369.484999
 21
137.4999639999997
 31
0.0
  0
LINE
  5
19A3
330
17F0
100
AcDbEntity
  8
1
  6
Continuous
100
AcDbLine
 10
359.284999
 20
128.4999639999998
 30
0.0
 11
369.484999
 21
128.4999639999998
 31
0.0
  0
LINE
  5
19A4
330
17F0
100
AcDbEntity
  8
1
  6
Continuous
100
AcDbLine
 10
369.484999
 20
137.4999639999997
 30
0.0
 11
369.484999
 21
128.4999639999998
 31
0.0
  0
LINE
  5
19A5
330
17F0
100
AcDbEntity
  8
1
  6
Continuous
100
AcDbLine
 10
359.284999
 20
137.4999639999997
 30
0.0
 11
359.284999
 21
128.4999639999998
 31
0.0
  0
LINE
  5
19A6
330
17F0
100
AcDbEntity
  8
1
  6
Continuous
100
AcDbLine
 10
365.625043
 20
128.4999639999998
 30
0.0
 11
365.625043
 21
128.099964
 31
0.0
  0
CIRCLE
  5
19A7
330
17F0
100
AcDbEntity
  8
1
  6
Continuous
100
AcDbCircle
 10
341.425041
 20
129.4999639999998
 30
0.0
 40
0.4
  0
ARC
  5
19A8
330
17F0
100
AcDbEntity
  8
1
  6
Continuous
100
AcDbCircle
 10
341.825041
 20
136.4999639999997
 30
0.0
 40
0.4
100
AcDbArc
 50
3.270487999999998
 51
183.270488
  0
CIRCLE
  5
19A9
330
17F0
100
AcDbEntity
  8
1
  6
Continuous
100
AcDbCircle
 10
358.8849989999998
 20
136.4999639999997
 30
0.0
 40
0.4
  0
ARC
  5
19AA
330
17F0
100
AcDbEntity
  8
1
  6
Continuous
100
AcDbCircle
 10
358.484999
 20
129.4999639999998
 30
0.0
 40
0.4
100
AcDbArc
 50
183.270488
 51
3.270487999999998
  0
ARC
  5
19AB
330
17F0
100
AcDbEntity
  8
1
  6
Continuous
100
AcDbCircle
 10
342.2250409999999
 20
129.4999639999998
 30
0.0
 40
0.4
100
AcDbArc
 50
183.270488
 51
3.270487999999998
  0
ARC
  5
19AC
330
17F0
100
AcDbEntity
  8
1
  6
Continuous
100
AcDbCircle
 10
358.0849989999999
 20
136.4999639999997
 30
0.0
 40
0.4
100
AcDbArc
 50
3.270487999999998
 51
183.270488
  0
ARC
  5
19AD
330
17F0
100
AcDbEntity
  8
1
  6
Continuous
100
AcDbCircle
 10
343.282332
 20
136.4999639999997
 30
0.0
 40
0.4
100
AcDbArc
 50
8.58946
 51
188.58946
  0
ARC
  5
19AE
330
17F0
100
AcDbEntity
  8
1
  6
Continuous
100
AcDbCircle
 10
345.396999
 20
136.4999639999997
 30
0.0
 40
0.4
100
AcDbArc
 50
8.58946
 51
188.58946
  0
ARC
  5
19AF
330
17F0
100
AcDbEntity
  8
1
  6
Continuous
100
AcDbCircle
 10
347.5116659999998
 20
136.4999639999997
 30
0.0
 40
0.4
100
AcDbArc
 50
8.58946
 51
188.58946
  0
ARC
  5
19B0
330
17F0
100
AcDbEntity
  8
1
  6
Continuous
100
AcDbCircle
 10
349.626332
 20
136.4999639999997
 30
0.0
 40
0.4
100
AcDbArc
 50
8.58946
 51
188.58946
  0
ARC
  5
19B1
330
17F0
100
AcDbEntity
  8
1
  6
Continuous
100
AcDbCircle
 10
351.7409989999999
 20
136.4999639999997
 30
0.0
 40
0.4
100
AcDbArc
 50
8.58946
 51
188.58946
  0
ARC
  5
19B2
330
17F0
100
AcDbEntity
  8
1
  6
Continuous
100
AcDbCircle
 10
353.8556659999999
 20
136.4999639999997
 30
0.0
 40
0.4
100
AcDbArc
 50
8.58946
 51
188.58946
  0
ARC
  5
19B3
330
17F0
100
AcDbEntity
  8
1
  6
Continuous
100
AcDbCircle
 10
355.970332
 20
136.4999639999997
 30
0.0
 40
0.4
100
AcDbArc
 50
8.58946
 51
188.58946
  0
ARC
  5
19B4
330
17F0
100
AcDbEntity
  8
1
  6
Continuous
100
AcDbCircle
 10
357.027666
 20
129.4999639999998
 30
0.0
 40
0.4
100
AcDbArc
 50
188.58946
 51
8.58946
  0
ARC
  5
19B5
330
17F0
100
AcDbEntity
  8
1
  6
Continuous
100
AcDbCircle
 10
354.912999
 20
129.4999639999998
 30
0.0
 40
0.4
100
AcDbArc
 50
188.58946
 51
8.58946
  0
ARC
  5
19B6
330
17F0
100
AcDbEntity
  8
1
  6
Continuous
100
AcDbCircle
 10
352.7983319999998
 20
129.4999639999998
 30
0.0
 40
0.4
100
AcDbArc
 50
188.58946
 51
8.58946
  0
ARC
  5
19B7
330
17F0
100
AcDbEntity
  8
1
  6
Continuous
100
AcDbCircle
 10
350.683666
 20
129.4999639999998
 30
0.0
 40
0.4
100
AcDbArc
 50
188.58946
 51
8.58946
  0
ARC
  5
19B8
330
17F0
100
AcDbEntity
  8
1
  6
Continuous
100
AcDbCircle
 10
348.568999
 20
129.4999639999998
 30
0.0
 40
0.4
100
AcDbArc
 50
188.58946
 51
8.58946
  0
ARC
  5
19B9
330
17F0
100
AcDbEntity
  8
1
  6
Continuous
100
AcDbCircle
 10
346.4543319999998
 20
129.4999639999998
 30
0.0
 40
0.4
100
AcDbArc
 50
188.58946
 51
8.58946
  0
ARC
  5
19BA
330
17F0
100
AcDbEntity
  8
1
  6
Continuous
100
AcDbCircle
 10
344.339666
 20
129.4999639999998
 30
0.0
 40
0.4
100
AcDbArc
 50
188.58946
 51
8.58946
  0
LINE
  5
19BB
330
17F0
100
AcDbEntity
  8
1
  6
Continuous
100
AcDbLine
 10
342.2243889999998
 20
136.5227839999998
 30
0.0
 11
342.624389
 21
129.522784
 31
0.0
  0
LINE
  5
19BC
330
17F0
100
AcDbEntity
  8
1
  6
Continuous
100
AcDbLine
 10
341.4256919999999
 20
136.4771439999999
 30
0.0
 11
341.825692
 21
129.4771439999998
 31
0.0
  0
LINE
  5
19BD
330
17F0
100
AcDbEntity
  8
1
  6
Continuous
100
AcDbLine
 10
343.6778459999999
 20
136.559705
 30
0.0
 11
344.735179
 21
129.559705
 31
0.0
  0
LINE
  5
19BE
330
17F0
100
AcDbEntity
  8
1
  6
Continuous
100
AcDbLine
 10
342.886819
 20
136.440223
 30
0.0
 11
343.9441519999999
 21
129.4402229999998
 31
0.0
  0
LINE
  5
19BF
330
17F0
100
AcDbEntity
  8
1
  6
Continuous
100
AcDbLine
 10
345.792513
 20
136.559705
 30
0.0
 11
346.849846
 21
129.559705
 31
0.0
  0
LINE
  5
19C0
330
17F0
100
AcDbEntity
  8
1
  6
Continuous
100
AcDbLine
 10
345.001485
 20
136.440223
 30
0.0
 11
346.0588189999999
 21
129.4402229999998
 31
0.0
  0
LINE
  5
19C1
330
17F0
100
AcDbEntity
  8
1
  6
Continuous
100
AcDbLine
 10
347.9071789999999
 20
136.559705
 30
0.0
 11
348.9645129999999
 21
129.559705
 31
0.0
  0
LINE
  5
19C2
330
17F0
100
AcDbEntity
  8
1
  6
Continuous
100
AcDbLine
 10
348.9645129999999
 20
129.559705
 30
0.0
 11
348.9645129999999
 21
129.559705
 31
0.0
  0
LINE
  5
19C3
330
17F0
100
AcDbEntity
  8
1
  6
Continuous
100
AcDbLine
 10
348.173485
 20
129.4402229999998
 30
0.0
 11
347.1161519999999
 21
136.440223
 31
0.0
  0
LINE
  5
19C4
330
17F0
100
AcDbEntity
  8
1
  6
Continuous
100
AcDbLine
 10
350.0218459999999
 20
136.559705
 30
0.0
 11
351.079179
 21
129.559705
 31
0.0
  0
LINE
  5
19C5
330
17F0
100
AcDbEntity
  8
1
  6
Continuous
100
AcDbLine
 10
352.1365129999999
 20
136.559705
 30
0.0
 11
353.193846
 21
129.559705
 31
0.0
  0
LINE
  5
19C6
330
17F0
100
AcDbEntity
  8
1
  6
Continuous
100
AcDbLine
 10
354.2511789999999
 20
136.559705
 30
0.0
 11
355.3085129999999
 21
129.559705
 31
0.0
  0
LINE
  5
19C7
330
17F0
100
AcDbEntity
  8
1
  6
Continuous
100
AcDbLine
 10
356.3658459999999
 20
136.559705
 30
0.0
 11
357.423179
 21
129.559705
 31
0.0
  0
LINE
  5
19C8
330
17F0
100
AcDbEntity
  8
1
  6
Continuous
100
AcDbLine
 10
358.484347
 20
136.5227839999998
 30
0.0
 11
358.884347
 21
129.522784
 31
0.0
  0
LINE
  5
19C9
330
17F0
100
AcDbEntity
  8
1
  6
Continuous
100
AcDbLine
 10
358.0856499999999
 20
129.4771439999998
 30
0.0
 11
357.68565
 21
136.4771439999999
 31
0.0
  0
LINE
  5
19CA
330
17F0
100
AcDbEntity
  8
1
  6
Continuous
100
AcDbLine
 10
356.632152
 20
129.4402229999998
 30
0.0
 11
355.574819
 21
136.440223
 31
0.0
  0
LINE
  5
19CB
330
17F0
100
AcDbEntity
  8
1
  6
Continuous
100
AcDbLine
 10
354.517485
 20
129.4402229999998
 30
0.0
 11
353.4601519999998
 21
136.440223
 31
0.0
  0
LINE
  5
19CC
330
17F0
100
AcDbEntity
  8
1
  6
Continuous
100
AcDbLine
 10
352.402819
 20
129.4402229999998
 30
0.0
 11
351.345485
 21
136.440223
 31
0.0
  0
LINE
  5
19CD
330
17F0
100
AcDbEntity
  8
1
  6
Continuous
100
AcDbLine
 10
350.288152
 20
129.4402229999998
 30
0.0
 11
349.230819
 21
136.440223
 31
0.0
  0
LINE
  5
19CE
330
17F0
100
AcDbEntity
  8
1
  6
Continuous
100
AcDbLine
 10
342.705098
 20
129.9999639999998
 30
0.0
 11
342.6205540000001
 21
129.440225
 31
0.0
  0
LINE
  5
19CF
330
17F0
100
AcDbEntity
  8
1
  6
Continuous
100
AcDbLine
 10
342.886818
 20
136.559703
 30
0.0
 11
342.802274
 21
135.9999639999998
 31
0.0
  0
LINE
  5
19D0
330
17F0
100
AcDbEntity
  8
1
  6
Continuous
100
AcDbLine
 10
345.001485
 20
136.559705
 30
0.0
 11
344.916938
 21
135.9999639999998
 31
0.0
  0
LINE
  5
19D1
330
17F0
100
AcDbEntity
  8
1
  6
Continuous
100
AcDbLine
 10
344.735179
 20
129.4402229999998
 30
0.0
 11
344.819727
 21
129.9999639999998
 31
0.0
  0
LINE
  5
19D2
330
17F0
100
AcDbEntity
  8
1
  6
Continuous
100
AcDbLine
 10
347.1161519999999
 20
136.559705
 30
0.0
 11
347.031604
 21
135.9999639999998
 31
0.0
  0
LINE
  5
19D3
330
17F0
100
AcDbEntity
  8
1
  6
Continuous
100
AcDbLine
 10
346.849846
 20
129.4402229999998
 30
0.0
 11
346.9343929999998
 21
129.9999639999998
 31
0.0
  0
LINE
  5
19D4
330
17F0
100
AcDbEntity
  8
1
  6
Continuous
100
AcDbLine
 10
349.230819
 20
136.559705
 30
0.0
 11
349.146271
 21
135.9999639999998
 31
0.0
  0
LINE
  5
19D5
330
17F0
100
AcDbEntity
  8
1
  6
Continuous
100
AcDbLine
 10
348.9645129999999
 20
129.4402229999998
 30
0.0
 11
349.04906
 21
129.9999639999998
 31
0.0
  0
LINE
  5
19D6
330
17F0
100
AcDbEntity
  8
1
  6
Continuous
100
AcDbLine
 10
351.345485
 20
136.559705
 30
0.0
 11
351.260938
 21
135.9999639999998
 31
0.0
  0
LINE
  5
19D7
330
17F0
100
AcDbEntity
  8
1
  6
Continuous
100
AcDbLine
 10
351.079179
 20
129.4402229999998
 30
0.0
 11
351.163727
 21
129.9999639999998
 31
0.0
  0
LINE
  5
19D8
330
17F0
100
AcDbEntity
  8
1
  6
Continuous
100
AcDbLine
 10
353.4601519999998
 20
136.559705
 30
0.0
 11
353.375604
 21
135.9999639999998
 31
0.0
  0
LINE
  5
19D9
330
17F0
100
AcDbEntity
  8
1
  6
Continuous
100
AcDbLine
 10
353.193846
 20
129.4402229999998
 30
0.0
 11
353.2783929999998
 21
129.9999639999998
 31
0.0
  0
LINE
  5
19DA
330
17F0
100
AcDbEntity
  8
1
  6
Continuous
100
AcDbLine
 10
355.574819
 20
136.559705
 30
0.0
 11
355.490271
 21
135.9999639999998
 31
0.0
  0
LINE
  5
19DB
330
17F0
100
AcDbEntity
  8
1
  6
Continuous
100
AcDbLine
 10
355.3085129999999
 20
129.4402229999998
 30
0.0
 11
355.39306
 21
129.9999639999998
 31
0.0
  0
LINE
  5
19DC
330
17F0
100
AcDbEntity
  8
1
  6
Continuous
100
AcDbLine
 10
357.6894849999998
 20
136.559705
 30
0.0
 11
357.604938
 21
135.9999639999998
 31
0.0
  0
LINE
  5
19DD
330
17F0
100
AcDbEntity
  8
1
  6
Continuous
100
AcDbLine
 10
357.423179
 20
129.4402229999998
 30
0.0
 11
357.5077269999999
 21
129.9999639999998
 31
0.0
  0
LINE
  5
19DE
330
17F0
100
AcDbEntity
  8
1
  6
Continuous
100
AcDbLine
 10
341.4256919999999
 20
136.5227839999998
 30
0.0
 11
341.3958169999999
 21
135.9999639999998
 31
0.0
  0
LINE
  5
19DF
330
17F0
100
AcDbEntity
  8
1
  6
Continuous
100
AcDbLine
 10
358.914223
 20
129.9999639999998
 30
0.0
 11
358.884347
 21
129.4771439999998
 31
0.0
  0
LINE
  5
19E0
330
17F0
100
AcDbEntity
  8
1
  6
Continuous
100
AcDbLine
 10
342.597122
 20
129.9999639999998
 30
0.0
 11
343.859605
 21
129.9999639999998
 31
0.0
  0
LINE
  5
19E1
330
17F0
100
AcDbEntity
  8
1
  6
Continuous
100
AcDbLine
 10
344.668679
 20
129.9999639999998
 30
0.0
 11
345.9742709999999
 21
129.9999639999998
 31
0.0
  0
LINE
  5
19E2
330
17F0
100
AcDbEntity
  8
1
  6
Continuous
100
AcDbLine
 10
346.783346
 20
129.9999639999998
 30
0.0
 11
348.0889379999999
 21
129.9999639999998
 31
0.0
  0
LINE
  5
19E3
330
17F0
100
AcDbEntity
  8
1
  6
Continuous
100
AcDbLine
 10
348.8980129999998
 20
129.9999639999998
 30
0.0
 11
350.203604
 21
129.9999639999998
 31
0.0
  0
LINE
  5
19E4
330
17F0
100
AcDbEntity
  8
1
  6
Continuous
100
AcDbLine
 10
351.012679
 20
129.9999639999998
 30
0.0
 11
352.3182709999999
 21
129.9999639999998
 31
0.0
  0
LINE
  5
19E5
330
17F0
100
AcDbEntity
  8
1
  6
Continuous
100
AcDbLine
 10
353.1273459999999
 20
129.9999639999998
 30
0.0
 11
354.4329379999999
 21
129.9999639999998
 31
0.0
  0
LINE
  5
19E6
330
17F0
100
AcDbEntity
  8
1
  6
Continuous
100
AcDbLine
 10
355.2420119999999
 20
129.9999639999998
 30
0.0
 11
356.547604
 21
129.9999639999998
 31
0.0
  0
LINE
  5
19E7
330
17F0
100
AcDbEntity
  8
1
  6
Continuous
100
AcDbLine
 10
357.356679
 20
129.9999639999998
 30
0.0
 11
358.055775
 21
129.9999639999998
 31
0.0
  0
LINE
  5
19E8
330
17F0
100
AcDbEntity
  8
1
  6
Continuous
100
AcDbLine
 10
358.8570799999998
 20
129.9999639999998
 30
0.0
 11
359.284999
 21
129.9999639999998
 31
0.0
  0
LINE
  5
19E9
330
17F0
100
AcDbEntity
  8
1
  6
Continuous
100
AcDbLine
 10
358.514223
 20
135.9999639999998
 30
0.0
 11
359.284999
 21
135.9999639999998
 31
0.0
  0
LINE
  5
19EA
330
17F0
100
AcDbEntity
  8
1
  6
Continuous
100
AcDbLine
 10
356.450393
 20
135.9999639999998
 30
0.0
 11
357.712918
 21
135.9999639999998
 31
0.0
  0
LINE
  5
19EB
330
17F0
100
AcDbEntity
  8
1
  6
Continuous
100
AcDbLine
 10
354.335727
 20
135.9999639999998
 30
0.0
 11
355.641319
 21
135.9999639999998
 31
0.0
  0
LINE
  5
19EC
330
17F0
100
AcDbEntity
  8
1
  6
Continuous
100
AcDbLine
 10
352.22106
 20
135.9999639999998
 30
0.0
 11
353.526652
 21
135.9999639999998
 31
0.0
  0
LINE
  5
19ED
330
17F0
100
AcDbEntity
  8
1
  6
Continuous
100
AcDbLine
 10
350.106393
 20
135.9999639999998
 30
0.0
 11
351.411985
 21
135.9999639999998
 31
0.0
  0
LINE
  5
19EE
330
17F0
100
AcDbEntity
  8
1
  6
Continuous
100
AcDbLine
 10
347.991727
 20
135.9999639999998
 30
0.0
 11
349.297319
 21
135.9999639999998
 31
0.0
  0
LINE
  5
19EF
330
17F0
100
AcDbEntity
  8
1
  6
Continuous
100
AcDbLine
 10
345.8770599999998
 20
135.9999639999998
 30
0.0
 11
347.182652
 21
135.9999639999998
 31
0.0
  0
LINE
  5
19F0
330
17F0
100
AcDbEntity
  8
1
  6
Continuous
100
AcDbLine
 10
343.7623929999999
 20
135.9999639999998
 30
0.0
 11
345.067985
 21
135.9999639999998
 31
0.0
  0
LINE
  5
19F1
330
17F0
100
AcDbEntity
  8
1
  6
Continuous
100
AcDbLine
 10
342.2542639999999
 20
135.9999639999998
 30
0.0
 11
342.953319
 21
135.9999639999998
 31
0.0
  0
ENDSEC
  0
SECTION
  2
OBJECTS
  0
DICTIONARY
  5
17DE
330
0
100
AcDbDictionary
281
     1
  3
ACAD_CIP_PREVIOUS_PRODUCT_INFO
350
1A55
  3
ACAD_COLOR
350
1A37
  3
ACAD_DETAILVIEWSTYLE
350
1A50
  3
ACAD_GROUP
350
17DF
  3
ACAD_LAYOUT
350
17EB
  3
ACAD_MATERIAL
350
1A05
  3
ACAD_MLEADERSTYLE
350
1A4C
  3
ACAD_MLINESTYLE
350
17E8
  3
ACAD_PLOTSETTINGS
350
17EA
  3
ACAD_PLOTSTYLENAME
350
1A03
  3
ACAD_SCALELIST
350
1A3A
  3
ACAD_SECTIONVIEWSTYLE
350
1A4E
  3
ACAD_TABLESTYLE
350
1A38
  3
ACAD_VISUALSTYLE
350
1A1E
  3
ACDB_RECOMPOSE_DATA
350
1A73
  3
AcDbVariableDictionary
350
1A66
  3
DWGPROPS
350
1A74
  0
DICTIONARY
  5
1A56
330
17E2
100
AcDbDictionary
280
     1
281
     1
  3
ADSK_XREC_LAYER_RECONCILED
360
1A57
  0
DICTIONARY
  5
1A58
330
17F8
100
AcDbDictionary
280
     1
281
     1
  3
ADSK_XREC_LAYER_RECONCILED
360
1A59
  0
DICTIONARY
  5
1A5A
330
17F9
100
AcDbDictionary
280
     1
281
     1
  3
ADSK_XREC_LAYER_RECONCILED
360
1A5B
  0
DICTIONARY
  5
1A5C
330
17FA
100
AcDbDictionary
280
     1
281
     1
  3
ADSK_XREC_LAYER_RECONCILED
360
1A5D
  0
DICTIONARY
  5
1A5E
330
17FB
100
AcDbDictionary
280
     1
281
     1
  3
ADSK_XREC_LAYER_RECONCILED
360
1A5F
  0
DICTIONARY
  5
1A60
330
17FC
100
AcDbDictionary
280
     1
281
     1
  3
ADSK_XREC_LAYER_RECONCILED
360
1A61
  0
DICTIONARY
  5
1A62
330
17FD
100
AcDbDictionary
280
     1
281
     1
  3
ADSK_XREC_LAYER_RECONCILED
360
1A63
  0
DICTIONARY
  5
1A64
330
17FE
100
AcDbDictionary
280
     1
281
     1
  3
ADSK_XREC_LAYER_RECONCILED
360
1A65
  0
DICTIONARY
  5
19FE
330
17F0
100
AcDbDictionary
281
     1
  3
ACAD_LAYOUTSELFREF
350
19FF
  0
DICTIONARY
  5
19FC
330
17EC
100
AcDbDictionary
281
     1
  3
ACAD_LAYOUTSELFREF
350
19FD
  0
XRECORD
  5
1A55
102
{ACAD_REACTORS
330
17DE
102
}
330
17DE
100
AcDbXrecord
280
     1
300
ACDLT
300
2014
300
ACDLT_F_S
  0
DICTIONARY
  5
1A37
102
{ACAD_REACTORS
330
17DE
102
}
330
17DE
100
AcDbDictionary
281
     1
  0
DICTIONARY
  5
1A50
102
{ACAD_REACTORS
330
17DE
102
}
330
17DE
100
AcDbDictionary
281
     1
  3
Imperial24
350
1A51
  0
DICTIONARY
  5
17DF
102
{ACAD_REACTORS
330
17DE
102
}
330
17DE
100
AcDbDictionary
281
     1
  0
DICTIONARY
  5
17EB
102
{ACAD_REACTORS
330
17DE
102
}
330
17DE
100
AcDbDictionary
281
     1
  3
Model
350
1A52
  3
レイアウト1
350
1A53
  0
DICTIONARY
  5
1A05
102
{ACAD_REACTORS
330
17DE
102
}
330
17DE
100
AcDbDictionary
281
     1
  3
ByBlock
350
1A0E
  3
ByLayer
350
1A06
  3
Global
350
1A16
  0
DICTIONARY
  5
1A4C
102
{ACAD_REACTORS
330
17DE
102
}
330
17DE
100
AcDbDictionary
281
     1
  3
Standard
350
1A4D
  0
DICTIONARY
  5
17E8
102
{ACAD_REACTORS
330
17DE
102
}
330
17DE
100
AcDbDictionary
281
     1
  3
STANDARD
350
17E9
  0
DICTIONARY
  5
17EA
102
{ACAD_REACTORS
330
17DE
102
}
330
17DE
100
AcDbDictionary
281
     1
  0
ACDBDICTIONARYWDFLT
  5
1A03
102
{ACAD_REACTORS
330
17DE
102
}
330
17DE
100
AcDbDictionary
281
     1
  3
Normal
350
1A04
100
AcDbDictionaryWithDefault
340
1A04
  0
DICTIONARY
  5
1A3A
102
{ACAD_REACTORS
330
17DE
102
}
330
17DE
100
AcDbDictionary
281
     1
  3
A0
350
1A3B
  3
A1
350
1A3C
  3
A2
350
1A3D
  3
A3
350
1A3E
  3
A4
350
1A3F
  3
A5
350
1A40
  3
A6
350
1A41
  3
A7
350
1A42
  3
A8
350
1A43
  3
A9
350
1A44
  3
B0
350
1A45
  3
B1
350
1A46
  3
B2
350
1A47
  3
B3
350
1A48
  3
B4
350
1A49
  3
B5
350
1A4A
  3
B6
350
1A4B
  0
DICTIONARY
  5
1A4E
102
{ACAD_REACTORS
330
17DE
102
}
330
17DE
100
AcDbDictionary
281
     1
  3
Imperial24
350
1A4F
  0
DICTIONARY
  5
1A38
102
{ACAD_REACTORS
330
17DE
102
}
330
17DE
100
AcDbDictionary
281
     1
  3
Standard
350
1A39
  0
DICTIONARY
  5
1A1E
102
{ACAD_REACTORS
330
17DE
102
}
330
17DE
100
AcDbDictionary
281
     1
  3
2dWireframe
350
1A24
  3
Basic
350
1A23
  3
Brighten
350
1A2A
  3
ColorChange
350
1A2E
  3
Conceptual
350
1A27
  3
Dim
350
1A29
  3
EdgeColorOff
350
1A36
  3
Facepattern
350
1A2D
  3
Flat
350
1A1F
  3
FlatWithEdges
350
1A20
  3
Gouraud
350
1A21
  3
GouraudWithEdges
350
1A22
  3
Hidden
350
1A26
  3
JitterOff
350
1A34
  3
Linepattern
350
1A2C
  3
OverhangOff
350
1A35
  3
Realistic
350
1A28
  3
Shaded
350
1A33
  3
Shaded with edges
350
1A32
  3
Shades of Gray
350
1A2F
  3
Sketchy
350
1A30
  3
Thicken
350
1A2B
  3
Wireframe
350
1A25
  3
X-Ray
350
1A31
  0
XRECORD
  5
1A73
102
{ACAD_REACTORS
330
17DE
102
}
330
17DE
100
AcDbXrecord
280
     1
 90
        1
330
1A39
  0
DICTIONARY
  5
1A66
102
{ACAD_REACTORS
330
17DE
102
}
330
17DE
100
AcDbDictionary
281
     1
  3
CANNOSCALE
350
1A6B
  3
CMLEADERSTYLE
350
1A68
  3
CTABLESTYLE
350
1A67
  3
CVIEWDETAILSTYLE
350
1A69
  3
CVIEWSECTIONSTYLE
350
1A6A
  3
DIMASSOC
350
1A6E
  3
INDEXCTL
350
1A6D
  3
SORTENTS
350
1A6C
  3
XCLIPFRAME
350
1A6F
  0
XRECORD
  5
1A74
102
{ACAD_REACTORS
330
17DE
102
}
330
17DE
100
AcDbXrecord
280
     1
  1
DWGPROPS COOKIE
  2

  3

  4

  6

  7

  8
Yoshitsune
  9

300
=
301
=
302
=
303
=
304
=
305
=
306
=
307
=
308
=
309
=
 40
0.1178587384259259
 41
2451650.385882998
 42
2457192.601576505
  1

 90
        0
  0
XRECORD
  5
1A57
102
{ACAD_REACTORS
330
1A56
102
}
330
1A56
100
AcDbXrecord
280
     1
290
     1
  0
XRECORD
  5
1A59
102
{ACAD_REACTORS
330
1A58
102
}
330
1A58
100
AcDbXrecord
280
     1
290
     1
  0
XRECORD
  5
1A5B
102
{ACAD_REACTORS
330
1A5A
102
}
330
1A5A
100
AcDbXrecord
280
     1
290
     1
  0
XRECORD
  5
1A5D
102
{ACAD_REACTORS
330
1A5C
102
}
330
1A5C
100
AcDbXrecord
280
     1
290
     1
  0
XRECORD
  5
1A5F
102
{ACAD_REACTORS
330
1A5E
102
}
330
1A5E
100
AcDbXrecord
280
     1
290
     1
  0
XRECORD
  5
1A61
102
{ACAD_REACTORS
330
1A60
102
}
330
1A60
100
AcDbXrecord
280
     1
290
     1
  0
XRECORD
  5
1A63
102
{ACAD_REACTORS
330
1A62
102
}
330
1A62
100
AcDbXrecord
280
     1
290
     1
  0
XRECORD
  5
1A65
102
{ACAD_REACTORS
330
1A64
102
}
330
1A64
100
AcDbXrecord
280
     1
290
     1
  0
XRECORD
  5
19FF
102
{ACAD_REACTORS
330
19FE
102
}
330
19FE
100
AcDbXrecord
280
     1
340
17F0
  0
XRECORD
  5
19FD
102
{ACAD_REACTORS
330
19FC
102
}
330
19FC
100
AcDbXrecord
280
     1
340
17EC
  0
ACDBDETAILVIEWSTYLE
  5
1A51
102
{ACAD_XDICTIONARY
360
1AAC
102
}
102
{ACAD_REACTORS
330
1A50
102
}
330
1A50
100
AcDbModelDocViewStyle
 70
     0
  3
Imperial24
290
     0
100
AcDbDetailViewStyle
 70
     0
 71
     0
 90
        3
 71
     1
340
17E3
 40
0.24
340
0
 40
0.24
300

 40
0.36
280
     3
 71
     2
340
17E7
 90
       25
 71
     3
340
17E3
 40
0.24
 90
        1
 40
0.75
 90
        1
300
%<\AcVar ViewType \f "%tc1">% %<\AcVar ViewDetailId>%\PSCALE %<\AcVar ViewScale \f "%sn">%
 71
     4
340
17E7
 90
       25
340
17E7
 90
       25
280
     0
  0
LAYOUT
  5
1A52
102
{ACAD_XDICTIONARY
360
1AAE
102
}
102
{ACAD_REACTORS
330
17EB
102
}
330
17EB
100
AcDbPlotSettings
  1

  2
Canon LBP9100C
  4

  6

 40
0.0
 41
0.0
 42
0.0
 43
0.0
 44
0.0
 45
0.0
 46
0.0
 47
0.0
 48
0.0
 49
0.0
140
0.0
141
0.0
142
1.0
143
1.0
 70
  1712
 72
     0
 73
     0
 74
     0
  7

 75
     0
147
1.0
148
0.0
149
0.0
100
AcDbLayout
  1
Model
 70
     1
 71
     0
 10
0.0
 20
0.0
 11
12.0
 21
9.0
 12
0.0
 22
0.0
 32
0.0
 14
0.0
 24
0.0
 34
0.0
 15
0.0
 25
0.0
 35
0.0
146
0.0
 13
0.0
 23
0.0
 33
0.0
 16
1.0
 26
0.0
 36
0.0
 17
0.0
 27
1.0
 37
0.0
 76
     0
330
17F0
331
19FB
  0
LAYOUT
  5
1A53
102
{ACAD_XDICTIONARY
360
1AB0
102
}
102
{ACAD_REACTORS
330
17EB
102
}
330
17EB
100
AcDbPlotSettings
  1

  2
Canon LBP9100C
  4

  6

 40
0.0
 41
0.0
 42
0.0
 43
0.0
 44
0.0
 45
0.0
 46
0.0
 47
0.0
 48
0.0
 49
0.0
140
0.0
141
0.0
142
1.0
143
1.0
 70
   688
 72
     0
 73
     0
 74
     5
  7

 75
    16
147
1.0
148
0.0
149
0.0
100
AcDbLayout
  1
レイアウト1
 70
     1
 71
     1
 10
0.0
 20
0.0
 11
420.0
 21
297.0
 12
0.0
 22
0.0
 32
0.0
 14
1.000000000000000E+20
 24
1.000000000000000E+20
 34
1.000000000000000E+20
 15
-1.000000000000000E+20
 25
-1.000000000000000E+20
 35
-1.000000000000000E+20
146
0.0
 13
0.0
 23
0.0
 33
0.0
 16
1.0
 26
0.0
 36
0.0
 17
0.0
 27
1.0
 37
0.0
 76
     0
330
17EC
  0
MATERIAL
  5
1A0E
102
{ACAD_XDICTIONARY
360
1A0F
102
}
102
{ACAD_REACTORS
330
1A05
102
}
330
1A05
100
AcDbMaterial
  1
ByBlock
 72
     0
 43
0.0208333333333333
 43
0.0
 43
0.0
 43
0.0
 43
0.0
 43
0.0208333333333333
 43
0.0
 43
0.0
 43
0.0
 43
0.0
 43
1.0
 43
0.0
 43
0.0
 43
0.0
 43
0.0
 43
1.0
 77
     0
 47
0.0208333333333333
 47
0.0
 47
0.0
 47
0.0
 47
0.0
 47
0.0208333333333333
 47
0.0
 47
0.0
 47
0.0
 47
0.0
 47
1.0
 47
0.0
 47
0.0
 47
0.0
 47
0.0
 47
1.0
171
     0
 49
0.0208333333333333
 49
0.0
 49
0.0
 49
0.0
 49
0.0
 49
0.0208333333333333
 49
0.0
 49
0.0
 49
0.0
 49
0.0
 49
1.0
 49
0.0
 49
0.0
 49
0.0
 49
0.0
 49
1.0
175
     0
142
0.0208333333333333
142
0.0
142
0.0
142
0.0
142
0.0
142
0.0208333333333333
142
0.0
142
0.0
142
0.0
142
0.0
142
1.0
142
0.0
142
0.0
142
0.0
142
0.0
142
1.0
179
     0
144
0.0208333333333333
144
0.0
144
0.0
144
0.0
144
0.0
144
0.0208333333333333
144
0.0
144
0.0
144
0.0
144
0.0
144
1.0
144
0.0
144
0.0
144
0.0
144
0.0
144
1.0
147
0.0208333333333333
147
0.0
147
0.0
147
0.0
147
0.0
147
0.0208333333333333
147
0.0
147
0.0
147
0.0
147
0.0
147
1.0
147
0.0
147
0.0
147
0.0
147
0.0
147
1.0
  0
MATERIAL
  5
1A06
102
{ACAD_XDICTIONARY
360
1A07
102
}
102
{ACAD_REACTORS
330
1A05
102
}
330
1A05
100
AcDbMaterial
  1
ByLayer
 72
     0
 43
0.0208333333333333
 43
0.0
 43
0.0
 43
0.0
 43
0.0
 43
0.0208333333333333
 43
0.0
 43
0.0
 43
0.0
 43
0.0
 43
1.0
 43
0.0
 43
0.0
 43
0.0
 43
0.0
 43
1.0
 77
     0
 47
0.0208333333333333
 47
0.0
 47
0.0
 47
0.0
 47
0.0
 47
0.0208333333333333
 47
0.0
 47
0.0
 47
0.0
 47
0.0
 47
1.0
 47
0.0
 47
0.0
 47
0.0
 47
0.0
 47
1.0
171
     0
 49
0.0208333333333333
 49
0.0
 49
0.0
 49
0.0
 49
0.0
 49
0.0208333333333333
 49
0.0
 49
0.0
 49
0.0
 49
0.0
 49
1.0
 49
0.0
 49
0.0
 49
0.0
 49
0.0
 49
1.0
175
     0
142
0.0208333333333333
142
0.0
142
0.0
142
0.0
142
0.0
142
0.0208333333333333
142
0.0
142
0.0
142
0.0
142
0.0
142
1.0
142
0.0
142
0.0
142
0.0
142
0.0
142
1.0
179
     0
144
0.0208333333333333
144
0.0
144
0.0
144
0.0
144
0.0
144
0.0208333333333333
144
0.0
144
0.0
144
0.0
144
0.0
144
1.0
144
0.0
144
0.0
144
0.0
144
0.0
144
1.0
147
0.0208333333333333
147
0.0
147
0.0
147
0.0
147
0.0
147
0.0208333333333333
147
0.0
147
0.0
147
0.0
147
0.0
147
1.0
147
0.0
147
0.0
147
0.0
147
0.0
147
1.0
  0
MATERIAL
  5
1A16
102
{ACAD_XDICTIONARY
360
1A17
102
}
102
{ACAD_REACTORS
330
1A05
102
}
330
1A05
100
AcDbMaterial
  1
Global
 72
     0
 43
0.0208333333333333
 43
0.0
 43
0.0
 43
0.0
 43
0.0
 43
0.0208333333333333
 43
0.0
 43
0.0
 43
0.0
 43
0.0
 43
1.0
 43
0.0
 43
0.0
 43
0.0
 43
0.0
 43
1.0
 77
     0
 47
0.0208333333333333
 47
0.0
 47
0.0
 47
0.0
 47
0.0
 47
0.0208333333333333
 47
0.0
 47
0.0
 47
0.0
 47
0.0
 47
1.0
 47
0.0
 47
0.0
 47
0.0
 47
0.0
 47
1.0
171
     0
 49
0.0208333333333333
 49
0.0
 49
0.0
 49
0.0
 49
0.0
 49
0.0208333333333333
 49
0.0
 49
0.0
 49
0.0
 49
0.0
 49
1.0
 49
0.0
 49
0.0
 49
0.0
 49
0.0
 49
1.0
175
     0
142
0.0208333333333333
142
0.0
142
0.0
142
0.0
142
0.0
142
0.0208333333333333
142
0.0
142
0.0
142
0.0
142
0.0
142
1.0
142
0.0
142
0.0
142
0.0
142
0.0
142
1.0
179
     0
144
0.0208333333333333
144
0.0
144
0.0
144
0.0
144
0.0
144
0.0208333333333333
144
0.0
144
0.0
144
0.0
144
0.0
144
1.0
144
0.0
144
0.0
144
0.0
144
0.0
144
1.0
147
0.0208333333333333
147
0.0
147
0.0
147
0.0
147
0.0
147
0.0208333333333333
147
0.0
147
0.0
147
0.0
147
0.0
147
1.0
147
0.0
147
0.0
147
0.0
147
0.0
147
1.0
  0
MLEADERSTYLE
  5
1A4D
102
{ACAD_REACTORS
330
1A4C
102
}
330
1A4C
100
AcDbMLeaderStyle
170
     2
171
     1
172
     0
 90
        2
 40
0.0
 41
0.0
173
     1
 91
-1056964608
340
17E5
 92
       -2
290
     1
 42
0.09
291
     1
 43
0.36
  3
Standard
 44
0.18
300

342
17E3
174
     1
178
     6
175
     1
176
     0
 93
-1056964608
 45
0.18
292
     0
297
     0
 46
0.18
 94
-1056964608
 47
1.0
 49
1.0
140
1.0
293
     1
141
0.0
294
     1
177
     0
142
1.0
295
     0
296
     0
143
0.125
1001
ACAD_MLEADERVER
1070
     2
  0
MLINESTYLE
  5
17E9
102
{ACAD_REACTORS
330
17E8
102
}
330
17E8
100
AcDbMlineStyle
  2
STANDARD
 70
     0
  3

 62
   256
 51
90.0
 52
90.0
 71
     2
 49
0.5
 62
   256
  6
BYLAYER
 49
-0.5
 62
   256
  6
BYLAYER
  0
ACDBPLACEHOLDER
  5
1A04
102
{ACAD_REACTORS
330
1A03
102
}
330
1A03
  0
SCALE
  5
1A3B
102
{ACAD_REACTORS
330
1A3A
102
}
330
1A3A
100
AcDbScale
 70
     0
300
1:1
140
1.0
141
1.0
290
     1
  0
SCALE
  5
1A3C
102
{ACAD_REACTORS
330
1A3A
102
}
330
1A3A
100
AcDbScale
 70
     0
300
1/128" = 1'-0"
140
0.0078125
141
12.0
290
     0
  0
SCALE
  5
1A3D
102
{ACAD_REACTORS
330
1A3A
102
}
330
1A3A
100
AcDbScale
 70
     0
300
1/64" = 1'-0"
140
0.015625
141
12.0
290
     0
  0
SCALE
  5
1A3E
102
{ACAD_REACTORS
330
1A3A
102
}
330
1A3A
100
AcDbScale
 70
     0
300
1/32" = 1'-0"
140
0.03125
141
12.0
290
     0
  0
SCALE
  5
1A3F
102
{ACAD_REACTORS
330
1A3A
102
}
330
1A3A
100
AcDbScale
 70
     0
300
1/16" = 1'-0"
140
0.0625
141
12.0
290
     0
  0
SCALE
  5
1A40
102
{ACAD_REACTORS
330
1A3A
102
}
330
1A3A
100
AcDbScale
 70
     0
300
3/32" = 1'-0"
140
0.09375
141
12.0
290
     0
  0
SCALE
  5
1A41
102
{ACAD_REACTORS
330
1A3A
102
}
330
1A3A
100
AcDbScale
 70
     0
300
1/8" = 1'-0"
140
0.125
141
12.0
290
     0
  0
SCALE
  5
1A42
102
{ACAD_REACTORS
330
1A3A
102
}
330
1A3A
100
AcDbScale
 70
     0
300
3/16" = 1'-0"
140
0.1875
141
12.0
290
     0
  0
SCALE
  5
1A43
102
{ACAD_REACTORS
330
1A3A
102
}
330
1A3A
100
AcDbScale
 70
     0
300
1/4" = 1'-0"
140
0.25
141
12.0
290
     0
  0
SCALE
  5
1A44
102
{ACAD_REACTORS
330
1A3A
102
}
330
1A3A
100
AcDbScale
 70
     0
300
3/8" = 1'-0"
140
0.375
141
12.0
290
     0
  0
SCALE
  5
1A45
102
{ACAD_REACTORS
330
1A3A
102
}
330
1A3A
100
AcDbScale
 70
     0
300
1/2" = 1'-0"
140
0.5
141
12.0
290
     0
  0
SCALE
  5
1A46
102
{ACAD_REACTORS
330
1A3A
102
}
330
1A3A
100
AcDbScale
 70
     0
300
3/4" = 1'-0"
140
0.75
141
12.0
290
     0
  0
SCALE
  5
1A47
102
{ACAD_REACTORS
330
1A3A
102
}
330
1A3A
100
AcDbScale
 70
     0
300
1" = 1'-0"
140
1.0
141
12.0
290
     0
  0
SCALE
  5
1A48
102
{ACAD_REACTORS
330
1A3A
102
}
330
1A3A
100
AcDbScale
 70
     0
300
1-1/2" = 1'-0"
140
1.5
141
12.0
290
     0
  0
SCALE
  5
1A49
102
{ACAD_REACTORS
330
1A3A
102
}
330
1A3A
100
AcDbScale
 70
     0
300
3" = 1'-0"
140
3.0
141
12.0
290
     0
  0
SCALE
  5
1A4A
102
{ACAD_REACTORS
330
1A3A
102
}
330
1A3A
100
AcDbScale
 70
     0
300
6" = 1'-0"
140
6.0
141
12.0
290
     0
  0
SCALE
  5
1A4B
102
{ACAD_REACTORS
330
1A3A
102
}
330
1A3A
100
AcDbScale
 70
     0
300
1'-0" = 1'-0"
140
12.0
141
12.0
290
     0
  0
ACDBSECTIONVIEWSTYLE
  5
1A4F
102
{ACAD_XDICTIONARY
360
1AAA
102
}
102
{ACAD_REACTORS
330
1A4E
102
}
330
1A4E
100
AcDbModelDocViewStyle
 70
     0
  3
Imperial24
290
     0
100
AcDbSectionViewStyle
 70
     0
 71
     0
 90
       78
 71
     1
340
17E3
 40
0.24
340
0
340
0
 40
0.24
300
I, O, Q, S, X, Z
 40
0.48
 90
        3
 40
0.18
 90
        1
 71
     2
340
17E7
 90
       25
340
17E7
 90
       50
 40
0.24
 40
0.0
 40
0.24
 71
     3
340
17E3
 40
0.24
 90
        1
 40
0.75
 90
        1
300
%<\AcVar ViewType \f "%tc1">% %<\AcVar ViewSectionStartId>%-%<\AcVar ViewSectionEndId>%\PSCALE %<\AcVar ViewScale \f "%sn">%
 71
     4
300
ANSI31
 40
1.0
 90
        0
290
     0
290
     0
 90
        6
 40
0.0
 40
1.570796326794896
 40
0.2617993877991494
 40
1.308996938995747
 40
-0.2617993877991494
 40
1.832595714594046
  0
TABLESTYLE
  5
1A39
102
{ACAD_XDICTIONARY
360
1A71
102
}
102
{ACAD_REACTORS
330
1A38
102
}
330
1A38
100
AcDbTableStyle
  3
Standard
 70
     0
 71
     0
 40
0.06
 41
0.06
280
     0
281
     0
  7
STANDARD
140
0.18
170
     2
 62
     0
 63
     7
283
     0
274
    -2
284
     1
 64
     0
275
    -2
285
     1
 65
     0
276
    -2
286
     1
 66
     0
277
    -2
287
     1
 67
     0
278
    -2
288
     1
 68
     0
279
    -2
289
     1
 69
     0
  7
STANDARD
140
0.25
170
     5
 62
     0
 63
     7
283
     0
274
    -2
284
     1
 64
     0
275
    -2
285
     1
 65
     0
276
    -2
286
     1
 66
     0
277
    -2
287
     1
 67
     0
278
    -2
288
     1
 68
     0
279
    -2
289
     1
 69
     0
  7
STANDARD
140
0.18
170
     5
 62
     0
 63
     7
283
     0
274
    -2
284
     1
 64
     0
275
    -2
285
     1
 65
     0
276
    -2
286
     1
 66
     0
277
    -2
287
     1
 67
     0
278
    -2
288
     1
 68
     0
279
    -2
289
     1
 69
     0
  0
VISUALSTYLE
  5
1A24
102
{ACAD_XDICTIONARY
360
1A82
102
}
102
{ACAD_REACTORS
330
1A1E
102
}
330
1A1E
100
AcDbVisualStyle
  2
2dWireframe
 70
     4
 71
     0
 72
     2
 73
     0
 90
        0
 40
-0.6
 41
-30.0
 62
     5
 63
     7
 74
     1
 91
        4
 64
     7
 65
   257
 75
     1
175
     1
 42
1.0
 92
        0
 66
   257
 43
1.0
 76
     1
 77
     6
 78
     2
 67
     7
 79
     5
170
     0
171
     0
290
     0
174
     0
 93
        1
 44
0.0
173
     0
291
     0
 45
0.0
1001
ACAD
1000
AcDbSavedByObjectVersion
1070
     0
  0
VISUALSTYLE
  5
1A23
102
{ACAD_XDICTIONARY
360
1A80
102
}
102
{ACAD_REACTORS
330
1A1E
102
}
330
1A1E
100
AcDbVisualStyle
  2
Basic
 70
     7
 71
     1
 72
     0
 73
     1
 90
        0
 40
-0.6
 41
-30.0
 62
     5
 63
     7
 74
     0
 91
        4
 64
     7
 65
   257
 75
     1
175
     1
 42
1.0
 92
        8
 66
     7
 43
1.0
 76
     1
 77
     6
 78
     2
 67
     7
 79
     5
170
     0
171
     0
290
     0
174
     0
 93
        1
 44
0.0
173
     0
291
     1
 45
0.0
1001
ACAD
1000
AcDbSavedByObjectVersion
1070
     0
  0
VISUALSTYLE
  5
1A2A
102
{ACAD_XDICTIONARY
360
1A8E
102
}
102
{ACAD_REACTORS
330
1A1E
102
}
330
1A1E
100
AcDbVisualStyle
  2
Brighten
 70
    12
 71
     2
 72
     2
 73
     0
 90
        0
 40
-0.6
 41
-30.0
 62
     5
 63
     7
 74
     1
 91
        4
 64
     7
 65
   257
 75
     1
175
     1
 42
1.0
 92
        8
 66
     7
 43
1.0
 76
     1
 77
     6
 78
     2
 67
     7
 79
     5
170
     0
171
     0
290
     0
174
     0
 93
        1
 44
50.0
173
     0
291
     1
 45
0.0
1001
ACAD
1000
AcDbSavedByObjectVersion
1070
     0
  0
VISUALSTYLE
  5
1A2E
102
{ACAD_XDICTIONARY
360
1A96
102
}
102
{ACAD_REACTORS
330
1A1E
102
}
330
1A1E
100
AcDbVisualStyle
  2
ColorChange
 70
    16
 71
     2
 72
     2
 73
     3
 90
        0
 40
-0.6
 41
-30.0
 62
     5
 63
     8
 74
     1
 91
        4
 64
     7
 65
   257
 75
     1
175
     1
 42
1.0
 92
        8
 66
     8
 43
1.0
 76
     1
 77
     6
 78
     2
 67
     7
 79
     5
170
     0
171
     0
290
     0
174
     0
 93
        1
 44
0.0
173
     0
291
     1
 45
0.0
1001
ACAD
1000
AcDbSavedByObjectVersion
1070
     0
  0
VISUALSTYLE
  5
1A27
102
{ACAD_XDICTIONARY
360
1A88
102
}
102
{ACAD_REACTORS
330
1A1E
102
}
330
1A1E
100
AcDbVisualStyle
  2
Conceptual
 70
     9
 71
     3
 72
     2
 73
     0
 90
        0
 40
-0.6
 41
-30.0
 62
     5
 63
     7
 74
     2
 91
        2
 64
     7
 65
   257
 75
     1
175
     1
 42
179.0
 92
        8
 66
     7
 43
1.0
 76
     1
 77
     6
 78
     2
 67
     7
 79
     3
170
     0
171
     0
290
     0
174
     0
 93
        1
 44
0.0
173
     0
291
     0
 45
0.0
1001
ACAD
1000
AcDbSavedByObjectVersion
1070
     0
  0
VISUALSTYLE
  5
1A29
102
{ACAD_XDICTIONARY
360
1A8C
102
}
102
{ACAD_REACTORS
330
1A1E
102
}
330
1A1E
100
AcDbVisualStyle
  2
Dim
 70
    11
 71
     2
 72
     2
 73
     0
 90
        0
 40
-0.6
 41
-30.0
 62
     5
 63
     7
 74
     1
 91
        4
 64
     7
 65
   257
 75
     1
175
     1
 42
1.0
 92
        8
 66
     7
 43
1.0
 76
     1
 77
     6
 78
     2
 67
     7
 79
     5
170
     0
171
     0
290
     0
174
     0
 93
        1
 44
-50.0
173
     0
291
     1
 45
0.0
1001
ACAD
1000
AcDbSavedByObjectVersion
1070
     0
  0
VISUALSTYLE
  5
1A36
102
{ACAD_XDICTIONARY
360
1AA6
102
}
102
{ACAD_REACTORS
330
1A1E
102
}
330
1A1E
100
AcDbVisualStyle
  2
EdgeColorOff
 70
    22
 71
     2
 72
     2
 73
     0
 90
        0
 40
-0.6
 41
-30.0
 62
     5
 63
     7
 74
     1
 91
        4
 64
     7
 65
   257
 75
     1
175
     1
 42
1.0
 92
        8
 66
     7
 43
1.0
 76
     1
 77
     6
 78
     2
 67
     7
 79
     5
170
     0
171
     0
290
     0
174
     0
 93
        1
 44
0.0
173
     0
291
     1
 45
0.0
1001
ACAD
1000
AcDbSavedByObjectVersion
1070
     0
  0
VISUALSTYLE
  5
1A2D
102
{ACAD_XDICTIONARY
360
1A94
102
}
102
{ACAD_REACTORS
330
1A1E
102
}
330
1A1E
100
AcDbVisualStyle
  2
Facepattern
 70
    15
 71
     2
 72
     2
 73
     0
 90
        0
 40
-0.6
 41
-30.0
 62
     5
 63
     7
 74
     1
 91
        4
 64
     7
 65
   257
 75
     1
175
     1
 42
1.0
 92
        8
 66
     7
 43
1.0
 76
     1
 77
     6
 78
     2
 67
     7
 79
     5
170
     0
171
     0
290
     0
174
     0
 93
        1
 44
0.0
173
     0
291
     1
 45
0.0
1001
ACAD
1000
AcDbSavedByObjectVersion
1070
     0
  0
VISUALSTYLE
  5
1A1F
102
{ACAD_XDICTIONARY
360
1A78
102
}
102
{ACAD_REACTORS
330
1A1E
102
}
330
1A1E
100
AcDbVisualStyle
  2
Flat
 70
     0
 71
     2
 72
     1
 73
     1
 90
        2
 40
-0.6
 41
30.0
 62
     5
 63
     7
 74
     0
 91
        0
 64
     7
 65
   257
 75
     1
175
     1
 42
1.0
 92
        8
 66
     7
 43
1.0
 76
     1
 77
     6
 78
     2
 67
     7
 79
     5
170
     0
171
     0
290
     0
174
     0
 93
       13
 44
0.0
173
     0
291
     1
 45
0.0
1001
ACAD
1000
AcDbSavedByObjectVersion
1070
     0
  0
VISUALSTYLE
  5
1A20
102
{ACAD_XDICTIONARY
360
1A7A
102
}
102
{ACAD_REACTORS
330
1A1E
102
}
330
1A1E
100
AcDbVisualStyle
  2
FlatWithEdges
 70
     1
 71
     2
 72
     1
 73
     1
 90
        2
 40
-0.6
 41
30.0
 62
     5
 63
     7
 74
     1
 91
        0
 64
     7
 65
   257
 75
     1
175
     1
 42
1.0
 92
        0
 66
   257
 43
1.0
 76
     1
 77
     6
 78
     2
 67
     7
 79
     5
170
     0
171
     0
290
     0
174
     0
 93
       13
 44
0.0
173
     0
291
     1
 45
0.0
1001
ACAD
1000
AcDbSavedByObjectVersion
1070
     0
  0
VISUALSTYLE
  5
1A21
102
{ACAD_XDICTIONARY
360
1A7C
102
}
102
{ACAD_REACTORS
330
1A1E
102
}
330
1A1E
100
AcDbVisualStyle
  2
Gouraud
 70
     2
 71
     2
 72
     2
 73
     1
 90
        2
 40
-0.6
 41
30.0
 62
     5
 63
     7
 74
     0
 91
        0
 64
     7
 65
   257
 75
     1
175
     1
 42
1.0
 92
        0
 66
     7
 43
1.0
 76
     1
 77
     6
 78
     2
 67
     7
 79
     5
170
     0
171
     0
290
     0
174
     0
 93
       13
 44
0.0
173
     0
291
     1
 45
0.0
1001
ACAD
1000
AcDbSavedByObjectVersion
1070
     0
  0
VISUALSTYLE
  5
1A22
102
{ACAD_XDICTIONARY
360
1A7E
102
}
102
{ACAD_REACTORS
330
1A1E
102
}
330
1A1E
100
AcDbVisualStyle
  2
GouraudWithEdges
 70
     3
 71
     2
 72
     2
 73
     1
 90
        2
 40
-0.6
 41
30.0
 62
     5
 63
     7
 74
     1
 91
        0
 64
     7
 65
   257
 75
     1
175
     1
 42
1.0
 92
        0
 66
   257
 43
1.0
 76
     1
 77
     6
 78
     2
 67
     7
 79
     5
170
     0
171
     0
290
     0
174
     0
 93
       13
 44
0.0
173
     0
291
     1
 45
0.0
1001
ACAD
1000
AcDbSavedByObjectVersion
1070
     0
  0
VISUALSTYLE
  5
1A26
102
{ACAD_XDICTIONARY
360
1A86
102
}
102
{ACAD_REACTORS
330
1A1E
102
}
330
1A1E
100
AcDbVisualStyle
  2
Hidden
 70
     6
 71
     1
 72
     2
 73
     2
 90
        0
 40
-0.6
 41
-30.0
 62
     5
 63
     7
 74
     2
 91
        2
 64
     7
 65
   257
 75
     2
175
     1
 42
40.0
 92
        0
 66
   257
 43
1.0
 76
     1
 77
     6
 78
     2
 67
     7
 79
     3
170
     0
171
     0
290
     0
174
     0
 93
        1
 44
0.0
173
     0
291
     0
 45
0.0
1001
ACAD
1000
AcDbSavedByObjectVersion
1070
     0
  0
VISUALSTYLE
  5
1A34
102
{ACAD_XDICTIONARY
360
1AA2
102
}
102
{ACAD_REACTORS
330
1A1E
102
}
330
1A1E
100
AcDbVisualStyle
  2
JitterOff
 70
    20
 71
     2
 72
     2
 73
     0
 90
        0
 40
-0.6
 41
-30.0
 62
     5
 63
     7
 74
     1
 91
        4
 64
     7
 65
   257
 75
     1
175
     1
 42
1.0
 92
       10
 66
     7
 43
1.0
 76
     1
 77
     6
 78
     2
 67
     7
 79
     5
170
     0
171
     0
290
     0
174
     0
 93
        1
 44
0.0
173
     0
291
     1
 45
0.0
1001
ACAD
1000
AcDbSavedByObjectVersion
1070
     0
  0
VISUALSTYLE
  5
1A2C
102
{ACAD_XDICTIONARY
360
1A92
102
}
102
{ACAD_REACTORS
330
1A1E
102
}
330
1A1E
100
AcDbVisualStyle
  2
Linepattern
 70
    14
 71
     2
 72
     2
 73
     0
 90
        0
 40
-0.6
 41
-30.0
 62
     5
 63
     7
 74
     1
 91
        4
 64
     7
 65
   257
 75
     7
175
     7
 42
1.0
 92
        8
 66
     7
 43
1.0
 76
     1
 77
     6
 78
     2
 67
     7
 79
     5
170
     0
171
     0
290
     0
174
     0
 93
        1
 44
0.0
173
     0
291
     1
 45
0.0
1001
ACAD
1000
AcDbSavedByObjectVersion
1070
     0
  0
VISUALSTYLE
  5
1A35
102
{ACAD_XDICTIONARY
360
1AA4
102
}
102
{ACAD_REACTORS
330
1A1E
102
}
330
1A1E
100
AcDbVisualStyle
  2
OverhangOff
 70
    21
 71
     2
 72
     2
 73
     0
 90
        0
 40
-0.6
 41
-30.0
 62
     5
 63
     7
 74
     1
 91
        4
 64
     7
 65
   257
 75
     1
175
     1
 42
1.0
 92
        9
 66
     7
 43
1.0
 76
     1
 77
     6
 78
     2
 67
     7
 79
     5
170
     0
171
     0
290
     0
174
     0
 93
        1
 44
0.0
173
     0
291
     1
 45
0.0
1001
ACAD
1000
AcDbSavedByObjectVersion
1070
     0
  0
VISUALSTYLE
  5
1A28
102
{ACAD_XDICTIONARY
360
1A8A
102
}
102
{ACAD_REACTORS
330
1A1E
102
}
330
1A1E
100
AcDbVisualStyle
  2
Realistic
 70
     8
 71
     2
 72
     3
 73
     0
 90
        2
 40
-0.6
 41
30.0
 62
     5
 63
     7
 74
     0
 91
        0
 64
     7
 65
   257
 75
     1
175
     1
 42
1.0
 92
        8
 66
   257
 43
1.0
 76
     1
 77
     6
 78
     2
 67
     7
 79
     3
170
     0
171
     0
290
     0
174
     0
 93
       13
 44
0.0
173
     0
291
     0
 45
0.0
1001
ACAD
1000
AcDbSavedByObjectVersion
1070
     0
  0
VISUALSTYLE
  5
1A33
102
{ACAD_XDICTIONARY
360
1AA0
102
}
102
{ACAD_REACTORS
330
1A1E
102
}
330
1A1E
100
AcDbVisualStyle
  2
Shaded
 70
    27
 71
     2
 72
     2
 73
     1
 90
        2
 40
-0.6
 41
30.0
 62
     5
 63
     7
 74
     0
 91
        4
 64
     7
 65
   257
 75
     1
175
     1
 42
1.0
 92
        8
 66
   257
 43
1.0
 76
     1
 77
     6
 78
     2
 67
     8
 79
     3
170
     0
171
     0
290
     0
174
     0
 93
        5
 44
0.0
173
     0
291
     0
 45
0.0
1001
ACAD
1000
AcDbSavedByObjectVersion
1070
     0
  0
VISUALSTYLE
  5
1A32
102
{ACAD_XDICTIONARY
360
1A9E
102
}
102
{ACAD_REACTORS
330
1A1E
102
}
330
1A1E
100
AcDbVisualStyle
  2
Shaded with edges
 70
    26
 71
     2
 72
     2
 73
     1
 90
        2
 40
-0.6
 41
30.0
 62
     5
 63
     7
 74
     1
 91
       10
 64
     7
 65
   257
 75
     2
175
     1
 42
1.0
 92
        8
 66
   257
 43
1.0
 76
     1
 77
     6
 78
     2
 67
     7
 79
     3
170
     0
171
     0
290
     0
174
     0
 93
        5
 44
0.0
173
     0
291
     0
 45
0.0
1001
ACAD
1000
AcDbSavedByObjectVersion
1070
     0
  0
VISUALSTYLE
  5
1A2F
102
{ACAD_XDICTIONARY
360
1A98
102
}
102
{ACAD_REACTORS
330
1A1E
102
}
330
1A1E
100
AcDbVisualStyle
  2
Shades of Gray
 70
    23
 71
     2
 72
     2
 73
     3
 90
        0
 40
-0.6
 41
-30.0
 62
     5
 63
     7
 74
     2
 91
        2
 64
     7
 65
     7
 75
     1
175
     1
 42
40.0
 92
        8
 66
     7
 43
1.0
 76
     1
 77
     6
 78
     2
 67
     7
 79
     3
170
     0
171
     0
290
     0
174
     0
 93
        1
 44
0.0
173
     0
291
     0
 45
0.0
1001
ACAD
1000
AcDbSavedByObjectVersion
1070
     0
  0
VISUALSTYLE
  5
1A30
102
{ACAD_XDICTIONARY
360
1A9A
102
}
102
{ACAD_REACTORS
330
1A1E
102
}
330
1A1E
100
AcDbVisualStyle
  2
Sketchy
 70
    24
 71
     1
 72
     2
 73
     2
 90
        0
 40
-0.6
 41
-30.0
 62
     5
 63
     7
 74
     2
 91
        2
 64
     7
 65
     7
 75
     1
175
     1
 42
40.0
 92
       11
 66
     7
 43
1.0
 76
     1
 77
     6
 78
     2
 67
     7
 79
     6
170
     0
171
     0
290
     0
174
     0
 93
        1
 44
0.0
173
     0
291
     0
 45
0.0
1001
ACAD
1000
AcDbSavedByObjectVersion
1070
     0
  0
VISUALSTYLE
  5
1A2B
102
{ACAD_XDICTIONARY
360
1A90
102
}
102
{ACAD_REACTORS
330
1A1E
102
}
330
1A1E
100
AcDbVisualStyle
  2
Thicken
 70
    13
 71
     2
 72
     2
 73
     0
 90
        0
 40
-0.6
 41
-30.0
 62
     5
 63
     7
 74
     1
 91
        4
 64
     7
 65
   257
 75
     1
175
     1
 42
1.0
 92
       12
 66
     7
 43
1.0
 76
     1
 77
     6
 78
     2
 67
     7
 79
     5
170
     0
171
     0
290
     0
174
     0
 93
        1
 44
0.0
173
     0
291
     1
 45
0.0
1001
ACAD
1000
AcDbSavedByObjectVersion
1070
     0
  0
VISUALSTYLE
  5
1A25
102
{ACAD_XDICTIONARY
360
1A84
102
}
102
{ACAD_REACTORS
330
1A1E
102
}
330
1A1E
100
AcDbVisualStyle
  2
Wireframe
 70
     5
 71
     0
 72
     2
 73
     0
 90
        0
 40
-0.6
 41
-30.0
 62
     5
 63
     7
 74
     1
 91
        4
 64
     7
 65
   257
 75
     1
175
     1
 42
1.0
 92
        0
 66
   257
 43
1.0
 76
     1
 77
     6
 78
     2
 67
     7
 79
     3
170
     0
171
     0
290
     0
174
     0
 93
        1
 44
0.0
173
     0
291
     0
 45
0.0
1001
ACAD
1000
AcDbSavedByObjectVersion
1070
     0
  0
VISUALSTYLE
  5
1A31
102
{ACAD_XDICTIONARY
360
1A9C
102
}
102
{ACAD_REACTORS
330
1A1E
102
}
330
1A1E
100
AcDbVisualStyle
  2
X-Ray
 70
    25
 71
     2
 72
     2
 73
     1
 90
        1
 40
0.5
 41
-30.0
 62
     5
 63
     7
 74
     1
 91
        0
 64
     7
 65
   257
 75
     1
175
     1
 42
1.0
 92
        8
 66
     7
 43
1.0
 76
     1
 77
     6
 78
     2
 67
     7
 79
     3
170
     0
171
     0
290
     0
174
     0
 93
       13
 44
0.0
173
     0
291
     0
 45
0.0
1001
ACAD
1000
AcDbSavedByObjectVersion
1070
     0
  0
DICTIONARYVAR
  5
1A6B
102
{ACAD_REACTORS
330
1A66
102
}
330
1A66
100
DictionaryVariables
280
     0
  1
1:1
  0
DICTIONARYVAR
  5
1A68
102
{ACAD_REACTORS
330
1A66
102
}
330
1A66
100
DictionaryVariables
280
     0
  1
STANDARD
  0
DICTIONARYVAR
  5
1A67
102
{ACAD_REACTORS
330
1A66
102
}
330
1A66
100
DictionaryVariables
280
     0
  1
STANDARD
  0
DICTIONARYVAR
  5
1A69
102
{ACAD_REACTORS
330
1A66
102
}
330
1A66
100
DictionaryVariables
280
     0
  1
Imperial24
  0
DICTIONARYVAR
  5
1A6A
102
{ACAD_REACTORS
330
1A66
102
}
330
1A66
100
DictionaryVariables
280
     0
  1
Imperial24
  0
DICTIONARYVAR
  5
1A6E
102
{ACAD_REACTORS
330
1A66
102
}
330
1A66
100
DictionaryVariables
280
     0
  1
1
  0
DICTIONARYVAR
  5
1A6D
102
{ACAD_REACTORS
330
1A66
102
}
330
1A66
100
DictionaryVariables
280
     0
  1
0
  0
DICTIONARYVAR
  5
1A6C
102
{ACAD_REACTORS
330
1A66
102
}
330
1A66
100
DictionaryVariables
280
     0
  1
127
  0
DICTIONARYVAR
  5
1A6F
102
{ACAD_REACTORS
330
1A66
102
}
330
1A66
100
DictionaryVariables
280
     0
  1
2
  0
DICTIONARY
  5
1AAC
330
1A51
100
AcDbDictionary
280
     1
281
     1
  3
ACAD_XREC_ROUNDTRIP
360
1AAD
  0
DICTIONARY
  5
1AAE
330
1A52
100
AcDbDictionary
280
     1
281
     1
  3
ACAD_XREC_ROUNDTRIP
360
1AAF
  0
DICTIONARY
  5
1AB0
330
1A53
100
AcDbDictionary
280
     1
281
     1
  3
ACAD_XREC_ROUNDTRIP
360
1AB1
  0
DICTIONARY
  5
1A0F
330
1A0E
100
AcDbDictionary
280
     1
281
     1
  3
ACAD_XREC_ROUNDTRIP
360
1A76
  3
BUMPTILE
360
1A11
  3
DIFFUSETILE
360
1A10
  3
OPACITYTILE
360
1A14
  3
REFLECTIONTILE
360
1A13
  3
REFRACTIONTILE
360
1A15
  3
SPECULARTILE
360
1A12
  0
DICTIONARY
  5
1A07
330
1A06
100
AcDbDictionary
280
     1
281
     1
  3
ACAD_XREC_ROUNDTRIP
360
1A75
  3
BUMPTILE
360
1A09
  3
DIFFUSETILE
360
1A08
  3
OPACITYTILE
360
1A0C
  3
REFLECTIONTILE
360
1A0B
  3
REFRACTIONTILE
360
1A0D
  3
SPECULARTILE
360
1A0A
  0
DICTIONARY
  5
1A17
330
1A16
100
AcDbDictionary
280
     1
281
     1
  3
ACAD_XREC_ROUNDTRIP
360
1A77
  3
BUMPTILE
360
1A19
  3
DIFFUSETILE
360
1A18
  3
OPACITYTILE
360
1A1C
  3
REFLECTIONTILE
360
1A1B
  3
REFRACTIONTILE
360
1A1D
  3
SPECULARTILE
360
1A1A
  0
DICTIONARY
  5
1AAA
330
1A4F
100
AcDbDictionary
280
     1
281
     1
  3
ACAD_XREC_ROUNDTRIP
360
1AAB
  0
DICTIONARY
  5
1A71
330
1A39
100
AcDbDictionary
280
     1
281
     1
  3
ACAD_ROUNDTRIP_2008_TABLESTYLE_CELLSTYLEMAP
360
1A72
  3
ACAD_XREC_ROUNDTRIP
360
1AA8
  0
DICTIONARY
  5
1A82
330
1A24
100
AcDbDictionary
280
     1
281
     1
  3
ACAD_XREC_ROUNDTRIP
360
1A83
  0
DICTIONARY
  5
1A80
330
1A23
100
AcDbDictionary
280
     1
281
     1
  3
ACAD_XREC_ROUNDTRIP
360
1A81
  0
DICTIONARY
  5
1A8E
330
1A2A
100
AcDbDictionary
280
     1
281
     1
  3
ACAD_XREC_ROUNDTRIP
360
1A8F
  0
DICTIONARY
  5
1A96
330
1A2E
100
AcDbDictionary
280
     1
281
     1
  3
ACAD_XREC_ROUNDTRIP
360
1A97
  0
DICTIONARY
  5
1A88
330
1A27
100
AcDbDictionary
280
     1
281
     1
  3
ACAD_XREC_ROUNDTRIP
360
1A89
  0
DICTIONARY
  5
1A8C
330
1A29
100
AcDbDictionary
280
     1
281
     1
  3
ACAD_XREC_ROUNDTRIP
360
1A8D
  0
DICTIONARY
  5
1AA6
330
1A36
100
AcDbDictionary
280
     1
281
     1
  3
ACAD_XREC_ROUNDTRIP
360
1AA7
  0
DICTIONARY
  5
1A94
330
1A2D
100
AcDbDictionary
280
     1
281
     1
  3
ACAD_XREC_ROUNDTRIP
360
1A95
  0
DICTIONARY
  5
1A78
330
1A1F
100
AcDbDictionary
280
     1
281
     1
  3
ACAD_XREC_ROUNDTRIP
360
1A79
  0
DICTIONARY
  5
1A7A
330
1A20
100
AcDbDictionary
280
     1
281
     1
  3
ACAD_XREC_ROUNDTRIP
360
1A7B
  0
DICTIONARY
  5
1A7C
330
1A21
100
AcDbDictionary
280
     1
281
     1
  3
ACAD_XREC_ROUNDTRIP
360
1A7D
  0
DICTIONARY
  5
1A7E
330
1A22
100
AcDbDictionary
280
     1
281
     1
  3
ACAD_XREC_ROUNDTRIP
360
1A7F
  0
DICTIONARY
  5
1A86
330
1A26
100
AcDbDictionary
280
     1
281
     1
  3
ACAD_XREC_ROUNDTRIP
360
1A87
  0
DICTIONARY
  5
1AA2
330
1A34
100
AcDbDictionary
280
     1
281
     1
  3
ACAD_XREC_ROUNDTRIP
360
1AA3
  0
DICTIONARY
  5
1A92
330
1A2C
100
AcDbDictionary
280
     1
281
     1
  3
ACAD_XREC_ROUNDTRIP
360
1A93
  0
DICTIONARY
  5
1AA4
330
1A35
100
AcDbDictionary
280
     1
281
     1
  3
ACAD_XREC_ROUNDTRIP
360
1AA5
  0
DICTIONARY
  5
1A8A
330
1A28
100
AcDbDictionary
280
     1
281
     1
  3
ACAD_XREC_ROUNDTRIP
360
1A8B
  0
DICTIONARY
  5
1AA0
330
1A33
100
AcDbDictionary
280
     1
281
     1
  3
ACAD_XREC_ROUNDTRIP
360
1AA1
  0
DICTIONARY
  5
1A9E
330
1A32
100
AcDbDictionary
280
     1
281
     1
  3
ACAD_XREC_ROUNDTRIP
360
1A9F
  0
DICTIONARY
  5
1A98
330
1A2F
100
AcDbDictionary
280
     1
281
     1
  3
ACAD_XREC_ROUNDTRIP
360
1A99
  0
DICTIONARY
  5
1A9A
330
1A30
100
AcDbDictionary
280
     1
281
     1
  3
ACAD_XREC_ROUNDTRIP
360
1A9B
  0
DICTIONARY
  5
1A90
330
1A2B
100
AcDbDictionary
280
     1
281
     1
  3
ACAD_XREC_ROUNDTRIP
360
1A91
  0
DICTIONARY
  5
1A84
330
1A25
100
AcDbDictionary
280
     1
281
     1
  3
ACAD_XREC_ROUNDTRIP
360
1A85
  0
DICTIONARY
  5
1A9C
330
1A31
100
AcDbDictionary
280
     1
281
     1
  3
ACAD_XREC_ROUNDTRIP
360
1A9D
  0
XRECORD
  5
1AAD
102
{ACAD_REACTORS
330
1AAC
102
}
330
1AAC
100
AcDbXrecord
280
     1
102
DISPLAYNAME
  1
Imperial24
102
FLAGS
 90
        0
  0
XRECORD
  5
1AAF
102
{ACAD_REACTORS
330
1AAE
102
}
330
1AAE
100
AcDbXrecord
280
     1
102
SHADEPLOT
 70
     0
102
SHADEPLOTRESLEVEL
 70
     2
102
SHADEPLOTCUSTOMDPI
 70
   300
  0
XRECORD
  5
1AB1
102
{ACAD_REACTORS
330
1AB0
102
}
330
1AB0
100
AcDbXrecord
280
     1
102
SHADEPLOT
 70
     0
102
SHADEPLOTRESLEVEL
 70
     2
102
SHADEPLOTCUSTOMDPI
 70
   300
  0
XRECORD
  5
1A76
102
{ACAD_REACTORS
330
1A0F
102
}
330
1A0F
100
AcDbXrecord
280
     1
102
MATERIAL
148
0.0
149
0.0
149
0.0
 93
        0
 94
      127
282
     0
 72
     0
 77
     0
171
     0
175
     0
179
     0
273
     0
  0
XRECORD
  5
1A11
102
{ACAD_REACTORS
330
1A0F
102
}
330
1A0F
100
AcDbXrecord
280
     1
270
     1
271
     1
  0
XRECORD
  5
1A10
102
{ACAD_REACTORS
330
1A0F
102
}
330
1A0F
100
AcDbXrecord
280
     1
270
     1
271
     1
  0
XRECORD
  5
1A14
102
{ACAD_REACTORS
330
1A0F
102
}
330
1A0F
100
AcDbXrecord
280
     1
270
     1
271
     1
  0
XRECORD
  5
1A13
102
{ACAD_REACTORS
330
1A0F
102
}
330
1A0F
100
AcDbXrecord
280
     1
270
     1
271
     1
  0
XRECORD
  5
1A15
102
{ACAD_REACTORS
330
1A0F
102
}
330
1A0F
100
AcDbXrecord
280
     1
270
     1
271
     1
  0
XRECORD
  5
1A12
102
{ACAD_REACTORS
330
1A0F
102
}
330
1A0F
100
AcDbXrecord
280
     1
270
     1
271
     1
  0
XRECORD
  5
1A75
102
{ACAD_REACTORS
330
1A07
102
}
330
1A07
100
AcDbXrecord
280
     1
102
MATERIAL
148
0.0
149
0.0
149
0.0
 93
        0
 94
      127
282
     0
 72
     0
 77
     0
171
     0
175
     0
179
     0
273
     0
  0
XRECORD
  5
1A09
102
{ACAD_REACTORS
330
1A07
102
}
330
1A07
100
AcDbXrecord
280
     1
270
     1
271
     1
  0
XRECORD
  5
1A08
102
{ACAD_REACTORS
330
1A07
102
}
330
1A07
100
AcDbXrecord
280
     1
270
     1
271
     1
  0
XRECORD
  5
1A0C
102
{ACAD_REACTORS
330
1A07
102
}
330
1A07
100
AcDbXrecord
280
     1
270
     1
271
     1
  0
XRECORD
  5
1A0B
102
{ACAD_REACTORS
330
1A07
102
}
330
1A07
100
AcDbXrecord
280
     1
270
     1
271
     1
  0
XRECORD
  5
1A0D
102
{ACAD_REACTORS
330
1A07
102
}
330
1A07
100
AcDbXrecord
280
     1
270
     1
271
     1
  0
XRECORD
  5
1A0A
102
{ACAD_REACTORS
330
1A07
102
}
330
1A07
100
AcDbXrecord
280
     1
270
     1
271
     1
  0
XRECORD
  5
1A77
102
{ACAD_REACTORS
330
1A17
102
}
330
1A17
100
AcDbXrecord
280
     1
102
MATERIAL
148
0.0
149
0.0
149
0.0
 93
        0
 94
      127
282
     0
 72
     0
 77
     0
171
     0
175
     0
179
     0
273
     0
  0
XRECORD
  5
1A19
102
{ACAD_REACTORS
330
1A17
102
}
330
1A17
100
AcDbXrecord
280
     1
270
     1
271
     1
  0
XRECORD
  5
1A18
102
{ACAD_REACTORS
330
1A17
102
}
330
1A17
100
AcDbXrecord
280
     1
270
     1
271
     1
  0
XRECORD
  5
1A1C
102
{ACAD_REACTORS
330
1A17
102
}
330
1A17
100
AcDbXrecord
280
     1
270
     1
271
     1
  0
XRECORD
  5
1A1B
102
{ACAD_REACTORS
330
1A17
102
}
330
1A17
100
AcDbXrecord
280
     1
270
     1
271
     1
  0
XRECORD
  5
1A1D
102
{ACAD_REACTORS
330
1A17
102
}
330
1A17
100
AcDbXrecord
280
     1
270
     1
271
     1
  0
XRECORD
  5
1A1A
102
{ACAD_REACTORS
330
1A17
102
}
330
1A17
100
AcDbXrecord
280
     1
270
     1
271
     1
  0
XRECORD
  5
1AAB
102
{ACAD_REACTORS
330
1AAA
102
}
330
1AAA
100
AcDbXrecord
280
     1
102
DISPLAYNAME
  1
Imperial24
102
FLAGS
 90
        0
  0
CELLSTYLEMAP
  5
1A72
102
{ACAD_REACTORS
330
1A71
102
}
330
1A71
100
AcDbCellStyleMap
 90
        3
300
CELLSTYLE
  1
TABLEFORMAT_BEGIN
 90
        5
170
     1
 91
        0
 92
    32768
 62
   257
 93
        1
300
CONTENTFORMAT
  1
CONTENTFORMAT_BEGIN
 90
        0
 91
        0
 92
      512
 93
        0
300

 40
0.0
140
1.0
 94
        5
 62
     0
340
17E3
144
0.25
309
CONTENTFORMAT_END
171
     0
 94
        0
309
TABLEFORMAT_END
  1
CELLSTYLE_BEGIN
 90
        1
 91
        1
300
_TITLE
309
CELLSTYLE_END
300
CELLSTYLE
  1
TABLEFORMAT_BEGIN
 90
        5
170
     1
 91
        0
 92
        0
 62
   257
 93
        1
300
CONTENTFORMAT
  1
CONTENTFORMAT_BEGIN
 90
        0
 91
        0
 92
      512
 93
        0
300

 40
0.0
140
1.0
 94
        5
 62
     0
340
17E3
144
0.18
309
CONTENTFORMAT_END
171
     0
 94
        0
309
TABLEFORMAT_END
  1
CELLSTYLE_BEGIN
 90
        2
 91
        1
300
_HEADER
309
CELLSTYLE_END
300
CELLSTYLE
  1
TABLEFORMAT_BEGIN
 90
        5
170
     1
 91
        0
 92
        0
 62
   257
 93
        1
300
CONTENTFORMAT
  1
CONTENTFORMAT_BEGIN
 90
        0
 91
        0
 92
      512
 93
        0
300

 40
0.0
140
1.0
 94
        2
 62
     0
340
17E3
144
0.18
309
CONTENTFORMAT_END
171
     0
 94
        0
309
TABLEFORMAT_END
  1
CELLSTYLE_BEGIN
 90
        3
 91
        2
300
_DATA
309
CELLSTYLE_END
  0
XRECORD
  5
1AA8
102
{ACAD_REACTORS
330
1A71
102
}
330
1A71
100
AcDbXrecord
280
     1
102
ACAD_ROUNDTRIP_PRE2007_TABLESTYLE
 90
      512
 91
        0
  1

 92
      512
 93
        0
  2

 94
      512
 95
        0
  3

  0
XRECORD
  5
1A83
102
{ACAD_REACTORS
330
1A82
102
}
330
1A82
100
AcDbXrecord
280
     1
102
RTVSPost2010Prop28
280
     1
102
RTVSPost2010PropOp28
 70
     1
102
RTVSPost2010Prop29
280
     1
102
RTVSPost2010PropOp29
 70
     1
102
RTVSPost2010Prop30
280
     0
102
RTVSPost2010PropOp30
 70
     1
102
RTVSPost2010Prop31
280
     0
102
RTVSPost2010PropOp31
 70
     1
102
RTVSPost2010Prop32
280
     0
102
RTVSPost2010PropOp32
 70
     1
102
RTVSPost2010Prop33
280
     0
102
RTVSPost2010PropOp33
 70
     1
102
RTVSPost2010Prop34
280
     0
102
RTVSPost2010PropOp34
 70
     1
102
RTVSPost2010Prop35
280
     0
102
RTVSPost2010PropOp35
 70
     1
102
RTVSPost2010Prop36
280
     0
102
RTVSPost2010PropOp36
 70
     1
102
RTVSPost2010Prop37
 90
       50
102
RTVSPost2010PropOp37
 70
     1
102
RTVSPost2010Prop38
140
0.0
102
RTVSPost2010PropOp38
 70
     1
102
RTVSPost2010Prop39
140
1.0
102
RTVSPost2010PropOp39
 70
     1
102
RTVSPost2010Prop40
 90
        0
102
RTVSPost2010PropOp40
 70
     1
102
RTVSPost2010Prop41ColorIndex
 90
       18
102
RTVSPost2010Prop41ColorRGB
 90
        0
102
RTVSPost2010PropOp41
 70
     1
102
RTVSPost2010Prop42
 90
       50
102
RTVSPost2010PropOp42
 70
     1
102
RTVSPost2010Prop43
 90
        3
102
RTVSPost2010PropOp43
 70
     1
102
RTVSPost2010Prop44ColorIndex
 90
        5
102
RTVSPost2010Prop44ColorRGB
 90
      255
102
RTVSPost2010PropOp44
 70
     1
102
RTVSPost2010Prop45
280
     0
102
RTVSPost2010PropOp45
 70
     1
102
RTVSPost2010Prop46
 90
       50
102
RTVSPost2010PropOp46
 70
     1
102
RTVSPost2010Prop47
 90
       50
102
RTVSPost2010PropOp47
 70
     1
102
RTVSPost2010Prop48
 90
       50
102
RTVSPost2010PropOp48
 70
     1
102
RTVSPost2010Prop49
280
     0
102
RTVSPost2010PropOp49
 70
     1
102
RTVSPost2010Prop50
 90
       50
102
RTVSPost2010PropOp50
 70
     1
102
RTVSPost2010Prop51ColorIndex
 90
      256
102
RTVSPost2010Prop51ColorRGB
 90
-16777216
102
RTVSPost2010PropOp51
 70
     0
102
RTVSPost2010Prop52
140
1.0
102
RTVSPost2010PropOp52
 70
     0
102
RTVSPost2010Prop53
 90
        2
102
RTVSPost2010PropOp53
 70
     1
102
RTVSPost2010Prop54
  1
strokes_ogs.tif
102
RTVSPost2010PropOp54
 70
     1
102
RTVSPost2010Prop55
280
     0
102
RTVSPost2010PropOp55
 70
     1
102
RTVSPost2010Prop56
140
1.0
102
RTVSPost2010PropOp56
 70
     1
102
RTVSPost2010Prop57
140
1.0
102
RTVSPost2010PropOp57
 70
     1
102
RTVSPropertyOp0
 70
     1
102
RTVSPropertyOp1
 70
     1
102
RTVSPropertyOp2
 70
     1
102
RTVSPropertyOp3
 70
     1
102
RTVSPropertyOp4
 70
     1
102
RTVSPropertyOp5
 70
     1
102
RTVSPropertyOp6
 70
     1
102
RTVSPropertyOp7
 70
     1
102
RTVSPropertyOp8
 70
     1
102
RTVSPropertyOp9
 70
     1
102
RTVSPropertyOp10
 70
     1
102
RTVSPropertyOp11
 70
     1
102
RTVSPropertyOp12
 70
     1
102
RTVSPropertyOp13
 70
     1
102
RTVSPropertyOp14
 70
     1
102
RTVSPropertyOp15
 70
     1
102
RTVSPropertyOp16
 70
     1
102
RTVSPropertyOp17
 70
     1
102
RTVSPropertyOp18
 70
     1
102
RTVSPropertyOp19
 70
     1
102
RTVSPropertyOp20
 70
     1
102
RTVSPropertyOp21
 70
     1
102
RTVSPropertyOp22
 70
     1
102
RTVSPropertyOp23
 70
     1
102
RTVSPropertyOp24
 70
     1
102
RTVSPropertyOp25
 70
     1
102
RTVSPropertyOp26
 70
     1
102
RTVSPropertyOp27
 70
     1
102
RTVSPropertyOp28
 70
     1
102
RTVSPropertyOp29
 70
     1
102
RTVSPropertyOp30
 70
     1
102
RTVSPropertyOp31
 70
     1
102
RTVSPropertyOp32
 70
     1
102
RTVSPropertyOp33
 70
     1
102
RTVSPropertyOp34
 70
     1
102
RTVSPropertyOp35
 70
     1
102
RTVSPropertyOp36
 70
     1
102
RTVSPropertyOp37
 70
     1
102
RTVSPropertyOp38
 70
     1
102
RTVSPropertyOp39
 70
     1
102
RTVSPropertyOp40
 70
     1
102
RTVSPropertyOp41
 70
     1
102
RTVSPropertyOp42
 70
     1
102
RTVSPropertyOp43
 70
     1
102
RTVSPropertyOp44
 70
     1
102
RTVSPropertyOp45
 70
     1
102
RTVSPropertyOp46
 70
     1
102
RTVSPropertyOp47
 70
     1
102
RTVSPropertyOp48
 70
     1
102
RTVSPropertyOp49
 70
     1
102
RTVSPropertyOp50
 70
     1
102
RTVSPropertyOp51
 70
     0
102
RTVSPropertyOp52
 70
     0
102
RTVSPropertyOp53
 70
     1
102
RTVSPropertyOp54
 70
     1
102
RTVSPropertyOp55
 70
     1
102
RTVSPropertyOp56
 70
     1
102
RTVSPropertyOp57
 70
     1
102
RTVSPropertyOp58
 70
     1
102
RTVSPropertyOp59
 70
     1
102
RTVSPropertyOp60
 70
     1
102
RTVSPropertyOp61
 70
     1
102
RTVSPropertyOp62
 70
     1
  0
XRECORD
  5
1A81
102
{ACAD_REACTORS
330
1A80
102
}
330
1A80
100
AcDbXrecord
280
     1
102
RTVSPost2010Prop28
280
     0
102
RTVSPost2010PropOp28
 70
     1
102
RTVSPost2010Prop29
280
     1
102
RTVSPost2010PropOp29
 70
     1
102
RTVSPost2010Prop30
280
     1
102
RTVSPost2010PropOp30
 70
     1
102
RTVSPost2010Prop31
280
     0
102
RTVSPost2010PropOp31
 70
     1
102
RTVSPost2010Prop32
280
     0
102
RTVSPost2010PropOp32
 70
     1
102
RTVSPost2010Prop33
280
     0
102
RTVSPost2010PropOp33
 70
     1
102
RTVSPost2010Prop34
280
     0
102
RTVSPost2010PropOp34
 70
     1
102
RTVSPost2010Prop35
280
     0
102
RTVSPost2010PropOp35
 70
     1
102
RTVSPost2010Prop36
280
     0
102
RTVSPost2010PropOp36
 70
     1
102
RTVSPost2010Prop37
 90
       50
102
RTVSPost2010PropOp37
 70
     1
102
RTVSPost2010Prop38
140
0.0
102
RTVSPost2010PropOp38
 70
     1
102
RTVSPost2010Prop39
140
1.0
102
RTVSPost2010PropOp39
 70
     1
102
RTVSPost2010Prop40
 90
        0
102
RTVSPost2010PropOp40
 70
     1
102
RTVSPost2010Prop41ColorIndex
 90
       18
102
RTVSPost2010Prop41ColorRGB
 90
        0
102
RTVSPost2010PropOp41
 70
     1
102
RTVSPost2010Prop42
 90
       50
102
RTVSPost2010PropOp42
 70
     1
102
RTVSPost2010Prop43
 90
        3
102
RTVSPost2010PropOp43
 70
     1
102
RTVSPost2010Prop44ColorIndex
 90
        5
102
RTVSPost2010Prop44ColorRGB
 90
      255
102
RTVSPost2010PropOp44
 70
     1
102
RTVSPost2010Prop45
280
     0
102
RTVSPost2010PropOp45
 70
     1
102
RTVSPost2010Prop46
 90
       50
102
RTVSPost2010PropOp46
 70
     1
102
RTVSPost2010Prop47
 90
       50
102
RTVSPost2010PropOp47
 70
     1
102
RTVSPost2010Prop48
 90
       50
102
RTVSPost2010PropOp48
 70
     1
102
RTVSPost2010Prop49
280
     0
102
RTVSPost2010PropOp49
 70
     1
102
RTVSPost2010Prop50
 90
       50
102
RTVSPost2010PropOp50
 70
     1
102
RTVSPost2010Prop51ColorIndex
 90
      256
102
RTVSPost2010Prop51ColorRGB
 90
-16777216
102
RTVSPost2010PropOp51
 70
     0
102
RTVSPost2010Prop52
140
1.0
102
RTVSPost2010PropOp52
 70
     0
102
RTVSPost2010Prop53
 90
        2
102
RTVSPost2010PropOp53
 70
     1
102
RTVSPost2010Prop54
  1
strokes_ogs.tif
102
RTVSPost2010PropOp54
 70
     1
102
RTVSPost2010Prop55
280
     0
102
RTVSPost2010PropOp55
 70
     1
102
RTVSPost2010Prop56
140
1.0
102
RTVSPost2010PropOp56
 70
     1
102
RTVSPost2010Prop57
140
1.0
102
RTVSPost2010PropOp57
 70
     1
102
RTVSPropertyOp0
 70
     1
102
RTVSPropertyOp1
 70
     1
102
RTVSPropertyOp2
 70
     1
102
RTVSPropertyOp3
 70
     1
102
RTVSPropertyOp4
 70
     1
102
RTVSPropertyOp5
 70
     1
102
RTVSPropertyOp6
 70
     1
102
RTVSPropertyOp7
 70
     1
102
RTVSPropertyOp8
 70
     1
102
RTVSPropertyOp9
 70
     1
102
RTVSPropertyOp10
 70
     1
102
RTVSPropertyOp11
 70
     1
102
RTVSPropertyOp12
 70
     1
102
RTVSPropertyOp13
 70
     1
102
RTVSPropertyOp14
 70
     1
102
RTVSPropertyOp15
 70
     1
102
RTVSPropertyOp16
 70
     1
102
RTVSPropertyOp17
 70
     1
102
RTVSPropertyOp18
 70
     1
102
RTVSPropertyOp19
 70
     1
102
RTVSPropertyOp20
 70
     1
102
RTVSPropertyOp21
 70
     1
102
RTVSPropertyOp22
 70
     1
102
RTVSPropertyOp23
 70
     1
102
RTVSPropertyOp24
 70
     1
102
RTVSPropertyOp25
 70
     1
102
RTVSPropertyOp26
 70
     1
102
RTVSPropertyOp27
 70
     1
102
RTVSPropertyOp28
 70
     1
102
RTVSPropertyOp29
 70
     1
102
RTVSPropertyOp30
 70
     1
102
RTVSPropertyOp31
 70
     1
102
RTVSPropertyOp32
 70
     1
102
RTVSPropertyOp33
 70
     1
102
RTVSPropertyOp34
 70
     1
102
RTVSPropertyOp35
 70
     1
102
RTVSPropertyOp36
 70
     1
102
RTVSPropertyOp37
 70
     1
102
RTVSPropertyOp38
 70
     1
102
RTVSPropertyOp39
 70
     1
102
RTVSPropertyOp40
 70
     1
102
RTVSPropertyOp41
 70
     1
102
RTVSPropertyOp42
 70
     1
102
RTVSPropertyOp43
 70
     1
102
RTVSPropertyOp44
 70
     1
102
RTVSPropertyOp45
 70
     1
102
RTVSPropertyOp46
 70
     1
102
RTVSPropertyOp47
 70
     1
102
RTVSPropertyOp48
 70
     1
102
RTVSPropertyOp49
 70
     1
102
RTVSPropertyOp50
 70
     1
102
RTVSPropertyOp51
 70
     0
102
RTVSPropertyOp52
 70
     0
102
RTVSPropertyOp53
 70
     1
102
RTVSPropertyOp54
 70
     1
102
RTVSPropertyOp55
 70
     1
102
RTVSPropertyOp56
 70
     1
102
RTVSPropertyOp57
 70
     1
102
RTVSPropertyOp58
 70
     1
102
RTVSPropertyOp59
 70
     1
102
RTVSPropertyOp60
 70
     1
102
RTVSPropertyOp61
 70
     1
102
RTVSPropertyOp62
 70
     1
  0
XRECORD
  5
1A8F
102
{ACAD_REACTORS
330
1A8E
102
}
330
1A8E
100
AcDbXrecord
280
     1
102
RTVSPost2010Prop28
280
     0
102
RTVSPost2010PropOp28
 70
     1
102
RTVSPost2010Prop29
280
     1
102
RTVSPost2010PropOp29
 70
     1
102
RTVSPost2010Prop30
280
     1
102
RTVSPost2010PropOp30
 70
     1
102
RTVSPost2010Prop31
280
     0
102
RTVSPost2010PropOp31
 70
     1
102
RTVSPost2010Prop32
280
     0
102
RTVSPost2010PropOp32
 70
     1
102
RTVSPost2010Prop33
280
     0
102
RTVSPost2010PropOp33
 70
     1
102
RTVSPost2010Prop34
280
     0
102
RTVSPost2010PropOp34
 70
     1
102
RTVSPost2010Prop35
280
     0
102
RTVSPost2010PropOp35
 70
     1
102
RTVSPost2010Prop36
280
     0
102
RTVSPost2010PropOp36
 70
     1
102
RTVSPost2010Prop37
 90
       50
102
RTVSPost2010PropOp37
 70
     1
102
RTVSPost2010Prop38
140
0.0
102
RTVSPost2010PropOp38
 70
     1
102
RTVSPost2010Prop39
140
1.0
102
RTVSPost2010PropOp39
 70
     1
102
RTVSPost2010Prop40
 90
        0
102
RTVSPost2010PropOp40
 70
     1
102
RTVSPost2010Prop41ColorIndex
 90
       18
102
RTVSPost2010Prop41ColorRGB
 90
        0
102
RTVSPost2010PropOp41
 70
     1
102
RTVSPost2010Prop42
 90
       50
102
RTVSPost2010PropOp42
 70
     1
102
RTVSPost2010Prop43
 90
        3
102
RTVSPost2010PropOp43
 70
     1
102
RTVSPost2010Prop44ColorIndex
 90
        5
102
RTVSPost2010Prop44ColorRGB
 90
      255
102
RTVSPost2010PropOp44
 70
     1
102
RTVSPost2010Prop45
280
     0
102
RTVSPost2010PropOp45
 70
     1
102
RTVSPost2010Prop46
 90
       50
102
RTVSPost2010PropOp46
 70
     1
102
RTVSPost2010Prop47
 90
       50
102
RTVSPost2010PropOp47
 70
     1
102
RTVSPost2010Prop48
 90
       50
102
RTVSPost2010PropOp48
 70
     1
102
RTVSPost2010Prop49
280
     0
102
RTVSPost2010PropOp49
 70
     1
102
RTVSPost2010Prop50
 90
       50
102
RTVSPost2010PropOp50
 70
     1
102
RTVSPost2010Prop51ColorIndex
 90
      256
102
RTVSPost2010Prop51ColorRGB
 90
-16777216
102
RTVSPost2010PropOp51
 70
     0
102
RTVSPost2010Prop52
140
1.0
102
RTVSPost2010PropOp52
 70
     0
102
RTVSPost2010Prop53
 90
        2
102
RTVSPost2010PropOp53
 70
     1
102
RTVSPost2010Prop54
  1
strokes_ogs.tif
102
RTVSPost2010PropOp54
 70
     1
102
RTVSPost2010Prop55
280
     0
102
RTVSPost2010PropOp55
 70
     1
102
RTVSPost2010Prop56
140
1.0
102
RTVSPost2010PropOp56
 70
     1
102
RTVSPost2010Prop57
140
1.0
102
RTVSPost2010PropOp57
 70
     1
102
RTVSPropertyOp0
 70
     1
102
RTVSPropertyOp1
 70
     1
102
RTVSPropertyOp2
 70
     1
102
RTVSPropertyOp3
 70
     1
102
RTVSPropertyOp4
 70
     1
102
RTVSPropertyOp5
 70
     1
102
RTVSPropertyOp6
 70
     1
102
RTVSPropertyOp7
 70
     1
102
RTVSPropertyOp8
 70
     1
102
RTVSPropertyOp9
 70
     1
102
RTVSPropertyOp10
 70
     1
102
RTVSPropertyOp11
 70
     1
102
RTVSPropertyOp12
 70
     1
102
RTVSPropertyOp13
 70
     1
102
RTVSPropertyOp14
 70
     1
102
RTVSPropertyOp15
 70
     1
102
RTVSPropertyOp16
 70
     1
102
RTVSPropertyOp17
 70
     1
102
RTVSPropertyOp18
 70
     1
102
RTVSPropertyOp19
 70
     1
102
RTVSPropertyOp20
 70
     1
102
RTVSPropertyOp21
 70
     1
102
RTVSPropertyOp22
 70
     1
102
RTVSPropertyOp23
 70
     1
102
RTVSPropertyOp24
 70
     1
102
RTVSPropertyOp25
 70
     1
102
RTVSPropertyOp26
 70
     1
102
RTVSPropertyOp27
 70
     1
102
RTVSPropertyOp28
 70
     1
102
RTVSPropertyOp29
 70
     1
102
RTVSPropertyOp30
 70
     1
102
RTVSPropertyOp31
 70
     1
102
RTVSPropertyOp32
 70
     1
102
RTVSPropertyOp33
 70
     1
102
RTVSPropertyOp34
 70
     1
102
RTVSPropertyOp35
 70
     1
102
RTVSPropertyOp36
 70
     1
102
RTVSPropertyOp37
 70
     1
102
RTVSPropertyOp38
 70
     1
102
RTVSPropertyOp39
 70
     1
102
RTVSPropertyOp40
 70
     1
102
RTVSPropertyOp41
 70
     1
102
RTVSPropertyOp42
 70
     1
102
RTVSPropertyOp43
 70
     1
102
RTVSPropertyOp44
 70
     1
102
RTVSPropertyOp45
 70
     1
102
RTVSPropertyOp46
 70
     1
102
RTVSPropertyOp47
 70
     1
102
RTVSPropertyOp48
 70
     1
102
RTVSPropertyOp49
 70
     1
102
RTVSPropertyOp50
 70
     1
102
RTVSPropertyOp51
 70
     0
102
RTVSPropertyOp52
 70
     0
102
RTVSPropertyOp53
 70
     1
102
RTVSPropertyOp54
 70
     1
102
RTVSPropertyOp55
 70
     1
102
RTVSPropertyOp56
 70
     1
102
RTVSPropertyOp57
 70
     1
102
RTVSPropertyOp58
 70
     1
102
RTVSPropertyOp59
 70
     1
102
RTVSPropertyOp60
 70
     1
102
RTVSPropertyOp61
 70
     1
102
RTVSPropertyOp62
 70
     1
  0
XRECORD
  5
1A97
102
{ACAD_REACTORS
330
1A96
102
}
330
1A96
100
AcDbXrecord
280
     1
102
RTVSPost2010Prop28
280
     0
102
RTVSPost2010PropOp28
 70
     1
102
RTVSPost2010Prop29
280
     1
102
RTVSPost2010PropOp29
 70
     1
102
RTVSPost2010Prop30
280
     1
102
RTVSPost2010PropOp30
 70
     1
102
RTVSPost2010Prop31
280
     0
102
RTVSPost2010PropOp31
 70
     1
102
RTVSPost2010Prop32
280
     0
102
RTVSPost2010PropOp32
 70
     1
102
RTVSPost2010Prop33
280
     0
102
RTVSPost2010PropOp33
 70
     1
102
RTVSPost2010Prop34
280
     0
102
RTVSPost2010PropOp34
 70
     1
102
RTVSPost2010Prop35
280
     0
102
RTVSPost2010PropOp35
 70
     1
102
RTVSPost2010Prop36
280
     0
102
RTVSPost2010PropOp36
 70
     1
102
RTVSPost2010Prop37
 90
       50
102
RTVSPost2010PropOp37
 70
     1
102
RTVSPost2010Prop38
140
0.0
102
RTVSPost2010PropOp38
 70
     1
102
RTVSPost2010Prop39
140
1.0
102
RTVSPost2010PropOp39
 70
     1
102
RTVSPost2010Prop40
 90
        0
102
RTVSPost2010PropOp40
 70
     1
102
RTVSPost2010Prop41ColorIndex
 90
       18
102
RTVSPost2010Prop41ColorRGB
 90
        0
102
RTVSPost2010PropOp41
 70
     1
102
RTVSPost2010Prop42
 90
       50
102
RTVSPost2010PropOp42
 70
     1
102
RTVSPost2010Prop43
 90
        3
102
RTVSPost2010PropOp43
 70
     1
102
RTVSPost2010Prop44ColorIndex
 90
        5
102
RTVSPost2010Prop44ColorRGB
 90
      255
102
RTVSPost2010PropOp44
 70
     1
102
RTVSPost2010Prop45
280
     0
102
RTVSPost2010PropOp45
 70
     1
102
RTVSPost2010Prop46
 90
       50
102
RTVSPost2010PropOp46
 70
     1
102
RTVSPost2010Prop47
 90
       50
102
RTVSPost2010PropOp47
 70
     1
102
RTVSPost2010Prop48
 90
       50
102
RTVSPost2010PropOp48
 70
     1
102
RTVSPost2010Prop49
280
     0
102
RTVSPost2010PropOp49
 70
     1
102
RTVSPost2010Prop50
 90
       50
102
RTVSPost2010PropOp50
 70
     1
102
RTVSPost2010Prop51ColorIndex
 90
      256
102
RTVSPost2010Prop51ColorRGB
 90
-16777216
102
RTVSPost2010PropOp51
 70
     0
102
RTVSPost2010Prop52
140
1.0
102
RTVSPost2010PropOp52
 70
     0
102
RTVSPost2010Prop53
 90
        2
102
RTVSPost2010PropOp53
 70
     1
102
RTVSPost2010Prop54
  1
strokes_ogs.tif
102
RTVSPost2010PropOp54
 70
     1
102
RTVSPost2010Prop55
280
     0
102
RTVSPost2010PropOp55
 70
     1
102
RTVSPost2010Prop56
140
1.0
102
RTVSPost2010PropOp56
 70
     1
102
RTVSPost2010Prop57
140
1.0
102
RTVSPost2010PropOp57
 70
     1
102
RTVSPropertyOp0
 70
     1
102
RTVSPropertyOp1
 70
     1
102
RTVSPropertyOp2
 70
     1
102
RTVSPropertyOp3
 70
     1
102
RTVSPropertyOp4
 70
     1
102
RTVSPropertyOp5
 70
     1
102
RTVSPropertyOp6
 70
     1
102
RTVSPropertyOp7
 70
     1
102
RTVSPropertyOp8
 70
     1
102
RTVSPropertyOp9
 70
     1
102
RTVSPropertyOp10
 70
     1
102
RTVSPropertyOp11
 70
     1
102
RTVSPropertyOp12
 70
     1
102
RTVSPropertyOp13
 70
     1
102
RTVSPropertyOp14
 70
     1
102
RTVSPropertyOp15
 70
     1
102
RTVSPropertyOp16
 70
     1
102
RTVSPropertyOp17
 70
     1
102
RTVSPropertyOp18
 70
     1
102
RTVSPropertyOp19
 70
     1
102
RTVSPropertyOp20
 70
     1
102
RTVSPropertyOp21
 70
     1
102
RTVSPropertyOp22
 70
     1
102
RTVSPropertyOp23
 70
     1
102
RTVSPropertyOp24
 70
     1
102
RTVSPropertyOp25
 70
     1
102
RTVSPropertyOp26
 70
     1
102
RTVSPropertyOp27
 70
     1
102
RTVSPropertyOp28
 70
     1
102
RTVSPropertyOp29
 70
     1
102
RTVSPropertyOp30
 70
     1
102
RTVSPropertyOp31
 70
     1
102
RTVSPropertyOp32
 70
     1
102
RTVSPropertyOp33
 70
     1
102
RTVSPropertyOp34
 70
     1
102
RTVSPropertyOp35
 70
     1
102
RTVSPropertyOp36
 70
     1
102
RTVSPropertyOp37
 70
     1
102
RTVSPropertyOp38
 70
     1
102
RTVSPropertyOp39
 70
     1
102
RTVSPropertyOp40
 70
     1
102
RTVSPropertyOp41
 70
     1
102
RTVSPropertyOp42
 70
     1
102
RTVSPropertyOp43
 70
     1
102
RTVSPropertyOp44
 70
     1
102
RTVSPropertyOp45
 70
     1
102
RTVSPropertyOp46
 70
     1
102
RTVSPropertyOp47
 70
     1
102
RTVSPropertyOp48
 70
     1
102
RTVSPropertyOp49
 70
     1
102
RTVSPropertyOp50
 70
     1
102
RTVSPropertyOp51
 70
     0
102
RTVSPropertyOp52
 70
     0
102
RTVSPropertyOp53
 70
     1
102
RTVSPropertyOp54
 70
     1
102
RTVSPropertyOp55
 70
     1
102
RTVSPropertyOp56
 70
     1
102
RTVSPropertyOp57
 70
     1
102
RTVSPropertyOp58
 70
     1
102
RTVSPropertyOp59
 70
     1
102
RTVSPropertyOp60
 70
     1
102
RTVSPropertyOp61
 70
     1
102
RTVSPropertyOp62
 70
     1
  0
XRECORD
  5
1A89
102
{ACAD_REACTORS
330
1A88
102
}
330
1A88
100
AcDbXrecord
280
     1
102
RTVSPost2010Prop28
280
     0
102
RTVSPost2010PropOp28
 70
     1
102
RTVSPost2010Prop29
280
     1
102
RTVSPost2010PropOp29
 70
     1
102
RTVSPost2010Prop30
280
     1
102
RTVSPost2010PropOp30
 70
     1
102
RTVSPost2010Prop31
280
     0
102
RTVSPost2010PropOp31
 70
     1
102
RTVSPost2010Prop32
280
     0
102
RTVSPost2010PropOp32
 70
     1
102
RTVSPost2010Prop33
280
     0
102
RTVSPost2010PropOp33
 70
     1
102
RTVSPost2010Prop34
280
     0
102
RTVSPost2010PropOp34
 70
     1
102
RTVSPost2010Prop35
280
     0
102
RTVSPost2010PropOp35
 70
     1
102
RTVSPost2010Prop36
280
     0
102
RTVSPost2010PropOp36
 70
     1
102
RTVSPost2010Prop37
 90
       50
102
RTVSPost2010PropOp37
 70
     1
102
RTVSPost2010Prop38
140
0.0
102
RTVSPost2010PropOp38
 70
     1
102
RTVSPost2010Prop39
140
1.0
102
RTVSPost2010PropOp39
 70
     1
102
RTVSPost2010Prop40
 90
        0
102
RTVSPost2010PropOp40
 70
     1
102
RTVSPost2010Prop41ColorIndex
 90
       18
102
RTVSPost2010Prop41ColorRGB
 90
        0
102
RTVSPost2010PropOp41
 70
     1
102
RTVSPost2010Prop42
 90
       50
102
RTVSPost2010PropOp42
 70
     1
102
RTVSPost2010Prop43
 90
        3
102
RTVSPost2010PropOp43
 70
     1
102
RTVSPost2010Prop44ColorIndex
 90
        5
102
RTVSPost2010Prop44ColorRGB
 90
      255
102
RTVSPost2010PropOp44
 70
     1
102
RTVSPost2010Prop45
280
     0
102
RTVSPost2010PropOp45
 70
     1
102
RTVSPost2010Prop46
 90
       50
102
RTVSPost2010PropOp46
 70
     1
102
RTVSPost2010Prop47
 90
       50
102
RTVSPost2010PropOp47
 70
     1
102
RTVSPost2010Prop48
 90
       50
102
RTVSPost2010PropOp48
 70
     1
102
RTVSPost2010Prop49
280
     0
102
RTVSPost2010PropOp49
 70
     1
102
RTVSPost2010Prop50
 90
       50
102
RTVSPost2010PropOp50
 70
     1
102
RTVSPost2010Prop51ColorIndex
 90
      256
102
RTVSPost2010Prop51ColorRGB
 90
-16777216
102
RTVSPost2010PropOp51
 70
     0
102
RTVSPost2010Prop52
140
1.0
102
RTVSPost2010PropOp52
 70
     0
102
RTVSPost2010Prop53
 90
        2
102
RTVSPost2010PropOp53
 70
     1
102
RTVSPost2010Prop54
  1
strokes_ogs.tif
102
RTVSPost2010PropOp54
 70
     1
102
RTVSPost2010Prop55
280
     0
102
RTVSPost2010PropOp55
 70
     1
102
RTVSPost2010Prop56
140
1.0
102
RTVSPost2010PropOp56
 70
     1
102
RTVSPost2010Prop57
140
1.0
102
RTVSPost2010PropOp57
 70
     1
102
RTVSPropertyOp0
 70
     1
102
RTVSPropertyOp1
 70
     1
102
RTVSPropertyOp2
 70
     1
102
RTVSPropertyOp3
 70
     1
102
RTVSPropertyOp4
 70
     1
102
RTVSPropertyOp5
 70
     1
102
RTVSPropertyOp6
 70
     1
102
RTVSPropertyOp7
 70
     1
102
RTVSPropertyOp8
 70
     1
102
RTVSPropertyOp9
 70
     1
102
RTVSPropertyOp10
 70
     1
102
RTVSPropertyOp11
 70
     1
102
RTVSPropertyOp12
 70
     1
102
RTVSPropertyOp13
 70
     1
102
RTVSPropertyOp14
 70
     1
102
RTVSPropertyOp15
 70
     1
102
RTVSPropertyOp16
 70
     1
102
RTVSPropertyOp17
 70
     1
102
RTVSPropertyOp18
 70
     1
102
RTVSPropertyOp19
 70
     1
102
RTVSPropertyOp20
 70
     1
102
RTVSPropertyOp21
 70
     1
102
RTVSPropertyOp22
 70
     1
102
RTVSPropertyOp23
 70
     1
102
RTVSPropertyOp24
 70
     1
102
RTVSPropertyOp25
 70
     1
102
RTVSPropertyOp26
 70
     1
102
RTVSPropertyOp27
 70
     1
102
RTVSPropertyOp28
 70
     1
102
RTVSPropertyOp29
 70
     1
102
RTVSPropertyOp30
 70
     1
102
RTVSPropertyOp31
 70
     1
102
RTVSPropertyOp32
 70
     1
102
RTVSPropertyOp33
 70
     1
102
RTVSPropertyOp34
 70
     1
102
RTVSPropertyOp35
 70
     1
102
RTVSPropertyOp36
 70
     1
102
RTVSPropertyOp37
 70
     1
102
RTVSPropertyOp38
 70
     1
102
RTVSPropertyOp39
 70
     1
102
RTVSPropertyOp40
 70
     1
102
RTVSPropertyOp41
 70
     1
102
RTVSPropertyOp42
 70
     1
102
RTVSPropertyOp43
 70
     1
102
RTVSPropertyOp44
 70
     1
102
RTVSPropertyOp45
 70
     1
102
RTVSPropertyOp46
 70
     1
102
RTVSPropertyOp47
 70
     1
102
RTVSPropertyOp48
 70
     1
102
RTVSPropertyOp49
 70
     1
102
RTVSPropertyOp50
 70
     1
102
RTVSPropertyOp51
 70
     0
102
RTVSPropertyOp52
 70
     0
102
RTVSPropertyOp53
 70
     1
102
RTVSPropertyOp54
 70
     1
102
RTVSPropertyOp55
 70
     1
102
RTVSPropertyOp56
 70
     1
102
RTVSPropertyOp57
 70
     1
102
RTVSPropertyOp58
 70
     1
102
RTVSPropertyOp59
 70
     1
102
RTVSPropertyOp60
 70
     1
102
RTVSPropertyOp61
 70
     1
102
RTVSPropertyOp62
 70
     1
  0
XRECORD
  5
1A8D
102
{ACAD_REACTORS
330
1A8C
102
}
330
1A8C
100
AcDbXrecord
280
     1
102
RTVSPost2010Prop28
280
     0
102
RTVSPost2010PropOp28
 70
     1
102
RTVSPost2010Prop29
280
     1
102
RTVSPost2010PropOp29
 70
     1
102
RTVSPost2010Prop30
280
     1
102
RTVSPost2010PropOp30
 70
     1
102
RTVSPost2010Prop31
280
     0
102
RTVSPost2010PropOp31
 70
     1
102
RTVSPost2010Prop32
280
     0
102
RTVSPost2010PropOp32
 70
     1
102
RTVSPost2010Prop33
280
     0
102
RTVSPost2010PropOp33
 70
     1
102
RTVSPost2010Prop34
280
     0
102
RTVSPost2010PropOp34
 70
     1
102
RTVSPost2010Prop35
280
     0
102
RTVSPost2010PropOp35
 70
     1
102
RTVSPost2010Prop36
280
     0
102
RTVSPost2010PropOp36
 70
     1
102
RTVSPost2010Prop37
 90
       50
102
RTVSPost2010PropOp37
 70
     1
102
RTVSPost2010Prop38
140
0.0
102
RTVSPost2010PropOp38
 70
     1
102
RTVSPost2010Prop39
140
1.0
102
RTVSPost2010PropOp39
 70
     1
102
RTVSPost2010Prop40
 90
        0
102
RTVSPost2010PropOp40
 70
     1
102
RTVSPost2010Prop41ColorIndex
 90
       18
102
RTVSPost2010Prop41ColorRGB
 90
        0
102
RTVSPost2010PropOp41
 70
     1
102
RTVSPost2010Prop42
 90
       50
102
RTVSPost2010PropOp42
 70
     1
102
RTVSPost2010Prop43
 90
        3
102
RTVSPost2010PropOp43
 70
     1
102
RTVSPost2010Prop44ColorIndex
 90
        5
102
RTVSPost2010Prop44ColorRGB
 90
      255
102
RTVSPost2010PropOp44
 70
     1
102
RTVSPost2010Prop45
280
     0
102
RTVSPost2010PropOp45
 70
     1
102
RTVSPost2010Prop46
 90
       50
102
RTVSPost2010PropOp46
 70
     1
102
RTVSPost2010Prop47
 90
       50
102
RTVSPost2010PropOp47
 70
     1
102
RTVSPost2010Prop48
 90
       50
102
RTVSPost2010PropOp48
 70
     1
102
RTVSPost2010Prop49
280
     0
102
RTVSPost2010PropOp49
 70
     1
102
RTVSPost2010Prop50
 90
       50
102
RTVSPost2010PropOp50
 70
     1
102
RTVSPost2010Prop51ColorIndex
 90
      256
102
RTVSPost2010Prop51ColorRGB
 90
-16777216
102
RTVSPost2010PropOp51
 70
     0
102
RTVSPost2010Prop52
140
1.0
102
RTVSPost2010PropOp52
 70
     0
102
RTVSPost2010Prop53
 90
        2
102
RTVSPost2010PropOp53
 70
     1
102
RTVSPost2010Prop54
  1
strokes_ogs.tif
102
RTVSPost2010PropOp54
 70
     1
102
RTVSPost2010Prop55
280
     0
102
RTVSPost2010PropOp55
 70
     1
102
RTVSPost2010Prop56
140
1.0
102
RTVSPost2010PropOp56
 70
     1
102
RTVSPost2010Prop57
140
1.0
102
RTVSPost2010PropOp57
 70
     1
102
RTVSPropertyOp0
 70
     1
102
RTVSPropertyOp1
 70
     1
102
RTVSPropertyOp2
 70
     1
102
RTVSPropertyOp3
 70
     1
102
RTVSPropertyOp4
 70
     1
102
RTVSPropertyOp5
 70
     1
102
RTVSPropertyOp6
 70
     1
102
RTVSPropertyOp7
 70
     1
102
RTVSPropertyOp8
 70
     1
102
RTVSPropertyOp9
 70
     1
102
RTVSPropertyOp10
 70
     1
102
RTVSPropertyOp11
 70
     1
102
RTVSPropertyOp12
 70
     1
102
RTVSPropertyOp13
 70
     1
102
RTVSPropertyOp14
 70
     1
102
RTVSPropertyOp15
 70
     1
102
RTVSPropertyOp16
 70
     1
102
RTVSPropertyOp17
 70
     1
102
RTVSPropertyOp18
 70
     1
102
RTVSPropertyOp19
 70
     1
102
RTVSPropertyOp20
 70
     1
102
RTVSPropertyOp21
 70
     1
102
RTVSPropertyOp22
 70
     1
102
RTVSPropertyOp23
 70
     1
102
RTVSPropertyOp24
 70
     1
102
RTVSPropertyOp25
 70
     1
102
RTVSPropertyOp26
 70
     1
102
RTVSPropertyOp27
 70
     1
102
RTVSPropertyOp28
 70
     1
102
RTVSPropertyOp29
 70
     1
102
RTVSPropertyOp30
 70
     1
102
RTVSPropertyOp31
 70
     1
102
RTVSPropertyOp32
 70
     1
102
RTVSPropertyOp33
 70
     1
102
RTVSPropertyOp34
 70
     1
102
RTVSPropertyOp35
 70
     1
102
RTVSPropertyOp36
 70
     1
102
RTVSPropertyOp37
 70
     1
102
RTVSPropertyOp38
 70
     1
102
RTVSPropertyOp39
 70
     1
102
RTVSPropertyOp40
 70
     1
102
RTVSPropertyOp41
 70
     1
102
RTVSPropertyOp42
 70
     1
102
RTVSPropertyOp43
 70
     1
102
RTVSPropertyOp44
 70
     1
102
RTVSPropertyOp45
 70
     1
102
RTVSPropertyOp46
 70
     1
102
RTVSPropertyOp47
 70
     1
102
RTVSPropertyOp48
 70
     1
102
RTVSPropertyOp49
 70
     1
102
RTVSPropertyOp50
 70
     1
102
RTVSPropertyOp51
 70
     0
102
RTVSPropertyOp52
 70
     0
102
RTVSPropertyOp53
 70
     1
102
RTVSPropertyOp54
 70
     1
102
RTVSPropertyOp55
 70
     1
102
RTVSPropertyOp56
 70
     1
102
RTVSPropertyOp57
 70
     1
102
RTVSPropertyOp58
 70
     1
102
RTVSPropertyOp59
 70
     1
102
RTVSPropertyOp60
 70
     1
102
RTVSPropertyOp61
 70
     1
102
RTVSPropertyOp62
 70
     1
  0
XRECORD
  5
1AA7
102
{ACAD_REACTORS
330
1AA6
102
}
330
1AA6
100
AcDbXrecord
280
     1
102
RTVSPost2010Prop28
280
     0
102
RTVSPost2010PropOp28
 70
     1
102
RTVSPost2010Prop29
280
     1
102
RTVSPost2010PropOp29
 70
     1
102
RTVSPost2010Prop30
280
     1
102
RTVSPost2010PropOp30
 70
     1
102
RTVSPost2010Prop31
280
     0
102
RTVSPost2010PropOp31
 70
     1
102
RTVSPost2010Prop32
280
     0
102
RTVSPost2010PropOp32
 70
     1
102
RTVSPost2010Prop33
280
     0
102
RTVSPost2010PropOp33
 70
     1
102
RTVSPost2010Prop34
280
     0
102
RTVSPost2010PropOp34
 70
     1
102
RTVSPost2010Prop35
280
     0
102
RTVSPost2010PropOp35
 70
     1
102
RTVSPost2010Prop36
280
     0
102
RTVSPost2010PropOp36
 70
     1
102
RTVSPost2010Prop37
 90
       50
102
RTVSPost2010PropOp37
 70
     0
102
RTVSPost2010Prop38
140
0.0
102
RTVSPost2010PropOp38
 70
     0
102
RTVSPost2010Prop39
140
1.0
102
RTVSPost2010PropOp39
 70
     0
102
RTVSPost2010Prop40
 90
        0
102
RTVSPost2010PropOp40
 70
     0
102
RTVSPost2010Prop41ColorIndex
 90
       18
102
RTVSPost2010Prop41ColorRGB
 90
        0
102
RTVSPost2010PropOp41
 70
     0
102
RTVSPost2010Prop42
 90
       50
102
RTVSPost2010PropOp42
 70
     0
102
RTVSPost2010Prop43
 90
        3
102
RTVSPost2010PropOp43
 70
     0
102
RTVSPost2010Prop44ColorIndex
 90
        5
102
RTVSPost2010Prop44ColorRGB
 90
      255
102
RTVSPost2010PropOp44
 70
     0
102
RTVSPost2010Prop45
280
     0
102
RTVSPost2010PropOp45
 70
     1
102
RTVSPost2010Prop46
 90
       50
102
RTVSPost2010PropOp46
 70
     0
102
RTVSPost2010Prop47
 90
       50
102
RTVSPost2010PropOp47
 70
     0
102
RTVSPost2010Prop48
 90
       50
102
RTVSPost2010PropOp48
 70
     0
102
RTVSPost2010Prop49
280
     0
102
RTVSPost2010PropOp49
 70
     1
102
RTVSPost2010Prop50
 90
       50
102
RTVSPost2010PropOp50
 70
     0
102
RTVSPost2010Prop51ColorIndex
 90
      256
102
RTVSPost2010Prop51ColorRGB
 90
-16777216
102
RTVSPost2010PropOp51
 70
     0
102
RTVSPost2010Prop52
140
1.0
102
RTVSPost2010PropOp52
 70
     0
102
RTVSPost2010Prop53
 90
        2
102
RTVSPost2010PropOp53
 70
     0
102
RTVSPost2010Prop54
  1
strokes_ogs.tif
102
RTVSPost2010PropOp54
 70
     0
102
RTVSPost2010Prop55
280
     0
102
RTVSPost2010PropOp55
 70
     1
102
RTVSPost2010Prop56
140
1.0
102
RTVSPost2010PropOp56
 70
     0
102
RTVSPost2010Prop57
140
1.0
102
RTVSPost2010PropOp57
 70
     0
102
RTVSPropertyOp0
 70
     0
102
RTVSPropertyOp1
 70
     0
102
RTVSPropertyOp2
 70
     0
102
RTVSPropertyOp3
 70
     0
102
RTVSPropertyOp4
 70
     0
102
RTVSPropertyOp5
 70
     0
102
RTVSPropertyOp6
 70
     0
102
RTVSPropertyOp7
 70
     0
102
RTVSPropertyOp8
 70
     0
102
RTVSPropertyOp9
 70
     0
102
RTVSPropertyOp10
 70
     0
102
RTVSPropertyOp11
 70
     0
102
RTVSPropertyOp12
 70
     0
102
RTVSPropertyOp13
 70
     0
102
RTVSPropertyOp14
 70
     2
102
RTVSPropertyOp15
 70
     0
102
RTVSPropertyOp16
 70
     0
102
RTVSPropertyOp17
 70
     0
102
RTVSPropertyOp18
 70
     0
102
RTVSPropertyOp19
 70
     0
102
RTVSPropertyOp20
 70
     0
102
RTVSPropertyOp21
 70
     0
102
RTVSPropertyOp22
 70
     0
102
RTVSPropertyOp23
 70
     0
102
RTVSPropertyOp24
 70
     0
102
RTVSPropertyOp25
 70
     0
102
RTVSPropertyOp26
 70
     0
102
RTVSPropertyOp27
 70
     0
102
RTVSPropertyOp28
 70
     1
102
RTVSPropertyOp29
 70
     1
102
RTVSPropertyOp30
 70
     1
102
RTVSPropertyOp31
 70
     1
102
RTVSPropertyOp32
 70
     1
102
RTVSPropertyOp33
 70
     1
102
RTVSPropertyOp34
 70
     1
102
RTVSPropertyOp35
 70
     1
102
RTVSPropertyOp36
 70
     1
102
RTVSPropertyOp37
 70
     0
102
RTVSPropertyOp38
 70
     0
102
RTVSPropertyOp39
 70
     0
102
RTVSPropertyOp40
 70
     0
102
RTVSPropertyOp41
 70
     0
102
RTVSPropertyOp42
 70
     0
102
RTVSPropertyOp43
 70
     0
102
RTVSPropertyOp44
 70
     0
102
RTVSPropertyOp45
 70
     1
102
RTVSPropertyOp46
 70
     0
102
RTVSPropertyOp47
 70
     0
102
RTVSPropertyOp48
 70
     0
102
RTVSPropertyOp49
 70
     1
102
RTVSPropertyOp50
 70
     0
102
RTVSPropertyOp51
 70
     0
102
RTVSPropertyOp52
 70
     0
102
RTVSPropertyOp53
 70
     0
102
RTVSPropertyOp54
 70
     0
102
RTVSPropertyOp55
 70
     1
102
RTVSPropertyOp56
 70
     0
102
RTVSPropertyOp57
 70
     0
102
RTVSPropertyOp58
 70
     0
102
RTVSPropertyOp59
 70
     0
102
RTVSPropertyOp60
 70
     0
102
RTVSPropertyOp61
 70
     0
102
RTVSPropertyOp62
 70
     0
  0
XRECORD
  5
1A95
102
{ACAD_REACTORS
330
1A94
102
}
330
1A94
100
AcDbXrecord
280
     1
102
RTVSPost2010Prop28
280
     0
102
RTVSPost2010PropOp28
 70
     1
102
RTVSPost2010Prop29
280
     1
102
RTVSPost2010PropOp29
 70
     1
102
RTVSPost2010Prop30
280
     1
102
RTVSPost2010PropOp30
 70
     1
102
RTVSPost2010Prop31
280
     0
102
RTVSPost2010PropOp31
 70
     1
102
RTVSPost2010Prop32
280
     0
102
RTVSPost2010PropOp32
 70
     1
102
RTVSPost2010Prop33
280
     0
102
RTVSPost2010PropOp33
 70
     1
102
RTVSPost2010Prop34
280
     0
102
RTVSPost2010PropOp34
 70
     1
102
RTVSPost2010Prop35
280
     0
102
RTVSPost2010PropOp35
 70
     1
102
RTVSPost2010Prop36
280
     0
102
RTVSPost2010PropOp36
 70
     1
102
RTVSPost2010Prop37
 90
       50
102
RTVSPost2010PropOp37
 70
     1
102
RTVSPost2010Prop38
140
0.0
102
RTVSPost2010PropOp38
 70
     1
102
RTVSPost2010Prop39
140
1.0
102
RTVSPost2010PropOp39
 70
     1
102
RTVSPost2010Prop40
 90
        0
102
RTVSPost2010PropOp40
 70
     1
102
RTVSPost2010Prop41ColorIndex
 90
       18
102
RTVSPost2010Prop41ColorRGB
 90
        0
102
RTVSPost2010PropOp41
 70
     1
102
RTVSPost2010Prop42
 90
       50
102
RTVSPost2010PropOp42
 70
     1
102
RTVSPost2010Prop43
 90
        3
102
RTVSPost2010PropOp43
 70
     1
102
RTVSPost2010Prop44ColorIndex
 90
        5
102
RTVSPost2010Prop44ColorRGB
 90
      255
102
RTVSPost2010PropOp44
 70
     1
102
RTVSPost2010Prop45
280
     0
102
RTVSPost2010PropOp45
 70
     1
102
RTVSPost2010Prop46
 90
       50
102
RTVSPost2010PropOp46
 70
     1
102
RTVSPost2010Prop47
 90
       50
102
RTVSPost2010PropOp47
 70
     1
102
RTVSPost2010Prop48
 90
       50
102
RTVSPost2010PropOp48
 70
     1
102
RTVSPost2010Prop49
280
     0
102
RTVSPost2010PropOp49
 70
     1
102
RTVSPost2010Prop50
 90
       50
102
RTVSPost2010PropOp50
 70
     1
102
RTVSPost2010Prop51ColorIndex
 90
      256
102
RTVSPost2010Prop51ColorRGB
 90
-16777216
102
RTVSPost2010PropOp51
 70
     0
102
RTVSPost2010Prop52
140
1.0
102
RTVSPost2010PropOp52
 70
     0
102
RTVSPost2010Prop53
 90
        2
102
RTVSPost2010PropOp53
 70
     1
102
RTVSPost2010Prop54
  1
strokes_ogs.tif
102
RTVSPost2010PropOp54
 70
     1
102
RTVSPost2010Prop55
280
     0
102
RTVSPost2010PropOp55
 70
     1
102
RTVSPost2010Prop56
140
1.0
102
RTVSPost2010PropOp56
 70
     1
102
RTVSPost2010Prop57
140
1.0
102
RTVSPost2010PropOp57
 70
     1
102
RTVSPropertyOp0
 70
     1
102
RTVSPropertyOp1
 70
     1
102
RTVSPropertyOp2
 70
     1
102
RTVSPropertyOp3
 70
     1
102
RTVSPropertyOp4
 70
     1
102
RTVSPropertyOp5
 70
     1
102
RTVSPropertyOp6
 70
     1
102
RTVSPropertyOp7
 70
     1
102
RTVSPropertyOp8
 70
     1
102
RTVSPropertyOp9
 70
     1
102
RTVSPropertyOp10
 70
     1
102
RTVSPropertyOp11
 70
     1
102
RTVSPropertyOp12
 70
     1
102
RTVSPropertyOp13
 70
     1
102
RTVSPropertyOp14
 70
     1
102
RTVSPropertyOp15
 70
     1
102
RTVSPropertyOp16
 70
     1
102
RTVSPropertyOp17
 70
     1
102
RTVSPropertyOp18
 70
     1
102
RTVSPropertyOp19
 70
     1
102
RTVSPropertyOp20
 70
     1
102
RTVSPropertyOp21
 70
     1
102
RTVSPropertyOp22
 70
     1
102
RTVSPropertyOp23
 70
     1
102
RTVSPropertyOp24
 70
     1
102
RTVSPropertyOp25
 70
     1
102
RTVSPropertyOp26
 70
     1
102
RTVSPropertyOp27
 70
     1
102
RTVSPropertyOp28
 70
     1
102
RTVSPropertyOp29
 70
     1
102
RTVSPropertyOp30
 70
     1
102
RTVSPropertyOp31
 70
     1
102
RTVSPropertyOp32
 70
     1
102
RTVSPropertyOp33
 70
     1
102
RTVSPropertyOp34
 70
     1
102
RTVSPropertyOp35
 70
     1
102
RTVSPropertyOp36
 70
     1
102
RTVSPropertyOp37
 70
     1
102
RTVSPropertyOp38
 70
     1
102
RTVSPropertyOp39
 70
     1
102
RTVSPropertyOp40
 70
     1
102
RTVSPropertyOp41
 70
     1
102
RTVSPropertyOp42
 70
     1
102
RTVSPropertyOp43
 70
     1
102
RTVSPropertyOp44
 70
     1
102
RTVSPropertyOp45
 70
     1
102
RTVSPropertyOp46
 70
     1
102
RTVSPropertyOp47
 70
     1
102
RTVSPropertyOp48
 70
     1
102
RTVSPropertyOp49
 70
     1
102
RTVSPropertyOp50
 70
     1
102
RTVSPropertyOp51
 70
     0
102
RTVSPropertyOp52
 70
     0
102
RTVSPropertyOp53
 70
     1
102
RTVSPropertyOp54
 70
     1
102
RTVSPropertyOp55
 70
     1
102
RTVSPropertyOp56
 70
     1
102
RTVSPropertyOp57
 70
     1
102
RTVSPropertyOp58
 70
     1
102
RTVSPropertyOp59
 70
     1
102
RTVSPropertyOp60
 70
     1
102
RTVSPropertyOp61
 70
     1
102
RTVSPropertyOp62
 70
     1
  0
XRECORD
  5
1A79
102
{ACAD_REACTORS
330
1A78
102
}
330
1A78
100
AcDbXrecord
280
     1
102
RTVSPost2010Prop28
280
     0
102
RTVSPost2010PropOp28
 70
     1
102
RTVSPost2010Prop29
280
     1
102
RTVSPost2010PropOp29
 70
     1
102
RTVSPost2010Prop30
280
     1
102
RTVSPost2010PropOp30
 70
     1
102
RTVSPost2010Prop31
280
     0
102
RTVSPost2010PropOp31
 70
     1
102
RTVSPost2010Prop32
280
     0
102
RTVSPost2010PropOp32
 70
     1
102
RTVSPost2010Prop33
280
     0
102
RTVSPost2010PropOp33
 70
     1
102
RTVSPost2010Prop34
280
     0
102
RTVSPost2010PropOp34
 70
     1
102
RTVSPost2010Prop35
280
     0
102
RTVSPost2010PropOp35
 70
     1
102
RTVSPost2010Prop36
280
     0
102
RTVSPost2010PropOp36
 70
     1
102
RTVSPost2010Prop37
 90
       50
102
RTVSPost2010PropOp37
 70
     1
102
RTVSPost2010Prop38
140
0.0
102
RTVSPost2010PropOp38
 70
     1
102
RTVSPost2010Prop39
140
1.0
102
RTVSPost2010PropOp39
 70
     1
102
RTVSPost2010Prop40
 90
        0
102
RTVSPost2010PropOp40
 70
     1
102
RTVSPost2010Prop41ColorIndex
 90
       18
102
RTVSPost2010Prop41ColorRGB
 90
        0
102
RTVSPost2010PropOp41
 70
     1
102
RTVSPost2010Prop42
 90
       50
102
RTVSPost2010PropOp42
 70
     1
102
RTVSPost2010Prop43
 90
        3
102
RTVSPost2010PropOp43
 70
     1
102
RTVSPost2010Prop44ColorIndex
 90
        5
102
RTVSPost2010Prop44ColorRGB
 90
      255
102
RTVSPost2010PropOp44
 70
     1
102
RTVSPost2010Prop45
280
     0
102
RTVSPost2010PropOp45
 70
     1
102
RTVSPost2010Prop46
 90
       50
102
RTVSPost2010PropOp46
 70
     1
102
RTVSPost2010Prop47
 90
       50
102
RTVSPost2010PropOp47
 70
     1
102
RTVSPost2010Prop48
 90
       50
102
RTVSPost2010PropOp48
 70
     1
102
RTVSPost2010Prop49
280
     0
102
RTVSPost2010PropOp49
 70
     1
102
RTVSPost2010Prop50
 90
       50
102
RTVSPost2010PropOp50
 70
     1
102
RTVSPost2010Prop51ColorIndex
 90
      256
102
RTVSPost2010Prop51ColorRGB
 90
-16777216
102
RTVSPost2010PropOp51
 70
     0
102
RTVSPost2010Prop52
140
1.0
102
RTVSPost2010PropOp52
 70
     0
102
RTVSPost2010Prop53
 90
        2
102
RTVSPost2010PropOp53
 70
     1
102
RTVSPost2010Prop54
  1
strokes_ogs.tif
102
RTVSPost2010PropOp54
 70
     1
102
RTVSPost2010Prop55
280
     0
102
RTVSPost2010PropOp55
 70
     1
102
RTVSPost2010Prop56
140
1.0
102
RTVSPost2010PropOp56
 70
     1
102
RTVSPost2010Prop57
140
1.0
102
RTVSPost2010PropOp57
 70
     1
102
RTVSPropertyOp0
 70
     1
102
RTVSPropertyOp1
 70
     1
102
RTVSPropertyOp2
 70
     1
102
RTVSPropertyOp3
 70
     1
102
RTVSPropertyOp4
 70
     1
102
RTVSPropertyOp5
 70
     1
102
RTVSPropertyOp6
 70
     1
102
RTVSPropertyOp7
 70
     1
102
RTVSPropertyOp8
 70
     1
102
RTVSPropertyOp9
 70
     1
102
RTVSPropertyOp10
 70
     1
102
RTVSPropertyOp11
 70
     1
102
RTVSPropertyOp12
 70
     1
102
RTVSPropertyOp13
 70
     1
102
RTVSPropertyOp14
 70
     1
102
RTVSPropertyOp15
 70
     1
102
RTVSPropertyOp16
 70
     1
102
RTVSPropertyOp17
 70
     1
102
RTVSPropertyOp18
 70
     1
102
RTVSPropertyOp19
 70
     1
102
RTVSPropertyOp20
 70
     1
102
RTVSPropertyOp21
 70
     1
102
RTVSPropertyOp22
 70
     1
102
RTVSPropertyOp23
 70
     1
102
RTVSPropertyOp24
 70
     1
102
RTVSPropertyOp25
 70
     1
102
RTVSPropertyOp26
 70
     1
102
RTVSPropertyOp27
 70
     1
102
RTVSPropertyOp28
 70
     1
102
RTVSPropertyOp29
 70
     1
102
RTVSPropertyOp30
 70
     1
102
RTVSPropertyOp31
 70
     1
102
RTVSPropertyOp32
 70
     1
102
RTVSPropertyOp33
 70
     1
102
RTVSPropertyOp34
 70
     1
102
RTVSPropertyOp35
 70
     1
102
RTVSPropertyOp36
 70
     1
102
RTVSPropertyOp37
 70
     1
102
RTVSPropertyOp38
 70
     1
102
RTVSPropertyOp39
 70
     1
102
RTVSPropertyOp40
 70
     1
102
RTVSPropertyOp41
 70
     1
102
RTVSPropertyOp42
 70
     1
102
RTVSPropertyOp43
 70
     1
102
RTVSPropertyOp44
 70
     1
102
RTVSPropertyOp45
 70
     1
102
RTVSPropertyOp46
 70
     1
102
RTVSPropertyOp47
 70
     1
102
RTVSPropertyOp48
 70
     1
102
RTVSPropertyOp49
 70
     1
102
RTVSPropertyOp50
 70
     1
102
RTVSPropertyOp51
 70
     0
102
RTVSPropertyOp52
 70
     0
102
RTVSPropertyOp53
 70
     1
102
RTVSPropertyOp54
 70
     1
102
RTVSPropertyOp55
 70
     1
102
RTVSPropertyOp56
 70
     1
102
RTVSPropertyOp57
 70
     1
102
RTVSPropertyOp58
 70
     1
102
RTVSPropertyOp59
 70
     1
102
RTVSPropertyOp60
 70
     1
102
RTVSPropertyOp61
 70
     1
102
RTVSPropertyOp62
 70
     1
  0
XRECORD
  5
1A7B
102
{ACAD_REACTORS
330
1A7A
102
}
330
1A7A
100
AcDbXrecord
280
     1
102
RTVSPost2010Prop28
280
     0
102
RTVSPost2010PropOp28
 70
     1
102
RTVSPost2010Prop29
280
     1
102
RTVSPost2010PropOp29
 70
     1
102
RTVSPost2010Prop30
280
     1
102
RTVSPost2010PropOp30
 70
     1
102
RTVSPost2010Prop31
280
     0
102
RTVSPost2010PropOp31
 70
     1
102
RTVSPost2010Prop32
280
     0
102
RTVSPost2010PropOp32
 70
     1
102
RTVSPost2010Prop33
280
     0
102
RTVSPost2010PropOp33
 70
     1
102
RTVSPost2010Prop34
280
     0
102
RTVSPost2010PropOp34
 70
     1
102
RTVSPost2010Prop35
280
     0
102
RTVSPost2010PropOp35
 70
     1
102
RTVSPost2010Prop36
280
     0
102
RTVSPost2010PropOp36
 70
     1
102
RTVSPost2010Prop37
 90
       50
102
RTVSPost2010PropOp37
 70
     1
102
RTVSPost2010Prop38
140
0.0
102
RTVSPost2010PropOp38
 70
     1
102
RTVSPost2010Prop39
140
1.0
102
RTVSPost2010PropOp39
 70
     1
102
RTVSPost2010Prop40
 90
        0
102
RTVSPost2010PropOp40
 70
     1
102
RTVSPost2010Prop41ColorIndex
 90
       18
102
RTVSPost2010Prop41ColorRGB
 90
        0
102
RTVSPost2010PropOp41
 70
     1
102
RTVSPost2010Prop42
 90
       50
102
RTVSPost2010PropOp42
 70
     1
102
RTVSPost2010Prop43
 90
        3
102
RTVSPost2010PropOp43
 70
     1
102
RTVSPost2010Prop44ColorIndex
 90
        5
102
RTVSPost2010Prop44ColorRGB
 90
      255
102
RTVSPost2010PropOp44
 70
     1
102
RTVSPost2010Prop45
280
     0
102
RTVSPost2010PropOp45
 70
     1
102
RTVSPost2010Prop46
 90
       50
102
RTVSPost2010PropOp46
 70
     1
102
RTVSPost2010Prop47
 90
       50
102
RTVSPost2010PropOp47
 70
     1
102
RTVSPost2010Prop48
 90
       50
102
RTVSPost2010PropOp48
 70
     1
102
RTVSPost2010Prop49
280
     0
102
RTVSPost2010PropOp49
 70
     1
102
RTVSPost2010Prop50
 90
       50
102
RTVSPost2010PropOp50
 70
     1
102
RTVSPost2010Prop51ColorIndex
 90
      256
102
RTVSPost2010Prop51ColorRGB
 90
-16777216
102
RTVSPost2010PropOp51
 70
     0
102
RTVSPost2010Prop52
140
1.0
102
RTVSPost2010PropOp52
 70
     0
102
RTVSPost2010Prop53
 90
        2
102
RTVSPost2010PropOp53
 70
     1
102
RTVSPost2010Prop54
  1
strokes_ogs.tif
102
RTVSPost2010PropOp54
 70
     1
102
RTVSPost2010Prop55
280
     0
102
RTVSPost2010PropOp55
 70
     1
102
RTVSPost2010Prop56
140
1.0
102
RTVSPost2010PropOp56
 70
     1
102
RTVSPost2010Prop57
140
1.0
102
RTVSPost2010PropOp57
 70
     1
102
RTVSPropertyOp0
 70
     1
102
RTVSPropertyOp1
 70
     1
102
RTVSPropertyOp2
 70
     1
102
RTVSPropertyOp3
 70
     1
102
RTVSPropertyOp4
 70
     1
102
RTVSPropertyOp5
 70
     1
102
RTVSPropertyOp6
 70
     1
102
RTVSPropertyOp7
 70
     1
102
RTVSPropertyOp8
 70
     1
102
RTVSPropertyOp9
 70
     1
102
RTVSPropertyOp10
 70
     1
102
RTVSPropertyOp11
 70
     1
102
RTVSPropertyOp12
 70
     1
102
RTVSPropertyOp13
 70
     1
102
RTVSPropertyOp14
 70
     1
102
RTVSPropertyOp15
 70
     1
102
RTVSPropertyOp16
 70
     1
102
RTVSPropertyOp17
 70
     1
102
RTVSPropertyOp18
 70
     1
102
RTVSPropertyOp19
 70
     1
102
RTVSPropertyOp20
 70
     1
102
RTVSPropertyOp21
 70
     1
102
RTVSPropertyOp22
 70
     1
102
RTVSPropertyOp23
 70
     1
102
RTVSPropertyOp24
 70
     1
102
RTVSPropertyOp25
 70
     1
102
RTVSPropertyOp26
 70
     1
102
RTVSPropertyOp27
 70
     1
102
RTVSPropertyOp28
 70
     1
102
RTVSPropertyOp29
 70
     1
102
RTVSPropertyOp30
 70
     1
102
RTVSPropertyOp31
 70
     1
102
RTVSPropertyOp32
 70
     1
102
RTVSPropertyOp33
 70
     1
102
RTVSPropertyOp34
 70
     1
102
RTVSPropertyOp35
 70
     1
102
RTVSPropertyOp36
 70
     1
102
RTVSPropertyOp37
 70
     1
102
RTVSPropertyOp38
 70
     1
102
RTVSPropertyOp39
 70
     1
102
RTVSPropertyOp40
 70
     1
102
RTVSPropertyOp41
 70
     1
102
RTVSPropertyOp42
 70
     1
102
RTVSPropertyOp43
 70
     1
102
RTVSPropertyOp44
 70
     1
102
RTVSPropertyOp45
 70
     1
102
RTVSPropertyOp46
 70
     1
102
RTVSPropertyOp47
 70
     1
102
RTVSPropertyOp48
 70
     1
102
RTVSPropertyOp49
 70
     1
102
RTVSPropertyOp50
 70
     1
102
RTVSPropertyOp51
 70
     0
102
RTVSPropertyOp52
 70
     0
102
RTVSPropertyOp53
 70
     1
102
RTVSPropertyOp54
 70
     1
102
RTVSPropertyOp55
 70
     1
102
RTVSPropertyOp56
 70
     1
102
RTVSPropertyOp57
 70
     1
102
RTVSPropertyOp58
 70
     1
102
RTVSPropertyOp59
 70
     1
102
RTVSPropertyOp60
 70
     1
102
RTVSPropertyOp61
 70
     1
102
RTVSPropertyOp62
 70
     1
  0
XRECORD
  5
1A7D
102
{ACAD_REACTORS
330
1A7C
102
}
330
1A7C
100
AcDbXrecord
280
     1
102
RTVSPost2010Prop28
280
     0
102
RTVSPost2010PropOp28
 70
     1
102
RTVSPost2010Prop29
280
     1
102
RTVSPost2010PropOp29
 70
     1
102
RTVSPost2010Prop30
280
     1
102
RTVSPost2010PropOp30
 70
     1
102
RTVSPost2010Prop31
280
     0
102
RTVSPost2010PropOp31
 70
     1
102
RTVSPost2010Prop32
280
     0
102
RTVSPost2010PropOp32
 70
     1
102
RTVSPost2010Prop33
280
     0
102
RTVSPost2010PropOp33
 70
     1
102
RTVSPost2010Prop34
280
     0
102
RTVSPost2010PropOp34
 70
     1
102
RTVSPost2010Prop35
280
     0
102
RTVSPost2010PropOp35
 70
     1
102
RTVSPost2010Prop36
280
     0
102
RTVSPost2010PropOp36
 70
     1
102
RTVSPost2010Prop37
 90
       50
102
RTVSPost2010PropOp37
 70
     1
102
RTVSPost2010Prop38
140
0.0
102
RTVSPost2010PropOp38
 70
     1
102
RTVSPost2010Prop39
140
1.0
102
RTVSPost2010PropOp39
 70
     1
102
RTVSPost2010Prop40
 90
        0
102
RTVSPost2010PropOp40
 70
     1
102
RTVSPost2010Prop41ColorIndex
 90
       18
102
RTVSPost2010Prop41ColorRGB
 90
        0
102
RTVSPost2010PropOp41
 70
     1
102
RTVSPost2010Prop42
 90
       50
102
RTVSPost2010PropOp42
 70
     1
102
RTVSPost2010Prop43
 90
        3
102
RTVSPost2010PropOp43
 70
     1
102
RTVSPost2010Prop44ColorIndex
 90
        5
102
RTVSPost2010Prop44ColorRGB
 90
      255
102
RTVSPost2010PropOp44
 70
     1
102
RTVSPost2010Prop45
280
     0
102
RTVSPost2010PropOp45
 70
     1
102
RTVSPost2010Prop46
 90
       50
102
RTVSPost2010PropOp46
 70
     1
102
RTVSPost2010Prop47
 90
       50
102
RTVSPost2010PropOp47
 70
     1
102
RTVSPost2010Prop48
 90
       50
102
RTVSPost2010PropOp48
 70
     1
102
RTVSPost2010Prop49
280
     0
102
RTVSPost2010PropOp49
 70
     1
102
RTVSPost2010Prop50
 90
       50
102
RTVSPost2010PropOp50
 70
     1
102
RTVSPost2010Prop51ColorIndex
 90
      256
102
RTVSPost2010Prop51ColorRGB
 90
-16777216
102
RTVSPost2010PropOp51
 70
     0
102
RTVSPost2010Prop52
140
1.0
102
RTVSPost2010PropOp52
 70
     0
102
RTVSPost2010Prop53
 90
        2
102
RTVSPost2010PropOp53
 70
     1
102
RTVSPost2010Prop54
  1
strokes_ogs.tif
102
RTVSPost2010PropOp54
 70
     1
102
RTVSPost2010Prop55
280
     0
102
RTVSPost2010PropOp55
 70
     1
102
RTVSPost2010Prop56
140
1.0
102
RTVSPost2010PropOp56
 70
     1
102
RTVSPost2010Prop57
140
1.0
102
RTVSPost2010PropOp57
 70
     1
102
RTVSPropertyOp0
 70
     1
102
RTVSPropertyOp1
 70
     1
102
RTVSPropertyOp2
 70
     1
102
RTVSPropertyOp3
 70
     1
102
RTVSPropertyOp4
 70
     1
102
RTVSPropertyOp5
 70
     1
102
RTVSPropertyOp6
 70
     1
102
RTVSPropertyOp7
 70
     1
102
RTVSPropertyOp8
 70
     1
102
RTVSPropertyOp9
 70
     1
102
RTVSPropertyOp10
 70
     1
102
RTVSPropertyOp11
 70
     1
102
RTVSPropertyOp12
 70
     1
102
RTVSPropertyOp13
 70
     1
102
RTVSPropertyOp14
 70
     1
102
RTVSPropertyOp15
 70
     1
102
RTVSPropertyOp16
 70
     1
102
RTVSPropertyOp17
 70
     1
102
RTVSPropertyOp18
 70
     1
102
RTVSPropertyOp19
 70
     1
102
RTVSPropertyOp20
 70
     1
102
RTVSPropertyOp21
 70
     1
102
RTVSPropertyOp22
 70
     1
102
RTVSPropertyOp23
 70
     1
102
RTVSPropertyOp24
 70
     1
102
RTVSPropertyOp25
 70
     1
102
RTVSPropertyOp26
 70
     1
102
RTVSPropertyOp27
 70
     1
102
RTVSPropertyOp28
 70
     1
102
RTVSPropertyOp29
 70
     1
102
RTVSPropertyOp30
 70
     1
102
RTVSPropertyOp31
 70
     1
102
RTVSPropertyOp32
 70
     1
102
RTVSPropertyOp33
 70
     1
102
RTVSPropertyOp34
 70
     1
102
RTVSPropertyOp35
 70
     1
102
RTVSPropertyOp36
 70
     1
102
RTVSPropertyOp37
 70
     1
102
RTVSPropertyOp38
 70
     1
102
RTVSPropertyOp39
 70
     1
102
RTVSPropertyOp40
 70
     1
102
RTVSPropertyOp41
 70
     1
102
RTVSPropertyOp42
 70
     1
102
RTVSPropertyOp43
 70
     1
102
RTVSPropertyOp44
 70
     1
102
RTVSPropertyOp45
 70
     1
102
RTVSPropertyOp46
 70
     1
102
RTVSPropertyOp47
 70
     1
102
RTVSPropertyOp48
 70
     1
102
RTVSPropertyOp49
 70
     1
102
RTVSPropertyOp50
 70
     1
102
RTVSPropertyOp51
 70
     0
102
RTVSPropertyOp52
 70
     0
102
RTVSPropertyOp53
 70
     1
102
RTVSPropertyOp54
 70
     1
102
RTVSPropertyOp55
 70
     1
102
RTVSPropertyOp56
 70
     1
102
RTVSPropertyOp57
 70
     1
102
RTVSPropertyOp58
 70
     1
102
RTVSPropertyOp59
 70
     1
102
RTVSPropertyOp60
 70
     1
102
RTVSPropertyOp61
 70
     1
102
RTVSPropertyOp62
 70
     1
  0
XRECORD
  5
1A7F
102
{ACAD_REACTORS
330
1A7E
102
}
330
1A7E
100
AcDbXrecord
280
     1
102
RTVSPost2010Prop28
280
     0
102
RTVSPost2010PropOp28
 70
     1
102
RTVSPost2010Prop29
280
     1
102
RTVSPost2010PropOp29
 70
     1
102
RTVSPost2010Prop30
280
     1
102
RTVSPost2010PropOp30
 70
     1
102
RTVSPost2010Prop31
280
     0
102
RTVSPost2010PropOp31
 70
     1
102
RTVSPost2010Prop32
280
     0
102
RTVSPost2010PropOp32
 70
     1
102
RTVSPost2010Prop33
280
     0
102
RTVSPost2010PropOp33
 70
     1
102
RTVSPost2010Prop34
280
     0
102
RTVSPost2010PropOp34
 70
     1
102
RTVSPost2010Prop35
280
     0
102
RTVSPost2010PropOp35
 70
     1
102
RTVSPost2010Prop36
280
     0
102
RTVSPost2010PropOp36
 70
     1
102
RTVSPost2010Prop37
 90
       50
102
RTVSPost2010PropOp37
 70
     1
102
RTVSPost2010Prop38
140
0.0
102
RTVSPost2010PropOp38
 70
     1
102
RTVSPost2010Prop39
140
1.0
102
RTVSPost2010PropOp39
 70
     1
102
RTVSPost2010Prop40
 90
        0
102
RTVSPost2010PropOp40
 70
     1
102
RTVSPost2010Prop41ColorIndex
 90
       18
102
RTVSPost2010Prop41ColorRGB
 90
        0
102
RTVSPost2010PropOp41
 70
     1
102
RTVSPost2010Prop42
 90
       50
102
RTVSPost2010PropOp42
 70
     1
102
RTVSPost2010Prop43
 90
        3
102
RTVSPost2010PropOp43
 70
     1
102
RTVSPost2010Prop44ColorIndex
 90
        5
102
RTVSPost2010Prop44ColorRGB
 90
      255
102
RTVSPost2010PropOp44
 70
     1
102
RTVSPost2010Prop45
280
     0
102
RTVSPost2010PropOp45
 70
     1
102
RTVSPost2010Prop46
 90
       50
102
RTVSPost2010PropOp46
 70
     1
102
RTVSPost2010Prop47
 90
       50
102
RTVSPost2010PropOp47
 70
     1
102
RTVSPost2010Prop48
 90
       50
102
RTVSPost2010PropOp48
 70
     1
102
RTVSPost2010Prop49
280
     0
102
RTVSPost2010PropOp49
 70
     1
102
RTVSPost2010Prop50
 90
       50
102
RTVSPost2010PropOp50
 70
     1
102
RTVSPost2010Prop51ColorIndex
 90
      256
102
RTVSPost2010Prop51ColorRGB
 90
-16777216
102
RTVSPost2010PropOp51
 70
     0
102
RTVSPost2010Prop52
140
1.0
102
RTVSPost2010PropOp52
 70
     0
102
RTVSPost2010Prop53
 90
        2
102
RTVSPost2010PropOp53
 70
     1
102
RTVSPost2010Prop54
  1
strokes_ogs.tif
102
RTVSPost2010PropOp54
 70
     1
102
RTVSPost2010Prop55
280
     0
102
RTVSPost2010PropOp55
 70
     1
102
RTVSPost2010Prop56
140
1.0
102
RTVSPost2010PropOp56
 70
     1
102
RTVSPost2010Prop57
140
1.0
102
RTVSPost2010PropOp57
 70
     1
102
RTVSPropertyOp0
 70
     1
102
RTVSPropertyOp1
 70
     1
102
RTVSPropertyOp2
 70
     1
102
RTVSPropertyOp3
 70
     1
102
RTVSPropertyOp4
 70
     1
102
RTVSPropertyOp5
 70
     1
102
RTVSPropertyOp6
 70
     1
102
RTVSPropertyOp7
 70
     1
102
RTVSPropertyOp8
 70
     1
102
RTVSPropertyOp9
 70
     1
102
RTVSPropertyOp10
 70
     1
102
RTVSPropertyOp11
 70
     1
102
RTVSPropertyOp12
 70
     1
102
RTVSPropertyOp13
 70
     1
102
RTVSPropertyOp14
 70
     1
102
RTVSPropertyOp15
 70
     1
102
RTVSPropertyOp16
 70
     1
102
RTVSPropertyOp17
 70
     1
102
RTVSPropertyOp18
 70
     1
102
RTVSPropertyOp19
 70
     1
102
RTVSPropertyOp20
 70
     1
102
RTVSPropertyOp21
 70
     1
102
RTVSPropertyOp22
 70
     1
102
RTVSPropertyOp23
 70
     1
102
RTVSPropertyOp24
 70
     1
102
RTVSPropertyOp25
 70
     1
102
RTVSPropertyOp26
 70
     1
102
RTVSPropertyOp27
 70
     1
102
RTVSPropertyOp28
 70
     1
102
RTVSPropertyOp29
 70
     1
102
RTVSPropertyOp30
 70
     1
102
RTVSPropertyOp31
 70
     1
102
RTVSPropertyOp32
 70
     1
102
RTVSPropertyOp33
 70
     1
102
RTVSPropertyOp34
 70
     1
102
RTVSPropertyOp35
 70
     1
102
RTVSPropertyOp36
 70
     1
102
RTVSPropertyOp37
 70
     1
102
RTVSPropertyOp38
 70
     1
102
RTVSPropertyOp39
 70
     1
102
RTVSPropertyOp40
 70
     1
102
RTVSPropertyOp41
 70
     1
102
RTVSPropertyOp42
 70
     1
102
RTVSPropertyOp43
 70
     1
102
RTVSPropertyOp44
 70
     1
102
RTVSPropertyOp45
 70
     1
102
RTVSPropertyOp46
 70
     1
102
RTVSPropertyOp47
 70
     1
102
RTVSPropertyOp48
 70
     1
102
RTVSPropertyOp49
 70
     1
102
RTVSPropertyOp50
 70
     1
102
RTVSPropertyOp51
 70
     0
102
RTVSPropertyOp52
 70
     0
102
RTVSPropertyOp53
 70
     1
102
RTVSPropertyOp54
 70
     1
102
RTVSPropertyOp55
 70
     1
102
RTVSPropertyOp56
 70
     1
102
RTVSPropertyOp57
 70
     1
102
RTVSPropertyOp58
 70
     1
102
RTVSPropertyOp59
 70
     1
102
RTVSPropertyOp60
 70
     1
102
RTVSPropertyOp61
 70
     1
102
RTVSPropertyOp62
 70
     1
  0
XRECORD
  5
1A87
102
{ACAD_REACTORS
330
1A86
102
}
330
1A86
100
AcDbXrecord
280
     1
102
RTVSPost2010Prop28
280
     0
102
RTVSPost2010PropOp28
 70
     1
102
RTVSPost2010Prop29
280
     1
102
RTVSPost2010PropOp29
 70
     1
102
RTVSPost2010Prop30
280
     1
102
RTVSPost2010PropOp30
 70
     1
102
RTVSPost2010Prop31
280
     0
102
RTVSPost2010PropOp31
 70
     1
102
RTVSPost2010Prop32
280
     0
102
RTVSPost2010PropOp32
 70
     1
102
RTVSPost2010Prop33
280
     0
102
RTVSPost2010PropOp33
 70
     1
102
RTVSPost2010Prop34
280
     0
102
RTVSPost2010PropOp34
 70
     1
102
RTVSPost2010Prop35
280
     0
102
RTVSPost2010PropOp35
 70
     1
102
RTVSPost2010Prop36
280
     0
102
RTVSPost2010PropOp36
 70
     1
102
RTVSPost2010Prop37
 90
       50
102
RTVSPost2010PropOp37
 70
     1
102
RTVSPost2010Prop38
140
0.0
102
RTVSPost2010PropOp38
 70
     1
102
RTVSPost2010Prop39
140
1.0
102
RTVSPost2010PropOp39
 70
     1
102
RTVSPost2010Prop40
 90
        0
102
RTVSPost2010PropOp40
 70
     1
102
RTVSPost2010Prop41ColorIndex
 90
       18
102
RTVSPost2010Prop41ColorRGB
 90
        0
102
RTVSPost2010PropOp41
 70
     1
102
RTVSPost2010Prop42
 90
       50
102
RTVSPost2010PropOp42
 70
     1
102
RTVSPost2010Prop43
 90
        3
102
RTVSPost2010PropOp43
 70
     1
102
RTVSPost2010Prop44ColorIndex
 90
        5
102
RTVSPost2010Prop44ColorRGB
 90
      255
102
RTVSPost2010PropOp44
 70
     1
102
RTVSPost2010Prop45
280
     0
102
RTVSPost2010PropOp45
 70
     1
102
RTVSPost2010Prop46
 90
       50
102
RTVSPost2010PropOp46
 70
     1
102
RTVSPost2010Prop47
 90
       50
102
RTVSPost2010PropOp47
 70
     1
102
RTVSPost2010Prop48
 90
       50
102
RTVSPost2010PropOp48
 70
     1
102
RTVSPost2010Prop49
280
     0
102
RTVSPost2010PropOp49
 70
     1
102
RTVSPost2010Prop50
 90
       50
102
RTVSPost2010PropOp50
 70
     1
102
RTVSPost2010Prop51ColorIndex
 90
      256
102
RTVSPost2010Prop51ColorRGB
 90
-16777216
102
RTVSPost2010PropOp51
 70
     0
102
RTVSPost2010Prop52
140
1.0
102
RTVSPost2010PropOp52
 70
     0
102
RTVSPost2010Prop53
 90
        2
102
RTVSPost2010PropOp53
 70
     1
102
RTVSPost2010Prop54
  1
strokes_ogs.tif
102
RTVSPost2010PropOp54
 70
     1
102
RTVSPost2010Prop55
280
     0
102
RTVSPost2010PropOp55
 70
     1
102
RTVSPost2010Prop56
140
1.0
102
RTVSPost2010PropOp56
 70
     1
102
RTVSPost2010Prop57
140
1.0
102
RTVSPost2010PropOp57
 70
     1
102
RTVSPropertyOp0
 70
     1
102
RTVSPropertyOp1
 70
     1
102
RTVSPropertyOp2
 70
     1
102
RTVSPropertyOp3
 70
     1
102
RTVSPropertyOp4
 70
     1
102
RTVSPropertyOp5
 70
     1
102
RTVSPropertyOp6
 70
     1
102
RTVSPropertyOp7
 70
     1
102
RTVSPropertyOp8
 70
     1
102
RTVSPropertyOp9
 70
     1
102
RTVSPropertyOp10
 70
     1
102
RTVSPropertyOp11
 70
     1
102
RTVSPropertyOp12
 70
     1
102
RTVSPropertyOp13
 70
     1
102
RTVSPropertyOp14
 70
     1
102
RTVSPropertyOp15
 70
     1
102
RTVSPropertyOp16
 70
     1
102
RTVSPropertyOp17
 70
     1
102
RTVSPropertyOp18
 70
     1
102
RTVSPropertyOp19
 70
     1
102
RTVSPropertyOp20
 70
     1
102
RTVSPropertyOp21
 70
     1
102
RTVSPropertyOp22
 70
     1
102
RTVSPropertyOp23
 70
     1
102
RTVSPropertyOp24
 70
     1
102
RTVSPropertyOp25
 70
     1
102
RTVSPropertyOp26
 70
     1
102
RTVSPropertyOp27
 70
     1
102
RTVSPropertyOp28
 70
     1
102
RTVSPropertyOp29
 70
     1
102
RTVSPropertyOp30
 70
     1
102
RTVSPropertyOp31
 70
     1
102
RTVSPropertyOp32
 70
     1
102
RTVSPropertyOp33
 70
     1
102
RTVSPropertyOp34
 70
     1
102
RTVSPropertyOp35
 70
     1
102
RTVSPropertyOp36
 70
     1
102
RTVSPropertyOp37
 70
     1
102
RTVSPropertyOp38
 70
     1
102
RTVSPropertyOp39
 70
     1
102
RTVSPropertyOp40
 70
     1
102
RTVSPropertyOp41
 70
     1
102
RTVSPropertyOp42
 70
     1
102
RTVSPropertyOp43
 70
     1
102
RTVSPropertyOp44
 70
     1
102
RTVSPropertyOp45
 70
     1
102
RTVSPropertyOp46
 70
     1
102
RTVSPropertyOp47
 70
     1
102
RTVSPropertyOp48
 70
     1
102
RTVSPropertyOp49
 70
     1
102
RTVSPropertyOp50
 70
     1
102
RTVSPropertyOp51
 70
     0
102
RTVSPropertyOp52
 70
     0
102
RTVSPropertyOp53
 70
     1
102
RTVSPropertyOp54
 70
     1
102
RTVSPropertyOp55
 70
     1
102
RTVSPropertyOp56
 70
     1
102
RTVSPropertyOp57
 70
     1
102
RTVSPropertyOp58
 70
     1
102
RTVSPropertyOp59
 70
     1
102
RTVSPropertyOp60
 70
     1
102
RTVSPropertyOp61
 70
     1
102
RTVSPropertyOp62
 70
     1
  0
XRECORD
  5
1AA3
102
{ACAD_REACTORS
330
1AA2
102
}
330
1AA2
100
AcDbXrecord
280
     1
102
RTVSPost2010Prop28
280
     0
102
RTVSPost2010PropOp28
 70
     1
102
RTVSPost2010Prop29
280
     1
102
RTVSPost2010PropOp29
 70
     1
102
RTVSPost2010Prop30
280
     1
102
RTVSPost2010PropOp30
 70
     1
102
RTVSPost2010Prop31
280
     0
102
RTVSPost2010PropOp31
 70
     1
102
RTVSPost2010Prop32
280
     0
102
RTVSPost2010PropOp32
 70
     1
102
RTVSPost2010Prop33
280
     0
102
RTVSPost2010PropOp33
 70
     1
102
RTVSPost2010Prop34
280
     0
102
RTVSPost2010PropOp34
 70
     1
102
RTVSPost2010Prop35
280
     0
102
RTVSPost2010PropOp35
 70
     1
102
RTVSPost2010Prop36
280
     0
102
RTVSPost2010PropOp36
 70
     1
102
RTVSPost2010Prop37
 90
       50
102
RTVSPost2010PropOp37
 70
     0
102
RTVSPost2010Prop38
140
0.0
102
RTVSPost2010PropOp38
 70
     0
102
RTVSPost2010Prop39
140
1.0
102
RTVSPost2010PropOp39
 70
     0
102
RTVSPost2010Prop40
 90
        0
102
RTVSPost2010PropOp40
 70
     0
102
RTVSPost2010Prop41ColorIndex
 90
       18
102
RTVSPost2010Prop41ColorRGB
 90
        0
102
RTVSPost2010PropOp41
 70
     0
102
RTVSPost2010Prop42
 90
       50
102
RTVSPost2010PropOp42
 70
     0
102
RTVSPost2010Prop43
 90
        3
102
RTVSPost2010PropOp43
 70
     0
102
RTVSPost2010Prop44ColorIndex
 90
        5
102
RTVSPost2010Prop44ColorRGB
 90
      255
102
RTVSPost2010PropOp44
 70
     0
102
RTVSPost2010Prop45
280
     0
102
RTVSPost2010PropOp45
 70
     1
102
RTVSPost2010Prop46
 90
       50
102
RTVSPost2010PropOp46
 70
     0
102
RTVSPost2010Prop47
 90
       50
102
RTVSPost2010PropOp47
 70
     0
102
RTVSPost2010Prop48
 90
       50
102
RTVSPost2010PropOp48
 70
     0
102
RTVSPost2010Prop49
280
     0
102
RTVSPost2010PropOp49
 70
     1
102
RTVSPost2010Prop50
 90
       50
102
RTVSPost2010PropOp50
 70
     0
102
RTVSPost2010Prop51ColorIndex
 90
      256
102
RTVSPost2010Prop51ColorRGB
 90
-16777216
102
RTVSPost2010PropOp51
 70
     0
102
RTVSPost2010Prop52
140
1.0
102
RTVSPost2010PropOp52
 70
     0
102
RTVSPost2010Prop53
 90
        2
102
RTVSPost2010PropOp53
 70
     0
102
RTVSPost2010Prop54
  1
strokes_ogs.tif
102
RTVSPost2010PropOp54
 70
     0
102
RTVSPost2010Prop55
280
     0
102
RTVSPost2010PropOp55
 70
     1
102
RTVSPost2010Prop56
140
1.0
102
RTVSPost2010PropOp56
 70
     0
102
RTVSPost2010Prop57
140
1.0
102
RTVSPost2010PropOp57
 70
     0
102
RTVSPropertyOp0
 70
     0
102
RTVSPropertyOp1
 70
     0
102
RTVSPropertyOp2
 70
     0
102
RTVSPropertyOp3
 70
     0
102
RTVSPropertyOp4
 70
     0
102
RTVSPropertyOp5
 70
     0
102
RTVSPropertyOp6
 70
     0
102
RTVSPropertyOp7
 70
     0
102
RTVSPropertyOp8
 70
     0
102
RTVSPropertyOp9
 70
     0
102
RTVSPropertyOp10
 70
     0
102
RTVSPropertyOp11
 70
     0
102
RTVSPropertyOp12
 70
     0
102
RTVSPropertyOp13
 70
     0
102
RTVSPropertyOp14
 70
     2
102
RTVSPropertyOp15
 70
     0
102
RTVSPropertyOp16
 70
     0
102
RTVSPropertyOp17
 70
     0
102
RTVSPropertyOp18
 70
     0
102
RTVSPropertyOp19
 70
     0
102
RTVSPropertyOp20
 70
     0
102
RTVSPropertyOp21
 70
     0
102
RTVSPropertyOp22
 70
     0
102
RTVSPropertyOp23
 70
     0
102
RTVSPropertyOp24
 70
     0
102
RTVSPropertyOp25
 70
     0
102
RTVSPropertyOp26
 70
     0
102
RTVSPropertyOp27
 70
     0
102
RTVSPropertyOp28
 70
     1
102
RTVSPropertyOp29
 70
     1
102
RTVSPropertyOp30
 70
     1
102
RTVSPropertyOp31
 70
     1
102
RTVSPropertyOp32
 70
     1
102
RTVSPropertyOp33
 70
     1
102
RTVSPropertyOp34
 70
     1
102
RTVSPropertyOp35
 70
     1
102
RTVSPropertyOp36
 70
     1
102
RTVSPropertyOp37
 70
     0
102
RTVSPropertyOp38
 70
     0
102
RTVSPropertyOp39
 70
     0
102
RTVSPropertyOp40
 70
     0
102
RTVSPropertyOp41
 70
     0
102
RTVSPropertyOp42
 70
     0
102
RTVSPropertyOp43
 70
     0
102
RTVSPropertyOp44
 70
     0
102
RTVSPropertyOp45
 70
     1
102
RTVSPropertyOp46
 70
     0
102
RTVSPropertyOp47
 70
     0
102
RTVSPropertyOp48
 70
     0
102
RTVSPropertyOp49
 70
     1
102
RTVSPropertyOp50
 70
     0
102
RTVSPropertyOp51
 70
     0
102
RTVSPropertyOp52
 70
     0
102
RTVSPropertyOp53
 70
     0
102
RTVSPropertyOp54
 70
     0
102
RTVSPropertyOp55
 70
     1
102
RTVSPropertyOp56
 70
     0
102
RTVSPropertyOp57
 70
     0
102
RTVSPropertyOp58
 70
     0
102
RTVSPropertyOp59
 70
     0
102
RTVSPropertyOp60
 70
     0
102
RTVSPropertyOp61
 70
     0
102
RTVSPropertyOp62
 70
     0
  0
XRECORD
  5
1A93
102
{ACAD_REACTORS
330
1A92
102
}
330
1A92
100
AcDbXrecord
280
     1
102
RTVSPost2010Prop28
280
     0
102
RTVSPost2010PropOp28
 70
     1
102
RTVSPost2010Prop29
280
     1
102
RTVSPost2010PropOp29
 70
     1
102
RTVSPost2010Prop30
280
     1
102
RTVSPost2010PropOp30
 70
     1
102
RTVSPost2010Prop31
280
     0
102
RTVSPost2010PropOp31
 70
     1
102
RTVSPost2010Prop32
280
     0
102
RTVSPost2010PropOp32
 70
     1
102
RTVSPost2010Prop33
280
     0
102
RTVSPost2010PropOp33
 70
     1
102
RTVSPost2010Prop34
280
     0
102
RTVSPost2010PropOp34
 70
     1
102
RTVSPost2010Prop35
280
     0
102
RTVSPost2010PropOp35
 70
     1
102
RTVSPost2010Prop36
280
     0
102
RTVSPost2010PropOp36
 70
     1
102
RTVSPost2010Prop37
 90
       50
102
RTVSPost2010PropOp37
 70
     1
102
RTVSPost2010Prop38
140
0.0
102
RTVSPost2010PropOp38
 70
     1
102
RTVSPost2010Prop39
140
1.0
102
RTVSPost2010PropOp39
 70
     1
102
RTVSPost2010Prop40
 90
        0
102
RTVSPost2010PropOp40
 70
     1
102
RTVSPost2010Prop41ColorIndex
 90
       18
102
RTVSPost2010Prop41ColorRGB
 90
        0
102
RTVSPost2010PropOp41
 70
     1
102
RTVSPost2010Prop42
 90
       50
102
RTVSPost2010PropOp42
 70
     1
102
RTVSPost2010Prop43
 90
        3
102
RTVSPost2010PropOp43
 70
     1
102
RTVSPost2010Prop44ColorIndex
 90
        5
102
RTVSPost2010Prop44ColorRGB
 90
      255
102
RTVSPost2010PropOp44
 70
     1
102
RTVSPost2010Prop45
280
     0
102
RTVSPost2010PropOp45
 70
     1
102
RTVSPost2010Prop46
 90
       50
102
RTVSPost2010PropOp46
 70
     1
102
RTVSPost2010Prop47
 90
       50
102
RTVSPost2010PropOp47
 70
     1
102
RTVSPost2010Prop48
 90
       50
102
RTVSPost2010PropOp48
 70
     1
102
RTVSPost2010Prop49
280
     0
102
RTVSPost2010PropOp49
 70
     1
102
RTVSPost2010Prop50
 90
       50
102
RTVSPost2010PropOp50
 70
     1
102
RTVSPost2010Prop51ColorIndex
 90
      256
102
RTVSPost2010Prop51ColorRGB
 90
-16777216
102
RTVSPost2010PropOp51
 70
     0
102
RTVSPost2010Prop52
140
1.0
102
RTVSPost2010PropOp52
 70
     0
102
RTVSPost2010Prop53
 90
        2
102
RTVSPost2010PropOp53
 70
     1
102
RTVSPost2010Prop54
  1
strokes_ogs.tif
102
RTVSPost2010PropOp54
 70
     1
102
RTVSPost2010Prop55
280
     0
102
RTVSPost2010PropOp55
 70
     1
102
RTVSPost2010Prop56
140
1.0
102
RTVSPost2010PropOp56
 70
     1
102
RTVSPost2010Prop57
140
1.0
102
RTVSPost2010PropOp57
 70
     1
102
RTVSPropertyOp0
 70
     1
102
RTVSPropertyOp1
 70
     1
102
RTVSPropertyOp2
 70
     1
102
RTVSPropertyOp3
 70
     1
102
RTVSPropertyOp4
 70
     1
102
RTVSPropertyOp5
 70
     1
102
RTVSPropertyOp6
 70
     1
102
RTVSPropertyOp7
 70
     1
102
RTVSPropertyOp8
 70
     1
102
RTVSPropertyOp9
 70
     1
102
RTVSPropertyOp10
 70
     1
102
RTVSPropertyOp11
 70
     1
102
RTVSPropertyOp12
 70
     1
102
RTVSPropertyOp13
 70
     1
102
RTVSPropertyOp14
 70
     1
102
RTVSPropertyOp15
 70
     1
102
RTVSPropertyOp16
 70
     1
102
RTVSPropertyOp17
 70
     1
102
RTVSPropertyOp18
 70
     1
102
RTVSPropertyOp19
 70
     1
102
RTVSPropertyOp20
 70
     1
102
RTVSPropertyOp21
 70
     1
102
RTVSPropertyOp22
 70
     1
102
RTVSPropertyOp23
 70
     1
102
RTVSPropertyOp24
 70
     1
102
RTVSPropertyOp25
 70
     1
102
RTVSPropertyOp26
 70
     1
102
RTVSPropertyOp27
 70
     1
102
RTVSPropertyOp28
 70
     1
102
RTVSPropertyOp29
 70
     1
102
RTVSPropertyOp30
 70
     1
102
RTVSPropertyOp31
 70
     1
102
RTVSPropertyOp32
 70
     1
102
RTVSPropertyOp33
 70
     1
102
RTVSPropertyOp34
 70
     1
102
RTVSPropertyOp35
 70
     1
102
RTVSPropertyOp36
 70
     1
102
RTVSPropertyOp37
 70
     1
102
RTVSPropertyOp38
 70
     1
102
RTVSPropertyOp39
 70
     1
102
RTVSPropertyOp40
 70
     1
102
RTVSPropertyOp41
 70
     1
102
RTVSPropertyOp42
 70
     1
102
RTVSPropertyOp43
 70
     1
102
RTVSPropertyOp44
 70
     1
102
RTVSPropertyOp45
 70
     1
102
RTVSPropertyOp46
 70
     1
102
RTVSPropertyOp47
 70
     1
102
RTVSPropertyOp48
 70
     1
102
RTVSPropertyOp49
 70
     1
102
RTVSPropertyOp50
 70
     1
102
RTVSPropertyOp51
 70
     0
102
RTVSPropertyOp52
 70
     0
102
RTVSPropertyOp53
 70
     1
102
RTVSPropertyOp54
 70
     1
102
RTVSPropertyOp55
 70
     1
102
RTVSPropertyOp56
 70
     1
102
RTVSPropertyOp57
 70
     1
102
RTVSPropertyOp58
 70
     1
102
RTVSPropertyOp59
 70
     1
102
RTVSPropertyOp60
 70
     1
102
RTVSPropertyOp61
 70
     1
102
RTVSPropertyOp62
 70
     1
  0
XRECORD
  5
1AA5
102
{ACAD_REACTORS
330
1AA4
102
}
330
1AA4
100
AcDbXrecord
280
     1
102
RTVSPost2010Prop28
280
     0
102
RTVSPost2010PropOp28
 70
     1
102
RTVSPost2010Prop29
280
     1
102
RTVSPost2010PropOp29
 70
     1
102
RTVSPost2010Prop30
280
     1
102
RTVSPost2010PropOp30
 70
     1
102
RTVSPost2010Prop31
280
     0
102
RTVSPost2010PropOp31
 70
     1
102
RTVSPost2010Prop32
280
     0
102
RTVSPost2010PropOp32
 70
     1
102
RTVSPost2010Prop33
280
     0
102
RTVSPost2010PropOp33
 70
     1
102
RTVSPost2010Prop34
280
     0
102
RTVSPost2010PropOp34
 70
     1
102
RTVSPost2010Prop35
280
     0
102
RTVSPost2010PropOp35
 70
     1
102
RTVSPost2010Prop36
280
     0
102
RTVSPost2010PropOp36
 70
     1
102
RTVSPost2010Prop37
 90
       50
102
RTVSPost2010PropOp37
 70
     0
102
RTVSPost2010Prop38
140
0.0
102
RTVSPost2010PropOp38
 70
     0
102
RTVSPost2010Prop39
140
1.0
102
RTVSPost2010PropOp39
 70
     0
102
RTVSPost2010Prop40
 90
        0
102
RTVSPost2010PropOp40
 70
     0
102
RTVSPost2010Prop41ColorIndex
 90
       18
102
RTVSPost2010Prop41ColorRGB
 90
        0
102
RTVSPost2010PropOp41
 70
     0
102
RTVSPost2010Prop42
 90
       50
102
RTVSPost2010PropOp42
 70
     0
102
RTVSPost2010Prop43
 90
        3
102
RTVSPost2010PropOp43
 70
     0
102
RTVSPost2010Prop44ColorIndex
 90
        5
102
RTVSPost2010Prop44ColorRGB
 90
      255
102
RTVSPost2010PropOp44
 70
     0
102
RTVSPost2010Prop45
280
     0
102
RTVSPost2010PropOp45
 70
     1
102
RTVSPost2010Prop46
 90
       50
102
RTVSPost2010PropOp46
 70
     0
102
RTVSPost2010Prop47
 90
       50
102
RTVSPost2010PropOp47
 70
     0
102
RTVSPost2010Prop48
 90
       50
102
RTVSPost2010PropOp48
 70
     0
102
RTVSPost2010Prop49
280
     0
102
RTVSPost2010PropOp49
 70
     1
102
RTVSPost2010Prop50
 90
       50
102
RTVSPost2010PropOp50
 70
     0
102
RTVSPost2010Prop51ColorIndex
 90
      256
102
RTVSPost2010Prop51ColorRGB
 90
-16777216
102
RTVSPost2010PropOp51
 70
     0
102
RTVSPost2010Prop52
140
1.0
102
RTVSPost2010PropOp52
 70
     0
102
RTVSPost2010Prop53
 90
        2
102
RTVSPost2010PropOp53
 70
     0
102
RTVSPost2010Prop54
  1
strokes_ogs.tif
102
RTVSPost2010PropOp54
 70
     0
102
RTVSPost2010Prop55
280
     0
102
RTVSPost2010PropOp55
 70
     1
102
RTVSPost2010Prop56
140
1.0
102
RTVSPost2010PropOp56
 70
     0
102
RTVSPost2010Prop57
140
1.0
102
RTVSPost2010PropOp57
 70
     0
102
RTVSPropertyOp0
 70
     0
102
RTVSPropertyOp1
 70
     0
102
RTVSPropertyOp2
 70
     0
102
RTVSPropertyOp3
 70
     0
102
RTVSPropertyOp4
 70
     0
102
RTVSPropertyOp5
 70
     0
102
RTVSPropertyOp6
 70
     0
102
RTVSPropertyOp7
 70
     0
102
RTVSPropertyOp8
 70
     0
102
RTVSPropertyOp9
 70
     0
102
RTVSPropertyOp10
 70
     0
102
RTVSPropertyOp11
 70
     0
102
RTVSPropertyOp12
 70
     0
102
RTVSPropertyOp13
 70
     0
102
RTVSPropertyOp14
 70
     2
102
RTVSPropertyOp15
 70
     0
102
RTVSPropertyOp16
 70
     0
102
RTVSPropertyOp17
 70
     0
102
RTVSPropertyOp18
 70
     0
102
RTVSPropertyOp19
 70
     0
102
RTVSPropertyOp20
 70
     0
102
RTVSPropertyOp21
 70
     0
102
RTVSPropertyOp22
 70
     0
102
RTVSPropertyOp23
 70
     0
102
RTVSPropertyOp24
 70
     0
102
RTVSPropertyOp25
 70
     0
102
RTVSPropertyOp26
 70
     0
102
RTVSPropertyOp27
 70
     0
102
RTVSPropertyOp28
 70
     1
102
RTVSPropertyOp29
 70
     1
102
RTVSPropertyOp30
 70
     1
102
RTVSPropertyOp31
 70
     1
102
RTVSPropertyOp32
 70
     1
102
RTVSPropertyOp33
 70
     1
102
RTVSPropertyOp34
 70
     1
102
RTVSPropertyOp35
 70
     1
102
RTVSPropertyOp36
 70
     1
102
RTVSPropertyOp37
 70
     0
102
RTVSPropertyOp38
 70
     0
102
RTVSPropertyOp39
 70
     0
102
RTVSPropertyOp40
 70
     0
102
RTVSPropertyOp41
 70
     0
102
RTVSPropertyOp42
 70
     0
102
RTVSPropertyOp43
 70
     0
102
RTVSPropertyOp44
 70
     0
102
RTVSPropertyOp45
 70
     1
102
RTVSPropertyOp46
 70
     0
102
RTVSPropertyOp47
 70
     0
102
RTVSPropertyOp48
 70
     0
102
RTVSPropertyOp49
 70
     1
102
RTVSPropertyOp50
 70
     0
102
RTVSPropertyOp51
 70
     0
102
RTVSPropertyOp52
 70
     0
102
RTVSPropertyOp53
 70
     0
102
RTVSPropertyOp54
 70
     0
102
RTVSPropertyOp55
 70
     1
102
RTVSPropertyOp56
 70
     0
102
RTVSPropertyOp57
 70
     0
102
RTVSPropertyOp58
 70
     0
102
RTVSPropertyOp59
 70
     0
102
RTVSPropertyOp60
 70
     0
102
RTVSPropertyOp61
 70
     0
102
RTVSPropertyOp62
 70
     0
  0
XRECORD
  5
1A8B
102
{ACAD_REACTORS
330
1A8A
102
}
330
1A8A
100
AcDbXrecord
280
     1
102
RTVSPost2010Prop28
280
     0
102
RTVSPost2010PropOp28
 70
     1
102
RTVSPost2010Prop29
280
     1
102
RTVSPost2010PropOp29
 70
     1
102
RTVSPost2010Prop30
280
     1
102
RTVSPost2010PropOp30
 70
     1
102
RTVSPost2010Prop31
280
     0
102
RTVSPost2010PropOp31
 70
     1
102
RTVSPost2010Prop32
280
     0
102
RTVSPost2010PropOp32
 70
     1
102
RTVSPost2010Prop33
280
     0
102
RTVSPost2010PropOp33
 70
     1
102
RTVSPost2010Prop34
280
     0
102
RTVSPost2010PropOp34
 70
     1
102
RTVSPost2010Prop35
280
     0
102
RTVSPost2010PropOp35
 70
     1
102
RTVSPost2010Prop36
280
     0
102
RTVSPost2010PropOp36
 70
     1
102
RTVSPost2010Prop37
 90
       50
102
RTVSPost2010PropOp37
 70
     1
102
RTVSPost2010Prop38
140
0.0
102
RTVSPost2010PropOp38
 70
     1
102
RTVSPost2010Prop39
140
1.0
102
RTVSPost2010PropOp39
 70
     1
102
RTVSPost2010Prop40
 90
        0
102
RTVSPost2010PropOp40
 70
     1
102
RTVSPost2010Prop41ColorIndex
 90
       18
102
RTVSPost2010Prop41ColorRGB
 90
        0
102
RTVSPost2010PropOp41
 70
     1
102
RTVSPost2010Prop42
 90
       50
102
RTVSPost2010PropOp42
 70
     1
102
RTVSPost2010Prop43
 90
        3
102
RTVSPost2010PropOp43
 70
     1
102
RTVSPost2010Prop44ColorIndex
 90
        5
102
RTVSPost2010Prop44ColorRGB
 90
      255
102
RTVSPost2010PropOp44
 70
     1
102
RTVSPost2010Prop45
280
     0
102
RTVSPost2010PropOp45
 70
     1
102
RTVSPost2010Prop46
 90
       50
102
RTVSPost2010PropOp46
 70
     1
102
RTVSPost2010Prop47
 90
       50
102
RTVSPost2010PropOp47
 70
     1
102
RTVSPost2010Prop48
 90
       50
102
RTVSPost2010PropOp48
 70
     1
102
RTVSPost2010Prop49
280
     0
102
RTVSPost2010PropOp49
 70
     1
102
RTVSPost2010Prop50
 90
       50
102
RTVSPost2010PropOp50
 70
     1
102
RTVSPost2010Prop51ColorIndex
 90
      256
102
RTVSPost2010Prop51ColorRGB
 90
-16777216
102
RTVSPost2010PropOp51
 70
     0
102
RTVSPost2010Prop52
140
1.0
102
RTVSPost2010PropOp52
 70
     0
102
RTVSPost2010Prop53
 90
        2
102
RTVSPost2010PropOp53
 70
     1
102
RTVSPost2010Prop54
  1
strokes_ogs.tif
102
RTVSPost2010PropOp54
 70
     1
102
RTVSPost2010Prop55
280
     0
102
RTVSPost2010PropOp55
 70
     1
102
RTVSPost2010Prop56
140
1.0
102
RTVSPost2010PropOp56
 70
     1
102
RTVSPost2010Prop57
140
1.0
102
RTVSPost2010PropOp57
 70
     1
102
RTVSPropertyOp0
 70
     1
102
RTVSPropertyOp1
 70
     1
102
RTVSPropertyOp2
 70
     1
102
RTVSPropertyOp3
 70
     1
102
RTVSPropertyOp4
 70
     1
102
RTVSPropertyOp5
 70
     1
102
RTVSPropertyOp6
 70
     1
102
RTVSPropertyOp7
 70
     1
102
RTVSPropertyOp8
 70
     1
102
RTVSPropertyOp9
 70
     1
102
RTVSPropertyOp10
 70
     1
102
RTVSPropertyOp11
 70
     1
102
RTVSPropertyOp12
 70
     1
102
RTVSPropertyOp13
 70
     1
102
RTVSPropertyOp14
 70
     1
102
RTVSPropertyOp15
 70
     1
102
RTVSPropertyOp16
 70
     1
102
RTVSPropertyOp17
 70
     1
102
RTVSPropertyOp18
 70
     1
102
RTVSPropertyOp19
 70
     1
102
RTVSPropertyOp20
 70
     1
102
RTVSPropertyOp21
 70
     1
102
RTVSPropertyOp22
 70
     1
102
RTVSPropertyOp23
 70
     1
102
RTVSPropertyOp24
 70
     1
102
RTVSPropertyOp25
 70
     1
102
RTVSPropertyOp26
 70
     1
102
RTVSPropertyOp27
 70
     1
102
RTVSPropertyOp28
 70
     1
102
RTVSPropertyOp29
 70
     1
102
RTVSPropertyOp30
 70
     1
102
RTVSPropertyOp31
 70
     1
102
RTVSPropertyOp32
 70
     1
102
RTVSPropertyOp33
 70
     1
102
RTVSPropertyOp34
 70
     1
102
RTVSPropertyOp35
 70
     1
102
RTVSPropertyOp36
 70
     1
102
RTVSPropertyOp37
 70
     1
102
RTVSPropertyOp38
 70
     1
102
RTVSPropertyOp39
 70
     1
102
RTVSPropertyOp40
 70
     1
102
RTVSPropertyOp41
 70
     1
102
RTVSPropertyOp42
 70
     1
102
RTVSPropertyOp43
 70
     1
102
RTVSPropertyOp44
 70
     1
102
RTVSPropertyOp45
 70
     1
102
RTVSPropertyOp46
 70
     1
102
RTVSPropertyOp47
 70
     1
102
RTVSPropertyOp48
 70
     1
102
RTVSPropertyOp49
 70
     1
102
RTVSPropertyOp50
 70
     1
102
RTVSPropertyOp51
 70
     0
102
RTVSPropertyOp52
 70
     0
102
RTVSPropertyOp53
 70
     1
102
RTVSPropertyOp54
 70
     1
102
RTVSPropertyOp55
 70
     1
102
RTVSPropertyOp56
 70
     1
102
RTVSPropertyOp57
 70
     1
102
RTVSPropertyOp58
 70
     1
102
RTVSPropertyOp59
 70
     1
102
RTVSPropertyOp60
 70
     1
102
RTVSPropertyOp61
 70
     1
102
RTVSPropertyOp62
 70
     1
  0
XRECORD
  5
1AA1
102
{ACAD_REACTORS
330
1AA0
102
}
330
1AA0
100
AcDbXrecord
280
     1
102
RTVSPost2010Prop28
280
     0
102
RTVSPost2010PropOp28
 70
     1
102
RTVSPost2010Prop29
280
     1
102
RTVSPost2010PropOp29
 70
     1
102
RTVSPost2010Prop30
280
     1
102
RTVSPost2010PropOp30
 70
     1
102
RTVSPost2010Prop31
280
     0
102
RTVSPost2010PropOp31
 70
     1
102
RTVSPost2010Prop32
280
     0
102
RTVSPost2010PropOp32
 70
     1
102
RTVSPost2010Prop33
280
     0
102
RTVSPost2010PropOp33
 70
     1
102
RTVSPost2010Prop34
280
     0
102
RTVSPost2010PropOp34
 70
     1
102
RTVSPost2010Prop35
280
     0
102
RTVSPost2010PropOp35
 70
     1
102
RTVSPost2010Prop36
280
     0
102
RTVSPost2010PropOp36
 70
     1
102
RTVSPost2010Prop37
 90
       50
102
RTVSPost2010PropOp37
 70
     1
102
RTVSPost2010Prop38
140
0.0
102
RTVSPost2010PropOp38
 70
     1
102
RTVSPost2010Prop39
140
1.0
102
RTVSPost2010PropOp39
 70
     1
102
RTVSPost2010Prop40
 90
        0
102
RTVSPost2010PropOp40
 70
     1
102
RTVSPost2010Prop41ColorIndex
 90
       18
102
RTVSPost2010Prop41ColorRGB
 90
        0
102
RTVSPost2010PropOp41
 70
     1
102
RTVSPost2010Prop42
 90
       50
102
RTVSPost2010PropOp42
 70
     1
102
RTVSPost2010Prop43
 90
        3
102
RTVSPost2010PropOp43
 70
     1
102
RTVSPost2010Prop44ColorIndex
 90
        5
102
RTVSPost2010Prop44ColorRGB
 90
      255
102
RTVSPost2010PropOp44
 70
     1
102
RTVSPost2010Prop45
280
     0
102
RTVSPost2010PropOp45
 70
     1
102
RTVSPost2010Prop46
 90
       50
102
RTVSPost2010PropOp46
 70
     1
102
RTVSPost2010Prop47
 90
       50
102
RTVSPost2010PropOp47
 70
     1
102
RTVSPost2010Prop48
 90
       50
102
RTVSPost2010PropOp48
 70
     1
102
RTVSPost2010Prop49
280
     0
102
RTVSPost2010PropOp49
 70
     1
102
RTVSPost2010Prop50
 90
       50
102
RTVSPost2010PropOp50
 70
     1
102
RTVSPost2010Prop51ColorIndex
 90
      256
102
RTVSPost2010Prop51ColorRGB
 90
-16777216
102
RTVSPost2010PropOp51
 70
     0
102
RTVSPost2010Prop52
140
1.0
102
RTVSPost2010PropOp52
 70
     0
102
RTVSPost2010Prop53
 90
        2
102
RTVSPost2010PropOp53
 70
     1
102
RTVSPost2010Prop54
  1
strokes_ogs.tif
102
RTVSPost2010PropOp54
 70
     1
102
RTVSPost2010Prop55
280
     0
102
RTVSPost2010PropOp55
 70
     1
102
RTVSPost2010Prop56
140
1.0
102
RTVSPost2010PropOp56
 70
     1
102
RTVSPost2010Prop57
140
1.0
102
RTVSPost2010PropOp57
 70
     1
102
RTVSPropertyOp0
 70
     1
102
RTVSPropertyOp1
 70
     1
102
RTVSPropertyOp2
 70
     1
102
RTVSPropertyOp3
 70
     1
102
RTVSPropertyOp4
 70
     1
102
RTVSPropertyOp5
 70
     1
102
RTVSPropertyOp6
 70
     1
102
RTVSPropertyOp7
 70
     1
102
RTVSPropertyOp8
 70
     1
102
RTVSPropertyOp9
 70
     1
102
RTVSPropertyOp10
 70
     1
102
RTVSPropertyOp11
 70
     1
102
RTVSPropertyOp12
 70
     1
102
RTVSPropertyOp13
 70
     1
102
RTVSPropertyOp14
 70
     1
102
RTVSPropertyOp15
 70
     1
102
RTVSPropertyOp16
 70
     1
102
RTVSPropertyOp17
 70
     1
102
RTVSPropertyOp18
 70
     1
102
RTVSPropertyOp19
 70
     1
102
RTVSPropertyOp20
 70
     1
102
RTVSPropertyOp21
 70
     1
102
RTVSPropertyOp22
 70
     1
102
RTVSPropertyOp23
 70
     1
102
RTVSPropertyOp24
 70
     1
102
RTVSPropertyOp25
 70
     1
102
RTVSPropertyOp26
 70
     1
102
RTVSPropertyOp27
 70
     1
102
RTVSPropertyOp28
 70
     1
102
RTVSPropertyOp29
 70
     1
102
RTVSPropertyOp30
 70
     1
102
RTVSPropertyOp31
 70
     1
102
RTVSPropertyOp32
 70
     1
102
RTVSPropertyOp33
 70
     1
102
RTVSPropertyOp34
 70
     1
102
RTVSPropertyOp35
 70
     1
102
RTVSPropertyOp36
 70
     1
102
RTVSPropertyOp37
 70
     1
102
RTVSPropertyOp38
 70
     1
102
RTVSPropertyOp39
 70
     1
102
RTVSPropertyOp40
 70
     1
102
RTVSPropertyOp41
 70
     1
102
RTVSPropertyOp42
 70
     1
102
RTVSPropertyOp43
 70
     1
102
RTVSPropertyOp44
 70
     1
102
RTVSPropertyOp45
 70
     1
102
RTVSPropertyOp46
 70
     1
102
RTVSPropertyOp47
 70
     1
102
RTVSPropertyOp48
 70
     1
102
RTVSPropertyOp49
 70
     1
102
RTVSPropertyOp50
 70
     1
102
RTVSPropertyOp51
 70
     0
102
RTVSPropertyOp52
 70
     0
102
RTVSPropertyOp53
 70
     1
102
RTVSPropertyOp54
 70
     1
102
RTVSPropertyOp55
 70
     1
102
RTVSPropertyOp56
 70
     1
102
RTVSPropertyOp57
 70
     1
102
RTVSPropertyOp58
 70
     1
102
RTVSPropertyOp59
 70
     1
102
RTVSPropertyOp60
 70
     1
102
RTVSPropertyOp61
 70
     1
102
RTVSPropertyOp62
 70
     1
  0
XRECORD
  5
1A9F
102
{ACAD_REACTORS
330
1A9E
102
}
330
1A9E
100
AcDbXrecord
280
     1
102
RTVSPost2010Prop28
280
     0
102
RTVSPost2010PropOp28
 70
     1
102
RTVSPost2010Prop29
280
     1
102
RTVSPost2010PropOp29
 70
     1
102
RTVSPost2010Prop30
280
     1
102
RTVSPost2010PropOp30
 70
     1
102
RTVSPost2010Prop31
280
     0
102
RTVSPost2010PropOp31
 70
     1
102
RTVSPost2010Prop32
280
     0
102
RTVSPost2010PropOp32
 70
     1
102
RTVSPost2010Prop33
280
     0
102
RTVSPost2010PropOp33
 70
     1
102
RTVSPost2010Prop34
280
     0
102
RTVSPost2010PropOp34
 70
     1
102
RTVSPost2010Prop35
280
     0
102
RTVSPost2010PropOp35
 70
     1
102
RTVSPost2010Prop36
280
     0
102
RTVSPost2010PropOp36
 70
     1
102
RTVSPost2010Prop37
 90
       50
102
RTVSPost2010PropOp37
 70
     1
102
RTVSPost2010Prop38
140
0.0
102
RTVSPost2010PropOp38
 70
     1
102
RTVSPost2010Prop39
140
1.0
102
RTVSPost2010PropOp39
 70
     1
102
RTVSPost2010Prop40
 90
        0
102
RTVSPost2010PropOp40
 70
     1
102
RTVSPost2010Prop41ColorIndex
 90
       18
102
RTVSPost2010Prop41ColorRGB
 90
        0
102
RTVSPost2010PropOp41
 70
     1
102
RTVSPost2010Prop42
 90
       50
102
RTVSPost2010PropOp42
 70
     1
102
RTVSPost2010Prop43
 90
        3
102
RTVSPost2010PropOp43
 70
     1
102
RTVSPost2010Prop44ColorIndex
 90
        5
102
RTVSPost2010Prop44ColorRGB
 90
      255
102
RTVSPost2010PropOp44
 70
     1
102
RTVSPost2010Prop45
280
     0
102
RTVSPost2010PropOp45
 70
     1
102
RTVSPost2010Prop46
 90
       50
102
RTVSPost2010PropOp46
 70
     1
102
RTVSPost2010Prop47
 90
       50
102
RTVSPost2010PropOp47
 70
     1
102
RTVSPost2010Prop48
 90
       50
102
RTVSPost2010PropOp48
 70
     1
102
RTVSPost2010Prop49
280
     0
102
RTVSPost2010PropOp49
 70
     1
102
RTVSPost2010Prop50
 90
       50
102
RTVSPost2010PropOp50
 70
     1
102
RTVSPost2010Prop51ColorIndex
 90
      256
102
RTVSPost2010Prop51ColorRGB
 90
-16777216
102
RTVSPost2010PropOp51
 70
     0
102
RTVSPost2010Prop52
140
1.0
102
RTVSPost2010PropOp52
 70
     0
102
RTVSPost2010Prop53
 90
        2
102
RTVSPost2010PropOp53
 70
     1
102
RTVSPost2010Prop54
  1
strokes_ogs.tif
102
RTVSPost2010PropOp54
 70
     1
102
RTVSPost2010Prop55
280
     0
102
RTVSPost2010PropOp55
 70
     1
102
RTVSPost2010Prop56
140
1.0
102
RTVSPost2010PropOp56
 70
     1
102
RTVSPost2010Prop57
140
1.0
102
RTVSPost2010PropOp57
 70
     1
102
RTVSPropertyOp0
 70
     1
102
RTVSPropertyOp1
 70
     1
102
RTVSPropertyOp2
 70
     1
102
RTVSPropertyOp3
 70
     1
102
RTVSPropertyOp4
 70
     1
102
RTVSPropertyOp5
 70
     1
102
RTVSPropertyOp6
 70
     1
102
RTVSPropertyOp7
 70
     1
102
RTVSPropertyOp8
 70
     1
102
RTVSPropertyOp9
 70
     1
102
RTVSPropertyOp10
 70
     1
102
RTVSPropertyOp11
 70
     1
102
RTVSPropertyOp12
 70
     1
102
RTVSPropertyOp13
 70
     1
102
RTVSPropertyOp14
 70
     1
102
RTVSPropertyOp15
 70
     1
102
RTVSPropertyOp16
 70
     1
102
RTVSPropertyOp17
 70
     1
102
RTVSPropertyOp18
 70
     1
102
RTVSPropertyOp19
 70
     1
102
RTVSPropertyOp20
 70
     1
102
RTVSPropertyOp21
 70
     1
102
RTVSPropertyOp22
 70
     1
102
RTVSPropertyOp23
 70
     1
102
RTVSPropertyOp24
 70
     1
102
RTVSPropertyOp25
 70
     1
102
RTVSPropertyOp26
 70
     1
102
RTVSPropertyOp27
 70
     1
102
RTVSPropertyOp28
 70
     1
102
RTVSPropertyOp29
 70
     1
102
RTVSPropertyOp30
 70
     1
102
RTVSPropertyOp31
 70
     1
102
RTVSPropertyOp32
 70
     1
102
RTVSPropertyOp33
 70
     1
102
RTVSPropertyOp34
 70
     1
102
RTVSPropertyOp35
 70
     1
102
RTVSPropertyOp36
 70
     1
102
RTVSPropertyOp37
 70
     1
102
RTVSPropertyOp38
 70
     1
102
RTVSPropertyOp39
 70
     1
102
RTVSPropertyOp40
 70
     1
102
RTVSPropertyOp41
 70
     1
102
RTVSPropertyOp42
 70
     1
102
RTVSPropertyOp43
 70
     1
102
RTVSPropertyOp44
 70
     1
102
RTVSPropertyOp45
 70
     1
102
RTVSPropertyOp46
 70
     1
102
RTVSPropertyOp47
 70
     1
102
RTVSPropertyOp48
 70
     1
102
RTVSPropertyOp49
 70
     1
102
RTVSPropertyOp50
 70
     1
102
RTVSPropertyOp51
 70
     0
102
RTVSPropertyOp52
 70
     0
102
RTVSPropertyOp53
 70
     1
102
RTVSPropertyOp54
 70
     1
102
RTVSPropertyOp55
 70
     1
102
RTVSPropertyOp56
 70
     1
102
RTVSPropertyOp57
 70
     1
102
RTVSPropertyOp58
 70
     1
102
RTVSPropertyOp59
 70
     1
102
RTVSPropertyOp60
 70
     1
102
RTVSPropertyOp61
 70
     1
102
RTVSPropertyOp62
 70
     1
  0
XRECORD
  5
1A99
102
{ACAD_REACTORS
330
1A98
102
}
330
1A98
100
AcDbXrecord
280
     1
102
RTVSPost2010Prop28
280
     0
102
RTVSPost2010PropOp28
 70
     1
102
RTVSPost2010Prop29
280
     1
102
RTVSPost2010PropOp29
 70
     1
102
RTVSPost2010Prop30
280
     1
102
RTVSPost2010PropOp30
 70
     1
102
RTVSPost2010Prop31
280
     0
102
RTVSPost2010PropOp31
 70
     1
102
RTVSPost2010Prop32
280
     0
102
RTVSPost2010PropOp32
 70
     1
102
RTVSPost2010Prop33
280
     0
102
RTVSPost2010PropOp33
 70
     1
102
RTVSPost2010Prop34
280
     0
102
RTVSPost2010PropOp34
 70
     1
102
RTVSPost2010Prop35
280
     0
102
RTVSPost2010PropOp35
 70
     1
102
RTVSPost2010Prop36
280
     0
102
RTVSPost2010PropOp36
 70
     1
102
RTVSPost2010Prop37
 90
       50
102
RTVSPost2010PropOp37
 70
     1
102
RTVSPost2010Prop38
140
0.0
102
RTVSPost2010PropOp38
 70
     1
102
RTVSPost2010Prop39
140
1.0
102
RTVSPost2010PropOp39
 70
     1
102
RTVSPost2010Prop40
 90
        0
102
RTVSPost2010PropOp40
 70
     1
102
RTVSPost2010Prop41ColorIndex
 90
       18
102
RTVSPost2010Prop41ColorRGB
 90
        0
102
RTVSPost2010PropOp41
 70
     1
102
RTVSPost2010Prop42
 90
       50
102
RTVSPost2010PropOp42
 70
     1
102
RTVSPost2010Prop43
 90
        3
102
RTVSPost2010PropOp43
 70
     1
102
RTVSPost2010Prop44ColorIndex
 90
        5
102
RTVSPost2010Prop44ColorRGB
 90
      255
102
RTVSPost2010PropOp44
 70
     1
102
RTVSPost2010Prop45
280
     0
102
RTVSPost2010PropOp45
 70
     1
102
RTVSPost2010Prop46
 90
       50
102
RTVSPost2010PropOp46
 70
     1
102
RTVSPost2010Prop47
 90
       50
102
RTVSPost2010PropOp47
 70
     1
102
RTVSPost2010Prop48
 90
       50
102
RTVSPost2010PropOp48
 70
     1
102
RTVSPost2010Prop49
280
     0
102
RTVSPost2010PropOp49
 70
     1
102
RTVSPost2010Prop50
 90
       50
102
RTVSPost2010PropOp50
 70
     1
102
RTVSPost2010Prop51ColorIndex
 90
      256
102
RTVSPost2010Prop51ColorRGB
 90
-16777216
102
RTVSPost2010PropOp51
 70
     0
102
RTVSPost2010Prop52
140
1.0
102
RTVSPost2010PropOp52
 70
     0
102
RTVSPost2010Prop53
 90
        2
102
RTVSPost2010PropOp53
 70
     1
102
RTVSPost2010Prop54
  1
strokes_ogs.tif
102
RTVSPost2010PropOp54
 70
     1
102
RTVSPost2010Prop55
280
     0
102
RTVSPost2010PropOp55
 70
     1
102
RTVSPost2010Prop56
140
1.0
102
RTVSPost2010PropOp56
 70
     1
102
RTVSPost2010Prop57
140
1.0
102
RTVSPost2010PropOp57
 70
     1
102
RTVSPropertyOp0
 70
     1
102
RTVSPropertyOp1
 70
     1
102
RTVSPropertyOp2
 70
     1
102
RTVSPropertyOp3
 70
     1
102
RTVSPropertyOp4
 70
     1
102
RTVSPropertyOp5
 70
     1
102
RTVSPropertyOp6
 70
     1
102
RTVSPropertyOp7
 70
     1
102
RTVSPropertyOp8
 70
     1
102
RTVSPropertyOp9
 70
     1
102
RTVSPropertyOp10
 70
     1
102
RTVSPropertyOp11
 70
     1
102
RTVSPropertyOp12
 70
     1
102
RTVSPropertyOp13
 70
     1
102
RTVSPropertyOp14
 70
     1
102
RTVSPropertyOp15
 70
     1
102
RTVSPropertyOp16
 70
     1
102
RTVSPropertyOp17
 70
     1
102
RTVSPropertyOp18
 70
     1
102
RTVSPropertyOp19
 70
     1
102
RTVSPropertyOp20
 70
     1
102
RTVSPropertyOp21
 70
     1
102
RTVSPropertyOp22
 70
     1
102
RTVSPropertyOp23
 70
     1
102
RTVSPropertyOp24
 70
     1
102
RTVSPropertyOp25
 70
     1
102
RTVSPropertyOp26
 70
     1
102
RTVSPropertyOp27
 70
     1
102
RTVSPropertyOp28
 70
     1
102
RTVSPropertyOp29
 70
     1
102
RTVSPropertyOp30
 70
     1
102
RTVSPropertyOp31
 70
     1
102
RTVSPropertyOp32
 70
     1
102
RTVSPropertyOp33
 70
     1
102
RTVSPropertyOp34
 70
     1
102
RTVSPropertyOp35
 70
     1
102
RTVSPropertyOp36
 70
     1
102
RTVSPropertyOp37
 70
     1
102
RTVSPropertyOp38
 70
     1
102
RTVSPropertyOp39
 70
     1
102
RTVSPropertyOp40
 70
     1
102
RTVSPropertyOp41
 70
     1
102
RTVSPropertyOp42
 70
     1
102
RTVSPropertyOp43
 70
     1
102
RTVSPropertyOp44
 70
     1
102
RTVSPropertyOp45
 70
     1
102
RTVSPropertyOp46
 70
     1
102
RTVSPropertyOp47
 70
     1
102
RTVSPropertyOp48
 70
     1
102
RTVSPropertyOp49
 70
     1
102
RTVSPropertyOp50
 70
     1
102
RTVSPropertyOp51
 70
     0
102
RTVSPropertyOp52
 70
     0
102
RTVSPropertyOp53
 70
     1
102
RTVSPropertyOp54
 70
     1
102
RTVSPropertyOp55
 70
     1
102
RTVSPropertyOp56
 70
     1
102
RTVSPropertyOp57
 70
     1
102
RTVSPropertyOp58
 70
     1
102
RTVSPropertyOp59
 70
     1
102
RTVSPropertyOp60
 70
     1
102
RTVSPropertyOp61
 70
     1
102
RTVSPropertyOp62
 70
     1
  0
XRECORD
  5
1A9B
102
{ACAD_REACTORS
330
1A9A
102
}
330
1A9A
100
AcDbXrecord
280
     1
102
RTVSPost2010Prop28
280
     0
102
RTVSPost2010PropOp28
 70
     1
102
RTVSPost2010Prop29
280
     1
102
RTVSPost2010PropOp29
 70
     1
102
RTVSPost2010Prop30
280
     1
102
RTVSPost2010PropOp30
 70
     1
102
RTVSPost2010Prop31
280
     0
102
RTVSPost2010PropOp31
 70
     1
102
RTVSPost2010Prop32
280
     0
102
RTVSPost2010PropOp32
 70
     1
102
RTVSPost2010Prop33
280
     0
102
RTVSPost2010PropOp33
 70
     1
102
RTVSPost2010Prop34
280
     0
102
RTVSPost2010PropOp34
 70
     1
102
RTVSPost2010Prop35
280
     0
102
RTVSPost2010PropOp35
 70
     1
102
RTVSPost2010Prop36
280
     0
102
RTVSPost2010PropOp36
 70
     1
102
RTVSPost2010Prop37
 90
       50
102
RTVSPost2010PropOp37
 70
     1
102
RTVSPost2010Prop38
140
0.0
102
RTVSPost2010PropOp38
 70
     1
102
RTVSPost2010Prop39
140
1.0
102
RTVSPost2010PropOp39
 70
     1
102
RTVSPost2010Prop40
 90
        0
102
RTVSPost2010PropOp40
 70
     1
102
RTVSPost2010Prop41ColorIndex
 90
       18
102
RTVSPost2010Prop41ColorRGB
 90
        0
102
RTVSPost2010PropOp41
 70
     1
102
RTVSPost2010Prop42
 90
       50
102
RTVSPost2010PropOp42
 70
     1
102
RTVSPost2010Prop43
 90
        3
102
RTVSPost2010PropOp43
 70
     1
102
RTVSPost2010Prop44ColorIndex
 90
        5
102
RTVSPost2010Prop44ColorRGB
 90
      255
102
RTVSPost2010PropOp44
 70
     1
102
RTVSPost2010Prop45
280
     0
102
RTVSPost2010PropOp45
 70
     1
102
RTVSPost2010Prop46
 90
       50
102
RTVSPost2010PropOp46
 70
     1
102
RTVSPost2010Prop47
 90
       50
102
RTVSPost2010PropOp47
 70
     1
102
RTVSPost2010Prop48
 90
       50
102
RTVSPost2010PropOp48
 70
     1
102
RTVSPost2010Prop49
280
     0
102
RTVSPost2010PropOp49
 70
     1
102
RTVSPost2010Prop50
 90
       50
102
RTVSPost2010PropOp50
 70
     1
102
RTVSPost2010Prop51ColorIndex
 90
      256
102
RTVSPost2010Prop51ColorRGB
 90
-16777216
102
RTVSPost2010PropOp51
 70
     0
102
RTVSPost2010Prop52
140
1.0
102
RTVSPost2010PropOp52
 70
     0
102
RTVSPost2010Prop53
 90
        2
102
RTVSPost2010PropOp53
 70
     1
102
RTVSPost2010Prop54
  1
strokes_ogs.tif
102
RTVSPost2010PropOp54
 70
     1
102
RTVSPost2010Prop55
280
     0
102
RTVSPost2010PropOp55
 70
     1
102
RTVSPost2010Prop56
140
1.0
102
RTVSPost2010PropOp56
 70
     1
102
RTVSPost2010Prop57
140
1.0
102
RTVSPost2010PropOp57
 70
     1
102
RTVSPropertyOp0
 70
     1
102
RTVSPropertyOp1
 70
     1
102
RTVSPropertyOp2
 70
     1
102
RTVSPropertyOp3
 70
     1
102
RTVSPropertyOp4
 70
     1
102
RTVSPropertyOp5
 70
     1
102
RTVSPropertyOp6
 70
     1
102
RTVSPropertyOp7
 70
     1
102
RTVSPropertyOp8
 70
     1
102
RTVSPropertyOp9
 70
     1
102
RTVSPropertyOp10
 70
     1
102
RTVSPropertyOp11
 70
     1
102
RTVSPropertyOp12
 70
     1
102
RTVSPropertyOp13
 70
     1
102
RTVSPropertyOp14
 70
     1
102
RTVSPropertyOp15
 70
     1
102
RTVSPropertyOp16
 70
     1
102
RTVSPropertyOp17
 70
     1
102
RTVSPropertyOp18
 70
     1
102
RTVSPropertyOp19
 70
     1
102
RTVSPropertyOp20
 70
     1
102
RTVSPropertyOp21
 70
     1
102
RTVSPropertyOp22
 70
     1
102
RTVSPropertyOp23
 70
     1
102
RTVSPropertyOp24
 70
     1
102
RTVSPropertyOp25
 70
     1
102
RTVSPropertyOp26
 70
     1
102
RTVSPropertyOp27
 70
     1
102
RTVSPropertyOp28
 70
     1
102
RTVSPropertyOp29
 70
     1
102
RTVSPropertyOp30
 70
     1
102
RTVSPropertyOp31
 70
     1
102
RTVSPropertyOp32
 70
     1
102
RTVSPropertyOp33
 70
     1
102
RTVSPropertyOp34
 70
     1
102
RTVSPropertyOp35
 70
     1
102
RTVSPropertyOp36
 70
     1
102
RTVSPropertyOp37
 70
     1
102
RTVSPropertyOp38
 70
     1
102
RTVSPropertyOp39
 70
     1
102
RTVSPropertyOp40
 70
     1
102
RTVSPropertyOp41
 70
     1
102
RTVSPropertyOp42
 70
     1
102
RTVSPropertyOp43
 70
     1
102
RTVSPropertyOp44
 70
     1
102
RTVSPropertyOp45
 70
     1
102
RTVSPropertyOp46
 70
     1
102
RTVSPropertyOp47
 70
     1
102
RTVSPropertyOp48
 70
     1
102
RTVSPropertyOp49
 70
     1
102
RTVSPropertyOp50
 70
     1
102
RTVSPropertyOp51
 70
     0
102
RTVSPropertyOp52
 70
     0
102
RTVSPropertyOp53
 70
     1
102
RTVSPropertyOp54
 70
     1
102
RTVSPropertyOp55
 70
     1
102
RTVSPropertyOp56
 70
     1
102
RTVSPropertyOp57
 70
     1
102
RTVSPropertyOp58
 70
     1
102
RTVSPropertyOp59
 70
     1
102
RTVSPropertyOp60
 70
     1
102
RTVSPropertyOp61
 70
     1
102
RTVSPropertyOp62
 70
     1
  0
XRECORD
  5
1A91
102
{ACAD_REACTORS
330
1A90
102
}
330
1A90
100
AcDbXrecord
280
     1
102
RTVSPost2010Prop28
280
     0
102
RTVSPost2010PropOp28
 70
     1
102
RTVSPost2010Prop29
280
     1
102
RTVSPost2010PropOp29
 70
     1
102
RTVSPost2010Prop30
280
     1
102
RTVSPost2010PropOp30
 70
     1
102
RTVSPost2010Prop31
280
     0
102
RTVSPost2010PropOp31
 70
     1
102
RTVSPost2010Prop32
280
     0
102
RTVSPost2010PropOp32
 70
     1
102
RTVSPost2010Prop33
280
     0
102
RTVSPost2010PropOp33
 70
     1
102
RTVSPost2010Prop34
280
     0
102
RTVSPost2010PropOp34
 70
     1
102
RTVSPost2010Prop35
280
     0
102
RTVSPost2010PropOp35
 70
     1
102
RTVSPost2010Prop36
280
     0
102
RTVSPost2010PropOp36
 70
     1
102
RTVSPost2010Prop37
 90
       50
102
RTVSPost2010PropOp37
 70
     1
102
RTVSPost2010Prop38
140
0.0
102
RTVSPost2010PropOp38
 70
     1
102
RTVSPost2010Prop39
140
1.0
102
RTVSPost2010PropOp39
 70
     1
102
RTVSPost2010Prop40
 90
        0
102
RTVSPost2010PropOp40
 70
     1
102
RTVSPost2010Prop41ColorIndex
 90
       18
102
RTVSPost2010Prop41ColorRGB
 90
        0
102
RTVSPost2010PropOp41
 70
     1
102
RTVSPost2010Prop42
 90
       50
102
RTVSPost2010PropOp42
 70
     1
102
RTVSPost2010Prop43
 90
        3
102
RTVSPost2010PropOp43
 70
     1
102
RTVSPost2010Prop44ColorIndex
 90
        5
102
RTVSPost2010Prop44ColorRGB
 90
      255
102
RTVSPost2010PropOp44
 70
     1
102
RTVSPost2010Prop45
280
     0
102
RTVSPost2010PropOp45
 70
     1
102
RTVSPost2010Prop46
 90
       50
102
RTVSPost2010PropOp46
 70
     1
102
RTVSPost2010Prop47
 90
       50
102
RTVSPost2010PropOp47
 70
     1
102
RTVSPost2010Prop48
 90
       50
102
RTVSPost2010PropOp48
 70
     1
102
RTVSPost2010Prop49
280
     0
102
RTVSPost2010PropOp49
 70
     1
102
RTVSPost2010Prop50
 90
       50
102
RTVSPost2010PropOp50
 70
     1
102
RTVSPost2010Prop51ColorIndex
 90
      256
102
RTVSPost2010Prop51ColorRGB
 90
-16777216
102
RTVSPost2010PropOp51
 70
     0
102
RTVSPost2010Prop52
140
1.0
102
RTVSPost2010PropOp52
 70
     0
102
RTVSPost2010Prop53
 90
        2
102
RTVSPost2010PropOp53
 70
     1
102
RTVSPost2010Prop54
  1
strokes_ogs.tif
102
RTVSPost2010PropOp54
 70
     1
102
RTVSPost2010Prop55
280
     0
102
RTVSPost2010PropOp55
 70
     1
102
RTVSPost2010Prop56
140
1.0
102
RTVSPost2010PropOp56
 70
     1
102
RTVSPost2010Prop57
140
1.0
102
RTVSPost2010PropOp57
 70
     1
102
RTVSPropertyOp0
 70
     1
102
RTVSPropertyOp1
 70
     1
102
RTVSPropertyOp2
 70
     1
102
RTVSPropertyOp3
 70
     1
102
RTVSPropertyOp4
 70
     1
102
RTVSPropertyOp5
 70
     1
102
RTVSPropertyOp6
 70
     1
102
RTVSPropertyOp7
 70
     1
102
RTVSPropertyOp8
 70
     1
102
RTVSPropertyOp9
 70
     1
102
RTVSPropertyOp10
 70
     1
102
RTVSPropertyOp11
 70
     1
102
RTVSPropertyOp12
 70
     1
102
RTVSPropertyOp13
 70
     1
102
RTVSPropertyOp14
 70
     1
102
RTVSPropertyOp15
 70
     1
102
RTVSPropertyOp16
 70
     1
102
RTVSPropertyOp17
 70
     1
102
RTVSPropertyOp18
 70
     1
102
RTVSPropertyOp19
 70
     1
102
RTVSPropertyOp20
 70
     1
102
RTVSPropertyOp21
 70
     1
102
RTVSPropertyOp22
 70
     1
102
RTVSPropertyOp23
 70
     1
102
RTVSPropertyOp24
 70
     1
102
RTVSPropertyOp25
 70
     1
102
RTVSPropertyOp26
 70
     1
102
RTVSPropertyOp27
 70
     1
102
RTVSPropertyOp28
 70
     1
102
RTVSPropertyOp29
 70
     1
102
RTVSPropertyOp30
 70
     1
102
RTVSPropertyOp31
 70
     1
102
RTVSPropertyOp32
 70
     1
102
RTVSPropertyOp33
 70
     1
102
RTVSPropertyOp34
 70
     1
102
RTVSPropertyOp35
 70
     1
102
RTVSPropertyOp36
 70
     1
102
RTVSPropertyOp37
 70
     1
102
RTVSPropertyOp38
 70
     1
102
RTVSPropertyOp39
 70
     1
102
RTVSPropertyOp40
 70
     1
102
RTVSPropertyOp41
 70
     1
102
RTVSPropertyOp42
 70
     1
102
RTVSPropertyOp43
 70
     1
102
RTVSPropertyOp44
 70
     1
102
RTVSPropertyOp45
 70
     1
102
RTVSPropertyOp46
 70
     1
102
RTVSPropertyOp47
 70
     1
102
RTVSPropertyOp48
 70
     1
102
RTVSPropertyOp49
 70
     1
102
RTVSPropertyOp50
 70
     1
102
RTVSPropertyOp51
 70
     0
102
RTVSPropertyOp52
 70
     0
102
RTVSPropertyOp53
 70
     1
102
RTVSPropertyOp54
 70
     1
102
RTVSPropertyOp55
 70
     1
102
RTVSPropertyOp56
 70
     1
102
RTVSPropertyOp57
 70
     1
102
RTVSPropertyOp58
 70
     1
102
RTVSPropertyOp59
 70
     1
102
RTVSPropertyOp60
 70
     1
102
RTVSPropertyOp61
 70
     1
102
RTVSPropertyOp62
 70
     1
  0
XRECORD
  5
1A85
102
{ACAD_REACTORS
330
1A84
102
}
330
1A84
100
AcDbXrecord
280
     1
102
RTVSPost2010Prop28
280
     0
102
RTVSPost2010PropOp28
 70
     1
102
RTVSPost2010Prop29
280
     1
102
RTVSPost2010PropOp29
 70
     1
102
RTVSPost2010Prop30
280
     1
102
RTVSPost2010PropOp30
 70
     1
102
RTVSPost2010Prop31
280
     0
102
RTVSPost2010PropOp31
 70
     1
102
RTVSPost2010Prop32
280
     0
102
RTVSPost2010PropOp32
 70
     1
102
RTVSPost2010Prop33
280
     0
102
RTVSPost2010PropOp33
 70
     1
102
RTVSPost2010Prop34
280
     0
102
RTVSPost2010PropOp34
 70
     1
102
RTVSPost2010Prop35
280
     0
102
RTVSPost2010PropOp35
 70
     1
102
RTVSPost2010Prop36
280
     0
102
RTVSPost2010PropOp36
 70
     1
102
RTVSPost2010Prop37
 90
       50
102
RTVSPost2010PropOp37
 70
     1
102
RTVSPost2010Prop38
140
0.0
102
RTVSPost2010PropOp38
 70
     1
102
RTVSPost2010Prop39
140
1.0
102
RTVSPost2010PropOp39
 70
     1
102
RTVSPost2010Prop40
 90
        0
102
RTVSPost2010PropOp40
 70
     1
102
RTVSPost2010Prop41ColorIndex
 90
       18
102
RTVSPost2010Prop41ColorRGB
 90
        0
102
RTVSPost2010PropOp41
 70
     1
102
RTVSPost2010Prop42
 90
       50
102
RTVSPost2010PropOp42
 70
     1
102
RTVSPost2010Prop43
 90
        3
102
RTVSPost2010PropOp43
 70
     1
102
RTVSPost2010Prop44ColorIndex
 90
        5
102
RTVSPost2010Prop44ColorRGB
 90
      255
102
RTVSPost2010PropOp44
 70
     1
102
RTVSPost2010Prop45
280
     0
102
RTVSPost2010PropOp45
 70
     1
102
RTVSPost2010Prop46
 90
       50
102
RTVSPost2010PropOp46
 70
     1
102
RTVSPost2010Prop47
 90
       50
102
RTVSPost2010PropOp47
 70
     1
102
RTVSPost2010Prop48
 90
       50
102
RTVSPost2010PropOp48
 70
     1
102
RTVSPost2010Prop49
280
     0
102
RTVSPost2010PropOp49
 70
     1
102
RTVSPost2010Prop50
 90
       50
102
RTVSPost2010PropOp50
 70
     1
102
RTVSPost2010Prop51ColorIndex
 90
      256
102
RTVSPost2010Prop51ColorRGB
 90
-16777216
102
RTVSPost2010PropOp51
 70
     0
102
RTVSPost2010Prop52
140
1.0
102
RTVSPost2010PropOp52
 70
     0
102
RTVSPost2010Prop53
 90
        2
102
RTVSPost2010PropOp53
 70
     1
102
RTVSPost2010Prop54
  1
strokes_ogs.tif
102
RTVSPost2010PropOp54
 70
     1
102
RTVSPost2010Prop55
280
     0
102
RTVSPost2010PropOp55
 70
     1
102
RTVSPost2010Prop56
140
1.0
102
RTVSPost2010PropOp56
 70
     1
102
RTVSPost2010Prop57
140
1.0
102
RTVSPost2010PropOp57
 70
     1
102
RTVSPropertyOp0
 70
     1
102
RTVSPropertyOp1
 70
     1
102
RTVSPropertyOp2
 70
     1
102
RTVSPropertyOp3
 70
     1
102
RTVSPropertyOp4
 70
     1
102
RTVSPropertyOp5
 70
     1
102
RTVSPropertyOp6
 70
     1
102
RTVSPropertyOp7
 70
     1
102
RTVSPropertyOp8
 70
     1
102
RTVSPropertyOp9
 70
     1
102
RTVSPropertyOp10
 70
     1
102
RTVSPropertyOp11
 70
     1
102
RTVSPropertyOp12
 70
     1
102
RTVSPropertyOp13
 70
     1
102
RTVSPropertyOp14
 70
     1
102
RTVSPropertyOp15
 70
     1
102
RTVSPropertyOp16
 70
     1
102
RTVSPropertyOp17
 70
     1
102
RTVSPropertyOp18
 70
     1
102
RTVSPropertyOp19
 70
     1
102
RTVSPropertyOp20
 70
     1
102
RTVSPropertyOp21
 70
     1
102
RTVSPropertyOp22
 70
     1
102
RTVSPropertyOp23
 70
     1
102
RTVSPropertyOp24
 70
     1
102
RTVSPropertyOp25
 70
     1
102
RTVSPropertyOp26
 70
     1
102
RTVSPropertyOp27
 70
     1
102
RTVSPropertyOp28
 70
     1
102
RTVSPropertyOp29
 70
     1
102
RTVSPropertyOp30
 70
     1
102
RTVSPropertyOp31
 70
     1
102
RTVSPropertyOp32
 70
     1
102
RTVSPropertyOp33
 70
     1
102
RTVSPropertyOp34
 70
     1
102
RTVSPropertyOp35
 70
     1
102
RTVSPropertyOp36
 70
     1
102
RTVSPropertyOp37
 70
     1
102
RTVSPropertyOp38
 70
     1
102
RTVSPropertyOp39
 70
     1
102
RTVSPropertyOp40
 70
     1
102
RTVSPropertyOp41
 70
     1
102
RTVSPropertyOp42
 70
     1
102
RTVSPropertyOp43
 70
     1
102
RTVSPropertyOp44
 70
     1
102
RTVSPropertyOp45
 70
     1
102
RTVSPropertyOp46
 70
     1
102
RTVSPropertyOp47
 70
     1
102
RTVSPropertyOp48
 70
     1
102
RTVSPropertyOp49
 70
     1
102
RTVSPropertyOp50
 70
     1
102
RTVSPropertyOp51
 70
     0
102
RTVSPropertyOp52
 70
     0
102
RTVSPropertyOp53
 70
     1
102
RTVSPropertyOp54
 70
     1
102
RTVSPropertyOp55
 70
     1
102
RTVSPropertyOp56
 70
     1
102
RTVSPropertyOp57
 70
     1
102
RTVSPropertyOp58
 70
     1
102
RTVSPropertyOp59
 70
     1
102
RTVSPropertyOp60
 70
     1
102
RTVSPropertyOp61
 70
     1
102
RTVSPropertyOp62
 70
     1
  0
XRECORD
  5
1A9D
102
{ACAD_REACTORS
330
1A9C
102
}
330
1A9C
100
AcDbXrecord
280
     1
102
RTVSPost2010Prop28
280
     0
102
RTVSPost2010PropOp28
 70
     1
102
RTVSPost2010Prop29
280
     1
102
RTVSPost2010PropOp29
 70
     1
102
RTVSPost2010Prop30
280
     1
102
RTVSPost2010PropOp30
 70
     1
102
RTVSPost2010Prop31
280
     0
102
RTVSPost2010PropOp31
 70
     1
102
RTVSPost2010Prop32
280
     0
102
RTVSPost2010PropOp32
 70
     1
102
RTVSPost2010Prop33
280
     0
102
RTVSPost2010PropOp33
 70
     1
102
RTVSPost2010Prop34
280
     0
102
RTVSPost2010PropOp34
 70
     1
102
RTVSPost2010Prop35
280
     0
102
RTVSPost2010PropOp35
 70
     1
102
RTVSPost2010Prop36
280
     0
102
RTVSPost2010PropOp36
 70
     1
102
RTVSPost2010Prop37
 90
       50
102
RTVSPost2010PropOp37
 70
     1
102
RTVSPost2010Prop38
140
0.0
102
RTVSPost2010PropOp38
 70
     1
102
RTVSPost2010Prop39
140
1.0
102
RTVSPost2010PropOp39
 70
     1
102
RTVSPost2010Prop40
 90
        0
102
RTVSPost2010PropOp40
 70
     1
102
RTVSPost2010Prop41ColorIndex
 90
       18
102
RTVSPost2010Prop41ColorRGB
 90
        0
102
RTVSPost2010PropOp41
 70
     1
102
RTVSPost2010Prop42
 90
       50
102
RTVSPost2010PropOp42
 70
     1
102
RTVSPost2010Prop43
 90
        3
102
RTVSPost2010PropOp43
 70
     1
102
RTVSPost2010Prop44ColorIndex
 90
        5
102
RTVSPost2010Prop44ColorRGB
 90
      255
102
RTVSPost2010PropOp44
 70
     1
102
RTVSPost2010Prop45
280
     0
102
RTVSPost2010PropOp45
 70
     1
102
RTVSPost2010Prop46
 90
       50
102
RTVSPost2010PropOp46
 70
     1
102
RTVSPost2010Prop47
 90
       50
102
RTVSPost2010PropOp47
 70
     1
102
RTVSPost2010Prop48
 90
       50
102
RTVSPost2010PropOp48
 70
     1
102
RTVSPost2010Prop49
280
     0
102
RTVSPost2010PropOp49
 70
     1
102
RTVSPost2010Prop50
 90
       50
102
RTVSPost2010PropOp50
 70
     1
102
RTVSPost2010Prop51ColorIndex
 90
      256
102
RTVSPost2010Prop51ColorRGB
 90
-16777216
102
RTVSPost2010PropOp51
 70
     0
102
RTVSPost2010Prop52
140
1.0
102
RTVSPost2010PropOp52
 70
     0
102
RTVSPost2010Prop53
 90
        2
102
RTVSPost2010PropOp53
 70
     1
102
RTVSPost2010Prop54
  1
strokes_ogs.tif
102
RTVSPost2010PropOp54
 70
     1
102
RTVSPost2010Prop55
280
     0
102
RTVSPost2010PropOp55
 70
     1
102
RTVSPost2010Prop56
140
1.0
102
RTVSPost2010PropOp56
 70
     1
102
RTVSPost2010Prop57
140
1.0
102
RTVSPost2010PropOp57
 70
     1
102
RTVSPropertyOp0
 70
     1
102
RTVSPropertyOp1
 70
     1
102
RTVSPropertyOp2
 70
     1
102
RTVSPropertyOp3
 70
     1
102
RTVSPropertyOp4
 70
     1
102
RTVSPropertyOp5
 70
     1
102
RTVSPropertyOp6
 70
     1
102
RTVSPropertyOp7
 70
     1
102
RTVSPropertyOp8
 70
     1
102
RTVSPropertyOp9
 70
     1
102
RTVSPropertyOp10
 70
     1
102
RTVSPropertyOp11
 70
     1
102
RTVSPropertyOp12
 70
     1
102
RTVSPropertyOp13
 70
     1
102
RTVSPropertyOp14
 70
     1
102
RTVSPropertyOp15
 70
     1
102
RTVSPropertyOp16
 70
     1
102
RTVSPropertyOp17
 70
     1
102
RTVSPropertyOp18
 70
     1
102
RTVSPropertyOp19
 70
     1
102
RTVSPropertyOp20
 70
     1
102
RTVSPropertyOp21
 70
     1
102
RTVSPropertyOp22
 70
     1
102
RTVSPropertyOp23
 70
     1
102
RTVSPropertyOp24
 70
     1
102
RTVSPropertyOp25
 70
     1
102
RTVSPropertyOp26
 70
     1
102
RTVSPropertyOp27
 70
     1
102
RTVSPropertyOp28
 70
     1
102
RTVSPropertyOp29
 70
     1
102
RTVSPropertyOp30
 70
     1
102
RTVSPropertyOp31
 70
     1
102
RTVSPropertyOp32
 70
     1
102
RTVSPropertyOp33
 70
     1
102
RTVSPropertyOp34
 70
     1
102
RTVSPropertyOp35
 70
     1
102
RTVSPropertyOp36
 70
     1
102
RTVSPropertyOp37
 70
     1
102
RTVSPropertyOp38
 70
     1
102
RTVSPropertyOp39
 70
     1
102
RTVSPropertyOp40
 70
     1
102
RTVSPropertyOp41
 70
     1
102
RTVSPropertyOp42
 70
     1
102
RTVSPropertyOp43
 70
     1
102
RTVSPropertyOp44
 70
     1
102
RTVSPropertyOp45
 70
     1
102
RTVSPropertyOp46
 70
     1
102
RTVSPropertyOp47
 70
     1
102
RTVSPropertyOp48
 70
     1
102
RTVSPropertyOp49
 70
     1
102
RTVSPropertyOp50
 70
     1
102
RTVSPropertyOp51
 70
     0
102
RTVSPropertyOp52
 70
     0
102
RTVSPropertyOp53
 70
     1
102
RTVSPropertyOp54
 70
     1
102
RTVSPropertyOp55
 70
     1
102
RTVSPropertyOp56
 70
     1
102
RTVSPropertyOp57
 70
     1
102
RTVSPropertyOp58
 70
     1
102
RTVSPropertyOp59
 70
     1
102
RTVSPropertyOp60
 70
     1
102
RTVSPropertyOp61
 70
     1
102
RTVSPropertyOp62
 70
     1
  0
ENDSEC
  0
EOF
