  0
SECTION
  2
HEADER
  9
$ACADVER
  1
AC1015
  9
$ACADMAINTVER
 70
    20
  9
$DWGCODEPAGE
  3
ANSI_932
  9
$INSBASE
 10
0.0
 20
0.0
 30
0.0
  9
$EXTMIN
 10
8.318799034498336
 20
10.0
 30
0.0
  9
$EXTMAX
 10
448.4783529770545
 20
283.9241958273668
 30
0.0
  9
$LIMMIN
 10
0.0000015376081137
 20
-0.0000001931532552
  9
$LIMMAX
 10
495.0000015376081
 20
341.2499998068465
  9
$ORTHOMODE
 70
     1
  9
$REGENMODE
 70
     1
  9
$FILLMODE
 70
     1
  9
$QTEXTMODE
 70
     0
  9
$MIRRTEXT
 70
     1
  9
$LTSCALE
 40
1.0
  9
$ATTMODE
 70
     1
  9
$TEXTSIZE
 40
2.5
  9
$TRACEWID
 40
1.0
  9
$TEXTSTYLE
  7
STANDARD
  9
$CLAYER
  8
0
  9
$CELTYPE
  6
BYLAYER
  9
$CECOLOR
 62
   256
  9
$CELTSCALE
 40
1.0
  9
$DISPSILH
 70
     0
  9
$DIMSCALE
 40
1.0
  9
$DIMASZ
 40
3.0
  9
$DIMEXO
 40
1.0
  9
$DIMDLI
 40
10.0
  9
$DIMRND
 40
0.0
  9
$DIMDLE
 40
0.0
  9
$DIMEXE
 40
1.0
  9
$DIMTP
 40
0.0
  9
$DIMTM
 40
0.0
  9
$DIMTXT
 40
3.2
  9
$DIMCEN
 40
0.0
  9
$DIMTSZ
 40
0.0
  9
$DIMTOL
 70
     0
  9
$DIMLIM
 70
     0
  9
$DIMTIH
 70
     0
  9
$DIMTOH
 70
     0
  9
$DIMSE1
 70
     0
  9
$DIMSE2
 70
     0
  9
$DIMTAD
 70
     3
  9
$DIMZIN
 70
     8
  9
$DIMBLK
  1

  9
$DIMASO
 70
     1
  9
$DIMSHO
 70
     1
  9
$DIMPOST
  1

  9
$DIMAPOST
  1

  9
$DIMALT
 70
     0
  9
$DIMALTD
 70
     2
  9
$DIMALTF
 40
25.4
  9
$DIMLFAC
 40
1.0
  9
$DIMTOFL
 70
     1
  9
$DIMTVP
 40
0.0
  9
$DIMTIX
 70
     0
  9
$DIMSOXD
 70
     0
  9
$DIMSAH
 70
     1
  9
$DIMBLK1
  1
OPEN
  9
$DIMBLK2
  1
OPEN
  9
$DIMSTYLE
  2
STANDARD
  9
$DIMCLRD
 70
     0
  9
$DIMCLRE
 70
     0
  9
$DIMCLRT
 70
     0
  9
$DIMTFAC
 40
1.0
  9
$DIMGAP
 40
1.0
  9
$DIMJUST
 70
     0
  9
$DIMSD1
 70
     0
  9
$DIMSD2
 70
     0
  9
$DIMTOLJ
 70
     1
  9
$DIMTZIN
 70
     0
  9
$DIMALTZ
 70
     0
  9
$DIMALTTZ
 70
     0
  9
$DIMUPT
 70
     0
  9
$DIMDEC
 70
     4
  9
$DIMTDEC
 70
     4
  9
$DIMALTU
 70
     2
  9
$DIMALTTD
 70
     2
  9
$DIMTXSTY
  7
STANDARD
  9
$DIMAUNIT
 70
     0
  9
$DIMADEC
 70
     0
  9
$DIMALTRND
 40
0.0
  9
$DIMAZIN
 70
     0
  9
$DIMDSEP
 70
    46
  9
$DIMATFIT
 70
     3
  9
$DIMFRAC
 70
     0
  9
$DIMLDRBLK
  1
OPEN
  9
$DIMLUNIT
 70
     2
  9
$DIMLWD
 70
    -2
  9
$DIMLWE
 70
    -2
  9
$DIMTMOVE
 70
     0
  9
$LUNITS
 70
     2
  9
$LUPREC
 70
     4
  9
$SKETCHINC
 40
1.0
  9
$FILLETRAD
 40
0.0
  9
$AUNITS
 70
     0
  9
$AUPREC
 70
     0
  9
$MENU
  1
.
  9
$ELEVATION
 40
0.0
  9
$PELEVATION
 40
0.0
  9
$THICKNESS
 40
0.0
  9
$LIMCHECK
 70
     0
  9
$CHAMFERA
 40
10.0
  9
$CHAMFERB
 40
10.0
  9
$CHAMFERC
 40
0.0
  9
$CHAMFERD
 40
0.0
  9
$SKPOLY
 70
     0
  9
$TDCREATE
 40
2452248.466987847
  9
$TDUCREATE
 40
2452248.091987847
  9
$TDUPDATE
 40
2457192.601607188
  9
$TDUUPDATE
 40
2457192.226607188
  9
$TDINDWG
 40
0.2850972222
  9
$TDUSRTIMER
 40
0.2850970370
  9
$USRTIMER
 70
     1
  9
$ANGBASE
 50
0.0
  9
$ANGDIR
 70
     0
  9
$PDMODE
 70
     0
  9
$PDSIZE
 40
0.0
  9
$PLINEWID
 40
0.0
  9
$SPLFRAME
 70
     0
  9
$SPLINETYPE
 70
     6
  9
$SPLINESEGS
 70
     8
  9
$HANDSEED
  5
1850
  9
$SURFTAB1
 70
     6
  9
$SURFTAB2
 70
     6
  9
$SURFTYPE
 70
     6
  9
$SURFU
 70
     6
  9
$SURFV
 70
     6
  9
$UCSBASE
  2

  9
$UCSNAME
  2

  9
$UCSORG
 10
0.0
 20
0.0
 30
0.0
  9
$UCSXDIR
 10
1.0
 20
0.0
 30
0.0
  9
$UCSYDIR
 10
0.0
 20
1.0
 30
0.0
  9
$UCSORTHOREF
  2

  9
$UCSORTHOVIEW
 70
     0
  9
$UCSORGTOP
 10
0.0
 20
0.0
 30
0.0
  9
$UCSORGBOTTOM
 10
0.0
 20
0.0
 30
0.0
  9
$UCSORGLEFT
 10
0.0
 20
0.0
 30
0.0
  9
$UCSORGRIGHT
 10
0.0
 20
0.0
 30
0.0
  9
$UCSORGFRONT
 10
0.0
 20
0.0
 30
0.0
  9
$UCSORGBACK
 10
0.0
 20
0.0
 30
0.0
  9
$PUCSBASE
  2

  9
$PUCSNAME
  2

  9
$PUCSORG
 10
0.0
 20
0.0
 30
0.0
  9
$PUCSXDIR
 10
1.0
 20
0.0
 30
0.0
  9
$PUCSYDIR
 10
0.0
 20
1.0
 30
0.0
  9
$PUCSORTHOREF
  2

  9
$PUCSORTHOVIEW
 70
     0
  9
$PUCSORGTOP
 10
0.0
 20
0.0
 30
0.0
  9
$PUCSORGBOTTOM
 10
0.0
 20
0.0
 30
0.0
  9
$PUCSORGLEFT
 10
0.0
 20
0.0
 30
0.0
  9
$PUCSORGRIGHT
 10
0.0
 20
0.0
 30
0.0
  9
$PUCSORGFRONT
 10
0.0
 20
0.0
 30
0.0
  9
$PUCSORGBACK
 10
0.0
 20
0.0
 30
0.0
  9
$USERI1
 70
     0
  9
$USERI2
 70
     0
  9
$USERI3
 70
     0
  9
$USERI4
 70
     0
  9
$USERI5
 70
     0
  9
$USERR1
 40
0.0
  9
$USERR2
 40
0.0
  9
$USERR3
 40
0.0
  9
$USERR4
 40
0.0
  9
$USERR5
 40
0.0
  9
$WORLDVIEW
 70
     1
  9
$SHADEDGE
 70
     3
  9
$SHADEDIF
 70
    70
  9
$TILEMODE
 70
     1
  9
$MAXACTVP
 70
    48
  9
$PINSBASE
 10
0.0
 20
0.0
 30
0.0
  9
$PLIMCHECK
 70
     0
  9
$PEXTMIN
 10
1.000000000000000E+20
 20
1.000000000000000E+20
 30
1.000000000000000E+20
  9
$PEXTMAX
 10
-1.000000000000000E+20
 20
-1.000000000000000E+20
 30
-1.000000000000000E+20
  9
$PLIMMIN
 10
0.0
 20
0.0
  9
$PLIMMAX
 10
420.0
 20
297.0
  9
$UNITMODE
 70
     0
  9
$VISRETAIN
 70
     1
  9
$PLINEGEN
 70
     0
  9
$PSLTSCALE
 70
     1
  9
$TREEDEPTH
 70
  3020
  9
$CMLSTYLE
  2
STANDARD
  9
$CMLJUST
 70
     0
  9
$CMLSCALE
 40
1.0
  9
$PROXYGRAPHICS
 70
     1
  9
$MEASUREMENT
 70
     0
  9
$CELWEIGHT
370
    -1
  9
$ENDCAPS
280
     0
  9
$JOINSTYLE
280
     0
  9
$LWDISPLAY
290
     0
  9
$INSUNITS
 70
     0
  9
$HYPERLINKBASE
  1

  9
$STYLESHEET
  1

  9
$XEDIT
290
     1
  9
$CEPSNTYPE
380
     0
  9
$PSTYLEMODE
290
     1
  9
$FINGERPRINTGUID
  2
{48E2DA14-6B6E-45A8-B839-4C0D2B5B90F2}
  9
$VERSIONGUID
  2
{0B2FFC0B-088E-4B5A-9388-9E74185EBD61}
  9
$EXTNAMES
290
     1
  9
$PSVPSCALE
 40
0.0
  9
$OLESTARTUP
290
     0
  0
ENDSEC
  0
SECTION
  2
CLASSES
  0
CLASS
  1
ACDBDICTIONARYWDFLT
  2
AcDbDictionaryWithDefault
  3
ObjectDBX Classes
 90
        0
280
     0
281
     0
  0
CLASS
  1
ACDBPLACEHOLDER
  2
AcDbPlaceHolder
  3
ObjectDBX Classes
 90
        0
280
     0
281
     0
  0
CLASS
  1
LAYOUT
  2
AcDbLayout
  3
ObjectDBX Classes
 90
        0
280
     0
281
     0
  0
CLASS
  1
DICTIONARYVAR
  2
AcDbDictionaryVar
  3
ObjectDBX Classes
 90
        0
280
     0
281
     0
  0
CLASS
  1
MATERIAL
  2
AcDbMaterial
  3
ObjectDBX Classes
 90
     1153
280
     0
281
     0
  0
CLASS
  1
VISUALSTYLE
  2
AcDbVisualStyle
  3
ObjectDBX Classes
 90
     4095
280
     0
281
     0
  0
CLASS
  1
TABLESTYLE
  2
AcDbTableStyle
  3
ObjectDBX Classes
 90
     4095
280
     0
281
     0
  0
CLASS
  1
SCALE
  2
AcDbScale
  3
ObjectDBX Classes
 90
     1153
280
     0
281
     0
  0
CLASS
  1
MLEADERSTYLE
  2
AcDbMLeaderStyle
  3
ACDB_MLEADERSTYLE_CLASS
 90
     4095
280
     0
281
     0
  0
CLASS
  1
ACDBSECTIONVIEWSTYLE
  2
AcDbSectionViewStyle
  3
ObjectDBX Classes
 90
     1025
280
     0
281
     0
  0
CLASS
  1
ACDBDETAILVIEWSTYLE
  2
AcDbDetailViewStyle
  3
ObjectDBX Classes
 90
     1025
280
     0
281
     0
  0
CLASS
  1
CELLSTYLEMAP
  2
AcDbCellStyleMap
  3
ObjectDBX Classes
 90
     1152
280
     0
281
     0
  0
ENDSEC
  0
SECTION
  2
TABLES
  0
TABLE
  2
VPORT
  5
11A6
330
0
100
AcDbSymbolTable
 70
     1
  0
VPORT
  5
179C
330
11A6
100
AcDbSymbolTableRecord
100
AcDbViewportTableRecord
  2
*ACTIVE
 70
     0
 10
0.0
 20
0.0
 11
1.0
 21
1.0
 12
316.4311210882868
 22
146.9589048401877
 13
0.0
 23
0.0
 14
10.0
 24
10.0
 15
10.0
 25
10.0
 16
0.0
 26
0.0
 36
1.0
 17
0.0
 27
0.0
 37
0.0
 40
276.5934966369361
 41
1.899603698811096
 42
50.0
 43
0.0
 44
0.0
 50
0.0
 51
0.0
 71
     0
 72
   100
 73
     1
 74
     0
 75
     0
 76
     0
 77
     0
 78
     0
281
     0
 65
     1
110
0.0
120
0.0
130
0.0
111
1.0
121
0.0
131
0.0
112
0.0
122
1.0
132
0.0
 79
     0
146
0.0
1001
ACAD_NAV_VCDISPLAY
1070
     3
  0
ENDTAB
  0
TABLE
  2
LTYPE
  5
11A3
330
0
100
AcDbSymbolTable
 70
     4
  0
LTYPE
  5
11B1
330
11A3
100
AcDbSymbolTableRecord
100
AcDbLinetypeTableRecord
  2
BYBLOCK
 70
     0
  3

 72
    65
 73
     0
 40
0.0
  0
LTYPE
  5
11B2
330
11A3
100
AcDbSymbolTableRecord
100
AcDbLinetypeTableRecord
  2
BYLAYER
 70
     0
  3

 72
    65
 73
     0
 40
0.0
  0
LTYPE
  5
11B3
330
11A3
100
AcDbSymbolTableRecord
100
AcDbLinetypeTableRecord
  2
CONTINUOUS
 70
     0
  3
Solid line
 72
    65
 73
     0
 40
0.0
  0
LTYPE
  5
11C1
330
11A3
100
AcDbSymbolTableRecord
100
AcDbLinetypeTableRecord
  2
DASHED
 70
     0
  3
Dashed __ __ __ __ __ __ __ __ __ __ __ __ __ _
 72
    65
 73
     2
 40
19.04999999999997
 49
12.7
 74
     0
 49
-6.349999999999997
 74
     0
  0
LTYPE
  5
11C2
330
11A3
100
AcDbSymbolTableRecord
100
AcDbLinetypeTableRecord
  2
CENTER
 70
     0
  3
Center ____ _ ____ _ ____ _ ____ _ ____ _ ____
 72
    65
 73
     4
 40
50.8
 49
31.75
 74
     0
 49
-6.349999999999997
 74
     0
 49
6.349999999999997
 74
     0
 49
-6.349999999999997
 74
     0
  0
LTYPE
  5
11C3
330
11A3
100
AcDbSymbolTableRecord
100
AcDbLinetypeTableRecord
  2
PHANTOM
 70
     0
  3
Phantom ______  __  __  ______  __  __  ______
 72
    65
 73
     6
 40
63.5
 49
31.75
 74
     0
 49
-6.349999999999997
 74
     0
 49
6.349999999999997
 74
     0
 49
-6.349999999999997
 74
     0
 49
6.349999999999997
 74
     0
 49
-6.349999999999997
 74
     0
  0
ENDTAB
  0
TABLE
  2
LAYER
  5
11A0
330
0
100
AcDbSymbolTable
 70
     8
  0
LAYER
  5
11AE
102
{ACAD_XDICTIONARY
360
17F4
102
}
330
11A0
100
AcDbSymbolTableRecord
100
AcDbLayerTableRecord
  2
0
 70
     0
 62
     7
  6
CONTINUOUS
370
    -3
390
17A3
  0
LAYER
  5
11C4
102
{ACAD_XDICTIONARY
360
17F6
102
}
330
11A0
100
AcDbSymbolTableRecord
100
AcDbLayerTableRecord
  2
4
 70
     0
 62
     1
  6
CENTER
370
    -3
390
17A3
  0
LAYER
  5
11C5
102
{ACAD_XDICTIONARY
360
17F8
102
}
330
11A0
100
AcDbSymbolTableRecord
100
AcDbLayerTableRecord
  2
5
 70
     0
 62
     6
  6
PHANTOM
370
    -3
390
17A3
  0
LAYER
  5
11C6
102
{ACAD_XDICTIONARY
360
17FA
102
}
330
11A0
100
AcDbSymbolTableRecord
100
AcDbLayerTableRecord
  2
1
 70
     0
 62
     7
  6
CONTINUOUS
370
    -3
390
17A3
  0
LAYER
  5
11C7
102
{ACAD_XDICTIONARY
360
17FC
102
}
330
11A0
100
AcDbSymbolTableRecord
100
AcDbLayerTableRecord
  2
2
 70
     0
 62
     4
  6
CONTINUOUS
370
    -3
390
17A3
  0
LAYER
  5
11C8
102
{ACAD_XDICTIONARY
360
17FE
102
}
330
11A0
100
AcDbSymbolTableRecord
100
AcDbLayerTableRecord
  2
3
 70
     0
 62
     2
  6
DASHED
370
    -3
390
17A3
  0
LAYER
  5
11C9
102
{ACAD_XDICTIONARY
360
1800
102
}
330
11A0
100
AcDbSymbolTableRecord
100
AcDbLayerTableRecord
  2
6
 70
     0
 62
     5
  6
CONTINUOUS
370
    -3
390
17A3
  0
LAYER
  5
11CA
102
{ACAD_XDICTIONARY
360
1802
102
}
330
11A0
100
AcDbSymbolTableRecord
100
AcDbLayerTableRecord
  2
7
 70
     0
 62
     3
  6
CONTINUOUS
370
    -3
390
17A3
  0
ENDTAB
  0
TABLE
  2
STYLE
  5
11A1
330
0
100
AcDbSymbolTable
 70
     1
  0
STYLE
  5
11AF
330
11A1
100
AcDbSymbolTableRecord
100
AcDbTextStyleTableRecord
  2
STANDARD
 70
     0
 40
0.0
 41
1.0
 50
0.0
 71
     0
 42
2.5
  3
simplex.shx
  4

  0
ENDTAB
  0
TABLE
  2
VIEW
  5
11A4
330
0
100
AcDbSymbolTable
 70
     0
  0
ENDTAB
  0
TABLE
  2
UCS
  5
11A5
330
0
100
AcDbSymbolTable
 70
     0
  0
ENDTAB
  0
TABLE
  2
APPID
  5
11A7
330
0
100
AcDbSymbolTable
 70
     7
  0
APPID
  5
11B0
330
11A7
100
AcDbSymbolTableRecord
100
AcDbRegAppTableRecord
  2
ACAD
 70
     0
  0
APPID
  5
11CB
330
11A7
100
AcDbSymbolTableRecord
100
AcDbRegAppTableRecord
  2
CONTENTTABDATA
 70
     0
  0
APPID
  5
11CC
330
11A7
100
AcDbSymbolTableRecord
100
AcDbRegAppTableRecord
  2
CONTENTCURRENTTAB
 70
     0
  0
APPID
  5
11CD
330
11A7
100
AcDbSymbolTableRecord
100
AcDbRegAppTableRecord
  2
CONTENTBLOCKICON
 70
     0
  0
APPID
  5
11CE
330
11A7
100
AcDbSymbolTableRecord
100
AcDbRegAppTableRecord
  2
CONTENTBLOCKDESCRIPTION
 70
     0
  0
APPID
  5
180E
330
11A7
100
AcDbSymbolTableRecord
100
AcDbRegAppTableRecord
  2
ACAD_NAV_VCDISPLAY
 70
     0
  0
APPID
  5
1847
330
11A7
100
AcDbSymbolTableRecord
100
AcDbRegAppTableRecord
  2
ACAD_MLEADERVER
 70
     0
  0
ENDTAB
  0
TABLE
  2
DIMSTYLE
  5
11A8
330
0
100
AcDbSymbolTable
 70
     1
100
AcDbDimStyleTable
 71
     0
  0
DIMSTYLE
105
11CF
330
11A8
100
AcDbSymbolTableRecord
100
AcDbDimStyleTableRecord
  2
STANDARD
 70
     0
 41
3.0
 42
1.0
 43
10.0
 44
1.0
 73
     0
 74
     0
 77
     3
 78
     8
140
3.2
141
0.0
147
1.0
172
     1
173
     1
284
     8
285
     8
286
     8
340
11AF
  0
ENDTAB
  0
TABLE
  2
BLOCK_RECORD
  5
119F
330
0
100
AcDbSymbolTable
 70
     1
  0
BLOCK_RECORD
  5
11BC
102
{ACAD_XDICTIONARY
360
13E9
102
}
330
119F
100
AcDbSymbolTableRecord
100
AcDbBlockTableRecord
  2
*MODEL_SPACE
340
17F1
  0
BLOCK_RECORD
  5
11B8
102
{ACAD_XDICTIONARY
360
13E7
102
}
330
119F
100
AcDbSymbolTableRecord
100
AcDbBlockTableRecord
  2
*PAPER_SPACE
340
17F2
  0
BLOCK_RECORD
  5
11D7
330
119F
100
AcDbSymbolTableRecord
100
AcDbBlockTableRecord
  2
_OPEN
340
0
  0
ENDTAB
  0
ENDSEC
  0
SECTION
  2
BLOCKS
  0
BLOCK
  5
11BD
330
11BC
100
AcDbEntity
  8
0
100
AcDbBlockBegin
  2
*MODEL_SPACE
 70
     0
 10
0.0
 20
0.0
 30
0.0
  3
*MODEL_SPACE
  1

  0
ENDBLK
  5
11BE
330
11BC
100
AcDbEntity
  8
0
100
AcDbBlockEnd
  0
BLOCK
  5
11B9
330
11B8
100
AcDbEntity
 67
     1
  8
0
100
AcDbBlockBegin
  2
*PAPER_SPACE
 70
     0
 10
0.0
 20
0.0
 30
0.0
  3
*PAPER_SPACE
  1

  0
ENDBLK
  5
11BA
330
11B8
100
AcDbEntity
 67
     1
  8
0
100
AcDbBlockEnd
  0
BLOCK
  5
11D8
330
11D7
100
AcDbEntity
  8
0
100
AcDbBlockBegin
  2
_OPEN
 70
     0
 10
0.0
 20
0.0
 30
0.0
  3
_OPEN
  1

  0
LINE
  5
11D9
330
11D7
100
AcDbEntity
  8
0
  6
ByBlock
 62
     0
100
AcDbLine
 10
-1.0
 20
0.1666666666666666
 30
0.0
 11
0.0
 21
0.0
 31
0.0
  0
LINE
  5
11DA
330
11D7
100
AcDbEntity
  8
0
  6
ByBlock
 62
     0
100
AcDbLine
 10
0.0
 20
0.0
 30
0.0
 11
-1.0
 21
-0.1666666666666666
 31
0.0
  0
LINE
  5
11DB
330
11D7
100
AcDbEntity
  8
0
  6
ByBlock
 62
     0
100
AcDbLine
 10
0.0
 20
0.0
 30
0.0
 11
-1.0
 21
0.0
 31
0.0
  0
ENDBLK
  5
11DC
330
11D7
100
AcDbEntity
  8
0
100
AcDbBlockEnd
  0
ENDSEC
  0
SECTION
  2
ENTITIES
  0
TEXT
  5
11DD
330
11BC
100
AcDbEntity
  8
4
  6
CENTER
100
AcDbText
 10
23.97950852663849
 20
10.0
 30
0.0
 40
1.399999999999999
  1
4
100
AcDbText
  0
TEXT
  5
11DE
330
11BC
100
AcDbEntity
  8
7
  6
Continuous
100
AcDbText
 10
9.999997526638502
 20
26.00000076076889
 30
0.0
 40
3.0
  1
CODE No.1943
100
AcDbText
  0
TEXT
  5
11DF
330
11BC
100
AcDbEntity
  8
7
  6
Continuous
100
AcDbText
 10
9.999997526638502
 20
18.00000076076889
 30
0.0
 40
3.0
  1
TYPE No.TL-326
100
AcDbText
  0
TEXT
  5
11E0
330
11BC
100
AcDbEntity
  8
1
  6
Continuous
100
AcDbText
 10
9.999997526638502
 20
10.00000076076889
 30
0.0
 40
1.399999999999999
  1
LAYER
100
AcDbText
  0
TEXT
  5
11E1
330
11BC
100
AcDbEntity
  8
2
  6
Continuous
100
AcDbText
 10
19.9795085266385
 20
10.0
 30
0.0
 40
1.399999999999999
  1
2
100
AcDbText
  0
TEXT
  5
11E2
330
11BC
100
AcDbEntity
  8
3
  6
DASHED
100
AcDbText
 10
21.97950852663848
 20
10.0
 30
0.0
 40
1.399999999999999
  1
3
100
AcDbText
  0
TEXT
  5
11E3
330
11BC
100
AcDbEntity
  8
1
  6
Continuous
100
AcDbText
 10
17.9795085266385
 20
10.0
 30
0.0
 40
1.399999999999999
  1
1
100
AcDbText
  0
TEXT
  5
11E4
330
11BC
100
AcDbEntity
  8
5
  6
PHANTOM
100
AcDbText
 10
25.97950852663849
 20
10.0
 30
0.0
 40
1.399999999999999
  1
5
100
AcDbText
  0
TEXT
  5
11E5
330
11BC
100
AcDbEntity
  8
6
  6
Continuous
100
AcDbText
 10
27.97950852663849
 20
10.0
 30
0.0
 40
1.399999999999999
  1
6
100
AcDbText
  0
TEXT
  5
11E6
330
11BC
100
AcDbEntity
  8
7
  6
Continuous
100
AcDbText
 10
29.9795085266385
 20
10.0
 30
0.0
 40
1.399999999999999
  1
7
100
AcDbText
  0
ARC
  5
11E7
330
11BC
100
AcDbEntity
  8
1
  6
Continuous
100
AcDbCircle
 10
144.9552069690161
 20
154.9505547548585
 30
0.0
 40
2.0
100
AcDbArc
 50
270.0
 51
90.0
  0
LINE
  5
11E8
330
11BC
100
AcDbEntity
  8
1
  6
Continuous
100
AcDbLine
 10
132.5993139690162
 20
156.9505547548585
 30
0.0
 11
148.199313969016
 21
156.9505547548585
 31
0.0
  0
LINE
  5
11E9
330
11BC
100
AcDbEntity
  8
1
  6
Continuous
100
AcDbLine
 10
132.5993139690162
 20
152.9505547548585
 30
0.0
 11
148.199313969016
 21
152.9505547548585
 31
0.0
  0
LINE
  5
11EA
330
11BC
100
AcDbEntity
  8
2
  6
Continuous
100
AcDbLine
 10
132.5993139690162
 20
163.2597312480903
 30
0.0
 11
148.1993139690161
 21
158.3758177548585
 31
0.0
  0
LINE
  5
11EB
330
11BC
100
AcDbEntity
  8
2
  6
Continuous
100
AcDbLine
 10
148.199313969016
 20
162.8390007548586
 30
0.0
 11
132.5993139690162
 21
157.9550872616268
 31
0.0
  0
LINE
  5
11EC
330
11BC
100
AcDbEntity
  8
1
  6
Continuous
100
AcDbLine
 10
146.799313969016
 20
162.8390007548588
 30
0.0
 11
148.199313969016
 21
162.8390007548588
 31
0.0
  0
LINE
  5
11ED
330
11BC
100
AcDbEntity
  8
1
  6
Continuous
100
AcDbLine
 10
146.799313969016
 20
158.3758177548585
 30
0.0
 11
148.199313969016
 21
158.3758177548585
 31
0.0
  0
LINE
  5
11EE
330
11BC
100
AcDbEntity
  8
1
  6
Continuous
100
AcDbLine
 10
146.799313969016
 20
146.2505547548586
 30
0.0
 11
148.199313969016
 21
146.2505547548586
 31
0.0
  0
LINE
  5
11EF
330
11BC
100
AcDbEntity
  8
1
  6
Continuous
100
AcDbLine
 10
146.799313969016
 20
163.6505547548587
 30
0.0
 11
148.199313969016
 21
163.6505547548587
 31
0.0
  0
LINE
  5
11F0
330
11BC
100
AcDbEntity
  8
4
  6
CENTER
 48
0.3
100
AcDbLine
 10
121.8993139690162
 20
154.9505547548585
 30
0.0
 11
161.3993139690161
 21
154.9505547548585
 31
0.0
  0
LINE
  5
11F1
330
11BC
100
AcDbEntity
  8
4
  6
CENTER
 48
0.3
100
AcDbLine
 10
8.318799034498336
 20
154.9505547548585
 30
0.0
 11
64.31884470480418
 21
154.9505547548585
 31
0.0
  0
ARC
  5
11F2
330
11BC
100
AcDbEntity
  8
1
  6
Continuous
100
AcDbCircle
 10
22.81879903449834
 20
154.9505547548585
 30
0.0
 40
9.5
100
AcDbArc
 50
90.0
 51
270.0
  0
ARC
  5
11F3
330
11BC
100
AcDbEntity
  8
1
  6
Continuous
100
AcDbCircle
 10
47.31879903448839
 20
154.9505547548585
 30
0.0
 40
4.5
100
AcDbArc
 50
288.1643179999998
 51
73.87238000000005
  0
LINE
  5
11F4
330
11BC
100
AcDbEntity
  8
1
  6
Continuous
100
AcDbLine
 10
48.56879903448839
 20
159.7917837548584
 30
0.0
 11
48.56879903448839
 21
150.8276507548585
 31
0.0
  0
LINE
  5
11F5
330
11BC
100
AcDbEntity
  8
1
  6
Continuous
100
AcDbLine
 10
46.06879903448839
 20
159.7917837548584
 30
0.0
 11
46.06879903448839
 21
150.8276507548585
 31
0.0
  0
ARC
  5
11F6
330
11BC
100
AcDbEntity
  8
1
  6
Continuous
100
AcDbCircle
 10
47.31879903448839
 20
154.9505547548585
 30
0.0
 40
4.5
100
AcDbArc
 50
106.12762
 51
251.835682
  0
LINE
  5
11F7
330
11BC
100
AcDbEntity
  8
1
  6
Continuous
100
AcDbLine
 10
48.3687990344884
 20
156.8005547548587
 30
0.0
 11
48.3687990344884
 21
151.0276507548586
 31
0.0
  0
LINE
  5
11F8
330
11BC
100
AcDbEntity
  8
1
  6
Continuous
100
AcDbLine
 10
46.26879903448838
 20
156.8005547548587
 30
0.0
 11
46.26879903448838
 21
151.0276507548586
 31
0.0
  0
CIRCLE
  5
11F9
330
11BC
100
AcDbEntity
  8
1
  6
Continuous
100
AcDbCircle
 10
47.31879903448839
 20
154.9505547548585
 30
0.0
 40
5.5
  0
LINE
  5
11FA
330
11BC
100
AcDbEntity
  8
4
  6
CENTER
 48
0.3
100
AcDbLine
 10
47.31879903448839
 20
136.0940955587693
 30
0.0
 11
47.31879903448839
 21
193.9505547548488
 31
0.0
  0
CIRCLE
  5
11FB
330
11BC
100
AcDbEntity
  8
1
  6
Continuous
100
AcDbCircle
 10
47.31879903448839
 20
154.9505547548585
 30
0.0
 40
12.0
  0
CIRCLE
  5
11FC
330
11BC
100
AcDbEntity
  8
1
  6
Continuous
100
AcDbCircle
 10
47.31879903448839
 20
154.9505547548585
 30
0.0
 40
10.0
  0
ARC
  5
11FD
330
11BC
100
AcDbEntity
  8
1
  6
Continuous
100
AcDbCircle
 10
47.31879903448839
 20
154.9505547548585
 30
0.0
 40
4.5
100
AcDbArc
 50
251.835682
 51
288.1643179999998
  0
LINE
  5
11FE
330
11BC
100
AcDbEntity
  8
1
  6
Continuous
100
AcDbLine
 10
22.81879903449834
 20
145.4505547548586
 30
0.0
 11
39.70119009173908
 21
145.4505547548586
 31
0.0
  0
LINE
  5
11FF
330
11BC
100
AcDbEntity
  8
1
  6
Continuous
100
AcDbLine
 10
46.26879903448838
 20
151.0276507548586
 30
0.0
 11
45.14116603448838
 21
149.9000187548585
 31
0.0
  0
LINE
  5
1200
330
11BC
100
AcDbEntity
  8
1
  6
Continuous
100
AcDbLine
 10
48.3687990344884
 20
151.0276507548586
 30
0.0
 11
49.49643103448838
 21
149.9000187548585
 31
0.0
  0
ARC
  5
1201
330
11BC
100
AcDbEntity
  8
1
  6
Continuous
100
AcDbCircle
 10
47.31879903448839
 20
154.9505547548585
 30
0.0
 40
5.0
100
AcDbArc
 50
75.52248799999998
 51
104.477512
  0
LINE
  5
1202
330
11BC
100
AcDbEntity
  8
1
  6
Continuous
100
AcDbLine
 10
46.26879903448838
 20
156.8005547548587
 30
0.0
 11
48.3687990344884
 21
156.8005547548587
 31
0.0
  0
ARC
  5
1203
330
11BC
100
AcDbEntity
  8
5
  6
PHANTOM
 48
0.2
100
AcDbCircle
 10
47.31879903448839
 20
179.4505547548488
 30
0.0
 40
9.5
100
AcDbArc
 50
0.0
 51
180.0
  0
LINE
  5
1204
330
11BC
100
AcDbEntity
  8
5
  6
PHANTOM
 48
0.2
100
AcDbLine
 10
37.81879903448839
 20
179.4505547548488
 30
0.0
 11
37.81879903448839
 21
163.3221863936466
 31
0.0
  0
LINE
  5
1205
330
11BC
100
AcDbEntity
  8
1
  6
Continuous
100
AcDbLine
 10
39.70119009173888
 20
164.4505547548585
 30
0.0
 11
22.81879903449834
 21
164.4505547548585
 31
0.0
  0
LINE
  5
1206
330
11BC
100
AcDbEntity
  8
5
  6
PHANTOM
 48
0.2
100
AcDbLine
 10
56.81879903448839
 20
163.3221863936466
 30
0.0
 11
56.81879903448839
 21
179.4505547548488
 31
0.0
  0
LINE
  5
120A
330
11BC
100
AcDbEntity
  8
1
  6
Continuous
100
AcDbLine
 10
132.5993139690162
 20
142.9505547548584
 30
0.0
 11
132.5993139690162
 21
166.9505547548585
 31
0.0
  0
LINE
  5
120B
330
11BC
100
AcDbEntity
  8
1
  6
Continuous
100
AcDbLine
 10
129.4993139690162
 20
142.9505547548584
 30
0.0
 11
129.4993139690162
 21
166.9505547548585
 31
0.0
  0
LINE
  5
120C
330
11BC
100
AcDbEntity
  8
1
  6
Continuous
100
AcDbLine
 10
125.8993139690162
 20
164.9505547548585
 30
0.0
 11
125.8993139690162
 21
144.9505547548585
 31
0.0
  0
LINE
  5
120D
330
11BC
100
AcDbEntity
  8
1
  6
Continuous
100
AcDbLine
 10
127.8993139690162
 20
166.9505547548585
 30
0.0
 11
127.8993139690162
 21
142.9505547548584
 31
0.0
  0
LINE
  5
120E
330
11BC
100
AcDbEntity
  8
1
  6
Continuous
100
AcDbLine
 10
124.8993139690162
 20
150.4505547548586
 30
0.0
 11
124.8993139690162
 21
159.4505547548584
 31
0.0
  0
LINE
  5
120F
330
11BC
100
AcDbEntity
  8
1
  6
Continuous
100
AcDbLine
 10
129.4993139690162
 20
142.9505547548584
 30
0.0
 11
132.5993139690162
 21
142.9505547548584
 31
0.0
  0
LINE
  5
1210
330
11BC
100
AcDbEntity
  8
1
  6
Continuous
100
AcDbLine
 10
125.8993139690162
 20
144.9505547548585
 30
0.0
 11
127.8993139690162
 21
142.9505547548584
 31
0.0
  0
LINE
  5
1211
330
11BC
100
AcDbEntity
  8
1
  6
Continuous
100
AcDbLine
 10
127.8993139690162
 20
142.9505547548584
 30
0.0
 11
129.4993139690162
 21
142.9505547548584
 31
0.0
  0
LINE
  5
1212
330
11BC
100
AcDbEntity
  8
1
  6
Continuous
100
AcDbLine
 10
125.8993139690162
 20
149.4505547548586
 30
0.0
 11
124.8993139690162
 21
150.4505547548586
 31
0.0
  0
LINE
  5
1214
330
11BC
100
AcDbEntity
  8
1
  6
Continuous
100
AcDbLine
 10
145.9993139690161
 20
152.9505547548585
 30
0.0
 11
145.9993139690161
 21
145.4505547548586
 31
0.0
  0
LINE
  5
1215
330
11BC
100
AcDbEntity
  8
1
  6
Continuous
100
AcDbLine
 10
146.799313969016
 20
152.9505547548585
 30
0.0
 11
146.799313969016
 21
146.2505547548586
 31
0.0
  0
LINE
  5
1216
330
11BC
100
AcDbEntity
  8
1
  6
Continuous
100
AcDbLine
 10
132.5993139690162
 20
145.4505547548586
 30
0.0
 11
145.9993139690161
 21
145.4505547548586
 31
0.0
  0
LINE
  5
1217
330
11BC
100
AcDbEntity
  8
2
  6
Continuous
100
AcDbLine
 10
132.5993139690162
 20
145.9920547548586
 30
0.0
 11
146.540813969016
 21
145.9920547548586
 31
0.0
  0
LINE
  5
1218
330
11BC
100
AcDbEntity
  8
1
  6
Continuous
100
AcDbLine
 10
146.799313969016
 20
146.2505547548586
 30
0.0
 11
145.9993139690161
 21
145.4505547548586
 31
0.0
  0
LINE
  5
1219
330
11BC
100
AcDbEntity
  8
1
  6
Continuous
100
AcDbLine
 10
129.4993139690162
 20
166.9505547548585
 30
0.0
 11
132.5993139690162
 21
166.9505547548585
 31
0.0
  0
LINE
  5
121A
330
11BC
100
AcDbEntity
  8
1
  6
Continuous
100
AcDbLine
 10
124.8993139690161
 20
159.4505547548584
 30
0.0
 11
125.8993139690161
 21
160.4505547548584
 31
0.0
  0
LINE
  5
121B
330
11BC
100
AcDbEntity
  8
1
  6
Continuous
100
AcDbLine
 10
127.8993139690162
 20
166.9505547548585
 30
0.0
 11
125.8993139690162
 21
164.9505547548585
 31
0.0
  0
LINE
  5
121C
330
11BC
100
AcDbEntity
  8
1
  6
Continuous
100
AcDbLine
 10
127.8993139690162
 20
166.9505547548585
 30
0.0
 11
129.4993139690162
 21
166.9505547548585
 31
0.0
  0
LINE
  5
121E
330
11BC
100
AcDbEntity
  8
1
  6
Continuous
100
AcDbLine
 10
132.5993139690162
 20
156.9845647548585
 30
0.0
 11
145.9993139690161
 21
156.9845647548585
 31
0.0
  0
LINE
  5
121F
330
11BC
100
AcDbEntity
  8
1
  6
Continuous
100
AcDbLine
 10
146.799313969016
 20
158.3758177548585
 30
0.0
 11
145.9993139690161
 21
156.9845647548585
 31
0.0
  0
LINE
  5
1220
330
11BC
100
AcDbEntity
  8
1
  6
Continuous
100
AcDbLine
 10
145.9993139690161
 20
156.9845647548585
 30
0.0
 11
145.9993139690161
 21
156.9505547548585
 31
0.0
  0
LINE
  5
1221
330
11BC
100
AcDbEntity
  8
1
  6
Continuous
100
AcDbLine
 10
146.799313969016
 20
158.3758177548585
 30
0.0
 11
146.799313969016
 21
156.9505547548585
 31
0.0
  0
LINE
  5
1222
330
11BC
100
AcDbEntity
  8
1
  6
Continuous
100
AcDbLine
 10
132.5993139690162
 20
164.4505547548585
 30
0.0
 11
145.9993139690161
 21
164.4505547548585
 31
0.0
  0
LINE
  5
1223
330
11BC
100
AcDbEntity
  8
1
  6
Continuous
100
AcDbLine
 10
132.5993139690162
 20
164.2302527548585
 30
0.0
 11
145.9993139690161
 21
164.2302527548585
 31
0.0
  0
LINE
  5
1224
330
11BC
100
AcDbEntity
  8
1
  6
Continuous
100
AcDbLine
 10
146.799313969016
 20
162.8390007548588
 30
0.0
 11
145.9993139690161
 21
164.2302527548585
 31
0.0
  0
LINE
  5
1225
330
11BC
100
AcDbEntity
  8
1
  6
Continuous
100
AcDbLine
 10
146.799313969016
 20
163.6505547548584
 30
0.0
 11
145.9993139690161
 21
164.4505547548584
 31
0.0
  0
LINE
  5
1226
330
11BC
100
AcDbEntity
  8
1
  6
Continuous
100
AcDbLine
 10
145.9993139690161
 20
164.4505547548585
 30
0.0
 11
145.9993139690161
 21
164.2302527548585
 31
0.0
  0
LINE
  5
1227
330
11BC
100
AcDbEntity
  8
1
  6
Continuous
100
AcDbLine
 10
146.799313969016
 20
163.6505547548587
 30
0.0
 11
146.799313969016
 21
162.8390007548588
 31
0.0
  0
LINE
  5
122A
330
11BC
100
AcDbEntity
  8
4
  6
CENTER
 48
0.3
100
AcDbLine
 10
312.1378477598692
 20
154.9505547548585
 30
0.0
 11
258.2398191862016
 21
154.9505547548585
 31
0.0
  0
ARC
  5
122B
330
11BC
100
AcDbEntity
  8
2
  6
Continuous
100
AcDbCircle
 10
275.1378477598791
 20
154.9505547548585
 30
0.0
 40
4.0
100
AcDbArc
 50
308.682187
 51
51.317813
  0
ARC
  5
122C
330
11BC
100
AcDbEntity
  8
2
  6
Continuous
100
AcDbCircle
 10
275.1378477598791
 20
154.9505547548585
 30
0.0
 40
4.0
100
AcDbArc
 50
128.682187
 51
231.317813
  0
LINE
  5
122D
330
11BC
100
AcDbEntity
  8
1
  6
Continuous
100
AcDbLine
 10
277.6378477598792
 20
158.0730537540578
 30
0.0
 11
277.6378477598792
 21
151.8280557556595
 31
0.0
  0
LINE
  5
122E
330
11BC
100
AcDbEntity
  8
1
  6
Continuous
100
AcDbLine
 10
272.6378477598792
 20
158.0730537540578
 30
0.0
 11
272.6378477598792
 21
151.8280557556595
 31
0.0
  0
LINE
  5
122F
330
11BC
100
AcDbEntity
  8
1
  6
Continuous
100
AcDbLine
 10
154.0993139690161
 20
147.4505607548586
 30
0.0
 11
154.0993139690161
 21
162.4505487548586
 31
0.0
  0
ARC
  5
1230
330
11BC
100
AcDbEntity
  8
1
  6
Continuous
100
AcDbCircle
 10
168.432646969016
 20
154.9505547548585
 30
0.0
 40
14.33333299999999
100
AcDbArc
 50
164.821821
 51
195.178179
  0
ARC
  5
1231
330
11BC
100
AcDbEntity
  8
1
  6
Continuous
100
AcDbCircle
 10
141.7659799690162
 20
154.9505547548585
 30
0.0
 40
14.33333299999999
100
AcDbArc
 50
344.821821
 51
15.17817900000001
  0
LINE
  5
1232
330
11BC
100
AcDbEntity
  8
1
  6
Continuous
100
AcDbLine
 10
156.0993139690161
 20
160.5797202181474
 30
0.0
 11
156.0993139690161
 21
149.3213892915697
 31
0.0
  0
LINE
  5
1233
330
11BC
100
AcDbEntity
  8
1
  6
Continuous
100
AcDbLine
 10
153.7993139690162
 20
145.4505547548586
 30
0.0
 11
153.7993139690162
 21
164.4505547548585
 31
0.0
  0
LINE
  5
1234
330
11BC
100
AcDbEntity
  8
1
  6
Continuous
100
AcDbLine
 10
150.599313969016
 20
145.4505547548586
 30
0.0
 11
150.599313969016
 21
164.4505547548585
 31
0.0
  0
LINE
  5
1235
330
11BC
100
AcDbEntity
  8
1
  6
Continuous
100
AcDbLine
 10
148.199313969016
 20
146.2505547548586
 30
0.0
 11
148.199313969016
 21
163.6505547548587
 31
0.0
  0
LINE
  5
1236
330
11BC
100
AcDbEntity
  8
1
  6
Continuous
100
AcDbLine
 10
158.3993139690161
 20
157.9505547548586
 30
0.0
 11
158.3993139690161
 21
151.9505547548585
 31
0.0
  0
LINE
  5
1237
330
11BC
100
AcDbEntity
  8
1
  6
Continuous
100
AcDbLine
 10
148.7993139690162
 20
159.4505547548584
 30
0.0
 11
148.7993139690162
 21
150.4505547548586
 31
0.0
  0
LINE
  5
1238
330
11BC
100
AcDbEntity
  8
1
  6
Continuous
100
AcDbLine
 10
148.9993139690161
 20
146.4505547548585
 30
0.0
 11
148.9993139690161
 21
163.4505547548585
 31
0.0
  0
LINE
  5
1239
330
11BC
100
AcDbEntity
  8
1
  6
Continuous
100
AcDbLine
 10
155.599313969016
 20
151.1977777548587
 30
0.0
 11
154.599313969016
 21
151.1977777548587
 31
0.0
  0
LINE
  5
123A
330
11BC
100
AcDbEntity
  8
1
  6
Continuous
100
AcDbLine
 10
154.599313969016
 20
147.4450008282813
 30
0.0
 11
155.599313969016
 21
147.4450008282813
 31
0.0
  0
LINE
  5
123B
330
11BC
100
AcDbEntity
  8
1
  6
Continuous
100
AcDbLine
 10
150.599313969016
 20
145.4505547548586
 30
0.0
 11
153.7993139690162
 21
145.4505547548586
 31
0.0
  0
LINE
  5
123C
330
11BC
100
AcDbEntity
  8
1
  6
Continuous
100
AcDbLine
 10
148.9993139690161
 20
146.4505547548585
 30
0.0
 11
150.599313969016
 21
146.4505547548585
 31
0.0
  0
LINE
  5
123D
330
11BC
100
AcDbEntity
  8
1
  6
Continuous
100
AcDbLine
 10
148.9993139690161
 20
146.8420717548587
 30
0.0
 11
150.599313969016
 21
146.8420717548587
 31
0.0
  0
LINE
  5
123E
330
11BC
100
AcDbEntity
  8
1
  6
Continuous
100
AcDbLine
 10
153.7993139690162
 20
147.4505607548586
 30
0.0
 11
154.0993139690161
 21
147.4505607548586
 31
0.0
  0
LINE
  5
123F
330
11BC
100
AcDbEntity
  8
1
  6
Continuous
100
AcDbLine
 10
148.9993139690161
 20
152.4005547548585
 30
0.0
 11
150.599313969016
 21
152.4005547548585
 31
0.0
  0
LINE
  5
1240
330
11BC
100
AcDbEntity
  8
1
  6
Continuous
100
AcDbLine
 10
148.7993139690162
 20
150.4505547548586
 30
0.0
 11
148.9993139690161
 21
150.6505547548584
 31
0.0
  0
LINE
  5
1241
330
11BC
100
AcDbEntity
  8
1
  6
Continuous
100
AcDbLine
 10
148.199313969016
 20
150.4505547548586
 30
0.0
 11
148.7993139690162
 21
150.4505547548586
 31
0.0
  0
LINE
  5
1242
330
11BC
100
AcDbEntity
  8
1
  6
Continuous
100
AcDbLine
 10
156.0993139690161
 20
150.9505547548585
 30
0.0
 11
157.3993139690161
 21
150.9505547548585
 31
0.0
  0
LINE
  5
1243
330
11BC
100
AcDbEntity
  8
2
  6
Continuous
100
AcDbLine
 10
156.0993139690161
 20
153.4486127548586
 30
0.0
 11
158.3993139690161
 21
151.9505547548585
 31
0.0
  0
LINE
  5
1244
330
11BC
100
AcDbEntity
  8
2
  6
Continuous
100
AcDbLine
 10
156.0993139690161
 20
151.3565547548586
 30
0.0
 11
157.8053139690162
 21
151.3565547548586
 31
0.0
  0
LINE
  5
1245
330
11BC
100
AcDbEntity
  8
1
  6
Continuous
100
AcDbLine
 10
156.0993139690161
 20
151.8280557548585
 30
0.0
 11
158.2768149690162
 21
151.8280557548585
 31
0.0
  0
LINE
  5
1246
330
11BC
100
AcDbEntity
  8
1
  6
Continuous
100
AcDbLine
 10
157.3993139690161
 20
151.8280557548585
 30
0.0
 11
157.3993139690161
 21
150.9505547548585
 31
0.0
  0
LINE
  5
1247
330
11BC
100
AcDbEntity
  8
1
  6
Continuous
100
AcDbLine
 10
158.3993139690161
 20
151.9505547548584
 30
0.0
 11
157.3993139690161
 21
150.9505547548585
 31
0.0
  0
ARC
  5
1248
330
11BC
100
AcDbEntity
  8
1
  6
Continuous
100
AcDbCircle
 10
275.1378477598791
 20
154.9505547548585
 30
0.0
 40
2.999999999988943
100
AcDbArc
 50
213.5573097616024
 51
326.4426902383974
  0
ARC
  5
1249
330
11BC
100
AcDbEntity
  8
1
  6
Continuous
100
AcDbCircle
 10
275.1378477598791
 20
154.9505547548585
 30
0.0
 40
4.0
100
AcDbArc
 50
231.3178125465105
 51
308.6821874534894
  0
LINE
  5
124A
330
11BC
100
AcDbEntity
  8
1
  6
Continuous
100
AcDbLine
 10
155.599313969016
 20
158.7033317548588
 30
0.0
 11
154.599313969016
 21
158.7033317548588
 31
0.0
  0
LINE
  5
124B
330
11BC
100
AcDbEntity
  8
1
  6
Continuous
100
AcDbLine
 10
154.599313969016
 20
162.456108681436
 30
0.0
 11
155.599313969016
 21
162.456108681436
 31
0.0
  0
LINE
  5
124C
330
11BC
100
AcDbEntity
  8
1
  6
Continuous
100
AcDbLine
 10
148.9993139690161
 20
157.5005547548586
 30
0.0
 11
150.599313969016
 21
157.5005547548586
 31
0.0
  0
LINE
  5
124D
330
11BC
100
AcDbEntity
  8
1
  6
Continuous
100
AcDbLine
 10
148.199313969016
 20
161.6959677548586
 30
0.0
 11
148.9993139690161
 21
161.6959677548586
 31
0.0
  0
LINE
  5
124E
330
11BC
100
AcDbEntity
  8
1
  6
Continuous
100
AcDbLine
 10
148.7993139690162
 20
159.4505547548584
 30
0.0
 11
148.9993139690161
 21
159.2505547548586
 31
0.0
  0
LINE
  5
124F
330
11BC
100
AcDbEntity
  8
1
  6
Continuous
100
AcDbLine
 10
148.199313969016
 20
159.4505547548584
 30
0.0
 11
148.7993139690162
 21
159.4505547548584
 31
0.0
  0
LINE
  5
1250
330
11BC
100
AcDbEntity
  8
1
  6
Continuous
100
AcDbLine
 10
150.599313969016
 20
164.4505547548585
 30
0.0
 11
153.7993139690162
 21
164.4505547548585
 31
0.0
  0
LINE
  5
1251
330
11BC
100
AcDbEntity
  8
1
  6
Continuous
100
AcDbLine
 10
148.9993139690161
 20
163.4505547548585
 30
0.0
 11
150.599313969016
 21
163.4505547548585
 31
0.0
  0
LINE
  5
1252
330
11BC
100
AcDbEntity
  8
1
  6
Continuous
100
AcDbLine
 10
148.9993139690161
 20
163.0590377548584
 30
0.0
 11
150.599313969016
 21
163.0590377548584
 31
0.0
  0
LINE
  5
1253
330
11BC
100
AcDbEntity
  8
1
  6
Continuous
100
AcDbLine
 10
148.199313969016
 20
163.2377767548588
 30
0.0
 11
148.9993139690161
 21
163.2377767548588
 31
0.0
  0
LINE
  5
1254
330
11BC
100
AcDbEntity
  8
1
  6
Continuous
100
AcDbLine
 10
153.7993139690162
 20
162.4505487548586
 30
0.0
 11
154.0993139690161
 21
162.4505487548586
 31
0.0
  0
LINE
  5
1255
330
11BC
100
AcDbEntity
  8
1
  6
Continuous
100
AcDbLine
 10
156.0993139690161
 20
158.9505547548585
 30
0.0
 11
157.3993139690161
 21
158.9505547548585
 31
0.0
  0
LINE
  5
1256
330
11BC
100
AcDbEntity
  8
2
  6
Continuous
100
AcDbLine
 10
156.0993139690164
 20
156.4524967548588
 30
0.0
 11
158.3993139690161
 21
157.9505547548588
 31
0.0
  0
LINE
  5
1257
330
11BC
100
AcDbEntity
  8
1
  6
Continuous
100
AcDbLine
 10
156.0993139690161
 20
158.0730537548586
 30
0.0
 11
158.2768149690162
 21
158.0730537548586
 31
0.0
  0
LINE
  5
1258
330
11BC
100
AcDbEntity
  8
1
  6
Continuous
100
AcDbLine
 10
157.3993139690161
 20
158.9505547548585
 30
0.0
 11
157.3993139690161
 21
158.0730537548586
 31
0.0
  0
LINE
  5
1259
330
11BC
100
AcDbEntity
  8
1
  6
Continuous
100
AcDbLine
 10
157.3993139690161
 20
158.9505547548585
 30
0.0
 11
158.3993139690161
 21
157.9505547548586
 31
0.0
  0
LINE
  5
125A
330
11BC
100
AcDbEntity
  8
4
  6
CENTER
 48
0.3
100
AcDbLine
 10
275.1378477598791
 20
171.8485833285363
 30
0.0
 11
275.1378477598791
 21
137.9553802167904
 31
0.0
  0
ARC
  5
125B
330
11BC
100
AcDbEntity
  8
1
  6
Continuous
100
AcDbCircle
 10
275.1378477598791
 20
154.9505547548585
 30
0.0
 40
2.999999999988943
100
AcDbArc
 50
33.55730976160253
 51
146.4426902383974
  0
ARC
  5
125C
330
11BC
100
AcDbEntity
  8
1
  6
Continuous
100
AcDbCircle
 10
275.1378477598791
 20
154.9505547548585
 30
0.0
 40
4.0
100
AcDbArc
 50
51.31781254651057
 51
128.6821874534894
  0
ARC
  5
125D
330
11BC
100
AcDbEntity
  8
1
  6
Continuous
100
AcDbCircle
 10
299.6378477598692
 20
154.9505547548585
 30
0.0
 40
9.5
100
AcDbArc
 50
270.0
 51
90.0
  0
LINE
  5
125E
330
11BC
100
AcDbEntity
  8
1
  6
Continuous
100
AcDbLine
 10
275.1378477598791
 20
145.4505547548586
 30
0.0
 11
299.6378477598692
 21
145.4505547548586
 31
0.0
  0
LINE
  5
125F
330
11BC
100
AcDbEntity
  8
1
  6
Continuous
100
AcDbLine
 10
299.6378477598692
 20
164.4505547548585
 30
0.0
 11
275.1378477598791
 21
164.4505547548585
 31
0.0
  0
LINE
  5
1260
330
11BC
100
AcDbEntity
  8
4
  6
CENTER
 48
0.3
100
AcDbLine
 10
121.8993139690162
 20
59.97691368235052
 30
0.0
 11
161.6377253769974
 21
59.97691368235052
 31
0.0
  0
ARC
  5
1261
330
11BC
100
AcDbEntity
  8
1
  6
Continuous
100
AcDbCircle
 10
144.995178969016
 20
59.97691368235052
 30
0.0
 40
2.000767999999998
100
AcDbArc
 50
271.587147
 51
88.41285299999999
  0
LINE
  5
1262
330
11BC
100
AcDbEntity
  8
1
  6
Continuous
100
AcDbLine
 10
132.5993139690162
 20
61.97691368235052
 30
0.0
 11
148.199313969016
 21
61.97691368235052
 31
0.0
  0
LINE
  5
1263
330
11BC
100
AcDbEntity
  8
1
  6
Continuous
100
AcDbLine
 10
132.5993139690162
 20
57.97691368235053
 30
0.0
 11
148.199313969016
 21
57.97691368235053
 31
0.0
  0
LINE
  5
1264
330
11BC
100
AcDbEntity
  8
2
  6
Continuous
100
AcDbLine
 10
132.5993139690162
 20
51.66773718911864
 30
0.0
 11
148.199313969016
 21
56.55165068235049
 31
0.0
  0
LINE
  5
1265
330
11BC
100
AcDbEntity
  8
2
  6
Continuous
100
AcDbLine
 10
148.199313969016
 20
52.08846868235047
 30
0.0
 11
132.5993139690162
 21
56.97238217558236
 31
0.0
  0
LINE
  5
1266
330
11BC
100
AcDbEntity
  8
1
  6
Continuous
100
AcDbLine
 10
146.799313969016
 20
52.08846868235047
 30
0.0
 11
148.199313969016
 21
52.08846868235047
 31
0.0
  0
LINE
  5
1267
330
11BC
100
AcDbEntity
  8
1
  6
Continuous
100
AcDbLine
 10
146.799313969016
 20
56.55165068235049
 30
0.0
 11
148.199313969016
 21
56.55165068235049
 31
0.0
  0
LINE
  5
1268
330
11BC
100
AcDbEntity
  8
1
  6
Continuous
100
AcDbLine
 10
146.799313969016
 20
68.67691368235051
 30
0.0
 11
148.199313969016
 21
68.67691368235051
 31
0.0
  0
LINE
  5
1269
330
11BC
100
AcDbEntity
  8
1
  6
Continuous
100
AcDbLine
 10
146.799313969016
 20
51.27691368235051
 30
0.0
 11
148.199313969016
 21
51.27691368235051
 31
0.0
  0
LINE
  5
126A
330
11BC
100
AcDbEntity
  8
1
  6
Continuous
100
AcDbLine
 10
125.8993139690162
 20
49.97691368235052
 30
0.0
 11
125.8993139690162
 21
69.97691368235051
 31
0.0
  0
LINE
  5
126B
330
11BC
100
AcDbEntity
  8
1
  6
Continuous
100
AcDbLine
 10
124.8993139690161
 20
64.47691368235052
 30
0.0
 11
124.8993139690161
 21
61.22691368235052
 31
0.0
  0
LINE
  5
126F
330
11BC
100
AcDbEntity
  8
1
  6
Continuous
100
AcDbLine
 10
132.5993139690162
 20
71.97691368235052
 30
0.0
 11
132.5993139690162
 21
47.97691368235052
 31
0.0
  0
LINE
  5
1270
330
11BC
100
AcDbEntity
  8
1
  6
Continuous
100
AcDbLine
 10
145.9993139690161
 20
61.97691368235052
 30
0.0
 11
145.9993139690161
 21
69.47691368235052
 31
0.0
  0
LINE
  5
1271
330
11BC
100
AcDbEntity
  8
1
  6
Continuous
100
AcDbLine
 10
146.799313969016
 20
61.97691368235052
 30
0.0
 11
146.799313969016
 21
68.67691368235051
 31
0.0
  0
LINE
  5
1272
330
11BC
100
AcDbEntity
  8
1
  6
Continuous
100
AcDbLine
 10
129.4993139690162
 20
71.97691368235052
 30
0.0
 11
129.4993139690162
 21
47.97691368235052
 31
0.0
  0
LINE
  5
1273
330
11BC
100
AcDbEntity
  8
1
  6
Continuous
100
AcDbLine
 10
127.8993139690162
 20
47.97691368235052
 30
0.0
 11
127.8993139690162
 21
71.97691368235052
 31
0.0
  0
LINE
  5
1274
330
11BC
100
AcDbEntity
  8
1
  6
Continuous
100
AcDbLine
 10
129.4993139690162
 20
47.97691368235052
 30
0.0
 11
132.5993139690162
 21
47.97691368235052
 31
0.0
  0
LINE
  5
1275
330
11BC
100
AcDbEntity
  8
1
  6
Continuous
100
AcDbLine
 10
127.8993139690162
 20
47.97691368235047
 30
0.0
 11
125.8993139690162
 21
49.97691368235047
 31
0.0
  0
LINE
  5
1276
330
11BC
100
AcDbEntity
  8
1
  6
Continuous
100
AcDbLine
 10
127.8993139690162
 20
47.97691368235052
 30
0.0
 11
129.4993139690162
 21
47.97691368235052
 31
0.0
  0
LINE
  5
1277
330
11BC
100
AcDbEntity
  8
1
  6
Continuous
100
AcDbLine
 10
124.8993139690161
 20
58.72691368235052
 30
0.0
 11
124.8993139690161
 21
55.47691368235053
 31
0.0
  0
LINE
  5
1278
330
11BC
100
AcDbEntity
  8
1
  6
Continuous
100
AcDbLine
 10
124.8993139690159
 20
55.47691368235047
 30
0.0
 11
125.8993139690161
 21
54.47691368235041
 31
0.0
  0
LINE
  5
1279
330
11BC
100
AcDbEntity
  8
1
  6
Continuous
100
AcDbLine
 10
125.8993139690162
 20
57.79928168235568
 30
0.0
 11
124.8993139690161
 21
58.57406907794553
 31
0.0
  0
LINE
  5
127A
330
11BC
100
AcDbEntity
  8
1
  6
Continuous
100
AcDbLine
 10
125.8993139690162
 20
62.15454568234529
 30
0.0
 11
124.8993139690161
 21
61.37975828675553
 31
0.0
  0
LINE
  5
127B
330
11BC
100
AcDbEntity
  8
1
  6
Continuous
100
AcDbLine
 10
125.3993139690162
 20
61.02691368235051
 30
0.0
 11
125.8993139690161
 21
61.02691368235051
 31
0.0
  0
LINE
  5
127C
330
11BC
100
AcDbEntity
  8
1
  6
Continuous
100
AcDbLine
 10
125.3993139690162
 20
58.92691368235053
 30
0.0
 11
125.8993139690161
 21
58.92691368235053
 31
0.0
  0
LINE
  5
127D
330
11BC
100
AcDbEntity
  8
1
  6
Continuous
100
AcDbLine
 10
125.3993139690162
 20
61.22691368235052
 30
0.0
 11
125.3993139690162
 21
58.72691368235052
 31
0.0
  0
LINE
  5
127E
330
11BC
100
AcDbEntity
  8
1
  6
Continuous
100
AcDbLine
 10
125.3993139690162
 20
58.72691368235052
 30
0.0
 11
124.8993139690161
 21
58.72691368235052
 31
0.0
  0
LINE
  5
127F
330
11BC
100
AcDbEntity
  8
1
  6
Continuous
100
AcDbLine
 10
124.8993139690161
 20
61.22691368235052
 30
0.0
 11
125.3993139690162
 21
61.22691368235052
 31
0.0
  0
LINE
  5
1281
330
11BC
100
AcDbEntity
  8
1
  6
Continuous
100
AcDbLine
 10
146.799313969016
 20
52.0884686823505
 30
0.0
 11
145.9993139690161
 21
50.69721568235053
 31
0.0
  0
LINE
  5
1282
330
11BC
100
AcDbEntity
  8
1
  6
Continuous
100
AcDbLine
 10
146.799313969016
 20
51.27691368235051
 30
0.0
 11
146.799313969016
 21
52.08846868235047
 31
0.0
  0
LINE
  5
1283
330
11BC
100
AcDbEntity
  8
1
  6
Continuous
100
AcDbLine
 10
132.5993139690162
 20
50.47691368235053
 30
0.0
 11
145.9993139690161
 21
50.47691368235053
 31
0.0
  0
LINE
  5
1284
330
11BC
100
AcDbEntity
  8
1
  6
Continuous
100
AcDbLine
 10
132.5993139690162
 20
50.69721568235047
 30
0.0
 11
145.9993139690161
 21
50.69721568235047
 31
0.0
  0
LINE
  5
1285
330
11BC
100
AcDbEntity
  8
1
  6
Continuous
100
AcDbLine
 10
146.799313969016
 20
51.27691368235051
 30
0.0
 11
145.9993139690161
 21
50.47691368235053
 31
0.0
  0
LINE
  5
1286
330
11BC
100
AcDbEntity
  8
1
  6
Continuous
100
AcDbLine
 10
145.9993139690161
 20
50.47691368235053
 30
0.0
 11
145.9993139690161
 21
50.69721568235047
 31
0.0
  0
LINE
  5
1288
330
11BC
100
AcDbEntity
  8
1
  6
Continuous
100
AcDbLine
 10
146.799313969016
 20
56.55165068235049
 30
0.0
 11
145.9993139690161
 21
57.9429036823505
 31
0.0
  0
LINE
  5
1289
330
11BC
100
AcDbEntity
  8
1
  6
Continuous
100
AcDbLine
 10
146.799313969016
 20
56.55165068235049
 30
0.0
 11
146.799313969016
 21
57.97691368235053
 31
0.0
  0
LINE
  5
128A
330
11BC
100
AcDbEntity
  8
1
  6
Continuous
100
AcDbLine
 10
132.5993139690162
 20
57.9429036823505
 30
0.0
 11
145.9993139690161
 21
57.9429036823505
 31
0.0
  0
LINE
  5
128B
330
11BC
100
AcDbEntity
  8
1
  6
Continuous
100
AcDbLine
 10
145.9993139690161
 20
57.9429036823505
 30
0.0
 11
145.9993139690161
 21
57.97691368235053
 31
0.0
  0
LINE
  5
128C
330
11BC
100
AcDbEntity
  8
1
  6
Continuous
100
AcDbLine
 10
129.4993139690162
 20
71.97691368235052
 30
0.0
 11
132.5993139690162
 21
71.97691368235052
 31
0.0
  0
LINE
  5
128D
330
11BC
100
AcDbEntity
  8
1
  6
Continuous
100
AcDbLine
 10
124.8993139690161
 20
64.47691368235052
 30
0.0
 11
125.8993139690162
 21
65.47691368235053
 31
0.0
  0
LINE
  5
128E
330
11BC
100
AcDbEntity
  8
1
  6
Continuous
100
AcDbLine
 10
125.8993139690162
 20
69.97691368235051
 30
0.0
 11
127.8993139690162
 21
71.97691368235052
 31
0.0
  0
LINE
  5
128F
330
11BC
100
AcDbEntity
  8
1
  6
Continuous
100
AcDbLine
 10
127.8993139690162
 20
71.97691368235052
 30
0.0
 11
129.4993139690162
 21
71.97691368235052
 31
0.0
  0
LINE
  5
1290
330
11BC
100
AcDbEntity
  8
1
  6
Continuous
100
AcDbLine
 10
146.799313969016
 20
68.67691368235051
 30
0.0
 11
145.9993139690161
 21
69.47691368235052
 31
0.0
  0
LINE
  5
1291
330
11BC
100
AcDbEntity
  8
1
  6
Continuous
100
AcDbLine
 10
132.5993139690162
 20
69.47691368235052
 30
0.0
 11
145.9993139690161
 21
69.47691368235052
 31
0.0
  0
LINE
  5
1292
330
11BC
100
AcDbEntity
  8
1
  6
Continuous
100
AcDbLine
 10
154.0993139690161
 20
52.47691968235051
 30
0.0
 11
154.0993139690161
 21
67.47690768235051
 31
0.0
  0
LINE
  5
1293
330
11BC
100
AcDbEntity
  8
1
  6
Continuous
100
AcDbLine
 10
156.0993139690161
 20
56.72691364736834
 30
0.0
 11
156.0993139690161
 21
63.22691371733265
 31
0.0
  0
LINE
  5
1294
330
11BC
100
AcDbEntity
  8
1
  6
Continuous
100
AcDbLine
 10
153.7993139690162
 20
69.47691368235052
 30
0.0
 11
153.7993139690162
 21
25.97691368235048
 31
0.0
  0
LINE
  5
1295
330
11BC
100
AcDbEntity
  8
1
  6
Continuous
100
AcDbLine
 10
150.599313969016
 20
69.47691368235052
 30
0.0
 11
150.599313969016
 21
25.97691368235048
 31
0.0
  0
LINE
  5
1296
330
11BC
100
AcDbEntity
  8
1
  6
Continuous
100
AcDbLine
 10
148.199313969016
 20
68.67691368235051
 30
0.0
 11
148.199313969016
 21
51.27691368235051
 31
0.0
  0
LINE
  5
1297
330
11BC
100
AcDbEntity
  8
1
  6
Continuous
100
AcDbLine
 10
148.7993139690162
 20
55.47691368235053
 30
0.0
 11
148.7993139690162
 21
64.47691368235052
 31
0.0
  0
LINE
  5
1298
330
11BC
100
AcDbEntity
  8
1
  6
Continuous
100
AcDbLine
 10
148.9993139690161
 20
68.47691368235053
 30
0.0
 11
148.9993139690161
 21
51.47691368235053
 31
0.0
  0
LINE
  5
1299
330
11BC
100
AcDbEntity
  8
1
  6
Continuous
100
AcDbLine
 10
150.599313969016
 20
25.97691368235048
 30
0.0
 11
153.7993139690162
 21
25.97691368235048
 31
0.0
  0
LINE
  5
129A
330
11BC
100
AcDbEntity
  8
1
  6
Continuous
100
AcDbLine
 10
148.9993139690161
 20
51.47691368235053
 30
0.0
 11
150.599313969016
 21
51.47691368235053
 31
0.0
  0
LINE
  5
129B
330
11BC
100
AcDbEntity
  8
1
  6
Continuous
100
AcDbLine
 10
154.599313969016
 20
59.97691368235052
 30
0.0
 11
155.599313969016
 21
59.97691368235052
 31
0.0
  0
LINE
  5
129C
330
11BC
100
AcDbEntity
  8
1
  6
Continuous
100
AcDbLine
 10
148.9993139690161
 20
51.86843068235049
 30
0.0
 11
150.599313969016
 21
51.86843068235049
 31
0.0
  0
LINE
  5
129D
330
11BC
100
AcDbEntity
  8
1
  6
Continuous
100
AcDbLine
 10
148.199313969016
 20
51.6896916823505
 30
0.0
 11
148.9993139690161
 21
51.6896916823505
 31
0.0
  0
LINE
  5
129E
330
11BC
100
AcDbEntity
  8
1
  6
Continuous
100
AcDbLine
 10
148.199313969016
 20
53.2315006823505
 30
0.0
 11
148.9993139690161
 21
53.2315006823505
 31
0.0
  0
LINE
  5
129F
330
11BC
100
AcDbEntity
  8
1
  6
Continuous
100
AcDbLine
 10
148.7993139690162
 20
55.47691368235053
 30
0.0
 11
148.9993139690161
 21
55.67691368235045
 31
0.0
  0
LINE
  5
12A0
330
11BC
100
AcDbEntity
  8
1
  6
Continuous
100
AcDbLine
 10
148.199313969016
 20
55.47691368235053
 30
0.0
 11
148.7993139690162
 21
55.47691368235053
 31
0.0
  0
LINE
  5
12A1
330
11BC
100
AcDbEntity
  8
1
  6
Continuous
100
AcDbLine
 10
153.7993139690162
 20
52.47691968235051
 30
0.0
 11
154.0993139690161
 21
52.47691968235051
 31
0.0
  0
LINE
  5
12A2
330
11BC
100
AcDbEntity
  8
1
  6
Continuous
100
AcDbLine
 10
148.9993139690161
 20
62.52691368235051
 30
0.0
 11
150.599313969016
 21
62.52691368235051
 31
0.0
  0
LINE
  5
12A3
330
11BC
100
AcDbEntity
  8
1
  6
Continuous
100
AcDbLine
 10
148.9993139690161
 20
57.4269136823505
 30
0.0
 11
150.599313969016
 21
57.4269136823505
 31
0.0
  0
LINE
  5
12A4
330
11BC
100
AcDbEntity
  8
1
  6
Continuous
100
AcDbLine
 10
157.3993139690161
 20
62.47691368235052
 30
0.0
 11
157.3993139690161
 21
57.47691368235052
 31
0.0
  0
LINE
  5
12A5
330
11BC
100
AcDbEntity
  8
1
  6
Continuous
100
AcDbLine
 10
156.0993139690161
 20
62.47691368235052
 30
0.0
 11
158.3993139690161
 21
62.47691368235052
 31
0.0
  0
LINE
  5
12A6
330
11BC
100
AcDbEntity
  8
1
  6
Continuous
100
AcDbLine
 10
156.0993139690161
 20
57.47691368235052
 30
0.0
 11
158.3993139690161
 21
57.47691368235052
 31
0.0
  0
LINE
  5
12A7
330
11BC
100
AcDbEntity
  8
1
  6
Continuous
100
AcDbLine
 10
158.3993139690161
 20
62.47691368235052
 30
0.0
 11
158.3993139690161
 21
57.47691368235052
 31
0.0
  0
LINE
  5
12A8
330
11BC
100
AcDbEntity
  8
1
  6
Continuous
100
AcDbLine
 10
154.599313969016
 20
66.47691375231471
 30
0.0
 11
155.599313969016
 21
66.47691375231471
 31
0.0
  0
LINE
  5
12A9
330
11BC
100
AcDbEntity
  8
1
  6
Continuous
100
AcDbLine
 10
148.9993139690161
 20
68.47691368235053
 30
0.0
 11
150.599313969016
 21
68.47691368235053
 31
0.0
  0
LINE
  5
12AA
330
11BC
100
AcDbEntity
  8
1
  6
Continuous
100
AcDbLine
 10
148.9993139690161
 20
68.0853966823505
 30
0.0
 11
150.599313969016
 21
68.0853966823505
 31
0.0
  0
LINE
  5
12AB
330
11BC
100
AcDbEntity
  8
1
  6
Continuous
100
AcDbLine
 10
148.7993139690162
 20
64.47691368235052
 30
0.0
 11
148.9993139690161
 21
64.27691368235051
 31
0.0
  0
LINE
  5
12AC
330
11BC
100
AcDbEntity
  8
1
  6
Continuous
100
AcDbLine
 10
148.199313969016
 20
64.47691368235052
 30
0.0
 11
148.7993139690162
 21
64.47691368235052
 31
0.0
  0
LINE
  5
12AD
330
11BC
100
AcDbEntity
  8
1
  6
Continuous
100
AcDbLine
 10
153.7993139690162
 20
67.47690768235051
 30
0.0
 11
154.0993139690161
 21
67.47690768235051
 31
0.0
  0
LINE
  5
12AE
330
11BC
100
AcDbEntity
  8
1
  6
Continuous
100
AcDbLine
 10
150.599313969016
 20
69.47691368235052
 30
0.0
 11
153.7993139690162
 21
69.47691368235052
 31
0.0
  0
LINE
  5
12AF
330
11BC
100
AcDbEntity
  8
1
  6
Continuous
100
AcDbLine
 10
69.10228619181967
 20
253.9379094619397
 30
0.0
 11
67.13044519181966
 21
252.5629094619397
 31
0.0
  0
LINE
  5
12B0
330
11BC
100
AcDbEntity
  8
1
  6
Continuous
100
AcDbLine
 10
67.13044519181966
 20
258.7129094619397
 30
0.0
 11
69.10228619181964
 21
257.3379094619397
 31
0.0
  0
LINE
  5
12B1
330
11BC
100
AcDbEntity
  8
4
  6
CENTER
 48
0.3
100
AcDbLine
 10
17.99603519181964
 20
255.6379094619396
 30
0.0
 11
72.74709019181965
 21
255.6379094619396
 31
0.0
  0
ARC
  5
12B2
330
11BC
100
AcDbEntity
  8
1
  6
Continuous
100
AcDbCircle
 10
66.63044519181966
 20
255.6379094619396
 30
0.0
 40
3.0
100
AcDbArc
 50
325.481892
 51
34.51810800000001
  0
LINE
  5
12B3
330
11BC
100
AcDbEntity
  8
1
  6
Continuous
100
AcDbLine
 10
31.59813019181968
 20
248.1379094619398
 30
0.0
 11
31.59813019181968
 21
263.1379094619396
 31
0.0
  0
LINE
  5
12B4
330
11BC
100
AcDbEntity
  8
1
  6
Continuous
100
AcDbLine
 10
27.59813019181967
 20
263.1379094619396
 30
0.0
 11
27.59813019181967
 21
248.1379094619398
 31
0.0
  0
LINE
  5
12B5
330
11BC
100
AcDbEntity
  8
1
  6
Continuous
100
AcDbLine
 10
40.63044519181966
 20
259.4778384619397
 30
0.0
 11
40.63044519181966
 21
251.7979794619396
 31
0.0
  0
LINE
  5
12B6
330
11BC
100
AcDbEntity
  8
1
  6
Continuous
100
AcDbLine
 10
26.63044519181966
 20
259.1379094619396
 30
0.0
 11
26.63044519181966
 21
252.1379094619397
 31
0.0
  0
LINE
  5
12B7
330
11BC
100
AcDbEntity
  8
1
  6
Continuous
100
AcDbLine
 10
47.13044519181964
 20
260.2379094619397
 30
0.0
 11
47.13044519181964
 21
258.4129094619397
 31
0.0
  0
LINE
  5
12B8
330
11BC
100
AcDbEntity
  8
1
  6
Continuous
100
AcDbLine
 10
31.56043119181957
 20
244.8443024619396
 30
0.0
 11
40.63044519181966
 21
251.7979794619396
 31
0.0
  0
LINE
  5
12B9
330
11BC
100
AcDbEntity
  8
1
  6
Continuous
100
AcDbLine
 10
32.16886319181966
 20
244.0506964619397
 30
0.0
 11
40.63044519181966
 21
250.5379094619397
 31
0.0
  0
LINE
  5
12BA
330
11BC
100
AcDbEntity
  8
1
  6
Continuous
100
AcDbLine
 10
48.23044519181966
 20
258.7129094619397
 30
0.0
 11
67.13044519181966
 21
258.7129094619397
 31
0.0
  0
LINE
  5
12BB
330
11BC
100
AcDbEntity
  8
1
  6
Continuous
100
AcDbLine
 10
48.23044519181966
 20
252.5629094619397
 30
0.0
 11
67.13044519181966
 21
252.5629094619397
 31
0.0
  0
LINE
  5
12BC
330
11BC
100
AcDbEntity
  8
1
  6
Continuous
100
AcDbLine
 10
68.15820119181967
 20
253.2795824619396
 30
0.0
 11
68.15820119181967
 21
257.9962364619396
 31
0.0
  0
LINE
  5
12BD
330
11BC
100
AcDbEntity
  8
1
  6
Continuous
100
AcDbLine
 10
40.63044519181966
 20
250.5379094619397
 30
0.0
 11
46.63044519181966
 21
250.5379094619397
 31
0.0
  0
LINE
  5
12BE
330
11BC
100
AcDbEntity
  8
1
  6
Continuous
100
AcDbLine
 10
47.93044519181965
 20
252.8629094619398
 30
0.0
 11
48.23044519181966
 21
252.5629094619397
 31
0.0
  0
LINE
  5
12BF
330
11BC
100
AcDbEntity
  8
1
  6
Continuous
100
AcDbLine
 10
47.13044519181964
 20
252.8629094619395
 30
0.0
 11
47.93044519181965
 21
252.8629094619395
 31
0.0
  0
ARC
  5
12C0
330
11BC
100
AcDbEntity
  8
1
  6
Continuous
100
AcDbCircle
 10
46.63044519181966
 20
251.0379094619397
 30
0.0
 40
0.5
100
AcDbArc
 50
270.0
 51
0.000000000000007
  0
LINE
  5
12C1
330
11BC
100
AcDbEntity
  8
1
  6
Continuous
100
AcDbLine
 10
47.13044519181964
 20
252.8629094619395
 30
0.0
 11
47.13044519181964
 21
251.0379094619397
 31
0.0
  0
LINE
  5
12C2
330
11BC
100
AcDbEntity
  8
1
  6
Continuous
100
AcDbLine
 10
47.93044519181965
 20
258.4129094619397
 30
0.0
 11
48.23044519181966
 21
258.7129094619397
 31
0.0
  0
LINE
  5
12C3
330
11BC
100
AcDbEntity
  8
1
  6
Continuous
100
AcDbLine
 10
47.13044519181964
 20
258.4129094619397
 30
0.0
 11
47.93044519181965
 21
258.4129094619397
 31
0.0
  0
LINE
  5
12C4
330
11BC
100
AcDbEntity
  8
1
  6
Continuous
100
AcDbLine
 10
21.79839419181968
 20
251.1887604619395
 30
0.0
 11
25.86876219181965
 21
245.0832094619395
 31
0.0
  0
LINE
  5
12C5
330
11BC
100
AcDbEntity
  8
1
  6
Continuous
100
AcDbLine
 10
20.96634419181964
 20
250.6340604619397
 30
0.0
 11
25.03671219181967
 21
244.5285084619396
 31
0.0
  0
LINE
  5
12C6
330
11BC
100
AcDbEntity
  8
1
  6
Continuous
100
AcDbLine
 10
26.70081219181966
 20
244.6379094619397
 30
0.0
 11
30.95200019181965
 21
244.6379094619397
 31
0.0
  0
LINE
  5
12C7
330
11BC
100
AcDbEntity
  8
1
  6
Continuous
100
AcDbLine
 10
26.70081219181966
 20
243.6379094619395
 30
0.0
 11
30.95200019181965
 21
243.6379094619395
 31
0.0
  0
ARC
  5
12C8
330
11BC
100
AcDbEntity
  8
1
  6
Continuous
100
AcDbCircle
 10
30.95200019181965
 20
245.6379094619395
 30
0.0
 40
1.0
100
AcDbArc
 50
270.0
 51
307.47618
  0
ARC
  5
12C9
330
11BC
100
AcDbEntity
  8
1
  6
Continuous
100
AcDbCircle
 10
30.95200019181965
 20
245.6379094619395
 30
0.0
 40
2.0
100
AcDbArc
 50
270.0
 51
307.47618
  0
ARC
  5
12CA
330
11BC
100
AcDbEntity
  8
1
  6
Continuous
100
AcDbCircle
 10
26.70081219181966
 20
245.6379094619395
 30
0.0
 40
1.0
100
AcDbArc
 50
213.690068
 51
270.0
  0
ARC
  5
12CB
330
11BC
100
AcDbEntity
  8
1
  6
Continuous
100
AcDbCircle
 10
26.70081219181966
 20
245.6379094619395
 30
0.0
 40
2.0
100
AcDbArc
 50
213.690068
 51
270.0
  0
LINE
  5
12CC
330
11BC
100
AcDbEntity
  8
1
  6
Continuous
100
AcDbLine
 10
27.59813019181967
 20
248.1379094619398
 30
0.0
 11
31.59813019181968
 21
248.1379094619398
 31
0.0
  0
LINE
  5
12CD
330
11BC
100
AcDbEntity
  8
1
  6
Continuous
100
AcDbLine
 10
23.13044519181965
 20
251.8948484619397
 30
0.0
 11
23.13044519181965
 21
259.3809704619395
 31
0.0
  0
LINE
  5
12CE
330
11BC
100
AcDbEntity
  8
1
  6
Continuous
100
AcDbLine
 10
21.63044519181965
 20
259.5323584619395
 30
0.0
 11
21.63044519181965
 21
251.7434604619395
 31
0.0
  0
LINE
  5
12CF
330
11BC
100
AcDbEntity
  8
1
  6
Continuous
100
AcDbLine
 10
20.63044519181965
 20
259.5323584619395
 30
0.0
 11
20.63044519181965
 21
251.7434604619395
 31
0.0
  0
ARC
  5
12D0
330
11BC
100
AcDbEntity
  8
1
  6
Continuous
100
AcDbCircle
 10
23.63044519181964
 20
252.1379094619397
 30
0.0
 40
0.5
100
AcDbArc
 50
180.0
 51
270.0
  0
ARC
  5
12D1
330
11BC
100
AcDbEntity
  8
1
  6
Continuous
100
AcDbCircle
 10
26.13044519181965
 20
252.1379094619397
 30
0.0
 40
0.5
100
AcDbArc
 50
270.0
 51
0.000000000000007
  0
LINE
  5
12D2
330
11BC
100
AcDbEntity
  8
1
  6
Continuous
100
AcDbLine
 10
23.63044519181964
 20
251.6379094619396
 30
0.0
 11
26.13044519181965
 21
251.6379094619396
 31
0.0
  0
ARC
  5
12D3
330
11BC
100
AcDbEntity
  8
1
  6
Continuous
100
AcDbCircle
 10
22.63044519181965
 20
251.7434604619395
 30
0.0
 40
1.0
100
AcDbArc
 50
180.0
 51
213.690068
  0
ARC
  5
12D4
330
11BC
100
AcDbEntity
  8
1
  6
Continuous
100
AcDbCircle
 10
22.63044519181965
 20
251.7434604619395
 30
0.0
 40
2.0
100
AcDbArc
 50
180.0
 51
213.690068
  0
LINE
  5
12D5
330
11BC
100
AcDbEntity
  8
1
  6
Continuous
100
AcDbLine
 10
40.63044519181966
 20
259.4778384619397
 30
0.0
 11
31.56043119181968
 21
266.4315154619397
 31
0.0
  0
LINE
  5
12D6
330
11BC
100
AcDbEntity
  8
1
  6
Continuous
100
AcDbLine
 10
32.16886319181966
 20
267.2251224619397
 30
0.0
 11
40.63044519181966
 21
260.7379094619397
 31
0.0
  0
LINE
  5
12D7
330
11BC
100
AcDbEntity
  8
1
  6
Continuous
100
AcDbLine
 10
40.63044519181966
 20
260.7379094619397
 30
0.0
 11
46.63044519181966
 21
260.7379094619397
 31
0.0
  0
ARC
  5
12D8
330
11BC
100
AcDbEntity
  8
1
  6
Continuous
100
AcDbCircle
 10
46.63044519181966
 20
260.2379094619397
 30
0.0
 40
0.5
100
AcDbArc
 50
0.000000000000007
 51
90.0
  0
LINE
  5
12D9
330
11BC
100
AcDbEntity
  8
1
  6
Continuous
100
AcDbLine
 10
30.95200019181965
 20
266.6379094619395
 30
0.0
 11
26.70081219181966
 21
266.6379094619395
 31
0.0
  0
LINE
  5
12DA
330
11BC
100
AcDbEntity
  8
1
  6
Continuous
100
AcDbLine
 10
26.70081219181966
 20
267.6379094619396
 30
0.0
 11
30.95200019181965
 21
267.6379094619396
 31
0.0
  0
LINE
  5
12DB
330
11BC
100
AcDbEntity
  8
1
  6
Continuous
100
AcDbLine
 10
31.59813019181968
 20
263.1379094619396
 30
0.0
 11
27.59813019181967
 21
263.1379094619396
 31
0.0
  0
ARC
  5
12DC
330
11BC
100
AcDbEntity
  8
1
  6
Continuous
100
AcDbCircle
 10
30.95200019181965
 20
265.6379094619396
 30
0.0
 40
1.0
100
AcDbArc
 50
52.52381999999999
 51
90.0
  0
ARC
  5
12DD
330
11BC
100
AcDbEntity
  8
1
  6
Continuous
100
AcDbCircle
 10
30.95200019181965
 20
265.6379094619396
 30
0.0
 40
2.0
100
AcDbArc
 50
52.52381999999999
 51
90.0
  0
LINE
  5
12DE
330
11BC
100
AcDbEntity
  8
1
  6
Continuous
100
AcDbLine
 10
25.86876219181965
 20
266.1926094619395
 30
0.0
 11
21.79839419181968
 21
260.0870584619396
 31
0.0
  0
LINE
  5
12DF
330
11BC
100
AcDbEntity
  8
1
  6
Continuous
100
AcDbLine
 10
20.96634419181964
 20
260.6417584619395
 30
0.0
 11
25.03671219181967
 21
266.7473094619397
 31
0.0
  0
ARC
  5
12E0
330
11BC
100
AcDbEntity
  8
1
  6
Continuous
100
AcDbCircle
 10
26.13044519181965
 20
259.1379094619396
 30
0.0
 40
0.5
100
AcDbArc
 50
0.000000000000007
 51
90.0
  0
ARC
  5
12E1
330
11BC
100
AcDbEntity
  8
1
  6
Continuous
100
AcDbCircle
 10
26.70081219181966
 20
265.6379094619396
 30
0.0
 40
1.0
100
AcDbArc
 50
90.0
 51
146.3099319999999
  0
ARC
  5
12E2
330
11BC
100
AcDbEntity
  8
1
  6
Continuous
100
AcDbCircle
 10
26.70081219181966
 20
265.6379094619396
 30
0.0
 40
2.0
100
AcDbArc
 50
90.0
 51
146.3099319999999
  0
ARC
  5
12E3
330
11BC
100
AcDbEntity
  8
1
  6
Continuous
100
AcDbCircle
 10
22.63044519181965
 20
259.5323584619395
 30
0.0
 40
2.0
100
AcDbArc
 50
146.3099319999997
 51
180.0
  0
ARC
  5
12E4
330
11BC
100
AcDbEntity
  8
1
  6
Continuous
100
AcDbCircle
 10
22.63044519181965
 20
259.5323584619395
 30
0.0
 40
1.0
100
AcDbArc
 50
146.3099319999997
 51
180.0
  0
ARC
  5
12E5
330
11BC
100
AcDbEntity
  8
1
  6
Continuous
100
AcDbCircle
 10
23.63044519181964
 20
259.1379094619396
 30
0.0
 40
0.5
100
AcDbArc
 50
89.99999999999998
 51
180.0
  0
LINE
  5
12E6
330
11BC
100
AcDbEntity
  8
1
  6
Continuous
100
AcDbLine
 10
23.63044519181964
 20
259.6379094619396
 30
0.0
 11
26.13044519181965
 21
259.6379094619396
 31
0.0
  0
LINE
  5
12E7
330
11BC
100
AcDbEntity
  8
4
  6
CENTER
 48
0.3
100
AcDbLine
 10
186.1209531750888
 20
154.9505547548585
 30
0.0
 11
200.8954395075448
 21
154.9505547548585
 31
0.0
  0
LINE
  5
12E8
330
11BC
100
AcDbEntity
  8
4
  6
CENTER
 48
0.3
100
AcDbLine
 10
186.1209531750888
 20
59.97691368235052
 30
0.0
 11
201.133850915526
 21
59.97691368235052
 31
0.0
  0
ARC
  5
12E9
330
11BC
100
AcDbEntity
  8
1
  6
Continuous
100
AcDbCircle
 10
275.1378477598791
 20
154.9505547548585
 30
0.0
 40
9.5
100
AcDbArc
 50
90.0
 51
270.0
  0
LINE
  5
12EA
330
11BC
100
AcDbEntity
  8
2
  6
Continuous
100
AcDbLine
 10
156.0993139690161
 20
158.5445547548584
 30
0.0
 11
157.8053139690162
 21
158.5445547548584
 31
0.0
  0
LINE
  5
12EB
330
11BC
100
AcDbEntity
  8
2
  6
Continuous
100
AcDbLine
 10
146.1840097681957
 20
163.9090547548585
 30
0.0
 11
146.540813969016
 21
163.9090547548585
 31
0.0
  0
LINE
  5
12EC
330
11BC
100
AcDbEntity
  8
2
  6
Continuous
100
AcDbLine
 10
146.1840097681957
 20
51.01841368235046
 30
0.0
 11
146.540813969016
 21
51.01841368235046
 31
0.0
  0
LINE
  5
12ED
330
11BC
100
AcDbEntity
  8
2
  6
Continuous
100
AcDbLine
 10
132.5993139690162
 20
68.93541368235054
 30
0.0
 11
146.540813969016
 21
68.93541368235054
 31
0.0
  0
LINE
  5
12F3
330
11BC
100
AcDbEntity
  8
1
  6
Continuous
100
AcDbLine
 10
281.6378477598792
 20
158.7033315045911
 30
0.0
 11
281.6378477598792
 21
151.197778005126
 31
0.0
  0
LINE
  5
12F4
330
11BC
100
AcDbEntity
  8
1
  6
Continuous
100
AcDbLine
 10
268.6378477598792
 20
151.197778005126
 30
0.0
 11
275.1378477598791
 21
147.4450012553934
 31
0.0
  0
LINE
  5
12F5
330
11BC
100
AcDbEntity
  8
1
  6
Continuous
100
AcDbLine
 10
268.6378477598792
 20
158.7033315045911
 30
0.0
 11
268.6378477598792
 21
151.197778005126
 31
0.0
  0
LINE
  5
12F6
330
11BC
100
AcDbEntity
  8
1
  6
Continuous
100
AcDbLine
 10
281.6378477598792
 20
151.197778005126
 30
0.0
 11
275.1378477598791
 21
147.4450012553934
 31
0.0
  0
LINE
  5
12F7
330
11BC
100
AcDbEntity
  8
1
  6
Continuous
100
AcDbLine
 10
281.6378477598792
 20
158.7033315045911
 30
0.0
 11
275.1378477598791
 21
162.4561082543236
 31
0.0
  0
LINE
  5
12F8
330
11BC
100
AcDbEntity
  8
1
  6
Continuous
100
AcDbLine
 10
268.6378477598792
 20
158.7033315045911
 30
0.0
 11
275.1378477598791
 21
162.4561082543236
 31
0.0
  0
CIRCLE
  5
12FF
330
11BC
100
AcDbEntity
  8
1
  6
Continuous
100
AcDbCircle
 10
275.1378477598791
 20
154.9505547548585
 30
0.0
 40
6.500000000000039
  0
ARC
  5
1303
330
11BC
100
AcDbEntity
  8
2
  6
Continuous
100
AcDbCircle
 10
275.1378477598791
 20
154.9505547548585
 30
0.0
 40
3.593999999999993
100
AcDbArc
 50
45.92464945677436
 51
134.0753505432234
  0
ARC
  5
1304
330
11BC
100
AcDbEntity
  8
1
  6
Continuous
100
AcDbCircle
 10
275.1378477598791
 20
154.9505547548585
 30
0.0
 40
3.593999999999993
100
AcDbArc
 50
314.0753505432483
 51
45.92464945675167
  0
ARC
  5
1305
330
11BC
100
AcDbEntity
  8
2
  6
Continuous
100
AcDbCircle
 10
275.1378477598791
 20
154.9505547548585
 30
0.0
 40
3.593999999999993
100
AcDbArc
 50
225.9246494567542
 51
314.0753505432256
  0
ARC
  5
1306
330
11BC
100
AcDbEntity
  8
1
  6
Continuous
100
AcDbCircle
 10
275.1378477598791
 20
154.9505547548585
 30
0.0
 40
3.593999999999993
100
AcDbArc
 50
134.0753505432455
 51
225.9246494567765
  0
ARC
  5
1309
330
11BC
100
AcDbEntity
  8
1
  6
Continuous
100
AcDbCircle
 10
152.3284803038535
 20
160.5797202181474
 30
0.0
 40
3.770833665162681
100
AcDbArc
 50
330.1582771788453
 51
29.8417228211545
  0
ARC
  5
130A
330
11BC
100
AcDbEntity
  8
1
  6
Continuous
100
AcDbCircle
 10
157.8701476341788
 20
160.5797202181474
 30
0.0
 40
3.770833665162681
100
AcDbArc
 50
150.1582771788454
 51
209.8417228211544
  0
ARC
  5
130B
330
11BC
100
AcDbEntity
  8
1
  6
Continuous
100
AcDbCircle
 10
157.8701476341788
 20
149.3213892915697
 30
0.0
 40
3.770833665162681
100
AcDbArc
 50
150.1582771788454
 51
209.8417228211544
  0
ARC
  5
130C
330
11BC
100
AcDbEntity
  8
1
  6
Continuous
100
AcDbCircle
 10
152.3284803038535
 20
149.3213892915697
 30
0.0
 40
3.770833665162681
100
AcDbArc
 50
330.1582771788453
 51
29.84172282115451
  0
ARC
  5
130D
330
11BC
100
AcDbEntity
  8
1
  6
Continuous
100
AcDbCircle
 10
145.2868137416325
 20
63.22691371733265
 30
0.0
 40
10.81250022738374
100
AcDbArc
 50
342.5076756602608
 51
17.49232433973916
  0
ARC
  5
130E
330
11BC
100
AcDbEntity
  8
1
  6
Continuous
100
AcDbCircle
 10
164.9118141964
 20
63.22691371733265
 30
0.0
 40
10.81250022738374
100
AcDbArc
 50
162.5076756602608
 51
197.492324339739
  0
ARC
  5
130F
330
11BC
100
AcDbEntity
  8
1
  6
Continuous
100
AcDbCircle
 10
164.9118141964
 20
56.72691364736834
 30
0.0
 40
10.81250022738374
100
AcDbArc
 50
162.5076756602607
 51
197.492324339739
  0
ARC
  5
1310
330
11BC
100
AcDbEntity
  8
1
  6
Continuous
100
AcDbCircle
 10
145.2868137416325
 20
56.72691364736834
 30
0.0
 40
10.81250022738374
100
AcDbArc
 50
342.5076756602608
 51
17.49232433973918
  0
LINE
  5
1311
330
11BC
100
AcDbEntity
  8
1
  6
Continuous
100
AcDbLine
 10
154.599313969016
 20
53.47691361238628
 30
0.0
 11
155.599313969016
 21
53.47691361238628
 31
0.0
  0
LINE
  5
1312
330
11BC
100
AcDbEntity
  8
1
  6
Continuous
100
AcDbLine
 10
150.599313969016
 20
240.4241958273668
 30
0.0
 11
150.599313969016
 21
283.9241958273668
 31
0.0
  0
LINE
  5
1313
330
11BC
100
AcDbEntity
  8
1
  6
Continuous
100
AcDbLine
 10
153.7993139690162
 20
240.4241958273668
 30
0.0
 11
153.7993139690162
 21
283.9241958273668
 31
0.0
  0
LINE
  5
1314
330
11BC
100
AcDbEntity
  8
1
  6
Continuous
100
AcDbLine
 10
150.599313969016
 20
283.9241958273668
 30
0.0
 11
153.7993139690162
 21
283.9241958273668
 31
0.0
  0
LINE
  5
1315
330
11BC
100
AcDbEntity
  8
2
  6
Continuous
100
AcDbLine
 10
132.5993139690162
 20
258.8826958273668
 30
0.0
 11
146.540813969016
 21
258.8826958273668
 31
0.0
  0
LINE
  5
1316
330
11BC
100
AcDbEntity
  8
1
  6
Continuous
100
AcDbLine
 10
132.5993139690162
 20
259.4241958273668
 30
0.0
 11
145.9993139690161
 21
259.4241958273668
 31
0.0
  0
LINE
  5
1317
330
11BC
100
AcDbEntity
  8
1
  6
Continuous
100
AcDbLine
 10
132.5993139690162
 20
247.8901858273668
 30
0.0
 11
145.9993139690161
 21
247.8901858273668
 31
0.0
  0
LINE
  5
1318
330
11BC
100
AcDbEntity
  8
1
  6
Continuous
100
AcDbLine
 10
132.5993139690162
 20
240.6444978273668
 30
0.0
 11
145.9993139690161
 21
240.6444978273668
 31
0.0
  0
LINE
  5
1319
330
11BC
100
AcDbEntity
  8
1
  6
Continuous
100
AcDbLine
 10
132.5993139690162
 20
240.4241958273668
 30
0.0
 11
145.9993139690161
 21
240.4241958273668
 31
0.0
  0
LINE
  5
131A
330
11BC
100
AcDbEntity
  8
2
  6
Continuous
100
AcDbLine
 10
148.199313969016
 20
242.0357508273668
 30
0.0
 11
132.5993139690162
 21
246.9196643205986
 31
0.0
  0
LINE
  5
131B
330
11BC
100
AcDbEntity
  8
2
  6
Continuous
100
AcDbLine
 10
132.5993139690162
 20
241.615019334135
 30
0.0
 11
148.199313969016
 21
246.4989328273668
 31
0.0
  0
LINE
  5
131C
330
11BC
100
AcDbEntity
  8
1
  6
Continuous
100
AcDbLine
 10
132.5993139690162
 20
247.9241958273668
 30
0.0
 11
148.199313969016
 21
247.9241958273668
 31
0.0
  0
LINE
  5
131D
330
11BC
100
AcDbEntity
  8
1
  6
Continuous
100
AcDbLine
 10
132.5993139690162
 20
251.9241958273668
 30
0.0
 11
148.199313969016
 21
251.9241958273668
 31
0.0
  0
LINE
  5
131E
330
11BC
100
AcDbEntity
  8
4
  6
CENTER
 48
0.3
100
AcDbLine
 10
121.8993139690162
 20
249.9241958273668
 30
0.0
 11
161.6377253769974
 21
249.9241958273668
 31
0.0
  0
LINE
  5
131F
330
11BC
100
AcDbEntity
  8
1
  6
Continuous
100
AcDbLine
 10
124.8993139690161
 20
245.4241958273668
 30
0.0
 11
125.8993139690162
 21
244.4241958273668
 31
0.0
  0
LINE
  5
1320
330
11BC
100
AcDbEntity
  8
1
  6
Continuous
100
AcDbLine
 10
127.8993139690162
 20
261.9241958273668
 30
0.0
 11
127.8993139690162
 21
237.9241958273668
 31
0.0
  0
LINE
  5
1321
330
11BC
100
AcDbEntity
  8
1
  6
Continuous
100
AcDbLine
 10
129.4993139690162
 20
237.9241958273668
 30
0.0
 11
129.4993139690162
 21
261.9241958273668
 31
0.0
  0
LINE
  5
1322
330
11BC
100
AcDbEntity
  8
1
  6
Continuous
100
AcDbLine
 10
132.5993139690162
 20
237.9241958273668
 30
0.0
 11
132.5993139690162
 21
261.9241958273668
 31
0.0
  0
LINE
  5
1323
330
11BC
100
AcDbEntity
  8
1
  6
Continuous
100
AcDbLine
 10
125.8993139690162
 20
259.9241958273668
 30
0.0
 11
125.8993139690162
 21
239.9241958273668
 31
0.0
  0
LINE
  5
1324
330
11BC
100
AcDbEntity
  8
1
  6
Continuous
100
AcDbLine
 10
124.8993139690159
 20
254.4241958273669
 30
0.0
 11
125.8993139690161
 21
255.4241958273669
 31
0.0
  0
LINE
  5
1325
330
11BC
100
AcDbEntity
  8
1
  6
Continuous
100
AcDbLine
 10
127.8993139690162
 20
261.9241958273668
 30
0.0
 11
129.4993139690162
 21
261.9241958273668
 31
0.0
  0
LINE
  5
1326
330
11BC
100
AcDbEntity
  8
1
  6
Continuous
100
AcDbLine
 10
127.8993139690162
 20
261.9241958273668
 30
0.0
 11
125.8993139690162
 21
259.9241958273668
 31
0.0
  0
LINE
  5
1327
330
11BC
100
AcDbEntity
  8
1
  6
Continuous
100
AcDbLine
 10
129.4993139690162
 20
261.9241958273668
 30
0.0
 11
132.5993139690162
 21
261.9241958273668
 31
0.0
  0
LINE
  5
1328
330
11BC
100
AcDbEntity
  8
1
  6
Continuous
100
AcDbLine
 10
124.8993139690161
 20
248.6741958273668
 30
0.0
 11
125.3993139690162
 21
248.6741958273668
 31
0.0
  0
LINE
  5
1329
330
11BC
100
AcDbEntity
  8
1
  6
Continuous
100
AcDbLine
 10
125.3993139690162
 20
251.1741958273668
 30
0.0
 11
124.8993139690161
 21
251.1741958273668
 31
0.0
  0
LINE
  5
132A
330
11BC
100
AcDbEntity
  8
1
  6
Continuous
100
AcDbLine
 10
125.3993139690162
 20
248.6741958273668
 30
0.0
 11
125.3993139690162
 21
251.1741958273668
 31
0.0
  0
LINE
  5
132B
330
11BC
100
AcDbEntity
  8
1
  6
Continuous
100
AcDbLine
 10
124.8993139690161
 20
251.1741958273668
 30
0.0
 11
124.8993139690161
 21
254.4241958273668
 31
0.0
  0
LINE
  5
132C
330
11BC
100
AcDbEntity
  8
1
  6
Continuous
100
AcDbLine
 10
124.8993139690161
 20
245.4241958273668
 30
0.0
 11
124.8993139690161
 21
248.6741958273668
 31
0.0
  0
LINE
  5
132D
330
11BC
100
AcDbEntity
  8
1
  6
Continuous
100
AcDbLine
 10
127.8993139690162
 20
237.9241958273668
 30
0.0
 11
129.4993139690162
 21
237.9241958273668
 31
0.0
  0
LINE
  5
132E
330
11BC
100
AcDbEntity
  8
1
  6
Continuous
100
AcDbLine
 10
125.8993139690162
 20
239.9241958273668
 30
0.0
 11
127.8993139690162
 21
237.9241958273668
 31
0.0
  0
LINE
  5
132F
330
11BC
100
AcDbEntity
  8
1
  6
Continuous
100
AcDbLine
 10
129.4993139690162
 20
237.9241958273668
 30
0.0
 11
132.5993139690162
 21
237.9241958273668
 31
0.0
  0
LINE
  5
1330
330
11BC
100
AcDbEntity
  8
1
  6
Continuous
100
AcDbLine
 10
154.0993139690161
 20
257.4241898273669
 30
0.0
 11
154.0993139690161
 21
242.4242018273668
 31
0.0
  0
ARC
  5
1331
330
11BC
100
AcDbEntity
  8
1
  6
Continuous
100
AcDbCircle
 10
164.9118141964
 20
246.6741957923847
 30
0.0
 40
10.81250022738374
100
AcDbArc
 50
162.5076756602607
 51
197.492324339739
  0
ARC
  5
1332
330
11BC
100
AcDbEntity
  8
1
  6
Continuous
100
AcDbCircle
 10
145.2868137416325
 20
246.6741957923847
 30
0.0
 40
10.81250022738374
100
AcDbArc
 50
342.5076756602608
 51
17.49232433973918
  0
LINE
  5
1333
330
11BC
100
AcDbEntity
  8
1
  6
Continuous
100
AcDbLine
 10
148.9993139690161
 20
241.4241958273668
 30
0.0
 11
148.9993139690161
 21
258.4241958273668
 31
0.0
  0
LINE
  5
1334
330
11BC
100
AcDbEntity
  8
1
  6
Continuous
100
AcDbLine
 10
148.199313969016
 20
241.2241958273668
 30
0.0
 11
148.199313969016
 21
258.6241958273668
 31
0.0
  0
LINE
  5
1335
330
11BC
100
AcDbEntity
  8
1
  6
Continuous
100
AcDbLine
 10
146.799313969016
 20
251.9241958273668
 30
0.0
 11
146.799313969016
 21
258.6241958273668
 31
0.0
  0
LINE
  5
1336
330
11BC
100
AcDbEntity
  8
1
  6
Continuous
100
AcDbLine
 10
145.9993139690161
 20
251.9241958273668
 30
0.0
 11
145.9993139690161
 21
259.4241958273668
 31
0.0
  0
LINE
  5
1337
330
11BC
100
AcDbEntity
  8
1
  6
Continuous
100
AcDbLine
 10
148.199313969016
 20
245.4241958273668
 30
0.0
 11
148.7993139690162
 21
245.4241958273668
 31
0.0
  0
LINE
  5
1338
330
11BC
100
AcDbEntity
  8
1
  6
Continuous
100
AcDbLine
 10
148.199313969016
 20
254.4241958273668
 30
0.0
 11
148.7993139690162
 21
254.4241958273668
 31
0.0
  0
LINE
  5
1339
330
11BC
100
AcDbEntity
  8
1
  6
Continuous
100
AcDbLine
 10
148.199313969016
 20
256.6696088273668
 30
0.0
 11
148.9993139690161
 21
256.6696088273668
 31
0.0
  0
LINE
  5
133A
330
11BC
100
AcDbEntity
  8
1
  6
Continuous
100
AcDbLine
 10
148.199313969016
 20
258.2114178273668
 30
0.0
 11
148.9993139690161
 21
258.2114178273668
 31
0.0
  0
LINE
  5
133B
330
11BC
100
AcDbEntity
  8
2
  6
Continuous
100
AcDbLine
 10
146.1840097681957
 20
240.9656958273667
 30
0.0
 11
146.540813969016
 21
240.9656958273667
 31
0.0
  0
LINE
  5
133C
330
11BC
100
AcDbEntity
  8
1
  6
Continuous
100
AcDbLine
 10
145.9993139690161
 20
240.4241958273668
 30
0.0
 11
145.9993139690161
 21
240.6444978273668
 31
0.0
  0
LINE
  5
133D
330
11BC
100
AcDbEntity
  8
1
  6
Continuous
100
AcDbLine
 10
146.799313969016
 20
241.2241958273668
 30
0.0
 11
145.9993139690161
 21
240.4241958273668
 31
0.0
  0
LINE
  5
133E
330
11BC
100
AcDbEntity
  8
1
  6
Continuous
100
AcDbLine
 10
146.799313969016
 20
241.2241958273668
 30
0.0
 11
146.799313969016
 21
242.0357508273668
 31
0.0
  0
LINE
  5
133F
330
11BC
100
AcDbEntity
  8
1
  6
Continuous
100
AcDbLine
 10
146.799313969016
 20
242.0357508273668
 30
0.0
 11
145.9993139690161
 21
240.6444978273668
 31
0.0
  0
LINE
  5
1340
330
11BC
100
AcDbEntity
  8
1
  6
Continuous
100
AcDbLine
 10
146.799313969016
 20
241.2241958273668
 30
0.0
 11
148.199313969016
 21
241.2241958273668
 31
0.0
  0
LINE
  5
1341
330
11BC
100
AcDbEntity
  8
1
  6
Continuous
100
AcDbLine
 10
146.799313969016
 20
242.0357508273668
 30
0.0
 11
148.199313969016
 21
242.0357508273668
 31
0.0
  0
LINE
  5
1342
330
11BC
100
AcDbEntity
  8
1
  6
Continuous
100
AcDbLine
 10
145.9993139690161
 20
247.8901858273668
 30
0.0
 11
145.9993139690161
 21
247.9241958273668
 31
0.0
  0
LINE
  5
1343
330
11BC
100
AcDbEntity
  8
1
  6
Continuous
100
AcDbLine
 10
146.799313969016
 20
246.4989328273668
 30
0.0
 11
146.799313969016
 21
247.9241958273668
 31
0.0
  0
LINE
  5
1344
330
11BC
100
AcDbEntity
  8
1
  6
Continuous
100
AcDbLine
 10
146.799313969016
 20
246.4989328273668
 30
0.0
 11
145.9993139690161
 21
247.8901858273668
 31
0.0
  0
LINE
  5
1345
330
11BC
100
AcDbEntity
  8
1
  6
Continuous
100
AcDbLine
 10
146.799313969016
 20
246.4989328273668
 30
0.0
 11
148.199313969016
 21
246.4989328273668
 31
0.0
  0
ARC
  5
1346
330
11BC
100
AcDbEntity
  8
1
  6
Continuous
100
AcDbCircle
 10
144.995178969016
 20
249.9241958273668
 30
0.0
 40
2.000767999999998
100
AcDbArc
 50
271.587147
 51
88.412853
  0
ARC
  5
1347
330
11BC
100
AcDbEntity
  8
1
  6
Continuous
100
AcDbCircle
 10
145.2868137416325
 20
253.1741958623489
 30
0.0
 40
10.81250022738374
100
AcDbArc
 50
342.5076756602608
 51
17.49232433973918
  0
ARC
  5
1348
330
11BC
100
AcDbEntity
  8
1
  6
Continuous
100
AcDbCircle
 10
164.9118141964
 20
253.1741958623489
 30
0.0
 40
10.81250022738374
100
AcDbArc
 50
162.5076756602608
 51
197.492324339739
  0
LINE
  5
1349
330
11BC
100
AcDbEntity
  8
1
  6
Continuous
100
AcDbLine
 10
154.599313969016
 20
256.424195897331
 30
0.0
 11
155.599313969016
 21
256.424195897331
 31
0.0
  0
LINE
  5
134A
330
11BC
100
AcDbEntity
  8
1
  6
Continuous
100
AcDbLine
 10
153.7993139690162
 20
257.4241898273669
 30
0.0
 11
154.0993139690161
 21
257.4241898273669
 31
0.0
  0
LINE
  5
134B
330
11BC
100
AcDbEntity
  8
1
  6
Continuous
100
AcDbLine
 10
148.9993139690161
 20
258.0326788273668
 30
0.0
 11
150.599313969016
 21
258.0326788273668
 31
0.0
  0
LINE
  5
134C
330
11BC
100
AcDbEntity
  8
1
  6
Continuous
100
AcDbLine
 10
148.9993139690161
 20
258.4241958273668
 30
0.0
 11
150.599313969016
 21
258.4241958273668
 31
0.0
  0
LINE
  5
134D
330
11BC
100
AcDbEntity
  8
1
  6
Continuous
100
AcDbLine
 10
156.0993139690161
 20
252.4241958273668
 30
0.0
 11
158.3993139690161
 21
252.4241958273668
 31
0.0
  0
LINE
  5
134E
330
11BC
100
AcDbEntity
  8
1
  6
Continuous
100
AcDbLine
 10
156.0993139690161
 20
247.4241958273668
 30
0.0
 11
158.3993139690161
 21
247.4241958273668
 31
0.0
  0
LINE
  5
134F
330
11BC
100
AcDbEntity
  8
1
  6
Continuous
100
AcDbLine
 10
156.0993139690161
 20
253.1741958623489
 30
0.0
 11
156.0993139690161
 21
246.6741957923847
 31
0.0
  0
LINE
  5
1350
330
11BC
100
AcDbEntity
  8
1
  6
Continuous
100
AcDbLine
 10
154.599313969016
 20
249.9241958273668
 30
0.0
 11
155.599313969016
 21
249.9241958273668
 31
0.0
  0
LINE
  5
1351
330
11BC
100
AcDbEntity
  8
1
  6
Continuous
100
AcDbLine
 10
148.7993139690162
 20
245.4241958273668
 30
0.0
 11
148.9993139690161
 21
245.6241958273668
 31
0.0
  0
LINE
  5
1352
330
11BC
100
AcDbEntity
  8
1
  6
Continuous
100
AcDbLine
 10
148.9993139690161
 20
252.4741958273668
 30
0.0
 11
150.599313969016
 21
252.4741958273668
 31
0.0
  0
LINE
  5
1353
330
11BC
100
AcDbEntity
  8
1
  6
Continuous
100
AcDbLine
 10
148.9993139690161
 20
247.3741958273668
 30
0.0
 11
150.599313969016
 21
247.3741958273668
 31
0.0
  0
LINE
  5
1354
330
11BC
100
AcDbEntity
  8
1
  6
Continuous
100
AcDbLine
 10
148.7993139690162
 20
254.4241958273668
 30
0.0
 11
148.9993139690161
 21
254.2241958273668
 31
0.0
  0
LINE
  5
1355
330
11BC
100
AcDbEntity
  8
1
  6
Continuous
100
AcDbLine
 10
148.7993139690162
 20
254.4241958273668
 30
0.0
 11
148.7993139690162
 21
245.4241958273668
 31
0.0
  0
LINE
  5
1356
330
11BC
100
AcDbEntity
  8
1
  6
Continuous
100
AcDbLine
 10
158.3993139690161
 20
247.4241958273668
 30
0.0
 11
158.3993139690161
 21
252.4241958273668
 31
0.0
  0
LINE
  5
1357
330
11BC
100
AcDbEntity
  8
1
  6
Continuous
100
AcDbLine
 10
157.3993139690161
 20
247.4241958273668
 30
0.0
 11
157.3993139690161
 21
252.4241958273668
 31
0.0
  0
LINE
  5
1358
330
11BC
100
AcDbEntity
  8
1
  6
Continuous
100
AcDbLine
 10
146.799313969016
 20
258.6241958273668
 30
0.0
 11
145.9993139690161
 21
259.4241958273668
 31
0.0
  0
LINE
  5
1359
330
11BC
100
AcDbEntity
  8
1
  6
Continuous
100
AcDbLine
 10
146.799313969016
 20
258.6241958273668
 30
0.0
 11
148.199313969016
 21
258.6241958273668
 31
0.0
  0
LINE
  5
135A
330
11BC
100
AcDbEntity
  8
1
  6
Continuous
100
AcDbLine
 10
153.7993139690162
 20
242.4242018273668
 30
0.0
 11
154.0993139690161
 21
242.4242018273668
 31
0.0
  0
LINE
  5
135B
330
11BC
100
AcDbEntity
  8
1
  6
Continuous
100
AcDbLine
 10
154.599313969016
 20
243.4241957574025
 30
0.0
 11
155.599313969016
 21
243.4241957574025
 31
0.0
  0
LINE
  5
135C
330
11BC
100
AcDbEntity
  8
1
  6
Continuous
100
AcDbLine
 10
150.599313969016
 20
240.4241958273668
 30
0.0
 11
153.7993139690162
 21
240.4241958273668
 31
0.0
  0
LINE
  5
135D
330
11BC
100
AcDbEntity
  8
1
  6
Continuous
100
AcDbLine
 10
148.9993139690161
 20
241.8157128273668
 30
0.0
 11
150.599313969016
 21
241.8157128273668
 31
0.0
  0
LINE
  5
135E
330
11BC
100
AcDbEntity
  8
1
  6
Continuous
100
AcDbLine
 10
148.9993139690161
 20
241.4241958273668
 30
0.0
 11
150.599313969016
 21
241.4241958273668
 31
0.0
  0
LINE
  5
1362
330
11BC
100
AcDbEntity
  8
4
  6
CENTER
 48
0.3
100
AcDbLine
 10
186.1209531750888
 20
249.9241958273668
 30
0.0
 11
201.133850915526
 21
249.9241958273668
 31
0.0
  0
LINE
  5
1367
330
11BC
100
AcDbEntity
  8
1
  6
Continuous
100
AcDbLine
 10
437.7783529770546
 20
145.6708567548585
 30
0.0
 11
424.3783529770546
 21
145.6708567548585
 31
0.0
  0
LINE
  5
1368
330
11BC
100
AcDbEntity
  8
1
  6
Continuous
100
AcDbLine
 10
437.7783529770546
 20
145.4505547548586
 30
0.0
 11
424.3783529770546
 21
145.4505547548586
 31
0.0
  0
LINE
  5
1369
330
11BC
100
AcDbEntity
  8
1
  6
Continuous
100
AcDbLine
 10
437.7783529770546
 20
152.9165447548585
 30
0.0
 11
424.3783529770546
 21
152.9165447548585
 31
0.0
  0
LINE
  5
136A
330
11BC
100
AcDbEntity
  8
2
  6
Continuous
100
AcDbLine
 10
437.7783529770546
 20
163.9090547548585
 30
0.0
 11
423.8368529770548
 21
163.9090547548585
 31
0.0
  0
LINE
  5
136B
330
11BC
100
AcDbEntity
  8
1
  6
Continuous
100
AcDbLine
 10
437.7783529770546
 20
164.4505547548585
 30
0.0
 11
424.3783529770546
 21
164.4505547548585
 31
0.0
  0
LINE
  5
136C
330
11BC
100
AcDbEntity
  8
4
  6
CENTER
 48
0.3
100
AcDbLine
 10
448.4783529770545
 20
154.9505547548585
 30
0.0
 11
408.9783529770548
 21
154.9505547548585
 31
0.0
  0
LINE
  5
136D
330
11BC
100
AcDbEntity
  8
2
  6
Continuous
100
AcDbLine
 10
422.1783529770545
 20
147.0621087548586
 30
0.0
 11
437.7783529770546
 21
151.9460222480903
 31
0.0
  0
LINE
  5
136E
330
11BC
100
AcDbEntity
  8
2
  6
Continuous
100
AcDbLine
 10
437.7783529770546
 20
146.6413782616268
 30
0.0
 11
422.1783529770545
 21
151.5252917548584
 31
0.0
  0
LINE
  5
136F
330
11BC
100
AcDbEntity
  8
1
  6
Continuous
100
AcDbLine
 10
437.7783529770546
 20
156.9505547548585
 30
0.0
 11
422.1783529770545
 21
156.9505547548585
 31
0.0
  0
LINE
  5
1370
330
11BC
100
AcDbEntity
  8
1
  6
Continuous
100
AcDbLine
 10
437.7783529770546
 20
152.9505547548585
 30
0.0
 11
422.1783529770545
 21
152.9505547548585
 31
0.0
  0
LINE
  5
1371
330
11BC
100
AcDbEntity
  8
1
  6
Continuous
100
AcDbLine
 10
445.4783529770548
 20
150.4505547548586
 30
0.0
 11
445.4783529770548
 21
159.4505547548584
 31
0.0
  0
LINE
  5
1372
330
11BC
100
AcDbEntity
  8
1
  6
Continuous
100
AcDbLine
 10
442.4783529770548
 20
166.9505547548585
 30
0.0
 11
442.4783529770548
 21
142.9505547548584
 31
0.0
  0
LINE
  5
1373
330
11BC
100
AcDbEntity
  8
1
  6
Continuous
100
AcDbLine
 10
444.4783529770545
 20
164.9505547548585
 30
0.0
 11
444.4783529770545
 21
144.9505547548585
 31
0.0
  0
LINE
  5
1374
330
11BC
100
AcDbEntity
  8
1
  6
Continuous
100
AcDbLine
 10
440.8783529770546
 20
142.9505547548584
 30
0.0
 11
440.8783529770546
 21
166.9505547548585
 31
0.0
  0
LINE
  5
1375
330
11BC
100
AcDbEntity
  8
1
  6
Continuous
100
AcDbLine
 10
437.7783529770546
 20
142.9505547548584
 30
0.0
 11
437.7783529770546
 21
166.9505547548585
 31
0.0
  0
LINE
  5
1376
330
11BC
100
AcDbEntity
  8
1
  6
Continuous
100
AcDbLine
 10
444.4783529770545
 20
149.4505547548586
 30
0.0
 11
445.4783529770548
 21
150.4505547548586
 31
0.0
  0
LINE
  5
1377
330
11BC
100
AcDbEntity
  8
1
  6
Continuous
100
AcDbLine
 10
442.4783529770548
 20
142.9505547548584
 30
0.0
 11
440.8783529770546
 21
142.9505547548584
 31
0.0
  0
LINE
  5
1378
330
11BC
100
AcDbEntity
  8
1
  6
Continuous
100
AcDbLine
 10
444.4783529770545
 20
144.9505547548585
 30
0.0
 11
442.4783529770548
 21
142.9505547548584
 31
0.0
  0
LINE
  5
1379
330
11BC
100
AcDbEntity
  8
1
  6
Continuous
100
AcDbLine
 10
440.8783529770546
 20
142.9505547548584
 30
0.0
 11
437.7783529770546
 21
142.9505547548584
 31
0.0
  0
LINE
  5
137A
330
11BC
100
AcDbEntity
  8
1
  6
Continuous
100
AcDbLine
 10
445.4783529770548
 20
159.4505547548584
 30
0.0
 11
444.4783529770545
 21
160.4505547548584
 31
0.0
  0
LINE
  5
137B
330
11BC
100
AcDbEntity
  8
1
  6
Continuous
100
AcDbLine
 10
442.4783529770548
 20
166.9505547548585
 30
0.0
 11
440.8783529770546
 21
166.9505547548585
 31
0.0
  0
LINE
  5
137C
330
11BC
100
AcDbEntity
  8
1
  6
Continuous
100
AcDbLine
 10
442.4783529770548
 20
166.9505547548585
 30
0.0
 11
444.4783529770545
 21
164.9505547548585
 31
0.0
  0
LINE
  5
137D
330
11BC
100
AcDbEntity
  8
1
  6
Continuous
100
AcDbLine
 10
440.8783529770546
 20
166.9505547548585
 30
0.0
 11
437.7783529770546
 21
166.9505547548585
 31
0.0
  0
LINE
  5
137E
330
11BC
100
AcDbEntity
  8
1
  6
Continuous
100
AcDbLine
 10
414.2783529770546
 20
160.5797202181474
 30
0.0
 11
414.2783529770546
 21
149.3213892915697
 31
0.0
  0
ARC
  5
137F
330
11BC
100
AcDbEntity
  8
1
  6
Continuous
100
AcDbCircle
 10
418.0491866422173
 20
149.3213892915697
 30
0.0
 40
3.770833665162681
100
AcDbArc
 50
150.1582771788454
 51
209.8417228211544
  0
ARC
  5
1380
330
11BC
100
AcDbEntity
  8
1
  6
Continuous
100
AcDbCircle
 10
412.5075193118921
 20
149.3213892915697
 30
0.0
 40
3.770833665162681
100
AcDbArc
 50
330.1582771788453
 51
29.84172282115454
  0
LINE
  5
1381
330
11BC
100
AcDbEntity
  8
1
  6
Continuous
100
AcDbLine
 10
421.3783529770545
 20
146.4505547548585
 30
0.0
 11
421.3783529770545
 21
163.4505547548585
 31
0.0
  0
LINE
  5
1382
330
11BC
100
AcDbEntity
  8
1
  6
Continuous
100
AcDbLine
 10
421.5783529770545
 20
159.4505547548584
 30
0.0
 11
421.5783529770545
 21
150.4505547548586
 31
0.0
  0
LINE
  5
1383
330
11BC
100
AcDbEntity
  8
1
  6
Continuous
100
AcDbLine
 10
422.1783529770545
 20
146.2505547548586
 30
0.0
 11
422.1783529770545
 21
163.6505547548587
 31
0.0
  0
LINE
  5
1384
330
11BC
100
AcDbEntity
  8
1
  6
Continuous
100
AcDbLine
 10
419.7783529770545
 20
145.4505547548586
 30
0.0
 11
419.7783529770545
 21
164.4505547548585
 31
0.0
  0
LINE
  5
1385
330
11BC
100
AcDbEntity
  8
1
  6
Continuous
100
AcDbLine
 10
416.5783529770545
 20
145.4505547548586
 30
0.0
 11
416.5783529770545
 21
164.4505547548585
 31
0.0
  0
LINE
  5
1386
330
11BC
100
AcDbEntity
  8
1
  6
Continuous
100
AcDbLine
 10
416.2783529770546
 20
147.4505607548586
 30
0.0
 11
416.2783529770546
 21
162.4505487548586
 31
0.0
  0
LINE
  5
1387
330
11BC
100
AcDbEntity
  8
1
  6
Continuous
100
AcDbLine
 10
423.5783529770546
 20
156.9505547548585
 30
0.0
 11
423.5783529770546
 21
163.6505547548587
 31
0.0
  0
LINE
  5
1388
330
11BC
100
AcDbEntity
  8
1
  6
Continuous
100
AcDbLine
 10
424.3783529770546
 20
156.9505547548585
 30
0.0
 11
424.3783529770546
 21
164.4505547548585
 31
0.0
  0
LINE
  5
1389
330
11BC
100
AcDbEntity
  8
1
  6
Continuous
100
AcDbLine
 10
422.1783529770545
 20
150.4505547548586
 30
0.0
 11
421.5783529770545
 21
150.4505547548586
 31
0.0
  0
LINE
  5
138A
330
11BC
100
AcDbEntity
  8
1
  6
Continuous
100
AcDbLine
 10
423.5783529770546
 20
163.6505547548587
 30
0.0
 11
424.3783529770546
 21
164.4505547548585
 31
0.0
  0
LINE
  5
138B
330
11BC
100
AcDbEntity
  8
1
  6
Continuous
100
AcDbLine
 10
423.5783529770546
 20
163.6505547548587
 30
0.0
 11
422.1783529770545
 21
163.6505547548587
 31
0.0
  0
LINE
  5
138C
330
11BC
100
AcDbEntity
  8
1
  6
Continuous
100
AcDbLine
 10
415.7783529770543
 20
147.4450008282813
 30
0.0
 11
414.7783529770546
 21
147.4450008282813
 31
0.0
  0
LINE
  5
138D
330
11BC
100
AcDbEntity
  8
1
  6
Continuous
100
AcDbLine
 10
421.5783529770545
 20
150.4505547548586
 30
0.0
 11
421.3783529770545
 21
150.6505547548584
 31
0.0
  0
LINE
  5
138E
330
11BC
100
AcDbEntity
  8
1
  6
Continuous
100
AcDbLine
 10
416.5783529770545
 20
147.4505607548586
 30
0.0
 11
416.2783529770546
 21
147.4505607548586
 31
0.0
  0
LINE
  5
138F
330
11BC
100
AcDbEntity
  8
1
  6
Continuous
100
AcDbLine
 10
421.3783529770545
 20
146.8420717548587
 30
0.0
 11
419.7783529770545
 21
146.8420717548587
 31
0.0
  0
LINE
  5
1390
330
11BC
100
AcDbEntity
  8
1
  6
Continuous
100
AcDbLine
 10
421.3783529770545
 20
146.4505547548585
 30
0.0
 11
419.7783529770545
 21
146.4505547548585
 31
0.0
  0
LINE
  5
1391
330
11BC
100
AcDbEntity
  8
1
  6
Continuous
100
AcDbLine
 10
419.7783529770545
 20
145.4505547548586
 30
0.0
 11
416.5783529770545
 21
145.4505547548586
 31
0.0
  0
LINE
  5
1392
330
11BC
100
AcDbEntity
  8
1
  6
Continuous
100
AcDbLine
 10
422.1783529770545
 20
163.2377767548588
 30
0.0
 11
421.3783529770545
 21
163.2377767548588
 31
0.0
  0
LINE
  5
1393
330
11BC
100
AcDbEntity
  8
1
  6
Continuous
100
AcDbLine
 10
422.1783529770545
 20
159.4505547548584
 30
0.0
 11
421.5783529770545
 21
159.4505547548584
 31
0.0
  0
LINE
  5
1394
330
11BC
100
AcDbEntity
  8
1
  6
Continuous
100
AcDbLine
 10
422.1783529770545
 20
161.6959677548586
 30
0.0
 11
421.3783529770545
 21
161.6959677548586
 31
0.0
  0
LINE
  5
1395
330
11BC
100
AcDbEntity
  8
1
  6
Continuous
100
AcDbLine
 10
423.5783529770546
 20
151.5252917548584
 30
0.0
 11
423.5783529770546
 21
152.9505547548585
 31
0.0
  0
LINE
  5
1396
330
11BC
100
AcDbEntity
  8
1
  6
Continuous
100
AcDbLine
 10
424.3783529770546
 20
156.9845647548585
 30
0.0
 11
424.3783529770546
 21
156.9505547548585
 31
0.0
  0
LINE
  5
1397
330
11BC
100
AcDbEntity
  8
1
  6
Continuous
100
AcDbLine
 10
423.5783529770546
 20
151.5252917548584
 30
0.0
 11
424.3783529770546
 21
152.9165447548585
 31
0.0
  0
LINE
  5
1398
330
11BC
100
AcDbEntity
  8
1
  6
Continuous
100
AcDbLine
 10
423.5783529770546
 20
151.5252917548584
 30
0.0
 11
422.1783529770545
 21
151.5252917548584
 31
0.0
  0
ARC
  5
1399
330
11BC
100
AcDbEntity
  8
1
  6
Continuous
100
AcDbCircle
 10
425.4224599770545
 20
154.9505547548585
 30
0.0
 40
2.0
100
AcDbArc
 50
90.00000000000005
 51
270.0
  0
LINE
  5
139A
330
11BC
100
AcDbEntity
  8
2
  6
Continuous
100
AcDbLine
 10
424.1936571778752
 20
145.9920547548586
 30
0.0
 11
423.8368529770548
 21
145.9920547548586
 31
0.0
  0
LINE
  5
139B
330
11BC
100
AcDbEntity
  8
1
  6
Continuous
100
AcDbLine
 10
423.5783529770546
 20
146.2505547548586
 30
0.0
 11
423.5783529770546
 21
147.0621087548584
 31
0.0
  0
LINE
  5
139C
330
11BC
100
AcDbEntity
  8
1
  6
Continuous
100
AcDbLine
 10
424.3783529770546
 20
145.4505547548586
 30
0.0
 11
424.3783529770546
 21
145.6708567548585
 31
0.0
  0
LINE
  5
139D
330
11BC
100
AcDbEntity
  8
1
  6
Continuous
100
AcDbLine
 10
423.5783529770546
 20
146.2505547548586
 30
0.0
 11
424.3783529770546
 21
145.4505547548586
 31
0.0
  0
LINE
  5
139E
330
11BC
100
AcDbEntity
  8
1
  6
Continuous
100
AcDbLine
 10
423.5783529770546
 20
147.0621087548584
 30
0.0
 11
424.3783529770546
 21
145.6708567548585
 31
0.0
  0
LINE
  5
139F
330
11BC
100
AcDbEntity
  8
1
  6
Continuous
100
AcDbLine
 10
423.5783529770546
 20
146.2505547548586
 30
0.0
 11
422.1783529770545
 21
146.2505547548586
 31
0.0
  0
LINE
  5
13A0
330
11BC
100
AcDbEntity
  8
1
  6
Continuous
100
AcDbLine
 10
423.5783529770546
 20
147.0621087548584
 30
0.0
 11
422.1783529770545
 21
147.0621087548584
 31
0.0
  0
ARC
  5
13A1
330
11BC
100
AcDbEntity
  8
1
  6
Continuous
100
AcDbCircle
 10
412.5075193118921
 20
160.5797202181474
 30
0.0
 40
3.770833665162681
100
AcDbArc
 50
330.1582771788453
 51
29.84172282115451
  0
ARC
  5
13A2
330
11BC
100
AcDbEntity
  8
1
  6
Continuous
100
AcDbCircle
 10
418.0491866422173
 20
160.5797202181474
 30
0.0
 40
3.770833665162681
100
AcDbArc
 50
150.1582771788454
 51
209.8417228211544
  0
LINE
  5
13A3
330
11BC
100
AcDbEntity
  8
2
  6
Continuous
100
AcDbLine
 10
414.2783529770546
 20
158.5445547548584
 30
0.0
 11
412.5723529770548
 21
158.5445547548584
 31
0.0
  0
LINE
  5
13A4
330
11BC
100
AcDbEntity
  8
1
  6
Continuous
100
AcDbLine
 10
414.2783529770546
 20
158.0730537548586
 30
0.0
 11
412.1008519770546
 21
158.0730537548586
 31
0.0
  0
LINE
  5
13A5
330
11BC
100
AcDbEntity
  8
2
  6
Continuous
100
AcDbLine
 10
414.2783529770546
 20
156.4524967548588
 30
0.0
 11
411.9783529770546
 21
157.9505547548588
 31
0.0
  0
LINE
  5
13A6
330
11BC
100
AcDbEntity
  8
1
  6
Continuous
100
AcDbLine
 10
414.2783529770546
 20
158.9505547548585
 30
0.0
 11
412.9783529770548
 21
158.9505547548585
 31
0.0
  0
LINE
  5
13A7
330
11BC
100
AcDbEntity
  8
1
  6
Continuous
100
AcDbLine
 10
414.2783529770546
 20
151.8280557548585
 30
0.0
 11
412.1008519770546
 21
151.8280557548585
 31
0.0
  0
LINE
  5
13A8
330
11BC
100
AcDbEntity
  8
2
  6
Continuous
100
AcDbLine
 10
414.2783529770546
 20
151.3565547548586
 30
0.0
 11
412.5723529770548
 21
151.3565547548586
 31
0.0
  0
LINE
  5
13A9
330
11BC
100
AcDbEntity
  8
2
  6
Continuous
100
AcDbLine
 10
414.2783529770546
 20
153.4486127548586
 30
0.0
 11
411.9783529770548
 21
151.9505547548585
 31
0.0
  0
LINE
  5
13AA
330
11BC
100
AcDbEntity
  8
1
  6
Continuous
100
AcDbLine
 10
414.2783529770546
 20
150.9505547548585
 30
0.0
 11
412.9783529770548
 21
150.9505547548585
 31
0.0
  0
LINE
  5
13AB
330
11BC
100
AcDbEntity
  8
1
  6
Continuous
100
AcDbLine
 10
414.7783529770546
 20
151.1977777548587
 30
0.0
 11
415.7783529770543
 21
151.1977777548587
 31
0.0
  0
LINE
  5
13AC
330
11BC
100
AcDbEntity
  8
1
  6
Continuous
100
AcDbLine
 10
421.5783529770545
 20
159.4505547548584
 30
0.0
 11
421.3783529770548
 21
159.2505547548586
 31
0.0
  0
LINE
  5
13AD
330
11BC
100
AcDbEntity
  8
1
  6
Continuous
100
AcDbLine
 10
421.3783529770545
 20
157.5005547548586
 30
0.0
 11
419.7783529770545
 21
157.5005547548586
 31
0.0
  0
LINE
  5
13AE
330
11BC
100
AcDbEntity
  8
1
  6
Continuous
100
AcDbLine
 10
414.7783529770546
 20
158.7033317548588
 30
0.0
 11
415.7783529770543
 21
158.7033317548588
 31
0.0
  0
LINE
  5
13AF
330
11BC
100
AcDbEntity
  8
1
  6
Continuous
100
AcDbLine
 10
421.3783529770545
 20
152.4005547548585
 30
0.0
 11
419.7783529770545
 21
152.4005547548585
 31
0.0
  0
ARC
  5
13B0
330
11BC
100
AcDbEntity
  8
1
  6
Continuous
100
AcDbCircle
 10
428.6116869770546
 20
154.9505547548585
 30
0.0
 40
14.33333299999999
100
AcDbArc
 50
164.8218209999997
 51
195.178179
  0
ARC
  5
13B1
330
11BC
100
AcDbEntity
  8
1
  6
Continuous
100
AcDbCircle
 10
401.9450199770544
 20
154.9505547548585
 30
0.0
 40
14.33333299999999
100
AcDbArc
 50
344.821821
 51
15.178179
  0
LINE
  5
13B2
330
11BC
100
AcDbEntity
  8
1
  6
Continuous
100
AcDbLine
 10
412.9783529770548
 20
158.9505547548585
 30
0.0
 11
411.9783529770548
 21
157.9505547548586
 31
0.0
  0
LINE
  5
13B3
330
11BC
100
AcDbEntity
  8
1
  6
Continuous
100
AcDbLine
 10
412.9783529770548
 20
158.9505547548585
 30
0.0
 11
412.9783529770548
 21
158.0730537548586
 31
0.0
  0
LINE
  5
13B4
330
11BC
100
AcDbEntity
  8
1
  6
Continuous
100
AcDbLine
 10
411.9783529770548
 20
151.9505547548584
 30
0.0
 11
412.9783529770548
 21
150.9505547548585
 31
0.0
  0
LINE
  5
13B5
330
11BC
100
AcDbEntity
  8
1
  6
Continuous
100
AcDbLine
 10
412.9783529770548
 20
151.8280557548585
 30
0.0
 11
412.9783529770548
 21
150.9505547548585
 31
0.0
  0
LINE
  5
13B6
330
11BC
100
AcDbEntity
  8
1
  6
Continuous
100
AcDbLine
 10
411.9783529770548
 20
157.9505547548586
 30
0.0
 11
411.9783529770548
 21
151.9505547548585
 31
0.0
  0
LINE
  5
13B7
330
11BC
100
AcDbEntity
  8
1
  6
Continuous
100
AcDbLine
 10
415.7783529770543
 20
162.456108681436
 30
0.0
 11
414.7783529770546
 21
162.456108681436
 31
0.0
  0
LINE
  5
13B8
330
11BC
100
AcDbEntity
  8
1
  6
Continuous
100
AcDbLine
 10
416.5783529770545
 20
162.4505487548586
 30
0.0
 11
416.2783529770546
 21
162.4505487548586
 31
0.0
  0
LINE
  5
13B9
330
11BC
100
AcDbEntity
  8
1
  6
Continuous
100
AcDbLine
 10
421.3783529770545
 20
163.0590377548584
 30
0.0
 11
419.7783529770545
 21
163.0590377548584
 31
0.0
  0
LINE
  5
13BA
330
11BC
100
AcDbEntity
  8
1
  6
Continuous
100
AcDbLine
 10
421.3783529770545
 20
163.4505547548585
 30
0.0
 11
419.7783529770545
 21
163.4505547548585
 31
0.0
  0
LINE
  5
13BB
330
11BC
100
AcDbEntity
  8
1
  6
Continuous
100
AcDbLine
 10
419.7783529770545
 20
164.4505547548585
 30
0.0
 11
416.5783529770545
 21
164.4505547548585
 31
0.0
  0
LINE
  5
13C6
330
11BC
100
AcDbEntity
  8
1
  6
Continuous
100
AcDbLine
 10
28.17319479931973
 20
248.2569246399264
 30
0.0
 11
28.17319479931973
 21
250.1025546399264
 31
0.0
  0
LINE
  5
13C7
330
11BC
100
AcDbEntity
  8
1
  6
Continuous
100
AcDbLine
 10
29.77651479931973
 20
260.6163997250138
 30
0.0
 11
28.02079479931973
 21
259.9058497250138
 31
0.0
  0
LINE
  5
13C8
330
11BC
100
AcDbEntity
  8
1
  6
Continuous
100
AcDbLine
 10
29.78192979931975
 20
260.6163997250138
 30
0.0
 11
28.01890479931973
 21
261.3342997250138
 31
0.0
  0
LINE
  5
13C9
330
11BC
100
AcDbEntity
  8
1
  6
Continuous
100
AcDbLine
 10
28.04274729931973
 20
259.3824491504587
 30
0.0
 11
31.19490729931971
 21
259.3824491504587
 31
0.0
  0
LINE
  5
13CA
330
11BC
100
AcDbEntity
  8
1
  6
Continuous
100
AcDbLine
 10
28.04274729931973
 20
256.3738170774068
 30
0.0
 11
31.19490729931971
 21
256.3738170774068
 31
0.0
  0
LINE
  5
13CB
330
11BC
100
AcDbEntity
  8
1
  6
Continuous
100
AcDbLine
 10
28.04274729931973
 20
255.870233344455
 30
0.0
 11
31.19490729931971
 21
255.870233344455
 31
0.0
  0
LINE
  5
13CC
330
11BC
100
AcDbEntity
  8
1
  6
Continuous
100
AcDbLine
 10
28.04274729931973
 20
254.5247333444553
 30
0.0
 11
31.19490729931971
 21
254.5247333444553
 31
0.0
  0
LINE
  5
13CD
330
11BC
100
AcDbEntity
  8
1
  6
Continuous
100
AcDbLine
 10
28.17319479931973
 20
249.1743546399264
 30
0.0
 11
31.17319479931973
 21
249.1743546399264
 31
0.0
  0
LINE
  5
13CE
330
11BC
100
AcDbEntity
  8
1
  6
Continuous
100
AcDbLine
 10
29.61882729931977
 20
254.5247333444553
 30
0.0
 11
29.61882729931977
 21
255.870233344455
 31
0.0
  0
LINE
  5
13CF
330
11BC
100
AcDbEntity
  8
1
  6
Continuous
100
AcDbLine
 10
30.17319479931973
 20
258.693180962817
 30
0.0
 11
31.17319479931972
 21
258.693180962817
 31
0.0
  0
LINE
  5
13D0
330
11BC
100
AcDbEntity
  8
1
  6
Continuous
100
AcDbLine
 10
30.17319479931973
 20
257.6388309628173
 30
0.0
 11
30.17319479931973
 21
258.693180962817
 31
0.0
  0
LINE
  5
13D1
330
11BC
100
AcDbEntity
  8
1
  6
Continuous
100
AcDbLine
 10
28.11343479931969
 20
262.1292788508789
 30
0.0
 11
31.18411479931973
 21
262.9652288508791
 31
0.0
  0
LINE
  5
13D2
330
11BC
100
AcDbEntity
  8
1
  6
Continuous
100
AcDbLine
 10
29.78192229931972
 20
260.6163997250138
 30
0.0
 11
31.19490729931971
 21
260.6163997250138
 31
0.0
  0
LINE
  5
13D3
330
11BC
100
AcDbEntity
  8
1
  6
Continuous
100
AcDbLine
 10
28.11882729931976
 20
262.1292788508789
 30
0.0
 11
31.18410729931969
 21
261.2391038508789
 31
0.0
  0
LINE
  5
13D4
330
11BC
100
AcDbEntity
  8
1
  6
Continuous
100
AcDbLine
 10
30.28196229931973
 20
261.5010919646485
 30
0.0
 11
30.28196229931972
 21
262.7196303572636
 31
0.0
  0
ARC
  5
13D5
330
11BC
100
AcDbEntity
  8
1
  6
Continuous
100
AcDbCircle
 10
29.67319479931973
 20
249.8543124552913
 30
0.0
 40
2.075693909433026
100
AcDbArc
 50
56.30993247402066
 51
123.6900675259793
  0
ARC
  5
13D6
330
11BC
100
AcDbEntity
  8
1
  6
Continuous
100
AcDbCircle
 10
28.95606552636438
 20
250.9300063647243
 30
0.0
 40
0.78287072704466
100
AcDbArc
 50
123.6900675259793
 51
236.3099324740205
  0
ARC
  5
13D7
330
11BC
100
AcDbEntity
  8
1
  6
Continuous
100
AcDbCircle
 10
30.39032407227507
 20
250.9300063647243
 30
0.0
 40
0.78287072704466
100
AcDbArc
 50
303.6900675259794
 51
56.30993247402066
  0
ARC
  5
13D8
330
11BC
100
AcDbEntity
  8
1
  6
Continuous
100
AcDbCircle
 10
29.67319479931973
 20
252.0057002741573
 30
0.0
 40
2.075693909433026
100
AcDbArc
 50
236.3099324740205
 51
303.6900675259794
  0
ARC
  5
13D9
330
11BC
100
AcDbEntity
  8
1
  6
Continuous
100
AcDbCircle
 10
29.67319479931973
 20
254.4340221034946
 30
0.0
 40
2.075693909433026
100
AcDbArc
 50
236.3099324740205
 51
303.6900675259794
  0
ARC
  5
13DA
330
11BC
100
AcDbEntity
  8
1
  6
Continuous
100
AcDbCircle
 10
30.39032407227507
 20
253.3583281940617
 30
0.0
 40
0.78287072704466
100
AcDbArc
 50
303.6900675259794
 51
87.49192678645091
  0
ARC
  5
13DB
330
11BC
100
AcDbEntity
  8
1
  6
Continuous
100
AcDbCircle
 10
28.95606552636438
 20
253.3583281940617
 30
0.0
 40
0.78287072704466
100
AcDbArc
 50
92.50807321356063
 51
236.3099324740205
  0
ARC
  5
13DC
330
11BC
100
AcDbEntity
  8
1
  6
Continuous
100
AcDbCircle
 10
30.39032407227507
 20
257.7543016654252
 30
0.0
 40
0.78287072704466
100
AcDbArc
 50
303.6900675259794
 51
56.30993247402021
  0
ARC
  5
13DD
330
11BC
100
AcDbEntity
  8
1
  6
Continuous
100
AcDbCircle
 10
28.95606552636438
 20
257.7543016654252
 30
0.0
 40
0.78287072704466
100
AcDbArc
 50
123.6900675259797
 51
236.3099324740205
  0
ARC
  5
13DE
330
11BC
100
AcDbEntity
  8
1
  6
Continuous
100
AcDbCircle
 10
29.67319479931973
 20
258.8299955748583
 30
0.0
 40
2.075693909433026
100
AcDbArc
 50
236.3099324740205
 51
303.6900675259794
  0
ARC
  5
13DF
330
11BC
100
AcDbEntity
  8
1
  6
Continuous
100
AcDbCircle
 10
29.67319479931973
 20
256.678607755992
 30
0.0
 40
2.075693909433026
100
AcDbArc
 50
56.30993247402066
 51
76.06132066721845
  0
ARC
  5
13E0
330
11BC
100
AcDbEntity
  8
1
  6
Continuous
100
AcDbCircle
 10
29.67319479931973
 20
256.678607755992
 30
0.0
 40
2.075693909433026
100
AcDbArc
 50
103.9386793327815
 51
123.6900675259793
  0
ARC
  5
15CA
330
11BC
100
AcDbEntity
  8
1
  6
Continuous
100
AcDbCircle
 10
180.3355237720416
 20
244.424195827374
 30
0.0
 40
14.75237164345251
100
AcDbArc
 50
338.1102734626244
 51
21.88972653730116
  0
LINE
  5
15CB
330
11BC
100
AcDbEntity
  8
1
  6
Continuous
100
AcDbLine
 10
191.5878954154977
 20
238.9241958273667
 30
0.0
 11
191.5878954154977
 21
260.9241958273668
 31
0.0
  0
LINE
  5
15CC
330
11BC
100
AcDbEntity
  8
1
  6
Continuous
100
AcDbLine
 10
195.0878954154977
 20
238.9241958273645
 30
0.0
 11
195.0878954154977
 21
260.9241958273668
 31
0.0
  0
LINE
  5
15D3
330
11BC
100
AcDbEntity
  8
1
  6
Continuous
100
AcDbLine
 10
191.5878954154905
 20
238.9241958273667
 30
0.0
 11
195.0878954154905
 21
238.9241958273645
 31
0.0
  0
ARC
  5
15D9
330
11BC
100
AcDbEntity
  8
1
  6
Continuous
100
AcDbCircle
 10
180.3355237720452
 20
255.4241958273669
 30
0.0
 40
14.75237164345251
100
AcDbArc
 50
338.110273462661
 51
21.88972653733745
  0
LINE
  5
15DA
330
11BC
100
AcDbEntity
  8
1
  6
Continuous
100
AcDbLine
 10
191.5878954154977
 20
249.9241958273668
 30
0.0
 11
194.0242954154967
 21
249.924195827366
 31
0.0
  0
LINE
  5
15DB
330
11BC
100
AcDbEntity
  8
1
  6
Continuous
100
AcDbLine
 10
191.5878954154977
 20
260.9241958273668
 30
0.0
 11
195.0878954154977
 21
260.9241958273668
 31
0.0
  0
ARC
  5
1627
330
11BC
100
AcDbEntity
  8
1
  6
Continuous
100
AcDbCircle
 10
174.4212289154977
 20
154.9505547548585
 30
0.0
 40
20.6666665
100
AcDbArc
 50
342.1034490000002
 51
17.8965509999998
  0
LINE
  5
1628
330
11BC
100
AcDbEntity
  8
1
  6
Continuous
100
AcDbLine
 10
195.0878954154977
 20
164.4768342548586
 30
0.0
 11
195.0878954154977
 21
145.4242757548586
 31
0.0
  0
LINE
  5
1629
330
11BC
100
AcDbEntity
  8
1
  6
Continuous
100
AcDbLine
 10
191.5878954154977
 20
167.6522607548586
 30
0.0
 11
191.5878954154977
 21
142.2488492548586
 31
0.0
  0
ARC
  5
162E
330
11BC
100
AcDbEntity
  8
1
  6
Continuous
100
AcDbCircle
 10
189.5462289154977
 20
145.4242757548586
 30
0.0
 40
5.541666499999998
100
AcDbArc
 50
325.0396599999989
 51
34.96034000000097
  0
LINE
  5
162F
330
11BC
100
AcDbEntity
  8
1
  6
Continuous
100
AcDbLine
 10
191.5878954154977
 20
142.2488492548586
 30
0.0
 11
194.0878954154977
 21
142.2488492548586
 31
0.0
  0
LINE
  5
1630
330
11BC
100
AcDbEntity
  8
1
  6
Continuous
100
AcDbLine
 10
191.5878954154977
 20
148.5997017548586
 30
0.0
 11
194.0878954154977
 21
148.5997017548586
 31
0.0
  0
ARC
  5
1638
330
11BC
100
AcDbEntity
  8
1
  6
Continuous
100
AcDbCircle
 10
189.5462289154977
 20
164.4768342548586
 30
0.0
 40
5.541666499999998
100
AcDbArc
 50
325.0396599999989
 51
34.96034000000097
  0
LINE
  5
1639
330
11BC
100
AcDbEntity
  8
1
  6
Continuous
100
AcDbLine
 10
191.5878954154977
 20
161.3014077548586
 30
0.0
 11
194.0878954154977
 21
161.3014077548586
 31
0.0
  0
LINE
  5
163A
330
11BC
100
AcDbEntity
  8
1
  6
Continuous
100
AcDbLine
 10
191.5878954154977
 20
167.6522607548586
 30
0.0
 11
194.0878954154977
 21
167.6522607548586
 31
0.0
  0
LINE
  5
1684
330
11BC
100
AcDbEntity
  8
1
  6
Continuous
100
AcDbLine
 10
275.1378477598791
 20
142.2488488326868
 30
0.0
 11
264.1378477598791
 21
148.5997017937726
 31
0.0
  0
LINE
  5
1685
330
11BC
100
AcDbEntity
  8
1
  6
Continuous
100
AcDbLine
 10
275.1378477598791
 20
167.6522606770303
 30
0.0
 11
264.1378477598791
 21
161.3014077159443
 31
0.0
  0
LINE
  5
1696
330
11BC
100
AcDbEntity
  8
1
  6
Continuous
100
AcDbLine
 10
264.137847759879
 20
148.5997017937725
 30
0.0
 11
264.137847759879
 21
161.3014077159443
 31
0.0
  0
LINE
  5
169C
330
11BC
100
AcDbEntity
  8
1
  6
Continuous
100
AcDbLine
 10
280.6833650879748
 20
145.4505547548586
 30
0.0
 11
275.1378477598791
 21
142.2488488326867
 31
0.0
  0
LINE
  5
169D
330
11BC
100
AcDbEntity
  8
1
  6
Continuous
100
AcDbLine
 10
280.6833650879748
 20
164.4505547548585
 30
0.0
 11
275.1378477598791
 21
167.6522606770303
 31
0.0
  0
LINE
  5
16C9
330
11BC
100
AcDbEntity
  8
1
  6
Continuous
100
AcDbLine
 10
58.31879903448845
 20
148.5997017937726
 30
0.0
 11
58.31879903448846
 21
150.1547232315459
 31
0.0
  0
LINE
  5
16CA
330
11BC
100
AcDbEntity
  8
1
  6
Continuous
100
AcDbLine
 10
58.3187990344885
 20
161.3014077159444
 30
0.0
 11
56.97211096594741
 21
162.078918434831
 31
0.0
  0
LINE
  5
16CB
330
11BC
100
AcDbEntity
  8
1
  6
Continuous
100
AcDbLine
 10
47.31879903448851
 20
167.6522606770303
 30
0.0
 11
45.97211096594763
 21
166.8747499581438
 31
0.0
  0
LINE
  5
16CC
330
11BC
100
AcDbEntity
  8
1
  6
Continuous
100
AcDbLine
 10
36.31879903448833
 20
148.5997017937725
 30
0.0
 11
36.31879903448833
 21
150.1547232315459
 31
0.0
  0
LINE
  5
16CD
330
11BC
100
AcDbEntity
  8
1
  6
Continuous
100
AcDbLine
 10
47.31879903448839
 20
142.2488488326868
 30
0.0
 11
45.97211096594747
 21
143.0263595515733
 31
0.0
  0
LINE
  5
16CE
330
11BC
100
AcDbEntity
  8
1
  6
Continuous
100
AcDbLine
 10
58.31879903448845
 20
148.5997017937726
 30
0.0
 11
56.97211096594732
 21
147.8221910748859
 31
0.0
  0
LINE
  5
16CF
330
11BC
100
AcDbEntity
  8
1
  6
Continuous
100
AcDbLine
 10
37.6654871030294
 20
147.822191074886
 30
0.0
 11
36.31879903448839
 21
148.5997017937726
 31
0.0
  0
LINE
  5
16D0
330
11BC
100
AcDbEntity
  8
1
  6
Continuous
100
AcDbLine
 10
48.66548710302956
 20
143.0263595515734
 30
0.0
 11
47.31879903448839
 21
142.2488488326867
 31
0.0
  0
LINE
  5
16D1
330
11BC
100
AcDbEntity
  8
1
  6
Continuous
100
AcDbLine
 10
58.31879903448846
 20
159.7463862781711
 30
0.0
 11
58.31879903448845
 21
161.3014077159443
 31
0.0
  0
LINE
  5
16D2
330
11BC
100
AcDbEntity
  8
1
  6
Continuous
100
AcDbLine
 10
48.66548710302947
 20
166.8747499581437
 30
0.0
 11
47.31879903448851
 21
167.6522606770303
 31
0.0
  0
LINE
  5
16D3
330
11BC
100
AcDbEntity
  8
1
  6
Continuous
100
AcDbLine
 10
37.66548710302913
 20
162.0789184348307
 30
0.0
 11
36.31879903448839
 21
161.3014077159443
 31
0.0
  0
LINE
  5
16D4
330
11BC
100
AcDbEntity
  8
1
  6
Continuous
100
AcDbLine
 10
36.31879903448833
 20
159.7463862781711
 30
0.0
 11
36.31879903448833
 21
161.3014077159443
 31
0.0
  0
LINE
  5
16D5
330
11BC
100
AcDbEntity
  8
1
  6
Continuous
100
AcDbLine
 10
195.0878954154977
 20
48.9769136823482
 30
0.0
 11
195.0878954154977
 21
70.97691368235058
 31
0.0
  0
LINE
  5
16D6
330
11BC
100
AcDbEntity
  8
1
  6
Continuous
100
AcDbLine
 10
191.5878954154977
 20
48.97691368235047
 30
0.0
 11
191.5878954154977
 21
70.97691368235058
 31
0.0
  0
ARC
  5
16D7
330
11BC
100
AcDbEntity
  8
1
  6
Continuous
100
AcDbCircle
 10
180.3355237720452
 20
65.4769136823507
 30
0.0
 40
14.75237164345251
100
AcDbArc
 50
338.110273462661
 51
21.88972653733745
  0
ARC
  5
16D8
330
11BC
100
AcDbEntity
  8
1
  6
Continuous
100
AcDbCircle
 10
180.3355237720416
 20
54.47691368235775
 30
0.0
 40
14.75237164345251
100
AcDbArc
 50
338.1102734626244
 51
21.88972653730116
  0
LINE
  5
16D9
330
11BC
100
AcDbEntity
  8
1
  6
Continuous
100
AcDbLine
 10
191.5878954154905
 20
48.97691368235047
 30
0.0
 11
195.0878954154905
 21
48.9769136823482
 31
0.0
  0
LINE
  5
16DA
330
11BC
100
AcDbEntity
  8
1
  6
Continuous
100
AcDbLine
 10
191.5878954154977
 20
59.97691368235052
 30
0.0
 11
194.0242954154967
 21
59.97691368234973
 31
0.0
  0
LINE
  5
16DB
330
11BC
100
AcDbEntity
  8
1
  6
Continuous
100
AcDbLine
 10
191.5878954154977
 20
70.97691368235058
 30
0.0
 11
195.0878954154977
 21
70.97691368235058
 31
0.0
  0
LINE
  5
16DF
330
11BC
100
AcDbEntity
  8
4
  6
CENTER
 48
0.3
100
AcDbLine
 10
384.256713770982
 20
154.9505547548585
 30
0.0
 11
369.4822274385259
 21
154.9505547548585
 31
0.0
  0
ARC
  5
16E0
330
11BC
100
AcDbEntity
  8
1
  6
Continuous
100
AcDbCircle
 10
380.8314380305729
 20
145.4242757548586
 30
0.0
 40
5.541666499999998
100
AcDbArc
 50
145.039659999999
 51
214.9603400000009
  0
LINE
  5
16E1
330
11BC
100
AcDbEntity
  8
1
  6
Continuous
100
AcDbLine
 10
378.7897715305732
 20
167.6522607548586
 30
0.0
 11
378.7897715305732
 21
142.2488492548586
 31
0.0
  0
LINE
  5
16E2
330
11BC
100
AcDbEntity
  8
1
  6
Continuous
100
AcDbLine
 10
378.7897715305732
 20
142.2488492548586
 30
0.0
 11
376.289771530573
 21
142.2488492548586
 31
0.0
  0
LINE
  5
16E3
330
11BC
100
AcDbEntity
  8
1
  6
Continuous
100
AcDbLine
 10
375.2897715305731
 20
164.4768342548586
 30
0.0
 11
375.2897715305731
 21
145.4242757548586
 31
0.0
  0
ARC
  5
16E4
330
11BC
100
AcDbEntity
  8
1
  6
Continuous
100
AcDbCircle
 10
395.9564380305729
 20
154.9505547548585
 30
0.0
 40
20.6666665
100
AcDbArc
 50
162.1034490000001
 51
197.8965509999997
  0
LINE
  5
16E5
330
11BC
100
AcDbEntity
  8
1
  6
Continuous
100
AcDbLine
 10
378.7897715305732
 20
148.5997017548586
 30
0.0
 11
376.289771530573
 21
148.5997017548586
 31
0.0
  0
ARC
  5
16E6
330
11BC
100
AcDbEntity
  8
1
  6
Continuous
100
AcDbCircle
 10
380.8314380305729
 20
164.4768342548586
 30
0.0
 40
5.541666499999998
100
AcDbArc
 50
145.039659999999
 51
214.9603400000009
  0
LINE
  5
16E7
330
11BC
100
AcDbEntity
  8
1
  6
Continuous
100
AcDbLine
 10
378.7897715305732
 20
161.3014077548586
 30
0.0
 11
376.289771530573
 21
161.3014077548586
 31
0.0
  0
LINE
  5
16E8
330
11BC
100
AcDbEntity
  8
1
  6
Continuous
100
AcDbLine
 10
378.7897715305732
 20
167.6522607548586
 30
0.0
 11
376.289771530573
 21
167.6522607548586
 31
0.0
  0
ENDSEC
  0
SECTION
  2
OBJECTS
  0
DICTIONARY
  5
11AA
330
0
100
AcDbDictionary
281
     1
  3
ACAD_CIP_PREVIOUS_PRODUCT_INFO
350
17F3
  3
ACAD_COLOR
350
17D6
  3
ACAD_DETAILVIEWSTYLE
350
17EF
  3
ACAD_GROUP
350
11AB
  3
ACAD_LAYOUT
350
11B7
  3
ACAD_MATERIAL
350
17A4
  3
ACAD_MLEADERSTYLE
350
17EB
  3
ACAD_MLINESTYLE
350
11B4
  3
ACAD_PLOTSETTINGS
350
11B6
  3
ACAD_PLOTSTYLENAME
350
17A2
  3
ACAD_SCALELIST
350
17D9
  3
ACAD_SECTIONVIEWSTYLE
350
17ED
  3
ACAD_TABLESTYLE
350
17D7
  3
ACAD_VISUALSTYLE
350
17BD
  3
ACDB_RECOMPOSE_DATA
350
1811
  3
AcDbVariableDictionary
350
1804
  3
DWGPROPS
350
1812
  0
DICTIONARY
  5
17F4
330
11AE
100
AcDbDictionary
280
     1
281
     1
  3
ADSK_XREC_LAYER_RECONCILED
360
17F5
  0
DICTIONARY
  5
17F6
330
11C4
100
AcDbDictionary
280
     1
281
     1
  3
ADSK_XREC_LAYER_RECONCILED
360
17F7
  0
DICTIONARY
  5
17F8
330
11C5
100
AcDbDictionary
280
     1
281
     1
  3
ADSK_XREC_LAYER_RECONCILED
360
17F9
  0
DICTIONARY
  5
17FA
330
11C6
100
AcDbDictionary
280
     1
281
     1
  3
ADSK_XREC_LAYER_RECONCILED
360
17FB
  0
DICTIONARY
  5
17FC
330
11C7
100
AcDbDictionary
280
     1
281
     1
  3
ADSK_XREC_LAYER_RECONCILED
360
17FD
  0
DICTIONARY
  5
17FE
330
11C8
100
AcDbDictionary
280
     1
281
     1
  3
ADSK_XREC_LAYER_RECONCILED
360
17FF
  0
DICTIONARY
  5
1800
330
11C9
100
AcDbDictionary
280
     1
281
     1
  3
ADSK_XREC_LAYER_RECONCILED
360
1801
  0
DICTIONARY
  5
1802
330
11CA
100
AcDbDictionary
280
     1
281
     1
  3
ADSK_XREC_LAYER_RECONCILED
360
1803
  0
DICTIONARY
  5
13E9
330
11BC
100
AcDbDictionary
281
     1
  3
ACAD_LAYOUTSELFREF
350
179E
  0
DICTIONARY
  5
13E7
330
11B8
100
AcDbDictionary
281
     1
  3
ACAD_LAYOUTSELFREF
350
179D
  0
XRECORD
  5
17F3
102
{ACAD_REACTORS
330
11AA
102
}
330
11AA
100
AcDbXrecord
280
     1
300
ACDLT
300
2014
300
ACDLT_F_S
  0
DICTIONARY
  5
17D6
102
{ACAD_REACTORS
330
11AA
102
}
330
11AA
100
AcDbDictionary
281
     1
  0
DICTIONARY
  5
17EF
102
{ACAD_REACTORS
330
11AA
102
}
330
11AA
100
AcDbDictionary
281
     1
  3
Imperial24
350
17F0
  0
DICTIONARY
  5
11AB
102
{ACAD_REACTORS
330
11AA
102
}
330
11AA
100
AcDbDictionary
281
     1
  0
DICTIONARY
  5
11B7
102
{ACAD_REACTORS
330
11AA
102
}
330
11AA
100
AcDbDictionary
281
     1
  3
Model
350
17F1
  3
レイアウト1
350
17F2
  0
DICTIONARY
  5
17A4
102
{ACAD_REACTORS
330
11AA
102
}
330
11AA
100
AcDbDictionary
281
     1
  3
ByBlock
350
17AD
  3
ByLayer
350
17A5
  3
Global
350
17B5
  0
DICTIONARY
  5
17EB
102
{ACAD_REACTORS
330
11AA
102
}
330
11AA
100
AcDbDictionary
281
     1
  3
Standard
350
17EC
  0
DICTIONARY
  5
11B4
102
{ACAD_REACTORS
330
11AA
102
}
330
11AA
100
AcDbDictionary
281
     1
  3
STANDARD
350
11B5
  0
DICTIONARY
  5
11B6
102
{ACAD_REACTORS
330
11AA
102
}
330
11AA
100
AcDbDictionary
281
     1
  0
ACDBDICTIONARYWDFLT
  5
17A2
102
{ACAD_REACTORS
330
11AA
102
}
330
11AA
100
AcDbDictionary
281
     1
  3
Normal
350
17A3
100
AcDbDictionaryWithDefault
340
17A3
  0
DICTIONARY
  5
17D9
102
{ACAD_REACTORS
330
11AA
102
}
330
11AA
100
AcDbDictionary
281
     1
  3
A0
350
17DA
  3
A1
350
17DB
  3
A2
350
17DC
  3
A3
350
17DD
  3
A4
350
17DE
  3
A5
350
17DF
  3
A6
350
17E0
  3
A7
350
17E1
  3
A8
350
17E2
  3
A9
350
17E3
  3
B0
350
17E4
  3
B1
350
17E5
  3
B2
350
17E6
  3
B3
350
17E7
  3
B4
350
17E8
  3
B5
350
17E9
  3
B6
350
17EA
  0
DICTIONARY
  5
17ED
102
{ACAD_REACTORS
330
11AA
102
}
330
11AA
100
AcDbDictionary
281
     1
  3
Imperial24
350
17EE
  0
DICTIONARY
  5
17D7
102
{ACAD_REACTORS
330
11AA
102
}
330
11AA
100
AcDbDictionary
281
     1
  3
Standard
350
17D8
  0
DICTIONARY
  5
17BD
102
{ACAD_REACTORS
330
11AA
102
}
330
11AA
100
AcDbDictionary
281
     1
  3
2dWireframe
350
17C3
  3
Basic
350
17C2
  3
Brighten
350
17C9
  3
ColorChange
350
17CD
  3
Conceptual
350
17C6
  3
Dim
350
17C8
  3
EdgeColorOff
350
17D5
  3
Facepattern
350
17CC
  3
Flat
350
17BE
  3
FlatWithEdges
350
17BF
  3
Gouraud
350
17C0
  3
GouraudWithEdges
350
17C1
  3
Hidden
350
17C5
  3
JitterOff
350
17D3
  3
Linepattern
350
17CB
  3
OverhangOff
350
17D4
  3
Realistic
350
17C7
  3
Shaded
350
17D2
  3
Shaded with edges
350
17D1
  3
Shades of Gray
350
17CE
  3
Sketchy
350
17CF
  3
Thicken
350
17CA
  3
Wireframe
350
17C4
  3
X-Ray
350
17D0
  0
XRECORD
  5
1811
102
{ACAD_REACTORS
330
11AA
102
}
330
11AA
100
AcDbXrecord
280
     1
 90
        1
330
17D8
  0
DICTIONARY
  5
1804
102
{ACAD_REACTORS
330
11AA
102
}
330
11AA
100
AcDbDictionary
281
     1
  3
CANNOSCALE
350
1809
  3
CMLEADERSTYLE
350
1806
  3
CTABLESTYLE
350
1805
  3
CVIEWDETAILSTYLE
350
1807
  3
CVIEWSECTIONSTYLE
350
1808
  3
DIMASSOC
350
180C
  3
INDEXCTL
350
180B
  3
SORTENTS
350
180A
  3
XCLIPFRAME
350
180D
  0
XRECORD
  5
1812
102
{ACAD_REACTORS
330
11AA
102
}
330
11AA
100
AcDbXrecord
280
     1
  1
DWGPROPS COOKIE
  2

  3

  4

  6

  7

  8
Yoshitsune
  9

300
=
301
=
302
=
303
=
304
=
305
=
306
=
307
=
308
=
309
=
 40
0.285096712962963
 41
2452248.466987847
 42
2457192.601607188
  1

 90
        0
  0
XRECORD
  5
17F5
102
{ACAD_REACTORS
330
17F4
102
}
330
17F4
100
AcDbXrecord
280
     1
290
     1
  0
XRECORD
  5
17F7
102
{ACAD_REACTORS
330
17F6
102
}
330
17F6
100
AcDbXrecord
280
     1
290
     1
  0
XRECORD
  5
17F9
102
{ACAD_REACTORS
330
17F8
102
}
330
17F8
100
AcDbXrecord
280
     1
290
     1
  0
XRECORD
  5
17FB
102
{ACAD_REACTORS
330
17FA
102
}
330
17FA
100
AcDbXrecord
280
     1
290
     1
  0
XRECORD
  5
17FD
102
{ACAD_REACTORS
330
17FC
102
}
330
17FC
100
AcDbXrecord
280
     1
290
     1
  0
XRECORD
  5
17FF
102
{ACAD_REACTORS
330
17FE
102
}
330
17FE
100
AcDbXrecord
280
     1
290
     1
  0
XRECORD
  5
1801
102
{ACAD_REACTORS
330
1800
102
}
330
1800
100
AcDbXrecord
280
     1
290
     1
  0
XRECORD
  5
1803
102
{ACAD_REACTORS
330
1802
102
}
330
1802
100
AcDbXrecord
280
     1
290
     1
  0
XRECORD
  5
179E
102
{ACAD_REACTORS
330
13E9
102
}
330
13E9
100
AcDbXrecord
280
     1
340
11BC
  0
XRECORD
  5
179D
102
{ACAD_REACTORS
330
13E7
102
}
330
13E7
100
AcDbXrecord
280
     1
340
11B8
  0
ACDBDETAILVIEWSTYLE
  5
17F0
102
{ACAD_XDICTIONARY
360
184A
102
}
102
{ACAD_REACTORS
330
17EF
102
}
330
17EF
100
AcDbModelDocViewStyle
 70
     0
  3
Imperial24
290
     0
100
AcDbDetailViewStyle
 70
     0
 71
     0
 90
        3
 71
     1
340
11AF
 40
0.24
340
0
 40
0.24
300

 40
0.36
280
     3
 71
     2
340
11B3
 90
       25
 71
     3
340
11AF
 40
0.24
 90
        1
 40
0.75
 90
        1
300
%<\AcVar ViewType \f "%tc1">% %<\AcVar ViewDetailId>%\PSCALE %<\AcVar ViewScale \f "%sn">%
 71
     4
340
11B3
 90
       25
340
11B3
 90
       25
280
     0
  0
LAYOUT
  5
17F1
102
{ACAD_XDICTIONARY
360
184C
102
}
102
{ACAD_REACTORS
330
11B7
102
}
330
11B7
100
AcDbPlotSettings
  1

  2
Canon LBP9100C
  4

  6

 40
0.0
 41
0.0
 42
0.0
 43
0.0
 44
0.0
 45
0.0
 46
0.0
 47
0.0
 48
0.0
 49
0.0
140
0.0
141
0.0
142
1.0
143
1.0
 70
  1712
 72
     0
 73
     0
 74
     0
  7

 75
     0
147
1.0
148
0.0
149
0.0
100
AcDbLayout
  1
Model
 70
     1
 71
     0
 10
0.0
 20
0.0
 11
12.0
 21
9.0
 12
0.0
 22
0.0
 32
0.0
 14
0.0
 24
0.0
 34
0.0
 15
0.0
 25
0.0
 35
0.0
146
0.0
 13
0.0
 23
0.0
 33
0.0
 16
1.0
 26
0.0
 36
0.0
 17
0.0
 27
1.0
 37
0.0
 76
     0
330
11BC
331
179C
  0
LAYOUT
  5
17F2
102
{ACAD_XDICTIONARY
360
184E
102
}
102
{ACAD_REACTORS
330
11B7
102
}
330
11B7
100
AcDbPlotSettings
  1

  2
Canon LBP9100C
  4

  6

 40
0.0
 41
0.0
 42
0.0
 43
0.0
 44
0.0
 45
0.0
 46
0.0
 47
0.0
 48
0.0
 49
0.0
140
0.0
141
0.0
142
1.0
143
1.0
 70
   688
 72
     0
 73
     0
 74
     5
  7

 75
    16
147
1.0
148
0.0
149
0.0
100
AcDbLayout
  1
レイアウト1
 70
     1
 71
     1
 10
0.0
 20
0.0
 11
420.0
 21
297.0
 12
0.0
 22
0.0
 32
0.0
 14
1.000000000000000E+20
 24
1.000000000000000E+20
 34
1.000000000000000E+20
 15
-1.000000000000000E+20
 25
-1.000000000000000E+20
 35
-1.000000000000000E+20
146
0.0
 13
0.0
 23
0.0
 33
0.0
 16
1.0
 26
0.0
 36
0.0
 17
0.0
 27
1.0
 37
0.0
 76
     0
330
11B8
  0
MATERIAL
  5
17AD
102
{ACAD_XDICTIONARY
360
17AE
102
}
102
{ACAD_REACTORS
330
17A4
102
}
330
17A4
100
AcDbMaterial
  1
ByBlock
 72
     0
 43
0.0208333333333333
 43
0.0
 43
0.0
 43
0.0
 43
0.0
 43
0.0208333333333333
 43
0.0
 43
0.0
 43
0.0
 43
0.0
 43
1.0
 43
0.0
 43
0.0
 43
0.0
 43
0.0
 43
1.0
 77
     0
 47
0.0208333333333333
 47
0.0
 47
0.0
 47
0.0
 47
0.0
 47
0.0208333333333333
 47
0.0
 47
0.0
 47
0.0
 47
0.0
 47
1.0
 47
0.0
 47
0.0
 47
0.0
 47
0.0
 47
1.0
171
     0
 49
0.0208333333333333
 49
0.0
 49
0.0
 49
0.0
 49
0.0
 49
0.0208333333333333
 49
0.0
 49
0.0
 49
0.0
 49
0.0
 49
1.0
 49
0.0
 49
0.0
 49
0.0
 49
0.0
 49
1.0
175
     0
142
0.0208333333333333
142
0.0
142
0.0
142
0.0
142
0.0
142
0.0208333333333333
142
0.0
142
0.0
142
0.0
142
0.0
142
1.0
142
0.0
142
0.0
142
0.0
142
0.0
142
1.0
179
     0
144
0.0208333333333333
144
0.0
144
0.0
144
0.0
144
0.0
144
0.0208333333333333
144
0.0
144
0.0
144
0.0
144
0.0
144
1.0
144
0.0
144
0.0
144
0.0
144
0.0
144
1.0
147
0.0208333333333333
147
0.0
147
0.0
147
0.0
147
0.0
147
0.0208333333333333
147
0.0
147
0.0
147
0.0
147
0.0
147
1.0
147
0.0
147
0.0
147
0.0
147
0.0
147
1.0
  0
MATERIAL
  5
17A5
102
{ACAD_XDICTIONARY
360
17A6
102
}
102
{ACAD_REACTORS
330
17A4
102
}
330
17A4
100
AcDbMaterial
  1
ByLayer
 72
     0
 43
0.0208333333333333
 43
0.0
 43
0.0
 43
0.0
 43
0.0
 43
0.0208333333333333
 43
0.0
 43
0.0
 43
0.0
 43
0.0
 43
1.0
 43
0.0
 43
0.0
 43
0.0
 43
0.0
 43
1.0
 77
     0
 47
0.0208333333333333
 47
0.0
 47
0.0
 47
0.0
 47
0.0
 47
0.0208333333333333
 47
0.0
 47
0.0
 47
0.0
 47
0.0
 47
1.0
 47
0.0
 47
0.0
 47
0.0
 47
0.0
 47
1.0
171
     0
 49
0.0208333333333333
 49
0.0
 49
0.0
 49
0.0
 49
0.0
 49
0.0208333333333333
 49
0.0
 49
0.0
 49
0.0
 49
0.0
 49
1.0
 49
0.0
 49
0.0
 49
0.0
 49
0.0
 49
1.0
175
     0
142
0.0208333333333333
142
0.0
142
0.0
142
0.0
142
0.0
142
0.0208333333333333
142
0.0
142
0.0
142
0.0
142
0.0
142
1.0
142
0.0
142
0.0
142
0.0
142
0.0
142
1.0
179
     0
144
0.0208333333333333
144
0.0
144
0.0
144
0.0
144
0.0
144
0.0208333333333333
144
0.0
144
0.0
144
0.0
144
0.0
144
1.0
144
0.0
144
0.0
144
0.0
144
0.0
144
1.0
147
0.0208333333333333
147
0.0
147
0.0
147
0.0
147
0.0
147
0.0208333333333333
147
0.0
147
0.0
147
0.0
147
0.0
147
1.0
147
0.0
147
0.0
147
0.0
147
0.0
147
1.0
  0
MATERIAL
  5
17B5
102
{ACAD_XDICTIONARY
360
17B6
102
}
102
{ACAD_REACTORS
330
17A4
102
}
330
17A4
100
AcDbMaterial
  1
Global
 72
     0
 43
0.0208333333333333
 43
0.0
 43
0.0
 43
0.0
 43
0.0
 43
0.0208333333333333
 43
0.0
 43
0.0
 43
0.0
 43
0.0
 43
1.0
 43
0.0
 43
0.0
 43
0.0
 43
0.0
 43
1.0
 77
     0
 47
0.0208333333333333
 47
0.0
 47
0.0
 47
0.0
 47
0.0
 47
0.0208333333333333
 47
0.0
 47
0.0
 47
0.0
 47
0.0
 47
1.0
 47
0.0
 47
0.0
 47
0.0
 47
0.0
 47
1.0
171
     0
 49
0.0208333333333333
 49
0.0
 49
0.0
 49
0.0
 49
0.0
 49
0.0208333333333333
 49
0.0
 49
0.0
 49
0.0
 49
0.0
 49
1.0
 49
0.0
 49
0.0
 49
0.0
 49
0.0
 49
1.0
175
     0
142
0.0208333333333333
142
0.0
142
0.0
142
0.0
142
0.0
142
0.0208333333333333
142
0.0
142
0.0
142
0.0
142
0.0
142
1.0
142
0.0
142
0.0
142
0.0
142
0.0
142
1.0
179
     0
144
0.0208333333333333
144
0.0
144
0.0
144
0.0
144
0.0
144
0.0208333333333333
144
0.0
144
0.0
144
0.0
144
0.0
144
1.0
144
0.0
144
0.0
144
0.0
144
0.0
144
1.0
147
0.0208333333333333
147
0.0
147
0.0
147
0.0
147
0.0
147
0.0208333333333333
147
0.0
147
0.0
147
0.0
147
0.0
147
1.0
147
0.0
147
0.0
147
0.0
147
0.0
147
1.0
  0
MLEADERSTYLE
  5
17EC
102
{ACAD_REACTORS
330
17EB
102
}
330
17EB
100
AcDbMLeaderStyle
170
     2
171
     1
172
     0
 90
        2
 40
0.0
 41
0.0
173
     1
 91
-1056964608
340
11B1
 92
       -2
290
     1
 42
0.09
291
     1
 43
0.36
  3
Standard
 44
0.18
300

342
11AF
174
     1
178
     6
175
     1
176
     0
 93
-1056964608
 45
0.18
292
     0
297
     0
 46
0.18
 94
-1056964608
 47
1.0
 49
1.0
140
1.0
293
     1
141
0.0
294
     1
177
     0
142
1.0
295
     0
296
     0
143
0.125
1001
ACAD_MLEADERVER
1070
     2
  0
MLINESTYLE
  5
11B5
102
{ACAD_REACTORS
330
11B4
102
}
330
11B4
100
AcDbMlineStyle
  2
STANDARD
 70
     0
  3

 62
   256
 51
90.0
 52
90.0
 71
     2
 49
0.5
 62
   256
  6
BYLAYER
 49
-0.5
 62
   256
  6
BYLAYER
  0
ACDBPLACEHOLDER
  5
17A3
102
{ACAD_REACTORS
330
17A2
102
}
330
17A2
  0
SCALE
  5
17DA
102
{ACAD_REACTORS
330
17D9
102
}
330
17D9
100
AcDbScale
 70
     0
300
1:1
140
1.0
141
1.0
290
     1
  0
SCALE
  5
17DB
102
{ACAD_REACTORS
330
17D9
102
}
330
17D9
100
AcDbScale
 70
     0
300
1/128" = 1'-0"
140
0.0078125
141
12.0
290
     0
  0
SCALE
  5
17DC
102
{ACAD_REACTORS
330
17D9
102
}
330
17D9
100
AcDbScale
 70
     0
300
1/64" = 1'-0"
140
0.015625
141
12.0
290
     0
  0
SCALE
  5
17DD
102
{ACAD_REACTORS
330
17D9
102
}
330
17D9
100
AcDbScale
 70
     0
300
1/32" = 1'-0"
140
0.03125
141
12.0
290
     0
  0
SCALE
  5
17DE
102
{ACAD_REACTORS
330
17D9
102
}
330
17D9
100
AcDbScale
 70
     0
300
1/16" = 1'-0"
140
0.0625
141
12.0
290
     0
  0
SCALE
  5
17DF
102
{ACAD_REACTORS
330
17D9
102
}
330
17D9
100
AcDbScale
 70
     0
300
3/32" = 1'-0"
140
0.09375
141
12.0
290
     0
  0
SCALE
  5
17E0
102
{ACAD_REACTORS
330
17D9
102
}
330
17D9
100
AcDbScale
 70
     0
300
1/8" = 1'-0"
140
0.125
141
12.0
290
     0
  0
SCALE
  5
17E1
102
{ACAD_REACTORS
330
17D9
102
}
330
17D9
100
AcDbScale
 70
     0
300
3/16" = 1'-0"
140
0.1875
141
12.0
290
     0
  0
SCALE
  5
17E2
102
{ACAD_REACTORS
330
17D9
102
}
330
17D9
100
AcDbScale
 70
     0
300
1/4" = 1'-0"
140
0.25
141
12.0
290
     0
  0
SCALE
  5
17E3
102
{ACAD_REACTORS
330
17D9
102
}
330
17D9
100
AcDbScale
 70
     0
300
3/8" = 1'-0"
140
0.375
141
12.0
290
     0
  0
SCALE
  5
17E4
102
{ACAD_REACTORS
330
17D9
102
}
330
17D9
100
AcDbScale
 70
     0
300
1/2" = 1'-0"
140
0.5
141
12.0
290
     0
  0
SCALE
  5
17E5
102
{ACAD_REACTORS
330
17D9
102
}
330
17D9
100
AcDbScale
 70
     0
300
3/4" = 1'-0"
140
0.75
141
12.0
290
     0
  0
SCALE
  5
17E6
102
{ACAD_REACTORS
330
17D9
102
}
330
17D9
100
AcDbScale
 70
     0
300
1" = 1'-0"
140
1.0
141
12.0
290
     0
  0
SCALE
  5
17E7
102
{ACAD_REACTORS
330
17D9
102
}
330
17D9
100
AcDbScale
 70
     0
300
1-1/2" = 1'-0"
140
1.5
141
12.0
290
     0
  0
SCALE
  5
17E8
102
{ACAD_REACTORS
330
17D9
102
}
330
17D9
100
AcDbScale
 70
     0
300
3" = 1'-0"
140
3.0
141
12.0
290
     0
  0
SCALE
  5
17E9
102
{ACAD_REACTORS
330
17D9
102
}
330
17D9
100
AcDbScale
 70
     0
300
6" = 1'-0"
140
6.0
141
12.0
290
     0
  0
SCALE
  5
17EA
102
{ACAD_REACTORS
330
17D9
102
}
330
17D9
100
AcDbScale
 70
     0
300
1'-0" = 1'-0"
140
12.0
141
12.0
290
     0
  0
ACDBSECTIONVIEWSTYLE
  5
17EE
102
{ACAD_XDICTIONARY
360
1848
102
}
102
{ACAD_REACTORS
330
17ED
102
}
330
17ED
100
AcDbModelDocViewStyle
 70
     0
  3
Imperial24
290
     0
100
AcDbSectionViewStyle
 70
     0
 71
     0
 90
       78
 71
     1
340
11AF
 40
0.24
340
0
340
0
 40
0.24
300
I, O, Q, S, X, Z
 40
0.48
 90
        3
 40
0.18
 90
        1
 71
     2
340
11B3
 90
       25
340
11B3
 90
       50
 40
0.24
 40
0.0
 40
0.24
 71
     3
340
11AF
 40
0.24
 90
        1
 40
0.75
 90
        1
300
%<\AcVar ViewType \f "%tc1">% %<\AcVar ViewSectionStartId>%-%<\AcVar ViewSectionEndId>%\PSCALE %<\AcVar ViewScale \f "%sn">%
 71
     4
300
ANSI31
 40
1.0
 90
        0
290
     0
290
     0
 90
        6
 40
0.0
 40
1.570796326794896
 40
0.2617993877991494
 40
1.308996938995747
 40
-0.2617993877991494
 40
1.832595714594046
  0
TABLESTYLE
  5
17D8
102
{ACAD_XDICTIONARY
360
180F
102
}
102
{ACAD_REACTORS
330
17D7
102
}
330
17D7
100
AcDbTableStyle
  3
Standard
 70
     0
 71
     0
 40
0.06
 41
0.06
280
     0
281
     0
  7
STANDARD
140
0.18
170
     2
 62
     0
 63
     7
283
     0
274
    -2
284
     1
 64
     0
275
    -2
285
     1
 65
     0
276
    -2
286
     1
 66
     0
277
    -2
287
     1
 67
     0
278
    -2
288
     1
 68
     0
279
    -2
289
     1
 69
     0
  7
STANDARD
140
0.25
170
     5
 62
     0
 63
     7
283
     0
274
    -2
284
     1
 64
     0
275
    -2
285
     1
 65
     0
276
    -2
286
     1
 66
     0
277
    -2
287
     1
 67
     0
278
    -2
288
     1
 68
     0
279
    -2
289
     1
 69
     0
  7
STANDARD
140
0.18
170
     5
 62
     0
 63
     7
283
     0
274
    -2
284
     1
 64
     0
275
    -2
285
     1
 65
     0
276
    -2
286
     1
 66
     0
277
    -2
287
     1
 67
     0
278
    -2
288
     1
 68
     0
279
    -2
289
     1
 69
     0
  0
VISUALSTYLE
  5
17C3
102
{ACAD_XDICTIONARY
360
1820
102
}
102
{ACAD_REACTORS
330
17BD
102
}
330
17BD
100
AcDbVisualStyle
  2
2dWireframe
 70
     4
 71
     0
 72
     2
 73
     0
 90
        0
 40
-0.6
 41
-30.0
 62
     5
 63
     7
 74
     1
 91
        4
 64
     7
 65
   257
 75
     1
175
     1
 42
1.0
 92
        0
 66
   257
 43
1.0
 76
     1
 77
     6
 78
     2
 67
     7
 79
     5
170
     0
171
     0
290
     0
174
     0
 93
        1
 44
0.0
173
     0
291
     0
 45
0.0
1001
ACAD
1000
AcDbSavedByObjectVersion
1070
     0
  0
VISUALSTYLE
  5
17C2
102
{ACAD_XDICTIONARY
360
181E
102
}
102
{ACAD_REACTORS
330
17BD
102
}
330
17BD
100
AcDbVisualStyle
  2
Basic
 70
     7
 71
     1
 72
     0
 73
     1
 90
        0
 40
-0.6
 41
-30.0
 62
     5
 63
     7
 74
     0
 91
        4
 64
     7
 65
   257
 75
     1
175
     1
 42
1.0
 92
        8
 66
     7
 43
1.0
 76
     1
 77
     6
 78
     2
 67
     7
 79
     5
170
     0
171
     0
290
     0
174
     0
 93
        1
 44
0.0
173
     0
291
     1
 45
0.0
1001
ACAD
1000
AcDbSavedByObjectVersion
1070
     0
  0
VISUALSTYLE
  5
17C9
102
{ACAD_XDICTIONARY
360
182C
102
}
102
{ACAD_REACTORS
330
17BD
102
}
330
17BD
100
AcDbVisualStyle
  2
Brighten
 70
    12
 71
     2
 72
     2
 73
     0
 90
        0
 40
-0.6
 41
-30.0
 62
     5
 63
     7
 74
     1
 91
        4
 64
     7
 65
   257
 75
     1
175
     1
 42
1.0
 92
        8
 66
     7
 43
1.0
 76
     1
 77
     6
 78
     2
 67
     7
 79
     5
170
     0
171
     0
290
     0
174
     0
 93
        1
 44
50.0
173
     0
291
     1
 45
0.0
1001
ACAD
1000
AcDbSavedByObjectVersion
1070
     0
  0
VISUALSTYLE
  5
17CD
102
{ACAD_XDICTIONARY
360
1834
102
}
102
{ACAD_REACTORS
330
17BD
102
}
330
17BD
100
AcDbVisualStyle
  2
ColorChange
 70
    16
 71
     2
 72
     2
 73
     3
 90
        0
 40
-0.6
 41
-30.0
 62
     5
 63
     8
 74
     1
 91
        4
 64
     7
 65
   257
 75
     1
175
     1
 42
1.0
 92
        8
 66
     8
 43
1.0
 76
     1
 77
     6
 78
     2
 67
     7
 79
     5
170
     0
171
     0
290
     0
174
     0
 93
        1
 44
0.0
173
     0
291
     1
 45
0.0
1001
ACAD
1000
AcDbSavedByObjectVersion
1070
     0
  0
VISUALSTYLE
  5
17C6
102
{ACAD_XDICTIONARY
360
1826
102
}
102
{ACAD_REACTORS
330
17BD
102
}
330
17BD
100
AcDbVisualStyle
  2
Conceptual
 70
     9
 71
     3
 72
     2
 73
     0
 90
        0
 40
-0.6
 41
-30.0
 62
     5
 63
     7
 74
     2
 91
        2
 64
     7
 65
   257
 75
     1
175
     1
 42
179.0
 92
        8
 66
     7
 43
1.0
 76
     1
 77
     6
 78
     2
 67
     7
 79
     3
170
     0
171
     0
290
     0
174
     0
 93
        1
 44
0.0
173
     0
291
     0
 45
0.0
1001
ACAD
1000
AcDbSavedByObjectVersion
1070
     0
  0
VISUALSTYLE
  5
17C8
102
{ACAD_XDICTIONARY
360
182A
102
}
102
{ACAD_REACTORS
330
17BD
102
}
330
17BD
100
AcDbVisualStyle
  2
Dim
 70
    11
 71
     2
 72
     2
 73
     0
 90
        0
 40
-0.6
 41
-30.0
 62
     5
 63
     7
 74
     1
 91
        4
 64
     7
 65
   257
 75
     1
175
     1
 42
1.0
 92
        8
 66
     7
 43
1.0
 76
     1
 77
     6
 78
     2
 67
     7
 79
     5
170
     0
171
     0
290
     0
174
     0
 93
        1
 44
-50.0
173
     0
291
     1
 45
0.0
1001
ACAD
1000
AcDbSavedByObjectVersion
1070
     0
  0
VISUALSTYLE
  5
17D5
102
{ACAD_XDICTIONARY
360
1844
102
}
102
{ACAD_REACTORS
330
17BD
102
}
330
17BD
100
AcDbVisualStyle
  2
EdgeColorOff
 70
    22
 71
     2
 72
     2
 73
     0
 90
        0
 40
-0.6
 41
-30.0
 62
     5
 63
     7
 74
     1
 91
        4
 64
     7
 65
   257
 75
     1
175
     1
 42
1.0
 92
        8
 66
     7
 43
1.0
 76
     1
 77
     6
 78
     2
 67
     7
 79
     5
170
     0
171
     0
290
     0
174
     0
 93
        1
 44
0.0
173
     0
291
     1
 45
0.0
1001
ACAD
1000
AcDbSavedByObjectVersion
1070
     0
  0
VISUALSTYLE
  5
17CC
102
{ACAD_XDICTIONARY
360
1832
102
}
102
{ACAD_REACTORS
330
17BD
102
}
330
17BD
100
AcDbVisualStyle
  2
Facepattern
 70
    15
 71
     2
 72
     2
 73
     0
 90
        0
 40
-0.6
 41
-30.0
 62
     5
 63
     7
 74
     1
 91
        4
 64
     7
 65
   257
 75
     1
175
     1
 42
1.0
 92
        8
 66
     7
 43
1.0
 76
     1
 77
     6
 78
     2
 67
     7
 79
     5
170
     0
171
     0
290
     0
174
     0
 93
        1
 44
0.0
173
     0
291
     1
 45
0.0
1001
ACAD
1000
AcDbSavedByObjectVersion
1070
     0
  0
VISUALSTYLE
  5
17BE
102
{ACAD_XDICTIONARY
360
1816
102
}
102
{ACAD_REACTORS
330
17BD
102
}
330
17BD
100
AcDbVisualStyle
  2
Flat
 70
     0
 71
     2
 72
     1
 73
     1
 90
        2
 40
-0.6
 41
30.0
 62
     5
 63
     7
 74
     0
 91
        0
 64
     7
 65
   257
 75
     1
175
     1
 42
1.0
 92
        8
 66
     7
 43
1.0
 76
     1
 77
     6
 78
     2
 67
     7
 79
     5
170
     0
171
     0
290
     0
174
     0
 93
       13
 44
0.0
173
     0
291
     1
 45
0.0
1001
ACAD
1000
AcDbSavedByObjectVersion
1070
     0
  0
VISUALSTYLE
  5
17BF
102
{ACAD_XDICTIONARY
360
1818
102
}
102
{ACAD_REACTORS
330
17BD
102
}
330
17BD
100
AcDbVisualStyle
  2
FlatWithEdges
 70
     1
 71
     2
 72
     1
 73
     1
 90
        2
 40
-0.6
 41
30.0
 62
     5
 63
     7
 74
     1
 91
        0
 64
     7
 65
   257
 75
     1
175
     1
 42
1.0
 92
        0
 66
   257
 43
1.0
 76
     1
 77
     6
 78
     2
 67
     7
 79
     5
170
     0
171
     0
290
     0
174
     0
 93
       13
 44
0.0
173
     0
291
     1
 45
0.0
1001
ACAD
1000
AcDbSavedByObjectVersion
1070
     0
  0
VISUALSTYLE
  5
17C0
102
{ACAD_XDICTIONARY
360
181A
102
}
102
{ACAD_REACTORS
330
17BD
102
}
330
17BD
100
AcDbVisualStyle
  2
Gouraud
 70
     2
 71
     2
 72
     2
 73
     1
 90
        2
 40
-0.6
 41
30.0
 62
     5
 63
     7
 74
     0
 91
        0
 64
     7
 65
   257
 75
     1
175
     1
 42
1.0
 92
        0
 66
     7
 43
1.0
 76
     1
 77
     6
 78
     2
 67
     7
 79
     5
170
     0
171
     0
290
     0
174
     0
 93
       13
 44
0.0
173
     0
291
     1
 45
0.0
1001
ACAD
1000
AcDbSavedByObjectVersion
1070
     0
  0
VISUALSTYLE
  5
17C1
102
{ACAD_XDICTIONARY
360
181C
102
}
102
{ACAD_REACTORS
330
17BD
102
}
330
17BD
100
AcDbVisualStyle
  2
GouraudWithEdges
 70
     3
 71
     2
 72
     2
 73
     1
 90
        2
 40
-0.6
 41
30.0
 62
     5
 63
     7
 74
     1
 91
        0
 64
     7
 65
   257
 75
     1
175
     1
 42
1.0
 92
        0
 66
   257
 43
1.0
 76
     1
 77
     6
 78
     2
 67
     7
 79
     5
170
     0
171
     0
290
     0
174
     0
 93
       13
 44
0.0
173
     0
291
     1
 45
0.0
1001
ACAD
1000
AcDbSavedByObjectVersion
1070
     0
  0
VISUALSTYLE
  5
17C5
102
{ACAD_XDICTIONARY
360
1824
102
}
102
{ACAD_REACTORS
330
17BD
102
}
330
17BD
100
AcDbVisualStyle
  2
Hidden
 70
     6
 71
     1
 72
     2
 73
     2
 90
        0
 40
-0.6
 41
-30.0
 62
     5
 63
     7
 74
     2
 91
        2
 64
     7
 65
   257
 75
     2
175
     1
 42
40.0
 92
        0
 66
   257
 43
1.0
 76
     1
 77
     6
 78
     2
 67
     7
 79
     3
170
     0
171
     0
290
     0
174
     0
 93
        1
 44
0.0
173
     0
291
     0
 45
0.0
1001
ACAD
1000
AcDbSavedByObjectVersion
1070
     0
  0
VISUALSTYLE
  5
17D3
102
{ACAD_XDICTIONARY
360
1840
102
}
102
{ACAD_REACTORS
330
17BD
102
}
330
17BD
100
AcDbVisualStyle
  2
JitterOff
 70
    20
 71
     2
 72
     2
 73
     0
 90
        0
 40
-0.6
 41
-30.0
 62
     5
 63
     7
 74
     1
 91
        4
 64
     7
 65
   257
 75
     1
175
     1
 42
1.0
 92
       10
 66
     7
 43
1.0
 76
     1
 77
     6
 78
     2
 67
     7
 79
     5
170
     0
171
     0
290
     0
174
     0
 93
        1
 44
0.0
173
     0
291
     1
 45
0.0
1001
ACAD
1000
AcDbSavedByObjectVersion
1070
     0
  0
VISUALSTYLE
  5
17CB
102
{ACAD_XDICTIONARY
360
1830
102
}
102
{ACAD_REACTORS
330
17BD
102
}
330
17BD
100
AcDbVisualStyle
  2
Linepattern
 70
    14
 71
     2
 72
     2
 73
     0
 90
        0
 40
-0.6
 41
-30.0
 62
     5
 63
     7
 74
     1
 91
        4
 64
     7
 65
   257
 75
     7
175
     7
 42
1.0
 92
        8
 66
     7
 43
1.0
 76
     1
 77
     6
 78
     2
 67
     7
 79
     5
170
     0
171
     0
290
     0
174
     0
 93
        1
 44
0.0
173
     0
291
     1
 45
0.0
1001
ACAD
1000
AcDbSavedByObjectVersion
1070
     0
  0
VISUALSTYLE
  5
17D4
102
{ACAD_XDICTIONARY
360
1842
102
}
102
{ACAD_REACTORS
330
17BD
102
}
330
17BD
100
AcDbVisualStyle
  2
OverhangOff
 70
    21
 71
     2
 72
     2
 73
     0
 90
        0
 40
-0.6
 41
-30.0
 62
     5
 63
     7
 74
     1
 91
        4
 64
     7
 65
   257
 75
     1
175
     1
 42
1.0
 92
        9
 66
     7
 43
1.0
 76
     1
 77
     6
 78
     2
 67
     7
 79
     5
170
     0
171
     0
290
     0
174
     0
 93
        1
 44
0.0
173
     0
291
     1
 45
0.0
1001
ACAD
1000
AcDbSavedByObjectVersion
1070
     0
  0
VISUALSTYLE
  5
17C7
102
{ACAD_XDICTIONARY
360
1828
102
}
102
{ACAD_REACTORS
330
17BD
102
}
330
17BD
100
AcDbVisualStyle
  2
Realistic
 70
     8
 71
     2
 72
     3
 73
     0
 90
        2
 40
-0.6
 41
30.0
 62
     5
 63
     7
 74
     0
 91
        0
 64
     7
 65
   257
 75
     1
175
     1
 42
1.0
 92
        8
 66
   257
 43
1.0
 76
     1
 77
     6
 78
     2
 67
     7
 79
     3
170
     0
171
     0
290
     0
174
     0
 93
       13
 44
0.0
173
     0
291
     0
 45
0.0
1001
ACAD
1000
AcDbSavedByObjectVersion
1070
     0
  0
VISUALSTYLE
  5
17D2
102
{ACAD_XDICTIONARY
360
183E
102
}
102
{ACAD_REACTORS
330
17BD
102
}
330
17BD
100
AcDbVisualStyle
  2
Shaded
 70
    27
 71
     2
 72
     2
 73
     1
 90
        2
 40
-0.6
 41
30.0
 62
     5
 63
     7
 74
     0
 91
        4
 64
     7
 65
   257
 75
     1
175
     1
 42
1.0
 92
        8
 66
   257
 43
1.0
 76
     1
 77
     6
 78
     2
 67
     8
 79
     3
170
     0
171
     0
290
     0
174
     0
 93
        5
 44
0.0
173
     0
291
     0
 45
0.0
1001
ACAD
1000
AcDbSavedByObjectVersion
1070
     0
  0
VISUALSTYLE
  5
17D1
102
{ACAD_XDICTIONARY
360
183C
102
}
102
{ACAD_REACTORS
330
17BD
102
}
330
17BD
100
AcDbVisualStyle
  2
Shaded with edges
 70
    26
 71
     2
 72
     2
 73
     1
 90
        2
 40
-0.6
 41
30.0
 62
     5
 63
     7
 74
     1
 91
       10
 64
     7
 65
   257
 75
     2
175
     1
 42
1.0
 92
        8
 66
   257
 43
1.0
 76
     1
 77
     6
 78
     2
 67
     7
 79
     3
170
     0
171
     0
290
     0
174
     0
 93
        5
 44
0.0
173
     0
291
     0
 45
0.0
1001
ACAD
1000
AcDbSavedByObjectVersion
1070
     0
  0
VISUALSTYLE
  5
17CE
102
{ACAD_XDICTIONARY
360
1836
102
}
102
{ACAD_REACTORS
330
17BD
102
}
330
17BD
100
AcDbVisualStyle
  2
Shades of Gray
 70
    23
 71
     2
 72
     2
 73
     3
 90
        0
 40
-0.6
 41
-30.0
 62
     5
 63
     7
 74
     2
 91
        2
 64
     7
 65
     7
 75
     1
175
     1
 42
40.0
 92
        8
 66
     7
 43
1.0
 76
     1
 77
     6
 78
     2
 67
     7
 79
     3
170
     0
171
     0
290
     0
174
     0
 93
        1
 44
0.0
173
     0
291
     0
 45
0.0
1001
ACAD
1000
AcDbSavedByObjectVersion
1070
     0
  0
VISUALSTYLE
  5
17CF
102
{ACAD_XDICTIONARY
360
1838
102
}
102
{ACAD_REACTORS
330
17BD
102
}
330
17BD
100
AcDbVisualStyle
  2
Sketchy
 70
    24
 71
     1
 72
     2
 73
     2
 90
        0
 40
-0.6
 41
-30.0
 62
     5
 63
     7
 74
     2
 91
        2
 64
     7
 65
     7
 75
     1
175
     1
 42
40.0
 92
       11
 66
     7
 43
1.0
 76
     1
 77
     6
 78
     2
 67
     7
 79
     6
170
     0
171
     0
290
     0
174
     0
 93
        1
 44
0.0
173
     0
291
     0
 45
0.0
1001
ACAD
1000
AcDbSavedByObjectVersion
1070
     0
  0
VISUALSTYLE
  5
17CA
102
{ACAD_XDICTIONARY
360
182E
102
}
102
{ACAD_REACTORS
330
17BD
102
}
330
17BD
100
AcDbVisualStyle
  2
Thicken
 70
    13
 71
     2
 72
     2
 73
     0
 90
        0
 40
-0.6
 41
-30.0
 62
     5
 63
     7
 74
     1
 91
        4
 64
     7
 65
   257
 75
     1
175
     1
 42
1.0
 92
       12
 66
     7
 43
1.0
 76
     1
 77
     6
 78
     2
 67
     7
 79
     5
170
     0
171
     0
290
     0
174
     0
 93
        1
 44
0.0
173
     0
291
     1
 45
0.0
1001
ACAD
1000
AcDbSavedByObjectVersion
1070
     0
  0
VISUALSTYLE
  5
17C4
102
{ACAD_XDICTIONARY
360
1822
102
}
102
{ACAD_REACTORS
330
17BD
102
}
330
17BD
100
AcDbVisualStyle
  2
Wireframe
 70
     5
 71
     0
 72
     2
 73
     0
 90
        0
 40
-0.6
 41
-30.0
 62
     5
 63
     7
 74
     1
 91
        4
 64
     7
 65
   257
 75
     1
175
     1
 42
1.0
 92
        0
 66
   257
 43
1.0
 76
     1
 77
     6
 78
     2
 67
     7
 79
     3
170
     0
171
     0
290
     0
174
     0
 93
        1
 44
0.0
173
     0
291
     0
 45
0.0
1001
ACAD
1000
AcDbSavedByObjectVersion
1070
     0
  0
VISUALSTYLE
  5
17D0
102
{ACAD_XDICTIONARY
360
183A
102
}
102
{ACAD_REACTORS
330
17BD
102
}
330
17BD
100
AcDbVisualStyle
  2
X-Ray
 70
    25
 71
     2
 72
     2
 73
     1
 90
        1
 40
0.5
 41
-30.0
 62
     5
 63
     7
 74
     1
 91
        0
 64
     7
 65
   257
 75
     1
175
     1
 42
1.0
 92
        8
 66
     7
 43
1.0
 76
     1
 77
     6
 78
     2
 67
     7
 79
     3
170
     0
171
     0
290
     0
174
     0
 93
       13
 44
0.0
173
     0
291
     0
 45
0.0
1001
ACAD
1000
AcDbSavedByObjectVersion
1070
     0
  0
DICTIONARYVAR
  5
1809
102
{ACAD_REACTORS
330
1804
102
}
330
1804
100
DictionaryVariables
280
     0
  1
1:1
  0
DICTIONARYVAR
  5
1806
102
{ACAD_REACTORS
330
1804
102
}
330
1804
100
DictionaryVariables
280
     0
  1
STANDARD
  0
DICTIONARYVAR
  5
1805
102
{ACAD_REACTORS
330
1804
102
}
330
1804
100
DictionaryVariables
280
     0
  1
STANDARD
  0
DICTIONARYVAR
  5
1807
102
{ACAD_REACTORS
330
1804
102
}
330
1804
100
DictionaryVariables
280
     0
  1
Imperial24
  0
DICTIONARYVAR
  5
1808
102
{ACAD_REACTORS
330
1804
102
}
330
1804
100
DictionaryVariables
280
     0
  1
Imperial24
  0
DICTIONARYVAR
  5
180C
102
{ACAD_REACTORS
330
1804
102
}
330
1804
100
DictionaryVariables
280
     0
  1
1
  0
DICTIONARYVAR
  5
180B
102
{ACAD_REACTORS
330
1804
102
}
330
1804
100
DictionaryVariables
280
     0
  1
0
  0
DICTIONARYVAR
  5
180A
102
{ACAD_REACTORS
330
1804
102
}
330
1804
100
DictionaryVariables
280
     0
  1
127
  0
DICTIONARYVAR
  5
180D
102
{ACAD_REACTORS
330
1804
102
}
330
1804
100
DictionaryVariables
280
     0
  1
2
  0
DICTIONARY
  5
184A
330
17F0
100
AcDbDictionary
280
     1
281
     1
  3
ACAD_XREC_ROUNDTRIP
360
184B
  0
DICTIONARY
  5
184C
330
17F1
100
AcDbDictionary
280
     1
281
     1
  3
ACAD_XREC_ROUNDTRIP
360
184D
  0
DICTIONARY
  5
184E
330
17F2
100
AcDbDictionary
280
     1
281
     1
  3
ACAD_XREC_ROUNDTRIP
360
184F
  0
DICTIONARY
  5
17AE
330
17AD
100
AcDbDictionary
280
     1
281
     1
  3
ACAD_XREC_ROUNDTRIP
360
1814
  3
BUMPTILE
360
17B0
  3
DIFFUSETILE
360
17AF
  3
OPACITYTILE
360
17B3
  3
REFLECTIONTILE
360
17B2
  3
REFRACTIONTILE
360
17B4
  3
SPECULARTILE
360
17B1
  0
DICTIONARY
  5
17A6
330
17A5
100
AcDbDictionary
280
     1
281
     1
  3
ACAD_XREC_ROUNDTRIP
360
1813
  3
BUMPTILE
360
17A8
  3
DIFFUSETILE
360
17A7
  3
OPACITYTILE
360
17AB
  3
REFLECTIONTILE
360
17AA
  3
REFRACTIONTILE
360
17AC
  3
SPECULARTILE
360
17A9
  0
DICTIONARY
  5
17B6
330
17B5
100
AcDbDictionary
280
     1
281
     1
  3
ACAD_XREC_ROUNDTRIP
360
1815
  3
BUMPTILE
360
17B8
  3
DIFFUSETILE
360
17B7
  3
OPACITYTILE
360
17BB
  3
REFLECTIONTILE
360
17BA
  3
REFRACTIONTILE
360
17BC
  3
SPECULARTILE
360
17B9
  0
DICTIONARY
  5
1848
330
17EE
100
AcDbDictionary
280
     1
281
     1
  3
ACAD_XREC_ROUNDTRIP
360
1849
  0
DICTIONARY
  5
180F
330
17D8
100
AcDbDictionary
280
     1
281
     1
  3
ACAD_ROUNDTRIP_2008_TABLESTYLE_CELLSTYLEMAP
360
1810
  3
ACAD_XREC_ROUNDTRIP
360
1846
  0
DICTIONARY
  5
1820
330
17C3
100
AcDbDictionary
280
     1
281
     1
  3
ACAD_XREC_ROUNDTRIP
360
1821
  0
DICTIONARY
  5
181E
330
17C2
100
AcDbDictionary
280
     1
281
     1
  3
ACAD_XREC_ROUNDTRIP
360
181F
  0
DICTIONARY
  5
182C
330
17C9
100
AcDbDictionary
280
     1
281
     1
  3
ACAD_XREC_ROUNDTRIP
360
182D
  0
DICTIONARY
  5
1834
330
17CD
100
AcDbDictionary
280
     1
281
     1
  3
ACAD_XREC_ROUNDTRIP
360
1835
  0
DICTIONARY
  5
1826
330
17C6
100
AcDbDictionary
280
     1
281
     1
  3
ACAD_XREC_ROUNDTRIP
360
1827
  0
DICTIONARY
  5
182A
330
17C8
100
AcDbDictionary
280
     1
281
     1
  3
ACAD_XREC_ROUNDTRIP
360
182B
  0
DICTIONARY
  5
1844
330
17D5
100
AcDbDictionary
280
     1
281
     1
  3
ACAD_XREC_ROUNDTRIP
360
1845
  0
DICTIONARY
  5
1832
330
17CC
100
AcDbDictionary
280
     1
281
     1
  3
ACAD_XREC_ROUNDTRIP
360
1833
  0
DICTIONARY
  5
1816
330
17BE
100
AcDbDictionary
280
     1
281
     1
  3
ACAD_XREC_ROUNDTRIP
360
1817
  0
DICTIONARY
  5
1818
330
17BF
100
AcDbDictionary
280
     1
281
     1
  3
ACAD_XREC_ROUNDTRIP
360
1819
  0
DICTIONARY
  5
181A
330
17C0
100
AcDbDictionary
280
     1
281
     1
  3
ACAD_XREC_ROUNDTRIP
360
181B
  0
DICTIONARY
  5
181C
330
17C1
100
AcDbDictionary
280
     1
281
     1
  3
ACAD_XREC_ROUNDTRIP
360
181D
  0
DICTIONARY
  5
1824
330
17C5
100
AcDbDictionary
280
     1
281
     1
  3
ACAD_XREC_ROUNDTRIP
360
1825
  0
DICTIONARY
  5
1840
330
17D3
100
AcDbDictionary
280
     1
281
     1
  3
ACAD_XREC_ROUNDTRIP
360
1841
  0
DICTIONARY
  5
1830
330
17CB
100
AcDbDictionary
280
     1
281
     1
  3
ACAD_XREC_ROUNDTRIP
360
1831
  0
DICTIONARY
  5
1842
330
17D4
100
AcDbDictionary
280
     1
281
     1
  3
ACAD_XREC_ROUNDTRIP
360
1843
  0
DICTIONARY
  5
1828
330
17C7
100
AcDbDictionary
280
     1
281
     1
  3
ACAD_XREC_ROUNDTRIP
360
1829
  0
DICTIONARY
  5
183E
330
17D2
100
AcDbDictionary
280
     1
281
     1
  3
ACAD_XREC_ROUNDTRIP
360
183F
  0
DICTIONARY
  5
183C
330
17D1
100
AcDbDictionary
280
     1
281
     1
  3
ACAD_XREC_ROUNDTRIP
360
183D
  0
DICTIONARY
  5
1836
330
17CE
100
AcDbDictionary
280
     1
281
     1
  3
ACAD_XREC_ROUNDTRIP
360
1837
  0
DICTIONARY
  5
1838
330
17CF
100
AcDbDictionary
280
     1
281
     1
  3
ACAD_XREC_ROUNDTRIP
360
1839
  0
DICTIONARY
  5
182E
330
17CA
100
AcDbDictionary
280
     1
281
     1
  3
ACAD_XREC_ROUNDTRIP
360
182F
  0
DICTIONARY
  5
1822
330
17C4
100
AcDbDictionary
280
     1
281
     1
  3
ACAD_XREC_ROUNDTRIP
360
1823
  0
DICTIONARY
  5
183A
330
17D0
100
AcDbDictionary
280
     1
281
     1
  3
ACAD_XREC_ROUNDTRIP
360
183B
  0
XRECORD
  5
184B
102
{ACAD_REACTORS
330
184A
102
}
330
184A
100
AcDbXrecord
280
     1
102
DISPLAYNAME
  1
Imperial24
102
FLAGS
 90
        0
  0
XRECORD
  5
184D
102
{ACAD_REACTORS
330
184C
102
}
330
184C
100
AcDbXrecord
280
     1
102
SHADEPLOT
 70
     0
102
SHADEPLOTRESLEVEL
 70
     2
102
SHADEPLOTCUSTOMDPI
 70
   300
  0
XRECORD
  5
184F
102
{ACAD_REACTORS
330
184E
102
}
330
184E
100
AcDbXrecord
280
     1
102
SHADEPLOT
 70
     0
102
SHADEPLOTRESLEVEL
 70
     2
102
SHADEPLOTCUSTOMDPI
 70
   300
  0
XRECORD
  5
1814
102
{ACAD_REACTORS
330
17AE
102
}
330
17AE
100
AcDbXrecord
280
     1
102
MATERIAL
148
0.0
149
0.0
149
0.0
 93
        0
 94
      127
282
     0
 72
     0
 77
     0
171
     0
175
     0
179
     0
273
     0
  0
XRECORD
  5
17B0
102
{ACAD_REACTORS
330
17AE
102
}
330
17AE
100
AcDbXrecord
280
     1
270
     1
271
     1
  0
XRECORD
  5
17AF
102
{ACAD_REACTORS
330
17AE
102
}
330
17AE
100
AcDbXrecord
280
     1
270
     1
271
     1
  0
XRECORD
  5
17B3
102
{ACAD_REACTORS
330
17AE
102
}
330
17AE
100
AcDbXrecord
280
     1
270
     1
271
     1
  0
XRECORD
  5
17B2
102
{ACAD_REACTORS
330
17AE
102
}
330
17AE
100
AcDbXrecord
280
     1
270
     1
271
     1
  0
XRECORD
  5
17B4
102
{ACAD_REACTORS
330
17AE
102
}
330
17AE
100
AcDbXrecord
280
     1
270
     1
271
     1
  0
XRECORD
  5
17B1
102
{ACAD_REACTORS
330
17AE
102
}
330
17AE
100
AcDbXrecord
280
     1
270
     1
271
     1
  0
XRECORD
  5
1813
102
{ACAD_REACTORS
330
17A6
102
}
330
17A6
100
AcDbXrecord
280
     1
102
MATERIAL
148
0.0
149
0.0
149
0.0
 93
        0
 94
      127
282
     0
 72
     0
 77
     0
171
     0
175
     0
179
     0
273
     0
  0
XRECORD
  5
17A8
102
{ACAD_REACTORS
330
17A6
102
}
330
17A6
100
AcDbXrecord
280
     1
270
     1
271
     1
  0
XRECORD
  5
17A7
102
{ACAD_REACTORS
330
17A6
102
}
330
17A6
100
AcDbXrecord
280
     1
270
     1
271
     1
  0
XRECORD
  5
17AB
102
{ACAD_REACTORS
330
17A6
102
}
330
17A6
100
AcDbXrecord
280
     1
270
     1
271
     1
  0
XRECORD
  5
17AA
102
{ACAD_REACTORS
330
17A6
102
}
330
17A6
100
AcDbXrecord
280
     1
270
     1
271
     1
  0
XRECORD
  5
17AC
102
{ACAD_REACTORS
330
17A6
102
}
330
17A6
100
AcDbXrecord
280
     1
270
     1
271
     1
  0
XRECORD
  5
17A9
102
{ACAD_REACTORS
330
17A6
102
}
330
17A6
100
AcDbXrecord
280
     1
270
     1
271
     1
  0
XRECORD
  5
1815
102
{ACAD_REACTORS
330
17B6
102
}
330
17B6
100
AcDbXrecord
280
     1
102
MATERIAL
148
0.0
149
0.0
149
0.0
 93
        0
 94
      127
282
     0
 72
     0
 77
     0
171
     0
175
     0
179
     0
273
     0
  0
XRECORD
  5
17B8
102
{ACAD_REACTORS
330
17B6
102
}
330
17B6
100
AcDbXrecord
280
     1
270
     1
271
     1
  0
XRECORD
  5
17B7
102
{ACAD_REACTORS
330
17B6
102
}
330
17B6
100
AcDbXrecord
280
     1
270
     1
271
     1
  0
XRECORD
  5
17BB
102
{ACAD_REACTORS
330
17B6
102
}
330
17B6
100
AcDbXrecord
280
     1
270
     1
271
     1
  0
XRECORD
  5
17BA
102
{ACAD_REACTORS
330
17B6
102
}
330
17B6
100
AcDbXrecord
280
     1
270
     1
271
     1
  0
XRECORD
  5
17BC
102
{ACAD_REACTORS
330
17B6
102
}
330
17B6
100
AcDbXrecord
280
     1
270
     1
271
     1
  0
XRECORD
  5
17B9
102
{ACAD_REACTORS
330
17B6
102
}
330
17B6
100
AcDbXrecord
280
     1
270
     1
271
     1
  0
XRECORD
  5
1849
102
{ACAD_REACTORS
330
1848
102
}
330
1848
100
AcDbXrecord
280
     1
102
DISPLAYNAME
  1
Imperial24
102
FLAGS
 90
        0
  0
CELLSTYLEMAP
  5
1810
102
{ACAD_REACTORS
330
180F
102
}
330
180F
100
AcDbCellStyleMap
 90
        3
300
CELLSTYLE
  1
TABLEFORMAT_BEGIN
 90
        5
170
     1
 91
        0
 92
    32768
 62
   257
 93
        1
300
CONTENTFORMAT
  1
CONTENTFORMAT_BEGIN
 90
        0
 91
        0
 92
      512
 93
        0
300

 40
0.0
140
1.0
 94
        5
 62
     0
340
11AF
144
0.25
309
CONTENTFORMAT_END
171
     0
 94
        0
309
TABLEFORMAT_END
  1
CELLSTYLE_BEGIN
 90
        1
 91
        1
300
_TITLE
309
CELLSTYLE_END
300
CELLSTYLE
  1
TABLEFORMAT_BEGIN
 90
        5
170
     1
 91
        0
 92
        0
 62
   257
 93
        1
300
CONTENTFORMAT
  1
CONTENTFORMAT_BEGIN
 90
        0
 91
        0
 92
      512
 93
        0
300

 40
0.0
140
1.0
 94
        5
 62
     0
340
11AF
144
0.18
309
CONTENTFORMAT_END
171
     0
 94
        0
309
TABLEFORMAT_END
  1
CELLSTYLE_BEGIN
 90
        2
 91
        1
300
_HEADER
309
CELLSTYLE_END
300
CELLSTYLE
  1
TABLEFORMAT_BEGIN
 90
        5
170
     1
 91
        0
 92
        0
 62
   257
 93
        1
300
CONTENTFORMAT
  1
CONTENTFORMAT_BEGIN
 90
        0
 91
        0
 92
      512
 93
        0
300

 40
0.0
140
1.0
 94
        2
 62
     0
340
11AF
144
0.18
309
CONTENTFORMAT_END
171
     0
 94
        0
309
TABLEFORMAT_END
  1
CELLSTYLE_BEGIN
 90
        3
 91
        2
300
_DATA
309
CELLSTYLE_END
  0
XRECORD
  5
1846
102
{ACAD_REACTORS
330
180F
102
}
330
180F
100
AcDbXrecord
280
     1
102
ACAD_ROUNDTRIP_PRE2007_TABLESTYLE
 90
      512
 91
        0
  1

 92
      512
 93
        0
  2

 94
      512
 95
        0
  3

  0
XRECORD
  5
1821
102
{ACAD_REACTORS
330
1820
102
}
330
1820
100
AcDbXrecord
280
     1
102
RTVSPost2010Prop28
280
     1
102
RTVSPost2010PropOp28
 70
     1
102
RTVSPost2010Prop29
280
     1
102
RTVSPost2010PropOp29
 70
     1
102
RTVSPost2010Prop30
280
     0
102
RTVSPost2010PropOp30
 70
     1
102
RTVSPost2010Prop31
280
     0
102
RTVSPost2010PropOp31
 70
     1
102
RTVSPost2010Prop32
280
     0
102
RTVSPost2010PropOp32
 70
     1
102
RTVSPost2010Prop33
280
     0
102
RTVSPost2010PropOp33
 70
     1
102
RTVSPost2010Prop34
280
     0
102
RTVSPost2010PropOp34
 70
     1
102
RTVSPost2010Prop35
280
     0
102
RTVSPost2010PropOp35
 70
     1
102
RTVSPost2010Prop36
280
     0
102
RTVSPost2010PropOp36
 70
     1
102
RTVSPost2010Prop37
 90
       50
102
RTVSPost2010PropOp37
 70
     1
102
RTVSPost2010Prop38
140
0.0
102
RTVSPost2010PropOp38
 70
     1
102
RTVSPost2010Prop39
140
1.0
102
RTVSPost2010PropOp39
 70
     1
102
RTVSPost2010Prop40
 90
        0
102
RTVSPost2010PropOp40
 70
     1
102
RTVSPost2010Prop41ColorIndex
 90
       18
102
RTVSPost2010Prop41ColorRGB
 90
        0
102
RTVSPost2010PropOp41
 70
     1
102
RTVSPost2010Prop42
 90
       50
102
RTVSPost2010PropOp42
 70
     1
102
RTVSPost2010Prop43
 90
        3
102
RTVSPost2010PropOp43
 70
     1
102
RTVSPost2010Prop44ColorIndex
 90
        5
102
RTVSPost2010Prop44ColorRGB
 90
      255
102
RTVSPost2010PropOp44
 70
     1
102
RTVSPost2010Prop45
280
     0
102
RTVSPost2010PropOp45
 70
     1
102
RTVSPost2010Prop46
 90
       50
102
RTVSPost2010PropOp46
 70
     1
102
RTVSPost2010Prop47
 90
       50
102
RTVSPost2010PropOp47
 70
     1
102
RTVSPost2010Prop48
 90
       50
102
RTVSPost2010PropOp48
 70
     1
102
RTVSPost2010Prop49
280
     0
102
RTVSPost2010PropOp49
 70
     1
102
RTVSPost2010Prop50
 90
       50
102
RTVSPost2010PropOp50
 70
     1
102
RTVSPost2010Prop51ColorIndex
 90
      256
102
RTVSPost2010Prop51ColorRGB
 90
-16777216
102
RTVSPost2010PropOp51
 70
     0
102
RTVSPost2010Prop52
140
1.0
102
RTVSPost2010PropOp52
 70
     0
102
RTVSPost2010Prop53
 90
        2
102
RTVSPost2010PropOp53
 70
     1
102
RTVSPost2010Prop54
  1
strokes_ogs.tif
102
RTVSPost2010PropOp54
 70
     1
102
RTVSPost2010Prop55
280
     0
102
RTVSPost2010PropOp55
 70
     1
102
RTVSPost2010Prop56
140
1.0
102
RTVSPost2010PropOp56
 70
     1
102
RTVSPost2010Prop57
140
1.0
102
RTVSPost2010PropOp57
 70
     1
102
RTVSPropertyOp0
 70
     1
102
RTVSPropertyOp1
 70
     1
102
RTVSPropertyOp2
 70
     1
102
RTVSPropertyOp3
 70
     1
102
RTVSPropertyOp4
 70
     1
102
RTVSPropertyOp5
 70
     1
102
RTVSPropertyOp6
 70
     1
102
RTVSPropertyOp7
 70
     1
102
RTVSPropertyOp8
 70
     1
102
RTVSPropertyOp9
 70
     1
102
RTVSPropertyOp10
 70
     1
102
RTVSPropertyOp11
 70
     1
102
RTVSPropertyOp12
 70
     1
102
RTVSPropertyOp13
 70
     1
102
RTVSPropertyOp14
 70
     1
102
RTVSPropertyOp15
 70
     1
102
RTVSPropertyOp16
 70
     1
102
RTVSPropertyOp17
 70
     1
102
RTVSPropertyOp18
 70
     1
102
RTVSPropertyOp19
 70
     1
102
RTVSPropertyOp20
 70
     1
102
RTVSPropertyOp21
 70
     1
102
RTVSPropertyOp22
 70
     1
102
RTVSPropertyOp23
 70
     1
102
RTVSPropertyOp24
 70
     1
102
RTVSPropertyOp25
 70
     1
102
RTVSPropertyOp26
 70
     1
102
RTVSPropertyOp27
 70
     1
102
RTVSPropertyOp28
 70
     1
102
RTVSPropertyOp29
 70
     1
102
RTVSPropertyOp30
 70
     1
102
RTVSPropertyOp31
 70
     1
102
RTVSPropertyOp32
 70
     1
102
RTVSPropertyOp33
 70
     1
102
RTVSPropertyOp34
 70
     1
102
RTVSPropertyOp35
 70
     1
102
RTVSPropertyOp36
 70
     1
102
RTVSPropertyOp37
 70
     1
102
RTVSPropertyOp38
 70
     1
102
RTVSPropertyOp39
 70
     1
102
RTVSPropertyOp40
 70
     1
102
RTVSPropertyOp41
 70
     1
102
RTVSPropertyOp42
 70
     1
102
RTVSPropertyOp43
 70
     1
102
RTVSPropertyOp44
 70
     1
102
RTVSPropertyOp45
 70
     1
102
RTVSPropertyOp46
 70
     1
102
RTVSPropertyOp47
 70
     1
102
RTVSPropertyOp48
 70
     1
102
RTVSPropertyOp49
 70
     1
102
RTVSPropertyOp50
 70
     1
102
RTVSPropertyOp51
 70
     0
102
RTVSPropertyOp52
 70
     0
102
RTVSPropertyOp53
 70
     1
102
RTVSPropertyOp54
 70
     1
102
RTVSPropertyOp55
 70
     1
102
RTVSPropertyOp56
 70
     1
102
RTVSPropertyOp57
 70
     1
102
RTVSPropertyOp58
 70
     1
102
RTVSPropertyOp59
 70
     1
102
RTVSPropertyOp60
 70
     1
102
RTVSPropertyOp61
 70
     1
102
RTVSPropertyOp62
 70
     1
  0
XRECORD
  5
181F
102
{ACAD_REACTORS
330
181E
102
}
330
181E
100
AcDbXrecord
280
     1
102
RTVSPost2010Prop28
280
     0
102
RTVSPost2010PropOp28
 70
     1
102
RTVSPost2010Prop29
280
     1
102
RTVSPost2010PropOp29
 70
     1
102
RTVSPost2010Prop30
280
     1
102
RTVSPost2010PropOp30
 70
     1
102
RTVSPost2010Prop31
280
     0
102
RTVSPost2010PropOp31
 70
     1
102
RTVSPost2010Prop32
280
     0
102
RTVSPost2010PropOp32
 70
     1
102
RTVSPost2010Prop33
280
     0
102
RTVSPost2010PropOp33
 70
     1
102
RTVSPost2010Prop34
280
     0
102
RTVSPost2010PropOp34
 70
     1
102
RTVSPost2010Prop35
280
     0
102
RTVSPost2010PropOp35
 70
     1
102
RTVSPost2010Prop36
280
     0
102
RTVSPost2010PropOp36
 70
     1
102
RTVSPost2010Prop37
 90
       50
102
RTVSPost2010PropOp37
 70
     1
102
RTVSPost2010Prop38
140
0.0
102
RTVSPost2010PropOp38
 70
     1
102
RTVSPost2010Prop39
140
1.0
102
RTVSPost2010PropOp39
 70
     1
102
RTVSPost2010Prop40
 90
        0
102
RTVSPost2010PropOp40
 70
     1
102
RTVSPost2010Prop41ColorIndex
 90
       18
102
RTVSPost2010Prop41ColorRGB
 90
        0
102
RTVSPost2010PropOp41
 70
     1
102
RTVSPost2010Prop42
 90
       50
102
RTVSPost2010PropOp42
 70
     1
102
RTVSPost2010Prop43
 90
        3
102
RTVSPost2010PropOp43
 70
     1
102
RTVSPost2010Prop44ColorIndex
 90
        5
102
RTVSPost2010Prop44ColorRGB
 90
      255
102
RTVSPost2010PropOp44
 70
     1
102
RTVSPost2010Prop45
280
     0
102
RTVSPost2010PropOp45
 70
     1
102
RTVSPost2010Prop46
 90
       50
102
RTVSPost2010PropOp46
 70
     1
102
RTVSPost2010Prop47
 90
       50
102
RTVSPost2010PropOp47
 70
     1
102
RTVSPost2010Prop48
 90
       50
102
RTVSPost2010PropOp48
 70
     1
102
RTVSPost2010Prop49
280
     0
102
RTVSPost2010PropOp49
 70
     1
102
RTVSPost2010Prop50
 90
       50
102
RTVSPost2010PropOp50
 70
     1
102
RTVSPost2010Prop51ColorIndex
 90
      256
102
RTVSPost2010Prop51ColorRGB
 90
-16777216
102
RTVSPost2010PropOp51
 70
     0
102
RTVSPost2010Prop52
140
1.0
102
RTVSPost2010PropOp52
 70
     0
102
RTVSPost2010Prop53
 90
        2
102
RTVSPost2010PropOp53
 70
     1
102
RTVSPost2010Prop54
  1
strokes_ogs.tif
102
RTVSPost2010PropOp54
 70
     1
102
RTVSPost2010Prop55
280
     0
102
RTVSPost2010PropOp55
 70
     1
102
RTVSPost2010Prop56
140
1.0
102
RTVSPost2010PropOp56
 70
     1
102
RTVSPost2010Prop57
140
1.0
102
RTVSPost2010PropOp57
 70
     1
102
RTVSPropertyOp0
 70
     1
102
RTVSPropertyOp1
 70
     1
102
RTVSPropertyOp2
 70
     1
102
RTVSPropertyOp3
 70
     1
102
RTVSPropertyOp4
 70
     1
102
RTVSPropertyOp5
 70
     1
102
RTVSPropertyOp6
 70
     1
102
RTVSPropertyOp7
 70
     1
102
RTVSPropertyOp8
 70
     1
102
RTVSPropertyOp9
 70
     1
102
RTVSPropertyOp10
 70
     1
102
RTVSPropertyOp11
 70
     1
102
RTVSPropertyOp12
 70
     1
102
RTVSPropertyOp13
 70
     1
102
RTVSPropertyOp14
 70
     1
102
RTVSPropertyOp15
 70
     1
102
RTVSPropertyOp16
 70
     1
102
RTVSPropertyOp17
 70
     1
102
RTVSPropertyOp18
 70
     1
102
RTVSPropertyOp19
 70
     1
102
RTVSPropertyOp20
 70
     1
102
RTVSPropertyOp21
 70
     1
102
RTVSPropertyOp22
 70
     1
102
RTVSPropertyOp23
 70
     1
102
RTVSPropertyOp24
 70
     1
102
RTVSPropertyOp25
 70
     1
102
RTVSPropertyOp26
 70
     1
102
RTVSPropertyOp27
 70
     1
102
RTVSPropertyOp28
 70
     1
102
RTVSPropertyOp29
 70
     1
102
RTVSPropertyOp30
 70
     1
102
RTVSPropertyOp31
 70
     1
102
RTVSPropertyOp32
 70
     1
102
RTVSPropertyOp33
 70
     1
102
RTVSPropertyOp34
 70
     1
102
RTVSPropertyOp35
 70
     1
102
RTVSPropertyOp36
 70
     1
102
RTVSPropertyOp37
 70
     1
102
RTVSPropertyOp38
 70
     1
102
RTVSPropertyOp39
 70
     1
102
RTVSPropertyOp40
 70
     1
102
RTVSPropertyOp41
 70
     1
102
RTVSPropertyOp42
 70
     1
102
RTVSPropertyOp43
 70
     1
102
RTVSPropertyOp44
 70
     1
102
RTVSPropertyOp45
 70
     1
102
RTVSPropertyOp46
 70
     1
102
RTVSPropertyOp47
 70
     1
102
RTVSPropertyOp48
 70
     1
102
RTVSPropertyOp49
 70
     1
102
RTVSPropertyOp50
 70
     1
102
RTVSPropertyOp51
 70
     0
102
RTVSPropertyOp52
 70
     0
102
RTVSPropertyOp53
 70
     1
102
RTVSPropertyOp54
 70
     1
102
RTVSPropertyOp55
 70
     1
102
RTVSPropertyOp56
 70
     1
102
RTVSPropertyOp57
 70
     1
102
RTVSPropertyOp58
 70
     1
102
RTVSPropertyOp59
 70
     1
102
RTVSPropertyOp60
 70
     1
102
RTVSPropertyOp61
 70
     1
102
RTVSPropertyOp62
 70
     1
  0
XRECORD
  5
182D
102
{ACAD_REACTORS
330
182C
102
}
330
182C
100
AcDbXrecord
280
     1
102
RTVSPost2010Prop28
280
     0
102
RTVSPost2010PropOp28
 70
     1
102
RTVSPost2010Prop29
280
     1
102
RTVSPost2010PropOp29
 70
     1
102
RTVSPost2010Prop30
280
     1
102
RTVSPost2010PropOp30
 70
     1
102
RTVSPost2010Prop31
280
     0
102
RTVSPost2010PropOp31
 70
     1
102
RTVSPost2010Prop32
280
     0
102
RTVSPost2010PropOp32
 70
     1
102
RTVSPost2010Prop33
280
     0
102
RTVSPost2010PropOp33
 70
     1
102
RTVSPost2010Prop34
280
     0
102
RTVSPost2010PropOp34
 70
     1
102
RTVSPost2010Prop35
280
     0
102
RTVSPost2010PropOp35
 70
     1
102
RTVSPost2010Prop36
280
     0
102
RTVSPost2010PropOp36
 70
     1
102
RTVSPost2010Prop37
 90
       50
102
RTVSPost2010PropOp37
 70
     1
102
RTVSPost2010Prop38
140
0.0
102
RTVSPost2010PropOp38
 70
     1
102
RTVSPost2010Prop39
140
1.0
102
RTVSPost2010PropOp39
 70
     1
102
RTVSPost2010Prop40
 90
        0
102
RTVSPost2010PropOp40
 70
     1
102
RTVSPost2010Prop41ColorIndex
 90
       18
102
RTVSPost2010Prop41ColorRGB
 90
        0
102
RTVSPost2010PropOp41
 70
     1
102
RTVSPost2010Prop42
 90
       50
102
RTVSPost2010PropOp42
 70
     1
102
RTVSPost2010Prop43
 90
        3
102
RTVSPost2010PropOp43
 70
     1
102
RTVSPost2010Prop44ColorIndex
 90
        5
102
RTVSPost2010Prop44ColorRGB
 90
      255
102
RTVSPost2010PropOp44
 70
     1
102
RTVSPost2010Prop45
280
     0
102
RTVSPost2010PropOp45
 70
     1
102
RTVSPost2010Prop46
 90
       50
102
RTVSPost2010PropOp46
 70
     1
102
RTVSPost2010Prop47
 90
       50
102
RTVSPost2010PropOp47
 70
     1
102
RTVSPost2010Prop48
 90
       50
102
RTVSPost2010PropOp48
 70
     1
102
RTVSPost2010Prop49
280
     0
102
RTVSPost2010PropOp49
 70
     1
102
RTVSPost2010Prop50
 90
       50
102
RTVSPost2010PropOp50
 70
     1
102
RTVSPost2010Prop51ColorIndex
 90
      256
102
RTVSPost2010Prop51ColorRGB
 90
-16777216
102
RTVSPost2010PropOp51
 70
     0
102
RTVSPost2010Prop52
140
1.0
102
RTVSPost2010PropOp52
 70
     0
102
RTVSPost2010Prop53
 90
        2
102
RTVSPost2010PropOp53
 70
     1
102
RTVSPost2010Prop54
  1
strokes_ogs.tif
102
RTVSPost2010PropOp54
 70
     1
102
RTVSPost2010Prop55
280
     0
102
RTVSPost2010PropOp55
 70
     1
102
RTVSPost2010Prop56
140
1.0
102
RTVSPost2010PropOp56
 70
     1
102
RTVSPost2010Prop57
140
1.0
102
RTVSPost2010PropOp57
 70
     1
102
RTVSPropertyOp0
 70
     1
102
RTVSPropertyOp1
 70
     1
102
RTVSPropertyOp2
 70
     1
102
RTVSPropertyOp3
 70
     1
102
RTVSPropertyOp4
 70
     1
102
RTVSPropertyOp5
 70
     1
102
RTVSPropertyOp6
 70
     1
102
RTVSPropertyOp7
 70
     1
102
RTVSPropertyOp8
 70
     1
102
RTVSPropertyOp9
 70
     1
102
RTVSPropertyOp10
 70
     1
102
RTVSPropertyOp11
 70
     1
102
RTVSPropertyOp12
 70
     1
102
RTVSPropertyOp13
 70
     1
102
RTVSPropertyOp14
 70
     1
102
RTVSPropertyOp15
 70
     1
102
RTVSPropertyOp16
 70
     1
102
RTVSPropertyOp17
 70
     1
102
RTVSPropertyOp18
 70
     1
102
RTVSPropertyOp19
 70
     1
102
RTVSPropertyOp20
 70
     1
102
RTVSPropertyOp21
 70
     1
102
RTVSPropertyOp22
 70
     1
102
RTVSPropertyOp23
 70
     1
102
RTVSPropertyOp24
 70
     1
102
RTVSPropertyOp25
 70
     1
102
RTVSPropertyOp26
 70
     1
102
RTVSPropertyOp27
 70
     1
102
RTVSPropertyOp28
 70
     1
102
RTVSPropertyOp29
 70
     1
102
RTVSPropertyOp30
 70
     1
102
RTVSPropertyOp31
 70
     1
102
RTVSPropertyOp32
 70
     1
102
RTVSPropertyOp33
 70
     1
102
RTVSPropertyOp34
 70
     1
102
RTVSPropertyOp35
 70
     1
102
RTVSPropertyOp36
 70
     1
102
RTVSPropertyOp37
 70
     1
102
RTVSPropertyOp38
 70
     1
102
RTVSPropertyOp39
 70
     1
102
RTVSPropertyOp40
 70
     1
102
RTVSPropertyOp41
 70
     1
102
RTVSPropertyOp42
 70
     1
102
RTVSPropertyOp43
 70
     1
102
RTVSPropertyOp44
 70
     1
102
RTVSPropertyOp45
 70
     1
102
RTVSPropertyOp46
 70
     1
102
RTVSPropertyOp47
 70
     1
102
RTVSPropertyOp48
 70
     1
102
RTVSPropertyOp49
 70
     1
102
RTVSPropertyOp50
 70
     1
102
RTVSPropertyOp51
 70
     0
102
RTVSPropertyOp52
 70
     0
102
RTVSPropertyOp53
 70
     1
102
RTVSPropertyOp54
 70
     1
102
RTVSPropertyOp55
 70
     1
102
RTVSPropertyOp56
 70
     1
102
RTVSPropertyOp57
 70
     1
102
RTVSPropertyOp58
 70
     1
102
RTVSPropertyOp59
 70
     1
102
RTVSPropertyOp60
 70
     1
102
RTVSPropertyOp61
 70
     1
102
RTVSPropertyOp62
 70
     1
  0
XRECORD
  5
1835
102
{ACAD_REACTORS
330
1834
102
}
330
1834
100
AcDbXrecord
280
     1
102
RTVSPost2010Prop28
280
     0
102
RTVSPost2010PropOp28
 70
     1
102
RTVSPost2010Prop29
280
     1
102
RTVSPost2010PropOp29
 70
     1
102
RTVSPost2010Prop30
280
     1
102
RTVSPost2010PropOp30
 70
     1
102
RTVSPost2010Prop31
280
     0
102
RTVSPost2010PropOp31
 70
     1
102
RTVSPost2010Prop32
280
     0
102
RTVSPost2010PropOp32
 70
     1
102
RTVSPost2010Prop33
280
     0
102
RTVSPost2010PropOp33
 70
     1
102
RTVSPost2010Prop34
280
     0
102
RTVSPost2010PropOp34
 70
     1
102
RTVSPost2010Prop35
280
     0
102
RTVSPost2010PropOp35
 70
     1
102
RTVSPost2010Prop36
280
     0
102
RTVSPost2010PropOp36
 70
     1
102
RTVSPost2010Prop37
 90
       50
102
RTVSPost2010PropOp37
 70
     1
102
RTVSPost2010Prop38
140
0.0
102
RTVSPost2010PropOp38
 70
     1
102
RTVSPost2010Prop39
140
1.0
102
RTVSPost2010PropOp39
 70
     1
102
RTVSPost2010Prop40
 90
        0
102
RTVSPost2010PropOp40
 70
     1
102
RTVSPost2010Prop41ColorIndex
 90
       18
102
RTVSPost2010Prop41ColorRGB
 90
        0
102
RTVSPost2010PropOp41
 70
     1
102
RTVSPost2010Prop42
 90
       50
102
RTVSPost2010PropOp42
 70
     1
102
RTVSPost2010Prop43
 90
        3
102
RTVSPost2010PropOp43
 70
     1
102
RTVSPost2010Prop44ColorIndex
 90
        5
102
RTVSPost2010Prop44ColorRGB
 90
      255
102
RTVSPost2010PropOp44
 70
     1
102
RTVSPost2010Prop45
280
     0
102
RTVSPost2010PropOp45
 70
     1
102
RTVSPost2010Prop46
 90
       50
102
RTVSPost2010PropOp46
 70
     1
102
RTVSPost2010Prop47
 90
       50
102
RTVSPost2010PropOp47
 70
     1
102
RTVSPost2010Prop48
 90
       50
102
RTVSPost2010PropOp48
 70
     1
102
RTVSPost2010Prop49
280
     0
102
RTVSPost2010PropOp49
 70
     1
102
RTVSPost2010Prop50
 90
       50
102
RTVSPost2010PropOp50
 70
     1
102
RTVSPost2010Prop51ColorIndex
 90
      256
102
RTVSPost2010Prop51ColorRGB
 90
-16777216
102
RTVSPost2010PropOp51
 70
     0
102
RTVSPost2010Prop52
140
1.0
102
RTVSPost2010PropOp52
 70
     0
102
RTVSPost2010Prop53
 90
        2
102
RTVSPost2010PropOp53
 70
     1
102
RTVSPost2010Prop54
  1
strokes_ogs.tif
102
RTVSPost2010PropOp54
 70
     1
102
RTVSPost2010Prop55
280
     0
102
RTVSPost2010PropOp55
 70
     1
102
RTVSPost2010Prop56
140
1.0
102
RTVSPost2010PropOp56
 70
     1
102
RTVSPost2010Prop57
140
1.0
102
RTVSPost2010PropOp57
 70
     1
102
RTVSPropertyOp0
 70
     1
102
RTVSPropertyOp1
 70
     1
102
RTVSPropertyOp2
 70
     1
102
RTVSPropertyOp3
 70
     1
102
RTVSPropertyOp4
 70
     1
102
RTVSPropertyOp5
 70
     1
102
RTVSPropertyOp6
 70
     1
102
RTVSPropertyOp7
 70
     1
102
RTVSPropertyOp8
 70
     1
102
RTVSPropertyOp9
 70
     1
102
RTVSPropertyOp10
 70
     1
102
RTVSPropertyOp11
 70
     1
102
RTVSPropertyOp12
 70
     1
102
RTVSPropertyOp13
 70
     1
102
RTVSPropertyOp14
 70
     1
102
RTVSPropertyOp15
 70
     1
102
RTVSPropertyOp16
 70
     1
102
RTVSPropertyOp17
 70
     1
102
RTVSPropertyOp18
 70
     1
102
RTVSPropertyOp19
 70
     1
102
RTVSPropertyOp20
 70
     1
102
RTVSPropertyOp21
 70
     1
102
RTVSPropertyOp22
 70
     1
102
RTVSPropertyOp23
 70
     1
102
RTVSPropertyOp24
 70
     1
102
RTVSPropertyOp25
 70
     1
102
RTVSPropertyOp26
 70
     1
102
RTVSPropertyOp27
 70
     1
102
RTVSPropertyOp28
 70
     1
102
RTVSPropertyOp29
 70
     1
102
RTVSPropertyOp30
 70
     1
102
RTVSPropertyOp31
 70
     1
102
RTVSPropertyOp32
 70
     1
102
RTVSPropertyOp33
 70
     1
102
RTVSPropertyOp34
 70
     1
102
RTVSPropertyOp35
 70
     1
102
RTVSPropertyOp36
 70
     1
102
RTVSPropertyOp37
 70
     1
102
RTVSPropertyOp38
 70
     1
102
RTVSPropertyOp39
 70
     1
102
RTVSPropertyOp40
 70
     1
102
RTVSPropertyOp41
 70
     1
102
RTVSPropertyOp42
 70
     1
102
RTVSPropertyOp43
 70
     1
102
RTVSPropertyOp44
 70
     1
102
RTVSPropertyOp45
 70
     1
102
RTVSPropertyOp46
 70
     1
102
RTVSPropertyOp47
 70
     1
102
RTVSPropertyOp48
 70
     1
102
RTVSPropertyOp49
 70
     1
102
RTVSPropertyOp50
 70
     1
102
RTVSPropertyOp51
 70
     0
102
RTVSPropertyOp52
 70
     0
102
RTVSPropertyOp53
 70
     1
102
RTVSPropertyOp54
 70
     1
102
RTVSPropertyOp55
 70
     1
102
RTVSPropertyOp56
 70
     1
102
RTVSPropertyOp57
 70
     1
102
RTVSPropertyOp58
 70
     1
102
RTVSPropertyOp59
 70
     1
102
RTVSPropertyOp60
 70
     1
102
RTVSPropertyOp61
 70
     1
102
RTVSPropertyOp62
 70
     1
  0
XRECORD
  5
1827
102
{ACAD_REACTORS
330
1826
102
}
330
1826
100
AcDbXrecord
280
     1
102
RTVSPost2010Prop28
280
     0
102
RTVSPost2010PropOp28
 70
     1
102
RTVSPost2010Prop29
280
     1
102
RTVSPost2010PropOp29
 70
     1
102
RTVSPost2010Prop30
280
     1
102
RTVSPost2010PropOp30
 70
     1
102
RTVSPost2010Prop31
280
     0
102
RTVSPost2010PropOp31
 70
     1
102
RTVSPost2010Prop32
280
     0
102
RTVSPost2010PropOp32
 70
     1
102
RTVSPost2010Prop33
280
     0
102
RTVSPost2010PropOp33
 70
     1
102
RTVSPost2010Prop34
280
     0
102
RTVSPost2010PropOp34
 70
     1
102
RTVSPost2010Prop35
280
     0
102
RTVSPost2010PropOp35
 70
     1
102
RTVSPost2010Prop36
280
     0
102
RTVSPost2010PropOp36
 70
     1
102
RTVSPost2010Prop37
 90
       50
102
RTVSPost2010PropOp37
 70
     1
102
RTVSPost2010Prop38
140
0.0
102
RTVSPost2010PropOp38
 70
     1
102
RTVSPost2010Prop39
140
1.0
102
RTVSPost2010PropOp39
 70
     1
102
RTVSPost2010Prop40
 90
        0
102
RTVSPost2010PropOp40
 70
     1
102
RTVSPost2010Prop41ColorIndex
 90
       18
102
RTVSPost2010Prop41ColorRGB
 90
        0
102
RTVSPost2010PropOp41
 70
     1
102
RTVSPost2010Prop42
 90
       50
102
RTVSPost2010PropOp42
 70
     1
102
RTVSPost2010Prop43
 90
        3
102
RTVSPost2010PropOp43
 70
     1
102
RTVSPost2010Prop44ColorIndex
 90
        5
102
RTVSPost2010Prop44ColorRGB
 90
      255
102
RTVSPost2010PropOp44
 70
     1
102
RTVSPost2010Prop45
280
     0
102
RTVSPost2010PropOp45
 70
     1
102
RTVSPost2010Prop46
 90
       50
102
RTVSPost2010PropOp46
 70
     1
102
RTVSPost2010Prop47
 90
       50
102
RTVSPost2010PropOp47
 70
     1
102
RTVSPost2010Prop48
 90
       50
102
RTVSPost2010PropOp48
 70
     1
102
RTVSPost2010Prop49
280
     0
102
RTVSPost2010PropOp49
 70
     1
102
RTVSPost2010Prop50
 90
       50
102
RTVSPost2010PropOp50
 70
     1
102
RTVSPost2010Prop51ColorIndex
 90
      256
102
RTVSPost2010Prop51ColorRGB
 90
-16777216
102
RTVSPost2010PropOp51
 70
     0
102
RTVSPost2010Prop52
140
1.0
102
RTVSPost2010PropOp52
 70
     0
102
RTVSPost2010Prop53
 90
        2
102
RTVSPost2010PropOp53
 70
     1
102
RTVSPost2010Prop54
  1
strokes_ogs.tif
102
RTVSPost2010PropOp54
 70
     1
102
RTVSPost2010Prop55
280
     0
102
RTVSPost2010PropOp55
 70
     1
102
RTVSPost2010Prop56
140
1.0
102
RTVSPost2010PropOp56
 70
     1
102
RTVSPost2010Prop57
140
1.0
102
RTVSPost2010PropOp57
 70
     1
102
RTVSPropertyOp0
 70
     1
102
RTVSPropertyOp1
 70
     1
102
RTVSPropertyOp2
 70
     1
102
RTVSPropertyOp3
 70
     1
102
RTVSPropertyOp4
 70
     1
102
RTVSPropertyOp5
 70
     1
102
RTVSPropertyOp6
 70
     1
102
RTVSPropertyOp7
 70
     1
102
RTVSPropertyOp8
 70
     1
102
RTVSPropertyOp9
 70
     1
102
RTVSPropertyOp10
 70
     1
102
RTVSPropertyOp11
 70
     1
102
RTVSPropertyOp12
 70
     1
102
RTVSPropertyOp13
 70
     1
102
RTVSPropertyOp14
 70
     1
102
RTVSPropertyOp15
 70
     1
102
RTVSPropertyOp16
 70
     1
102
RTVSPropertyOp17
 70
     1
102
RTVSPropertyOp18
 70
     1
102
RTVSPropertyOp19
 70
     1
102
RTVSPropertyOp20
 70
     1
102
RTVSPropertyOp21
 70
     1
102
RTVSPropertyOp22
 70
     1
102
RTVSPropertyOp23
 70
     1
102
RTVSPropertyOp24
 70
     1
102
RTVSPropertyOp25
 70
     1
102
RTVSPropertyOp26
 70
     1
102
RTVSPropertyOp27
 70
     1
102
RTVSPropertyOp28
 70
     1
102
RTVSPropertyOp29
 70
     1
102
RTVSPropertyOp30
 70
     1
102
RTVSPropertyOp31
 70
     1
102
RTVSPropertyOp32
 70
     1
102
RTVSPropertyOp33
 70
     1
102
RTVSPropertyOp34
 70
     1
102
RTVSPropertyOp35
 70
     1
102
RTVSPropertyOp36
 70
     1
102
RTVSPropertyOp37
 70
     1
102
RTVSPropertyOp38
 70
     1
102
RTVSPropertyOp39
 70
     1
102
RTVSPropertyOp40
 70
     1
102
RTVSPropertyOp41
 70
     1
102
RTVSPropertyOp42
 70
     1
102
RTVSPropertyOp43
 70
     1
102
RTVSPropertyOp44
 70
     1
102
RTVSPropertyOp45
 70
     1
102
RTVSPropertyOp46
 70
     1
102
RTVSPropertyOp47
 70
     1
102
RTVSPropertyOp48
 70
     1
102
RTVSPropertyOp49
 70
     1
102
RTVSPropertyOp50
 70
     1
102
RTVSPropertyOp51
 70
     0
102
RTVSPropertyOp52
 70
     0
102
RTVSPropertyOp53
 70
     1
102
RTVSPropertyOp54
 70
     1
102
RTVSPropertyOp55
 70
     1
102
RTVSPropertyOp56
 70
     1
102
RTVSPropertyOp57
 70
     1
102
RTVSPropertyOp58
 70
     1
102
RTVSPropertyOp59
 70
     1
102
RTVSPropertyOp60
 70
     1
102
RTVSPropertyOp61
 70
     1
102
RTVSPropertyOp62
 70
     1
  0
XRECORD
  5
182B
102
{ACAD_REACTORS
330
182A
102
}
330
182A
100
AcDbXrecord
280
     1
102
RTVSPost2010Prop28
280
     0
102
RTVSPost2010PropOp28
 70
     1
102
RTVSPost2010Prop29
280
     1
102
RTVSPost2010PropOp29
 70
     1
102
RTVSPost2010Prop30
280
     1
102
RTVSPost2010PropOp30
 70
     1
102
RTVSPost2010Prop31
280
     0
102
RTVSPost2010PropOp31
 70
     1
102
RTVSPost2010Prop32
280
     0
102
RTVSPost2010PropOp32
 70
     1
102
RTVSPost2010Prop33
280
     0
102
RTVSPost2010PropOp33
 70
     1
102
RTVSPost2010Prop34
280
     0
102
RTVSPost2010PropOp34
 70
     1
102
RTVSPost2010Prop35
280
     0
102
RTVSPost2010PropOp35
 70
     1
102
RTVSPost2010Prop36
280
     0
102
RTVSPost2010PropOp36
 70
     1
102
RTVSPost2010Prop37
 90
       50
102
RTVSPost2010PropOp37
 70
     1
102
RTVSPost2010Prop38
140
0.0
102
RTVSPost2010PropOp38
 70
     1
102
RTVSPost2010Prop39
140
1.0
102
RTVSPost2010PropOp39
 70
     1
102
RTVSPost2010Prop40
 90
        0
102
RTVSPost2010PropOp40
 70
     1
102
RTVSPost2010Prop41ColorIndex
 90
       18
102
RTVSPost2010Prop41ColorRGB
 90
        0
102
RTVSPost2010PropOp41
 70
     1
102
RTVSPost2010Prop42
 90
       50
102
RTVSPost2010PropOp42
 70
     1
102
RTVSPost2010Prop43
 90
        3
102
RTVSPost2010PropOp43
 70
     1
102
RTVSPost2010Prop44ColorIndex
 90
        5
102
RTVSPost2010Prop44ColorRGB
 90
      255
102
RTVSPost2010PropOp44
 70
     1
102
RTVSPost2010Prop45
280
     0
102
RTVSPost2010PropOp45
 70
     1
102
RTVSPost2010Prop46
 90
       50
102
RTVSPost2010PropOp46
 70
     1
102
RTVSPost2010Prop47
 90
       50
102
RTVSPost2010PropOp47
 70
     1
102
RTVSPost2010Prop48
 90
       50
102
RTVSPost2010PropOp48
 70
     1
102
RTVSPost2010Prop49
280
     0
102
RTVSPost2010PropOp49
 70
     1
102
RTVSPost2010Prop50
 90
       50
102
RTVSPost2010PropOp50
 70
     1
102
RTVSPost2010Prop51ColorIndex
 90
      256
102
RTVSPost2010Prop51ColorRGB
 90
-16777216
102
RTVSPost2010PropOp51
 70
     0
102
RTVSPost2010Prop52
140
1.0
102
RTVSPost2010PropOp52
 70
     0
102
RTVSPost2010Prop53
 90
        2
102
RTVSPost2010PropOp53
 70
     1
102
RTVSPost2010Prop54
  1
strokes_ogs.tif
102
RTVSPost2010PropOp54
 70
     1
102
RTVSPost2010Prop55
280
     0
102
RTVSPost2010PropOp55
 70
     1
102
RTVSPost2010Prop56
140
1.0
102
RTVSPost2010PropOp56
 70
     1
102
RTVSPost2010Prop57
140
1.0
102
RTVSPost2010PropOp57
 70
     1
102
RTVSPropertyOp0
 70
     1
102
RTVSPropertyOp1
 70
     1
102
RTVSPropertyOp2
 70
     1
102
RTVSPropertyOp3
 70
     1
102
RTVSPropertyOp4
 70
     1
102
RTVSPropertyOp5
 70
     1
102
RTVSPropertyOp6
 70
     1
102
RTVSPropertyOp7
 70
     1
102
RTVSPropertyOp8
 70
     1
102
RTVSPropertyOp9
 70
     1
102
RTVSPropertyOp10
 70
     1
102
RTVSPropertyOp11
 70
     1
102
RTVSPropertyOp12
 70
     1
102
RTVSPropertyOp13
 70
     1
102
RTVSPropertyOp14
 70
     1
102
RTVSPropertyOp15
 70
     1
102
RTVSPropertyOp16
 70
     1
102
RTVSPropertyOp17
 70
     1
102
RTVSPropertyOp18
 70
     1
102
RTVSPropertyOp19
 70
     1
102
RTVSPropertyOp20
 70
     1
102
RTVSPropertyOp21
 70
     1
102
RTVSPropertyOp22
 70
     1
102
RTVSPropertyOp23
 70
     1
102
RTVSPropertyOp24
 70
     1
102
RTVSPropertyOp25
 70
     1
102
RTVSPropertyOp26
 70
     1
102
RTVSPropertyOp27
 70
     1
102
RTVSPropertyOp28
 70
     1
102
RTVSPropertyOp29
 70
     1
102
RTVSPropertyOp30
 70
     1
102
RTVSPropertyOp31
 70
     1
102
RTVSPropertyOp32
 70
     1
102
RTVSPropertyOp33
 70
     1
102
RTVSPropertyOp34
 70
     1
102
RTVSPropertyOp35
 70
     1
102
RTVSPropertyOp36
 70
     1
102
RTVSPropertyOp37
 70
     1
102
RTVSPropertyOp38
 70
     1
102
RTVSPropertyOp39
 70
     1
102
RTVSPropertyOp40
 70
     1
102
RTVSPropertyOp41
 70
     1
102
RTVSPropertyOp42
 70
     1
102
RTVSPropertyOp43
 70
     1
102
RTVSPropertyOp44
 70
     1
102
RTVSPropertyOp45
 70
     1
102
RTVSPropertyOp46
 70
     1
102
RTVSPropertyOp47
 70
     1
102
RTVSPropertyOp48
 70
     1
102
RTVSPropertyOp49
 70
     1
102
RTVSPropertyOp50
 70
     1
102
RTVSPropertyOp51
 70
     0
102
RTVSPropertyOp52
 70
     0
102
RTVSPropertyOp53
 70
     1
102
RTVSPropertyOp54
 70
     1
102
RTVSPropertyOp55
 70
     1
102
RTVSPropertyOp56
 70
     1
102
RTVSPropertyOp57
 70
     1
102
RTVSPropertyOp58
 70
     1
102
RTVSPropertyOp59
 70
     1
102
RTVSPropertyOp60
 70
     1
102
RTVSPropertyOp61
 70
     1
102
RTVSPropertyOp62
 70
     1
  0
XRECORD
  5
1845
102
{ACAD_REACTORS
330
1844
102
}
330
1844
100
AcDbXrecord
280
     1
102
RTVSPost2010Prop28
280
     0
102
RTVSPost2010PropOp28
 70
     1
102
RTVSPost2010Prop29
280
     1
102
RTVSPost2010PropOp29
 70
     1
102
RTVSPost2010Prop30
280
     1
102
RTVSPost2010PropOp30
 70
     1
102
RTVSPost2010Prop31
280
     0
102
RTVSPost2010PropOp31
 70
     1
102
RTVSPost2010Prop32
280
     0
102
RTVSPost2010PropOp32
 70
     1
102
RTVSPost2010Prop33
280
     0
102
RTVSPost2010PropOp33
 70
     1
102
RTVSPost2010Prop34
280
     0
102
RTVSPost2010PropOp34
 70
     1
102
RTVSPost2010Prop35
280
     0
102
RTVSPost2010PropOp35
 70
     1
102
RTVSPost2010Prop36
280
     0
102
RTVSPost2010PropOp36
 70
     1
102
RTVSPost2010Prop37
 90
       50
102
RTVSPost2010PropOp37
 70
     0
102
RTVSPost2010Prop38
140
0.0
102
RTVSPost2010PropOp38
 70
     0
102
RTVSPost2010Prop39
140
1.0
102
RTVSPost2010PropOp39
 70
     0
102
RTVSPost2010Prop40
 90
        0
102
RTVSPost2010PropOp40
 70
     0
102
RTVSPost2010Prop41ColorIndex
 90
       18
102
RTVSPost2010Prop41ColorRGB
 90
        0
102
RTVSPost2010PropOp41
 70
     0
102
RTVSPost2010Prop42
 90
       50
102
RTVSPost2010PropOp42
 70
     0
102
RTVSPost2010Prop43
 90
        3
102
RTVSPost2010PropOp43
 70
     0
102
RTVSPost2010Prop44ColorIndex
 90
        5
102
RTVSPost2010Prop44ColorRGB
 90
      255
102
RTVSPost2010PropOp44
 70
     0
102
RTVSPost2010Prop45
280
     0
102
RTVSPost2010PropOp45
 70
     1
102
RTVSPost2010Prop46
 90
       50
102
RTVSPost2010PropOp46
 70
     0
102
RTVSPost2010Prop47
 90
       50
102
RTVSPost2010PropOp47
 70
     0
102
RTVSPost2010Prop48
 90
       50
102
RTVSPost2010PropOp48
 70
     0
102
RTVSPost2010Prop49
280
     0
102
RTVSPost2010PropOp49
 70
     1
102
RTVSPost2010Prop50
 90
       50
102
RTVSPost2010PropOp50
 70
     0
102
RTVSPost2010Prop51ColorIndex
 90
      256
102
RTVSPost2010Prop51ColorRGB
 90
-16777216
102
RTVSPost2010PropOp51
 70
     0
102
RTVSPost2010Prop52
140
1.0
102
RTVSPost2010PropOp52
 70
     0
102
RTVSPost2010Prop53
 90
        2
102
RTVSPost2010PropOp53
 70
     0
102
RTVSPost2010Prop54
  1
strokes_ogs.tif
102
RTVSPost2010PropOp54
 70
     0
102
RTVSPost2010Prop55
280
     0
102
RTVSPost2010PropOp55
 70
     1
102
RTVSPost2010Prop56
140
1.0
102
RTVSPost2010PropOp56
 70
     0
102
RTVSPost2010Prop57
140
1.0
102
RTVSPost2010PropOp57
 70
     0
102
RTVSPropertyOp0
 70
     0
102
RTVSPropertyOp1
 70
     0
102
RTVSPropertyOp2
 70
     0
102
RTVSPropertyOp3
 70
     0
102
RTVSPropertyOp4
 70
     0
102
RTVSPropertyOp5
 70
     0
102
RTVSPropertyOp6
 70
     0
102
RTVSPropertyOp7
 70
     0
102
RTVSPropertyOp8
 70
     0
102
RTVSPropertyOp9
 70
     0
102
RTVSPropertyOp10
 70
     0
102
RTVSPropertyOp11
 70
     0
102
RTVSPropertyOp12
 70
     0
102
RTVSPropertyOp13
 70
     0
102
RTVSPropertyOp14
 70
     2
102
RTVSPropertyOp15
 70
     0
102
RTVSPropertyOp16
 70
     0
102
RTVSPropertyOp17
 70
     0
102
RTVSPropertyOp18
 70
     0
102
RTVSPropertyOp19
 70
     0
102
RTVSPropertyOp20
 70
     0
102
RTVSPropertyOp21
 70
     0
102
RTVSPropertyOp22
 70
     0
102
RTVSPropertyOp23
 70
     0
102
RTVSPropertyOp24
 70
     0
102
RTVSPropertyOp25
 70
     0
102
RTVSPropertyOp26
 70
     0
102
RTVSPropertyOp27
 70
     0
102
RTVSPropertyOp28
 70
     1
102
RTVSPropertyOp29
 70
     1
102
RTVSPropertyOp30
 70
     1
102
RTVSPropertyOp31
 70
     1
102
RTVSPropertyOp32
 70
     1
102
RTVSPropertyOp33
 70
     1
102
RTVSPropertyOp34
 70
     1
102
RTVSPropertyOp35
 70
     1
102
RTVSPropertyOp36
 70
     1
102
RTVSPropertyOp37
 70
     0
102
RTVSPropertyOp38
 70
     0
102
RTVSPropertyOp39
 70
     0
102
RTVSPropertyOp40
 70
     0
102
RTVSPropertyOp41
 70
     0
102
RTVSPropertyOp42
 70
     0
102
RTVSPropertyOp43
 70
     0
102
RTVSPropertyOp44
 70
     0
102
RTVSPropertyOp45
 70
     1
102
RTVSPropertyOp46
 70
     0
102
RTVSPropertyOp47
 70
     0
102
RTVSPropertyOp48
 70
     0
102
RTVSPropertyOp49
 70
     1
102
RTVSPropertyOp50
 70
     0
102
RTVSPropertyOp51
 70
     0
102
RTVSPropertyOp52
 70
     0
102
RTVSPropertyOp53
 70
     0
102
RTVSPropertyOp54
 70
     0
102
RTVSPropertyOp55
 70
     1
102
RTVSPropertyOp56
 70
     0
102
RTVSPropertyOp57
 70
     0
102
RTVSPropertyOp58
 70
     0
102
RTVSPropertyOp59
 70
     0
102
RTVSPropertyOp60
 70
     0
102
RTVSPropertyOp61
 70
     0
102
RTVSPropertyOp62
 70
     0
  0
XRECORD
  5
1833
102
{ACAD_REACTORS
330
1832
102
}
330
1832
100
AcDbXrecord
280
     1
102
RTVSPost2010Prop28
280
     0
102
RTVSPost2010PropOp28
 70
     1
102
RTVSPost2010Prop29
280
     1
102
RTVSPost2010PropOp29
 70
     1
102
RTVSPost2010Prop30
280
     1
102
RTVSPost2010PropOp30
 70
     1
102
RTVSPost2010Prop31
280
     0
102
RTVSPost2010PropOp31
 70
     1
102
RTVSPost2010Prop32
280
     0
102
RTVSPost2010PropOp32
 70
     1
102
RTVSPost2010Prop33
280
     0
102
RTVSPost2010PropOp33
 70
     1
102
RTVSPost2010Prop34
280
     0
102
RTVSPost2010PropOp34
 70
     1
102
RTVSPost2010Prop35
280
     0
102
RTVSPost2010PropOp35
 70
     1
102
RTVSPost2010Prop36
280
     0
102
RTVSPost2010PropOp36
 70
     1
102
RTVSPost2010Prop37
 90
       50
102
RTVSPost2010PropOp37
 70
     1
102
RTVSPost2010Prop38
140
0.0
102
RTVSPost2010PropOp38
 70
     1
102
RTVSPost2010Prop39
140
1.0
102
RTVSPost2010PropOp39
 70
     1
102
RTVSPost2010Prop40
 90
        0
102
RTVSPost2010PropOp40
 70
     1
102
RTVSPost2010Prop41ColorIndex
 90
       18
102
RTVSPost2010Prop41ColorRGB
 90
        0
102
RTVSPost2010PropOp41
 70
     1
102
RTVSPost2010Prop42
 90
       50
102
RTVSPost2010PropOp42
 70
     1
102
RTVSPost2010Prop43
 90
        3
102
RTVSPost2010PropOp43
 70
     1
102
RTVSPost2010Prop44ColorIndex
 90
        5
102
RTVSPost2010Prop44ColorRGB
 90
      255
102
RTVSPost2010PropOp44
 70
     1
102
RTVSPost2010Prop45
280
     0
102
RTVSPost2010PropOp45
 70
     1
102
RTVSPost2010Prop46
 90
       50
102
RTVSPost2010PropOp46
 70
     1
102
RTVSPost2010Prop47
 90
       50
102
RTVSPost2010PropOp47
 70
     1
102
RTVSPost2010Prop48
 90
       50
102
RTVSPost2010PropOp48
 70
     1
102
RTVSPost2010Prop49
280
     0
102
RTVSPost2010PropOp49
 70
     1
102
RTVSPost2010Prop50
 90
       50
102
RTVSPost2010PropOp50
 70
     1
102
RTVSPost2010Prop51ColorIndex
 90
      256
102
RTVSPost2010Prop51ColorRGB
 90
-16777216
102
RTVSPost2010PropOp51
 70
     0
102
RTVSPost2010Prop52
140
1.0
102
RTVSPost2010PropOp52
 70
     0
102
RTVSPost2010Prop53
 90
        2
102
RTVSPost2010PropOp53
 70
     1
102
RTVSPost2010Prop54
  1
strokes_ogs.tif
102
RTVSPost2010PropOp54
 70
     1
102
RTVSPost2010Prop55
280
     0
102
RTVSPost2010PropOp55
 70
     1
102
RTVSPost2010Prop56
140
1.0
102
RTVSPost2010PropOp56
 70
     1
102
RTVSPost2010Prop57
140
1.0
102
RTVSPost2010PropOp57
 70
     1
102
RTVSPropertyOp0
 70
     1
102
RTVSPropertyOp1
 70
     1
102
RTVSPropertyOp2
 70
     1
102
RTVSPropertyOp3
 70
     1
102
RTVSPropertyOp4
 70
     1
102
RTVSPropertyOp5
 70
     1
102
RTVSPropertyOp6
 70
     1
102
RTVSPropertyOp7
 70
     1
102
RTVSPropertyOp8
 70
     1
102
RTVSPropertyOp9
 70
     1
102
RTVSPropertyOp10
 70
     1
102
RTVSPropertyOp11
 70
     1
102
RTVSPropertyOp12
 70
     1
102
RTVSPropertyOp13
 70
     1
102
RTVSPropertyOp14
 70
     1
102
RTVSPropertyOp15
 70
     1
102
RTVSPropertyOp16
 70
     1
102
RTVSPropertyOp17
 70
     1
102
RTVSPropertyOp18
 70
     1
102
RTVSPropertyOp19
 70
     1
102
RTVSPropertyOp20
 70
     1
102
RTVSPropertyOp21
 70
     1
102
RTVSPropertyOp22
 70
     1
102
RTVSPropertyOp23
 70
     1
102
RTVSPropertyOp24
 70
     1
102
RTVSPropertyOp25
 70
     1
102
RTVSPropertyOp26
 70
     1
102
RTVSPropertyOp27
 70
     1
102
RTVSPropertyOp28
 70
     1
102
RTVSPropertyOp29
 70
     1
102
RTVSPropertyOp30
 70
     1
102
RTVSPropertyOp31
 70
     1
102
RTVSPropertyOp32
 70
     1
102
RTVSPropertyOp33
 70
     1
102
RTVSPropertyOp34
 70
     1
102
RTVSPropertyOp35
 70
     1
102
RTVSPropertyOp36
 70
     1
102
RTVSPropertyOp37
 70
     1
102
RTVSPropertyOp38
 70
     1
102
RTVSPropertyOp39
 70
     1
102
RTVSPropertyOp40
 70
     1
102
RTVSPropertyOp41
 70
     1
102
RTVSPropertyOp42
 70
     1
102
RTVSPropertyOp43
 70
     1
102
RTVSPropertyOp44
 70
     1
102
RTVSPropertyOp45
 70
     1
102
RTVSPropertyOp46
 70
     1
102
RTVSPropertyOp47
 70
     1
102
RTVSPropertyOp48
 70
     1
102
RTVSPropertyOp49
 70
     1
102
RTVSPropertyOp50
 70
     1
102
RTVSPropertyOp51
 70
     0
102
RTVSPropertyOp52
 70
     0
102
RTVSPropertyOp53
 70
     1
102
RTVSPropertyOp54
 70
     1
102
RTVSPropertyOp55
 70
     1
102
RTVSPropertyOp56
 70
     1
102
RTVSPropertyOp57
 70
     1
102
RTVSPropertyOp58
 70
     1
102
RTVSPropertyOp59
 70
     1
102
RTVSPropertyOp60
 70
     1
102
RTVSPropertyOp61
 70
     1
102
RTVSPropertyOp62
 70
     1
  0
XRECORD
  5
1817
102
{ACAD_REACTORS
330
1816
102
}
330
1816
100
AcDbXrecord
280
     1
102
RTVSPost2010Prop28
280
     0
102
RTVSPost2010PropOp28
 70
     1
102
RTVSPost2010Prop29
280
     1
102
RTVSPost2010PropOp29
 70
     1
102
RTVSPost2010Prop30
280
     1
102
RTVSPost2010PropOp30
 70
     1
102
RTVSPost2010Prop31
280
     0
102
RTVSPost2010PropOp31
 70
     1
102
RTVSPost2010Prop32
280
     0
102
RTVSPost2010PropOp32
 70
     1
102
RTVSPost2010Prop33
280
     0
102
RTVSPost2010PropOp33
 70
     1
102
RTVSPost2010Prop34
280
     0
102
RTVSPost2010PropOp34
 70
     1
102
RTVSPost2010Prop35
280
     0
102
RTVSPost2010PropOp35
 70
     1
102
RTVSPost2010Prop36
280
     0
102
RTVSPost2010PropOp36
 70
     1
102
RTVSPost2010Prop37
 90
       50
102
RTVSPost2010PropOp37
 70
     1
102
RTVSPost2010Prop38
140
0.0
102
RTVSPost2010PropOp38
 70
     1
102
RTVSPost2010Prop39
140
1.0
102
RTVSPost2010PropOp39
 70
     1
102
RTVSPost2010Prop40
 90
        0
102
RTVSPost2010PropOp40
 70
     1
102
RTVSPost2010Prop41ColorIndex
 90
       18
102
RTVSPost2010Prop41ColorRGB
 90
        0
102
RTVSPost2010PropOp41
 70
     1
102
RTVSPost2010Prop42
 90
       50
102
RTVSPost2010PropOp42
 70
     1
102
RTVSPost2010Prop43
 90
        3
102
RTVSPost2010PropOp43
 70
     1
102
RTVSPost2010Prop44ColorIndex
 90
        5
102
RTVSPost2010Prop44ColorRGB
 90
      255
102
RTVSPost2010PropOp44
 70
     1
102
RTVSPost2010Prop45
280
     0
102
RTVSPost2010PropOp45
 70
     1
102
RTVSPost2010Prop46
 90
       50
102
RTVSPost2010PropOp46
 70
     1
102
RTVSPost2010Prop47
 90
       50
102
RTVSPost2010PropOp47
 70
     1
102
RTVSPost2010Prop48
 90
       50
102
RTVSPost2010PropOp48
 70
     1
102
RTVSPost2010Prop49
280
     0
102
RTVSPost2010PropOp49
 70
     1
102
RTVSPost2010Prop50
 90
       50
102
RTVSPost2010PropOp50
 70
     1
102
RTVSPost2010Prop51ColorIndex
 90
      256
102
RTVSPost2010Prop51ColorRGB
 90
-16777216
102
RTVSPost2010PropOp51
 70
     0
102
RTVSPost2010Prop52
140
1.0
102
RTVSPost2010PropOp52
 70
     0
102
RTVSPost2010Prop53
 90
        2
102
RTVSPost2010PropOp53
 70
     1
102
RTVSPost2010Prop54
  1
strokes_ogs.tif
102
RTVSPost2010PropOp54
 70
     1
102
RTVSPost2010Prop55
280
     0
102
RTVSPost2010PropOp55
 70
     1
102
RTVSPost2010Prop56
140
1.0
102
RTVSPost2010PropOp56
 70
     1
102
RTVSPost2010Prop57
140
1.0
102
RTVSPost2010PropOp57
 70
     1
102
RTVSPropertyOp0
 70
     1
102
RTVSPropertyOp1
 70
     1
102
RTVSPropertyOp2
 70
     1
102
RTVSPropertyOp3
 70
     1
102
RTVSPropertyOp4
 70
     1
102
RTVSPropertyOp5
 70
     1
102
RTVSPropertyOp6
 70
     1
102
RTVSPropertyOp7
 70
     1
102
RTVSPropertyOp8
 70
     1
102
RTVSPropertyOp9
 70
     1
102
RTVSPropertyOp10
 70
     1
102
RTVSPropertyOp11
 70
     1
102
RTVSPropertyOp12
 70
     1
102
RTVSPropertyOp13
 70
     1
102
RTVSPropertyOp14
 70
     1
102
RTVSPropertyOp15
 70
     1
102
RTVSPropertyOp16
 70
     1
102
RTVSPropertyOp17
 70
     1
102
RTVSPropertyOp18
 70
     1
102
RTVSPropertyOp19
 70
     1
102
RTVSPropertyOp20
 70
     1
102
RTVSPropertyOp21
 70
     1
102
RTVSPropertyOp22
 70
     1
102
RTVSPropertyOp23
 70
     1
102
RTVSPropertyOp24
 70
     1
102
RTVSPropertyOp25
 70
     1
102
RTVSPropertyOp26
 70
     1
102
RTVSPropertyOp27
 70
     1
102
RTVSPropertyOp28
 70
     1
102
RTVSPropertyOp29
 70
     1
102
RTVSPropertyOp30
 70
     1
102
RTVSPropertyOp31
 70
     1
102
RTVSPropertyOp32
 70
     1
102
RTVSPropertyOp33
 70
     1
102
RTVSPropertyOp34
 70
     1
102
RTVSPropertyOp35
 70
     1
102
RTVSPropertyOp36
 70
     1
102
RTVSPropertyOp37
 70
     1
102
RTVSPropertyOp38
 70
     1
102
RTVSPropertyOp39
 70
     1
102
RTVSPropertyOp40
 70
     1
102
RTVSPropertyOp41
 70
     1
102
RTVSPropertyOp42
 70
     1
102
RTVSPropertyOp43
 70
     1
102
RTVSPropertyOp44
 70
     1
102
RTVSPropertyOp45
 70
     1
102
RTVSPropertyOp46
 70
     1
102
RTVSPropertyOp47
 70
     1
102
RTVSPropertyOp48
 70
     1
102
RTVSPropertyOp49
 70
     1
102
RTVSPropertyOp50
 70
     1
102
RTVSPropertyOp51
 70
     0
102
RTVSPropertyOp52
 70
     0
102
RTVSPropertyOp53
 70
     1
102
RTVSPropertyOp54
 70
     1
102
RTVSPropertyOp55
 70
     1
102
RTVSPropertyOp56
 70
     1
102
RTVSPropertyOp57
 70
     1
102
RTVSPropertyOp58
 70
     1
102
RTVSPropertyOp59
 70
     1
102
RTVSPropertyOp60
 70
     1
102
RTVSPropertyOp61
 70
     1
102
RTVSPropertyOp62
 70
     1
  0
XRECORD
  5
1819
102
{ACAD_REACTORS
330
1818
102
}
330
1818
100
AcDbXrecord
280
     1
102
RTVSPost2010Prop28
280
     0
102
RTVSPost2010PropOp28
 70
     1
102
RTVSPost2010Prop29
280
     1
102
RTVSPost2010PropOp29
 70
     1
102
RTVSPost2010Prop30
280
     1
102
RTVSPost2010PropOp30
 70
     1
102
RTVSPost2010Prop31
280
     0
102
RTVSPost2010PropOp31
 70
     1
102
RTVSPost2010Prop32
280
     0
102
RTVSPost2010PropOp32
 70
     1
102
RTVSPost2010Prop33
280
     0
102
RTVSPost2010PropOp33
 70
     1
102
RTVSPost2010Prop34
280
     0
102
RTVSPost2010PropOp34
 70
     1
102
RTVSPost2010Prop35
280
     0
102
RTVSPost2010PropOp35
 70
     1
102
RTVSPost2010Prop36
280
     0
102
RTVSPost2010PropOp36
 70
     1
102
RTVSPost2010Prop37
 90
       50
102
RTVSPost2010PropOp37
 70
     1
102
RTVSPost2010Prop38
140
0.0
102
RTVSPost2010PropOp38
 70
     1
102
RTVSPost2010Prop39
140
1.0
102
RTVSPost2010PropOp39
 70
     1
102
RTVSPost2010Prop40
 90
        0
102
RTVSPost2010PropOp40
 70
     1
102
RTVSPost2010Prop41ColorIndex
 90
       18
102
RTVSPost2010Prop41ColorRGB
 90
        0
102
RTVSPost2010PropOp41
 70
     1
102
RTVSPost2010Prop42
 90
       50
102
RTVSPost2010PropOp42
 70
     1
102
RTVSPost2010Prop43
 90
        3
102
RTVSPost2010PropOp43
 70
     1
102
RTVSPost2010Prop44ColorIndex
 90
        5
102
RTVSPost2010Prop44ColorRGB
 90
      255
102
RTVSPost2010PropOp44
 70
     1
102
RTVSPost2010Prop45
280
     0
102
RTVSPost2010PropOp45
 70
     1
102
RTVSPost2010Prop46
 90
       50
102
RTVSPost2010PropOp46
 70
     1
102
RTVSPost2010Prop47
 90
       50
102
RTVSPost2010PropOp47
 70
     1
102
RTVSPost2010Prop48
 90
       50
102
RTVSPost2010PropOp48
 70
     1
102
RTVSPost2010Prop49
280
     0
102
RTVSPost2010PropOp49
 70
     1
102
RTVSPost2010Prop50
 90
       50
102
RTVSPost2010PropOp50
 70
     1
102
RTVSPost2010Prop51ColorIndex
 90
      256
102
RTVSPost2010Prop51ColorRGB
 90
-16777216
102
RTVSPost2010PropOp51
 70
     0
102
RTVSPost2010Prop52
140
1.0
102
RTVSPost2010PropOp52
 70
     0
102
RTVSPost2010Prop53
 90
        2
102
RTVSPost2010PropOp53
 70
     1
102
RTVSPost2010Prop54
  1
strokes_ogs.tif
102
RTVSPost2010PropOp54
 70
     1
102
RTVSPost2010Prop55
280
     0
102
RTVSPost2010PropOp55
 70
     1
102
RTVSPost2010Prop56
140
1.0
102
RTVSPost2010PropOp56
 70
     1
102
RTVSPost2010Prop57
140
1.0
102
RTVSPost2010PropOp57
 70
     1
102
RTVSPropertyOp0
 70
     1
102
RTVSPropertyOp1
 70
     1
102
RTVSPropertyOp2
 70
     1
102
RTVSPropertyOp3
 70
     1
102
RTVSPropertyOp4
 70
     1
102
RTVSPropertyOp5
 70
     1
102
RTVSPropertyOp6
 70
     1
102
RTVSPropertyOp7
 70
     1
102
RTVSPropertyOp8
 70
     1
102
RTVSPropertyOp9
 70
     1
102
RTVSPropertyOp10
 70
     1
102
RTVSPropertyOp11
 70
     1
102
RTVSPropertyOp12
 70
     1
102
RTVSPropertyOp13
 70
     1
102
RTVSPropertyOp14
 70
     1
102
RTVSPropertyOp15
 70
     1
102
RTVSPropertyOp16
 70
     1
102
RTVSPropertyOp17
 70
     1
102
RTVSPropertyOp18
 70
     1
102
RTVSPropertyOp19
 70
     1
102
RTVSPropertyOp20
 70
     1
102
RTVSPropertyOp21
 70
     1
102
RTVSPropertyOp22
 70
     1
102
RTVSPropertyOp23
 70
     1
102
RTVSPropertyOp24
 70
     1
102
RTVSPropertyOp25
 70
     1
102
RTVSPropertyOp26
 70
     1
102
RTVSPropertyOp27
 70
     1
102
RTVSPropertyOp28
 70
     1
102
RTVSPropertyOp29
 70
     1
102
RTVSPropertyOp30
 70
     1
102
RTVSPropertyOp31
 70
     1
102
RTVSPropertyOp32
 70
     1
102
RTVSPropertyOp33
 70
     1
102
RTVSPropertyOp34
 70
     1
102
RTVSPropertyOp35
 70
     1
102
RTVSPropertyOp36
 70
     1
102
RTVSPropertyOp37
 70
     1
102
RTVSPropertyOp38
 70
     1
102
RTVSPropertyOp39
 70
     1
102
RTVSPropertyOp40
 70
     1
102
RTVSPropertyOp41
 70
     1
102
RTVSPropertyOp42
 70
     1
102
RTVSPropertyOp43
 70
     1
102
RTVSPropertyOp44
 70
     1
102
RTVSPropertyOp45
 70
     1
102
RTVSPropertyOp46
 70
     1
102
RTVSPropertyOp47
 70
     1
102
RTVSPropertyOp48
 70
     1
102
RTVSPropertyOp49
 70
     1
102
RTVSPropertyOp50
 70
     1
102
RTVSPropertyOp51
 70
     0
102
RTVSPropertyOp52
 70
     0
102
RTVSPropertyOp53
 70
     1
102
RTVSPropertyOp54
 70
     1
102
RTVSPropertyOp55
 70
     1
102
RTVSPropertyOp56
 70
     1
102
RTVSPropertyOp57
 70
     1
102
RTVSPropertyOp58
 70
     1
102
RTVSPropertyOp59
 70
     1
102
RTVSPropertyOp60
 70
     1
102
RTVSPropertyOp61
 70
     1
102
RTVSPropertyOp62
 70
     1
  0
XRECORD
  5
181B
102
{ACAD_REACTORS
330
181A
102
}
330
181A
100
AcDbXrecord
280
     1
102
RTVSPost2010Prop28
280
     0
102
RTVSPost2010PropOp28
 70
     1
102
RTVSPost2010Prop29
280
     1
102
RTVSPost2010PropOp29
 70
     1
102
RTVSPost2010Prop30
280
     1
102
RTVSPost2010PropOp30
 70
     1
102
RTVSPost2010Prop31
280
     0
102
RTVSPost2010PropOp31
 70
     1
102
RTVSPost2010Prop32
280
     0
102
RTVSPost2010PropOp32
 70
     1
102
RTVSPost2010Prop33
280
     0
102
RTVSPost2010PropOp33
 70
     1
102
RTVSPost2010Prop34
280
     0
102
RTVSPost2010PropOp34
 70
     1
102
RTVSPost2010Prop35
280
     0
102
RTVSPost2010PropOp35
 70
     1
102
RTVSPost2010Prop36
280
     0
102
RTVSPost2010PropOp36
 70
     1
102
RTVSPost2010Prop37
 90
       50
102
RTVSPost2010PropOp37
 70
     1
102
RTVSPost2010Prop38
140
0.0
102
RTVSPost2010PropOp38
 70
     1
102
RTVSPost2010Prop39
140
1.0
102
RTVSPost2010PropOp39
 70
     1
102
RTVSPost2010Prop40
 90
        0
102
RTVSPost2010PropOp40
 70
     1
102
RTVSPost2010Prop41ColorIndex
 90
       18
102
RTVSPost2010Prop41ColorRGB
 90
        0
102
RTVSPost2010PropOp41
 70
     1
102
RTVSPost2010Prop42
 90
       50
102
RTVSPost2010PropOp42
 70
     1
102
RTVSPost2010Prop43
 90
        3
102
RTVSPost2010PropOp43
 70
     1
102
RTVSPost2010Prop44ColorIndex
 90
        5
102
RTVSPost2010Prop44ColorRGB
 90
      255
102
RTVSPost2010PropOp44
 70
     1
102
RTVSPost2010Prop45
280
     0
102
RTVSPost2010PropOp45
 70
     1
102
RTVSPost2010Prop46
 90
       50
102
RTVSPost2010PropOp46
 70
     1
102
RTVSPost2010Prop47
 90
       50
102
RTVSPost2010PropOp47
 70
     1
102
RTVSPost2010Prop48
 90
       50
102
RTVSPost2010PropOp48
 70
     1
102
RTVSPost2010Prop49
280
     0
102
RTVSPost2010PropOp49
 70
     1
102
RTVSPost2010Prop50
 90
       50
102
RTVSPost2010PropOp50
 70
     1
102
RTVSPost2010Prop51ColorIndex
 90
      256
102
RTVSPost2010Prop51ColorRGB
 90
-16777216
102
RTVSPost2010PropOp51
 70
     0
102
RTVSPost2010Prop52
140
1.0
102
RTVSPost2010PropOp52
 70
     0
102
RTVSPost2010Prop53
 90
        2
102
RTVSPost2010PropOp53
 70
     1
102
RTVSPost2010Prop54
  1
strokes_ogs.tif
102
RTVSPost2010PropOp54
 70
     1
102
RTVSPost2010Prop55
280
     0
102
RTVSPost2010PropOp55
 70
     1
102
RTVSPost2010Prop56
140
1.0
102
RTVSPost2010PropOp56
 70
     1
102
RTVSPost2010Prop57
140
1.0
102
RTVSPost2010PropOp57
 70
     1
102
RTVSPropertyOp0
 70
     1
102
RTVSPropertyOp1
 70
     1
102
RTVSPropertyOp2
 70
     1
102
RTVSPropertyOp3
 70
     1
102
RTVSPropertyOp4
 70
     1
102
RTVSPropertyOp5
 70
     1
102
RTVSPropertyOp6
 70
     1
102
RTVSPropertyOp7
 70
     1
102
RTVSPropertyOp8
 70
     1
102
RTVSPropertyOp9
 70
     1
102
RTVSPropertyOp10
 70
     1
102
RTVSPropertyOp11
 70
     1
102
RTVSPropertyOp12
 70
     1
102
RTVSPropertyOp13
 70
     1
102
RTVSPropertyOp14
 70
     1
102
RTVSPropertyOp15
 70
     1
102
RTVSPropertyOp16
 70
     1
102
RTVSPropertyOp17
 70
     1
102
RTVSPropertyOp18
 70
     1
102
RTVSPropertyOp19
 70
     1
102
RTVSPropertyOp20
 70
     1
102
RTVSPropertyOp21
 70
     1
102
RTVSPropertyOp22
 70
     1
102
RTVSPropertyOp23
 70
     1
102
RTVSPropertyOp24
 70
     1
102
RTVSPropertyOp25
 70
     1
102
RTVSPropertyOp26
 70
     1
102
RTVSPropertyOp27
 70
     1
102
RTVSPropertyOp28
 70
     1
102
RTVSPropertyOp29
 70
     1
102
RTVSPropertyOp30
 70
     1
102
RTVSPropertyOp31
 70
     1
102
RTVSPropertyOp32
 70
     1
102
RTVSPropertyOp33
 70
     1
102
RTVSPropertyOp34
 70
     1
102
RTVSPropertyOp35
 70
     1
102
RTVSPropertyOp36
 70
     1
102
RTVSPropertyOp37
 70
     1
102
RTVSPropertyOp38
 70
     1
102
RTVSPropertyOp39
 70
     1
102
RTVSPropertyOp40
 70
     1
102
RTVSPropertyOp41
 70
     1
102
RTVSPropertyOp42
 70
     1
102
RTVSPropertyOp43
 70
     1
102
RTVSPropertyOp44
 70
     1
102
RTVSPropertyOp45
 70
     1
102
RTVSPropertyOp46
 70
     1
102
RTVSPropertyOp47
 70
     1
102
RTVSPropertyOp48
 70
     1
102
RTVSPropertyOp49
 70
     1
102
RTVSPropertyOp50
 70
     1
102
RTVSPropertyOp51
 70
     0
102
RTVSPropertyOp52
 70
     0
102
RTVSPropertyOp53
 70
     1
102
RTVSPropertyOp54
 70
     1
102
RTVSPropertyOp55
 70
     1
102
RTVSPropertyOp56
 70
     1
102
RTVSPropertyOp57
 70
     1
102
RTVSPropertyOp58
 70
     1
102
RTVSPropertyOp59
 70
     1
102
RTVSPropertyOp60
 70
     1
102
RTVSPropertyOp61
 70
     1
102
RTVSPropertyOp62
 70
     1
  0
XRECORD
  5
181D
102
{ACAD_REACTORS
330
181C
102
}
330
181C
100
AcDbXrecord
280
     1
102
RTVSPost2010Prop28
280
     0
102
RTVSPost2010PropOp28
 70
     1
102
RTVSPost2010Prop29
280
     1
102
RTVSPost2010PropOp29
 70
     1
102
RTVSPost2010Prop30
280
     1
102
RTVSPost2010PropOp30
 70
     1
102
RTVSPost2010Prop31
280
     0
102
RTVSPost2010PropOp31
 70
     1
102
RTVSPost2010Prop32
280
     0
102
RTVSPost2010PropOp32
 70
     1
102
RTVSPost2010Prop33
280
     0
102
RTVSPost2010PropOp33
 70
     1
102
RTVSPost2010Prop34
280
     0
102
RTVSPost2010PropOp34
 70
     1
102
RTVSPost2010Prop35
280
     0
102
RTVSPost2010PropOp35
 70
     1
102
RTVSPost2010Prop36
280
     0
102
RTVSPost2010PropOp36
 70
     1
102
RTVSPost2010Prop37
 90
       50
102
RTVSPost2010PropOp37
 70
     1
102
RTVSPost2010Prop38
140
0.0
102
RTVSPost2010PropOp38
 70
     1
102
RTVSPost2010Prop39
140
1.0
102
RTVSPost2010PropOp39
 70
     1
102
RTVSPost2010Prop40
 90
        0
102
RTVSPost2010PropOp40
 70
     1
102
RTVSPost2010Prop41ColorIndex
 90
       18
102
RTVSPost2010Prop41ColorRGB
 90
        0
102
RTVSPost2010PropOp41
 70
     1
102
RTVSPost2010Prop42
 90
       50
102
RTVSPost2010PropOp42
 70
     1
102
RTVSPost2010Prop43
 90
        3
102
RTVSPost2010PropOp43
 70
     1
102
RTVSPost2010Prop44ColorIndex
 90
        5
102
RTVSPost2010Prop44ColorRGB
 90
      255
102
RTVSPost2010PropOp44
 70
     1
102
RTVSPost2010Prop45
280
     0
102
RTVSPost2010PropOp45
 70
     1
102
RTVSPost2010Prop46
 90
       50
102
RTVSPost2010PropOp46
 70
     1
102
RTVSPost2010Prop47
 90
       50
102
RTVSPost2010PropOp47
 70
     1
102
RTVSPost2010Prop48
 90
       50
102
RTVSPost2010PropOp48
 70
     1
102
RTVSPost2010Prop49
280
     0
102
RTVSPost2010PropOp49
 70
     1
102
RTVSPost2010Prop50
 90
       50
102
RTVSPost2010PropOp50
 70
     1
102
RTVSPost2010Prop51ColorIndex
 90
      256
102
RTVSPost2010Prop51ColorRGB
 90
-16777216
102
RTVSPost2010PropOp51
 70
     0
102
RTVSPost2010Prop52
140
1.0
102
RTVSPost2010PropOp52
 70
     0
102
RTVSPost2010Prop53
 90
        2
102
RTVSPost2010PropOp53
 70
     1
102
RTVSPost2010Prop54
  1
strokes_ogs.tif
102
RTVSPost2010PropOp54
 70
     1
102
RTVSPost2010Prop55
280
     0
102
RTVSPost2010PropOp55
 70
     1
102
RTVSPost2010Prop56
140
1.0
102
RTVSPost2010PropOp56
 70
     1
102
RTVSPost2010Prop57
140
1.0
102
RTVSPost2010PropOp57
 70
     1
102
RTVSPropertyOp0
 70
     1
102
RTVSPropertyOp1
 70
     1
102
RTVSPropertyOp2
 70
     1
102
RTVSPropertyOp3
 70
     1
102
RTVSPropertyOp4
 70
     1
102
RTVSPropertyOp5
 70
     1
102
RTVSPropertyOp6
 70
     1
102
RTVSPropertyOp7
 70
     1
102
RTVSPropertyOp8
 70
     1
102
RTVSPropertyOp9
 70
     1
102
RTVSPropertyOp10
 70
     1
102
RTVSPropertyOp11
 70
     1
102
RTVSPropertyOp12
 70
     1
102
RTVSPropertyOp13
 70
     1
102
RTVSPropertyOp14
 70
     1
102
RTVSPropertyOp15
 70
     1
102
RTVSPropertyOp16
 70
     1
102
RTVSPropertyOp17
 70
     1
102
RTVSPropertyOp18
 70
     1
102
RTVSPropertyOp19
 70
     1
102
RTVSPropertyOp20
 70
     1
102
RTVSPropertyOp21
 70
     1
102
RTVSPropertyOp22
 70
     1
102
RTVSPropertyOp23
 70
     1
102
RTVSPropertyOp24
 70
     1
102
RTVSPropertyOp25
 70
     1
102
RTVSPropertyOp26
 70
     1
102
RTVSPropertyOp27
 70
     1
102
RTVSPropertyOp28
 70
     1
102
RTVSPropertyOp29
 70
     1
102
RTVSPropertyOp30
 70
     1
102
RTVSPropertyOp31
 70
     1
102
RTVSPropertyOp32
 70
     1
102
RTVSPropertyOp33
 70
     1
102
RTVSPropertyOp34
 70
     1
102
RTVSPropertyOp35
 70
     1
102
RTVSPropertyOp36
 70
     1
102
RTVSPropertyOp37
 70
     1
102
RTVSPropertyOp38
 70
     1
102
RTVSPropertyOp39
 70
     1
102
RTVSPropertyOp40
 70
     1
102
RTVSPropertyOp41
 70
     1
102
RTVSPropertyOp42
 70
     1
102
RTVSPropertyOp43
 70
     1
102
RTVSPropertyOp44
 70
     1
102
RTVSPropertyOp45
 70
     1
102
RTVSPropertyOp46
 70
     1
102
RTVSPropertyOp47
 70
     1
102
RTVSPropertyOp48
 70
     1
102
RTVSPropertyOp49
 70
     1
102
RTVSPropertyOp50
 70
     1
102
RTVSPropertyOp51
 70
     0
102
RTVSPropertyOp52
 70
     0
102
RTVSPropertyOp53
 70
     1
102
RTVSPropertyOp54
 70
     1
102
RTVSPropertyOp55
 70
     1
102
RTVSPropertyOp56
 70
     1
102
RTVSPropertyOp57
 70
     1
102
RTVSPropertyOp58
 70
     1
102
RTVSPropertyOp59
 70
     1
102
RTVSPropertyOp60
 70
     1
102
RTVSPropertyOp61
 70
     1
102
RTVSPropertyOp62
 70
     1
  0
XRECORD
  5
1825
102
{ACAD_REACTORS
330
1824
102
}
330
1824
100
AcDbXrecord
280
     1
102
RTVSPost2010Prop28
280
     0
102
RTVSPost2010PropOp28
 70
     1
102
RTVSPost2010Prop29
280
     1
102
RTVSPost2010PropOp29
 70
     1
102
RTVSPost2010Prop30
280
     1
102
RTVSPost2010PropOp30
 70
     1
102
RTVSPost2010Prop31
280
     0
102
RTVSPost2010PropOp31
 70
     1
102
RTVSPost2010Prop32
280
     0
102
RTVSPost2010PropOp32
 70
     1
102
RTVSPost2010Prop33
280
     0
102
RTVSPost2010PropOp33
 70
     1
102
RTVSPost2010Prop34
280
     0
102
RTVSPost2010PropOp34
 70
     1
102
RTVSPost2010Prop35
280
     0
102
RTVSPost2010PropOp35
 70
     1
102
RTVSPost2010Prop36
280
     0
102
RTVSPost2010PropOp36
 70
     1
102
RTVSPost2010Prop37
 90
       50
102
RTVSPost2010PropOp37
 70
     1
102
RTVSPost2010Prop38
140
0.0
102
RTVSPost2010PropOp38
 70
     1
102
RTVSPost2010Prop39
140
1.0
102
RTVSPost2010PropOp39
 70
     1
102
RTVSPost2010Prop40
 90
        0
102
RTVSPost2010PropOp40
 70
     1
102
RTVSPost2010Prop41ColorIndex
 90
       18
102
RTVSPost2010Prop41ColorRGB
 90
        0
102
RTVSPost2010PropOp41
 70
     1
102
RTVSPost2010Prop42
 90
       50
102
RTVSPost2010PropOp42
 70
     1
102
RTVSPost2010Prop43
 90
        3
102
RTVSPost2010PropOp43
 70
     1
102
RTVSPost2010Prop44ColorIndex
 90
        5
102
RTVSPost2010Prop44ColorRGB
 90
      255
102
RTVSPost2010PropOp44
 70
     1
102
RTVSPost2010Prop45
280
     0
102
RTVSPost2010PropOp45
 70
     1
102
RTVSPost2010Prop46
 90
       50
102
RTVSPost2010PropOp46
 70
     1
102
RTVSPost2010Prop47
 90
       50
102
RTVSPost2010PropOp47
 70
     1
102
RTVSPost2010Prop48
 90
       50
102
RTVSPost2010PropOp48
 70
     1
102
RTVSPost2010Prop49
280
     0
102
RTVSPost2010PropOp49
 70
     1
102
RTVSPost2010Prop50
 90
       50
102
RTVSPost2010PropOp50
 70
     1
102
RTVSPost2010Prop51ColorIndex
 90
      256
102
RTVSPost2010Prop51ColorRGB
 90
-16777216
102
RTVSPost2010PropOp51
 70
     0
102
RTVSPost2010Prop52
140
1.0
102
RTVSPost2010PropOp52
 70
     0
102
RTVSPost2010Prop53
 90
        2
102
RTVSPost2010PropOp53
 70
     1
102
RTVSPost2010Prop54
  1
strokes_ogs.tif
102
RTVSPost2010PropOp54
 70
     1
102
RTVSPost2010Prop55
280
     0
102
RTVSPost2010PropOp55
 70
     1
102
RTVSPost2010Prop56
140
1.0
102
RTVSPost2010PropOp56
 70
     1
102
RTVSPost2010Prop57
140
1.0
102
RTVSPost2010PropOp57
 70
     1
102
RTVSPropertyOp0
 70
     1
102
RTVSPropertyOp1
 70
     1
102
RTVSPropertyOp2
 70
     1
102
RTVSPropertyOp3
 70
     1
102
RTVSPropertyOp4
 70
     1
102
RTVSPropertyOp5
 70
     1
102
RTVSPropertyOp6
 70
     1
102
RTVSPropertyOp7
 70
     1
102
RTVSPropertyOp8
 70
     1
102
RTVSPropertyOp9
 70
     1
102
RTVSPropertyOp10
 70
     1
102
RTVSPropertyOp11
 70
     1
102
RTVSPropertyOp12
 70
     1
102
RTVSPropertyOp13
 70
     1
102
RTVSPropertyOp14
 70
     1
102
RTVSPropertyOp15
 70
     1
102
RTVSPropertyOp16
 70
     1
102
RTVSPropertyOp17
 70
     1
102
RTVSPropertyOp18
 70
     1
102
RTVSPropertyOp19
 70
     1
102
RTVSPropertyOp20
 70
     1
102
RTVSPropertyOp21
 70
     1
102
RTVSPropertyOp22
 70
     1
102
RTVSPropertyOp23
 70
     1
102
RTVSPropertyOp24
 70
     1
102
RTVSPropertyOp25
 70
     1
102
RTVSPropertyOp26
 70
     1
102
RTVSPropertyOp27
 70
     1
102
RTVSPropertyOp28
 70
     1
102
RTVSPropertyOp29
 70
     1
102
RTVSPropertyOp30
 70
     1
102
RTVSPropertyOp31
 70
     1
102
RTVSPropertyOp32
 70
     1
102
RTVSPropertyOp33
 70
     1
102
RTVSPropertyOp34
 70
     1
102
RTVSPropertyOp35
 70
     1
102
RTVSPropertyOp36
 70
     1
102
RTVSPropertyOp37
 70
     1
102
RTVSPropertyOp38
 70
     1
102
RTVSPropertyOp39
 70
     1
102
RTVSPropertyOp40
 70
     1
102
RTVSPropertyOp41
 70
     1
102
RTVSPropertyOp42
 70
     1
102
RTVSPropertyOp43
 70
     1
102
RTVSPropertyOp44
 70
     1
102
RTVSPropertyOp45
 70
     1
102
RTVSPropertyOp46
 70
     1
102
RTVSPropertyOp47
 70
     1
102
RTVSPropertyOp48
 70
     1
102
RTVSPropertyOp49
 70
     1
102
RTVSPropertyOp50
 70
     1
102
RTVSPropertyOp51
 70
     0
102
RTVSPropertyOp52
 70
     0
102
RTVSPropertyOp53
 70
     1
102
RTVSPropertyOp54
 70
     1
102
RTVSPropertyOp55
 70
     1
102
RTVSPropertyOp56
 70
     1
102
RTVSPropertyOp57
 70
     1
102
RTVSPropertyOp58
 70
     1
102
RTVSPropertyOp59
 70
     1
102
RTVSPropertyOp60
 70
     1
102
RTVSPropertyOp61
 70
     1
102
RTVSPropertyOp62
 70
     1
  0
XRECORD
  5
1841
102
{ACAD_REACTORS
330
1840
102
}
330
1840
100
AcDbXrecord
280
     1
102
RTVSPost2010Prop28
280
     0
102
RTVSPost2010PropOp28
 70
     1
102
RTVSPost2010Prop29
280
     1
102
RTVSPost2010PropOp29
 70
     1
102
RTVSPost2010Prop30
280
     1
102
RTVSPost2010PropOp30
 70
     1
102
RTVSPost2010Prop31
280
     0
102
RTVSPost2010PropOp31
 70
     1
102
RTVSPost2010Prop32
280
     0
102
RTVSPost2010PropOp32
 70
     1
102
RTVSPost2010Prop33
280
     0
102
RTVSPost2010PropOp33
 70
     1
102
RTVSPost2010Prop34
280
     0
102
RTVSPost2010PropOp34
 70
     1
102
RTVSPost2010Prop35
280
     0
102
RTVSPost2010PropOp35
 70
     1
102
RTVSPost2010Prop36
280
     0
102
RTVSPost2010PropOp36
 70
     1
102
RTVSPost2010Prop37
 90
       50
102
RTVSPost2010PropOp37
 70
     0
102
RTVSPost2010Prop38
140
0.0
102
RTVSPost2010PropOp38
 70
     0
102
RTVSPost2010Prop39
140
1.0
102
RTVSPost2010PropOp39
 70
     0
102
RTVSPost2010Prop40
 90
        0
102
RTVSPost2010PropOp40
 70
     0
102
RTVSPost2010Prop41ColorIndex
 90
       18
102
RTVSPost2010Prop41ColorRGB
 90
        0
102
RTVSPost2010PropOp41
 70
     0
102
RTVSPost2010Prop42
 90
       50
102
RTVSPost2010PropOp42
 70
     0
102
RTVSPost2010Prop43
 90
        3
102
RTVSPost2010PropOp43
 70
     0
102
RTVSPost2010Prop44ColorIndex
 90
        5
102
RTVSPost2010Prop44ColorRGB
 90
      255
102
RTVSPost2010PropOp44
 70
     0
102
RTVSPost2010Prop45
280
     0
102
RTVSPost2010PropOp45
 70
     1
102
RTVSPost2010Prop46
 90
       50
102
RTVSPost2010PropOp46
 70
     0
102
RTVSPost2010Prop47
 90
       50
102
RTVSPost2010PropOp47
 70
     0
102
RTVSPost2010Prop48
 90
       50
102
RTVSPost2010PropOp48
 70
     0
102
RTVSPost2010Prop49
280
     0
102
RTVSPost2010PropOp49
 70
     1
102
RTVSPost2010Prop50
 90
       50
102
RTVSPost2010PropOp50
 70
     0
102
RTVSPost2010Prop51ColorIndex
 90
      256
102
RTVSPost2010Prop51ColorRGB
 90
-16777216
102
RTVSPost2010PropOp51
 70
     0
102
RTVSPost2010Prop52
140
1.0
102
RTVSPost2010PropOp52
 70
     0
102
RTVSPost2010Prop53
 90
        2
102
RTVSPost2010PropOp53
 70
     0
102
RTVSPost2010Prop54
  1
strokes_ogs.tif
102
RTVSPost2010PropOp54
 70
     0
102
RTVSPost2010Prop55
280
     0
102
RTVSPost2010PropOp55
 70
     1
102
RTVSPost2010Prop56
140
1.0
102
RTVSPost2010PropOp56
 70
     0
102
RTVSPost2010Prop57
140
1.0
102
RTVSPost2010PropOp57
 70
     0
102
RTVSPropertyOp0
 70
     0
102
RTVSPropertyOp1
 70
     0
102
RTVSPropertyOp2
 70
     0
102
RTVSPropertyOp3
 70
     0
102
RTVSPropertyOp4
 70
     0
102
RTVSPropertyOp5
 70
     0
102
RTVSPropertyOp6
 70
     0
102
RTVSPropertyOp7
 70
     0
102
RTVSPropertyOp8
 70
     0
102
RTVSPropertyOp9
 70
     0
102
RTVSPropertyOp10
 70
     0
102
RTVSPropertyOp11
 70
     0
102
RTVSPropertyOp12
 70
     0
102
RTVSPropertyOp13
 70
     0
102
RTVSPropertyOp14
 70
     2
102
RTVSPropertyOp15
 70
     0
102
RTVSPropertyOp16
 70
     0
102
RTVSPropertyOp17
 70
     0
102
RTVSPropertyOp18
 70
     0
102
RTVSPropertyOp19
 70
     0
102
RTVSPropertyOp20
 70
     0
102
RTVSPropertyOp21
 70
     0
102
RTVSPropertyOp22
 70
     0
102
RTVSPropertyOp23
 70
     0
102
RTVSPropertyOp24
 70
     0
102
RTVSPropertyOp25
 70
     0
102
RTVSPropertyOp26
 70
     0
102
RTVSPropertyOp27
 70
     0
102
RTVSPropertyOp28
 70
     1
102
RTVSPropertyOp29
 70
     1
102
RTVSPropertyOp30
 70
     1
102
RTVSPropertyOp31
 70
     1
102
RTVSPropertyOp32
 70
     1
102
RTVSPropertyOp33
 70
     1
102
RTVSPropertyOp34
 70
     1
102
RTVSPropertyOp35
 70
     1
102
RTVSPropertyOp36
 70
     1
102
RTVSPropertyOp37
 70
     0
102
RTVSPropertyOp38
 70
     0
102
RTVSPropertyOp39
 70
     0
102
RTVSPropertyOp40
 70
     0
102
RTVSPropertyOp41
 70
     0
102
RTVSPropertyOp42
 70
     0
102
RTVSPropertyOp43
 70
     0
102
RTVSPropertyOp44
 70
     0
102
RTVSPropertyOp45
 70
     1
102
RTVSPropertyOp46
 70
     0
102
RTVSPropertyOp47
 70
     0
102
RTVSPropertyOp48
 70
     0
102
RTVSPropertyOp49
 70
     1
102
RTVSPropertyOp50
 70
     0
102
RTVSPropertyOp51
 70
     0
102
RTVSPropertyOp52
 70
     0
102
RTVSPropertyOp53
 70
     0
102
RTVSPropertyOp54
 70
     0
102
RTVSPropertyOp55
 70
     1
102
RTVSPropertyOp56
 70
     0
102
RTVSPropertyOp57
 70
     0
102
RTVSPropertyOp58
 70
     0
102
RTVSPropertyOp59
 70
     0
102
RTVSPropertyOp60
 70
     0
102
RTVSPropertyOp61
 70
     0
102
RTVSPropertyOp62
 70
     0
  0
XRECORD
  5
1831
102
{ACAD_REACTORS
330
1830
102
}
330
1830
100
AcDbXrecord
280
     1
102
RTVSPost2010Prop28
280
     0
102
RTVSPost2010PropOp28
 70
     1
102
RTVSPost2010Prop29
280
     1
102
RTVSPost2010PropOp29
 70
     1
102
RTVSPost2010Prop30
280
     1
102
RTVSPost2010PropOp30
 70
     1
102
RTVSPost2010Prop31
280
     0
102
RTVSPost2010PropOp31
 70
     1
102
RTVSPost2010Prop32
280
     0
102
RTVSPost2010PropOp32
 70
     1
102
RTVSPost2010Prop33
280
     0
102
RTVSPost2010PropOp33
 70
     1
102
RTVSPost2010Prop34
280
     0
102
RTVSPost2010PropOp34
 70
     1
102
RTVSPost2010Prop35
280
     0
102
RTVSPost2010PropOp35
 70
     1
102
RTVSPost2010Prop36
280
     0
102
RTVSPost2010PropOp36
 70
     1
102
RTVSPost2010Prop37
 90
       50
102
RTVSPost2010PropOp37
 70
     1
102
RTVSPost2010Prop38
140
0.0
102
RTVSPost2010PropOp38
 70
     1
102
RTVSPost2010Prop39
140
1.0
102
RTVSPost2010PropOp39
 70
     1
102
RTVSPost2010Prop40
 90
        0
102
RTVSPost2010PropOp40
 70
     1
102
RTVSPost2010Prop41ColorIndex
 90
       18
102
RTVSPost2010Prop41ColorRGB
 90
        0
102
RTVSPost2010PropOp41
 70
     1
102
RTVSPost2010Prop42
 90
       50
102
RTVSPost2010PropOp42
 70
     1
102
RTVSPost2010Prop43
 90
        3
102
RTVSPost2010PropOp43
 70
     1
102
RTVSPost2010Prop44ColorIndex
 90
        5
102
RTVSPost2010Prop44ColorRGB
 90
      255
102
RTVSPost2010PropOp44
 70
     1
102
RTVSPost2010Prop45
280
     0
102
RTVSPost2010PropOp45
 70
     1
102
RTVSPost2010Prop46
 90
       50
102
RTVSPost2010PropOp46
 70
     1
102
RTVSPost2010Prop47
 90
       50
102
RTVSPost2010PropOp47
 70
     1
102
RTVSPost2010Prop48
 90
       50
102
RTVSPost2010PropOp48
 70
     1
102
RTVSPost2010Prop49
280
     0
102
RTVSPost2010PropOp49
 70
     1
102
RTVSPost2010Prop50
 90
       50
102
RTVSPost2010PropOp50
 70
     1
102
RTVSPost2010Prop51ColorIndex
 90
      256
102
RTVSPost2010Prop51ColorRGB
 90
-16777216
102
RTVSPost2010PropOp51
 70
     0
102
RTVSPost2010Prop52
140
1.0
102
RTVSPost2010PropOp52
 70
     0
102
RTVSPost2010Prop53
 90
        2
102
RTVSPost2010PropOp53
 70
     1
102
RTVSPost2010Prop54
  1
strokes_ogs.tif
102
RTVSPost2010PropOp54
 70
     1
102
RTVSPost2010Prop55
280
     0
102
RTVSPost2010PropOp55
 70
     1
102
RTVSPost2010Prop56
140
1.0
102
RTVSPost2010PropOp56
 70
     1
102
RTVSPost2010Prop57
140
1.0
102
RTVSPost2010PropOp57
 70
     1
102
RTVSPropertyOp0
 70
     1
102
RTVSPropertyOp1
 70
     1
102
RTVSPropertyOp2
 70
     1
102
RTVSPropertyOp3
 70
     1
102
RTVSPropertyOp4
 70
     1
102
RTVSPropertyOp5
 70
     1
102
RTVSPropertyOp6
 70
     1
102
RTVSPropertyOp7
 70
     1
102
RTVSPropertyOp8
 70
     1
102
RTVSPropertyOp9
 70
     1
102
RTVSPropertyOp10
 70
     1
102
RTVSPropertyOp11
 70
     1
102
RTVSPropertyOp12
 70
     1
102
RTVSPropertyOp13
 70
     1
102
RTVSPropertyOp14
 70
     1
102
RTVSPropertyOp15
 70
     1
102
RTVSPropertyOp16
 70
     1
102
RTVSPropertyOp17
 70
     1
102
RTVSPropertyOp18
 70
     1
102
RTVSPropertyOp19
 70
     1
102
RTVSPropertyOp20
 70
     1
102
RTVSPropertyOp21
 70
     1
102
RTVSPropertyOp22
 70
     1
102
RTVSPropertyOp23
 70
     1
102
RTVSPropertyOp24
 70
     1
102
RTVSPropertyOp25
 70
     1
102
RTVSPropertyOp26
 70
     1
102
RTVSPropertyOp27
 70
     1
102
RTVSPropertyOp28
 70
     1
102
RTVSPropertyOp29
 70
     1
102
RTVSPropertyOp30
 70
     1
102
RTVSPropertyOp31
 70
     1
102
RTVSPropertyOp32
 70
     1
102
RTVSPropertyOp33
 70
     1
102
RTVSPropertyOp34
 70
     1
102
RTVSPropertyOp35
 70
     1
102
RTVSPropertyOp36
 70
     1
102
RTVSPropertyOp37
 70
     1
102
RTVSPropertyOp38
 70
     1
102
RTVSPropertyOp39
 70
     1
102
RTVSPropertyOp40
 70
     1
102
RTVSPropertyOp41
 70
     1
102
RTVSPropertyOp42
 70
     1
102
RTVSPropertyOp43
 70
     1
102
RTVSPropertyOp44
 70
     1
102
RTVSPropertyOp45
 70
     1
102
RTVSPropertyOp46
 70
     1
102
RTVSPropertyOp47
 70
     1
102
RTVSPropertyOp48
 70
     1
102
RTVSPropertyOp49
 70
     1
102
RTVSPropertyOp50
 70
     1
102
RTVSPropertyOp51
 70
     0
102
RTVSPropertyOp52
 70
     0
102
RTVSPropertyOp53
 70
     1
102
RTVSPropertyOp54
 70
     1
102
RTVSPropertyOp55
 70
     1
102
RTVSPropertyOp56
 70
     1
102
RTVSPropertyOp57
 70
     1
102
RTVSPropertyOp58
 70
     1
102
RTVSPropertyOp59
 70
     1
102
RTVSPropertyOp60
 70
     1
102
RTVSPropertyOp61
 70
     1
102
RTVSPropertyOp62
 70
     1
  0
XRECORD
  5
1843
102
{ACAD_REACTORS
330
1842
102
}
330
1842
100
AcDbXrecord
280
     1
102
RTVSPost2010Prop28
280
     0
102
RTVSPost2010PropOp28
 70
     1
102
RTVSPost2010Prop29
280
     1
102
RTVSPost2010PropOp29
 70
     1
102
RTVSPost2010Prop30
280
     1
102
RTVSPost2010PropOp30
 70
     1
102
RTVSPost2010Prop31
280
     0
102
RTVSPost2010PropOp31
 70
     1
102
RTVSPost2010Prop32
280
     0
102
RTVSPost2010PropOp32
 70
     1
102
RTVSPost2010Prop33
280
     0
102
RTVSPost2010PropOp33
 70
     1
102
RTVSPost2010Prop34
280
     0
102
RTVSPost2010PropOp34
 70
     1
102
RTVSPost2010Prop35
280
     0
102
RTVSPost2010PropOp35
 70
     1
102
RTVSPost2010Prop36
280
     0
102
RTVSPost2010PropOp36
 70
     1
102
RTVSPost2010Prop37
 90
       50
102
RTVSPost2010PropOp37
 70
     0
102
RTVSPost2010Prop38
140
0.0
102
RTVSPost2010PropOp38
 70
     0
102
RTVSPost2010Prop39
140
1.0
102
RTVSPost2010PropOp39
 70
     0
102
RTVSPost2010Prop40
 90
        0
102
RTVSPost2010PropOp40
 70
     0
102
RTVSPost2010Prop41ColorIndex
 90
       18
102
RTVSPost2010Prop41ColorRGB
 90
        0
102
RTVSPost2010PropOp41
 70
     0
102
RTVSPost2010Prop42
 90
       50
102
RTVSPost2010PropOp42
 70
     0
102
RTVSPost2010Prop43
 90
        3
102
RTVSPost2010PropOp43
 70
     0
102
RTVSPost2010Prop44ColorIndex
 90
        5
102
RTVSPost2010Prop44ColorRGB
 90
      255
102
RTVSPost2010PropOp44
 70
     0
102
RTVSPost2010Prop45
280
     0
102
RTVSPost2010PropOp45
 70
     1
102
RTVSPost2010Prop46
 90
       50
102
RTVSPost2010PropOp46
 70
     0
102
RTVSPost2010Prop47
 90
       50
102
RTVSPost2010PropOp47
 70
     0
102
RTVSPost2010Prop48
 90
       50
102
RTVSPost2010PropOp48
 70
     0
102
RTVSPost2010Prop49
280
     0
102
RTVSPost2010PropOp49
 70
     1
102
RTVSPost2010Prop50
 90
       50
102
RTVSPost2010PropOp50
 70
     0
102
RTVSPost2010Prop51ColorIndex
 90
      256
102
RTVSPost2010Prop51ColorRGB
 90
-16777216
102
RTVSPost2010PropOp51
 70
     0
102
RTVSPost2010Prop52
140
1.0
102
RTVSPost2010PropOp52
 70
     0
102
RTVSPost2010Prop53
 90
        2
102
RTVSPost2010PropOp53
 70
     0
102
RTVSPost2010Prop54
  1
strokes_ogs.tif
102
RTVSPost2010PropOp54
 70
     0
102
RTVSPost2010Prop55
280
     0
102
RTVSPost2010PropOp55
 70
     1
102
RTVSPost2010Prop56
140
1.0
102
RTVSPost2010PropOp56
 70
     0
102
RTVSPost2010Prop57
140
1.0
102
RTVSPost2010PropOp57
 70
     0
102
RTVSPropertyOp0
 70
     0
102
RTVSPropertyOp1
 70
     0
102
RTVSPropertyOp2
 70
     0
102
RTVSPropertyOp3
 70
     0
102
RTVSPropertyOp4
 70
     0
102
RTVSPropertyOp5
 70
     0
102
RTVSPropertyOp6
 70
     0
102
RTVSPropertyOp7
 70
     0
102
RTVSPropertyOp8
 70
     0
102
RTVSPropertyOp9
 70
     0
102
RTVSPropertyOp10
 70
     0
102
RTVSPropertyOp11
 70
     0
102
RTVSPropertyOp12
 70
     0
102
RTVSPropertyOp13
 70
     0
102
RTVSPropertyOp14
 70
     2
102
RTVSPropertyOp15
 70
     0
102
RTVSPropertyOp16
 70
     0
102
RTVSPropertyOp17
 70
     0
102
RTVSPropertyOp18
 70
     0
102
RTVSPropertyOp19
 70
     0
102
RTVSPropertyOp20
 70
     0
102
RTVSPropertyOp21
 70
     0
102
RTVSPropertyOp22
 70
     0
102
RTVSPropertyOp23
 70
     0
102
RTVSPropertyOp24
 70
     0
102
RTVSPropertyOp25
 70
     0
102
RTVSPropertyOp26
 70
     0
102
RTVSPropertyOp27
 70
     0
102
RTVSPropertyOp28
 70
     1
102
RTVSPropertyOp29
 70
     1
102
RTVSPropertyOp30
 70
     1
102
RTVSPropertyOp31
 70
     1
102
RTVSPropertyOp32
 70
     1
102
RTVSPropertyOp33
 70
     1
102
RTVSPropertyOp34
 70
     1
102
RTVSPropertyOp35
 70
     1
102
RTVSPropertyOp36
 70
     1
102
RTVSPropertyOp37
 70
     0
102
RTVSPropertyOp38
 70
     0
102
RTVSPropertyOp39
 70
     0
102
RTVSPropertyOp40
 70
     0
102
RTVSPropertyOp41
 70
     0
102
RTVSPropertyOp42
 70
     0
102
RTVSPropertyOp43
 70
     0
102
RTVSPropertyOp44
 70
     0
102
RTVSPropertyOp45
 70
     1
102
RTVSPropertyOp46
 70
     0
102
RTVSPropertyOp47
 70
     0
102
RTVSPropertyOp48
 70
     0
102
RTVSPropertyOp49
 70
     1
102
RTVSPropertyOp50
 70
     0
102
RTVSPropertyOp51
 70
     0
102
RTVSPropertyOp52
 70
     0
102
RTVSPropertyOp53
 70
     0
102
RTVSPropertyOp54
 70
     0
102
RTVSPropertyOp55
 70
     1
102
RTVSPropertyOp56
 70
     0
102
RTVSPropertyOp57
 70
     0
102
RTVSPropertyOp58
 70
     0
102
RTVSPropertyOp59
 70
     0
102
RTVSPropertyOp60
 70
     0
102
RTVSPropertyOp61
 70
     0
102
RTVSPropertyOp62
 70
     0
  0
XRECORD
  5
1829
102
{ACAD_REACTORS
330
1828
102
}
330
1828
100
AcDbXrecord
280
     1
102
RTVSPost2010Prop28
280
     0
102
RTVSPost2010PropOp28
 70
     1
102
RTVSPost2010Prop29
280
     1
102
RTVSPost2010PropOp29
 70
     1
102
RTVSPost2010Prop30
280
     1
102
RTVSPost2010PropOp30
 70
     1
102
RTVSPost2010Prop31
280
     0
102
RTVSPost2010PropOp31
 70
     1
102
RTVSPost2010Prop32
280
     0
102
RTVSPost2010PropOp32
 70
     1
102
RTVSPost2010Prop33
280
     0
102
RTVSPost2010PropOp33
 70
     1
102
RTVSPost2010Prop34
280
     0
102
RTVSPost2010PropOp34
 70
     1
102
RTVSPost2010Prop35
280
     0
102
RTVSPost2010PropOp35
 70
     1
102
RTVSPost2010Prop36
280
     0
102
RTVSPost2010PropOp36
 70
     1
102
RTVSPost2010Prop37
 90
       50
102
RTVSPost2010PropOp37
 70
     1
102
RTVSPost2010Prop38
140
0.0
102
RTVSPost2010PropOp38
 70
     1
102
RTVSPost2010Prop39
140
1.0
102
RTVSPost2010PropOp39
 70
     1
102
RTVSPost2010Prop40
 90
        0
102
RTVSPost2010PropOp40
 70
     1
102
RTVSPost2010Prop41ColorIndex
 90
       18
102
RTVSPost2010Prop41ColorRGB
 90
        0
102
RTVSPost2010PropOp41
 70
     1
102
RTVSPost2010Prop42
 90
       50
102
RTVSPost2010PropOp42
 70
     1
102
RTVSPost2010Prop43
 90
        3
102
RTVSPost2010PropOp43
 70
     1
102
RTVSPost2010Prop44ColorIndex
 90
        5
102
RTVSPost2010Prop44ColorRGB
 90
      255
102
RTVSPost2010PropOp44
 70
     1
102
RTVSPost2010Prop45
280
     0
102
RTVSPost2010PropOp45
 70
     1
102
RTVSPost2010Prop46
 90
       50
102
RTVSPost2010PropOp46
 70
     1
102
RTVSPost2010Prop47
 90
       50
102
RTVSPost2010PropOp47
 70
     1
102
RTVSPost2010Prop48
 90
       50
102
RTVSPost2010PropOp48
 70
     1
102
RTVSPost2010Prop49
280
     0
102
RTVSPost2010PropOp49
 70
     1
102
RTVSPost2010Prop50
 90
       50
102
RTVSPost2010PropOp50
 70
     1
102
RTVSPost2010Prop51ColorIndex
 90
      256
102
RTVSPost2010Prop51ColorRGB
 90
-16777216
102
RTVSPost2010PropOp51
 70
     0
102
RTVSPost2010Prop52
140
1.0
102
RTVSPost2010PropOp52
 70
     0
102
RTVSPost2010Prop53
 90
        2
102
RTVSPost2010PropOp53
 70
     1
102
RTVSPost2010Prop54
  1
strokes_ogs.tif
102
RTVSPost2010PropOp54
 70
     1
102
RTVSPost2010Prop55
280
     0
102
RTVSPost2010PropOp55
 70
     1
102
RTVSPost2010Prop56
140
1.0
102
RTVSPost2010PropOp56
 70
     1
102
RTVSPost2010Prop57
140
1.0
102
RTVSPost2010PropOp57
 70
     1
102
RTVSPropertyOp0
 70
     1
102
RTVSPropertyOp1
 70
     1
102
RTVSPropertyOp2
 70
     1
102
RTVSPropertyOp3
 70
     1
102
RTVSPropertyOp4
 70
     1
102
RTVSPropertyOp5
 70
     1
102
RTVSPropertyOp6
 70
     1
102
RTVSPropertyOp7
 70
     1
102
RTVSPropertyOp8
 70
     1
102
RTVSPropertyOp9
 70
     1
102
RTVSPropertyOp10
 70
     1
102
RTVSPropertyOp11
 70
     1
102
RTVSPropertyOp12
 70
     1
102
RTVSPropertyOp13
 70
     1
102
RTVSPropertyOp14
 70
     1
102
RTVSPropertyOp15
 70
     1
102
RTVSPropertyOp16
 70
     1
102
RTVSPropertyOp17
 70
     1
102
RTVSPropertyOp18
 70
     1
102
RTVSPropertyOp19
 70
     1
102
RTVSPropertyOp20
 70
     1
102
RTVSPropertyOp21
 70
     1
102
RTVSPropertyOp22
 70
     1
102
RTVSPropertyOp23
 70
     1
102
RTVSPropertyOp24
 70
     1
102
RTVSPropertyOp25
 70
     1
102
RTVSPropertyOp26
 70
     1
102
RTVSPropertyOp27
 70
     1
102
RTVSPropertyOp28
 70
     1
102
RTVSPropertyOp29
 70
     1
102
RTVSPropertyOp30
 70
     1
102
RTVSPropertyOp31
 70
     1
102
RTVSPropertyOp32
 70
     1
102
RTVSPropertyOp33
 70
     1
102
RTVSPropertyOp34
 70
     1
102
RTVSPropertyOp35
 70
     1
102
RTVSPropertyOp36
 70
     1
102
RTVSPropertyOp37
 70
     1
102
RTVSPropertyOp38
 70
     1
102
RTVSPropertyOp39
 70
     1
102
RTVSPropertyOp40
 70
     1
102
RTVSPropertyOp41
 70
     1
102
RTVSPropertyOp42
 70
     1
102
RTVSPropertyOp43
 70
     1
102
RTVSPropertyOp44
 70
     1
102
RTVSPropertyOp45
 70
     1
102
RTVSPropertyOp46
 70
     1
102
RTVSPropertyOp47
 70
     1
102
RTVSPropertyOp48
 70
     1
102
RTVSPropertyOp49
 70
     1
102
RTVSPropertyOp50
 70
     1
102
RTVSPropertyOp51
 70
     0
102
RTVSPropertyOp52
 70
     0
102
RTVSPropertyOp53
 70
     1
102
RTVSPropertyOp54
 70
     1
102
RTVSPropertyOp55
 70
     1
102
RTVSPropertyOp56
 70
     1
102
RTVSPropertyOp57
 70
     1
102
RTVSPropertyOp58
 70
     1
102
RTVSPropertyOp59
 70
     1
102
RTVSPropertyOp60
 70
     1
102
RTVSPropertyOp61
 70
     1
102
RTVSPropertyOp62
 70
     1
  0
XRECORD
  5
183F
102
{ACAD_REACTORS
330
183E
102
}
330
183E
100
AcDbXrecord
280
     1
102
RTVSPost2010Prop28
280
     0
102
RTVSPost2010PropOp28
 70
     1
102
RTVSPost2010Prop29
280
     1
102
RTVSPost2010PropOp29
 70
     1
102
RTVSPost2010Prop30
280
     1
102
RTVSPost2010PropOp30
 70
     1
102
RTVSPost2010Prop31
280
     0
102
RTVSPost2010PropOp31
 70
     1
102
RTVSPost2010Prop32
280
     0
102
RTVSPost2010PropOp32
 70
     1
102
RTVSPost2010Prop33
280
     0
102
RTVSPost2010PropOp33
 70
     1
102
RTVSPost2010Prop34
280
     0
102
RTVSPost2010PropOp34
 70
     1
102
RTVSPost2010Prop35
280
     0
102
RTVSPost2010PropOp35
 70
     1
102
RTVSPost2010Prop36
280
     0
102
RTVSPost2010PropOp36
 70
     1
102
RTVSPost2010Prop37
 90
       50
102
RTVSPost2010PropOp37
 70
     1
102
RTVSPost2010Prop38
140
0.0
102
RTVSPost2010PropOp38
 70
     1
102
RTVSPost2010Prop39
140
1.0
102
RTVSPost2010PropOp39
 70
     1
102
RTVSPost2010Prop40
 90
        0
102
RTVSPost2010PropOp40
 70
     1
102
RTVSPost2010Prop41ColorIndex
 90
       18
102
RTVSPost2010Prop41ColorRGB
 90
        0
102
RTVSPost2010PropOp41
 70
     1
102
RTVSPost2010Prop42
 90
       50
102
RTVSPost2010PropOp42
 70
     1
102
RTVSPost2010Prop43
 90
        3
102
RTVSPost2010PropOp43
 70
     1
102
RTVSPost2010Prop44ColorIndex
 90
        5
102
RTVSPost2010Prop44ColorRGB
 90
      255
102
RTVSPost2010PropOp44
 70
     1
102
RTVSPost2010Prop45
280
     0
102
RTVSPost2010PropOp45
 70
     1
102
RTVSPost2010Prop46
 90
       50
102
RTVSPost2010PropOp46
 70
     1
102
RTVSPost2010Prop47
 90
       50
102
RTVSPost2010PropOp47
 70
     1
102
RTVSPost2010Prop48
 90
       50
102
RTVSPost2010PropOp48
 70
     1
102
RTVSPost2010Prop49
280
     0
102
RTVSPost2010PropOp49
 70
     1
102
RTVSPost2010Prop50
 90
       50
102
RTVSPost2010PropOp50
 70
     1
102
RTVSPost2010Prop51ColorIndex
 90
      256
102
RTVSPost2010Prop51ColorRGB
 90
-16777216
102
RTVSPost2010PropOp51
 70
     0
102
RTVSPost2010Prop52
140
1.0
102
RTVSPost2010PropOp52
 70
     0
102
RTVSPost2010Prop53
 90
        2
102
RTVSPost2010PropOp53
 70
     1
102
RTVSPost2010Prop54
  1
strokes_ogs.tif
102
RTVSPost2010PropOp54
 70
     1
102
RTVSPost2010Prop55
280
     0
102
RTVSPost2010PropOp55
 70
     1
102
RTVSPost2010Prop56
140
1.0
102
RTVSPost2010PropOp56
 70
     1
102
RTVSPost2010Prop57
140
1.0
102
RTVSPost2010PropOp57
 70
     1
102
RTVSPropertyOp0
 70
     1
102
RTVSPropertyOp1
 70
     1
102
RTVSPropertyOp2
 70
     1
102
RTVSPropertyOp3
 70
     1
102
RTVSPropertyOp4
 70
     1
102
RTVSPropertyOp5
 70
     1
102
RTVSPropertyOp6
 70
     1
102
RTVSPropertyOp7
 70
     1
102
RTVSPropertyOp8
 70
     1
102
RTVSPropertyOp9
 70
     1
102
RTVSPropertyOp10
 70
     1
102
RTVSPropertyOp11
 70
     1
102
RTVSPropertyOp12
 70
     1
102
RTVSPropertyOp13
 70
     1
102
RTVSPropertyOp14
 70
     1
102
RTVSPropertyOp15
 70
     1
102
RTVSPropertyOp16
 70
     1
102
RTVSPropertyOp17
 70
     1
102
RTVSPropertyOp18
 70
     1
102
RTVSPropertyOp19
 70
     1
102
RTVSPropertyOp20
 70
     1
102
RTVSPropertyOp21
 70
     1
102
RTVSPropertyOp22
 70
     1
102
RTVSPropertyOp23
 70
     1
102
RTVSPropertyOp24
 70
     1
102
RTVSPropertyOp25
 70
     1
102
RTVSPropertyOp26
 70
     1
102
RTVSPropertyOp27
 70
     1
102
RTVSPropertyOp28
 70
     1
102
RTVSPropertyOp29
 70
     1
102
RTVSPropertyOp30
 70
     1
102
RTVSPropertyOp31
 70
     1
102
RTVSPropertyOp32
 70
     1
102
RTVSPropertyOp33
 70
     1
102
RTVSPropertyOp34
 70
     1
102
RTVSPropertyOp35
 70
     1
102
RTVSPropertyOp36
 70
     1
102
RTVSPropertyOp37
 70
     1
102
RTVSPropertyOp38
 70
     1
102
RTVSPropertyOp39
 70
     1
102
RTVSPropertyOp40
 70
     1
102
RTVSPropertyOp41
 70
     1
102
RTVSPropertyOp42
 70
     1
102
RTVSPropertyOp43
 70
     1
102
RTVSPropertyOp44
 70
     1
102
RTVSPropertyOp45
 70
     1
102
RTVSPropertyOp46
 70
     1
102
RTVSPropertyOp47
 70
     1
102
RTVSPropertyOp48
 70
     1
102
RTVSPropertyOp49
 70
     1
102
RTVSPropertyOp50
 70
     1
102
RTVSPropertyOp51
 70
     0
102
RTVSPropertyOp52
 70
     0
102
RTVSPropertyOp53
 70
     1
102
RTVSPropertyOp54
 70
     1
102
RTVSPropertyOp55
 70
     1
102
RTVSPropertyOp56
 70
     1
102
RTVSPropertyOp57
 70
     1
102
RTVSPropertyOp58
 70
     1
102
RTVSPropertyOp59
 70
     1
102
RTVSPropertyOp60
 70
     1
102
RTVSPropertyOp61
 70
     1
102
RTVSPropertyOp62
 70
     1
  0
XRECORD
  5
183D
102
{ACAD_REACTORS
330
183C
102
}
330
183C
100
AcDbXrecord
280
     1
102
RTVSPost2010Prop28
280
     0
102
RTVSPost2010PropOp28
 70
     1
102
RTVSPost2010Prop29
280
     1
102
RTVSPost2010PropOp29
 70
     1
102
RTVSPost2010Prop30
280
     1
102
RTVSPost2010PropOp30
 70
     1
102
RTVSPost2010Prop31
280
     0
102
RTVSPost2010PropOp31
 70
     1
102
RTVSPost2010Prop32
280
     0
102
RTVSPost2010PropOp32
 70
     1
102
RTVSPost2010Prop33
280
     0
102
RTVSPost2010PropOp33
 70
     1
102
RTVSPost2010Prop34
280
     0
102
RTVSPost2010PropOp34
 70
     1
102
RTVSPost2010Prop35
280
     0
102
RTVSPost2010PropOp35
 70
     1
102
RTVSPost2010Prop36
280
     0
102
RTVSPost2010PropOp36
 70
     1
102
RTVSPost2010Prop37
 90
       50
102
RTVSPost2010PropOp37
 70
     1
102
RTVSPost2010Prop38
140
0.0
102
RTVSPost2010PropOp38
 70
     1
102
RTVSPost2010Prop39
140
1.0
102
RTVSPost2010PropOp39
 70
     1
102
RTVSPost2010Prop40
 90
        0
102
RTVSPost2010PropOp40
 70
     1
102
RTVSPost2010Prop41ColorIndex
 90
       18
102
RTVSPost2010Prop41ColorRGB
 90
        0
102
RTVSPost2010PropOp41
 70
     1
102
RTVSPost2010Prop42
 90
       50
102
RTVSPost2010PropOp42
 70
     1
102
RTVSPost2010Prop43
 90
        3
102
RTVSPost2010PropOp43
 70
     1
102
RTVSPost2010Prop44ColorIndex
 90
        5
102
RTVSPost2010Prop44ColorRGB
 90
      255
102
RTVSPost2010PropOp44
 70
     1
102
RTVSPost2010Prop45
280
     0
102
RTVSPost2010PropOp45
 70
     1
102
RTVSPost2010Prop46
 90
       50
102
RTVSPost2010PropOp46
 70
     1
102
RTVSPost2010Prop47
 90
       50
102
RTVSPost2010PropOp47
 70
     1
102
RTVSPost2010Prop48
 90
       50
102
RTVSPost2010PropOp48
 70
     1
102
RTVSPost2010Prop49
280
     0
102
RTVSPost2010PropOp49
 70
     1
102
RTVSPost2010Prop50
 90
       50
102
RTVSPost2010PropOp50
 70
     1
102
RTVSPost2010Prop51ColorIndex
 90
      256
102
RTVSPost2010Prop51ColorRGB
 90
-16777216
102
RTVSPost2010PropOp51
 70
     0
102
RTVSPost2010Prop52
140
1.0
102
RTVSPost2010PropOp52
 70
     0
102
RTVSPost2010Prop53
 90
        2
102
RTVSPost2010PropOp53
 70
     1
102
RTVSPost2010Prop54
  1
strokes_ogs.tif
102
RTVSPost2010PropOp54
 70
     1
102
RTVSPost2010Prop55
280
     0
102
RTVSPost2010PropOp55
 70
     1
102
RTVSPost2010Prop56
140
1.0
102
RTVSPost2010PropOp56
 70
     1
102
RTVSPost2010Prop57
140
1.0
102
RTVSPost2010PropOp57
 70
     1
102
RTVSPropertyOp0
 70
     1
102
RTVSPropertyOp1
 70
     1
102
RTVSPropertyOp2
 70
     1
102
RTVSPropertyOp3
 70
     1
102
RTVSPropertyOp4
 70
     1
102
RTVSPropertyOp5
 70
     1
102
RTVSPropertyOp6
 70
     1
102
RTVSPropertyOp7
 70
     1
102
RTVSPropertyOp8
 70
     1
102
RTVSPropertyOp9
 70
     1
102
RTVSPropertyOp10
 70
     1
102
RTVSPropertyOp11
 70
     1
102
RTVSPropertyOp12
 70
     1
102
RTVSPropertyOp13
 70
     1
102
RTVSPropertyOp14
 70
     1
102
RTVSPropertyOp15
 70
     1
102
RTVSPropertyOp16
 70
     1
102
RTVSPropertyOp17
 70
     1
102
RTVSPropertyOp18
 70
     1
102
RTVSPropertyOp19
 70
     1
102
RTVSPropertyOp20
 70
     1
102
RTVSPropertyOp21
 70
     1
102
RTVSPropertyOp22
 70
     1
102
RTVSPropertyOp23
 70
     1
102
RTVSPropertyOp24
 70
     1
102
RTVSPropertyOp25
 70
     1
102
RTVSPropertyOp26
 70
     1
102
RTVSPropertyOp27
 70
     1
102
RTVSPropertyOp28
 70
     1
102
RTVSPropertyOp29
 70
     1
102
RTVSPropertyOp30
 70
     1
102
RTVSPropertyOp31
 70
     1
102
RTVSPropertyOp32
 70
     1
102
RTVSPropertyOp33
 70
     1
102
RTVSPropertyOp34
 70
     1
102
RTVSPropertyOp35
 70
     1
102
RTVSPropertyOp36
 70
     1
102
RTVSPropertyOp37
 70
     1
102
RTVSPropertyOp38
 70
     1
102
RTVSPropertyOp39
 70
     1
102
RTVSPropertyOp40
 70
     1
102
RTVSPropertyOp41
 70
     1
102
RTVSPropertyOp42
 70
     1
102
RTVSPropertyOp43
 70
     1
102
RTVSPropertyOp44
 70
     1
102
RTVSPropertyOp45
 70
     1
102
RTVSPropertyOp46
 70
     1
102
RTVSPropertyOp47
 70
     1
102
RTVSPropertyOp48
 70
     1
102
RTVSPropertyOp49
 70
     1
102
RTVSPropertyOp50
 70
     1
102
RTVSPropertyOp51
 70
     0
102
RTVSPropertyOp52
 70
     0
102
RTVSPropertyOp53
 70
     1
102
RTVSPropertyOp54
 70
     1
102
RTVSPropertyOp55
 70
     1
102
RTVSPropertyOp56
 70
     1
102
RTVSPropertyOp57
 70
     1
102
RTVSPropertyOp58
 70
     1
102
RTVSPropertyOp59
 70
     1
102
RTVSPropertyOp60
 70
     1
102
RTVSPropertyOp61
 70
     1
102
RTVSPropertyOp62
 70
     1
  0
XRECORD
  5
1837
102
{ACAD_REACTORS
330
1836
102
}
330
1836
100
AcDbXrecord
280
     1
102
RTVSPost2010Prop28
280
     0
102
RTVSPost2010PropOp28
 70
     1
102
RTVSPost2010Prop29
280
     1
102
RTVSPost2010PropOp29
 70
     1
102
RTVSPost2010Prop30
280
     1
102
RTVSPost2010PropOp30
 70
     1
102
RTVSPost2010Prop31
280
     0
102
RTVSPost2010PropOp31
 70
     1
102
RTVSPost2010Prop32
280
     0
102
RTVSPost2010PropOp32
 70
     1
102
RTVSPost2010Prop33
280
     0
102
RTVSPost2010PropOp33
 70
     1
102
RTVSPost2010Prop34
280
     0
102
RTVSPost2010PropOp34
 70
     1
102
RTVSPost2010Prop35
280
     0
102
RTVSPost2010PropOp35
 70
     1
102
RTVSPost2010Prop36
280
     0
102
RTVSPost2010PropOp36
 70
     1
102
RTVSPost2010Prop37
 90
       50
102
RTVSPost2010PropOp37
 70
     1
102
RTVSPost2010Prop38
140
0.0
102
RTVSPost2010PropOp38
 70
     1
102
RTVSPost2010Prop39
140
1.0
102
RTVSPost2010PropOp39
 70
     1
102
RTVSPost2010Prop40
 90
        0
102
RTVSPost2010PropOp40
 70
     1
102
RTVSPost2010Prop41ColorIndex
 90
       18
102
RTVSPost2010Prop41ColorRGB
 90
        0
102
RTVSPost2010PropOp41
 70
     1
102
RTVSPost2010Prop42
 90
       50
102
RTVSPost2010PropOp42
 70
     1
102
RTVSPost2010Prop43
 90
        3
102
RTVSPost2010PropOp43
 70
     1
102
RTVSPost2010Prop44ColorIndex
 90
        5
102
RTVSPost2010Prop44ColorRGB
 90
      255
102
RTVSPost2010PropOp44
 70
     1
102
RTVSPost2010Prop45
280
     0
102
RTVSPost2010PropOp45
 70
     1
102
RTVSPost2010Prop46
 90
       50
102
RTVSPost2010PropOp46
 70
     1
102
RTVSPost2010Prop47
 90
       50
102
RTVSPost2010PropOp47
 70
     1
102
RTVSPost2010Prop48
 90
       50
102
RTVSPost2010PropOp48
 70
     1
102
RTVSPost2010Prop49
280
     0
102
RTVSPost2010PropOp49
 70
     1
102
RTVSPost2010Prop50
 90
       50
102
RTVSPost2010PropOp50
 70
     1
102
RTVSPost2010Prop51ColorIndex
 90
      256
102
RTVSPost2010Prop51ColorRGB
 90
-16777216
102
RTVSPost2010PropOp51
 70
     0
102
RTVSPost2010Prop52
140
1.0
102
RTVSPost2010PropOp52
 70
     0
102
RTVSPost2010Prop53
 90
        2
102
RTVSPost2010PropOp53
 70
     1
102
RTVSPost2010Prop54
  1
strokes_ogs.tif
102
RTVSPost2010PropOp54
 70
     1
102
RTVSPost2010Prop55
280
     0
102
RTVSPost2010PropOp55
 70
     1
102
RTVSPost2010Prop56
140
1.0
102
RTVSPost2010PropOp56
 70
     1
102
RTVSPost2010Prop57
140
1.0
102
RTVSPost2010PropOp57
 70
     1
102
RTVSPropertyOp0
 70
     1
102
RTVSPropertyOp1
 70
     1
102
RTVSPropertyOp2
 70
     1
102
RTVSPropertyOp3
 70
     1
102
RTVSPropertyOp4
 70
     1
102
RTVSPropertyOp5
 70
     1
102
RTVSPropertyOp6
 70
     1
102
RTVSPropertyOp7
 70
     1
102
RTVSPropertyOp8
 70
     1
102
RTVSPropertyOp9
 70
     1
102
RTVSPropertyOp10
 70
     1
102
RTVSPropertyOp11
 70
     1
102
RTVSPropertyOp12
 70
     1
102
RTVSPropertyOp13
 70
     1
102
RTVSPropertyOp14
 70
     1
102
RTVSPropertyOp15
 70
     1
102
RTVSPropertyOp16
 70
     1
102
RTVSPropertyOp17
 70
     1
102
RTVSPropertyOp18
 70
     1
102
RTVSPropertyOp19
 70
     1
102
RTVSPropertyOp20
 70
     1
102
RTVSPropertyOp21
 70
     1
102
RTVSPropertyOp22
 70
     1
102
RTVSPropertyOp23
 70
     1
102
RTVSPropertyOp24
 70
     1
102
RTVSPropertyOp25
 70
     1
102
RTVSPropertyOp26
 70
     1
102
RTVSPropertyOp27
 70
     1
102
RTVSPropertyOp28
 70
     1
102
RTVSPropertyOp29
 70
     1
102
RTVSPropertyOp30
 70
     1
102
RTVSPropertyOp31
 70
     1
102
RTVSPropertyOp32
 70
     1
102
RTVSPropertyOp33
 70
     1
102
RTVSPropertyOp34
 70
     1
102
RTVSPropertyOp35
 70
     1
102
RTVSPropertyOp36
 70
     1
102
RTVSPropertyOp37
 70
     1
102
RTVSPropertyOp38
 70
     1
102
RTVSPropertyOp39
 70
     1
102
RTVSPropertyOp40
 70
     1
102
RTVSPropertyOp41
 70
     1
102
RTVSPropertyOp42
 70
     1
102
RTVSPropertyOp43
 70
     1
102
RTVSPropertyOp44
 70
     1
102
RTVSPropertyOp45
 70
     1
102
RTVSPropertyOp46
 70
     1
102
RTVSPropertyOp47
 70
     1
102
RTVSPropertyOp48
 70
     1
102
RTVSPropertyOp49
 70
     1
102
RTVSPropertyOp50
 70
     1
102
RTVSPropertyOp51
 70
     0
102
RTVSPropertyOp52
 70
     0
102
RTVSPropertyOp53
 70
     1
102
RTVSPropertyOp54
 70
     1
102
RTVSPropertyOp55
 70
     1
102
RTVSPropertyOp56
 70
     1
102
RTVSPropertyOp57
 70
     1
102
RTVSPropertyOp58
 70
     1
102
RTVSPropertyOp59
 70
     1
102
RTVSPropertyOp60
 70
     1
102
RTVSPropertyOp61
 70
     1
102
RTVSPropertyOp62
 70
     1
  0
XRECORD
  5
1839
102
{ACAD_REACTORS
330
1838
102
}
330
1838
100
AcDbXrecord
280
     1
102
RTVSPost2010Prop28
280
     0
102
RTVSPost2010PropOp28
 70
     1
102
RTVSPost2010Prop29
280
     1
102
RTVSPost2010PropOp29
 70
     1
102
RTVSPost2010Prop30
280
     1
102
RTVSPost2010PropOp30
 70
     1
102
RTVSPost2010Prop31
280
     0
102
RTVSPost2010PropOp31
 70
     1
102
RTVSPost2010Prop32
280
     0
102
RTVSPost2010PropOp32
 70
     1
102
RTVSPost2010Prop33
280
     0
102
RTVSPost2010PropOp33
 70
     1
102
RTVSPost2010Prop34
280
     0
102
RTVSPost2010PropOp34
 70
     1
102
RTVSPost2010Prop35
280
     0
102
RTVSPost2010PropOp35
 70
     1
102
RTVSPost2010Prop36
280
     0
102
RTVSPost2010PropOp36
 70
     1
102
RTVSPost2010Prop37
 90
       50
102
RTVSPost2010PropOp37
 70
     1
102
RTVSPost2010Prop38
140
0.0
102
RTVSPost2010PropOp38
 70
     1
102
RTVSPost2010Prop39
140
1.0
102
RTVSPost2010PropOp39
 70
     1
102
RTVSPost2010Prop40
 90
        0
102
RTVSPost2010PropOp40
 70
     1
102
RTVSPost2010Prop41ColorIndex
 90
       18
102
RTVSPost2010Prop41ColorRGB
 90
        0
102
RTVSPost2010PropOp41
 70
     1
102
RTVSPost2010Prop42
 90
       50
102
RTVSPost2010PropOp42
 70
     1
102
RTVSPost2010Prop43
 90
        3
102
RTVSPost2010PropOp43
 70
     1
102
RTVSPost2010Prop44ColorIndex
 90
        5
102
RTVSPost2010Prop44ColorRGB
 90
      255
102
RTVSPost2010PropOp44
 70
     1
102
RTVSPost2010Prop45
280
     0
102
RTVSPost2010PropOp45
 70
     1
102
RTVSPost2010Prop46
 90
       50
102
RTVSPost2010PropOp46
 70
     1
102
RTVSPost2010Prop47
 90
       50
102
RTVSPost2010PropOp47
 70
     1
102
RTVSPost2010Prop48
 90
       50
102
RTVSPost2010PropOp48
 70
     1
102
RTVSPost2010Prop49
280
     0
102
RTVSPost2010PropOp49
 70
     1
102
RTVSPost2010Prop50
 90
       50
102
RTVSPost2010PropOp50
 70
     1
102
RTVSPost2010Prop51ColorIndex
 90
      256
102
RTVSPost2010Prop51ColorRGB
 90
-16777216
102
RTVSPost2010PropOp51
 70
     0
102
RTVSPost2010Prop52
140
1.0
102
RTVSPost2010PropOp52
 70
     0
102
RTVSPost2010Prop53
 90
        2
102
RTVSPost2010PropOp53
 70
     1
102
RTVSPost2010Prop54
  1
strokes_ogs.tif
102
RTVSPost2010PropOp54
 70
     1
102
RTVSPost2010Prop55
280
     0
102
RTVSPost2010PropOp55
 70
     1
102
RTVSPost2010Prop56
140
1.0
102
RTVSPost2010PropOp56
 70
     1
102
RTVSPost2010Prop57
140
1.0
102
RTVSPost2010PropOp57
 70
     1
102
RTVSPropertyOp0
 70
     1
102
RTVSPropertyOp1
 70
     1
102
RTVSPropertyOp2
 70
     1
102
RTVSPropertyOp3
 70
     1
102
RTVSPropertyOp4
 70
     1
102
RTVSPropertyOp5
 70
     1
102
RTVSPropertyOp6
 70
     1
102
RTVSPropertyOp7
 70
     1
102
RTVSPropertyOp8
 70
     1
102
RTVSPropertyOp9
 70
     1
102
RTVSPropertyOp10
 70
     1
102
RTVSPropertyOp11
 70
     1
102
RTVSPropertyOp12
 70
     1
102
RTVSPropertyOp13
 70
     1
102
RTVSPropertyOp14
 70
     1
102
RTVSPropertyOp15
 70
     1
102
RTVSPropertyOp16
 70
     1
102
RTVSPropertyOp17
 70
     1
102
RTVSPropertyOp18
 70
     1
102
RTVSPropertyOp19
 70
     1
102
RTVSPropertyOp20
 70
     1
102
RTVSPropertyOp21
 70
     1
102
RTVSPropertyOp22
 70
     1
102
RTVSPropertyOp23
 70
     1
102
RTVSPropertyOp24
 70
     1
102
RTVSPropertyOp25
 70
     1
102
RTVSPropertyOp26
 70
     1
102
RTVSPropertyOp27
 70
     1
102
RTVSPropertyOp28
 70
     1
102
RTVSPropertyOp29
 70
     1
102
RTVSPropertyOp30
 70
     1
102
RTVSPropertyOp31
 70
     1
102
RTVSPropertyOp32
 70
     1
102
RTVSPropertyOp33
 70
     1
102
RTVSPropertyOp34
 70
     1
102
RTVSPropertyOp35
 70
     1
102
RTVSPropertyOp36
 70
     1
102
RTVSPropertyOp37
 70
     1
102
RTVSPropertyOp38
 70
     1
102
RTVSPropertyOp39
 70
     1
102
RTVSPropertyOp40
 70
     1
102
RTVSPropertyOp41
 70
     1
102
RTVSPropertyOp42
 70
     1
102
RTVSPropertyOp43
 70
     1
102
RTVSPropertyOp44
 70
     1
102
RTVSPropertyOp45
 70
     1
102
RTVSPropertyOp46
 70
     1
102
RTVSPropertyOp47
 70
     1
102
RTVSPropertyOp48
 70
     1
102
RTVSPropertyOp49
 70
     1
102
RTVSPropertyOp50
 70
     1
102
RTVSPropertyOp51
 70
     0
102
RTVSPropertyOp52
 70
     0
102
RTVSPropertyOp53
 70
     1
102
RTVSPropertyOp54
 70
     1
102
RTVSPropertyOp55
 70
     1
102
RTVSPropertyOp56
 70
     1
102
RTVSPropertyOp57
 70
     1
102
RTVSPropertyOp58
 70
     1
102
RTVSPropertyOp59
 70
     1
102
RTVSPropertyOp60
 70
     1
102
RTVSPropertyOp61
 70
     1
102
RTVSPropertyOp62
 70
     1
  0
XRECORD
  5
182F
102
{ACAD_REACTORS
330
182E
102
}
330
182E
100
AcDbXrecord
280
     1
102
RTVSPost2010Prop28
280
     0
102
RTVSPost2010PropOp28
 70
     1
102
RTVSPost2010Prop29
280
     1
102
RTVSPost2010PropOp29
 70
     1
102
RTVSPost2010Prop30
280
     1
102
RTVSPost2010PropOp30
 70
     1
102
RTVSPost2010Prop31
280
     0
102
RTVSPost2010PropOp31
 70
     1
102
RTVSPost2010Prop32
280
     0
102
RTVSPost2010PropOp32
 70
     1
102
RTVSPost2010Prop33
280
     0
102
RTVSPost2010PropOp33
 70
     1
102
RTVSPost2010Prop34
280
     0
102
RTVSPost2010PropOp34
 70
     1
102
RTVSPost2010Prop35
280
     0
102
RTVSPost2010PropOp35
 70
     1
102
RTVSPost2010Prop36
280
     0
102
RTVSPost2010PropOp36
 70
     1
102
RTVSPost2010Prop37
 90
       50
102
RTVSPost2010PropOp37
 70
     1
102
RTVSPost2010Prop38
140
0.0
102
RTVSPost2010PropOp38
 70
     1
102
RTVSPost2010Prop39
140
1.0
102
RTVSPost2010PropOp39
 70
     1
102
RTVSPost2010Prop40
 90
        0
102
RTVSPost2010PropOp40
 70
     1
102
RTVSPost2010Prop41ColorIndex
 90
       18
102
RTVSPost2010Prop41ColorRGB
 90
        0
102
RTVSPost2010PropOp41
 70
     1
102
RTVSPost2010Prop42
 90
       50
102
RTVSPost2010PropOp42
 70
     1
102
RTVSPost2010Prop43
 90
        3
102
RTVSPost2010PropOp43
 70
     1
102
RTVSPost2010Prop44ColorIndex
 90
        5
102
RTVSPost2010Prop44ColorRGB
 90
      255
102
RTVSPost2010PropOp44
 70
     1
102
RTVSPost2010Prop45
280
     0
102
RTVSPost2010PropOp45
 70
     1
102
RTVSPost2010Prop46
 90
       50
102
RTVSPost2010PropOp46
 70
     1
102
RTVSPost2010Prop47
 90
       50
102
RTVSPost2010PropOp47
 70
     1
102
RTVSPost2010Prop48
 90
       50
102
RTVSPost2010PropOp48
 70
     1
102
RTVSPost2010Prop49
280
     0
102
RTVSPost2010PropOp49
 70
     1
102
RTVSPost2010Prop50
 90
       50
102
RTVSPost2010PropOp50
 70
     1
102
RTVSPost2010Prop51ColorIndex
 90
      256
102
RTVSPost2010Prop51ColorRGB
 90
-16777216
102
RTVSPost2010PropOp51
 70
     0
102
RTVSPost2010Prop52
140
1.0
102
RTVSPost2010PropOp52
 70
     0
102
RTVSPost2010Prop53
 90
        2
102
RTVSPost2010PropOp53
 70
     1
102
RTVSPost2010Prop54
  1
strokes_ogs.tif
102
RTVSPost2010PropOp54
 70
     1
102
RTVSPost2010Prop55
280
     0
102
RTVSPost2010PropOp55
 70
     1
102
RTVSPost2010Prop56
140
1.0
102
RTVSPost2010PropOp56
 70
     1
102
RTVSPost2010Prop57
140
1.0
102
RTVSPost2010PropOp57
 70
     1
102
RTVSPropertyOp0
 70
     1
102
RTVSPropertyOp1
 70
     1
102
RTVSPropertyOp2
 70
     1
102
RTVSPropertyOp3
 70
     1
102
RTVSPropertyOp4
 70
     1
102
RTVSPropertyOp5
 70
     1
102
RTVSPropertyOp6
 70
     1
102
RTVSPropertyOp7
 70
     1
102
RTVSPropertyOp8
 70
     1
102
RTVSPropertyOp9
 70
     1
102
RTVSPropertyOp10
 70
     1
102
RTVSPropertyOp11
 70
     1
102
RTVSPropertyOp12
 70
     1
102
RTVSPropertyOp13
 70
     1
102
RTVSPropertyOp14
 70
     1
102
RTVSPropertyOp15
 70
     1
102
RTVSPropertyOp16
 70
     1
102
RTVSPropertyOp17
 70
     1
102
RTVSPropertyOp18
 70
     1
102
RTVSPropertyOp19
 70
     1
102
RTVSPropertyOp20
 70
     1
102
RTVSPropertyOp21
 70
     1
102
RTVSPropertyOp22
 70
     1
102
RTVSPropertyOp23
 70
     1
102
RTVSPropertyOp24
 70
     1
102
RTVSPropertyOp25
 70
     1
102
RTVSPropertyOp26
 70
     1
102
RTVSPropertyOp27
 70
     1
102
RTVSPropertyOp28
 70
     1
102
RTVSPropertyOp29
 70
     1
102
RTVSPropertyOp30
 70
     1
102
RTVSPropertyOp31
 70
     1
102
RTVSPropertyOp32
 70
     1
102
RTVSPropertyOp33
 70
     1
102
RTVSPropertyOp34
 70
     1
102
RTVSPropertyOp35
 70
     1
102
RTVSPropertyOp36
 70
     1
102
RTVSPropertyOp37
 70
     1
102
RTVSPropertyOp38
 70
     1
102
RTVSPropertyOp39
 70
     1
102
RTVSPropertyOp40
 70
     1
102
RTVSPropertyOp41
 70
     1
102
RTVSPropertyOp42
 70
     1
102
RTVSPropertyOp43
 70
     1
102
RTVSPropertyOp44
 70
     1
102
RTVSPropertyOp45
 70
     1
102
RTVSPropertyOp46
 70
     1
102
RTVSPropertyOp47
 70
     1
102
RTVSPropertyOp48
 70
     1
102
RTVSPropertyOp49
 70
     1
102
RTVSPropertyOp50
 70
     1
102
RTVSPropertyOp51
 70
     0
102
RTVSPropertyOp52
 70
     0
102
RTVSPropertyOp53
 70
     1
102
RTVSPropertyOp54
 70
     1
102
RTVSPropertyOp55
 70
     1
102
RTVSPropertyOp56
 70
     1
102
RTVSPropertyOp57
 70
     1
102
RTVSPropertyOp58
 70
     1
102
RTVSPropertyOp59
 70
     1
102
RTVSPropertyOp60
 70
     1
102
RTVSPropertyOp61
 70
     1
102
RTVSPropertyOp62
 70
     1
  0
XRECORD
  5
1823
102
{ACAD_REACTORS
330
1822
102
}
330
1822
100
AcDbXrecord
280
     1
102
RTVSPost2010Prop28
280
     0
102
RTVSPost2010PropOp28
 70
     1
102
RTVSPost2010Prop29
280
     1
102
RTVSPost2010PropOp29
 70
     1
102
RTVSPost2010Prop30
280
     1
102
RTVSPost2010PropOp30
 70
     1
102
RTVSPost2010Prop31
280
     0
102
RTVSPost2010PropOp31
 70
     1
102
RTVSPost2010Prop32
280
     0
102
RTVSPost2010PropOp32
 70
     1
102
RTVSPost2010Prop33
280
     0
102
RTVSPost2010PropOp33
 70
     1
102
RTVSPost2010Prop34
280
     0
102
RTVSPost2010PropOp34
 70
     1
102
RTVSPost2010Prop35
280
     0
102
RTVSPost2010PropOp35
 70
     1
102
RTVSPost2010Prop36
280
     0
102
RTVSPost2010PropOp36
 70
     1
102
RTVSPost2010Prop37
 90
       50
102
RTVSPost2010PropOp37
 70
     1
102
RTVSPost2010Prop38
140
0.0
102
RTVSPost2010PropOp38
 70
     1
102
RTVSPost2010Prop39
140
1.0
102
RTVSPost2010PropOp39
 70
     1
102
RTVSPost2010Prop40
 90
        0
102
RTVSPost2010PropOp40
 70
     1
102
RTVSPost2010Prop41ColorIndex
 90
       18
102
RTVSPost2010Prop41ColorRGB
 90
        0
102
RTVSPost2010PropOp41
 70
     1
102
RTVSPost2010Prop42
 90
       50
102
RTVSPost2010PropOp42
 70
     1
102
RTVSPost2010Prop43
 90
        3
102
RTVSPost2010PropOp43
 70
     1
102
RTVSPost2010Prop44ColorIndex
 90
        5
102
RTVSPost2010Prop44ColorRGB
 90
      255
102
RTVSPost2010PropOp44
 70
     1
102
RTVSPost2010Prop45
280
     0
102
RTVSPost2010PropOp45
 70
     1
102
RTVSPost2010Prop46
 90
       50
102
RTVSPost2010PropOp46
 70
     1
102
RTVSPost2010Prop47
 90
       50
102
RTVSPost2010PropOp47
 70
     1
102
RTVSPost2010Prop48
 90
       50
102
RTVSPost2010PropOp48
 70
     1
102
RTVSPost2010Prop49
280
     0
102
RTVSPost2010PropOp49
 70
     1
102
RTVSPost2010Prop50
 90
       50
102
RTVSPost2010PropOp50
 70
     1
102
RTVSPost2010Prop51ColorIndex
 90
      256
102
RTVSPost2010Prop51ColorRGB
 90
-16777216
102
RTVSPost2010PropOp51
 70
     0
102
RTVSPost2010Prop52
140
1.0
102
RTVSPost2010PropOp52
 70
     0
102
RTVSPost2010Prop53
 90
        2
102
RTVSPost2010PropOp53
 70
     1
102
RTVSPost2010Prop54
  1
strokes_ogs.tif
102
RTVSPost2010PropOp54
 70
     1
102
RTVSPost2010Prop55
280
     0
102
RTVSPost2010PropOp55
 70
     1
102
RTVSPost2010Prop56
140
1.0
102
RTVSPost2010PropOp56
 70
     1
102
RTVSPost2010Prop57
140
1.0
102
RTVSPost2010PropOp57
 70
     1
102
RTVSPropertyOp0
 70
     1
102
RTVSPropertyOp1
 70
     1
102
RTVSPropertyOp2
 70
     1
102
RTVSPropertyOp3
 70
     1
102
RTVSPropertyOp4
 70
     1
102
RTVSPropertyOp5
 70
     1
102
RTVSPropertyOp6
 70
     1
102
RTVSPropertyOp7
 70
     1
102
RTVSPropertyOp8
 70
     1
102
RTVSPropertyOp9
 70
     1
102
RTVSPropertyOp10
 70
     1
102
RTVSPropertyOp11
 70
     1
102
RTVSPropertyOp12
 70
     1
102
RTVSPropertyOp13
 70
     1
102
RTVSPropertyOp14
 70
     1
102
RTVSPropertyOp15
 70
     1
102
RTVSPropertyOp16
 70
     1
102
RTVSPropertyOp17
 70
     1
102
RTVSPropertyOp18
 70
     1
102
RTVSPropertyOp19
 70
     1
102
RTVSPropertyOp20
 70
     1
102
RTVSPropertyOp21
 70
     1
102
RTVSPropertyOp22
 70
     1
102
RTVSPropertyOp23
 70
     1
102
RTVSPropertyOp24
 70
     1
102
RTVSPropertyOp25
 70
     1
102
RTVSPropertyOp26
 70
     1
102
RTVSPropertyOp27
 70
     1
102
RTVSPropertyOp28
 70
     1
102
RTVSPropertyOp29
 70
     1
102
RTVSPropertyOp30
 70
     1
102
RTVSPropertyOp31
 70
     1
102
RTVSPropertyOp32
 70
     1
102
RTVSPropertyOp33
 70
     1
102
RTVSPropertyOp34
 70
     1
102
RTVSPropertyOp35
 70
     1
102
RTVSPropertyOp36
 70
     1
102
RTVSPropertyOp37
 70
     1
102
RTVSPropertyOp38
 70
     1
102
RTVSPropertyOp39
 70
     1
102
RTVSPropertyOp40
 70
     1
102
RTVSPropertyOp41
 70
     1
102
RTVSPropertyOp42
 70
     1
102
RTVSPropertyOp43
 70
     1
102
RTVSPropertyOp44
 70
     1
102
RTVSPropertyOp45
 70
     1
102
RTVSPropertyOp46
 70
     1
102
RTVSPropertyOp47
 70
     1
102
RTVSPropertyOp48
 70
     1
102
RTVSPropertyOp49
 70
     1
102
RTVSPropertyOp50
 70
     1
102
RTVSPropertyOp51
 70
     0
102
RTVSPropertyOp52
 70
     0
102
RTVSPropertyOp53
 70
     1
102
RTVSPropertyOp54
 70
     1
102
RTVSPropertyOp55
 70
     1
102
RTVSPropertyOp56
 70
     1
102
RTVSPropertyOp57
 70
     1
102
RTVSPropertyOp58
 70
     1
102
RTVSPropertyOp59
 70
     1
102
RTVSPropertyOp60
 70
     1
102
RTVSPropertyOp61
 70
     1
102
RTVSPropertyOp62
 70
     1
  0
XRECORD
  5
183B
102
{ACAD_REACTORS
330
183A
102
}
330
183A
100
AcDbXrecord
280
     1
102
RTVSPost2010Prop28
280
     0
102
RTVSPost2010PropOp28
 70
     1
102
RTVSPost2010Prop29
280
     1
102
RTVSPost2010PropOp29
 70
     1
102
RTVSPost2010Prop30
280
     1
102
RTVSPost2010PropOp30
 70
     1
102
RTVSPost2010Prop31
280
     0
102
RTVSPost2010PropOp31
 70
     1
102
RTVSPost2010Prop32
280
     0
102
RTVSPost2010PropOp32
 70
     1
102
RTVSPost2010Prop33
280
     0
102
RTVSPost2010PropOp33
 70
     1
102
RTVSPost2010Prop34
280
     0
102
RTVSPost2010PropOp34
 70
     1
102
RTVSPost2010Prop35
280
     0
102
RTVSPost2010PropOp35
 70
     1
102
RTVSPost2010Prop36
280
     0
102
RTVSPost2010PropOp36
 70
     1
102
RTVSPost2010Prop37
 90
       50
102
RTVSPost2010PropOp37
 70
     1
102
RTVSPost2010Prop38
140
0.0
102
RTVSPost2010PropOp38
 70
     1
102
RTVSPost2010Prop39
140
1.0
102
RTVSPost2010PropOp39
 70
     1
102
RTVSPost2010Prop40
 90
        0
102
RTVSPost2010PropOp40
 70
     1
102
RTVSPost2010Prop41ColorIndex
 90
       18
102
RTVSPost2010Prop41ColorRGB
 90
        0
102
RTVSPost2010PropOp41
 70
     1
102
RTVSPost2010Prop42
 90
       50
102
RTVSPost2010PropOp42
 70
     1
102
RTVSPost2010Prop43
 90
        3
102
RTVSPost2010PropOp43
 70
     1
102
RTVSPost2010Prop44ColorIndex
 90
        5
102
RTVSPost2010Prop44ColorRGB
 90
      255
102
RTVSPost2010PropOp44
 70
     1
102
RTVSPost2010Prop45
280
     0
102
RTVSPost2010PropOp45
 70
     1
102
RTVSPost2010Prop46
 90
       50
102
RTVSPost2010PropOp46
 70
     1
102
RTVSPost2010Prop47
 90
       50
102
RTVSPost2010PropOp47
 70
     1
102
RTVSPost2010Prop48
 90
       50
102
RTVSPost2010PropOp48
 70
     1
102
RTVSPost2010Prop49
280
     0
102
RTVSPost2010PropOp49
 70
     1
102
RTVSPost2010Prop50
 90
       50
102
RTVSPost2010PropOp50
 70
     1
102
RTVSPost2010Prop51ColorIndex
 90
      256
102
RTVSPost2010Prop51ColorRGB
 90
-16777216
102
RTVSPost2010PropOp51
 70
     0
102
RTVSPost2010Prop52
140
1.0
102
RTVSPost2010PropOp52
 70
     0
102
RTVSPost2010Prop53
 90
        2
102
RTVSPost2010PropOp53
 70
     1
102
RTVSPost2010Prop54
  1
strokes_ogs.tif
102
RTVSPost2010PropOp54
 70
     1
102
RTVSPost2010Prop55
280
     0
102
RTVSPost2010PropOp55
 70
     1
102
RTVSPost2010Prop56
140
1.0
102
RTVSPost2010PropOp56
 70
     1
102
RTVSPost2010Prop57
140
1.0
102
RTVSPost2010PropOp57
 70
     1
102
RTVSPropertyOp0
 70
     1
102
RTVSPropertyOp1
 70
     1
102
RTVSPropertyOp2
 70
     1
102
RTVSPropertyOp3
 70
     1
102
RTVSPropertyOp4
 70
     1
102
RTVSPropertyOp5
 70
     1
102
RTVSPropertyOp6
 70
     1
102
RTVSPropertyOp7
 70
     1
102
RTVSPropertyOp8
 70
     1
102
RTVSPropertyOp9
 70
     1
102
RTVSPropertyOp10
 70
     1
102
RTVSPropertyOp11
 70
     1
102
RTVSPropertyOp12
 70
     1
102
RTVSPropertyOp13
 70
     1
102
RTVSPropertyOp14
 70
     1
102
RTVSPropertyOp15
 70
     1
102
RTVSPropertyOp16
 70
     1
102
RTVSPropertyOp17
 70
     1
102
RTVSPropertyOp18
 70
     1
102
RTVSPropertyOp19
 70
     1
102
RTVSPropertyOp20
 70
     1
102
RTVSPropertyOp21
 70
     1
102
RTVSPropertyOp22
 70
     1
102
RTVSPropertyOp23
 70
     1
102
RTVSPropertyOp24
 70
     1
102
RTVSPropertyOp25
 70
     1
102
RTVSPropertyOp26
 70
     1
102
RTVSPropertyOp27
 70
     1
102
RTVSPropertyOp28
 70
     1
102
RTVSPropertyOp29
 70
     1
102
RTVSPropertyOp30
 70
     1
102
RTVSPropertyOp31
 70
     1
102
RTVSPropertyOp32
 70
     1
102
RTVSPropertyOp33
 70
     1
102
RTVSPropertyOp34
 70
     1
102
RTVSPropertyOp35
 70
     1
102
RTVSPropertyOp36
 70
     1
102
RTVSPropertyOp37
 70
     1
102
RTVSPropertyOp38
 70
     1
102
RTVSPropertyOp39
 70
     1
102
RTVSPropertyOp40
 70
     1
102
RTVSPropertyOp41
 70
     1
102
RTVSPropertyOp42
 70
     1
102
RTVSPropertyOp43
 70
     1
102
RTVSPropertyOp44
 70
     1
102
RTVSPropertyOp45
 70
     1
102
RTVSPropertyOp46
 70
     1
102
RTVSPropertyOp47
 70
     1
102
RTVSPropertyOp48
 70
     1
102
RTVSPropertyOp49
 70
     1
102
RTVSPropertyOp50
 70
     1
102
RTVSPropertyOp51
 70
     0
102
RTVSPropertyOp52
 70
     0
102
RTVSPropertyOp53
 70
     1
102
RTVSPropertyOp54
 70
     1
102
RTVSPropertyOp55
 70
     1
102
RTVSPropertyOp56
 70
     1
102
RTVSPropertyOp57
 70
     1
102
RTVSPropertyOp58
 70
     1
102
RTVSPropertyOp59
 70
     1
102
RTVSPropertyOp60
 70
     1
102
RTVSPropertyOp61
 70
     1
102
RTVSPropertyOp62
 70
     1
  0
ENDSEC
  0
EOF
