  0
SECTION
  2
HEADER
  9
$ACADVER
  1
AC1015
  9
$ACADMAINTVER
 70
    20
  9
$DWGCODEPAGE
  3
ANSI_932
  9
$INSBASE
 10
0.0
 20
0.0
 30
0.0
  9
$EXTMIN
 10
9.9999975266385
 20
10.0
 30
0.0
  9
$EXTMAX
 10
293.4872326364634
 20
242.2465765956973
 30
0.0
  9
$LIMMIN
 10
0.0000015376081137
 20
-0.0000001931532552
  9
$LIMMAX
 10
396.0000015376081
 20
272.9999998068465
  9
$ORTHOMODE
 70
     1
  9
$REGENMODE
 70
     1
  9
$FILLMODE
 70
     1
  9
$QTEXTMODE
 70
     0
  9
$MIRRTEXT
 70
     1
  9
$LTSCALE
 40
0.3
  9
$ATTMODE
 70
     1
  9
$TEXTSIZE
 40
2.5
  9
$TRACEWID
 40
1.0
  9
$TEXTSTYLE
  7
STANDARD
  9
$CLAYER
  8
0
  9
$CELTYPE
  6
BYLAYER
  9
$CECOLOR
 62
   256
  9
$CELTSCALE
 40
1.0
  9
$DISPSILH
 70
     0
  9
$DIMSCALE
 40
1.0
  9
$DIMASZ
 40
3.0
  9
$DIMEXO
 40
1.0
  9
$DIMDLI
 40
10.0
  9
$DIMRND
 40
0.0
  9
$DIMDLE
 40
0.0
  9
$DIMEXE
 40
1.0
  9
$DIMTP
 40
0.0
  9
$DIMTM
 40
0.0
  9
$DIMTXT
 40
3.2
  9
$DIMCEN
 40
0.0
  9
$DIMTSZ
 40
0.0
  9
$DIMTOL
 70
     0
  9
$DIMLIM
 70
     0
  9
$DIMTIH
 70
     0
  9
$DIMTOH
 70
     0
  9
$DIMSE1
 70
     0
  9
$DIMSE2
 70
     0
  9
$DIMTAD
 70
     3
  9
$DIMZIN
 70
     8
  9
$DIMBLK
  1

  9
$DIMASO
 70
     1
  9
$DIMSHO
 70
     1
  9
$DIMPOST
  1

  9
$DIMAPOST
  1

  9
$DIMALT
 70
     0
  9
$DIMALTD
 70
     2
  9
$DIMALTF
 40
25.4
  9
$DIMLFAC
 40
1.0
  9
$DIMTOFL
 70
     1
  9
$DIMTVP
 40
0.0
  9
$DIMTIX
 70
     0
  9
$DIMSOXD
 70
     0
  9
$DIMSAH
 70
     1
  9
$DIMBLK1
  1
OPEN
  9
$DIMBLK2
  1
OPEN
  9
$DIMSTYLE
  2
STANDARD
  9
$DIMCLRD
 70
     0
  9
$DIMCLRE
 70
     0
  9
$DIMCLRT
 70
     0
  9
$DIMTFAC
 40
1.0
  9
$DIMGAP
 40
1.0
  9
$DIMJUST
 70
     0
  9
$DIMSD1
 70
     0
  9
$DIMSD2
 70
     0
  9
$DIMTOLJ
 70
     1
  9
$DIMTZIN
 70
     0
  9
$DIMALTZ
 70
     0
  9
$DIMALTTZ
 70
     0
  9
$DIMUPT
 70
     0
  9
$DIMDEC
 70
     4
  9
$DIMTDEC
 70
     4
  9
$DIMALTU
 70
     2
  9
$DIMALTTD
 70
     2
  9
$DIMTXSTY
  7
STANDARD
  9
$DIMAUNIT
 70
     0
  9
$DIMADEC
 70
     0
  9
$DIMALTRND
 40
0.0
  9
$DIMAZIN
 70
     0
  9
$DIMDSEP
 70
    46
  9
$DIMATFIT
 70
     3
  9
$DIMFRAC
 70
     0
  9
$DIMLDRBLK
  1
OPEN
  9
$DIMLUNIT
 70
     2
  9
$DIMLWD
 70
    -2
  9
$DIMLWE
 70
    -2
  9
$DIMTMOVE
 70
     0
  9
$LUNITS
 70
     2
  9
$LUPREC
 70
     4
  9
$SKETCHINC
 40
1.0
  9
$FILLETRAD
 40
0.0
  9
$AUNITS
 70
     0
  9
$AUPREC
 70
     0
  9
$MENU
  1
.
  9
$ELEVATION
 40
0.0
  9
$PELEVATION
 40
0.0
  9
$THICKNESS
 40
0.0
  9
$LIMCHECK
 70
     0
  9
$CHAMFERA
 40
10.0
  9
$CHAMFERB
 40
10.0
  9
$CHAMFERC
 40
20.0
  9
$CHAMFERD
 40
0.0
  9
$SKPOLY
 70
     0
  9
$TDCREATE
 40
2452941.654653311
  9
$TDUCREATE
 40
2452941.279653310
  9
$TDUPDATE
 40
2457192.601901435
  9
$TDUUPDATE
 40
2457192.226901435
  9
$TDINDWG
 40
0.4579274537
  9
$TDUSRTIMER
 40
0.4579274306
  9
$USRTIMER
 70
     1
  9
$ANGBASE
 50
0.0
  9
$ANGDIR
 70
     0
  9
$PDMODE
 70
     0
  9
$PDSIZE
 40
0.0
  9
$PLINEWID
 40
0.0
  9
$SPLFRAME
 70
     0
  9
$SPLINETYPE
 70
     6
  9
$SPLINESEGS
 70
     8
  9
$HANDSEED
  5
1452
  9
$SURFTAB1
 70
     6
  9
$SURFTAB2
 70
     6
  9
$SURFTYPE
 70
     6
  9
$SURFU
 70
     6
  9
$SURFV
 70
     6
  9
$UCSBASE
  2

  9
$UCSNAME
  2

  9
$UCSORG
 10
0.0
 20
0.0
 30
0.0
  9
$UCSXDIR
 10
1.0
 20
0.0
 30
0.0
  9
$UCSYDIR
 10
0.0
 20
1.0
 30
0.0
  9
$UCSORTHOREF
  2

  9
$UCSORTHOVIEW
 70
     0
  9
$UCSORGTOP
 10
0.0
 20
0.0
 30
0.0
  9
$UCSORGBOTTOM
 10
0.0
 20
0.0
 30
0.0
  9
$UCSORGLEFT
 10
0.0
 20
0.0
 30
0.0
  9
$UCSORGRIGHT
 10
0.0
 20
0.0
 30
0.0
  9
$UCSORGFRONT
 10
0.0
 20
0.0
 30
0.0
  9
$UCSORGBACK
 10
0.0
 20
0.0
 30
0.0
  9
$PUCSBASE
  2

  9
$PUCSNAME
  2

  9
$PUCSORG
 10
0.0
 20
0.0
 30
0.0
  9
$PUCSXDIR
 10
1.0
 20
0.0
 30
0.0
  9
$PUCSYDIR
 10
0.0
 20
1.0
 30
0.0
  9
$PUCSORTHOREF
  2

  9
$PUCSORTHOVIEW
 70
     0
  9
$PUCSORGTOP
 10
0.0
 20
0.0
 30
0.0
  9
$PUCSORGBOTTOM
 10
0.0
 20
0.0
 30
0.0
  9
$PUCSORGLEFT
 10
0.0
 20
0.0
 30
0.0
  9
$PUCSORGRIGHT
 10
0.0
 20
0.0
 30
0.0
  9
$PUCSORGFRONT
 10
0.0
 20
0.0
 30
0.0
  9
$PUCSORGBACK
 10
0.0
 20
0.0
 30
0.0
  9
$USERI1
 70
     0
  9
$USERI2
 70
     0
  9
$USERI3
 70
     0
  9
$USERI4
 70
     0
  9
$USERI5
 70
     0
  9
$USERR1
 40
0.0
  9
$USERR2
 40
0.0
  9
$USERR3
 40
0.0
  9
$USERR4
 40
0.0
  9
$USERR5
 40
0.0
  9
$WORLDVIEW
 70
     1
  9
$SHADEDGE
 70
     3
  9
$SHADEDIF
 70
    70
  9
$TILEMODE
 70
     1
  9
$MAXACTVP
 70
    48
  9
$PINSBASE
 10
0.0
 20
0.0
 30
0.0
  9
$PLIMCHECK
 70
     0
  9
$PEXTMIN
 10
1.000000000000000E+20
 20
1.000000000000000E+20
 30
1.000000000000000E+20
  9
$PEXTMAX
 10
-1.000000000000000E+20
 20
-1.000000000000000E+20
 30
-1.000000000000000E+20
  9
$PLIMMIN
 10
0.0
 20
0.0
  9
$PLIMMAX
 10
420.0
 20
297.0
  9
$UNITMODE
 70
     0
  9
$VISRETAIN
 70
     1
  9
$PLINEGEN
 70
     0
  9
$PSLTSCALE
 70
     1
  9
$TREEDEPTH
 70
  3020
  9
$CMLSTYLE
  2
STANDARD
  9
$CMLJUST
 70
     0
  9
$CMLSCALE
 40
20.0
  9
$PROXYGRAPHICS
 70
     1
  9
$MEASUREMENT
 70
     0
  9
$CELWEIGHT
370
    -1
  9
$ENDCAPS
280
     0
  9
$JOINSTYLE
280
     0
  9
$LWDISPLAY
290
     0
  9
$INSUNITS
 70
     0
  9
$HYPERLINKBASE
  1

  9
$STYLESHEET
  1

  9
$XEDIT
290
     1
  9
$CEPSNTYPE
380
     0
  9
$PSTYLEMODE
290
     1
  9
$FINGERPRINTGUID
  2
{608FB8A2-5126-4646-BAA5-8F20B08CDC6D}
  9
$VERSIONGUID
  2
{2ED972E1-EF7D-4BE6-817C-500B4EAAAC32}
  9
$EXTNAMES
290
     1
  9
$PSVPSCALE
 40
0.0
  9
$OLESTARTUP
290
     0
  0
ENDSEC
  0
SECTION
  2
CLASSES
  0
CLASS
  1
ACDBDICTIONARYWDFLT
  2
AcDbDictionaryWithDefault
  3
ObjectDBX Classes
 90
        0
280
     0
281
     0
  0
CLASS
  1
ACDBPLACEHOLDER
  2
AcDbPlaceHolder
  3
ObjectDBX Classes
 90
        0
280
     0
281
     0
  0
CLASS
  1
LAYOUT
  2
AcDbLayout
  3
ObjectDBX Classes
 90
        0
280
     0
281
     0
  0
CLASS
  1
DICTIONARYVAR
  2
AcDbDictionaryVar
  3
ObjectDBX Classes
 90
        0
280
     0
281
     0
  0
CLASS
  1
MATERIAL
  2
AcDbMaterial
  3
ObjectDBX Classes
 90
     1153
280
     0
281
     0
  0
CLASS
  1
VISUALSTYLE
  2
AcDbVisualStyle
  3
ObjectDBX Classes
 90
     4095
280
     0
281
     0
  0
CLASS
  1
TABLESTYLE
  2
AcDbTableStyle
  3
ObjectDBX Classes
 90
     4095
280
     0
281
     0
  0
CLASS
  1
SCALE
  2
AcDbScale
  3
ObjectDBX Classes
 90
     1153
280
     0
281
     0
  0
CLASS
  1
MLEADERSTYLE
  2
AcDbMLeaderStyle
  3
ACDB_MLEADERSTYLE_CLASS
 90
     4095
280
     0
281
     0
  0
CLASS
  1
ACDBSECTIONVIEWSTYLE
  2
AcDbSectionViewStyle
  3
ObjectDBX Classes
 90
     1025
280
     0
281
     0
  0
CLASS
  1
ACDBDETAILVIEWSTYLE
  2
AcDbDetailViewStyle
  3
ObjectDBX Classes
 90
     1025
280
     0
281
     0
  0
CLASS
  1
CELLSTYLEMAP
  2
AcDbCellStyleMap
  3
ObjectDBX Classes
 90
     1152
280
     0
281
     0
  0
ENDSEC
  0
SECTION
  2
TABLES
  0
TABLE
  2
VPORT
  5
8
330
0
100
AcDbSymbolTable
 70
     1
  0
VPORT
  5
139C
330
8
100
AcDbSymbolTableRecord
100
AcDbViewportTableRecord
  2
*ACTIVE
 70
     0
 10
0.0
 20
0.0
 11
1.0
 21
1.0
 12
222.097208727806
 22
126.1275333893835
 13
0.0
 23
0.0
 14
10.0
 24
10.0
 15
10.0
 25
10.0
 16
0.0
 26
0.0
 36
1.0
 17
0.0
 27
0.0
 37
0.0
 40
234.8744899188014
 41
1.899603698811096
 42
50.0
 43
0.0
 44
0.0
 50
0.0
 51
0.0
 71
     0
 72
   100
 73
     1
 74
     0
 75
     0
 76
     0
 77
     0
 78
     0
281
     0
 65
     1
110
0.0
120
0.0
130
0.0
111
1.0
121
0.0
131
0.0
112
0.0
122
1.0
132
0.0
 79
     0
146
0.0
1001
ACAD_NAV_VCDISPLAY
1070
     3
  0
ENDTAB
  0
TABLE
  2
LTYPE
  5
5
330
0
100
AcDbSymbolTable
 70
     4
  0
LTYPE
  5
12
330
5
100
AcDbSymbolTableRecord
100
AcDbLinetypeTableRecord
  2
BYBLOCK
 70
     0
  3

 72
    65
 73
     0
 40
0.0
  0
LTYPE
  5
13
330
5
100
AcDbSymbolTableRecord
100
AcDbLinetypeTableRecord
  2
BYLAYER
 70
     0
  3

 72
    65
 73
     0
 40
0.0
  0
LTYPE
  5
14
330
5
100
AcDbSymbolTableRecord
100
AcDbLinetypeTableRecord
  2
CONTINUOUS
 70
     0
  3
Solid line
 72
    65
 73
     0
 40
0.0
  0
LTYPE
  5
4B
330
5
100
AcDbSymbolTableRecord
100
AcDbLinetypeTableRecord
  2
DASHED
 70
     0
  3
Dashed __ __ __ __ __ __ __ __ __ __ __ __ __ _
 72
    65
 73
     2
 40
19.04999999999999
 49
12.7
 74
     0
 49
-6.349999999999998
 74
     0
  0
LTYPE
  5
4C
330
5
100
AcDbSymbolTableRecord
100
AcDbLinetypeTableRecord
  2
CENTER
 70
     0
  3
Center ____ _ ____ _ ____ _ ____ _ ____ _ ____
 72
    65
 73
     4
 40
50.8
 49
31.75
 74
     0
 49
-6.349999999999998
 74
     0
 49
6.349999999999998
 74
     0
 49
-6.349999999999998
 74
     0
  0
LTYPE
  5
4D
330
5
100
AcDbSymbolTableRecord
100
AcDbLinetypeTableRecord
  2
PHANTOM
 70
     0
  3
Phantom ______  __  __  ______  __  __  ______
 72
    65
 73
     6
 40
63.5
 49
31.75
 74
     0
 49
-6.349999999999998
 74
     0
 49
6.349999999999998
 74
     0
 49
-6.349999999999998
 74
     0
 49
6.349999999999998
 74
     0
 49
-6.349999999999998
 74
     0
  0
ENDTAB
  0
TABLE
  2
LAYER
  5
2
330
0
100
AcDbSymbolTable
 70
     8
  0
LAYER
  5
E
102
{ACAD_XDICTIONARY
360
13F6
102
}
330
2
100
AcDbSymbolTableRecord
100
AcDbLayerTableRecord
  2
0
 70
     0
 62
     7
  6
CONTINUOUS
370
    -3
390
13A5
  0
LAYER
  5
4E
102
{ACAD_XDICTIONARY
360
13F8
102
}
330
2
100
AcDbSymbolTableRecord
100
AcDbLayerTableRecord
  2
4
 70
     0
 62
     1
  6
CENTER
370
    -3
390
13A5
  0
LAYER
  5
4F
102
{ACAD_XDICTIONARY
360
13FA
102
}
330
2
100
AcDbSymbolTableRecord
100
AcDbLayerTableRecord
  2
5
 70
     0
 62
     6
  6
PHANTOM
370
    -3
390
13A5
  0
LAYER
  5
50
102
{ACAD_XDICTIONARY
360
13FC
102
}
330
2
100
AcDbSymbolTableRecord
100
AcDbLayerTableRecord
  2
1
 70
     0
 62
     7
  6
CONTINUOUS
370
    -3
390
13A5
  0
LAYER
  5
51
102
{ACAD_XDICTIONARY
360
13FE
102
}
330
2
100
AcDbSymbolTableRecord
100
AcDbLayerTableRecord
  2
2
 70
     0
 62
     4
  6
CONTINUOUS
370
    -3
390
13A5
  0
LAYER
  5
52
102
{ACAD_XDICTIONARY
360
1400
102
}
330
2
100
AcDbSymbolTableRecord
100
AcDbLayerTableRecord
  2
3
 70
     0
 62
     2
  6
DASHED
370
    -3
390
13A5
  0
LAYER
  5
53
102
{ACAD_XDICTIONARY
360
1402
102
}
330
2
100
AcDbSymbolTableRecord
100
AcDbLayerTableRecord
  2
6
 70
     0
 62
     5
  6
CONTINUOUS
370
    -3
390
13A5
  0
LAYER
  5
54
102
{ACAD_XDICTIONARY
360
1404
102
}
330
2
100
AcDbSymbolTableRecord
100
AcDbLayerTableRecord
  2
7
 70
     0
 62
     3
  6
CONTINUOUS
370
    -3
390
13A5
  0
ENDTAB
  0
TABLE
  2
STYLE
  5
3
330
0
100
AcDbSymbolTable
 70
     1
  0
STYLE
  5
F
330
3
100
AcDbSymbolTableRecord
100
AcDbTextStyleTableRecord
  2
STANDARD
 70
     0
 40
0.0
 41
1.0
 50
0.0
 71
     0
 42
2.5
  3
simplex.shx
  4

  0
ENDTAB
  0
TABLE
  2
VIEW
  5
6
330
0
100
AcDbSymbolTable
 70
     0
  0
ENDTAB
  0
TABLE
  2
UCS
  5
7
330
0
100
AcDbSymbolTable
 70
     0
  0
ENDTAB
  0
TABLE
  2
APPID
  5
9
330
0
100
AcDbSymbolTable
 70
     5
  0
APPID
  5
10
330
9
100
AcDbSymbolTableRecord
100
AcDbRegAppTableRecord
  2
ACAD
 70
     0
  0
APPID
  5
3E
330
9
100
AcDbSymbolTableRecord
100
AcDbRegAppTableRecord
  2
CONTENTTABDATA
 70
     0
  0
APPID
  5
3F
330
9
100
AcDbSymbolTableRecord
100
AcDbRegAppTableRecord
  2
CONTENTCURRENTTAB
 70
     0
  0
APPID
  5
1410
330
9
100
AcDbSymbolTableRecord
100
AcDbRegAppTableRecord
  2
ACAD_NAV_VCDISPLAY
 70
     0
  0
APPID
  5
1449
330
9
100
AcDbSymbolTableRecord
100
AcDbRegAppTableRecord
  2
ACAD_MLEADERVER
 70
     0
  0
ENDTAB
  0
TABLE
  2
DIMSTYLE
  5
A
330
0
100
AcDbSymbolTable
 70
     1
100
AcDbDimStyleTable
 71
     0
  0
DIMSTYLE
105
1D
330
A
100
AcDbSymbolTableRecord
100
AcDbDimStyleTableRecord
  2
STANDARD
 70
     0
 41
3.0
 42
1.0
 43
10.0
 44
1.0
 73
     0
 74
     0
 77
     3
 78
     8
140
3.2
141
0.0
147
1.0
172
     1
173
     1
340
F
341
2E
343
2E
344
2E
  0
ENDTAB
  0
TABLE
  2
BLOCK_RECORD
  5
1
330
0
100
AcDbSymbolTable
 70
     1
  0
BLOCK_RECORD
  5
18
102
{ACAD_XDICTIONARY
360
139F
102
}
330
1
100
AcDbSymbolTableRecord
100
AcDbBlockTableRecord
  2
*MODEL_SPACE
340
13F3
  0
BLOCK_RECORD
  5
15
102
{ACAD_XDICTIONARY
360
139D
102
}
330
1
100
AcDbSymbolTableRecord
100
AcDbBlockTableRecord
  2
*PAPER_SPACE
340
13F4
  0
BLOCK_RECORD
  5
2E
330
1
100
AcDbSymbolTableRecord
100
AcDbBlockTableRecord
  2
_OPEN
340
0
  0
ENDTAB
  0
ENDSEC
  0
SECTION
  2
BLOCKS
  0
BLOCK
  5
19
330
18
100
AcDbEntity
  8
0
100
AcDbBlockBegin
  2
*MODEL_SPACE
 70
     0
 10
0.0
 20
0.0
 30
0.0
  3
*MODEL_SPACE
  1

  0
ENDBLK
  5
1A
330
18
100
AcDbEntity
  8
0
100
AcDbBlockEnd
  0
BLOCK
  5
16
330
15
100
AcDbEntity
 67
     1
  8
0
100
AcDbBlockBegin
  2
*PAPER_SPACE
 70
     0
 10
0.0
 20
0.0
 30
0.0
  3
*PAPER_SPACE
  1

  0
ENDBLK
  5
17
330
15
100
AcDbEntity
 67
     1
  8
0
100
AcDbBlockEnd
  0
BLOCK
  5
2F
330
2E
100
AcDbEntity
  8
0
100
AcDbBlockBegin
  2
_OPEN
 70
     0
 10
0.0
 20
0.0
 30
0.0
  3
_OPEN
  1

  0
LINE
  5
30
330
2E
100
AcDbEntity
  8
0
  6
ByBlock
 62
     0
100
AcDbLine
 10
-1.0
 20
0.1666666666666666
 30
0.0
 11
0.0
 21
0.0
 31
0.0
  0
LINE
  5
31
330
2E
100
AcDbEntity
  8
0
  6
ByBlock
 62
     0
100
AcDbLine
 10
0.0
 20
0.0
 30
0.0
 11
-1.0
 21
-0.1666666666666666
 31
0.0
  0
LINE
  5
32
330
2E
100
AcDbEntity
  8
0
  6
ByBlock
 62
     0
100
AcDbLine
 10
0.0
 20
0.0
 30
0.0
 11
-1.0
 21
0.0
 31
0.0
  0
ENDBLK
  5
33
330
2E
100
AcDbEntity
  8
0
100
AcDbBlockEnd
  0
ENDSEC
  0
SECTION
  2
ENTITIES
  0
TEXT
  5
63
330
18
100
AcDbEntity
  8
4
  6
CENTER
 48
0.25
100
AcDbText
 10
23.97950852663849
 20
10.0
 30
0.0
 40
1.399999999999999
  1
4
100
AcDbText
  0
TEXT
  5
64
330
18
100
AcDbEntity
  8
7
  6
Continuous
 48
0.25
100
AcDbText
 10
9.999997526638502
 20
26.0000007607689
 30
0.0
 40
3.0
  1
CODE No.1979
100
AcDbText
  0
TEXT
  5
65
330
18
100
AcDbEntity
  8
7
  6
Continuous
 48
0.25
100
AcDbText
 10
9.999997526638502
 20
18.00000076076889
 30
0.0
 40
3.0
  1
TYPE No.TL-336
100
AcDbText
  0
TEXT
  5
66
330
18
100
AcDbEntity
  8
1
  6
Continuous
 48
0.25
100
AcDbText
 10
9.999997526638502
 20
10.00000076076889
 30
0.0
 40
1.399999999999999
  1
LAYER
100
AcDbText
  0
TEXT
  5
67
330
18
100
AcDbEntity
  8
2
  6
Continuous
 48
0.25
100
AcDbText
 10
19.9795085266385
 20
10.0
 30
0.0
 40
1.399999999999999
  1
2
100
AcDbText
  0
TEXT
  5
68
330
18
100
AcDbEntity
  8
3
  6
DASHED
 48
0.25
100
AcDbText
 10
21.9795085266385
 20
10.0
 30
0.0
 40
1.399999999999999
  1
3
100
AcDbText
  0
TEXT
  5
69
330
18
100
AcDbEntity
  8
1
  6
Continuous
 48
0.25
100
AcDbText
 10
17.9795085266385
 20
10.0
 30
0.0
 40
1.399999999999999
  1
1
100
AcDbText
  0
TEXT
  5
6A
330
18
100
AcDbEntity
  8
5
  6
PHANTOM
 48
0.25
100
AcDbText
 10
25.9795085266385
 20
10.0
 30
0.0
 40
1.399999999999999
  1
5
100
AcDbText
  0
TEXT
  5
6B
330
18
100
AcDbEntity
  8
6
  6
Continuous
 48
0.25
100
AcDbText
 10
27.9795085266385
 20
10.0
 30
0.0
 40
1.399999999999999
  1
6
100
AcDbText
  0
TEXT
  5
6C
330
18
100
AcDbEntity
  8
7
  6
Continuous
 48
0.25
100
AcDbText
 10
29.9795085266385
 20
10.0
 30
0.0
 40
1.399999999999999
  1
7
100
AcDbText
  0
LINE
  5
377
330
18
100
AcDbEntity
  8
4
  6
CENTER
100
AcDbLine
 10
24.30460353248315
 20
138.1557132534177
 30
0.0
 11
48.34623409277458
 21
162.1973438138116
 31
0.0
  0
LINE
  5
378
330
18
100
AcDbEntity
  8
4
  6
CENTER
100
AcDbLine
 10
24.30460353243194
 20
162.1973438137604
 30
0.0
 11
48.34623409282585
 21
138.1557132534691
 31
0.0
  0
LINE
  5
379
330
18
100
AcDbEntity
  8
4
  6
CENTER
100
AcDbLine
 10
53.32541881262887
 20
150.1765280334967
 30
0.0
 11
19.32541881262886
 21
150.1765280334967
 31
0.0
  0
LINE
  5
37A
330
18
100
AcDbEntity
  8
1
  6
Continuous
100
AcDbLine
 10
31.13077581262882
 20
153.1791405334967
 30
0.0
 11
38.81157331262882
 21
145.4983430334967
 31
0.0
  0
LINE
  5
37B
330
18
100
AcDbEntity
  8
1
  6
Continuous
100
AcDbLine
 10
33.32280681262886
 20
155.3711715334967
 30
0.0
 11
41.00360431262878
 21
147.6903740334966
 31
0.0
  0
LINE
  5
37C
330
18
100
AcDbEntity
  8
1
  6
Continuous
100
AcDbLine
 10
35.72437831262885
 20
152.4039145334968
 30
0.0
 11
40.43791881262889
 21
147.6903740334968
 31
0.0
  0
LINE
  5
37D
330
18
100
AcDbEntity
  8
1
  6
Continuous
100
AcDbLine
 10
34.09803281262885
 20
150.7775690334968
 30
0.0
 11
38.81157331262892
 21
146.0640280334968
 31
0.0
  0
ARC
  5
37E
330
18
100
AcDbEntity
  8
1
  6
Continuous
100
AcDbCircle
 10
36.32541881262886
 20
150.1765280334967
 30
0.0
 40
4.7
100
AcDbArc
 50
154.2558620000004
 51
295.7441380000002
  0
CIRCLE
  5
381
330
18
100
AcDbEntity
  8
1
  6
Continuous
100
AcDbCircle
 10
36.32541881262886
 20
150.1765280334967
 30
0.0
 40
6.0
  0
ARC
  5
382
330
18
100
AcDbEntity
  8
1
  6
Continuous
100
AcDbCircle
 10
36.32541881262886
 20
150.1765280334967
 30
0.0
 40
4.7
100
AcDbArc
 50
334.2558619999997
 51
115.7441380000002
  0
CIRCLE
  5
384
330
18
100
AcDbEntity
  8
1
  6
Continuous
100
AcDbCircle
 10
36.32541881262886
 20
150.1765280334967
 30
0.0
 40
11.0
  0
CIRCLE
  5
385
330
18
100
AcDbEntity
  8
1
  6
Continuous
100
AcDbCircle
 10
36.32541881262886
 20
150.1765280334967
 30
0.0
 40
15.0
  0
CIRCLE
  5
386
330
18
100
AcDbEntity
  8
1
  6
Continuous
100
AcDbCircle
 10
36.32541881262886
 20
150.1765280334967
 30
0.0
 40
11.5
  0
LINE
  5
389
330
18
100
AcDbEntity
  8
4
  6
CENTER
100
AcDbLine
 10
36.32541881262886
 20
167.1765280334968
 30
0.0
 11
36.32541881262886
 21
133.1765280334967
 31
0.0
  0
LINE
  5
38A
330
18
100
AcDbEntity
  8
1
  6
Continuous
100
AcDbLine
 10
34.09803281262878
 20
150.7775690334967
 30
0.0
 11
35.72437831262891
 21
152.4039145334967
 31
0.0
  0
ARC
  5
38E
330
18
100
AcDbEntity
  8
1
  6
Continuous
100
AcDbCircle
 10
36.32541881262886
 20
150.1765280334967
 30
0.0
 40
5.0
100
AcDbArc
 50
299.816964
 51
330.1830360000004
  0
LINE
  5
38F
330
18
100
AcDbEntity
  8
1
  6
Continuous
100
AcDbLine
 10
38.81157331262886
 20
146.0640280334967
 30
0.0
 11
38.81157331262886
 21
144.7158470334967
 31
0.0
  0
LINE
  5
390
330
18
100
AcDbEntity
  8
1
  6
Continuous
100
AcDbLine
 10
40.43791881262889
 20
147.6903740334966
 30
0.0
 11
41.78609981262889
 21
147.6903740334966
 31
0.0
  0
LINE
  5
391
330
18
100
AcDbEntity
  8
2
  6
Continuous
100
AcDbLine
 10
126.1372825087684
 20
155.4528911074517
 30
0.0
 11
140.7372825087685
 21
146.5323545336818
 31
0.0
  0
LINE
  5
394
330
18
100
AcDbEntity
  8
4
  6
CENTER
100
AcDbLine
 10
114.6395272471716
 20
150.1765280334129
 30
0.0
 11
156.3726048247571
 21
150.1765280333667
 31
0.0
  0
LINE
  5
395
330
18
100
AcDbEntity
  8
2
  6
Continuous
100
AcDbLine
 10
126.1372825087684
 20
144.9001661566325
 30
0.0
 11
140.7372825087683
 21
153.8207015336818
 31
0.0
  0
LINE
  5
397
330
18
100
AcDbEntity
  8
1
  6
Continuous
100
AcDbLine
 10
138.7372825087684
 20
158.0451525336818
 30
0.0
 11
126.1372825087684
 21
158.0451525336818
 31
0.0
  0
LINE
  5
398
330
18
100
AcDbEntity
  8
1
  6
Continuous
100
AcDbLine
 10
138.7372825087684
 20
155.4995680336818
 30
0.0
 11
126.1372825087684
 21
155.4995680336818
 31
0.0
  0
LINE
  5
399
330
18
100
AcDbEntity
  8
1
  6
Continuous
100
AcDbLine
 10
138.7372825087684
 20
155.4528905336818
 30
0.0
 11
126.1372825087684
 21
155.4528905336818
 31
0.0
  0
LINE
  5
39A
330
18
100
AcDbEntity
  8
1
  6
Continuous
100
AcDbLine
 10
138.7372825087684
 20
144.9001655336818
 30
0.0
 11
126.1372825087684
 21
144.9001655336818
 31
0.0
  0
LINE
  5
39B
330
18
100
AcDbEntity
  8
1
  6
Continuous
100
AcDbLine
 10
139.1230690087684
 20
157.6365045336818
 30
0.0
 11
125.8372825087684
 21
157.6365045336819
 31
0.0
  0
LINE
  5
39C
330
18
100
AcDbEntity
  8
1
  6
Continuous
100
AcDbLine
 10
126.1372825087683
 20
140.6765280336818
 30
0.0
 11
138.7372825087684
 21
140.6765280336818
 31
0.0
  0
LINE
  5
39D
330
18
100
AcDbEntity
  8
2
  6
Continuous
100
AcDbLine
 10
127.0751881247788
 20
141.2180280333991
 30
0.0
 11
139.2787825084858
 21
141.2180280333991
 31
0.0
  0
LINE
  5
39F
330
18
100
AcDbEntity
  8
1
  6
Continuous
100
AcDbLine
 10
126.1372825087684
 20
159.6765280336818
 30
0.0
 11
138.7372825087684
 21
159.6765280336818
 31
0.0
  0
LINE
  5
3A1
330
18
100
AcDbEntity
  8
1
  6
Continuous
100
AcDbLine
 10
125.8372825087683
 20
135.1765280336818
 30
0.0
 11
125.8372825087683
 21
165.1765280336818
 31
0.0
  0
LINE
  5
3A3
330
18
100
AcDbEntity
  8
1
  6
Continuous
100
AcDbLine
 10
118.8372825087683
 20
161.6765280336818
 30
0.0
 11
118.8372825087683
 21
138.6765280336818
 31
0.0
  0
ARC
  5
3A4
330
18
100
AcDbEntity
  8
1
  6
Continuous
100
AcDbCircle
 10
166.396953861715
 20
150.1765280336818
 30
0.0
 40
20.6666665
100
AcDbArc
 50
342.1034490000002
 51
17.8965509999998
  0
LINE
  5
3A5
330
18
100
AcDbEntity
  8
1
  6
Continuous
100
AcDbLine
 10
187.0636203617151
 20
159.7028075336818
 30
0.0
 11
187.0636203617151
 21
140.6502485336818
 31
0.0
  0
LINE
  5
3A6
330
18
100
AcDbEntity
  8
1
  6
Continuous
100
AcDbLine
 10
183.5636203617151
 20
162.8782340336818
 30
0.0
 11
183.5636203617151
 21
137.4748220336818
 31
0.0
  0
LINE
  5
3A7
330
18
100
AcDbEntity
  8
1
  6
Continuous
100
AcDbLine
 10
118.3372825087684
 20
156.1765280336818
 30
0.0
 11
118.3372825087684
 21
145.9226070336818
 31
0.0
  0
LINE
  5
3A8
330
18
100
AcDbEntity
  8
1
  6
Continuous
100
AcDbLine
 10
117.0372825087683
 20
154.8765280336819
 30
0.0
 11
117.0372825087683
 21
145.4765280336818
 31
0.0
  0
LINE
  5
3A9
330
18
100
AcDbEntity
  8
1
  6
Continuous
100
AcDbLine
 10
126.1372825087684
 20
155.8593090336818
 30
0.0
 11
126.1372825087684
 21
140.1765280336818
 31
0.0
  0
LINE
  5
3AA
330
18
100
AcDbEntity
  8
1
  6
Continuous
100
AcDbLine
 10
118.5372825087683
 20
160.8765280336818
 30
0.0
 11
118.5372825087683
 21
139.4765280336818
 31
0.0
  0
LINE
  5
3AB
330
18
100
AcDbEntity
  8
1
  6
Continuous
100
AcDbLine
 10
118.8372825087683
 20
139.1765280336818
 30
0.0
 11
118.5372825087683
 21
139.4765280336818
 31
0.0
  0
LINE
  5
3AC
330
18
100
AcDbEntity
  8
1
  6
Continuous
100
AcDbLine
 10
117.3372825087684
 20
145.9226070336818
 30
0.0
 11
117.3372825087684
 21
147.6903740336818
 31
0.0
  0
LINE
  5
3AD
330
18
100
AcDbEntity
  8
1
  6
Continuous
100
AcDbLine
 10
117.0372825087683
 20
145.4983430336818
 30
0.0
 11
117.3372825087684
 21
145.9226070336818
 31
0.0
  0
LINE
  5
3AE
330
18
100
AcDbEntity
  8
1
  6
Continuous
100
AcDbLine
 10
118.3372825087684
 20
144.1765280336818
 30
0.0
 11
118.3372825087684
 21
144.7158470336818
 31
0.0
  0
LINE
  5
3AF
330
18
100
AcDbEntity
  8
1
  6
Continuous
100
AcDbLine
 10
117.2183990087684
 20
145.7544805336817
 30
0.0
 11
118.3372825087683
 21
144.7158470336818
 31
0.0
  0
LINE
  5
3B0
330
18
100
AcDbEntity
  8
1
  6
Continuous
100
AcDbLine
 10
118.3372825087684
 20
145.9226070336818
 30
0.0
 11
117.3372825087684
 21
145.9226070336818
 31
0.0
  0
LINE
  5
3B1
330
18
100
AcDbEntity
  8
1
  6
Continuous
100
AcDbLine
 10
118.5372825087683
 20
146.0640280336818
 30
0.0
 11
118.3372825087684
 21
146.0640280336818
 31
0.0
  0
LINE
  5
3B2
330
18
100
AcDbEntity
  8
1
  6
Continuous
100
AcDbLine
 10
118.5372825087683
 20
144.7158470336818
 30
0.0
 11
118.3372825087684
 21
144.7158470336818
 31
0.0
  0
LINE
  5
3B3
330
18
100
AcDbEntity
  8
1
  6
Continuous
100
AcDbLine
 10
118.3372825087684
 20
144.1765280336818
 30
0.0
 11
118.5372825087683
 21
144.1765280336818
 31
0.0
  0
LINE
  5
3B4
330
18
100
AcDbEntity
  8
1
  6
Continuous
100
AcDbLine
 10
117.0372825087683
 20
145.4765280336818
 30
0.0
 11
118.3372825087684
 21
144.1765280336818
 31
0.0
  0
LINE
  5
3B5
330
18
100
AcDbEntity
  8
1
  6
Continuous
100
AcDbLine
 10
117.0372825087683
 20
147.6903740336818
 30
0.0
 11
118.5372825087683
 21
147.6903740336818
 31
0.0
  0
ARC
  5
3B6
330
18
100
AcDbEntity
  8
1
  6
Continuous
100
AcDbCircle
 10
181.521953861715
 20
140.6502485336818
 30
0.0
 40
5.541666499999998
100
AcDbArc
 50
325.0396599999997
 51
34.9603400000003
  0
LINE
  5
3B7
330
18
100
AcDbEntity
  8
1
  6
Continuous
100
AcDbLine
 10
127.0751881247788
 20
144.9001655336818
 30
0.0
 11
127.0751881247788
 21
140.6765280336818
 31
0.0
  0
LINE
  5
3B8
330
18
100
AcDbEntity
  8
2
  6
Continuous
100
AcDbLine
 10
126.1372825087683
 20
140.6765280336818
 30
0.0
 11
127.0751881247788
 21
141.2180280333991
 31
0.0
  0
LINE
  5
3BA
330
18
100
AcDbEntity
  8
1
  6
Continuous
100
AcDbLine
 10
118.8372825087683
 20
138.6765280336818
 30
0.0
 11
125.3372825087683
 21
135.1765280336818
 31
0.0
  0
LINE
  5
3BB
330
18
100
AcDbEntity
  8
1
  6
Continuous
100
AcDbLine
 10
125.8372825087683
 20
140.1765280336818
 30
0.0
 11
126.1372825087684
 21
140.1765280336818
 31
0.0
  0
LINE
  5
3BC
330
18
100
AcDbEntity
  8
1
  6
Continuous
100
AcDbLine
 10
125.3372825087683
 20
135.1765280336818
 30
0.0
 11
125.8372825087683
 21
135.1765280336818
 31
0.0
  0
LINE
  5
3BD
330
18
100
AcDbEntity
  8
1
  6
Continuous
100
AcDbLine
 10
183.5636203617151
 20
137.4748220336818
 30
0.0
 11
186.0636203617151
 21
137.4748220336818
 31
0.0
  0
LINE
  5
3C3
330
18
100
AcDbEntity
  8
1
  6
Continuous
100
AcDbLine
 10
183.5636203617151
 20
143.8256750336818
 30
0.0
 11
186.0636203617151
 21
143.8256750336818
 31
0.0
  0
LINE
  5
3C5
330
18
100
AcDbEntity
  8
1
  6
Continuous
100
AcDbLine
 10
118.8372825087683
 20
161.1765280336818
 30
0.0
 11
118.5372825087683
 21
160.8765280336818
 31
0.0
  0
LINE
  5
3C6
330
18
100
AcDbEntity
  8
1
  6
Continuous
100
AcDbLine
 10
118.3372825087684
 20
156.1765280336818
 30
0.0
 11
118.5372825087683
 21
156.1765280336818
 31
0.0
  0
LINE
  5
3C7
330
18
100
AcDbEntity
  8
1
  6
Continuous
100
AcDbLine
 10
117.0372825087683
 20
154.8765280336816
 30
0.0
 11
118.3372825087684
 21
156.1765280336818
 31
0.0
  0
LINE
  5
3C8
330
18
100
AcDbEntity
  8
1
  6
Continuous
100
AcDbLine
 10
118.8372825087683
 20
161.6765280336818
 30
0.0
 11
125.3372825087683
 21
165.1765280336818
 31
0.0
  0
LINE
  5
3D0
330
18
100
AcDbEntity
  8
1
  6
Continuous
100
AcDbLine
 10
126.1372825087684
 20
160.1765280336818
 30
0.0
 11
126.1372825087684
 21
158.0451525336818
 31
0.0
  0
LINE
  5
3D1
330
18
100
AcDbEntity
  8
1
  6
Continuous
100
AcDbLine
 10
126.1372825087684
 20
155.8593090336818
 30
0.0
 11
125.8372825087683
 21
155.8593090336818
 31
0.0
  0
LINE
  5
3D2
330
18
100
AcDbEntity
  8
1
  6
Continuous
100
AcDbLine
 10
126.1372825087684
 20
158.4048935336818
 30
0.0
 11
125.8372825087683
 21
158.4048935336818
 31
0.0
  0
LINE
  5
3D3
330
18
100
AcDbEntity
  8
1
  6
Continuous
100
AcDbLine
 10
125.8372825087683
 20
160.1765280336818
 30
0.0
 11
126.1372825087684
 21
160.1765280336818
 31
0.0
  0
ARC
  5
3D4
330
18
100
AcDbEntity
  8
1
  6
Continuous
100
AcDbCircle
 10
181.521953861715
 20
159.7028075336818
 30
0.0
 40
5.541666499999998
100
AcDbArc
 50
325.0396599999997
 51
34.9603400000003
  0
LINE
  5
3D7
330
18
100
AcDbEntity
  8
1
  6
Continuous
100
AcDbLine
 10
183.5636203617151
 20
156.5273810336818
 30
0.0
 11
186.0636203617151
 21
156.5273810336818
 31
0.0
  0
LINE
  5
3D9
330
18
100
AcDbEntity
  8
1
  6
Continuous
100
AcDbLine
 10
183.5636203617151
 20
162.8782340336818
 30
0.0
 11
186.0636203617151
 21
162.8782340336818
 31
0.0
  0
LINE
  5
3DA
330
18
100
AcDbEntity
  8
1
  6
Continuous
100
AcDbLine
 10
125.3372825087683
 20
165.1765280336818
 30
0.0
 11
125.8372825087683
 21
165.1765280336818
 31
0.0
  0
ARC
  5
3DB
330
18
100
AcDbEntity
  8
1
  6
Continuous
100
AcDbCircle
 10
203.7628006643152
 20
150.1765280336818
 30
0.0
 40
10.3333335
100
AcDbArc
 50
342.1034490000002
 51
17.8965509999998
  0
ARC
  5
3DC
330
18
100
AcDbEntity
  8
1
  6
Continuous
100
AcDbCircle
 10
220.2294676643152
 20
150.1765280336818
 30
0.0
 40
10.3333335
100
AcDbArc
 50
162.1034490000001
 51
197.8965509999997
  0
LINE
  5
3DD
330
18
100
AcDbEntity
  8
1
  6
Continuous
100
AcDbLine
 10
209.8961341643152
 20
154.9396680336818
 30
0.0
 11
209.8961341643152
 21
145.4133885336818
 31
0.0
  0
LINE
  5
3DE
330
18
100
AcDbEntity
  8
1
  6
Continuous
100
AcDbLine
 10
214.0961341643152
 20
154.9396680336818
 30
0.0
 11
214.0961341643152
 21
145.4133885336818
 31
0.0
  0
LINE
  5
3DF
330
18
100
AcDbEntity
  8
1
  6
Continuous
100
AcDbLine
 10
153.5372825087683
 20
152.6765280336818
 30
0.0
 11
153.5372825087683
 21
147.6765280336818
 31
0.0
  0
LINE
  5
3E0
330
18
100
AcDbEntity
  8
1
  6
Continuous
100
AcDbLine
 10
152.5372825087683
 20
153.6765280336818
 30
0.0
 11
152.5372825087683
 21
152.4036340336818
 31
0.0
  0
ARC
  5
3E1
330
18
100
AcDbEntity
  8
1
  6
Continuous
100
AcDbCircle
 10
195.2338094014266
 20
154.8370110336818
 30
0.0
 40
4.308307499999998
100
AcDbArc
 50
323.2931210000002
 51
330.2186899999998
  0
LINE
  5
3E2
330
18
100
AcDbEntity
  8
1
  6
Continuous
100
AcDbLine
 10
198.6760769014265
 20
152.2486660336818
 30
0.0
 11
198.9731079014267
 21
152.5826640336818
 31
0.0
  0
LINE
  5
3E3
330
18
100
AcDbEntity
  8
1
  6
Continuous
100
AcDbLine
 10
199.7731079014266
 20
156.6765280336818
 30
0.0
 11
199.7731079014266
 21
143.6765280336818
 31
0.0
  0
LINE
  5
3E4
330
18
100
AcDbEntity
  8
1
  6
Continuous
100
AcDbLine
 10
198.9731079014267
 20
156.6765280336818
 30
0.0
 11
198.9731079014267
 21
143.6765280336818
 31
0.0
  0
LINE
  5
3E5
330
18
100
AcDbEntity
  8
1
  6
Continuous
100
AcDbLine
 10
143.5372825087683
 20
157.8765280336819
 30
0.0
 11
143.5372825087683
 21
142.7673710336818
 31
0.0
  0
LINE
  5
3E6
330
18
100
AcDbEntity
  8
1
  6
Continuous
100
AcDbLine
 10
140.9372825087684
 20
155.1765280336818
 30
0.0
 11
140.9372825087684
 21
145.1765280336818
 31
0.0
  0
LINE
  5
3E7
330
18
100
AcDbEntity
  8
1
  6
Continuous
100
AcDbLine
 10
141.9372825087684
 20
157.8765280336819
 30
0.0
 11
141.9372825087684
 21
144.0248085336818
 31
0.0
  0
LINE
  5
3E8
330
18
100
AcDbEntity
  8
1
  6
Continuous
100
AcDbLine
 10
140.7372825087684
 20
158.8765280336819
 30
0.0
 11
140.7372825087684
 21
142.5308190336818
 31
0.0
  0
LINE
  5
3E9
330
18
100
AcDbEntity
  8
2
  6
Continuous
100
AcDbLine
 10
143.5372825087684
 20
151.8621142983878
 30
0.0
 11
152.5372825087685
 21
147.9494225336819
 31
0.0
  0
LINE
  5
3EA
330
18
100
AcDbEntity
  8
2
  6
Continuous
100
AcDbLine
 10
152.5372825087683
 20
152.4036340336818
 30
0.0
 11
143.5372825087684
 21
148.4909409454465
 31
0.0
  0
LINE
  5
3EB
330
18
100
AcDbEntity
  8
1
  6
Continuous
100
AcDbLine
 10
143.5372825087684
 20
146.6765280336818
 30
0.0
 11
152.5372825087683
 21
146.6765280336818
 31
0.0
  0
LINE
  5
3EC
330
18
100
AcDbEntity
  8
2
  6
Continuous
100
AcDbLine
 10
143.5372825087683
 20
147.0825280333809
 30
0.0
 11
152.9432825084674
 21
147.0825280333809
 31
0.0
  0
LINE
  5
3ED
330
18
100
AcDbEntity
  8
1
  6
Continuous
100
AcDbLine
 10
152.5372825087683
 20
147.9494225336818
 30
0.0
 11
143.5372825087684
 21
147.9494225336818
 31
0.0
  0
LINE
  5
3EE
330
18
100
AcDbEntity
  8
1
  6
Continuous
100
AcDbLine
 10
152.5372825087683
 20
152.4036340336818
 30
0.0
 11
143.5372825087684
 21
152.4036340336818
 31
0.0
  0
LINE
  5
3EF
330
18
100
AcDbEntity
  8
1
  6
Continuous
100
AcDbLine
 10
138.7372825087684
 20
140.6765280336818
 30
0.0
 11
138.7372825087684
 21
144.9001655336818
 31
0.0
  0
LINE
  5
3F0
330
18
100
AcDbEntity
  8
1
  6
Continuous
100
AcDbLine
 10
139.5372825087683
 20
141.4765280336818
 30
0.0
 11
138.7372825087684
 21
140.6765280336817
 31
0.0
  0
LINE
  5
3F1
330
18
100
AcDbEntity
  8
1
  6
Continuous
100
AcDbLine
 10
143.5372825087683
 20
142.7673710336818
 30
0.0
 11
143.0372825087683
 21
142.7673710336818
 31
0.0
  0
LINE
  5
3F2
330
18
100
AcDbEntity
  8
1
  6
Continuous
100
AcDbLine
 10
143.5372825087683
 20
143.6765280336818
 30
0.0
 11
143.0372825087683
 21
143.6765280336818
 31
0.0
  0
LINE
  5
3F5
330
18
100
AcDbEntity
  8
1
  6
Continuous
100
AcDbLine
 10
138.7372825087684
 20
144.9001655336818
 30
0.0
 11
139.5372825087683
 21
146.5323545336818
 31
0.0
  0
ARC
  5
3F6
330
18
100
AcDbEntity
  8
1
  6
Continuous
100
AcDbCircle
 10
140.5122825087684
 20
145.2015280336818
 30
0.0
 40
0.425
100
AcDbArc
 50
301.9657189999993
 51
0.0
  0
LINE
  5
3F8
330
18
100
AcDbEntity
  8
1
  6
Continuous
100
AcDbLine
 10
140.9372825087684
 20
145.1765280336818
 30
0.0
 11
141.9372825087684
 21
145.1765280336818
 31
0.0
  0
LINE
  5
3F9
330
18
100
AcDbEntity
  8
1
  6
Continuous
100
AcDbLine
 10
140.7372825087684
 20
146.5323545336818
 30
0.0
 11
139.5372825087683
 21
146.5323545336818
 31
0.0
  0
LINE
  5
3FA
330
18
100
AcDbEntity
  8
1
  6
Continuous
100
AcDbLine
 10
139.5372825087683
 20
141.4765280336818
 30
0.0
 11
139.5372825087683
 21
146.5323545336818
 31
0.0
  0
LINE
  5
3FB
330
18
100
AcDbEntity
  8
1
  6
Continuous
100
AcDbLine
 10
139.5372825087683
 20
141.4765280336818
 30
0.0
 11
142.7372825087684
 21
141.4765280336818
 31
0.0
  0
LINE
  5
3FD
330
18
100
AcDbEntity
  8
1
  6
Continuous
100
AcDbLine
 10
142.7372825087684
 20
141.4765280336818
 30
0.0
 11
143.0372825087683
 21
141.7765280336818
 31
0.0
  0
LINE
  5
3FE
330
18
100
AcDbEntity
  8
1
  6
Continuous
100
AcDbLine
 10
143.0372825087683
 20
142.5308190336818
 30
0.0
 11
140.7372825087684
 21
142.5308190336818
 31
0.0
  0
LINE
  5
3FF
330
18
100
AcDbEntity
  8
1
  6
Continuous
100
AcDbLine
 10
143.0372825087683
 20
144.0248085336818
 30
0.0
 11
140.7372825087684
 21
144.0248085336818
 31
0.0
  0
LINE
  5
400
330
18
100
AcDbEntity
  8
1
  6
Continuous
100
AcDbLine
 10
143.0372825087683
 20
141.7765280336818
 30
0.0
 11
143.0372825087683
 21
144.0248085336818
 31
0.0
  0
ARC
  5
401
330
18
100
AcDbEntity
  8
1
  6
Continuous
100
AcDbCircle
 10
211.3253006643152
 20
145.4133885336818
 30
0.0
 40
2.770833499999999
100
AcDbArc
 50
325.0396599999997
 51
34.9603400000003
  0
ARC
  5
402
330
18
100
AcDbEntity
  8
1
  6
Continuous
100
AcDbCircle
 10
212.6669676643152
 20
145.4133885336818
 30
0.0
 40
2.770833499999999
100
AcDbArc
 50
145.0396599999996
 51
214.9603400000003
  0
LINE
  5
403
330
18
100
AcDbEntity
  8
1
  6
Continuous
100
AcDbLine
 10
198.6731079014266
 20
146.8798040336818
 30
0.0
 11
198.6731079014266
 21
146.5017555336818
 31
0.0
  0
LINE
  5
404
330
18
100
AcDbEntity
  8
1
  6
Continuous
100
AcDbLine
 10
210.3961341643152
 20
143.8256750336818
 30
0.0
 11
213.5961341643152
 21
143.8256750336818
 31
0.0
  0
LINE
  5
406
330
18
100
AcDbEntity
  8
1
  6
Continuous
100
AcDbLine
 10
199.7731079014266
 20
146.5757395336818
 30
0.0
 11
200.0731079014266
 21
146.5220815336818
 31
0.0
  0
ARC
  5
407
330
18
100
AcDbEntity
  8
1
  6
Continuous
100
AcDbCircle
 10
196.8655404014265
 20
144.9000350336818
 30
0.0
 40
2.415121
100
AcDbArc
 50
29.23134799999971
 51
41.54477799999997
  0
ARC
  5
408
330
18
100
AcDbEntity
  8
1
  6
Continuous
100
AcDbCircle
 10
200.4048774014266
 20
145.6498945336818
 30
0.0
 40
0.9331565000000001
100
AcDbArc
 50
110.8262309999989
 51
132.6115579999998
  0
LINE
  5
409
330
18
100
AcDbEntity
  8
1
  6
Continuous
100
AcDbLine
 10
198.6731079014266
 20
146.5017555336818
 30
0.0
 11
198.9731079014267
 21
146.4480970336818
 31
0.0
  0
LINE
  5
40A
330
18
100
AcDbEntity
  8
1
  6
Continuous
100
AcDbLine
 10
198.9731079014267
 20
143.6765280336818
 30
0.0
 11
199.7731079014266
 21
143.6765280336818
 31
0.0
  0
LINE
  5
40B
330
18
100
AcDbEntity
  8
1
  6
Continuous
100
AcDbLine
 10
213.5961341643152
 20
147.0011015336818
 30
0.0
 11
210.3961341643152
 21
147.0011015336818
 31
0.0
  0
ARC
  5
415
330
18
100
AcDbEntity
  8
1
  6
Continuous
100
AcDbCircle
 10
200.5616604014266
 20
146.5865285336818
 30
0.0
 40
1.0893965
100
AcDbArc
 50
116.6450310000005
 51
136.37273
  0
LINE
  5
416
330
18
100
AcDbEntity
  8
1
  6
Continuous
100
AcDbLine
 10
198.9731079014265
 20
147.0515280336818
 30
0.0
 11
198.6731079014265
 21
146.8783230336818
 31
0.0
  0
LINE
  5
417
330
18
100
AcDbEntity
  8
1
  6
Continuous
100
AcDbLine
 10
200.0635979014266
 20
149.9487615336818
 30
0.0
 11
199.7731079014266
 21
149.2559110336818
 31
0.0
  0
ARC
  5
418
330
18
100
AcDbEntity
  8
1
  6
Continuous
100
AcDbCircle
 10
197.7040109014266
 20
146.8010950336818
 30
0.0
 40
1.569358
100
AcDbArc
 50
36.03353199999957
 51
51.86533499999928
  0
LINE
  5
419
330
18
100
AcDbEntity
  8
1
  6
Continuous
100
AcDbLine
 10
199.7731079014266
 20
147.7007125336818
 30
0.0
 11
200.0731079014266
 21
147.5602330336818
 31
0.0
  0
LINE
  5
41A
330
18
100
AcDbEntity
  8
1
  6
Continuous
100
AcDbLine
 10
199.7731079014266
 20
150.1168990336818
 30
0.0
 11
200.0635979014266
 21
149.9487615336818
 31
0.0
  0
LINE
  5
41B
330
18
100
AcDbEntity
  8
1
  6
Continuous
100
AcDbLine
 10
199.7731079014265
 20
152.0845420336818
 30
0.0
 11
200.0731079014266
 21
151.9440625336818
 31
0.0
  0
LINE
  5
41C
330
18
100
AcDbEntity
  8
1
  6
Continuous
100
AcDbLine
 10
198.6731079014265
 20
150.1985405336816
 30
0.0
 11
198.9731079014265
 21
150.7193030336817
 31
0.0
  0
LINE
  5
41D
330
18
100
AcDbEntity
  8
1
  6
Continuous
100
AcDbLine
 10
199.7731079014266
 20
151.6067260336818
 30
0.0
 11
200.0731079014266
 21
151.9440625336818
 31
0.0
  0
LINE
  5
41E
330
18
100
AcDbEntity
  8
1
  6
Continuous
100
AcDbLine
 10
198.6731079014266
 20
148.4967635336818
 30
0.0
 11
198.6731079014266
 21
148.0354915336818
 31
0.0
  0
LINE
  5
41F
330
18
100
AcDbEntity
  8
1
  6
Continuous
100
AcDbLine
 10
198.6731079014266
 20
148.0354915336818
 30
0.0
 11
198.9731079014267
 21
147.8950120336818
 31
0.0
  0
LINE
  5
420
330
18
100
AcDbEntity
  8
1
  6
Continuous
100
AcDbLine
 10
198.6731079014266
 20
150.1985405336819
 30
0.0
 11
198.9731079014267
 21
150.0248980336818
 31
0.0
  0
LINE
  5
421
330
18
100
AcDbEntity
  8
1
  6
Continuous
100
AcDbLine
 10
198.6760769014265
 20
152.2486660336818
 30
0.0
 11
198.9731079014267
 21
152.1095765336818
 31
0.0
  0
LINE
  5
422
330
18
100
AcDbEntity
  8
1
  6
Continuous
100
AcDbLine
 10
198.6731079014266
 20
146.8798040336819
 30
0.0
 11
198.9731079014267
 21
146.8261455336819
 31
0.0
  0
LINE
  5
423
330
18
100
AcDbEntity
  8
1
  6
Continuous
100
AcDbLine
 10
198.6731079014266
 20
148.4967635336818
 30
0.0
 11
198.9731079014267
 21
148.3562835336818
 31
0.0
  0
LINE
  5
424
330
18
100
AcDbEntity
  8
1
  6
Continuous
100
AcDbLine
 10
153.5372825087683
 20
147.6765280336818
 30
0.0
 11
152.5372825087683
 21
146.6765280336818
 31
0.0
  0
LINE
  5
425
330
18
100
AcDbEntity
  8
1
  6
Continuous
100
AcDbLine
 10
152.5372825087683
 20
146.6765280336818
 30
0.0
 11
152.5372825087683
 21
147.9494225336818
 31
0.0
  0
ARC
  5
426
330
18
100
AcDbEntity
  8
1
  6
Continuous
100
AcDbCircle
 10
149.8372825087684
 20
150.1765280336818
 30
0.0
 40
3.5
100
AcDbArc
 50
320.4823469999999
 51
39.51765300000005
  0
LINE
  5
428
330
18
100
AcDbEntity
  8
1
  6
Continuous
100
AcDbLine
 10
143.5372825087684
 20
153.6765280336818
 30
0.0
 11
152.5372825087683
 21
153.6765280336818
 31
0.0
  0
LINE
  5
429
330
18
100
AcDbEntity
  8
1
  6
Continuous
100
AcDbLine
 10
143.5372825087683
 20
157.8765280336819
 30
0.0
 11
141.9372825087684
 21
157.8765280336819
 31
0.0
  0
LINE
  5
42A
330
18
100
AcDbEntity
  8
1
  6
Continuous
100
AcDbLine
 10
143.5372825087683
 20
154.3827395336818
 30
0.0
 11
141.9372825087684
 21
154.3827395336818
 31
0.0
  0
LINE
  5
42B
330
18
100
AcDbEntity
  8
1
  6
Continuous
100
AcDbLine
 10
143.5372825087683
 20
153.3063720336818
 30
0.0
 11
141.9372825087684
 21
153.3063720336818
 31
0.0
  0
LINE
  5
42C
330
18
100
AcDbEntity
  8
1
  6
Continuous
100
AcDbLine
 10
138.7372825087684
 20
159.6765280336818
 30
0.0
 11
138.7372825087684
 21
158.0451525336818
 31
0.0
  0
LINE
  5
42D
330
18
100
AcDbEntity
  8
1
  6
Continuous
100
AcDbLine
 10
139.5372825087683
 20
158.8765280336819
 30
0.0
 11
139.5372825087683
 21
157.5778110336818
 31
0.0
  0
LINE
  5
42E
330
18
100
AcDbEntity
  8
1
  6
Continuous
100
AcDbLine
 10
139.5372825087683
 20
157.5778110336818
 30
0.0
 11
138.7372825087683
 21
158.0451525336817
 31
0.0
  0
LINE
  5
42F
330
18
100
AcDbEntity
  8
1
  6
Continuous
100
AcDbLine
 10
138.7372825087684
 20
155.4995680336818
 30
0.0
 11
139.5372825087683
 21
154.7493840336818
 31
0.0
  0
LINE
  5
430
330
18
100
AcDbEntity
  8
1
  6
Continuous
100
AcDbLine
 10
138.7372825087684
 20
155.4528905336819
 30
0.0
 11
139.5372825087683
 21
153.8207015336818
 31
0.0
  0
ARC
  5
431
330
18
100
AcDbEntity
  8
1
  6
Continuous
100
AcDbCircle
 10
139.1230690087684
 20
156.2222910336818
 30
0.0
 40
1.414213499999999
100
AcDbArc
 50
282.8276759999995
 51
90.0
  0
LINE
  5
432
330
18
100
AcDbEntity
  8
1
  6
Continuous
100
AcDbLine
 10
138.7372825087684
 20
155.4995680336818
 30
0.0
 11
138.7372825087684
 21
155.4528905336818
 31
0.0
  0
ARC
  5
433
330
18
100
AcDbEntity
  8
1
  6
Continuous
100
AcDbCircle
 10
140.5122825087684
 20
155.1515280336818
 30
0.0
 40
0.425
100
AcDbArc
 50
0.0
 51
58.03428100000061
  0
LINE
  5
435
330
18
100
AcDbEntity
  8
1
  6
Continuous
100
AcDbLine
 10
140.9372825087684
 20
155.1765280336818
 30
0.0
 11
141.9372825087684
 21
155.1765280336818
 31
0.0
  0
LINE
  5
436
330
18
100
AcDbEntity
  8
1
  6
Continuous
100
AcDbLine
 10
140.7372825087684
 20
153.8207015336818
 30
0.0
 11
139.5372825087683
 21
153.8207015336818
 31
0.0
  0
LINE
  5
437
330
18
100
AcDbEntity
  8
1
  6
Continuous
100
AcDbLine
 10
140.7372825087684
 20
154.7493840336818
 30
0.0
 11
139.5372825087683
 21
154.7493840336818
 31
0.0
  0
LINE
  5
438
330
18
100
AcDbEntity
  8
1
  6
Continuous
100
AcDbLine
 10
140.7372825087684
 20
157.5778110336818
 30
0.0
 11
139.5372825087683
 21
157.5778110336818
 31
0.0
  0
LINE
  5
43A
330
18
100
AcDbEntity
  8
1
  6
Continuous
100
AcDbLine
 10
139.5372825087683
 20
154.7493840336818
 30
0.0
 11
139.5372825087683
 21
153.8207015336818
 31
0.0
  0
LINE
  5
43B
330
18
100
AcDbEntity
  8
1
  6
Continuous
100
AcDbLine
 10
139.5372825087683
 20
158.8765280336819
 30
0.0
 11
138.7372825087684
 21
159.6765280336818
 31
0.0
  0
LINE
  5
43C
330
18
100
AcDbEntity
  8
1
  6
Continuous
100
AcDbLine
 10
139.5372825087683
 20
158.8765280336819
 30
0.0
 11
140.7372825087684
 21
158.8765280336819
 31
0.0
  0
LINE
  5
43D
330
18
100
AcDbEntity
  8
1
  6
Continuous
100
AcDbLine
 10
213.5961341643152
 20
153.3519545336818
 30
0.0
 11
210.3961341643152
 21
153.3519545336818
 31
0.0
  0
LINE
  5
43E
330
18
100
AcDbEntity
  8
1
  6
Continuous
100
AcDbLine
 10
210.3961341643152
 20
156.5273810336818
 30
0.0
 11
213.5961341643152
 21
156.5273810336818
 31
0.0
  0
ARC
  5
43F
330
18
100
AcDbEntity
  8
1
  6
Continuous
100
AcDbCircle
 10
212.6669676643152
 20
154.9396680336818
 30
0.0
 40
2.770833499999999
100
AcDbArc
 50
145.0396599999996
 51
214.9603400000003
  0
LINE
  5
441
330
18
100
AcDbEntity
  8
1
  6
Continuous
100
AcDbLine
 10
200.0731079014266
 20
153.4732525336818
 30
0.0
 11
200.0731079014266
 21
153.0880795336818
 31
0.0
  0
LINE
  5
442
330
18
100
AcDbEntity
  8
1
  6
Continuous
100
AcDbLine
 10
198.6731079014266
 20
153.8309750336818
 30
0.0
 11
198.6731079014266
 21
153.4458020336818
 31
0.0
  0
LINE
  5
443
330
18
100
AcDbEntity
  8
1
  6
Continuous
100
AcDbLine
 10
199.7731079014266
 20
153.1417380336819
 30
0.0
 11
200.0731079014266
 21
153.0880795336819
 31
0.0
  0
LINE
  5
444
330
18
100
AcDbEntity
  8
1
  6
Continuous
100
AcDbLine
 10
199.7731079014265
 20
153.5269105336818
 30
0.0
 11
200.0731079014265
 21
153.4732525336818
 31
0.0
  0
ARC
  5
445
330
18
100
AcDbEntity
  8
1
  6
Continuous
100
AcDbCircle
 10
200.2521999014267
 20
154.4774025336818
 30
0.0
 40
1.019995999999999
100
AcDbArc
 50
241.9851680000002
 51
259.8875110000005
  0
ARC
  5
446
330
18
100
AcDbEntity
  8
1
  6
Continuous
100
AcDbCircle
 10
198.2362624014266
 20
155.6153465336818
 30
0.0
 40
1.837066999999999
100
AcDbArc
 50
283.7564390000008
 51
293.6468899999997
  0
LINE
  5
447
330
18
100
AcDbEntity
  8
1
  6
Continuous
100
AcDbLine
 10
198.6731079014266
 20
153.4458020336818
 30
0.0
 11
198.9731079014267
 21
153.3921440336818
 31
0.0
  0
LINE
  5
448
330
18
100
AcDbEntity
  8
1
  6
Continuous
100
AcDbLine
 10
198.6731079014266
 20
153.8309750336819
 30
0.0
 11
198.9731079014267
 21
153.7773165336819
 31
0.0
  0
LINE
  5
449
330
18
100
AcDbEntity
  8
1
  6
Continuous
100
AcDbLine
 10
198.9731079014267
 20
156.6765280336818
 30
0.0
 11
199.7731079014266
 21
156.6765280336818
 31
0.0
  0
LINE
  5
44A
330
18
100
AcDbEntity
  8
1
  6
Continuous
100
AcDbLine
 10
198.9731079014267
 20
153.3015280336819
 30
0.0
 11
198.7457099014267
 21
153.4328165336819
 31
0.0
  0
ARC
  5
44B
330
18
100
AcDbEntity
  8
1
  6
Continuous
100
AcDbCircle
 10
211.3253006643152
 20
154.9396680336818
 30
0.0
 40
2.770833499999999
100
AcDbArc
 50
325.0396599999997
 51
34.9603400000003
  0
LINE
  5
44C
330
18
100
AcDbEntity
  8
1
  6
Continuous
100
AcDbLine
 10
152.5372825087683
 20
153.6765280336818
 30
0.0
 11
153.5372825087683
 21
152.6765280336818
 31
0.0
  0
LINE
  5
450
330
18
100
AcDbEntity
  8
4
  6
CENTER
100
AcDbLine
 10
293.4872326364634
 20
150.1765280334967
 30
0.0
 11
259.4872326364634
 21
150.1765280334967
 31
0.0
  0
CIRCLE
  5
451
330
18
100
AcDbEntity
  8
1
  6
Continuous
100
AcDbCircle
 10
276.4872326364634
 20
150.1765280334967
 30
0.0
 40
15.0
  0
LINE
  5
452
330
18
100
AcDbEntity
  8
4
  6
CENTER
100
AcDbLine
 10
276.4872326364634
 20
167.1765280334968
 30
0.0
 11
276.4872326364634
 21
133.1765280334967
 31
0.0
  0
LINE
  5
453
330
18
100
AcDbEntity
  8
1
  6
Continuous
100
AcDbLine
 10
284.1872326364633
 20
154.0066715334966
 30
0.0
 11
284.1872326364633
 21
151.3078990334967
 31
0.0
  0
ARC
  5
454
330
18
100
AcDbEntity
  8
1
  6
Continuous
100
AcDbCircle
 10
276.4872326364634
 20
150.1765280334967
 30
0.0
 40
7.0
100
AcDbArc
 50
151.0000000000001
 51
298.9999999999991
  0
LINE
  5
456
330
18
100
AcDbEntity
  8
1
  6
Continuous
100
AcDbLine
 10
287.4872326364634
 20
143.8256750334967
 30
0.0
 11
287.4872326364634
 21
156.5273810334967
 31
0.0
  0
LINE
  5
457
330
18
100
AcDbEntity
  8
1
  6
Continuous
100
AcDbLine
 10
265.4872326364634
 20
143.8256750334967
 30
0.0
 11
265.4872326364634
 21
156.5273810334967
 31
0.0
  0
CIRCLE
  5
458
330
18
100
AcDbEntity
  8
1
  6
Continuous
100
AcDbCircle
 10
276.4872326364634
 20
150.1765280334967
 30
0.0
 40
11.0
  0
ARC
  5
459
330
18
100
AcDbEntity
  8
2
  6
Continuous
100
AcDbCircle
 10
276.4872326364634
 20
150.1765280334967
 30
0.0
 40
9.5
100
AcDbArc
 50
326.2612769999996
 51
33.7387230000003
  0
ARC
  5
45A
330
18
100
AcDbEntity
  8
2
  6
Continuous
100
AcDbCircle
 10
276.4872326364634
 20
150.1765280334967
 30
0.0
 40
9.5
100
AcDbArc
 50
146.2612769999996
 51
213.7387230000002
  0
ARC
  5
45B
330
18
100
AcDbEntity
  8
1
  6
Continuous
100
AcDbCircle
 10
276.4872326364634
 20
150.1765280334967
 30
0.0
 40
8.9585
100
AcDbArc
 50
331.375449
 51
28.62455099999995
  0
ARC
  5
45C
330
18
100
AcDbEntity
  8
1
  6
Continuous
100
AcDbCircle
 10
276.4872326364634
 20
150.1765280334967
 30
0.0
 40
8.9585
100
AcDbArc
 50
151.375449
 51
208.6245509999999
  0
ARC
  5
45D
330
18
100
AcDbEntity
  8
2
  6
Continuous
100
AcDbCircle
 10
276.4872326364634
 20
150.1765280334967
 30
0.0
 40
3.093999999999998
100
AcDbArc
 50
30.23128599999972
 51
149.7687140000001
  0
ARC
  5
45E
330
18
100
AcDbEntity
  8
1
  6
Continuous
100
AcDbCircle
 10
276.4872326364634
 20
150.1765280334967
 30
0.0
 40
3.5
100
AcDbArc
 50
39.51765300000005
 51
140.4823469999999
  0
CIRCLE
  5
45F
330
18
100
AcDbEntity
  8
1
  6
Continuous
100
AcDbCircle
 10
276.4872326364634
 20
150.1765280334967
 30
0.0
 40
5.5
  0
LINE
  5
460
330
18
100
AcDbEntity
  8
1
  6
Continuous
100
AcDbLine
 10
281.9872326364634
 20
153.3519545334968
 30
0.0
 11
281.9872326364634
 21
147.0011015334967
 31
0.0
  0
LINE
  5
461
330
18
100
AcDbEntity
  8
1
  6
Continuous
100
AcDbLine
 10
270.9872326364634
 20
153.3519545334968
 30
0.0
 11
270.9872326364634
 21
147.0011015334967
 31
0.0
  0
CIRCLE
  5
462
330
18
100
AcDbEntity
  8
1
  6
Continuous
100
AcDbCircle
 10
276.4872326364634
 20
150.1765280334967
 30
0.0
 40
6.5
  0
LINE
  5
463
330
18
100
AcDbEntity
  8
1
  6
Continuous
100
AcDbLine
 10
284.3872326364634
 20
155.4528905334968
 30
0.0
 11
284.3872326364634
 21
144.9001655334966
 31
0.0
  0
LINE
  5
464
330
18
100
AcDbEntity
  8
1
  6
Continuous
100
AcDbLine
 10
268.5872326364634
 20
155.4528905334968
 30
0.0
 11
268.5872326364634
 21
144.9001655334966
 31
0.0
  0
ARC
  5
466
330
18
100
AcDbEntity
  8
1
  6
Continuous
100
AcDbCircle
 10
276.4872326364634
 20
150.1765280334967
 30
0.0
 40
8.699999999999999
100
AcDbArc
 50
204.763299
 51
301.7096950000006
  0
LINE
  5
467
330
18
100
AcDbEntity
  8
1
  6
Continuous
100
AcDbLine
 10
276.4872326364634
 20
137.4748220334968
 30
0.0
 11
287.4872326364634
 21
143.8256750334968
 31
0.0
  0
ARC
  5
468
330
18
100
AcDbEntity
  8
2
  6
Continuous
100
AcDbCircle
 10
276.4872326364634
 20
150.1765280334967
 30
0.0
 40
3.5
100
AcDbArc
 50
320.4823469999999
 51
39.51765300000005
  0
ARC
  5
469
330
18
100
AcDbEntity
  8
1
  6
Continuous
100
AcDbCircle
 10
276.4872326364634
 20
150.1765280334967
 30
0.0
 40
3.093999999999998
100
AcDbArc
 50
329.7687140000002
 51
30.23128599999972
  0
LINE
  5
46A
330
18
100
AcDbEntity
  8
1
  6
Continuous
100
AcDbLine
 10
276.4872326364634
 20
143.8256750334968
 30
0.0
 11
281.9872326364634
 21
147.0011015334968
 31
0.0
  0
ARC
  5
46B
330
18
100
AcDbEntity
  8
2
  6
Continuous
100
AcDbCircle
 10
276.4872326364634
 20
150.1765280334967
 30
0.0
 40
8.9585
100
AcDbArc
 50
208.6245509999999
 51
302.9844829999998
  0
ARC
  5
46C
330
18
100
AcDbEntity
  8
1
  6
Continuous
100
AcDbCircle
 10
276.4872326364634
 20
150.1765280334967
 30
0.0
 40
9.5
100
AcDbArc
 50
213.7387230000002
 51
304.077928999999
  0
LINE
  5
46D
330
18
100
AcDbEntity
  8
1
  6
Continuous
100
AcDbLine
 10
276.4872326364634
 20
137.4748220334968
 30
0.0
 11
265.4872326364634
 21
143.8256750334967
 31
0.0
  0
LINE
  5
46E
330
18
100
AcDbEntity
  8
1
  6
Continuous
100
AcDbLine
 10
276.4872326364634
 20
143.8256750334967
 30
0.0
 11
270.9872326364634
 21
147.0011015334968
 31
0.0
  0
ARC
  5
46F
330
18
100
AcDbEntity
  8
1
  6
Continuous
100
AcDbCircle
 10
276.4872326364634
 20
150.1765280334967
 30
0.0
 40
3.5
100
AcDbArc
 50
219.517653
 51
320.4823469999999
  0
LINE
  5
470
330
18
100
AcDbEntity
  8
1
  6
Continuous
100
AcDbLine
 10
272.3359516364634
 20
142.5308190334968
 30
0.0
 11
273.1471216364634
 21
144.0248085334968
 31
0.0
  0
ARC
  5
471
330
18
100
AcDbEntity
  8
2
  6
Continuous
100
AcDbCircle
 10
276.4872326364634
 20
150.1765280334967
 30
0.0
 40
3.093999999999998
100
AcDbArc
 50
210.2312859999997
 51
329.7687140000002
  0
ARC
  5
472
330
18
100
AcDbEntity
  8
2
  6
Continuous
100
AcDbCircle
 10
276.4872326364634
 20
150.1765280334967
 30
0.0
 40
3.5
100
AcDbArc
 50
140.4823469999999
 51
219.517653
  0
ARC
  5
473
330
18
100
AcDbEntity
  8
1
  6
Continuous
100
AcDbCircle
 10
276.4872326364634
 20
150.1765280334967
 30
0.0
 40
3.093999999999998
100
AcDbArc
 50
149.7687140000001
 51
210.2312859999997
  0
LINE
  5
474
330
18
100
AcDbEntity
  8
1
  6
Continuous
100
AcDbLine
 10
273.7872326364633
 20
152.4036340334967
 30
0.0
 11
273.7872326364633
 21
147.9494225334967
 31
0.0
  0
LINE
  5
475
330
18
100
AcDbEntity
  8
1
  6
Continuous
100
AcDbLine
 10
279.1872326364633
 20
152.4036340334967
 30
0.0
 11
279.1872326364633
 21
147.9494225334967
 31
0.0
  0
LINE
  5
476
330
18
100
AcDbEntity
  8
1
  6
Continuous
100
AcDbLine
 10
284.1872326364633
 20
149.0451575334966
 30
0.0
 11
284.1872326364633
 21
146.3463845334967
 31
0.0
  0
ARC
  5
477
330
18
100
AcDbEntity
  8
1
  6
Continuous
100
AcDbCircle
 10
276.4872326364634
 20
150.1765280334967
 30
0.0
 40
8.599999999999999
100
AcDbArc
 50
301.0713830000002
 51
333.5532719999998
  0
ARC
  5
478
330
18
100
AcDbEntity
  8
2
  6
Continuous
100
AcDbCircle
 10
276.4872326364634
 20
150.1765280334967
 30
0.0
 40
9.5
100
AcDbArc
 50
304.077928999999
 51
325.9220709999998
  0
ARC
  5
479
330
18
100
AcDbEntity
  8
1
  6
Continuous
100
AcDbCircle
 10
276.4872326364634
 20
150.1765280334967
 30
0.0
 40
8.9585
100
AcDbArc
 50
302.9844829999998
 51
327.0155169999997
  0
ARC
  5
47A
330
18
100
AcDbEntity
  8
1
  6
Continuous
100
AcDbCircle
 10
279.5590856364634
 20
144.2222255334967
 30
0.0
 40
0.2
100
AcDbArc
 50
28.99999999999987
 51
117.2894240000009
  0
ARC
  5
47B
330
18
100
AcDbEntity
  8
1
  6
Continuous
100
AcDbCircle
 10
280.7709091364634
 20
143.0673710334967
 30
0.0
 40
0.3
100
AcDbArc
 50
208.9999999999998
 51
301.0713830000002
  0
LINE
  5
47C
330
18
100
AcDbEntity
  8
1
  6
Continuous
100
AcDbLine
 10
279.7340096364633
 20
144.3191875334967
 30
0.0
 11
280.5085231364634
 21
142.9219280334967
 31
0.0
  0
LINE
  5
47D
330
18
100
AcDbEntity
  8
1
  6
Continuous
100
AcDbLine
 10
279.8273441364633
 20
144.0248085334967
 30
0.0
 11
280.6385141364632
 21
142.5308190334967
 31
0.0
  0
LINE
  5
47E
330
18
100
AcDbEntity
  8
1
  6
Continuous
100
AcDbLine
 10
281.1187821364634
 20
142.7165515334967
 30
0.0
 11
281.5430461364634
 21
142.5751300334967
 31
0.0
  0
LINE
  5
47F
330
18
100
AcDbEntity
  8
1
  6
Continuous
100
AcDbLine
 10
281.8102726364634
 20
142.3079040334968
 30
0.0
 11
281.5430461364634
 21
142.5751300334968
 31
0.0
  0
LINE
  5
480
330
18
100
AcDbEntity
  8
1
  6
Continuous
100
AcDbLine
 10
281.1187821364634
 20
142.7165515334968
 30
0.0
 11
280.9874086364634
 21
142.8479255334968
 31
0.0
  0
ARC
  5
481
330
18
100
AcDbEntity
  8
1
  6
Continuous
100
AcDbCircle
 10
276.4872326364634
 20
150.1765280334967
 30
0.0
 40
8.699999999999999
100
AcDbArc
 50
328.290305
 51
335.2367009999999
  0
LINE
  5
482
330
18
100
AcDbEntity
  8
1
  6
Continuous
100
AcDbLine
 10
283.9472091364633
 20
145.5449785334968
 30
0.0
 11
284.0886306364633
 21
145.1207145334967
 31
0.0
  0
LINE
  5
483
330
18
100
AcDbEntity
  8
1
  6
Continuous
100
AcDbLine
 10
284.3558571364633
 20
144.8534885334968
 30
0.0
 11
284.0886306364633
 21
145.1207145334968
 31
0.0
  0
LINE
  5
484
330
18
100
AcDbEntity
  8
1
  6
Continuous
100
AcDbLine
 10
283.9472091364635
 20
145.5449785334968
 30
0.0
 11
283.8158356364635
 21
145.6763525334968
 31
0.0
  0
ARC
  5
485
330
18
100
AcDbEntity
  8
2
  6
Continuous
100
AcDbCircle
 10
276.4872326364634
 20
150.1765280334967
 30
0.0
 40
8.9585
100
AcDbArc
 50
327.0155169999997
 51
331.375449
  0
ARC
  5
486
330
18
100
AcDbEntity
  8
1
  6
Continuous
100
AcDbCircle
 10
276.4872326364634
 20
150.1765280334967
 30
0.0
 40
9.5
100
AcDbArc
 50
325.9220709999998
 51
326.2612769999996
  0
ARC
  5
487
330
18
100
AcDbEntity
  8
1
  6
Continuous
100
AcDbCircle
 10
284.5872326364633
 20
150.1765280334967
 30
0.0
 40
1.199999999999999
100
AcDbArc
 50
109.4712209999999
 51
250.528779
  0
LINE
  5
488
330
18
100
AcDbEntity
  8
1
  6
Continuous
100
AcDbLine
 10
272.6570891364633
 20
157.8765280334967
 30
0.0
 11
280.3173761364634
 21
157.8765280334967
 31
0.0
  0
ARC
  5
489
330
18
100
AcDbEntity
  8
1
  6
Continuous
100
AcDbCircle
 10
276.4872326364634
 20
150.1765280334967
 30
0.0
 40
8.699999999999999
100
AcDbArc
 50
24.76329900000009
 51
121.7096950000006
  0
LINE
  5
48A
330
18
100
AcDbEntity
  8
1
  6
Continuous
100
AcDbLine
 10
276.4872326364634
 20
162.8782340334967
 30
0.0
 11
287.4872326364634
 21
156.5273810334967
 31
0.0
  0
LINE
  5
48B
330
18
100
AcDbEntity
  8
1
  6
Continuous
100
AcDbLine
 10
281.9872326364634
 20
153.3519545334968
 30
0.0
 11
276.4872326364634
 21
156.5273810334968
 31
0.0
  0
ARC
  5
48C
330
18
100
AcDbEntity
  8
2
  6
Continuous
100
AcDbCircle
 10
276.4872326364634
 20
150.1765280334967
 30
0.0
 40
8.9585
100
AcDbArc
 50
28.62455099999995
 51
122.9844829999998
  0
ARC
  5
48D
330
18
100
AcDbEntity
  8
1
  6
Continuous
100
AcDbCircle
 10
276.4872326364634
 20
150.1765280334967
 30
0.0
 40
9.5
100
AcDbArc
 50
33.7387230000003
 51
124.077928999999
  0
ARC
  5
48E
330
18
100
AcDbEntity
  8
1
  6
Continuous
100
AcDbCircle
 10
276.4872326364634
 20
150.1765280334967
 30
0.0
 40
8.599999999999999
100
AcDbArc
 50
116.4467280000001
 51
148.9286169999997
  0
ARC
  5
48F
330
18
100
AcDbEntity
  8
2
  6
Continuous
100
AcDbCircle
 10
276.4872326364634
 20
150.1765280334967
 30
0.0
 40
9.5
100
AcDbArc
 50
124.077928999999
 51
145.9220709999998
  0
ARC
  5
490
330
18
100
AcDbEntity
  8
1
  6
Continuous
100
AcDbCircle
 10
276.4872326364634
 20
150.1765280334967
 30
0.0
 40
8.9585
100
AcDbArc
 50
122.9844829999998
 51
147.0155169999997
  0
LINE
  5
491
330
18
100
AcDbEntity
  8
1
  6
Continuous
100
AcDbLine
 10
276.4872326364634
 20
162.8782340334967
 30
0.0
 11
265.4872326364634
 21
156.5273810334968
 31
0.0
  0
LINE
  5
492
330
18
100
AcDbEntity
  8
1
  6
Continuous
100
AcDbLine
 10
270.9872326364634
 20
153.3519545334968
 30
0.0
 11
276.4872326364634
 21
156.5273810334968
 31
0.0
  0
ARC
  5
493
330
18
100
AcDbEntity
  8
1
  6
Continuous
100
AcDbCircle
 10
270.5329301364634
 20
153.2483810334968
 30
0.0
 40
0.2
100
AcDbArc
 50
332.7105759999998
 51
60.99999999999901
  0
ARC
  5
494
330
18
100
AcDbEntity
  8
1
  6
Continuous
100
AcDbCircle
 10
269.3780756364634
 20
154.4602045334967
 30
0.0
 40
0.3
100
AcDbArc
 50
148.9286169999997
 51
241.0000000000008
  0
LINE
  5
495
330
18
100
AcDbEntity
  8
1
  6
Continuous
100
AcDbLine
 10
270.6298921364633
 20
153.4233050334968
 30
0.0
 11
269.2326326364634
 21
154.1978185334967
 31
0.0
  0
ARC
  5
496
330
18
100
AcDbEntity
  8
1
  6
Continuous
100
AcDbCircle
 10
276.4872326364634
 20
150.1765280334967
 30
0.0
 40
8.699999999999999
100
AcDbArc
 50
148.290305
 51
155.2367009999999
  0
LINE
  5
497
330
18
100
AcDbEntity
  8
1
  6
Continuous
100
AcDbLine
 10
269.0272561364634
 20
154.8080775334968
 30
0.0
 11
268.8858346364633
 21
155.2323415334966
 31
0.0
  0
LINE
  5
498
330
18
100
AcDbEntity
  8
1
  6
Continuous
100
AcDbLine
 10
268.6186086364633
 20
155.4995680334966
 30
0.0
 11
268.8858346364634
 21
155.2323415334966
 31
0.0
  0
ARC
  5
499
330
18
100
AcDbEntity
  8
2
  6
Continuous
100
AcDbCircle
 10
276.4872326364634
 20
150.1765280334967
 30
0.0
 40
8.9585
100
AcDbArc
 50
147.0155169999997
 51
151.375449
  0
ARC
  5
49A
330
18
100
AcDbEntity
  8
1
  6
Continuous
100
AcDbCircle
 10
276.4872326364634
 20
150.1765280334967
 30
0.0
 40
9.5
100
AcDbArc
 50
145.9220709999998
 51
146.2612769999996
  0
LINE
  5
49B
330
18
100
AcDbEntity
  8
1
  6
Continuous
100
AcDbLine
 10
269.0272561364634
 20
154.8080775334968
 30
0.0
 11
269.1586301364634
 21
154.6767040334968
 31
0.0
  0
LINE
  5
49C
330
18
100
AcDbEntity
  8
1
  6
Continuous
100
AcDbLine
 10
271.8556831364633
 20
157.6365045334967
 30
0.0
 11
271.4314191364634
 21
157.7779260334967
 31
0.0
  0
LINE
  5
49D
330
18
100
AcDbEntity
  8
1
  6
Continuous
100
AcDbLine
 10
271.1641931364634
 20
158.0451525334968
 30
0.0
 11
271.4314191364633
 21
157.7779260334968
 31
0.0
  0
LINE
  5
49E
330
18
100
AcDbEntity
  8
1
  6
Continuous
100
AcDbLine
 10
271.8556831364633
 20
157.6365045334968
 30
0.0
 11
271.9870571364634
 21
157.5051310334968
 31
0.0
  0
ARC
  5
49F
330
18
100
AcDbEntity
  8
1
  6
Continuous
100
AcDbCircle
 10
276.4872326364634
 20
150.1765280334967
 30
0.0
 40
8.599999999999999
100
AcDbArc
 50
26.44672800000015
 51
63.55327199999987
  0
ARC
  5
4B7
330
18
100
AcDbEntity
  8
1
  6
Continuous
100
AcDbCircle
 10
31.90133606792727
 20
237.2465765953794
 30
0.0
 40
2.0
100
AcDbArc
 50
52.52382043882182
 51
90.0
  0
ARC
  5
4B8
330
18
100
AcDbEntity
  8
1
  6
Continuous
100
AcDbCircle
 10
31.90133606792022
 20
217.2465765953794
 30
0.0
 40
2.0
100
AcDbArc
 50
270.0
 51
307.4761795615457
  0
LINE
  5
4B9
330
18
100
AcDbEntity
  8
1
  6
Continuous
100
AcDbLine
 10
34.05244908992995
 20
231.9756046630481
 30
0.0
 11
30.73462591057336
 21
232.8646127045888
 31
0.0
  0
ARC
  5
4BA
330
18
100
AcDbEntity
  8
1
  6
Continuous
100
AcDbCircle
 10
32.18629635796224
 20
231.1814226887651
 30
0.0
 40
0.3934846093414974
100
AcDbArc
 50
270.0
 51
90.0
  0
LINE
  5
4BB
330
18
100
AcDbEntity
  8
1
  6
Continuous
100
AcDbLine
 10
29.99287742847099
 20
230.0009688607406
 30
0.0
 11
34.91995494854592
 21
230.0009688607406
 31
0.0
  0
LINE
  5
4BC
330
18
100
AcDbEntity
  8
1
  6
Continuous
100
AcDbLine
 10
29.9898478006175
 20
228.4270304233747
 30
0.0
 11
35.16971413397703
 21
228.4270304233747
 31
0.0
  0
LINE
  5
4BD
330
18
100
AcDbEntity
  8
1
  6
Continuous
100
AcDbLine
 10
29.83365883695779
 20
227.6400612046917
 30
0.0
 11
35.32590309763686
 21
227.6400612046917
 31
0.0
  0
LINE
  5
4BE
330
18
100
AcDbEntity
  8
1
  6
Continuous
100
AcDbLine
 10
29.83365883695779
 20
226.8530919860086
 30
0.0
 11
35.32590309763686
 21
226.8530919860086
 31
0.0
  0
LINE
  5
4BF
330
18
100
AcDbEntity
  8
1
  6
Continuous
100
AcDbLine
 10
29.90008494715647
 20
226.0661227673256
 30
0.0
 11
35.25947698743806
 21
226.0661227673256
 31
0.0
  0
LINE
  5
4C0
330
18
100
AcDbEntity
  8
1
  6
Continuous
100
AcDbLine
 10
30.53509197011834
 20
224.4921843299597
 30
0.0
 11
34.6244699644763
 21
224.4921843299597
 31
0.0
  0
LINE
  5
4C1
330
18
100
AcDbEntity
  8
1
  6
Continuous
100
AcDbLine
 10
30.6387511637941
 20
223.7052151112767
 30
0.0
 11
34.52081077080043
 21
223.7052151112767
 31
0.0
  0
LINE
  5
4C2
330
18
100
AcDbEntity
  8
1
  6
Continuous
100
AcDbLine
 10
34.03173821558044
 20
222.9182458925937
 30
0.0
 11
31.1278237190142
 21
222.9182458925937
 31
0.0
  0
LINE
  5
4C3
330
18
100
AcDbEntity
  8
1
  6
Continuous
100
AcDbLine
 10
30.42135213222735
 20
222.1312766739107
 30
0.0
 11
33.8137082799131
 21
222.1312766739107
 31
0.0
  0
ARC
  5
4C4
330
18
100
AcDbEntity
  8
1
  6
Continuous
100
AcDbCircle
 10
32.57978096730385
 20
231.9683919074481
 30
0.0
 40
2.028184687902053
100
AcDbArc
 50
62.24965455462801
 51
144.462322207999
  0
ARC
  5
4C7
330
18
100
AcDbEntity
  8
1
  6
Continuous
100
AcDbCircle
 10
31.90133606792727
 20
237.2465765953794
 30
0.0
 40
1.0
100
AcDbArc
 50
52.52382043882182
 51
90.0
  0
ARC
  5
4CA
330
18
100
AcDbEntity
  8
1
  6
Continuous
100
AcDbCircle
 10
31.90133606792022
 20
217.2465765953794
 30
0.0
 40
1.0
100
AcDbArc
 50
270.0
 51
307.4761795615457
  0
ARC
  5
4CF
330
18
100
AcDbEntity
  8
1
  6
Continuous
100
AcDbCircle
 10
23.57978096730374
 20
231.1410253199152
 30
0.0
 40
2.0
100
AcDbArc
 50
146.3099324740204
 51
180.0
  0
ARC
  5
4D0
330
18
100
AcDbEntity
  8
1
  6
Continuous
100
AcDbCircle
 10
39.19032240423445
 20
227.2465765953502
 30
0.0
 40
10.15190292101059
100
AcDbArc
 50
144.462322207999
 51
215.5376777920009
  0
ARC
  5
4D2
330
18
100
AcDbEntity
  8
1
  6
Continuous
100
AcDbCircle
 10
24.57978096730386
 20
230.7465765953793
 30
0.0
 40
0.5
100
AcDbArc
 50
90.0
 51
180.0
  0
ARC
  5
4D5
330
18
100
AcDbEntity
  8
1
  6
Continuous
100
AcDbCircle
 10
23.57978096730374
 20
231.1410253199152
 30
0.0
 40
1.0
100
AcDbArc
 50
146.3099324740211
 51
180.0
  0
ARC
  5
4D6
330
18
100
AcDbEntity
  8
1
  6
Continuous
100
AcDbCircle
 10
27.07978096730375
 20
230.7465765953792
 30
0.0
 40
0.5
100
AcDbArc
 50
0.0
 51
90.0
  0
LINE
  5
4DE
330
18
100
AcDbEntity
  8
1
  6
Continuous
100
AcDbLine
 10
21.91568037862816
 20
222.2427274783928
 30
0.0
 11
25.98604789560408
 21
216.1371762029289
 31
0.0
  0
LINE
  5
4E1
330
18
100
AcDbEntity
  8
1
  6
Continuous
100
AcDbLine
 10
22.74773067296598
 20
222.7974276746182
 30
0.0
 11
26.81809818994196
 21
216.6918763991541
 31
0.0
  0
LINE
  5
4E4
330
18
100
AcDbEntity
  8
1
  6
Continuous
100
AcDbLine
 10
27.65014848427966
 20
215.2465765953794
 30
0.0
 11
31.90133606792022
 21
215.2465765953794
 31
0.0
  0
LINE
  5
4E7
330
18
100
AcDbEntity
  8
1
  6
Continuous
100
AcDbLine
 10
27.65014848427966
 20
216.2465765953794
 30
0.0
 11
31.90133606792022
 21
216.2465765953794
 31
0.0
  0
ARC
  5
4EC
330
18
100
AcDbEntity
  8
1
  6
Continuous
100
AcDbCircle
 10
27.65014848427978
 20
217.2465765953792
 30
0.0
 40
2.0
100
AcDbArc
 50
213.6900675259794
 51
270.0
  0
ARC
  5
4ED
330
18
100
AcDbEntity
  8
1
  6
Continuous
100
AcDbCircle
 10
27.65014848427978
 20
217.2465765953792
 30
0.0
 40
1.0
100
AcDbArc
 50
213.6900675259802
 51
270.0
  0
LINE
  5
4F2
330
18
100
AcDbEntity
  8
1
  6
Continuous
100
AcDbLine
 10
21.57978096730386
 20
231.1410253199152
 30
0.0
 11
21.57978096730386
 21
223.3521278709416
 31
0.0
  0
LINE
  5
4F4
330
18
100
AcDbEntity
  8
1
  6
Continuous
100
AcDbLine
 10
22.57978096730386
 20
231.1410253199152
 30
0.0
 11
22.57978096730386
 21
223.3521278709416
 31
0.0
  0
LINE
  5
4FC
330
18
100
AcDbEntity
  8
1
  6
Continuous
100
AcDbLine
 10
27.57978096730374
 20
230.7465765953793
 30
0.0
 11
27.57978096730374
 21
223.7465765953794
 31
0.0
  0
LINE
  5
4FD
330
18
100
AcDbEntity
  8
1
  6
Continuous
100
AcDbLine
 10
24.07978096730386
 20
230.7465765953793
 30
0.0
 11
24.07978096730386
 21
223.7465765954774
 31
0.0
  0
ARC
  5
502
330
18
100
AcDbEntity
  8
1
  6
Continuous
100
AcDbCircle
 10
30.53509197011845
 20
224.8856689393012
 30
0.0
 40
0.3934846093414955
100
AcDbArc
 50
195.2575232904558
 51
270.0
  0
ARC
  5
503
330
18
100
AcDbEntity
  8
1
  6
Continuous
100
AcDbCircle
 10
39.19032240423445
 20
227.2465765953502
 30
0.0
 40
9.364933702327595
100
AcDbArc
 50
193.2681189705563
 51
195.2575232904558
  0
ARC
  5
504
330
18
100
AcDbEntity
  8
1
  6
Continuous
100
AcDbCircle
 10
39.19032240423445
 20
227.2465765953502
 30
0.0
 40
9.364933702327595
100
AcDbArc
 50
192.7289438731228
 51
193.2681189705563
  0
ARC
  5
505
330
18
100
AcDbEntity
  8
1
  6
Continuous
100
AcDbCircle
 10
30.13231011582644
 20
225.2004566267745
 30
0.0
 40
0.0786969218682991
100
AcDbArc
 50
90.0
 51
192.7289438731228
  0
LINE
  5
506
330
18
100
AcDbEntity
  8
1
  6
Continuous
100
AcDbLine
 10
31.63541790488415
 20
225.2791535486427
 30
0.0
 11
30.13231011582644
 21
225.2791535486427
 31
0.0
  0
ARC
  5
507
330
18
100
AcDbEntity
  8
1
  6
Continuous
100
AcDbCircle
 10
30.63875116379432
 20
223.6265181894084
 30
0.0
 40
0.0786969218682991
100
AcDbArc
 50
90.0
 51
202.9439535565377
  0
ARC
  5
508
330
18
100
AcDbEntity
  8
1
  6
Continuous
100
AcDbCircle
 10
39.19032240423445
 20
227.2465765953502
 30
0.0
 40
9.364933702327595
100
AcDbArc
 50
202.9439535565377
 51
206.0143659996367
  0
ARC
  5
509
330
18
100
AcDbEntity
  8
1
  6
Continuous
100
AcDbCircle
 10
31.12782371901432
 20
223.3117305019352
 30
0.0
 40
0.3934846093414955
100
AcDbArc
 50
206.0143659996367
 51
270.0
  0
ARC
  5
50A
330
18
100
AcDbEntity
  8
1
  6
Continuous
100
AcDbCircle
 10
32.57978096730385
 20
222.5247612832522
 30
0.0
 40
2.02818468790205
100
AcDbArc
 50
215.5376777920009
 51
256.5374393917324
  0
LINE
  5
50F
330
18
100
AcDbEntity
  8
1
  6
Continuous
100
AcDbLine
 10
24.57978096730375
 20
231.2465765953793
 30
0.0
 11
27.07978096730375
 21
231.2465765953793
 31
0.0
  0
LINE
  5
510
330
18
100
AcDbEntity
  8
1
  6
Continuous
100
AcDbLine
 10
30.36362849681705
 20
230.7879380794236
 30
0.0
 11
32.18629635796224
 21
230.7879380794236
 31
0.0
  0
ARC
  5
511
330
18
100
AcDbEntity
  8
1
  6
Continuous
100
AcDbCircle
 10
29.98984780061761
 20
228.5057273452431
 30
0.0
 40
0.0786969218682991
100
AcDbArc
 50
172.2070756645772
 51
270.0
  0
ARC
  5
512
330
18
100
AcDbEntity
  8
1
  6
Continuous
100
AcDbCircle
 10
39.19032240423445
 20
227.2465765953502
 30
0.0
 40
9.364933702327595
100
AcDbArc
 50
169.8958172838747
 51
172.2070756645772
  0
ARC
  5
513
330
18
100
AcDbEntity
  8
1
  6
Continuous
100
AcDbCircle
 10
30.35801712059408
 20
228.8205150327161
 30
0.0
 40
0.3934846093414955
100
AcDbArc
 50
90.0
 51
169.8958172838747
  0
LINE
  5
514
330
18
100
AcDbEntity
  8
1
  6
Continuous
100
AcDbLine
 10
31.63541790488415
 20
229.2139996420577
 30
0.0
 11
30.35801712059395
 21
229.2139996420577
 31
0.0
  0
LINE
  5
515
330
18
100
AcDbEntity
  8
1
  6
Continuous
100
AcDbLine
 10
21.91568037862805
 20
232.2504257123658
 30
0.0
 11
25.98604789560408
 21
238.3559769878299
 31
0.0
  0
LINE
  5
516
330
18
100
AcDbEntity
  8
1
  6
Continuous
100
AcDbLine
 10
26.81809818994179
 20
237.8012767916047
 30
0.0
 11
22.74773067296581
 21
231.6957255161406
 31
0.0
  0
LINE
  5
518
330
18
100
AcDbEntity
  8
1
  6
Continuous
100
AcDbLine
 10
32.18629635796224
 20
231.5749072981066
 30
0.0
 11
30.50509108143018
 21
231.5749072981066
 31
0.0
  0
LINE
  5
519
330
18
100
AcDbEntity
  8
1
  6
Continuous
100
AcDbLine
 10
27.65014848427978
 20
239.2465765953794
 30
0.0
 11
31.90133606792727
 21
239.2465765953794
 31
0.0
  0
LINE
  5
51B
330
18
100
AcDbEntity
  8
1
  6
Continuous
100
AcDbLine
 10
31.90133606792727
 20
238.2465765953794
 30
0.0
 11
27.65014848427978
 21
238.2465765953794
 31
0.0
  0
ARC
  5
51C
330
18
100
AcDbEntity
  8
1
  6
Continuous
100
AcDbCircle
 10
27.65014848427978
 20
237.2465765953793
 30
0.0
 40
2.0
100
AcDbArc
 50
90.0
 51
146.3099324740204
  0
ARC
  5
51D
330
18
100
AcDbEntity
  8
1
  6
Continuous
100
AcDbCircle
 10
27.65014848427978
 20
237.2465765953793
 30
0.0
 40
1.0
100
AcDbArc
 50
90.0
 51
146.3099324740211
  0
LINE
  5
51F
330
18
100
AcDbEntity
  8
1
  6
Continuous
100
AcDbLine
 10
48.07978096730398
 20
232.2465765954253
 30
0.0
 11
48.07978096730398
 21
230.4215765954252
 31
0.0
  0
ARC
  5
520
330
18
100
AcDbEntity
  8
1
  6
Continuous
100
AcDbCircle
 10
25.96923953036031
 20
227.2465765953502
 30
0.0
 40
10.15190292101059
100
AcDbArc
 50
324.4623222080521
 51
35.53767779194789
  0
LINE
  5
522
330
18
100
AcDbEntity
  8
1
  6
Continuous
100
AcDbLine
 10
32.50976761158193
 20
238.0401829566732
 30
0.0
 11
41.57978096730385
 21
231.086506050666
 31
0.0
  0
LINE
  5
525
330
18
100
AcDbEntity
  8
1
  6
Continuous
100
AcDbLine
 10
49.179780967304
 20
230.6715765954253
 30
0.0
 11
67.57978096730397
 21
230.671576595388
 31
0.0
  0
LINE
  5
526
330
18
100
AcDbEntity
  8
1
  6
Continuous
100
AcDbLine
 10
49.17978096730365
 20
223.8215765954253
 30
0.0
 11
67.57978096730397
 21
223.8215765953881
 31
0.0
  0
LINE
  5
527
330
18
100
AcDbEntity
  8
1
  6
Continuous
100
AcDbLine
 10
48.07978096730398
 20
230.3715765954252
 30
0.0
 11
48.87978096730392
 21
230.3715765954252
 31
0.0
  0
LINE
  5
528
330
18
100
AcDbEntity
  8
1
  6
Continuous
100
AcDbLine
 10
48.07978096730398
 20
224.1215765954253
 30
0.0
 11
48.87978096730392
 21
224.1215765954253
 31
0.0
  0
LINE
  5
52B
330
18
100
AcDbEntity
  8
1
  6
Continuous
100
AcDbLine
 10
33.11819915523944
 20
215.6593638727994
 30
0.0
 11
41.05804183687246
 21
221.7465765954253
 31
0.0
  0
LINE
  5
52C
330
18
100
AcDbEntity
  8
1
  6
Continuous
100
AcDbLine
 10
32.50976761157982
 20
216.4529702340894
 30
0.0
 11
41.5797809673038
 21
223.4066471401908
 31
0.0
  0
LINE
  5
535
330
18
100
AcDbEntity
  8
1
  6
Continuous
100
AcDbLine
 10
35.02725181876821
 20
225.2791535486427
 30
0.0
 11
33.52414402972334
 21
225.2791535486427
 31
0.0
  0
ARC
  5
536
330
18
100
AcDbEntity
  8
1
  6
Continuous
100
AcDbCircle
 10
35.02725181876832
 20
225.2004566267745
 30
0.0
 40
0.0786969218682991
100
AcDbArc
 50
347.2710561268771
 51
90.0
  0
ARC
  5
537
330
18
100
AcDbEntity
  8
1
  6
Continuous
100
AcDbCircle
 10
25.96923953036031
 20
227.2465765953502
 30
0.0
 40
9.364933702327595
100
AcDbArc
 50
344.7937121239422
 51
347.2710561268771
  0
ARC
  5
538
330
18
100
AcDbEntity
  8
1
  6
Continuous
100
AcDbCircle
 10
25.96923953036031
 20
227.2465765953502
 30
0.0
 40
9.364933702327595
100
AcDbArc
 50
344.7424767095441
 51
344.7937121239422
  0
ARC
  5
539
330
18
100
AcDbEntity
  8
1
  6
Continuous
100
AcDbCircle
 10
34.62446996447642
 20
224.8856689393012
 30
0.0
 40
0.3934846093414955
100
AcDbArc
 50
270.0
 51
344.7424767095441
  0
ARC
  5
53A
330
18
100
AcDbEntity
  8
1
  6
Continuous
100
AcDbCircle
 10
34.03173821558044
 20
223.3117305019352
 30
0.0
 40
0.3934846093414955
100
AcDbArc
 50
270.0
 51
333.9856340003631
  0
ARC
  5
53B
330
18
100
AcDbEntity
  8
1
  6
Continuous
100
AcDbCircle
 10
25.96923953036031
 20
227.2465765953502
 30
0.0
 40
9.364933702327595
100
AcDbArc
 50
333.9856340003631
 51
337.0560464434622
  0
ARC
  5
53C
330
18
100
AcDbEntity
  8
1
  6
Continuous
100
AcDbCircle
 10
34.52081077080055
 20
223.6265181894084
 30
0.0
 40
0.0786969218682991
100
AcDbArc
 50
337.0560464434622
 51
90.0
  0
ARC
  5
53D
330
18
100
AcDbEntity
  8
1
  6
Continuous
100
AcDbCircle
 10
32.57978096730385
 20
222.5247612832522
 30
0.0
 40
2.02818468790205
100
AcDbArc
 50
270.0
 51
324.4623222080521
  0
LINE
  5
540
330
18
100
AcDbEntity
  8
1
  6
Continuous
100
AcDbLine
 10
32.57978096730374
 20
231.1814226887651
 30
0.0
 11
34.46741400904255
 21
231.1814226887651
 31
0.0
  0
LINE
  5
541
330
18
100
AcDbEntity
  8
1
  6
Continuous
100
AcDbLine
 10
32.57978096730374
 20
229.2139996420577
 30
0.0
 11
32.57978096730374
 21
228.8205150327161
 31
0.0
  0
LINE
  5
542
330
18
100
AcDbEntity
  8
1
  6
Continuous
100
AcDbLine
 10
34.80154481400069
 20
229.2139996420577
 30
0.0
 11
32.57978096730374
 21
229.2139996420577
 31
0.0
  0
ARC
  5
543
330
18
100
AcDbEntity
  8
1
  6
Continuous
100
AcDbCircle
 10
34.80154481400069
 20
228.8205150327161
 30
0.0
 40
0.3934846093414955
100
AcDbArc
 50
10.1041827161253
 51
90.0
  0
ARC
  5
544
330
18
100
AcDbEntity
  8
1
  6
Continuous
100
AcDbCircle
 10
25.96923953036031
 20
227.2465765953502
 30
0.0
 40
9.364933702327595
100
AcDbArc
 50
7.792924335422747
 51
10.1041827161253
  0
ARC
  5
545
330
18
100
AcDbEntity
  8
1
  6
Continuous
100
AcDbCircle
 10
35.16971413397715
 20
228.5057273452431
 30
0.0
 40
0.0786969218682991
100
AcDbArc
 50
270.0
 51
7.792924335422747
  0
LINE
  5
546
330
18
100
AcDbEntity
  8
1
  6
Continuous
100
AcDbLine
 10
32.57978096730374
 20
226.8530919860086
 30
0.0
 11
32.57978096730374
 21
226.0661227673256
 31
0.0
  0
LINE
  5
547
330
18
100
AcDbEntity
  8
1
  6
Continuous
100
AcDbLine
 10
41.57978096730385
 20
231.0865060506659
 30
0.0
 11
41.57978096730385
 21
223.4066471401908
 31
0.0
  0
LINE
  5
549
330
18
100
AcDbEntity
  8
1
  6
Continuous
100
AcDbLine
 10
41.05804183687263
 20
221.7465765954253
 30
0.0
 11
47.57978096730385
 21
221.7465765954253
 31
0.0
  0
ARC
  5
54A
330
18
100
AcDbEntity
  8
1
  6
Continuous
100
AcDbCircle
 10
47.57978096730385
 20
222.2465765954253
 30
0.0
 40
0.5
100
AcDbArc
 50
270.0
 51
0.0
  0
LINE
  5
54B
330
18
100
AcDbEntity
  8
1
  6
Continuous
100
AcDbLine
 10
48.07978096730398
 20
224.1215765954253
 30
0.0
 11
48.07978096730398
 21
222.2965765954253
 31
0.0
  0
LINE
  5
54C
330
18
100
AcDbEntity
  8
1
  6
Continuous
100
AcDbLine
 10
48.87978096730392
 20
224.1215765954253
 30
0.0
 11
49.17978096730394
 21
223.821576595425
 31
0.0
  0
LINE
  5
54D
330
18
100
AcDbEntity
  8
1
  6
Continuous
100
AcDbLine
 10
48.87978096730386
 20
230.3715765954252
 30
0.0
 11
49.17978096730388
 21
230.6715765954254
 31
0.0
  0
ARC
  5
551
330
18
100
AcDbEntity
  8
1
  6
Continuous
100
AcDbCircle
 10
65.93433246730389
 20
227.2465765954253
 30
0.0
 40
4.0
100
AcDbArc
 50
306.8099961666526
 51
53.19001185477372
  0
ARC
  5
552
330
18
100
AcDbEntity
  8
1
  6
Continuous
100
AcDbCircle
 10
68.57978096730386
 20
227.2465765953881
 30
0.0
 40
3.0
100
AcDbArc
 50
286.4982869999994
 51
73.50171300000058
  0
LINE
  5
554
330
18
100
AcDbEntity
  8
1
  6
Continuous
100
AcDbLine
 10
67.57978096730397
 20
223.8215765953881
 30
0.0
 11
69.43174096730399
 21
224.3700920953881
 31
0.0
  0
LINE
  5
555
330
18
100
AcDbEntity
  8
1
  6
Continuous
100
AcDbLine
 10
67.57978096730386
 20
230.6715765953881
 30
0.0
 11
69.43174096730388
 21
230.1230615953881
 31
0.0
  0
LINE
  5
556
330
18
100
AcDbEntity
  8
1
  6
Continuous
100
AcDbLine
 10
33.11819915523654
 20
238.833789317967
 30
0.0
 11
41.05804183686553
 21
232.7465765954253
 31
0.0
  0
LINE
  5
55A
330
18
100
AcDbEntity
  8
1
  6
Continuous
100
AcDbLine
 10
32.57978096730374
 20
233.9965765953502
 30
0.0
 11
32.57978096730374
 21
232.370204897226
 31
0.0
  0
ARC
  5
55B
330
18
100
AcDbEntity
  8
1
  6
Continuous
100
AcDbCircle
 10
32.57978096730385
 20
231.9683919074481
 30
0.0
 40
2.028184687902053
100
AcDbArc
 50
35.53767779194789
 51
45.69883927961647
  0
LINE
  5
55D
330
18
100
AcDbEntity
  8
1
  6
Continuous
100
AcDbLine
 10
35.20408902121193
 20
237.2346070873966
 30
0.0
 11
35.21661802307846
 21
237.2317029919342
 31
0.0
  0
LINE
  5
55E
330
18
100
AcDbEntity
  8
1
  6
Continuous
100
AcDbLine
 10
41.05804183686557
 20
232.7465765954253
 30
0.0
 11
47.57978096730385
 21
232.7465765954253
 31
0.0
  0
ARC
  5
55F
330
18
100
AcDbEntity
  8
1
  6
Continuous
100
AcDbCircle
 10
47.57978096730385
 20
232.2465765954253
 30
0.0
 40
0.5
100
AcDbArc
 50
0.0
 51
90.0
  0
LINE
  5
6A4
330
18
100
AcDbEntity
  8
1
  6
Continuous
100
AcDbLine
 10
24.57978096730375
 20
223.2465765954774
 30
0.0
 11
27.07978096730375
 21
223.2465765954774
 31
0.0
  0
ARC
  5
6A7
330
18
100
AcDbEntity
  8
1
  6
Continuous
100
AcDbCircle
 10
27.07978096730375
 20
223.7465765954775
 30
0.0
 40
0.5
100
AcDbArc
 50
270.0
 51
0.0
  0
ARC
  5
6A8
330
18
100
AcDbEntity
  8
1
  6
Continuous
100
AcDbCircle
 10
23.57978096730374
 20
223.3521278709416
 30
0.0
 40
1.0
100
AcDbArc
 50
180.0
 51
213.6900675259788
  0
ARC
  5
6A9
330
18
100
AcDbEntity
  8
1
  6
Continuous
100
AcDbCircle
 10
24.57978096730386
 20
223.7465765954774
 30
0.0
 40
0.5
100
AcDbArc
 50
180.0
 51
270.0
  0
ARC
  5
6AA
330
18
100
AcDbEntity
  8
1
  6
Continuous
100
AcDbCircle
 10
23.57978096730374
 20
223.3521278709416
 30
0.0
 40
2.0
100
AcDbArc
 50
180.0
 51
213.6900675259794
  0
LINE
  5
6B3
330
18
100
AcDbEntity
  8
4
  6
CENTER
100
AcDbLine
 10
74.28106742735711
 20
227.2465765954284
 30
0.0
 11
18.67048430078398
 21
227.2465765954284
 31
0.0
  0
LINE
  5
6BC
330
18
100
AcDbEntity
  8
4
  6
CENTER
100
AcDbLine
 10
179.5206672315141
 20
150.1765280334129
 30
0.0
 11
217.7664368792801
 21
150.1765280333667
 31
0.0
  0
LINE
  5
8BD
330
18
100
AcDbEntity
  8
1
  6
Continuous
100
AcDbLine
 10
143.5372825087684
 20
229.9465765956973
 30
0.0
 11
153.3372825087684
 21
229.9465765956973
 31
0.0
  0
LINE
  5
8C2
330
18
100
AcDbEntity
  8
1
  6
Continuous
100
AcDbLine
 10
143.5372825087684
 20
224.5465765956973
 30
0.0
 11
153.3372825087684
 21
224.5465765956973
 31
0.0
  0
LINE
  5
8C5
330
18
100
AcDbEntity
  8
4
  6
CENTER
100
AcDbLine
 10
114.6395272471716
 20
227.2465765954284
 30
0.0
 11
156.3726048247571
 21
227.2465765953822
 31
0.0
  0
LINE
  5
8CB
330
18
100
AcDbEntity
  8
1
  6
Continuous
100
AcDbLine
 10
139.5372825087683
 20
219.34657662773
 30
0.0
 11
139.5372825087684
 21
219.8486201918055
 31
0.0
  0
ARC
  5
8CC
330
18
100
AcDbEntity
  8
1
  6
Continuous
100
AcDbCircle
 10
140.5122825087684
 20
222.2715765956973
 30
0.0
 40
0.425
100
AcDbArc
 50
301.9657189999993
 51
0.0
  0
LINE
  5
8CE
330
18
100
AcDbEntity
  8
1
  6
Continuous
100
AcDbLine
 10
140.7372825087684
 20
235.1465765630345
 30
0.0
 11
140.7372825087684
 21
219.34657662773
 31
0.0
  0
LINE
  5
8CF
330
18
100
AcDbEntity
  8
1
  6
Continuous
100
AcDbLine
 10
141.9372825087684
 20
234.9465765956973
 30
0.0
 11
141.9372825087684
 21
219.8374195953822
 31
0.0
  0
LINE
  5
8D0
330
18
100
AcDbEntity
  8
1
  6
Continuous
100
AcDbLine
 10
143.5372825087683
 20
234.9465765956973
 30
0.0
 11
143.5372825087683
 21
219.8374195956973
 31
0.0
  0
LINE
  5
8D2
330
18
100
AcDbEntity
  8
1
  6
Continuous
100
AcDbLine
 10
117.0372825087683
 20
222.5465765956973
 30
0.0
 11
118.3372825087684
 21
221.2465765956973
 31
0.0
  0
LINE
  5
8D4
330
18
100
AcDbEntity
  8
1
  6
Continuous
100
AcDbLine
 10
118.5372825087683
 20
237.9465765956974
 30
0.0
 11
118.5372825087683
 21
216.5465765956973
 31
0.0
  0
LINE
  5
8D5
330
18
100
AcDbEntity
  8
1
  6
Continuous
100
AcDbLine
 10
126.1372825087684
 20
237.2465765956973
 30
0.0
 11
126.1372825087683
 21
221.5637955951347
 31
0.0
  0
LINE
  5
8D6
330
18
100
AcDbEntity
  8
1
  6
Continuous
100
AcDbLine
 10
118.8372825087683
 20
238.7465765956973
 30
0.0
 11
118.8372825087683
 21
215.7465765956973
 31
0.0
  0
LINE
  5
8D7
330
18
100
AcDbEntity
  8
1
  6
Continuous
100
AcDbLine
 10
125.8372825087683
 20
212.2465765956973
 30
0.0
 11
125.8372825087683
 21
242.2465765956973
 31
0.0
  0
LINE
  5
8D8
330
18
100
AcDbEntity
  8
1
  6
Continuous
100
AcDbLine
 10
118.8372825087683
 20
215.7465765956973
 30
0.0
 11
125.3372825087683
 21
212.2465765956973
 31
0.0
  0
LINE
  5
8D9
330
18
100
AcDbEntity
  8
1
  6
Continuous
100
AcDbLine
 10
118.3372825087684
 20
221.2465765956973
 30
0.0
 11
118.5372825087683
 21
221.2465765956973
 31
0.0
  0
LINE
  5
8DC
330
18
100
AcDbEntity
  8
1
  6
Continuous
100
AcDbLine
 10
118.8372825087683
 20
216.2465765956973
 30
0.0
 11
118.5372825087683
 21
216.5465765956973
 31
0.0
  0
LINE
  5
8E1
330
18
100
AcDbEntity
  8
1
  6
Continuous
100
AcDbLine
 10
125.3372825087683
 20
212.2465765956973
 30
0.0
 11
125.8372825087683
 21
212.2465765956973
 31
0.0
  0
LINE
  5
8E2
330
18
100
AcDbEntity
  8
1
  6
Continuous
100
AcDbLine
 10
125.8372825087683
 20
217.2465765956973
 30
0.0
 11
126.1372825087684
 21
217.2465765956973
 31
0.0
  0
LINE
  5
8E3
330
18
100
AcDbEntity
  8
1
  6
Continuous
100
AcDbLine
 10
127.0033080087683
 20
235.1465765630345
 30
0.0
 11
127.0033080087683
 21
221.9702140951322
 31
0.0
  0
LINE
  5
8E8
330
18
100
AcDbEntity
  8
1
  6
Continuous
100
AcDbLine
 10
138.7372825087684
 20
219.34657662773
 30
0.0
 11
138.7372825087684
 21
219.7866000951321
 31
0.0
  0
LINE
  5
8EF
330
18
100
AcDbEntity
  8
1
  6
Continuous
100
AcDbLine
 10
118.8372825087683
 20
238.7465765956973
 30
0.0
 11
125.3372825087683
 21
242.2465765956973
 31
0.0
  0
LINE
  5
8F0
330
18
100
AcDbEntity
  8
1
  6
Continuous
100
AcDbLine
 10
117.0372825087683
 20
231.9465765956972
 30
0.0
 11
118.3372825087684
 21
233.2465765956973
 31
0.0
  0
LINE
  5
8F7
330
18
100
AcDbEntity
  8
1
  6
Continuous
100
AcDbLine
 10
117.0372825087683
 20
231.9465765956973
 30
0.0
 11
117.0372825087683
 21
222.5465765956973
 31
0.0
  0
LINE
  5
8F8
330
18
100
AcDbEntity
  8
1
  6
Continuous
100
AcDbLine
 10
118.3372825087684
 20
233.2465765956973
 30
0.0
 11
118.5372825087683
 21
233.2465765956973
 31
0.0
  0
LINE
  5
8F9
330
18
100
AcDbEntity
  8
1
  6
Continuous
100
AcDbLine
 10
118.8372825087683
 20
238.2465765956973
 30
0.0
 11
118.5372825087683
 21
237.9465765956974
 31
0.0
  0
LINE
  5
907
330
18
100
AcDbEntity
  8
1
  6
Continuous
100
AcDbLine
 10
125.3372825087683
 20
242.2465765956973
 30
0.0
 11
125.8372825087683
 21
242.2465765956973
 31
0.0
  0
LINE
  5
908
330
18
100
AcDbEntity
  8
1
  6
Continuous
100
AcDbLine
 10
125.8372825087683
 20
237.2465765956973
 30
0.0
 11
126.1372825087684
 21
237.2465765956973
 31
0.0
  0
LINE
  5
90E
330
18
100
AcDbEntity
  8
1
  6
Continuous
100
AcDbLine
 10
143.5372825087683
 20
223.4164330953821
 30
0.0
 11
141.9372825087684
 21
223.4164330953821
 31
0.0
  0
LINE
  5
90F
330
18
100
AcDbEntity
  8
1
  6
Continuous
100
AcDbLine
 10
143.5372825087683
 20
231.0767200953822
 30
0.0
 11
141.9372825087684
 21
231.0767200953822
 31
0.0
  0
LINE
  5
913
330
18
100
AcDbEntity
  8
1
  6
Continuous
100
AcDbLine
 10
140.9372825087684
 20
232.2465765956973
 30
0.0
 11
141.9372825087684
 21
232.2465765956973
 31
0.0
  0
ARC
  5
914
330
18
100
AcDbEntity
  8
1
  6
Continuous
100
AcDbCircle
 10
140.5122825087684
 20
232.2215765956973
 30
0.0
 40
0.425
100
AcDbArc
 50
0.0
 51
58.03428100000061
  0
LINE
  5
919
330
18
100
AcDbEntity
  8
1
  6
Continuous
100
AcDbLine
 10
140.9372825087684
 20
222.2465765956973
 30
0.0
 11
141.9372825087684
 21
222.2465765956973
 31
0.0
  0
LINE
  5
91C
330
18
100
AcDbEntity
  8
1
  6
Continuous
100
AcDbLine
 10
140.9372825087684
 20
232.2465765956973
 30
0.0
 11
140.9372825087684
 21
222.2465765956973
 31
0.0
  0
LINE
  5
91D
330
18
100
AcDbEntity
  8
1
  6
Continuous
100
AcDbLine
 10
143.5372825087683
 20
234.9465765956973
 30
0.0
 11
141.9372825087684
 21
234.9465765956973
 31
0.0
  0
LINE
  5
927
330
18
100
AcDbEntity
  8
1
  6
Continuous
100
AcDbLine
 10
213.5961341643152
 20
227.2465765953872
 30
0.0
 11
210.3961341643152
 21
227.2465765953872
 31
0.0
  0
LINE
  5
92A
330
18
100
AcDbEntity
  8
4
  6
CENTER
100
AcDbLine
 10
179.5206672315141
 20
227.2465765954284
 30
0.0
 11
217.7664368792801
 21
227.2465765953822
 31
0.0
  0
ARC
  5
92D
330
18
100
AcDbEntity
  8
1
  6
Continuous
100
AcDbCircle
 10
171.4386203617138
 20
221.7465765954206
 30
0.0
 40
15.62500000000124
100
AcDbArc
 50
339.3903070624689
 51
20.60969293753057
  0
LINE
  5
92E
330
18
100
AcDbEntity
  8
1
  6
Continuous
100
AcDbLine
 10
187.0636203617151
 20
232.7465765954265
 30
0.0
 11
187.0636203617152
 21
221.7465765954206
 31
0.0
  0
LINE
  5
92F
330
18
100
AcDbEntity
  8
1
  6
Continuous
100
AcDbLine
 10
183.5636203617151
 20
238.2465765954234
 30
0.0
 11
183.563620361715
 21
216.2465765954235
 31
0.0
  0
LINE
  5
930
330
18
100
AcDbEntity
  8
1
  6
Continuous
100
AcDbLine
 10
199.7731079014266
 20
233.7465765956973
 30
0.0
 11
199.7731079014266
 21
220.7465765956973
 31
0.0
  0
LINE
  5
931
330
18
100
AcDbEntity
  8
1
  6
Continuous
100
AcDbLine
 10
198.9731079014267
 20
233.7465765956973
 30
0.0
 11
198.9731079014267
 21
220.7465765956973
 31
0.0
  0
ARC
  5
932
330
18
100
AcDbEntity
  8
1
  6
Continuous
100
AcDbCircle
 10
206.2836347978624
 20
224.4965767105778
 30
0.0
 40
7.812499366452762
100
AcDbArc
 50
339.3903058251916
 51
20.60969378232115
  0
LINE
  5
938
330
18
100
AcDbEntity
  8
1
  6
Continuous
100
AcDbLine
 10
198.9731079014267
 20
220.7465765956973
 30
0.0
 11
199.7731079014266
 21
220.7465765956973
 31
0.0
  0
LINE
  5
93C
330
18
100
AcDbEntity
  8
1
  6
Continuous
100
AcDbLine
 10
152.5372825087683
 20
224.5465765956973
 30
0.0
 11
152.5372825087683
 21
229.9465765956973
 31
0.0
  0
LINE
  5
93F
330
18
100
AcDbEntity
  8
1
  6
Continuous
100
AcDbLine
 10
153.5372825087683
 20
229.7465765956973
 30
0.0
 11
153.5372825087683
 21
224.7465765956973
 31
0.0
  0
LINE
  5
941
330
18
100
AcDbEntity
  8
1
  6
Continuous
100
AcDbLine
 10
183.563620361715
 20
227.2465765954235
 30
0.0
 11
186.0636203617151
 21
227.2465765954235
 31
0.0
  0
ARC
  5
944
330
18
100
AcDbEntity
  8
1
  6
Continuous
100
AcDbCircle
 10
195.2338094014266
 20
231.9070595956973
 30
0.0
 40
4.308307499999998
100
AcDbArc
 50
323.2931210000002
 51
330.2186899999998
  0
LINE
  5
945
330
18
100
AcDbEntity
  8
1
  6
Continuous
100
AcDbLine
 10
198.6760769014265
 20
229.3187145956973
 30
0.0
 11
198.9731079014267
 21
229.6527125956973
 31
0.0
  0
LINE
  5
946
330
18
100
AcDbEntity
  8
1
  6
Continuous
100
AcDbLine
 10
198.6731079014266
 20
223.9498525956973
 30
0.0
 11
198.6731079014266
 21
223.5718040956973
 31
0.0
  0
LINE
  5
947
330
18
100
AcDbEntity
  8
1
  6
Continuous
100
AcDbLine
 10
199.7731079014266
 20
223.6457880956973
 30
0.0
 11
200.0731079014266
 21
223.5921300956973
 31
0.0
  0
ARC
  5
948
330
18
100
AcDbEntity
  8
1
  6
Continuous
100
AcDbCircle
 10
196.8655404014265
 20
221.9700835956973
 30
0.0
 40
2.415121
100
AcDbArc
 50
29.23134799999971
 51
41.54477799999997
  0
ARC
  5
949
330
18
100
AcDbEntity
  8
1
  6
Continuous
100
AcDbCircle
 10
200.4048774014266
 20
222.7199430956973
 30
0.0
 40
0.9331565000000001
100
AcDbArc
 50
110.8262309999989
 51
132.6115579999998
  0
LINE
  5
94A
330
18
100
AcDbEntity
  8
1
  6
Continuous
100
AcDbLine
 10
198.6731079014266
 20
223.5718040956973
 30
0.0
 11
198.9731079014267
 21
223.5181455956973
 31
0.0
  0
ARC
  5
94B
330
18
100
AcDbEntity
  8
1
  6
Continuous
100
AcDbCircle
 10
200.5616604014266
 20
223.6565770956973
 30
0.0
 40
1.0893965
100
AcDbArc
 50
116.6450310000005
 51
136.37273
  0
LINE
  5
94C
330
18
100
AcDbEntity
  8
1
  6
Continuous
100
AcDbLine
 10
198.9731079014265
 20
224.1215765956973
 30
0.0
 11
198.6731079014265
 21
223.9483715956973
 31
0.0
  0
LINE
  5
94D
330
18
100
AcDbEntity
  8
1
  6
Continuous
100
AcDbLine
 10
200.0635979014266
 20
227.0188100956973
 30
0.0
 11
199.7731079014266
 21
226.3259595956973
 31
0.0
  0
ARC
  5
94E
330
18
100
AcDbEntity
  8
1
  6
Continuous
100
AcDbCircle
 10
197.7040109014266
 20
223.8711435956973
 30
0.0
 40
1.569358
100
AcDbArc
 50
36.03353199999957
 51
51.86533499999928
  0
LINE
  5
94F
330
18
100
AcDbEntity
  8
1
  6
Continuous
100
AcDbLine
 10
199.7731079014266
 20
224.7707610956974
 30
0.0
 11
200.0731079014266
 21
224.6302815956974
 31
0.0
  0
LINE
  5
950
330
18
100
AcDbEntity
  8
1
  6
Continuous
100
AcDbLine
 10
199.7731079014266
 20
227.1869475956973
 30
0.0
 11
200.0635979014266
 21
227.0188100956973
 31
0.0
  0
LINE
  5
951
330
18
100
AcDbEntity
  8
1
  6
Continuous
100
AcDbLine
 10
199.7731079014265
 20
229.1545905956973
 30
0.0
 11
200.0731079014266
 21
229.0141110956973
 31
0.0
  0
LINE
  5
952
330
18
100
AcDbEntity
  8
1
  6
Continuous
100
AcDbLine
 10
198.6731079014265
 20
227.2685890956972
 30
0.0
 11
198.9731079014265
 21
227.7893515956972
 31
0.0
  0
LINE
  5
953
330
18
100
AcDbEntity
  8
1
  6
Continuous
100
AcDbLine
 10
199.7731079014266
 20
228.6767745956973
 30
0.0
 11
200.0731079014266
 21
229.0141110956973
 31
0.0
  0
LINE
  5
954
330
18
100
AcDbEntity
  8
1
  6
Continuous
100
AcDbLine
 10
198.6731079014266
 20
225.5668120956973
 30
0.0
 11
198.6731079014266
 21
225.1055400956973
 31
0.0
  0
LINE
  5
955
330
18
100
AcDbEntity
  8
1
  6
Continuous
100
AcDbLine
 10
198.6731079014266
 20
225.1055400956973
 30
0.0
 11
198.9731079014267
 21
224.9650605956973
 31
0.0
  0
LINE
  5
956
330
18
100
AcDbEntity
  8
1
  6
Continuous
100
AcDbLine
 10
198.6731079014266
 20
227.2685890956974
 30
0.0
 11
198.9731079014267
 21
227.0949465956973
 31
0.0
  0
LINE
  5
957
330
18
100
AcDbEntity
  8
1
  6
Continuous
100
AcDbLine
 10
198.6760769014265
 20
229.3187145956973
 30
0.0
 11
198.9731079014267
 21
229.1796250956974
 31
0.0
  0
LINE
  5
958
330
18
100
AcDbEntity
  8
1
  6
Continuous
100
AcDbLine
 10
198.6731079014266
 20
223.9498525956974
 30
0.0
 11
198.9731079014267
 21
223.8961940956974
 31
0.0
  0
LINE
  5
959
330
18
100
AcDbEntity
  8
1
  6
Continuous
100
AcDbLine
 10
198.6731079014266
 20
225.5668120956973
 30
0.0
 11
198.9731079014267
 21
225.4263320956973
 31
0.0
  0
LINE
  5
95A
330
18
100
AcDbEntity
  8
1
  6
Continuous
100
AcDbLine
 10
200.0731079014266
 20
230.5433010956973
 30
0.0
 11
200.0731079014266
 21
230.1581280956973
 31
0.0
  0
LINE
  5
95B
330
18
100
AcDbEntity
  8
1
  6
Continuous
100
AcDbLine
 10
198.6731079014266
 20
230.9010235956973
 30
0.0
 11
198.6731079014266
 21
230.5158505956973
 31
0.0
  0
LINE
  5
95C
330
18
100
AcDbEntity
  8
1
  6
Continuous
100
AcDbLine
 10
199.7731079014266
 20
230.2117865956974
 30
0.0
 11
200.0731079014266
 21
230.1581280956974
 31
0.0
  0
LINE
  5
95D
330
18
100
AcDbEntity
  8
1
  6
Continuous
100
AcDbLine
 10
199.7731079014265
 20
230.5969590956973
 30
0.0
 11
200.0731079014265
 21
230.5433010956973
 31
0.0
  0
ARC
  5
95E
330
18
100
AcDbEntity
  8
1
  6
Continuous
100
AcDbCircle
 10
200.2521999014267
 20
231.5474510956974
 30
0.0
 40
1.019995999999999
100
AcDbArc
 50
241.9851680000002
 51
259.8875110000005
  0
ARC
  5
95F
330
18
100
AcDbEntity
  8
1
  6
Continuous
100
AcDbCircle
 10
198.2362624014266
 20
232.6853950956973
 30
0.0
 40
1.837066999999999
100
AcDbArc
 50
283.7564390000008
 51
293.6468899999997
  0
LINE
  5
960
330
18
100
AcDbEntity
  8
1
  6
Continuous
100
AcDbLine
 10
198.6731079014266
 20
230.5158505956973
 30
0.0
 11
198.9731079014267
 21
230.4621925956973
 31
0.0
  0
LINE
  5
961
330
18
100
AcDbEntity
  8
1
  6
Continuous
100
AcDbLine
 10
198.6731079014266
 20
230.9010235956974
 30
0.0
 11
198.9731079014267
 21
230.8473650956974
 31
0.0
  0
LINE
  5
962
330
18
100
AcDbEntity
  8
1
  6
Continuous
100
AcDbLine
 10
198.9731079014267
 20
230.3715765956974
 30
0.0
 11
198.7457099014267
 21
230.5028650956974
 31
0.0
  0
LINE
  5
964
330
18
100
AcDbEntity
  8
1
  6
Continuous
100
AcDbLine
 10
209.8961341643152
 20
230.4220029759136
 30
0.0
 11
209.8961341643152
 21
224.0711502148597
 31
0.0
  0
LINE
  5
965
330
18
100
AcDbEntity
  8
1
  6
Continuous
100
AcDbLine
 10
198.9731079014267
 20
233.7465765956973
 30
0.0
 11
199.7731079014266
 21
233.7465765956973
 31
0.0
  0
LINE
  5
96A
330
18
100
AcDbEntity
  8
1
  6
Continuous
100
AcDbLine
 10
214.0961341643152
 20
230.4220029759135
 30
0.0
 11
214.0961341643152
 21
224.0711502148597
 31
0.0
  0
LINE
  5
B18
330
18
100
AcDbEntity
  8
1
  6
Continuous
100
AcDbLine
 10
183.563620361715
 20
216.2465765954235
 30
0.0
 11
186.0636203617148
 21
216.2465765954205
 31
0.0
  0
ARC
  5
B1B
330
18
100
AcDbEntity
  8
1
  6
Continuous
100
AcDbCircle
 10
171.4386203617138
 20
232.7465765954264
 30
0.0
 40
15.62500000000124
100
AcDbArc
 50
339.3903070624694
 51
20.60969293753104
  0
LINE
  5
B1C
330
18
100
AcDbEntity
  8
1
  6
Continuous
100
AcDbLine
 10
183.563620361715
 20
238.2465765954234
 30
0.0
 11
186.0636203617148
 21
238.2465765954265
 31
0.0
  0
ARC
  5
B6F
330
18
100
AcDbEntity
  8
1
  6
Continuous
100
AcDbCircle
 10
206.2836342926451
 20
229.9965765452947
 30
0.0
 40
7.812499862251119
100
AcDbArc
 50
339.3903070750329
 51
20.60969370993853
  0
ARC
  5
B70
330
18
100
AcDbEntity
  8
1
  6
Continuous
100
AcDbCircle
 10
217.7086340171473
 20
229.9965765953865
 30
0.0
 40
7.812499862251119
100
AcDbArc
 50
159.3903066825459
 51
200.6096933174515
  0
ARC
  5
B71
330
18
100
AcDbEntity
  8
1
  6
Continuous
100
AcDbCircle
 10
217.7086335307679
 20
224.4965767105778
 30
0.0
 40
7.812499366452697
100
AcDbArc
 50
159.3903062176786
 51
200.6096941748084
  0
LINE
  5
B9C
330
18
100
AcDbEntity
  8
1
  6
Continuous
100
AcDbLine
 10
213.5961341643152
 20
232.7465765953872
 30
0.0
 11
210.3961341643152
 21
232.7465765953872
 31
0.0
  0
LINE
  5
BA7
330
18
100
AcDbEntity
  8
1
  6
Continuous
100
AcDbLine
 10
213.5961341643152
 20
221.7465765953772
 30
0.0
 11
210.3961341643152
 21
221.7465765953772
 31
0.0
  0
LINE
  5
C11
330
18
100
AcDbEntity
  8
1
  6
Continuous
100
AcDbLine
 10
117.0372825087683
 20
231.480067206583
 30
0.0
 11
118.3372825087684
 21
232.4412195954284
 31
0.0
  0
LINE
  5
C12
330
18
100
AcDbEntity
  8
1
  6
Continuous
100
AcDbLine
 10
117.0372825087683
 20
229.288035861385
 30
0.0
 11
118.3372825087684
 21
230.2491885954284
 31
0.0
  0
LINE
  5
C66
330
18
100
AcDbEntity
  8
1
  6
Continuous
100
AcDbLine
 10
140.7372825087684
 20
235.1465765630345
 30
0.0
 11
126.1372825087684
 21
235.1465765630345
 31
0.0
  0
LINE
  5
C67
330
18
100
AcDbEntity
  8
1
  6
Continuous
100
AcDbLine
 10
126.1372825087684
 20
219.34657662773
 30
0.0
 11
140.7372825087684
 21
219.34657662773
 31
0.0
  0
LINE
  5
C6B
330
18
100
AcDbEntity
  8
1
  6
Continuous
100
AcDbLine
 10
143.5372825087683
 20
219.8374195953822
 30
0.0
 11
141.9372825087684
 21
219.8374195953822
 31
0.0
  0
ARC
  5
C6D
330
18
100
AcDbEntity
  8
1
  6
Continuous
100
AcDbCircle
 10
139.1230690087684
 20
221.2008135951321
 30
0.0
 40
1.414213499999999
100
AcDbArc
 50
270.0
 51
77.17232400000049
  0
LINE
  5
C6E
330
18
100
AcDbEntity
  8
1
  6
Continuous
100
AcDbLine
 10
139.1230690087684
 20
219.7866000951321
 30
0.0
 11
125.8372825087684
 21
219.7866000951321
 31
0.0
  0
LINE
  5
C6F
330
18
100
AcDbEntity
  8
1
  6
Continuous
100
AcDbLine
 10
127.0033080087683
 20
219.7866000951321
 30
0.0
 11
127.0033080087683
 21
219.34657662773
 31
0.0
  0
LINE
  5
C70
330
18
100
AcDbEntity
  8
1
  6
Continuous
100
AcDbLine
 10
138.7372825087684
 20
221.9235365951321
 30
0.0
 11
138.7372825087684
 21
235.1465765630345
 31
0.0
  0
LINE
  5
C71
330
18
100
AcDbEntity
  8
1
  6
Continuous
100
AcDbLine
 10
139.5372825087684
 20
222.6737205951321
 30
0.0
 11
139.5372825087684
 21
235.1465765630345
 31
0.0
  0
LINE
  5
D0A
330
18
100
AcDbEntity
  8
1
  6
Continuous
100
AcDbLine
 10
143.5372825087684
 20
75.80647947112855
 30
0.0
 11
153.3372825093701
 21
75.80647947112855
 31
0.0
  0
LINE
  5
D0C
330
18
100
AcDbEntity
  8
1
  6
Continuous
100
AcDbLine
 10
143.5372825087684
 20
70.40647947112856
 30
0.0
 11
153.3372825081666
 21
70.40647947112858
 31
0.0
  0
LINE
  5
D0D
330
18
100
AcDbEntity
  8
4
  6
CENTER
100
AcDbLine
 10
114.6395272471716
 20
73.10647947139749
 30
0.0
 11
156.3726048247571
 21
73.10647947144365
 31
0.0
  0
LINE
  5
D11
330
18
100
AcDbEntity
  8
1
  6
Continuous
100
AcDbLine
 10
141.9372825087684
 20
65.40647947112853
 30
0.0
 11
141.9372825087683
 21
68.955198086755
 31
0.0
  0
LINE
  5
D12
330
18
100
AcDbEntity
  8
1
  6
Continuous
100
AcDbLine
 10
126.1372825087684
 20
63.10647947112855
 30
0.0
 11
126.1372825087683
 21
65.64650297112854
 31
0.0
  0
LINE
  5
D13
330
18
100
AcDbEntity
  8
1
  6
Continuous
100
AcDbLine
 10
140.7372825087684
 20
65.2064795037914
 30
0.0
 11
140.7372825087683
 21
68.955198086755
 31
0.0
  0
LINE
  5
D15
330
18
100
AcDbEntity
  8
1
  6
Continuous
100
AcDbLine
 10
140.9372825087684
 20
68.10647947112855
 30
0.0
 11
140.9372825087684
 21
68.955198086755
 31
0.0
  0
LINE
  5
D16
330
18
100
AcDbEntity
  8
1
  6
Continuous
100
AcDbLine
 10
117.0372825087683
 20
68.40647947112853
 30
0.0
 11
117.0372825087683
 21
77.80647947112855
 31
0.0
  0
LINE
  5
D17
330
18
100
AcDbEntity
  8
1
  6
Continuous
100
AcDbLine
 10
125.8372825087683
 20
88.10647947112858
 30
0.0
 11
125.8372825087683
 21
58.10647947112855
 31
0.0
  0
LINE
  5
D18
330
18
100
AcDbEntity
  8
1
  6
Continuous
100
AcDbLine
 10
118.8372825087683
 20
61.60647947112855
 30
0.0
 11
118.8372825087683
 21
84.60647947112859
 31
0.0
  0
LINE
  5
D19
330
18
100
AcDbEntity
  8
1
  6
Continuous
100
AcDbLine
 10
118.5372825087683
 20
62.40647947112853
 30
0.0
 11
118.5372825087683
 21
83.80647947112855
 31
0.0
  0
LINE
  5
D1A
330
18
100
AcDbEntity
  8
1
  6
Continuous
100
AcDbLine
 10
143.5372825087683
 20
65.40647947112853
 30
0.0
 11
143.5372825087683
 21
80.51563647112855
 31
0.0
  0
LINE
  5
D1E
330
18
100
AcDbEntity
  8
1
  6
Continuous
100
AcDbLine
 10
118.8372825087683
 20
84.60647947112859
 30
0.0
 11
125.3372825087683
 21
88.10647947112858
 31
0.0
  0
LINE
  5
D1F
330
18
100
AcDbEntity
  8
1
  6
Continuous
100
AcDbLine
 10
118.8372825087683
 20
84.10647947112858
 30
0.0
 11
118.5372825087683
 21
83.80647947112855
 31
0.0
  0
LINE
  5
D21
330
18
100
AcDbEntity
  8
1
  6
Continuous
100
AcDbLine
 10
118.3372825087684
 20
79.10647947112858
 30
0.0
 11
118.5372825087683
 21
79.10647947112858
 31
0.0
  0
LINE
  5
D22
330
18
100
AcDbEntity
  8
1
  6
Continuous
100
AcDbLine
 10
117.0372825087683
 20
77.80647947112855
 30
0.0
 11
118.3372825087684
 21
79.10647947112858
 31
0.0
  0
LINE
  5
D24
330
18
100
AcDbEntity
  8
1
  6
Continuous
100
AcDbLine
 10
139.1230690087684
 20
65.64650297112857
 30
0.0
 11
125.8372825087684
 21
65.64650297112854
 31
0.0
  0
LINE
  5
D25
330
18
100
AcDbEntity
  8
1
  6
Continuous
100
AcDbLine
 10
126.1372825087684
 20
81.00647943909589
 30
0.0
 11
140.7372825087684
 21
81.00647943909589
 31
0.0
  0
LINE
  5
D26
330
18
100
AcDbEntity
  8
1
  6
Continuous
100
AcDbLine
 10
127.0033080087683
 20
65.64650297110114
 30
0.0
 11
127.0033080087683
 21
65.20647950369909
 31
0.0
  0
LINE
  5
D27
330
18
100
AcDbEntity
  8
1
  6
Continuous
100
AcDbLine
 10
125.8372825087683
 20
83.10647947112858
 30
0.0
 11
126.1372825087684
 21
83.10647947112858
 31
0.0
  0
LINE
  5
D28
330
18
100
AcDbEntity
  8
1
  6
Continuous
100
AcDbLine
 10
125.3372825087683
 20
88.10647947112858
 30
0.0
 11
125.8372825087683
 21
88.10647947112858
 31
0.0
  0
LINE
  5
D29
330
18
100
AcDbEntity
  8
1
  6
Continuous
100
AcDbLine
 10
139.5372825087683
 20
65.20647950369909
 30
0.0
 11
139.5372825087684
 21
65.70852306777459
 31
0.0
  0
LINE
  5
D2A
330
18
100
AcDbEntity
  8
1
  6
Continuous
100
AcDbLine
 10
138.7372825087684
 20
65.20647950369909
 30
0.0
 11
138.7372825087684
 21
65.64650297110117
 31
0.0
  0
ARC
  5
D2B
330
18
100
AcDbEntity
  8
1
  6
Continuous
100
AcDbCircle
 10
139.1230690087684
 20
67.06071647112857
 30
0.0
 40
1.414213499999999
100
AcDbArc
 50
270.0
 51
77.17232400000049
  0
LINE
  5
D2C
330
18
100
AcDbEntity
  8
1
  6
Continuous
100
AcDbLine
 10
143.5372825087683
 20
80.51563647144362
 30
0.0
 11
141.9372825087684
 21
80.51563647144362
 31
0.0
  0
LINE
  5
D2E
330
18
100
AcDbEntity
  8
1
  6
Continuous
100
AcDbLine
 10
140.9372825087684
 20
78.10647947112858
 30
0.0
 11
141.9372825087684
 21
78.10647947112858
 31
0.0
  0
ARC
  5
D2F
330
18
100
AcDbEntity
  8
1
  6
Continuous
100
AcDbCircle
 10
140.5122825087684
 20
78.08147947112856
 30
0.0
 40
0.425
100
AcDbArc
 50
0.0
 51
58.03428100000063
  0
LINE
  5
D30
330
18
100
AcDbEntity
  8
1
  6
Continuous
100
AcDbLine
 10
118.8372825087683
 20
61.60647947112855
 30
0.0
 11
125.3372825087683
 21
58.10647947112855
 31
0.0
  0
LINE
  5
D35
330
18
100
AcDbEntity
  8
1
  6
Continuous
100
AcDbLine
 10
118.8372825087683
 20
62.10647947112855
 30
0.0
 11
118.5372825087683
 21
62.40647947112853
 31
0.0
  0
LINE
  5
D36
330
18
100
AcDbEntity
  8
1
  6
Continuous
100
AcDbLine
 10
118.3372825087684
 20
67.10647947112855
 30
0.0
 11
118.5372825087683
 21
67.10647947112855
 31
0.0
  0
LINE
  5
D37
330
18
100
AcDbEntity
  8
1
  6
Continuous
100
AcDbLine
 10
117.0372825087683
 20
68.40647947112867
 30
0.0
 11
118.3372825087684
 21
67.10647947112855
 31
0.0
  0
LINE
  5
D3A
330
18
100
AcDbEntity
  8
1
  6
Continuous
100
AcDbLine
 10
140.7372825087684
 20
65.2064795037914
 30
0.0
 11
126.1372825087684
 21
65.2064795037914
 31
0.0
  0
LINE
  5
D3B
330
18
100
AcDbEntity
  8
1
  6
Continuous
100
AcDbLine
 10
125.8372825087683
 20
63.10647947112855
 30
0.0
 11
126.1372825087684
 21
63.10647947112855
 31
0.0
  0
LINE
  5
D3C
330
18
100
AcDbEntity
  8
1
  6
Continuous
100
AcDbLine
 10
125.3372825087683
 20
58.10647947112855
 30
0.0
 11
125.8372825087683
 21
58.10647947112855
 31
0.0
  0
LINE
  5
D3D
330
18
100
AcDbEntity
  8
1
  6
Continuous
100
AcDbLine
 10
143.5372825087683
 20
69.97663538444435
 30
0.0
 11
143.0372825087683
 21
69.97663538444435
 31
0.0
  0
LINE
  5
D3E
330
18
100
AcDbEntity
  8
1
  6
Continuous
100
AcDbLine
 10
143.5372825087683
 20
65.40647947112853
 30
0.0
 11
141.9372825087684
 21
65.40647947112853
 31
0.0
  0
ARC
  5
D3F
330
18
100
AcDbEntity
  8
1
  6
Continuous
100
AcDbCircle
 10
140.5122825087684
 20
68.13147947112856
 30
0.0
 40
0.425
100
AcDbArc
 50
301.9657189999993
 51
0.0
  0
LINE
  5
D40
330
18
100
AcDbEntity
  8
1
  6
Continuous
100
AcDbLine
 10
140.9372825087684
 20
68.10647947112855
 30
0.0
 11
141.9372825087684
 21
68.10647947112855
 31
0.0
  0
LINE
  5
D41
330
18
100
AcDbEntity
  8
1
  6
Continuous
100
AcDbLine
 10
213.5961341643152
 20
78.60647947144869
 30
0.0
 11
210.3961341643152
 21
78.60647947144869
 31
0.0
  0
LINE
  5
D42
330
18
100
AcDbEntity
  8
1
  6
Continuous
100
AcDbLine
 10
213.5961341643152
 20
67.60647947143863
 30
0.0
 11
210.3961341643152
 21
67.60647947143863
 31
0.0
  0
LINE
  5
D44
330
18
100
AcDbEntity
  8
1
  6
Continuous
100
AcDbLine
 10
213.5961341643152
 20
73.10647947143863
 30
0.0
 11
210.3961341643152
 21
73.10647947143863
 31
0.0
  0
LINE
  5
D45
330
18
100
AcDbEntity
  8
4
  6
CENTER
100
AcDbLine
 10
179.5206672315141
 20
73.10647947139749
 30
0.0
 11
217.7664368792801
 21
73.10647947144365
 31
0.0
  0
ARC
  5
D48
330
18
100
AcDbEntity
  8
1
  6
Continuous
100
AcDbCircle
 10
217.7086340171473
 20
70.3564794714394
 30
0.0
 40
7.812499862251119
100
AcDbArc
 50
159.3903066825484
 51
200.609693317454
  0
LINE
  5
D49
330
18
100
AcDbEntity
  8
1
  6
Continuous
100
AcDbLine
 10
209.8961341643152
 20
69.9310530909122
 30
0.0
 11
209.8961341643152
 21
76.28190585196617
 31
0.0
  0
LINE
  5
D4B
330
18
100
AcDbEntity
  8
1
  6
Continuous
100
AcDbLine
 10
183.5636203617151
 20
62.10647947140238
 30
0.0
 11
183.563620361715
 21
84.10647947140232
 31
0.0
  0
LINE
  5
D4C
330
18
100
AcDbEntity
  8
1
  6
Continuous
100
AcDbLine
 10
187.0636203617151
 20
67.60647947139938
 30
0.0
 11
187.0636203617152
 21
78.60647947140529
 31
0.0
  0
ARC
  5
D4D
330
18
100
AcDbEntity
  8
1
  6
Continuous
100
AcDbCircle
 10
171.4386203617138
 20
67.60647947139942
 30
0.0
 40
15.62500000000124
100
AcDbArc
 50
339.3903070624689
 51
20.60969293753058
  0
LINE
  5
D4E
330
18
100
AcDbEntity
  8
1
  6
Continuous
100
AcDbLine
 10
200.0731079014266
 20
69.80975497112854
 30
0.0
 11
200.0731079014266
 21
70.19492797112855
 31
0.0
  0
LINE
  5
D4F
330
18
100
AcDbEntity
  8
1
  6
Continuous
100
AcDbLine
 10
198.9731079014267
 20
66.60647947112855
 30
0.0
 11
198.9731079014267
 21
79.60647947112858
 31
0.0
  0
LINE
  5
D50
330
18
100
AcDbEntity
  8
1
  6
Continuous
100
AcDbLine
 10
199.7731079014266
 20
66.60647947112855
 30
0.0
 11
199.7731079014266
 21
79.60647947112858
 31
0.0
  0
ARC
  5
D56
330
18
100
AcDbEntity
  8
1
  6
Continuous
100
AcDbCircle
 10
171.4386203617138
 20
78.60647947140529
 30
0.0
 40
15.62500000000124
100
AcDbArc
 50
339.3903070624694
 51
20.60969293753104
  0
LINE
  5
D57
330
18
100
AcDbEntity
  8
1
  6
Continuous
100
AcDbLine
 10
183.563620361715
 20
84.10647947140232
 30
0.0
 11
186.0636203617148
 21
84.10647947140535
 31
0.0
  0
LINE
  5
D58
330
18
100
AcDbEntity
  8
1
  6
Continuous
100
AcDbLine
 10
183.563620361715
 20
73.10647947140235
 30
0.0
 11
186.0636203617151
 21
73.10647947140235
 31
0.0
  0
LINE
  5
D59
330
18
100
AcDbEntity
  8
1
  6
Continuous
100
AcDbLine
 10
199.7731079014266
 20
70.14126947112846
 30
0.0
 11
200.0731079014266
 21
70.19492797112846
 31
0.0
  0
LINE
  5
D5A
330
18
100
AcDbEntity
  8
1
  6
Continuous
100
AcDbLine
 10
198.6731079014266
 20
74.78624397112856
 30
0.0
 11
198.9731079014267
 21
74.92672397112858
 31
0.0
  0
LINE
  5
D5B
330
18
100
AcDbEntity
  8
1
  6
Continuous
100
AcDbLine
 10
198.6731079014266
 20
76.40320347112847
 30
0.0
 11
198.9731079014267
 21
76.45686197112846
 31
0.0
  0
LINE
  5
D5C
330
18
100
AcDbEntity
  8
1
  6
Continuous
100
AcDbLine
 10
198.6760769014265
 20
71.03434147112856
 30
0.0
 11
198.9731079014267
 21
71.17343097112855
 31
0.0
  0
LINE
  5
D5D
330
18
100
AcDbEntity
  8
1
  6
Continuous
100
AcDbLine
 10
198.6731079014266
 20
73.08446697112848
 30
0.0
 11
198.9731079014267
 21
73.25810947112856
 31
0.0
  0
LINE
  5
D5E
330
18
100
AcDbEntity
  8
1
  6
Continuous
100
AcDbLine
 10
198.6731079014266
 20
75.24751597112857
 30
0.0
 11
198.9731079014267
 21
75.38799547112856
 31
0.0
  0
LINE
  5
D5F
330
18
100
AcDbEntity
  8
1
  6
Continuous
100
AcDbLine
 10
198.6731079014266
 20
74.78624397112856
 30
0.0
 11
198.6731079014266
 21
75.24751597112857
 31
0.0
  0
LINE
  5
D60
330
18
100
AcDbEntity
  8
1
  6
Continuous
100
AcDbLine
 10
199.7731079014266
 20
71.67628147112856
 30
0.0
 11
200.0731079014266
 21
71.33894497112855
 31
0.0
  0
LINE
  5
D61
330
18
100
AcDbEntity
  8
1
  6
Continuous
100
AcDbLine
 10
198.6731079014265
 20
73.08446697112865
 30
0.0
 11
198.9731079014265
 21
72.56370447112863
 31
0.0
  0
LINE
  5
D62
330
18
100
AcDbEntity
  8
1
  6
Continuous
100
AcDbLine
 10
199.7731079014265
 20
71.19846547112856
 30
0.0
 11
200.0731079014266
 21
71.33894497112855
 31
0.0
  0
LINE
  5
D63
330
18
100
AcDbEntity
  8
1
  6
Continuous
100
AcDbLine
 10
199.7731079014266
 20
73.16610847112858
 30
0.0
 11
200.0635979014266
 21
73.33424597112858
 31
0.0
  0
LINE
  5
D64
330
18
100
AcDbEntity
  8
1
  6
Continuous
100
AcDbLine
 10
199.7731079014266
 20
75.58229497112856
 30
0.0
 11
200.0731079014266
 21
75.72277447112856
 31
0.0
  0
ARC
  5
D65
330
18
100
AcDbEntity
  8
1
  6
Continuous
100
AcDbCircle
 10
197.7040109014266
 20
76.48191247112855
 30
0.0
 40
1.569358
100
AcDbArc
 50
308.1346650000007
 51
323.9664680000004
  0
LINE
  5
D66
330
18
100
AcDbEntity
  8
1
  6
Continuous
100
AcDbLine
 10
200.0635979014266
 20
73.33424597112858
 30
0.0
 11
199.7731079014266
 21
74.02709647112856
 31
0.0
  0
LINE
  5
D67
330
18
100
AcDbEntity
  8
1
  6
Continuous
100
AcDbLine
 10
198.9731079014265
 20
76.23147947112858
 30
0.0
 11
198.6731079014265
 21
76.40468447112858
 31
0.0
  0
ARC
  5
D68
330
18
100
AcDbEntity
  8
1
  6
Continuous
100
AcDbCircle
 10
200.5616604014266
 20
76.69647897112856
 30
0.0
 40
1.0893965
100
AcDbArc
 50
223.62727
 51
243.3549689999993
  0
LINE
  5
D69
330
18
100
AcDbEntity
  8
1
  6
Continuous
100
AcDbLine
 10
198.6731079014266
 20
76.78125197112855
 30
0.0
 11
198.9731079014267
 21
76.83491047112858
 31
0.0
  0
ARC
  5
D6A
330
18
100
AcDbEntity
  8
1
  6
Continuous
100
AcDbCircle
 10
200.4048774014266
 20
77.63311297112855
 30
0.0
 40
0.9331565000000001
100
AcDbArc
 50
227.3884420000001
 51
249.173769000001
  0
ARC
  5
D6B
330
18
100
AcDbEntity
  8
1
  6
Continuous
100
AcDbCircle
 10
196.8655404014265
 20
78.38297247112855
 30
0.0
 40
2.415121
100
AcDbArc
 50
318.455222
 51
330.7686520000003
  0
LINE
  5
D6C
330
18
100
AcDbEntity
  8
1
  6
Continuous
100
AcDbLine
 10
199.7731079014266
 20
76.70726797112855
 30
0.0
 11
200.0731079014266
 21
76.76092597112854
 31
0.0
  0
LINE
  5
D6D
330
18
100
AcDbEntity
  8
1
  6
Continuous
100
AcDbLine
 10
198.6731079014266
 20
76.40320347112856
 30
0.0
 11
198.6731079014266
 21
76.78125197112855
 31
0.0
  0
LINE
  5
D6E
330
18
100
AcDbEntity
  8
1
  6
Continuous
100
AcDbLine
 10
198.6760769014265
 20
71.03434147112856
 30
0.0
 11
198.9731079014267
 21
70.70034347112858
 31
0.0
  0
ARC
  5
D6F
330
18
100
AcDbEntity
  8
1
  6
Continuous
100
AcDbCircle
 10
195.2338094014266
 20
68.44599647112855
 30
0.0
 40
4.308307499999998
100
AcDbArc
 50
29.78131000000013
 51
36.70687899999982
  0
LINE
  5
D70
330
18
100
AcDbEntity
  8
1
  6
Continuous
100
AcDbLine
 10
198.9731079014267
 20
79.60647947112858
 30
0.0
 11
199.7731079014266
 21
79.60647947112858
 31
0.0
  0
ARC
  5
D71
330
18
100
AcDbEntity
  8
1
  6
Continuous
100
AcDbCircle
 10
217.7086335307679
 20
75.85647935624803
 30
0.0
 40
7.812499366452697
100
AcDbArc
 50
159.3903058251915
 51
200.6096937823212
  0
LINE
  5
D73
330
18
100
AcDbEntity
  8
1
  6
Continuous
100
AcDbLine
 10
183.563620361715
 20
62.10647947140238
 30
0.0
 11
186.0636203617148
 21
62.10647947139938
 31
0.0
  0
LINE
  5
D74
330
18
100
AcDbEntity
  8
1
  6
Continuous
100
AcDbLine
 10
198.9731079014267
 20
66.60647947112855
 30
0.0
 11
199.7731079014266
 21
66.60647947112855
 31
0.0
  0
LINE
  5
D75
330
18
100
AcDbEntity
  8
1
  6
Continuous
100
AcDbLine
 10
198.9731079014267
 20
69.98147947112847
 30
0.0
 11
198.7457099014267
 21
69.85019097112846
 31
0.0
  0
LINE
  5
D76
330
18
100
AcDbEntity
  8
1
  6
Continuous
100
AcDbLine
 10
198.6731079014266
 20
69.45203247112846
 30
0.0
 11
198.9731079014267
 21
69.50569097112847
 31
0.0
  0
LINE
  5
D77
330
18
100
AcDbEntity
  8
1
  6
Continuous
100
AcDbLine
 10
198.6731079014266
 20
69.83720547112856
 30
0.0
 11
198.9731079014267
 21
69.89086347112854
 31
0.0
  0
ARC
  5
D78
330
18
100
AcDbEntity
  8
1
  6
Continuous
100
AcDbCircle
 10
198.2362624014266
 20
67.66766097112856
 30
0.0
 40
1.837066999999999
100
AcDbArc
 50
66.35311000000029
 51
76.24356099999914
  0
ARC
  5
D79
330
18
100
AcDbEntity
  8
1
  6
Continuous
100
AcDbCircle
 10
200.2521999014267
 20
68.80560497112856
 30
0.0
 40
1.019995999999999
100
AcDbArc
 50
100.1124889999994
 51
118.0148319999998
  0
LINE
  5
D7A
330
18
100
AcDbEntity
  8
1
  6
Continuous
100
AcDbLine
 10
199.7731079014265
 20
69.75609697112855
 30
0.0
 11
200.0731079014265
 21
69.80975497112854
 31
0.0
  0
LINE
  5
D7B
330
18
100
AcDbEntity
  8
1
  6
Continuous
100
AcDbLine
 10
198.6731079014266
 20
69.45203247112854
 30
0.0
 11
198.6731079014266
 21
69.83720547112856
 31
0.0
  0
ARC
  5
D7D
330
18
100
AcDbEntity
  8
1
  6
Continuous
100
AcDbCircle
 10
206.2836342926451
 20
70.3564795215311
 30
0.0
 40
7.812499862251119
100
AcDbArc
 50
339.3903062900614
 51
20.60969292496703
  0
LINE
  5
D7E
330
18
100
AcDbEntity
  8
1
  6
Continuous
100
AcDbLine
 10
214.0961341643152
 20
69.93105309091228
 30
0.0
 11
214.0961341643152
 21
76.28190585196617
 31
0.0
  0
ARC
  5
D7F
330
18
100
AcDbEntity
  8
1
  6
Continuous
100
AcDbCircle
 10
206.2836347978624
 20
75.85647935624803
 30
0.0
 40
7.812499366452762
100
AcDbArc
 50
339.3903062176788
 51
20.60969417480833
  0
LINE
  5
EFE
330
18
100
AcDbEntity
  8
1
  6
Continuous
100
AcDbLine
 10
126.1372825087683
 20
219.7866000951321
 30
0.0
 11
126.1372825087684
 21
217.2465765956973
 31
0.0
  0
LINE
  5
EFF
330
18
100
AcDbEntity
  8
1
  6
Continuous
100
AcDbLine
 10
143.0372825087683
 20
77.25776047144359
 30
0.0
 11
140.7372825087684
 21
77.25776047144359
 31
0.0
  0
LINE
  5
F00
330
18
100
AcDbEntity
  8
1
  6
Continuous
100
AcDbLine
 10
143.0372825087683
 20
68.955198086755
 30
0.0
 11
140.7372825087684
 21
68.955198086755
 31
0.0
  0
LINE
  5
F01
330
18
100
AcDbEntity
  8
1
  6
Continuous
100
AcDbLine
 10
143.0372825087683
 20
77.25776047144359
 30
0.0
 11
143.0372825087683
 21
68.955198086755
 31
0.0
  0
LINE
  5
F02
330
18
100
AcDbEntity
  8
1
  6
Continuous
100
AcDbLine
 10
140.9372825087684
 20
77.25776047144361
 30
0.0
 11
140.9372825087684
 21
78.10647947112858
 31
0.0
  0
LINE
  5
F03
330
18
100
AcDbEntity
  8
1
  6
Continuous
100
AcDbLine
 10
140.7372825087683
 20
77.25776047144359
 30
0.0
 11
140.7372825087684
 21
81.00647943909589
 31
0.0
  0
LINE
  5
F04
330
18
100
AcDbEntity
  8
1
  6
Continuous
100
AcDbLine
 10
141.9372825087683
 20
77.25776047144359
 30
0.0
 11
141.9372825087684
 21
80.51563647144362
 31
0.0
  0
LINE
  5
F19
330
18
100
AcDbEntity
  8
1
  6
Continuous
100
AcDbLine
 10
118.5372825087683
 20
75.59263397139749
 30
0.0
 11
117.0372825087683
 21
75.59263397139749
 31
0.0
  0
LINE
  5
F1E
330
18
100
AcDbEntity
  8
1
  6
Continuous
100
AcDbLine
 10
143.5372825087683
 20
79.60647947144362
 30
0.0
 11
141.9372825087684
 21
79.60647947144362
 31
0.0
  0
LINE
  5
F1F
330
18
100
AcDbEntity
  8
1
  6
Continuous
100
AcDbLine
 10
143.5372825087683
 20
68.90026815745435
 30
0.0
 11
141.9372825087684
 21
68.90026815745435
 31
0.0
  0
LINE
  5
11CB
330
18
100
AcDbEntity
  8
1
  6
Continuous
100
AcDbLine
 10
118.3372825087684
 20
67.10647947112855
 30
0.0
 11
118.3372825087684
 21
77.36040097139754
 31
0.0
  0
LINE
  5
11E8
330
18
100
AcDbEntity
  8
1
  6
Continuous
100
AcDbLine
 10
118.3372825087684
 20
77.36040097139754
 30
0.0
 11
117.3372825087684
 21
77.36040097139754
 31
0.0
  0
LINE
  5
11E9
330
18
100
AcDbEntity
  8
1
  6
Continuous
100
AcDbLine
 10
118.3372825087683
 20
77.21897947139749
 30
0.0
 11
118.5372825087683
 21
77.21897947139749
 31
0.0
  0
LINE
  5
11EA
330
18
100
AcDbEntity
  8
1
  6
Continuous
100
AcDbLine
 10
118.3372825087684
 20
78.5671604713975
 30
0.0
 11
118.3372825087684
 21
79.10647947112858
 31
0.0
  0
LINE
  5
11EB
330
18
100
AcDbEntity
  8
1
  6
Continuous
100
AcDbLine
 10
117.3372825087684
 20
75.59263397139749
 30
0.0
 11
117.3372825087684
 21
77.36040097139754
 31
0.0
  0
LINE
  5
11EC
330
18
100
AcDbEntity
  8
1
  6
Continuous
100
AcDbLine
 10
117.0372825087683
 20
77.7846649713974
 30
0.0
 11
117.3372825087684
 21
77.36040097139754
 31
0.0
  0
LINE
  5
11EF
330
18
100
AcDbEntity
  8
1
  6
Continuous
100
AcDbLine
 10
118.3372825087683
 20
233.2465765956973
 30
0.0
 11
118.3372825087684
 21
221.2465765956973
 31
0.0
  0
LINE
  5
11F0
330
18
100
AcDbEntity
  8
1
  6
Continuous
100
AcDbLine
 10
118.3372825087683
 20
78.5671604713975
 30
0.0
 11
118.5372825087683
 21
78.5671604713975
 31
0.0
  0
LINE
  5
11F1
330
18
100
AcDbEntity
  8
1
  6
Continuous
100
AcDbLine
 10
117.2183990087684
 20
77.52852697139751
 30
0.0
 11
118.3372825087684
 21
78.5671604713975
 31
0.0
  0
LINE
  5
1272
330
18
100
AcDbEntity
  8
1
  6
Continuous
100
AcDbLine
 10
33.05975481274683
 20
155.2099605336148
 30
0.0
 11
40.57934081274686
 21
147.6903745336148
 31
0.0
  0
LINE
  5
1273
330
18
100
AcDbEntity
  8
1
  6
Continuous
100
AcDbLine
 10
31.29198781274681
 20
153.4421935336148
 30
0.0
 11
38.81157381274675
 21
145.9226075336149
 31
0.0
  0
LINE
  5
12EE
330
18
100
AcDbEntity
  8
1
  6
Continuous
100
AcDbLine
 10
153.3372825087684
 20
229.9465765956973
 30
0.0
 11
153.5372825087683
 21
229.7465765956973
 31
0.0
  0
LINE
  5
12EF
330
18
100
AcDbEntity
  8
1
  6
Continuous
100
AcDbLine
 10
153.5372825087683
 20
224.7465765956973
 30
0.0
 11
153.3372825087684
 21
224.5465765956973
 31
0.0
  0
LINE
  5
1306
330
18
100
AcDbEntity
  8
1
  6
Continuous
100
AcDbLine
 10
153.3372825087684
 20
75.80647947173031
 30
0.0
 11
153.5372825087683
 21
75.60647947173031
 31
0.0
  0
LINE
  5
1307
330
18
100
AcDbEntity
  8
1
  6
Continuous
100
AcDbLine
 10
153.5372825087683
 20
75.60647947173031
 30
0.0
 11
153.5372825087683
 21
70.6064794717303
 31
0.0
  0
LINE
  5
1308
330
18
100
AcDbEntity
  8
1
  6
Continuous
100
AcDbLine
 10
153.5372825087683
 20
70.6064794717303
 30
0.0
 11
153.3372825081666
 21
70.40647947112858
 31
0.0
  0
LINE
  5
1309
330
18
100
AcDbEntity
  8
1
  6
Continuous
100
AcDbLine
 10
152.5372825087683
 20
70.40647947173034
 30
0.0
 11
152.5372825087683
 21
75.80647947173028
 31
0.0
  0
LINE
  5
1325
330
18
100
AcDbEntity
  8
1
  6
Continuous
100
AcDbLine
 10
138.7372825087684
 20
221.9702140951321
 30
0.0
 11
126.1372825087684
 21
221.9702140951321
 31
0.0
  0
LINE
  5
1326
330
18
100
AcDbEntity
  8
1
  6
Continuous
100
AcDbLine
 10
138.7372825087684
 20
221.9235365951321
 30
0.0
 11
126.1372825087684
 21
221.9235365951321
 31
0.0
  0
LINE
  5
1327
330
18
100
AcDbEntity
  8
1
  6
Continuous
100
AcDbLine
 10
138.7372825087684
 20
221.9235365951321
 30
0.0
 11
139.5372825087683
 21
222.6737205951321
 31
0.0
  0
LINE
  5
1328
330
18
100
AcDbEntity
  8
1
  6
Continuous
100
AcDbLine
 10
140.7372825087684
 20
222.6737205951321
 30
0.0
 11
139.5372825087683
 21
222.6737205951321
 31
0.0
  0
LINE
  5
1329
330
18
100
AcDbEntity
  8
1
  6
Continuous
100
AcDbLine
 10
138.7372825087684
 20
67.78343947112603
 30
0.0
 11
138.7372825087684
 21
81.00647943902833
 31
0.0
  0
LINE
  5
132A
330
18
100
AcDbEntity
  8
1
  6
Continuous
100
AcDbLine
 10
139.5372825087684
 20
68.53362347112599
 30
0.0
 11
139.5372825087684
 21
81.00647943902833
 31
0.0
  0
LINE
  5
132B
330
18
100
AcDbEntity
  8
1
  6
Continuous
100
AcDbLine
 10
127.0033080087683
 20
81.00647943902833
 30
0.0
 11
127.0033080087683
 21
67.83011697112602
 31
0.0
  0
LINE
  5
132C
330
18
100
AcDbEntity
  8
1
  6
Continuous
100
AcDbLine
 10
126.1372825087684
 20
83.10647947169119
 30
0.0
 11
126.1372825087683
 21
67.42369847112854
 31
0.0
  0
LINE
  5
132D
330
18
100
AcDbEntity
  8
1
  6
Continuous
100
AcDbLine
 10
138.7372825087684
 20
67.83011697112597
 30
0.0
 11
126.1372825087684
 21
67.83011697112597
 31
0.0
  0
LINE
  5
132E
330
18
100
AcDbEntity
  8
1
  6
Continuous
100
AcDbLine
 10
138.7372825087684
 20
67.783439471126
 30
0.0
 11
126.1372825087684
 21
67.78343947112595
 31
0.0
  0
LINE
  5
132F
330
18
100
AcDbEntity
  8
1
  6
Continuous
100
AcDbLine
 10
138.7372825087684
 20
67.783439471126
 30
0.0
 11
139.5372825087683
 21
68.53362347112599
 31
0.0
  0
LINE
  5
1330
330
18
100
AcDbEntity
  8
1
  6
Continuous
100
AcDbLine
 10
140.7372825087684
 20
68.53362347112599
 30
0.0
 11
139.5372825087683
 21
68.53362347112599
 31
0.0
  0
LINE
  5
1332
330
18
100
AcDbEntity
  8
1
  6
Continuous
100
AcDbLine
 10
126.1372825087684
 20
221.5637955951347
 30
0.0
 11
125.8372825087683
 21
221.5637955951347
 31
0.0
  0
LINE
  5
1333
330
18
100
AcDbEntity
  8
1
  6
Continuous
100
AcDbLine
 10
126.1372825087684
 20
67.42369847112854
 30
0.0
 11
125.8372825087683
 21
67.42369847112854
 31
0.0
  0
LINE
  5
1342
330
18
100
AcDbEntity
  8
2
  6
Continuous
100
AcDbLine
 10
143.5372825087683
 20
153.2705280333809
 30
0.0
 11
152.9432825084674
 21
153.2705280333809
 31
0.0
  0
LINE
  5
1358
330
18
100
AcDbEntity
  8
2
  6
Continuous
100
AcDbLine
 10
127.0751881247788
 20
159.1350280334011
 30
0.0
 11
139.2787825084858
 21
159.1350280334011
 31
0.0
  0
LINE
  5
1359
330
18
100
AcDbEntity
  8
1
  6
Continuous
100
AcDbLine
 10
127.0751881247787
 20
158.0451525336818
 30
0.0
 11
127.0751881247788
 21
159.6765280331185
 31
0.0
  0
LINE
  5
135A
330
18
100
AcDbEntity
  8
2
  6
Continuous
100
AcDbLine
 10
126.1372825087683
 20
159.6765280331185
 30
0.0
 11
127.0751881247788
 21
159.1350280334011
 31
0.0
  0
ENDSEC
  0
SECTION
  2
OBJECTS
  0
DICTIONARY
  5
C
330
0
100
AcDbDictionary
281
     1
  3
ACAD_CIP_PREVIOUS_PRODUCT_INFO
350
13F5
  3
ACAD_COLOR
350
13D8
  3
ACAD_DETAILVIEWSTYLE
350
13F1
  3
ACAD_GROUP
350
D
  3
ACAD_LAYOUT
350
94
  3
ACAD_MATERIAL
350
13A6
  3
ACAD_MLEADERSTYLE
350
13ED
  3
ACAD_MLINESTYLE
350
1B
  3
ACAD_PLOTSETTINGS
350
95
  3
ACAD_PLOTSTYLENAME
350
13A4
  3
ACAD_SCALELIST
350
13DB
  3
ACAD_SECTIONVIEWSTYLE
350
13EF
  3
ACAD_TABLESTYLE
350
13D9
  3
ACAD_VISUALSTYLE
350
13BF
  3
ACDB_RECOMPOSE_DATA
350
1413
  3
AcDbVariableDictionary
350
1406
  3
CONTENTDICTIONARY
350
3D
  3
DWGPROPS
350
1414
  0
DICTIONARY
  5
13F6
330
E
100
AcDbDictionary
280
     1
281
     1
  3
ADSK_XREC_LAYER_RECONCILED
360
13F7
  0
DICTIONARY
  5
13F8
330
4E
100
AcDbDictionary
280
     1
281
     1
  3
ADSK_XREC_LAYER_RECONCILED
360
13F9
  0
DICTIONARY
  5
13FA
330
4F
100
AcDbDictionary
280
     1
281
     1
  3
ADSK_XREC_LAYER_RECONCILED
360
13FB
  0
DICTIONARY
  5
13FC
330
50
100
AcDbDictionary
280
     1
281
     1
  3
ADSK_XREC_LAYER_RECONCILED
360
13FD
  0
DICTIONARY
  5
13FE
330
51
100
AcDbDictionary
280
     1
281
     1
  3
ADSK_XREC_LAYER_RECONCILED
360
13FF
  0
DICTIONARY
  5
1400
330
52
100
AcDbDictionary
280
     1
281
     1
  3
ADSK_XREC_LAYER_RECONCILED
360
1401
  0
DICTIONARY
  5
1402
330
53
100
AcDbDictionary
280
     1
281
     1
  3
ADSK_XREC_LAYER_RECONCILED
360
1403
  0
DICTIONARY
  5
1404
330
54
100
AcDbDictionary
280
     1
281
     1
  3
ADSK_XREC_LAYER_RECONCILED
360
1405
  0
DICTIONARY
  5
139F
330
18
100
AcDbDictionary
281
     1
  3
ACAD_LAYOUTSELFREF
350
13A0
  0
DICTIONARY
  5
139D
330
15
100
AcDbDictionary
281
     1
  3
ACAD_LAYOUTSELFREF
350
139E
  0
XRECORD
  5
13F5
102
{ACAD_REACTORS
330
C
102
}
330
C
100
AcDbXrecord
280
     1
300
ACDLT
300
2014
300
ACDLT_F_S
  0
DICTIONARY
  5
13D8
102
{ACAD_REACTORS
330
C
102
}
330
C
100
AcDbDictionary
281
     1
  0
DICTIONARY
  5
13F1
102
{ACAD_REACTORS
330
C
102
}
330
C
100
AcDbDictionary
281
     1
  3
Imperial24
350
13F2
  0
DICTIONARY
  5
D
102
{ACAD_REACTORS
330
C
102
}
330
C
100
AcDbDictionary
281
     1
  0
DICTIONARY
  5
94
102
{ACAD_REACTORS
330
C
102
}
330
C
100
AcDbDictionary
281
     1
  3
Model
350
13F3
  3
レイアウト1
350
13F4
  0
DICTIONARY
  5
13A6
102
{ACAD_REACTORS
330
C
102
}
330
C
100
AcDbDictionary
281
     1
  3
ByBlock
350
13AF
  3
ByLayer
350
13A7
  3
Global
350
13B7
  0
DICTIONARY
  5
13ED
102
{ACAD_REACTORS
330
C
102
}
330
C
100
AcDbDictionary
281
     1
  3
Standard
350
13EE
  0
DICTIONARY
  5
1B
102
{ACAD_REACTORS
330
C
102
}
330
C
100
AcDbDictionary
281
     1
  3
STANDARD
350
1C
  0
DICTIONARY
  5
95
102
{ACAD_REACTORS
330
C
102
}
330
C
100
AcDbDictionary
281
     1
  0
ACDBDICTIONARYWDFLT
  5
13A4
102
{ACAD_REACTORS
330
C
102
}
330
C
100
AcDbDictionary
281
     1
  3
Normal
350
13A5
100
AcDbDictionaryWithDefault
340
13A5
  0
DICTIONARY
  5
13DB
102
{ACAD_REACTORS
330
C
102
}
330
C
100
AcDbDictionary
281
     1
  3
A0
350
13DC
  3
A1
350
13DD
  3
A2
350
13DE
  3
A3
350
13DF
  3
A4
350
13E0
  3
A5
350
13E1
  3
A6
350
13E2
  3
A7
350
13E3
  3
A8
350
13E4
  3
A9
350
13E5
  3
B0
350
13E6
  3
B1
350
13E7
  3
B2
350
13E8
  3
B3
350
13E9
  3
B4
350
13EA
  3
B5
350
13EB
  3
B6
350
13EC
  0
DICTIONARY
  5
13EF
102
{ACAD_REACTORS
330
C
102
}
330
C
100
AcDbDictionary
281
     1
  3
Imperial24
350
13F0
  0
DICTIONARY
  5
13D9
102
{ACAD_REACTORS
330
C
102
}
330
C
100
AcDbDictionary
281
     1
  3
Standard
350
13DA
  0
DICTIONARY
  5
13BF
102
{ACAD_REACTORS
330
C
102
}
330
C
100
AcDbDictionary
281
     1
  3
2dWireframe
350
13C5
  3
Basic
350
13C4
  3
Brighten
350
13CB
  3
ColorChange
350
13CF
  3
Conceptual
350
13C8
  3
Dim
350
13CA
  3
EdgeColorOff
350
13D7
  3
Facepattern
350
13CE
  3
Flat
350
13C0
  3
FlatWithEdges
350
13C1
  3
Gouraud
350
13C2
  3
GouraudWithEdges
350
13C3
  3
Hidden
350
13C7
  3
JitterOff
350
13D5
  3
Linepattern
350
13CD
  3
OverhangOff
350
13D6
  3
Realistic
350
13C9
  3
Shaded
350
13D4
  3
Shaded with edges
350
13D3
  3
Shades of Gray
350
13D0
  3
Sketchy
350
13D1
  3
Thicken
350
13CC
  3
Wireframe
350
13C6
  3
X-Ray
350
13D2
  0
XRECORD
  5
1413
102
{ACAD_REACTORS
330
C
102
}
330
C
100
AcDbXrecord
280
     1
 90
        1
330
13DA
  0
DICTIONARY
  5
1406
102
{ACAD_REACTORS
330
C
102
}
330
C
100
AcDbDictionary
281
     1
  3
CANNOSCALE
350
140B
  3
CMLEADERSTYLE
350
1408
  3
CTABLESTYLE
350
1407
  3
CVIEWDETAILSTYLE
350
1409
  3
CVIEWSECTIONSTYLE
350
140A
  3
DIMASSOC
350
140E
  3
INDEXCTL
350
140D
  3
SORTENTS
350
140C
  3
XCLIPFRAME
350
140F
  0
DICTIONARY
  5
3D
102
{ACAD_REACTORS
330
C
102
}
330
C
100
AcDbDictionary
281
     1
  0
XRECORD
  5
1414
102
{ACAD_REACTORS
330
C
102
}
330
C
100
AcDbXrecord
280
     1
  1
DWGPROPS COOKIE
  2

  3

  4

  6

  7

  8
Yoshitsune
  9

300
=
301
=
302
=
303
=
304
=
305
=
306
=
307
=
308
=
309
=
 40
0.4579267708333333
 41
2452941.654653311
 42
2457192.601901435
  1

 90
        0
  0
XRECORD
  5
13F7
102
{ACAD_REACTORS
330
13F6
102
}
330
13F6
100
AcDbXrecord
280
     1
290
     1
  0
XRECORD
  5
13F9
102
{ACAD_REACTORS
330
13F8
102
}
330
13F8
100
AcDbXrecord
280
     1
290
     1
  0
XRECORD
  5
13FB
102
{ACAD_REACTORS
330
13FA
102
}
330
13FA
100
AcDbXrecord
280
     1
290
     1
  0
XRECORD
  5
13FD
102
{ACAD_REACTORS
330
13FC
102
}
330
13FC
100
AcDbXrecord
280
     1
290
     1
  0
XRECORD
  5
13FF
102
{ACAD_REACTORS
330
13FE
102
}
330
13FE
100
AcDbXrecord
280
     1
290
     1
  0
XRECORD
  5
1401
102
{ACAD_REACTORS
330
1400
102
}
330
1400
100
AcDbXrecord
280
     1
290
     1
  0
XRECORD
  5
1403
102
{ACAD_REACTORS
330
1402
102
}
330
1402
100
AcDbXrecord
280
     1
290
     1
  0
XRECORD
  5
1405
102
{ACAD_REACTORS
330
1404
102
}
330
1404
100
AcDbXrecord
280
     1
290
     1
  0
XRECORD
  5
13A0
102
{ACAD_REACTORS
330
139F
102
}
330
139F
100
AcDbXrecord
280
     1
340
18
  0
XRECORD
  5
139E
102
{ACAD_REACTORS
330
139D
102
}
330
139D
100
AcDbXrecord
280
     1
340
15
  0
ACDBDETAILVIEWSTYLE
  5
13F2
102
{ACAD_XDICTIONARY
360
144C
102
}
102
{ACAD_REACTORS
330
13F1
102
}
330
13F1
100
AcDbModelDocViewStyle
 70
     0
  3
Imperial24
290
     0
100
AcDbDetailViewStyle
 70
     0
 71
     0
 90
        3
 71
     1
340
F
 40
0.24
340
0
 40
0.24
300

 40
0.36
280
     3
 71
     2
340
14
 90
       25
 71
     3
340
F
 40
0.24
 90
        1
 40
0.75
 90
        1
300
%<\AcVar ViewType \f "%tc1">% %<\AcVar ViewDetailId>%\PSCALE %<\AcVar ViewScale \f "%sn">%
 71
     4
340
14
 90
       25
340
14
 90
       25
280
     0
  0
LAYOUT
  5
13F3
102
{ACAD_XDICTIONARY
360
144E
102
}
102
{ACAD_REACTORS
330
94
102
}
330
94
100
AcDbPlotSettings
  1

  2
Canon LBP9100C
  4

  6

 40
0.0
 41
0.0
 42
0.0
 43
0.0
 44
0.0
 45
0.0
 46
0.0
 47
0.0
 48
0.0
 49
0.0
140
0.0
141
0.0
142
1.0
143
1.0
 70
  1712
 72
     0
 73
     0
 74
     0
  7

 75
     0
147
1.0
148
0.0
149
0.0
100
AcDbLayout
  1
Model
 70
     1
 71
     0
 10
0.0
 20
0.0
 11
12.0
 21
9.0
 12
0.0
 22
0.0
 32
0.0
 14
0.0
 24
0.0
 34
0.0
 15
0.0
 25
0.0
 35
0.0
146
0.0
 13
0.0
 23
0.0
 33
0.0
 16
1.0
 26
0.0
 36
0.0
 17
0.0
 27
1.0
 37
0.0
 76
     0
330
18
331
139C
  0
LAYOUT
  5
13F4
102
{ACAD_XDICTIONARY
360
1450
102
}
102
{ACAD_REACTORS
330
94
102
}
330
94
100
AcDbPlotSettings
  1

  2
Canon LBP9100C
  4

  6

 40
0.0
 41
0.0
 42
0.0
 43
0.0
 44
0.0
 45
0.0
 46
0.0
 47
0.0
 48
0.0
 49
0.0
140
0.0
141
0.0
142
1.0
143
1.0
 70
   688
 72
     0
 73
     0
 74
     5
  7

 75
    16
147
1.0
148
0.0
149
0.0
100
AcDbLayout
  1
レイアウト1
 70
     1
 71
     1
 10
0.0
 20
0.0
 11
420.0
 21
297.0
 12
0.0
 22
0.0
 32
0.0
 14
1.000000000000000E+20
 24
1.000000000000000E+20
 34
1.000000000000000E+20
 15
-1.000000000000000E+20
 25
-1.000000000000000E+20
 35
-1.000000000000000E+20
146
0.0
 13
0.0
 23
0.0
 33
0.0
 16
1.0
 26
0.0
 36
0.0
 17
0.0
 27
1.0
 37
0.0
 76
     0
330
15
  0
MATERIAL
  5
13AF
102
{ACAD_XDICTIONARY
360
13B0
102
}
102
{ACAD_REACTORS
330
13A6
102
}
330
13A6
100
AcDbMaterial
  1
ByBlock
 72
     0
 43
0.0208333333333333
 43
0.0
 43
0.0
 43
0.0
 43
0.0
 43
0.0208333333333333
 43
0.0
 43
0.0
 43
0.0
 43
0.0
 43
1.0
 43
0.0
 43
0.0
 43
0.0
 43
0.0
 43
1.0
 77
     0
 47
0.0208333333333333
 47
0.0
 47
0.0
 47
0.0
 47
0.0
 47
0.0208333333333333
 47
0.0
 47
0.0
 47
0.0
 47
0.0
 47
1.0
 47
0.0
 47
0.0
 47
0.0
 47
0.0
 47
1.0
171
     0
 49
0.0208333333333333
 49
0.0
 49
0.0
 49
0.0
 49
0.0
 49
0.0208333333333333
 49
0.0
 49
0.0
 49
0.0
 49
0.0
 49
1.0
 49
0.0
 49
0.0
 49
0.0
 49
0.0
 49
1.0
175
     0
142
0.0208333333333333
142
0.0
142
0.0
142
0.0
142
0.0
142
0.0208333333333333
142
0.0
142
0.0
142
0.0
142
0.0
142
1.0
142
0.0
142
0.0
142
0.0
142
0.0
142
1.0
179
     0
144
0.0208333333333333
144
0.0
144
0.0
144
0.0
144
0.0
144
0.0208333333333333
144
0.0
144
0.0
144
0.0
144
0.0
144
1.0
144
0.0
144
0.0
144
0.0
144
0.0
144
1.0
147
0.0208333333333333
147
0.0
147
0.0
147
0.0
147
0.0
147
0.0208333333333333
147
0.0
147
0.0
147
0.0
147
0.0
147
1.0
147
0.0
147
0.0
147
0.0
147
0.0
147
1.0
  0
MATERIAL
  5
13A7
102
{ACAD_XDICTIONARY
360
13A8
102
}
102
{ACAD_REACTORS
330
13A6
102
}
330
13A6
100
AcDbMaterial
  1
ByLayer
 72
     0
 43
0.0208333333333333
 43
0.0
 43
0.0
 43
0.0
 43
0.0
 43
0.0208333333333333
 43
0.0
 43
0.0
 43
0.0
 43
0.0
 43
1.0
 43
0.0
 43
0.0
 43
0.0
 43
0.0
 43
1.0
 77
     0
 47
0.0208333333333333
 47
0.0
 47
0.0
 47
0.0
 47
0.0
 47
0.0208333333333333
 47
0.0
 47
0.0
 47
0.0
 47
0.0
 47
1.0
 47
0.0
 47
0.0
 47
0.0
 47
0.0
 47
1.0
171
     0
 49
0.0208333333333333
 49
0.0
 49
0.0
 49
0.0
 49
0.0
 49
0.0208333333333333
 49
0.0
 49
0.0
 49
0.0
 49
0.0
 49
1.0
 49
0.0
 49
0.0
 49
0.0
 49
0.0
 49
1.0
175
     0
142
0.0208333333333333
142
0.0
142
0.0
142
0.0
142
0.0
142
0.0208333333333333
142
0.0
142
0.0
142
0.0
142
0.0
142
1.0
142
0.0
142
0.0
142
0.0
142
0.0
142
1.0
179
     0
144
0.0208333333333333
144
0.0
144
0.0
144
0.0
144
0.0
144
0.0208333333333333
144
0.0
144
0.0
144
0.0
144
0.0
144
1.0
144
0.0
144
0.0
144
0.0
144
0.0
144
1.0
147
0.0208333333333333
147
0.0
147
0.0
147
0.0
147
0.0
147
0.0208333333333333
147
0.0
147
0.0
147
0.0
147
0.0
147
1.0
147
0.0
147
0.0
147
0.0
147
0.0
147
1.0
  0
MATERIAL
  5
13B7
102
{ACAD_XDICTIONARY
360
13B8
102
}
102
{ACAD_REACTORS
330
13A6
102
}
330
13A6
100
AcDbMaterial
  1
Global
 72
     0
 43
0.0208333333333333
 43
0.0
 43
0.0
 43
0.0
 43
0.0
 43
0.0208333333333333
 43
0.0
 43
0.0
 43
0.0
 43
0.0
 43
1.0
 43
0.0
 43
0.0
 43
0.0
 43
0.0
 43
1.0
 77
     0
 47
0.0208333333333333
 47
0.0
 47
0.0
 47
0.0
 47
0.0
 47
0.0208333333333333
 47
0.0
 47
0.0
 47
0.0
 47
0.0
 47
1.0
 47
0.0
 47
0.0
 47
0.0
 47
0.0
 47
1.0
171
     0
 49
0.0208333333333333
 49
0.0
 49
0.0
 49
0.0
 49
0.0
 49
0.0208333333333333
 49
0.0
 49
0.0
 49
0.0
 49
0.0
 49
1.0
 49
0.0
 49
0.0
 49
0.0
 49
0.0
 49
1.0
175
     0
142
0.0208333333333333
142
0.0
142
0.0
142
0.0
142
0.0
142
0.0208333333333333
142
0.0
142
0.0
142
0.0
142
0.0
142
1.0
142
0.0
142
0.0
142
0.0
142
0.0
142
1.0
179
     0
144
0.0208333333333333
144
0.0
144
0.0
144
0.0
144
0.0
144
0.0208333333333333
144
0.0
144
0.0
144
0.0
144
0.0
144
1.0
144
0.0
144
0.0
144
0.0
144
0.0
144
1.0
147
0.0208333333333333
147
0.0
147
0.0
147
0.0
147
0.0
147
0.0208333333333333
147
0.0
147
0.0
147
0.0
147
0.0
147
1.0
147
0.0
147
0.0
147
0.0
147
0.0
147
1.0
  0
MLEADERSTYLE
  5
13EE
102
{ACAD_REACTORS
330
13ED
102
}
330
13ED
100
AcDbMLeaderStyle
170
     2
171
     1
172
     0
 90
        2
 40
0.0
 41
0.0
173
     1
 91
-1056964608
340
12
 92
       -2
290
     1
 42
0.09
291
     1
 43
0.36
  3
Standard
 44
0.18
300

342
F
174
     1
178
     6
175
     1
176
     0
 93
-1056964608
 45
0.18
292
     0
297
     0
 46
0.18
 94
-1056964608
 47
1.0
 49
1.0
140
1.0
293
     1
141
0.0
294
     1
177
     0
142
1.0
295
     0
296
     0
143
0.125
1001
ACAD_MLEADERVER
1070
     2
  0
MLINESTYLE
  5
1C
102
{ACAD_REACTORS
330
1B
102
}
330
1B
100
AcDbMlineStyle
  2
STANDARD
 70
     0
  3

 62
   256
 51
90.0
 52
90.0
 71
     2
 49
0.5
 62
   256
  6
BYLAYER
 49
-0.5
 62
   256
  6
BYLAYER
  0
ACDBPLACEHOLDER
  5
13A5
102
{ACAD_REACTORS
330
13A4
102
}
330
13A4
  0
SCALE
  5
13DC
102
{ACAD_REACTORS
330
13DB
102
}
330
13DB
100
AcDbScale
 70
     0
300
1:1
140
1.0
141
1.0
290
     1
  0
SCALE
  5
13DD
102
{ACAD_REACTORS
330
13DB
102
}
330
13DB
100
AcDbScale
 70
     0
300
1/128" = 1'-0"
140
0.0078125
141
12.0
290
     0
  0
SCALE
  5
13DE
102
{ACAD_REACTORS
330
13DB
102
}
330
13DB
100
AcDbScale
 70
     0
300
1/64" = 1'-0"
140
0.015625
141
12.0
290
     0
  0
SCALE
  5
13DF
102
{ACAD_REACTORS
330
13DB
102
}
330
13DB
100
AcDbScale
 70
     0
300
1/32" = 1'-0"
140
0.03125
141
12.0
290
     0
  0
SCALE
  5
13E0
102
{ACAD_REACTORS
330
13DB
102
}
330
13DB
100
AcDbScale
 70
     0
300
1/16" = 1'-0"
140
0.0625
141
12.0
290
     0
  0
SCALE
  5
13E1
102
{ACAD_REACTORS
330
13DB
102
}
330
13DB
100
AcDbScale
 70
     0
300
3/32" = 1'-0"
140
0.09375
141
12.0
290
     0
  0
SCALE
  5
13E2
102
{ACAD_REACTORS
330
13DB
102
}
330
13DB
100
AcDbScale
 70
     0
300
1/8" = 1'-0"
140
0.125
141
12.0
290
     0
  0
SCALE
  5
13E3
102
{ACAD_REACTORS
330
13DB
102
}
330
13DB
100
AcDbScale
 70
     0
300
3/16" = 1'-0"
140
0.1875
141
12.0
290
     0
  0
SCALE
  5
13E4
102
{ACAD_REACTORS
330
13DB
102
}
330
13DB
100
AcDbScale
 70
     0
300
1/4" = 1'-0"
140
0.25
141
12.0
290
     0
  0
SCALE
  5
13E5
102
{ACAD_REACTORS
330
13DB
102
}
330
13DB
100
AcDbScale
 70
     0
300
3/8" = 1'-0"
140
0.375
141
12.0
290
     0
  0
SCALE
  5
13E6
102
{ACAD_REACTORS
330
13DB
102
}
330
13DB
100
AcDbScale
 70
     0
300
1/2" = 1'-0"
140
0.5
141
12.0
290
     0
  0
SCALE
  5
13E7
102
{ACAD_REACTORS
330
13DB
102
}
330
13DB
100
AcDbScale
 70
     0
300
3/4" = 1'-0"
140
0.75
141
12.0
290
     0
  0
SCALE
  5
13E8
102
{ACAD_REACTORS
330
13DB
102
}
330
13DB
100
AcDbScale
 70
     0
300
1" = 1'-0"
140
1.0
141
12.0
290
     0
  0
SCALE
  5
13E9
102
{ACAD_REACTORS
330
13DB
102
}
330
13DB
100
AcDbScale
 70
     0
300
1-1/2" = 1'-0"
140
1.5
141
12.0
290
     0
  0
SCALE
  5
13EA
102
{ACAD_REACTORS
330
13DB
102
}
330
13DB
100
AcDbScale
 70
     0
300
3" = 1'-0"
140
3.0
141
12.0
290
     0
  0
SCALE
  5
13EB
102
{ACAD_REACTORS
330
13DB
102
}
330
13DB
100
AcDbScale
 70
     0
300
6" = 1'-0"
140
6.0
141
12.0
290
     0
  0
SCALE
  5
13EC
102
{ACAD_REACTORS
330
13DB
102
}
330
13DB
100
AcDbScale
 70
     0
300
1'-0" = 1'-0"
140
12.0
141
12.0
290
     0
  0
ACDBSECTIONVIEWSTYLE
  5
13F0
102
{ACAD_XDICTIONARY
360
144A
102
}
102
{ACAD_REACTORS
330
13EF
102
}
330
13EF
100
AcDbModelDocViewStyle
 70
     0
  3
Imperial24
290
     0
100
AcDbSectionViewStyle
 70
     0
 71
     0
 90
       78
 71
     1
340
F
 40
0.24
340
0
340
0
 40
0.24
300
I, O, Q, S, X, Z
 40
0.48
 90
        3
 40
0.18
 90
        1
 71
     2
340
14
 90
       25
340
14
 90
       50
 40
0.24
 40
0.0
 40
0.24
 71
     3
340
F
 40
0.24
 90
        1
 40
0.75
 90
        1
300
%<\AcVar ViewType \f "%tc1">% %<\AcVar ViewSectionStartId>%-%<\AcVar ViewSectionEndId>%\PSCALE %<\AcVar ViewScale \f "%sn">%
 71
     4
300
ANSI31
 40
1.0
 90
        0
290
     0
290
     0
 90
        6
 40
0.0
 40
1.570796326794896
 40
0.2617993877991494
 40
1.308996938995747
 40
-0.2617993877991494
 40
1.832595714594046
  0
TABLESTYLE
  5
13DA
102
{ACAD_XDICTIONARY
360
1411
102
}
102
{ACAD_REACTORS
330
13D9
102
}
330
13D9
100
AcDbTableStyle
  3
Standard
 70
     0
 71
     0
 40
0.06
 41
0.06
280
     0
281
     0
  7
STANDARD
140
0.18
170
     2
 62
     0
 63
     7
283
     0
274
    -2
284
     1
 64
     0
275
    -2
285
     1
 65
     0
276
    -2
286
     1
 66
     0
277
    -2
287
     1
 67
     0
278
    -2
288
     1
 68
     0
279
    -2
289
     1
 69
     0
  7
STANDARD
140
0.25
170
     5
 62
     0
 63
     7
283
     0
274
    -2
284
     1
 64
     0
275
    -2
285
     1
 65
     0
276
    -2
286
     1
 66
     0
277
    -2
287
     1
 67
     0
278
    -2
288
     1
 68
     0
279
    -2
289
     1
 69
     0
  7
STANDARD
140
0.18
170
     5
 62
     0
 63
     7
283
     0
274
    -2
284
     1
 64
     0
275
    -2
285
     1
 65
     0
276
    -2
286
     1
 66
     0
277
    -2
287
     1
 67
     0
278
    -2
288
     1
 68
     0
279
    -2
289
     1
 69
     0
  0
VISUALSTYLE
  5
13C5
102
{ACAD_XDICTIONARY
360
1422
102
}
102
{ACAD_REACTORS
330
13BF
102
}
330
13BF
100
AcDbVisualStyle
  2
2dWireframe
 70
     4
 71
     0
 72
     2
 73
     0
 90
        0
 40
-0.6
 41
-30.0
 62
     5
 63
     7
 74
     1
 91
        4
 64
     7
 65
   257
 75
     1
175
     1
 42
1.0
 92
        0
 66
   257
 43
1.0
 76
     1
 77
     6
 78
     2
 67
     7
 79
     5
170
     0
171
     0
290
     0
174
     0
 93
        1
 44
0.0
173
     0
291
     0
 45
0.0
1001
ACAD
1000
AcDbSavedByObjectVersion
1070
     0
  0
VISUALSTYLE
  5
13C4
102
{ACAD_XDICTIONARY
360
1420
102
}
102
{ACAD_REACTORS
330
13BF
102
}
330
13BF
100
AcDbVisualStyle
  2
Basic
 70
     7
 71
     1
 72
     0
 73
     1
 90
        0
 40
-0.6
 41
-30.0
 62
     5
 63
     7
 74
     0
 91
        4
 64
     7
 65
   257
 75
     1
175
     1
 42
1.0
 92
        8
 66
     7
 43
1.0
 76
     1
 77
     6
 78
     2
 67
     7
 79
     5
170
     0
171
     0
290
     0
174
     0
 93
        1
 44
0.0
173
     0
291
     1
 45
0.0
1001
ACAD
1000
AcDbSavedByObjectVersion
1070
     0
  0
VISUALSTYLE
  5
13CB
102
{ACAD_XDICTIONARY
360
142E
102
}
102
{ACAD_REACTORS
330
13BF
102
}
330
13BF
100
AcDbVisualStyle
  2
Brighten
 70
    12
 71
     2
 72
     2
 73
     0
 90
        0
 40
-0.6
 41
-30.0
 62
     5
 63
     7
 74
     1
 91
        4
 64
     7
 65
   257
 75
     1
175
     1
 42
1.0
 92
        8
 66
     7
 43
1.0
 76
     1
 77
     6
 78
     2
 67
     7
 79
     5
170
     0
171
     0
290
     0
174
     0
 93
        1
 44
50.0
173
     0
291
     1
 45
0.0
1001
ACAD
1000
AcDbSavedByObjectVersion
1070
     0
  0
VISUALSTYLE
  5
13CF
102
{ACAD_XDICTIONARY
360
1436
102
}
102
{ACAD_REACTORS
330
13BF
102
}
330
13BF
100
AcDbVisualStyle
  2
ColorChange
 70
    16
 71
     2
 72
     2
 73
     3
 90
        0
 40
-0.6
 41
-30.0
 62
     5
 63
     8
 74
     1
 91
        4
 64
     7
 65
   257
 75
     1
175
     1
 42
1.0
 92
        8
 66
     8
 43
1.0
 76
     1
 77
     6
 78
     2
 67
     7
 79
     5
170
     0
171
     0
290
     0
174
     0
 93
        1
 44
0.0
173
     0
291
     1
 45
0.0
1001
ACAD
1000
AcDbSavedByObjectVersion
1070
     0
  0
VISUALSTYLE
  5
13C8
102
{ACAD_XDICTIONARY
360
1428
102
}
102
{ACAD_REACTORS
330
13BF
102
}
330
13BF
100
AcDbVisualStyle
  2
Conceptual
 70
     9
 71
     3
 72
     2
 73
     0
 90
        0
 40
-0.6
 41
-30.0
 62
     5
 63
     7
 74
     2
 91
        2
 64
     7
 65
   257
 75
     1
175
     1
 42
179.0
 92
        8
 66
     7
 43
1.0
 76
     1
 77
     6
 78
     2
 67
     7
 79
     3
170
     0
171
     0
290
     0
174
     0
 93
        1
 44
0.0
173
     0
291
     0
 45
0.0
1001
ACAD
1000
AcDbSavedByObjectVersion
1070
     0
  0
VISUALSTYLE
  5
13CA
102
{ACAD_XDICTIONARY
360
142C
102
}
102
{ACAD_REACTORS
330
13BF
102
}
330
13BF
100
AcDbVisualStyle
  2
Dim
 70
    11
 71
     2
 72
     2
 73
     0
 90
        0
 40
-0.6
 41
-30.0
 62
     5
 63
     7
 74
     1
 91
        4
 64
     7
 65
   257
 75
     1
175
     1
 42
1.0
 92
        8
 66
     7
 43
1.0
 76
     1
 77
     6
 78
     2
 67
     7
 79
     5
170
     0
171
     0
290
     0
174
     0
 93
        1
 44
-50.0
173
     0
291
     1
 45
0.0
1001
ACAD
1000
AcDbSavedByObjectVersion
1070
     0
  0
VISUALSTYLE
  5
13D7
102
{ACAD_XDICTIONARY
360
1446
102
}
102
{ACAD_REACTORS
330
13BF
102
}
330
13BF
100
AcDbVisualStyle
  2
EdgeColorOff
 70
    22
 71
     2
 72
     2
 73
     0
 90
        0
 40
-0.6
 41
-30.0
 62
     5
 63
     7
 74
     1
 91
        4
 64
     7
 65
   257
 75
     1
175
     1
 42
1.0
 92
        8
 66
     7
 43
1.0
 76
     1
 77
     6
 78
     2
 67
     7
 79
     5
170
     0
171
     0
290
     0
174
     0
 93
        1
 44
0.0
173
     0
291
     1
 45
0.0
1001
ACAD
1000
AcDbSavedByObjectVersion
1070
     0
  0
VISUALSTYLE
  5
13CE
102
{ACAD_XDICTIONARY
360
1434
102
}
102
{ACAD_REACTORS
330
13BF
102
}
330
13BF
100
AcDbVisualStyle
  2
Facepattern
 70
    15
 71
     2
 72
     2
 73
     0
 90
        0
 40
-0.6
 41
-30.0
 62
     5
 63
     7
 74
     1
 91
        4
 64
     7
 65
   257
 75
     1
175
     1
 42
1.0
 92
        8
 66
     7
 43
1.0
 76
     1
 77
     6
 78
     2
 67
     7
 79
     5
170
     0
171
     0
290
     0
174
     0
 93
        1
 44
0.0
173
     0
291
     1
 45
0.0
1001
ACAD
1000
AcDbSavedByObjectVersion
1070
     0
  0
VISUALSTYLE
  5
13C0
102
{ACAD_XDICTIONARY
360
1418
102
}
102
{ACAD_REACTORS
330
13BF
102
}
330
13BF
100
AcDbVisualStyle
  2
Flat
 70
     0
 71
     2
 72
     1
 73
     1
 90
        2
 40
-0.6
 41
30.0
 62
     5
 63
     7
 74
     0
 91
        0
 64
     7
 65
   257
 75
     1
175
     1
 42
1.0
 92
        8
 66
     7
 43
1.0
 76
     1
 77
     6
 78
     2
 67
     7
 79
     5
170
     0
171
     0
290
     0
174
     0
 93
       13
 44
0.0
173
     0
291
     1
 45
0.0
1001
ACAD
1000
AcDbSavedByObjectVersion
1070
     0
  0
VISUALSTYLE
  5
13C1
102
{ACAD_XDICTIONARY
360
141A
102
}
102
{ACAD_REACTORS
330
13BF
102
}
330
13BF
100
AcDbVisualStyle
  2
FlatWithEdges
 70
     1
 71
     2
 72
     1
 73
     1
 90
        2
 40
-0.6
 41
30.0
 62
     5
 63
     7
 74
     1
 91
        0
 64
     7
 65
   257
 75
     1
175
     1
 42
1.0
 92
        0
 66
   257
 43
1.0
 76
     1
 77
     6
 78
     2
 67
     7
 79
     5
170
     0
171
     0
290
     0
174
     0
 93
       13
 44
0.0
173
     0
291
     1
 45
0.0
1001
ACAD
1000
AcDbSavedByObjectVersion
1070
     0
  0
VISUALSTYLE
  5
13C2
102
{ACAD_XDICTIONARY
360
141C
102
}
102
{ACAD_REACTORS
330
13BF
102
}
330
13BF
100
AcDbVisualStyle
  2
Gouraud
 70
     2
 71
     2
 72
     2
 73
     1
 90
        2
 40
-0.6
 41
30.0
 62
     5
 63
     7
 74
     0
 91
        0
 64
     7
 65
   257
 75
     1
175
     1
 42
1.0
 92
        0
 66
     7
 43
1.0
 76
     1
 77
     6
 78
     2
 67
     7
 79
     5
170
     0
171
     0
290
     0
174
     0
 93
       13
 44
0.0
173
     0
291
     1
 45
0.0
1001
ACAD
1000
AcDbSavedByObjectVersion
1070
     0
  0
VISUALSTYLE
  5
13C3
102
{ACAD_XDICTIONARY
360
141E
102
}
102
{ACAD_REACTORS
330
13BF
102
}
330
13BF
100
AcDbVisualStyle
  2
GouraudWithEdges
 70
     3
 71
     2
 72
     2
 73
     1
 90
        2
 40
-0.6
 41
30.0
 62
     5
 63
     7
 74
     1
 91
        0
 64
     7
 65
   257
 75
     1
175
     1
 42
1.0
 92
        0
 66
   257
 43
1.0
 76
     1
 77
     6
 78
     2
 67
     7
 79
     5
170
     0
171
     0
290
     0
174
     0
 93
       13
 44
0.0
173
     0
291
     1
 45
0.0
1001
ACAD
1000
AcDbSavedByObjectVersion
1070
     0
  0
VISUALSTYLE
  5
13C7
102
{ACAD_XDICTIONARY
360
1426
102
}
102
{ACAD_REACTORS
330
13BF
102
}
330
13BF
100
AcDbVisualStyle
  2
Hidden
 70
     6
 71
     1
 72
     2
 73
     2
 90
        0
 40
-0.6
 41
-30.0
 62
     5
 63
     7
 74
     2
 91
        2
 64
     7
 65
   257
 75
     2
175
     1
 42
40.0
 92
        0
 66
   257
 43
1.0
 76
     1
 77
     6
 78
     2
 67
     7
 79
     3
170
     0
171
     0
290
     0
174
     0
 93
        1
 44
0.0
173
     0
291
     0
 45
0.0
1001
ACAD
1000
AcDbSavedByObjectVersion
1070
     0
  0
VISUALSTYLE
  5
13D5
102
{ACAD_XDICTIONARY
360
1442
102
}
102
{ACAD_REACTORS
330
13BF
102
}
330
13BF
100
AcDbVisualStyle
  2
JitterOff
 70
    20
 71
     2
 72
     2
 73
     0
 90
        0
 40
-0.6
 41
-30.0
 62
     5
 63
     7
 74
     1
 91
        4
 64
     7
 65
   257
 75
     1
175
     1
 42
1.0
 92
       10
 66
     7
 43
1.0
 76
     1
 77
     6
 78
     2
 67
     7
 79
     5
170
     0
171
     0
290
     0
174
     0
 93
        1
 44
0.0
173
     0
291
     1
 45
0.0
1001
ACAD
1000
AcDbSavedByObjectVersion
1070
     0
  0
VISUALSTYLE
  5
13CD
102
{ACAD_XDICTIONARY
360
1432
102
}
102
{ACAD_REACTORS
330
13BF
102
}
330
13BF
100
AcDbVisualStyle
  2
Linepattern
 70
    14
 71
     2
 72
     2
 73
     0
 90
        0
 40
-0.6
 41
-30.0
 62
     5
 63
     7
 74
     1
 91
        4
 64
     7
 65
   257
 75
     7
175
     7
 42
1.0
 92
        8
 66
     7
 43
1.0
 76
     1
 77
     6
 78
     2
 67
     7
 79
     5
170
     0
171
     0
290
     0
174
     0
 93
        1
 44
0.0
173
     0
291
     1
 45
0.0
1001
ACAD
1000
AcDbSavedByObjectVersion
1070
     0
  0
VISUALSTYLE
  5
13D6
102
{ACAD_XDICTIONARY
360
1444
102
}
102
{ACAD_REACTORS
330
13BF
102
}
330
13BF
100
AcDbVisualStyle
  2
OverhangOff
 70
    21
 71
     2
 72
     2
 73
     0
 90
        0
 40
-0.6
 41
-30.0
 62
     5
 63
     7
 74
     1
 91
        4
 64
     7
 65
   257
 75
     1
175
     1
 42
1.0
 92
        9
 66
     7
 43
1.0
 76
     1
 77
     6
 78
     2
 67
     7
 79
     5
170
     0
171
     0
290
     0
174
     0
 93
        1
 44
0.0
173
     0
291
     1
 45
0.0
1001
ACAD
1000
AcDbSavedByObjectVersion
1070
     0
  0
VISUALSTYLE
  5
13C9
102
{ACAD_XDICTIONARY
360
142A
102
}
102
{ACAD_REACTORS
330
13BF
102
}
330
13BF
100
AcDbVisualStyle
  2
Realistic
 70
     8
 71
     2
 72
     3
 73
     0
 90
        2
 40
-0.6
 41
30.0
 62
     5
 63
     7
 74
     0
 91
        0
 64
     7
 65
   257
 75
     1
175
     1
 42
1.0
 92
        8
 66
   257
 43
1.0
 76
     1
 77
     6
 78
     2
 67
     7
 79
     3
170
     0
171
     0
290
     0
174
     0
 93
       13
 44
0.0
173
     0
291
     0
 45
0.0
1001
ACAD
1000
AcDbSavedByObjectVersion
1070
     0
  0
VISUALSTYLE
  5
13D4
102
{ACAD_XDICTIONARY
360
1440
102
}
102
{ACAD_REACTORS
330
13BF
102
}
330
13BF
100
AcDbVisualStyle
  2
Shaded
 70
    27
 71
     2
 72
     2
 73
     1
 90
        2
 40
-0.6
 41
30.0
 62
     5
 63
     7
 74
     0
 91
        4
 64
     7
 65
   257
 75
     1
175
     1
 42
1.0
 92
        8
 66
   257
 43
1.0
 76
     1
 77
     6
 78
     2
 67
     8
 79
     3
170
     0
171
     0
290
     0
174
     0
 93
        5
 44
0.0
173
     0
291
     0
 45
0.0
1001
ACAD
1000
AcDbSavedByObjectVersion
1070
     0
  0
VISUALSTYLE
  5
13D3
102
{ACAD_XDICTIONARY
360
143E
102
}
102
{ACAD_REACTORS
330
13BF
102
}
330
13BF
100
AcDbVisualStyle
  2
Shaded with edges
 70
    26
 71
     2
 72
     2
 73
     1
 90
        2
 40
-0.6
 41
30.0
 62
     5
 63
     7
 74
     1
 91
       10
 64
     7
 65
   257
 75
     2
175
     1
 42
1.0
 92
        8
 66
   257
 43
1.0
 76
     1
 77
     6
 78
     2
 67
     7
 79
     3
170
     0
171
     0
290
     0
174
     0
 93
        5
 44
0.0
173
     0
291
     0
 45
0.0
1001
ACAD
1000
AcDbSavedByObjectVersion
1070
     0
  0
VISUALSTYLE
  5
13D0
102
{ACAD_XDICTIONARY
360
1438
102
}
102
{ACAD_REACTORS
330
13BF
102
}
330
13BF
100
AcDbVisualStyle
  2
Shades of Gray
 70
    23
 71
     2
 72
     2
 73
     3
 90
        0
 40
-0.6
 41
-30.0
 62
     5
 63
     7
 74
     2
 91
        2
 64
     7
 65
     7
 75
     1
175
     1
 42
40.0
 92
        8
 66
     7
 43
1.0
 76
     1
 77
     6
 78
     2
 67
     7
 79
     3
170
     0
171
     0
290
     0
174
     0
 93
        1
 44
0.0
173
     0
291
     0
 45
0.0
1001
ACAD
1000
AcDbSavedByObjectVersion
1070
     0
  0
VISUALSTYLE
  5
13D1
102
{ACAD_XDICTIONARY
360
143A
102
}
102
{ACAD_REACTORS
330
13BF
102
}
330
13BF
100
AcDbVisualStyle
  2
Sketchy
 70
    24
 71
     1
 72
     2
 73
     2
 90
        0
 40
-0.6
 41
-30.0
 62
     5
 63
     7
 74
     2
 91
        2
 64
     7
 65
     7
 75
     1
175
     1
 42
40.0
 92
       11
 66
     7
 43
1.0
 76
     1
 77
     6
 78
     2
 67
     7
 79
     6
170
     0
171
     0
290
     0
174
     0
 93
        1
 44
0.0
173
     0
291
     0
 45
0.0
1001
ACAD
1000
AcDbSavedByObjectVersion
1070
     0
  0
VISUALSTYLE
  5
13CC
102
{ACAD_XDICTIONARY
360
1430
102
}
102
{ACAD_REACTORS
330
13BF
102
}
330
13BF
100
AcDbVisualStyle
  2
Thicken
 70
    13
 71
     2
 72
     2
 73
     0
 90
        0
 40
-0.6
 41
-30.0
 62
     5
 63
     7
 74
     1
 91
        4
 64
     7
 65
   257
 75
     1
175
     1
 42
1.0
 92
       12
 66
     7
 43
1.0
 76
     1
 77
     6
 78
     2
 67
     7
 79
     5
170
     0
171
     0
290
     0
174
     0
 93
        1
 44
0.0
173
     0
291
     1
 45
0.0
1001
ACAD
1000
AcDbSavedByObjectVersion
1070
     0
  0
VISUALSTYLE
  5
13C6
102
{ACAD_XDICTIONARY
360
1424
102
}
102
{ACAD_REACTORS
330
13BF
102
}
330
13BF
100
AcDbVisualStyle
  2
Wireframe
 70
     5
 71
     0
 72
     2
 73
     0
 90
        0
 40
-0.6
 41
-30.0
 62
     5
 63
     7
 74
     1
 91
        4
 64
     7
 65
   257
 75
     1
175
     1
 42
1.0
 92
        0
 66
   257
 43
1.0
 76
     1
 77
     6
 78
     2
 67
     7
 79
     3
170
     0
171
     0
290
     0
174
     0
 93
        1
 44
0.0
173
     0
291
     0
 45
0.0
1001
ACAD
1000
AcDbSavedByObjectVersion
1070
     0
  0
VISUALSTYLE
  5
13D2
102
{ACAD_XDICTIONARY
360
143C
102
}
102
{ACAD_REACTORS
330
13BF
102
}
330
13BF
100
AcDbVisualStyle
  2
X-Ray
 70
    25
 71
     2
 72
     2
 73
     1
 90
        1
 40
0.5
 41
-30.0
 62
     5
 63
     7
 74
     1
 91
        0
 64
     7
 65
   257
 75
     1
175
     1
 42
1.0
 92
        8
 66
     7
 43
1.0
 76
     1
 77
     6
 78
     2
 67
     7
 79
     3
170
     0
171
     0
290
     0
174
     0
 93
       13
 44
0.0
173
     0
291
     0
 45
0.0
1001
ACAD
1000
AcDbSavedByObjectVersion
1070
     0
  0
DICTIONARYVAR
  5
140B
102
{ACAD_REACTORS
330
1406
102
}
330
1406
100
DictionaryVariables
280
     0
  1
1:1
  0
DICTIONARYVAR
  5
1408
102
{ACAD_REACTORS
330
1406
102
}
330
1406
100
DictionaryVariables
280
     0
  1
STANDARD
  0
DICTIONARYVAR
  5
1407
102
{ACAD_REACTORS
330
1406
102
}
330
1406
100
DictionaryVariables
280
     0
  1
STANDARD
  0
DICTIONARYVAR
  5
1409
102
{ACAD_REACTORS
330
1406
102
}
330
1406
100
DictionaryVariables
280
     0
  1
Imperial24
  0
DICTIONARYVAR
  5
140A
102
{ACAD_REACTORS
330
1406
102
}
330
1406
100
DictionaryVariables
280
     0
  1
Imperial24
  0
DICTIONARYVAR
  5
140E
102
{ACAD_REACTORS
330
1406
102
}
330
1406
100
DictionaryVariables
280
     0
  1
1
  0
DICTIONARYVAR
  5
140D
102
{ACAD_REACTORS
330
1406
102
}
330
1406
100
DictionaryVariables
280
     0
  1
0
  0
DICTIONARYVAR
  5
140C
102
{ACAD_REACTORS
330
1406
102
}
330
1406
100
DictionaryVariables
280
     0
  1
127
  0
DICTIONARYVAR
  5
140F
102
{ACAD_REACTORS
330
1406
102
}
330
1406
100
DictionaryVariables
280
     0
  1
2
  0
DICTIONARY
  5
144C
330
13F2
100
AcDbDictionary
280
     1
281
     1
  3
ACAD_XREC_ROUNDTRIP
360
144D
  0
DICTIONARY
  5
144E
330
13F3
100
AcDbDictionary
280
     1
281
     1
  3
ACAD_XREC_ROUNDTRIP
360
144F
  0
DICTIONARY
  5
1450
330
13F4
100
AcDbDictionary
280
     1
281
     1
  3
ACAD_XREC_ROUNDTRIP
360
1451
  0
DICTIONARY
  5
13B0
330
13AF
100
AcDbDictionary
280
     1
281
     1
  3
ACAD_XREC_ROUNDTRIP
360
1416
  3
BUMPTILE
360
13B2
  3
DIFFUSETILE
360
13B1
  3
OPACITYTILE
360
13B5
  3
REFLECTIONTILE
360
13B4
  3
REFRACTIONTILE
360
13B6
  3
SPECULARTILE
360
13B3
  0
DICTIONARY
  5
13A8
330
13A7
100
AcDbDictionary
280
     1
281
     1
  3
ACAD_XREC_ROUNDTRIP
360
1415
  3
BUMPTILE
360
13AA
  3
DIFFUSETILE
360
13A9
  3
OPACITYTILE
360
13AD
  3
REFLECTIONTILE
360
13AC
  3
REFRACTIONTILE
360
13AE
  3
SPECULARTILE
360
13AB
  0
DICTIONARY
  5
13B8
330
13B7
100
AcDbDictionary
280
     1
281
     1
  3
ACAD_XREC_ROUNDTRIP
360
1417
  3
BUMPTILE
360
13BA
  3
DIFFUSETILE
360
13B9
  3
OPACITYTILE
360
13BD
  3
REFLECTIONTILE
360
13BC
  3
REFRACTIONTILE
360
13BE
  3
SPECULARTILE
360
13BB
  0
DICTIONARY
  5
144A
330
13F0
100
AcDbDictionary
280
     1
281
     1
  3
ACAD_XREC_ROUNDTRIP
360
144B
  0
DICTIONARY
  5
1411
330
13DA
100
AcDbDictionary
280
     1
281
     1
  3
ACAD_ROUNDTRIP_2008_TABLESTYLE_CELLSTYLEMAP
360
1412
  3
ACAD_XREC_ROUNDTRIP
360
1448
  0
DICTIONARY
  5
1422
330
13C5
100
AcDbDictionary
280
     1
281
     1
  3
ACAD_XREC_ROUNDTRIP
360
1423
  0
DICTIONARY
  5
1420
330
13C4
100
AcDbDictionary
280
     1
281
     1
  3
ACAD_XREC_ROUNDTRIP
360
1421
  0
DICTIONARY
  5
142E
330
13CB
100
AcDbDictionary
280
     1
281
     1
  3
ACAD_XREC_ROUNDTRIP
360
142F
  0
DICTIONARY
  5
1436
330
13CF
100
AcDbDictionary
280
     1
281
     1
  3
ACAD_XREC_ROUNDTRIP
360
1437
  0
DICTIONARY
  5
1428
330
13C8
100
AcDbDictionary
280
     1
281
     1
  3
ACAD_XREC_ROUNDTRIP
360
1429
  0
DICTIONARY
  5
142C
330
13CA
100
AcDbDictionary
280
     1
281
     1
  3
ACAD_XREC_ROUNDTRIP
360
142D
  0
DICTIONARY
  5
1446
330
13D7
100
AcDbDictionary
280
     1
281
     1
  3
ACAD_XREC_ROUNDTRIP
360
1447
  0
DICTIONARY
  5
1434
330
13CE
100
AcDbDictionary
280
     1
281
     1
  3
ACAD_XREC_ROUNDTRIP
360
1435
  0
DICTIONARY
  5
1418
330
13C0
100
AcDbDictionary
280
     1
281
     1
  3
ACAD_XREC_ROUNDTRIP
360
1419
  0
DICTIONARY
  5
141A
330
13C1
100
AcDbDictionary
280
     1
281
     1
  3
ACAD_XREC_ROUNDTRIP
360
141B
  0
DICTIONARY
  5
141C
330
13C2
100
AcDbDictionary
280
     1
281
     1
  3
ACAD_XREC_ROUNDTRIP
360
141D
  0
DICTIONARY
  5
141E
330
13C3
100
AcDbDictionary
280
     1
281
     1
  3
ACAD_XREC_ROUNDTRIP
360
141F
  0
DICTIONARY
  5
1426
330
13C7
100
AcDbDictionary
280
     1
281
     1
  3
ACAD_XREC_ROUNDTRIP
360
1427
  0
DICTIONARY
  5
1442
330
13D5
100
AcDbDictionary
280
     1
281
     1
  3
ACAD_XREC_ROUNDTRIP
360
1443
  0
DICTIONARY
  5
1432
330
13CD
100
AcDbDictionary
280
     1
281
     1
  3
ACAD_XREC_ROUNDTRIP
360
1433
  0
DICTIONARY
  5
1444
330
13D6
100
AcDbDictionary
280
     1
281
     1
  3
ACAD_XREC_ROUNDTRIP
360
1445
  0
DICTIONARY
  5
142A
330
13C9
100
AcDbDictionary
280
     1
281
     1
  3
ACAD_XREC_ROUNDTRIP
360
142B
  0
DICTIONARY
  5
1440
330
13D4
100
AcDbDictionary
280
     1
281
     1
  3
ACAD_XREC_ROUNDTRIP
360
1441
  0
DICTIONARY
  5
143E
330
13D3
100
AcDbDictionary
280
     1
281
     1
  3
ACAD_XREC_ROUNDTRIP
360
143F
  0
DICTIONARY
  5
1438
330
13D0
100
AcDbDictionary
280
     1
281
     1
  3
ACAD_XREC_ROUNDTRIP
360
1439
  0
DICTIONARY
  5
143A
330
13D1
100
AcDbDictionary
280
     1
281
     1
  3
ACAD_XREC_ROUNDTRIP
360
143B
  0
DICTIONARY
  5
1430
330
13CC
100
AcDbDictionary
280
     1
281
     1
  3
ACAD_XREC_ROUNDTRIP
360
1431
  0
DICTIONARY
  5
1424
330
13C6
100
AcDbDictionary
280
     1
281
     1
  3
ACAD_XREC_ROUNDTRIP
360
1425
  0
DICTIONARY
  5
143C
330
13D2
100
AcDbDictionary
280
     1
281
     1
  3
ACAD_XREC_ROUNDTRIP
360
143D
  0
XRECORD
  5
144D
102
{ACAD_REACTORS
330
144C
102
}
330
144C
100
AcDbXrecord
280
     1
102
DISPLAYNAME
  1
Imperial24
102
FLAGS
 90
        0
  0
XRECORD
  5
144F
102
{ACAD_REACTORS
330
144E
102
}
330
144E
100
AcDbXrecord
280
     1
102
SHADEPLOT
 70
     0
102
SHADEPLOTRESLEVEL
 70
     2
102
SHADEPLOTCUSTOMDPI
 70
   300
  0
XRECORD
  5
1451
102
{ACAD_REACTORS
330
1450
102
}
330
1450
100
AcDbXrecord
280
     1
102
SHADEPLOT
 70
     0
102
SHADEPLOTRESLEVEL
 70
     2
102
SHADEPLOTCUSTOMDPI
 70
   300
  0
XRECORD
  5
1416
102
{ACAD_REACTORS
330
13B0
102
}
330
13B0
100
AcDbXrecord
280
     1
102
MATERIAL
148
0.0
149
0.0
149
0.0
 93
        0
 94
      127
282
     0
 72
     0
 77
     0
171
     0
175
     0
179
     0
273
     0
  0
XRECORD
  5
13B2
102
{ACAD_REACTORS
330
13B0
102
}
330
13B0
100
AcDbXrecord
280
     1
270
     1
271
     1
  0
XRECORD
  5
13B1
102
{ACAD_REACTORS
330
13B0
102
}
330
13B0
100
AcDbXrecord
280
     1
270
     1
271
     1
  0
XRECORD
  5
13B5
102
{ACAD_REACTORS
330
13B0
102
}
330
13B0
100
AcDbXrecord
280
     1
270
     1
271
     1
  0
XRECORD
  5
13B4
102
{ACAD_REACTORS
330
13B0
102
}
330
13B0
100
AcDbXrecord
280
     1
270
     1
271
     1
  0
XRECORD
  5
13B6
102
{ACAD_REACTORS
330
13B0
102
}
330
13B0
100
AcDbXrecord
280
     1
270
     1
271
     1
  0
XRECORD
  5
13B3
102
{ACAD_REACTORS
330
13B0
102
}
330
13B0
100
AcDbXrecord
280
     1
270
     1
271
     1
  0
XRECORD
  5
1415
102
{ACAD_REACTORS
330
13A8
102
}
330
13A8
100
AcDbXrecord
280
     1
102
MATERIAL
148
0.0
149
0.0
149
0.0
 93
        0
 94
      127
282
     0
 72
     0
 77
     0
171
     0
175
     0
179
     0
273
     0
  0
XRECORD
  5
13AA
102
{ACAD_REACTORS
330
13A8
102
}
330
13A8
100
AcDbXrecord
280
     1
270
     1
271
     1
  0
XRECORD
  5
13A9
102
{ACAD_REACTORS
330
13A8
102
}
330
13A8
100
AcDbXrecord
280
     1
270
     1
271
     1
  0
XRECORD
  5
13AD
102
{ACAD_REACTORS
330
13A8
102
}
330
13A8
100
AcDbXrecord
280
     1
270
     1
271
     1
  0
XRECORD
  5
13AC
102
{ACAD_REACTORS
330
13A8
102
}
330
13A8
100
AcDbXrecord
280
     1
270
     1
271
     1
  0
XRECORD
  5
13AE
102
{ACAD_REACTORS
330
13A8
102
}
330
13A8
100
AcDbXrecord
280
     1
270
     1
271
     1
  0
XRECORD
  5
13AB
102
{ACAD_REACTORS
330
13A8
102
}
330
13A8
100
AcDbXrecord
280
     1
270
     1
271
     1
  0
XRECORD
  5
1417
102
{ACAD_REACTORS
330
13B8
102
}
330
13B8
100
AcDbXrecord
280
     1
102
MATERIAL
148
0.0
149
0.0
149
0.0
 93
        0
 94
      127
282
     0
 72
     0
 77
     0
171
     0
175
     0
179
     0
273
     0
  0
XRECORD
  5
13BA
102
{ACAD_REACTORS
330
13B8
102
}
330
13B8
100
AcDbXrecord
280
     1
270
     1
271
     1
  0
XRECORD
  5
13B9
102
{ACAD_REACTORS
330
13B8
102
}
330
13B8
100
AcDbXrecord
280
     1
270
     1
271
     1
  0
XRECORD
  5
13BD
102
{ACAD_REACTORS
330
13B8
102
}
330
13B8
100
AcDbXrecord
280
     1
270
     1
271
     1
  0
XRECORD
  5
13BC
102
{ACAD_REACTORS
330
13B8
102
}
330
13B8
100
AcDbXrecord
280
     1
270
     1
271
     1
  0
XRECORD
  5
13BE
102
{ACAD_REACTORS
330
13B8
102
}
330
13B8
100
AcDbXrecord
280
     1
270
     1
271
     1
  0
XRECORD
  5
13BB
102
{ACAD_REACTORS
330
13B8
102
}
330
13B8
100
AcDbXrecord
280
     1
270
     1
271
     1
  0
XRECORD
  5
144B
102
{ACAD_REACTORS
330
144A
102
}
330
144A
100
AcDbXrecord
280
     1
102
DISPLAYNAME
  1
Imperial24
102
FLAGS
 90
        0
  0
CELLSTYLEMAP
  5
1412
102
{ACAD_REACTORS
330
1411
102
}
330
1411
100
AcDbCellStyleMap
 90
        3
300
CELLSTYLE
  1
TABLEFORMAT_BEGIN
 90
        5
170
     1
 91
        0
 92
    32768
 62
   257
 93
        1
300
CONTENTFORMAT
  1
CONTENTFORMAT_BEGIN
 90
        0
 91
        0
 92
      512
 93
        0
300

 40
0.0
140
1.0
 94
        5
 62
     0
340
F
144
0.25
309
CONTENTFORMAT_END
171
     0
 94
        0
309
TABLEFORMAT_END
  1
CELLSTYLE_BEGIN
 90
        1
 91
        1
300
_TITLE
309
CELLSTYLE_END
300
CELLSTYLE
  1
TABLEFORMAT_BEGIN
 90
        5
170
     1
 91
        0
 92
        0
 62
   257
 93
        1
300
CONTENTFORMAT
  1
CONTENTFORMAT_BEGIN
 90
        0
 91
        0
 92
      512
 93
        0
300

 40
0.0
140
1.0
 94
        5
 62
     0
340
F
144
0.18
309
CONTENTFORMAT_END
171
     0
 94
        0
309
TABLEFORMAT_END
  1
CELLSTYLE_BEGIN
 90
        2
 91
        1
300
_HEADER
309
CELLSTYLE_END
300
CELLSTYLE
  1
TABLEFORMAT_BEGIN
 90
        5
170
     1
 91
        0
 92
        0
 62
   257
 93
        1
300
CONTENTFORMAT
  1
CONTENTFORMAT_BEGIN
 90
        0
 91
        0
 92
      512
 93
        0
300

 40
0.0
140
1.0
 94
        2
 62
     0
340
F
144
0.18
309
CONTENTFORMAT_END
171
     0
 94
        0
309
TABLEFORMAT_END
  1
CELLSTYLE_BEGIN
 90
        3
 91
        2
300
_DATA
309
CELLSTYLE_END
  0
XRECORD
  5
1448
102
{ACAD_REACTORS
330
1411
102
}
330
1411
100
AcDbXrecord
280
     1
102
ACAD_ROUNDTRIP_PRE2007_TABLESTYLE
 90
      512
 91
        0
  1

 92
      512
 93
        0
  2

 94
      512
 95
        0
  3

  0
XRECORD
  5
1423
102
{ACAD_REACTORS
330
1422
102
}
330
1422
100
AcDbXrecord
280
     1
102
RTVSPost2010Prop28
280
     1
102
RTVSPost2010PropOp28
 70
     1
102
RTVSPost2010Prop29
280
     1
102
RTVSPost2010PropOp29
 70
     1
102
RTVSPost2010Prop30
280
     0
102
RTVSPost2010PropOp30
 70
     1
102
RTVSPost2010Prop31
280
     0
102
RTVSPost2010PropOp31
 70
     1
102
RTVSPost2010Prop32
280
     0
102
RTVSPost2010PropOp32
 70
     1
102
RTVSPost2010Prop33
280
     0
102
RTVSPost2010PropOp33
 70
     1
102
RTVSPost2010Prop34
280
     0
102
RTVSPost2010PropOp34
 70
     1
102
RTVSPost2010Prop35
280
     0
102
RTVSPost2010PropOp35
 70
     1
102
RTVSPost2010Prop36
280
     0
102
RTVSPost2010PropOp36
 70
     1
102
RTVSPost2010Prop37
 90
       50
102
RTVSPost2010PropOp37
 70
     1
102
RTVSPost2010Prop38
140
0.0
102
RTVSPost2010PropOp38
 70
     1
102
RTVSPost2010Prop39
140
1.0
102
RTVSPost2010PropOp39
 70
     1
102
RTVSPost2010Prop40
 90
        0
102
RTVSPost2010PropOp40
 70
     1
102
RTVSPost2010Prop41ColorIndex
 90
       18
102
RTVSPost2010Prop41ColorRGB
 90
        0
102
RTVSPost2010PropOp41
 70
     1
102
RTVSPost2010Prop42
 90
       50
102
RTVSPost2010PropOp42
 70
     1
102
RTVSPost2010Prop43
 90
        3
102
RTVSPost2010PropOp43
 70
     1
102
RTVSPost2010Prop44ColorIndex
 90
        5
102
RTVSPost2010Prop44ColorRGB
 90
      255
102
RTVSPost2010PropOp44
 70
     1
102
RTVSPost2010Prop45
280
     0
102
RTVSPost2010PropOp45
 70
     1
102
RTVSPost2010Prop46
 90
       50
102
RTVSPost2010PropOp46
 70
     1
102
RTVSPost2010Prop47
 90
       50
102
RTVSPost2010PropOp47
 70
     1
102
RTVSPost2010Prop48
 90
       50
102
RTVSPost2010PropOp48
 70
     1
102
RTVSPost2010Prop49
280
     0
102
RTVSPost2010PropOp49
 70
     1
102
RTVSPost2010Prop50
 90
       50
102
RTVSPost2010PropOp50
 70
     1
102
RTVSPost2010Prop51ColorIndex
 90
      256
102
RTVSPost2010Prop51ColorRGB
 90
-16777216
102
RTVSPost2010PropOp51
 70
     0
102
RTVSPost2010Prop52
140
1.0
102
RTVSPost2010PropOp52
 70
     0
102
RTVSPost2010Prop53
 90
        2
102
RTVSPost2010PropOp53
 70
     1
102
RTVSPost2010Prop54
  1
strokes_ogs.tif
102
RTVSPost2010PropOp54
 70
     1
102
RTVSPost2010Prop55
280
     0
102
RTVSPost2010PropOp55
 70
     1
102
RTVSPost2010Prop56
140
1.0
102
RTVSPost2010PropOp56
 70
     1
102
RTVSPost2010Prop57
140
1.0
102
RTVSPost2010PropOp57
 70
     1
102
RTVSPropertyOp0
 70
     1
102
RTVSPropertyOp1
 70
     1
102
RTVSPropertyOp2
 70
     1
102
RTVSPropertyOp3
 70
     1
102
RTVSPropertyOp4
 70
     1
102
RTVSPropertyOp5
 70
     1
102
RTVSPropertyOp6
 70
     1
102
RTVSPropertyOp7
 70
     1
102
RTVSPropertyOp8
 70
     1
102
RTVSPropertyOp9
 70
     1
102
RTVSPropertyOp10
 70
     1
102
RTVSPropertyOp11
 70
     1
102
RTVSPropertyOp12
 70
     1
102
RTVSPropertyOp13
 70
     1
102
RTVSPropertyOp14
 70
     1
102
RTVSPropertyOp15
 70
     1
102
RTVSPropertyOp16
 70
     1
102
RTVSPropertyOp17
 70
     1
102
RTVSPropertyOp18
 70
     1
102
RTVSPropertyOp19
 70
     1
102
RTVSPropertyOp20
 70
     1
102
RTVSPropertyOp21
 70
     1
102
RTVSPropertyOp22
 70
     1
102
RTVSPropertyOp23
 70
     1
102
RTVSPropertyOp24
 70
     1
102
RTVSPropertyOp25
 70
     1
102
RTVSPropertyOp26
 70
     1
102
RTVSPropertyOp27
 70
     1
102
RTVSPropertyOp28
 70
     1
102
RTVSPropertyOp29
 70
     1
102
RTVSPropertyOp30
 70
     1
102
RTVSPropertyOp31
 70
     1
102
RTVSPropertyOp32
 70
     1
102
RTVSPropertyOp33
 70
     1
102
RTVSPropertyOp34
 70
     1
102
RTVSPropertyOp35
 70
     1
102
RTVSPropertyOp36
 70
     1
102
RTVSPropertyOp37
 70
     1
102
RTVSPropertyOp38
 70
     1
102
RTVSPropertyOp39
 70
     1
102
RTVSPropertyOp40
 70
     1
102
RTVSPropertyOp41
 70
     1
102
RTVSPropertyOp42
 70
     1
102
RTVSPropertyOp43
 70
     1
102
RTVSPropertyOp44
 70
     1
102
RTVSPropertyOp45
 70
     1
102
RTVSPropertyOp46
 70
     1
102
RTVSPropertyOp47
 70
     1
102
RTVSPropertyOp48
 70
     1
102
RTVSPropertyOp49
 70
     1
102
RTVSPropertyOp50
 70
     1
102
RTVSPropertyOp51
 70
     0
102
RTVSPropertyOp52
 70
     0
102
RTVSPropertyOp53
 70
     1
102
RTVSPropertyOp54
 70
     1
102
RTVSPropertyOp55
 70
     1
102
RTVSPropertyOp56
 70
     1
102
RTVSPropertyOp57
 70
     1
102
RTVSPropertyOp58
 70
     1
102
RTVSPropertyOp59
 70
     1
102
RTVSPropertyOp60
 70
     1
102
RTVSPropertyOp61
 70
     1
102
RTVSPropertyOp62
 70
     1
  0
XRECORD
  5
1421
102
{ACAD_REACTORS
330
1420
102
}
330
1420
100
AcDbXrecord
280
     1
102
RTVSPost2010Prop28
280
     0
102
RTVSPost2010PropOp28
 70
     1
102
RTVSPost2010Prop29
280
     1
102
RTVSPost2010PropOp29
 70
     1
102
RTVSPost2010Prop30
280
     1
102
RTVSPost2010PropOp30
 70
     1
102
RTVSPost2010Prop31
280
     0
102
RTVSPost2010PropOp31
 70
     1
102
RTVSPost2010Prop32
280
     0
102
RTVSPost2010PropOp32
 70
     1
102
RTVSPost2010Prop33
280
     0
102
RTVSPost2010PropOp33
 70
     1
102
RTVSPost2010Prop34
280
     0
102
RTVSPost2010PropOp34
 70
     1
102
RTVSPost2010Prop35
280
     0
102
RTVSPost2010PropOp35
 70
     1
102
RTVSPost2010Prop36
280
     0
102
RTVSPost2010PropOp36
 70
     1
102
RTVSPost2010Prop37
 90
       50
102
RTVSPost2010PropOp37
 70
     1
102
RTVSPost2010Prop38
140
0.0
102
RTVSPost2010PropOp38
 70
     1
102
RTVSPost2010Prop39
140
1.0
102
RTVSPost2010PropOp39
 70
     1
102
RTVSPost2010Prop40
 90
        0
102
RTVSPost2010PropOp40
 70
     1
102
RTVSPost2010Prop41ColorIndex
 90
       18
102
RTVSPost2010Prop41ColorRGB
 90
        0
102
RTVSPost2010PropOp41
 70
     1
102
RTVSPost2010Prop42
 90
       50
102
RTVSPost2010PropOp42
 70
     1
102
RTVSPost2010Prop43
 90
        3
102
RTVSPost2010PropOp43
 70
     1
102
RTVSPost2010Prop44ColorIndex
 90
        5
102
RTVSPost2010Prop44ColorRGB
 90
      255
102
RTVSPost2010PropOp44
 70
     1
102
RTVSPost2010Prop45
280
     0
102
RTVSPost2010PropOp45
 70
     1
102
RTVSPost2010Prop46
 90
       50
102
RTVSPost2010PropOp46
 70
     1
102
RTVSPost2010Prop47
 90
       50
102
RTVSPost2010PropOp47
 70
     1
102
RTVSPost2010Prop48
 90
       50
102
RTVSPost2010PropOp48
 70
     1
102
RTVSPost2010Prop49
280
     0
102
RTVSPost2010PropOp49
 70
     1
102
RTVSPost2010Prop50
 90
       50
102
RTVSPost2010PropOp50
 70
     1
102
RTVSPost2010Prop51ColorIndex
 90
      256
102
RTVSPost2010Prop51ColorRGB
 90
-16777216
102
RTVSPost2010PropOp51
 70
     0
102
RTVSPost2010Prop52
140
1.0
102
RTVSPost2010PropOp52
 70
     0
102
RTVSPost2010Prop53
 90
        2
102
RTVSPost2010PropOp53
 70
     1
102
RTVSPost2010Prop54
  1
strokes_ogs.tif
102
RTVSPost2010PropOp54
 70
     1
102
RTVSPost2010Prop55
280
     0
102
RTVSPost2010PropOp55
 70
     1
102
RTVSPost2010Prop56
140
1.0
102
RTVSPost2010PropOp56
 70
     1
102
RTVSPost2010Prop57
140
1.0
102
RTVSPost2010PropOp57
 70
     1
102
RTVSPropertyOp0
 70
     1
102
RTVSPropertyOp1
 70
     1
102
RTVSPropertyOp2
 70
     1
102
RTVSPropertyOp3
 70
     1
102
RTVSPropertyOp4
 70
     1
102
RTVSPropertyOp5
 70
     1
102
RTVSPropertyOp6
 70
     1
102
RTVSPropertyOp7
 70
     1
102
RTVSPropertyOp8
 70
     1
102
RTVSPropertyOp9
 70
     1
102
RTVSPropertyOp10
 70
     1
102
RTVSPropertyOp11
 70
     1
102
RTVSPropertyOp12
 70
     1
102
RTVSPropertyOp13
 70
     1
102
RTVSPropertyOp14
 70
     1
102
RTVSPropertyOp15
 70
     1
102
RTVSPropertyOp16
 70
     1
102
RTVSPropertyOp17
 70
     1
102
RTVSPropertyOp18
 70
     1
102
RTVSPropertyOp19
 70
     1
102
RTVSPropertyOp20
 70
     1
102
RTVSPropertyOp21
 70
     1
102
RTVSPropertyOp22
 70
     1
102
RTVSPropertyOp23
 70
     1
102
RTVSPropertyOp24
 70
     1
102
RTVSPropertyOp25
 70
     1
102
RTVSPropertyOp26
 70
     1
102
RTVSPropertyOp27
 70
     1
102
RTVSPropertyOp28
 70
     1
102
RTVSPropertyOp29
 70
     1
102
RTVSPropertyOp30
 70
     1
102
RTVSPropertyOp31
 70
     1
102
RTVSPropertyOp32
 70
     1
102
RTVSPropertyOp33
 70
     1
102
RTVSPropertyOp34
 70
     1
102
RTVSPropertyOp35
 70
     1
102
RTVSPropertyOp36
 70
     1
102
RTVSPropertyOp37
 70
     1
102
RTVSPropertyOp38
 70
     1
102
RTVSPropertyOp39
 70
     1
102
RTVSPropertyOp40
 70
     1
102
RTVSPropertyOp41
 70
     1
102
RTVSPropertyOp42
 70
     1
102
RTVSPropertyOp43
 70
     1
102
RTVSPropertyOp44
 70
     1
102
RTVSPropertyOp45
 70
     1
102
RTVSPropertyOp46
 70
     1
102
RTVSPropertyOp47
 70
     1
102
RTVSPropertyOp48
 70
     1
102
RTVSPropertyOp49
 70
     1
102
RTVSPropertyOp50
 70
     1
102
RTVSPropertyOp51
 70
     0
102
RTVSPropertyOp52
 70
     0
102
RTVSPropertyOp53
 70
     1
102
RTVSPropertyOp54
 70
     1
102
RTVSPropertyOp55
 70
     1
102
RTVSPropertyOp56
 70
     1
102
RTVSPropertyOp57
 70
     1
102
RTVSPropertyOp58
 70
     1
102
RTVSPropertyOp59
 70
     1
102
RTVSPropertyOp60
 70
     1
102
RTVSPropertyOp61
 70
     1
102
RTVSPropertyOp62
 70
     1
  0
XRECORD
  5
142F
102
{ACAD_REACTORS
330
142E
102
}
330
142E
100
AcDbXrecord
280
     1
102
RTVSPost2010Prop28
280
     0
102
RTVSPost2010PropOp28
 70
     1
102
RTVSPost2010Prop29
280
     1
102
RTVSPost2010PropOp29
 70
     1
102
RTVSPost2010Prop30
280
     1
102
RTVSPost2010PropOp30
 70
     1
102
RTVSPost2010Prop31
280
     0
102
RTVSPost2010PropOp31
 70
     1
102
RTVSPost2010Prop32
280
     0
102
RTVSPost2010PropOp32
 70
     1
102
RTVSPost2010Prop33
280
     0
102
RTVSPost2010PropOp33
 70
     1
102
RTVSPost2010Prop34
280
     0
102
RTVSPost2010PropOp34
 70
     1
102
RTVSPost2010Prop35
280
     0
102
RTVSPost2010PropOp35
 70
     1
102
RTVSPost2010Prop36
280
     0
102
RTVSPost2010PropOp36
 70
     1
102
RTVSPost2010Prop37
 90
       50
102
RTVSPost2010PropOp37
 70
     1
102
RTVSPost2010Prop38
140
0.0
102
RTVSPost2010PropOp38
 70
     1
102
RTVSPost2010Prop39
140
1.0
102
RTVSPost2010PropOp39
 70
     1
102
RTVSPost2010Prop40
 90
        0
102
RTVSPost2010PropOp40
 70
     1
102
RTVSPost2010Prop41ColorIndex
 90
       18
102
RTVSPost2010Prop41ColorRGB
 90
        0
102
RTVSPost2010PropOp41
 70
     1
102
RTVSPost2010Prop42
 90
       50
102
RTVSPost2010PropOp42
 70
     1
102
RTVSPost2010Prop43
 90
        3
102
RTVSPost2010PropOp43
 70
     1
102
RTVSPost2010Prop44ColorIndex
 90
        5
102
RTVSPost2010Prop44ColorRGB
 90
      255
102
RTVSPost2010PropOp44
 70
     1
102
RTVSPost2010Prop45
280
     0
102
RTVSPost2010PropOp45
 70
     1
102
RTVSPost2010Prop46
 90
       50
102
RTVSPost2010PropOp46
 70
     1
102
RTVSPost2010Prop47
 90
       50
102
RTVSPost2010PropOp47
 70
     1
102
RTVSPost2010Prop48
 90
       50
102
RTVSPost2010PropOp48
 70
     1
102
RTVSPost2010Prop49
280
     0
102
RTVSPost2010PropOp49
 70
     1
102
RTVSPost2010Prop50
 90
       50
102
RTVSPost2010PropOp50
 70
     1
102
RTVSPost2010Prop51ColorIndex
 90
      256
102
RTVSPost2010Prop51ColorRGB
 90
-16777216
102
RTVSPost2010PropOp51
 70
     0
102
RTVSPost2010Prop52
140
1.0
102
RTVSPost2010PropOp52
 70
     0
102
RTVSPost2010Prop53
 90
        2
102
RTVSPost2010PropOp53
 70
     1
102
RTVSPost2010Prop54
  1
strokes_ogs.tif
102
RTVSPost2010PropOp54
 70
     1
102
RTVSPost2010Prop55
280
     0
102
RTVSPost2010PropOp55
 70
     1
102
RTVSPost2010Prop56
140
1.0
102
RTVSPost2010PropOp56
 70
     1
102
RTVSPost2010Prop57
140
1.0
102
RTVSPost2010PropOp57
 70
     1
102
RTVSPropertyOp0
 70
     1
102
RTVSPropertyOp1
 70
     1
102
RTVSPropertyOp2
 70
     1
102
RTVSPropertyOp3
 70
     1
102
RTVSPropertyOp4
 70
     1
102
RTVSPropertyOp5
 70
     1
102
RTVSPropertyOp6
 70
     1
102
RTVSPropertyOp7
 70
     1
102
RTVSPropertyOp8
 70
     1
102
RTVSPropertyOp9
 70
     1
102
RTVSPropertyOp10
 70
     1
102
RTVSPropertyOp11
 70
     1
102
RTVSPropertyOp12
 70
     1
102
RTVSPropertyOp13
 70
     1
102
RTVSPropertyOp14
 70
     1
102
RTVSPropertyOp15
 70
     1
102
RTVSPropertyOp16
 70
     1
102
RTVSPropertyOp17
 70
     1
102
RTVSPropertyOp18
 70
     1
102
RTVSPropertyOp19
 70
     1
102
RTVSPropertyOp20
 70
     1
102
RTVSPropertyOp21
 70
     1
102
RTVSPropertyOp22
 70
     1
102
RTVSPropertyOp23
 70
     1
102
RTVSPropertyOp24
 70
     1
102
RTVSPropertyOp25
 70
     1
102
RTVSPropertyOp26
 70
     1
102
RTVSPropertyOp27
 70
     1
102
RTVSPropertyOp28
 70
     1
102
RTVSPropertyOp29
 70
     1
102
RTVSPropertyOp30
 70
     1
102
RTVSPropertyOp31
 70
     1
102
RTVSPropertyOp32
 70
     1
102
RTVSPropertyOp33
 70
     1
102
RTVSPropertyOp34
 70
     1
102
RTVSPropertyOp35
 70
     1
102
RTVSPropertyOp36
 70
     1
102
RTVSPropertyOp37
 70
     1
102
RTVSPropertyOp38
 70
     1
102
RTVSPropertyOp39
 70
     1
102
RTVSPropertyOp40
 70
     1
102
RTVSPropertyOp41
 70
     1
102
RTVSPropertyOp42
 70
     1
102
RTVSPropertyOp43
 70
     1
102
RTVSPropertyOp44
 70
     1
102
RTVSPropertyOp45
 70
     1
102
RTVSPropertyOp46
 70
     1
102
RTVSPropertyOp47
 70
     1
102
RTVSPropertyOp48
 70
     1
102
RTVSPropertyOp49
 70
     1
102
RTVSPropertyOp50
 70
     1
102
RTVSPropertyOp51
 70
     0
102
RTVSPropertyOp52
 70
     0
102
RTVSPropertyOp53
 70
     1
102
RTVSPropertyOp54
 70
     1
102
RTVSPropertyOp55
 70
     1
102
RTVSPropertyOp56
 70
     1
102
RTVSPropertyOp57
 70
     1
102
RTVSPropertyOp58
 70
     1
102
RTVSPropertyOp59
 70
     1
102
RTVSPropertyOp60
 70
     1
102
RTVSPropertyOp61
 70
     1
102
RTVSPropertyOp62
 70
     1
  0
XRECORD
  5
1437
102
{ACAD_REACTORS
330
1436
102
}
330
1436
100
AcDbXrecord
280
     1
102
RTVSPost2010Prop28
280
     0
102
RTVSPost2010PropOp28
 70
     1
102
RTVSPost2010Prop29
280
     1
102
RTVSPost2010PropOp29
 70
     1
102
RTVSPost2010Prop30
280
     1
102
RTVSPost2010PropOp30
 70
     1
102
RTVSPost2010Prop31
280
     0
102
RTVSPost2010PropOp31
 70
     1
102
RTVSPost2010Prop32
280
     0
102
RTVSPost2010PropOp32
 70
     1
102
RTVSPost2010Prop33
280
     0
102
RTVSPost2010PropOp33
 70
     1
102
RTVSPost2010Prop34
280
     0
102
RTVSPost2010PropOp34
 70
     1
102
RTVSPost2010Prop35
280
     0
102
RTVSPost2010PropOp35
 70
     1
102
RTVSPost2010Prop36
280
     0
102
RTVSPost2010PropOp36
 70
     1
102
RTVSPost2010Prop37
 90
       50
102
RTVSPost2010PropOp37
 70
     1
102
RTVSPost2010Prop38
140
0.0
102
RTVSPost2010PropOp38
 70
     1
102
RTVSPost2010Prop39
140
1.0
102
RTVSPost2010PropOp39
 70
     1
102
RTVSPost2010Prop40
 90
        0
102
RTVSPost2010PropOp40
 70
     1
102
RTVSPost2010Prop41ColorIndex
 90
       18
102
RTVSPost2010Prop41ColorRGB
 90
        0
102
RTVSPost2010PropOp41
 70
     1
102
RTVSPost2010Prop42
 90
       50
102
RTVSPost2010PropOp42
 70
     1
102
RTVSPost2010Prop43
 90
        3
102
RTVSPost2010PropOp43
 70
     1
102
RTVSPost2010Prop44ColorIndex
 90
        5
102
RTVSPost2010Prop44ColorRGB
 90
      255
102
RTVSPost2010PropOp44
 70
     1
102
RTVSPost2010Prop45
280
     0
102
RTVSPost2010PropOp45
 70
     1
102
RTVSPost2010Prop46
 90
       50
102
RTVSPost2010PropOp46
 70
     1
102
RTVSPost2010Prop47
 90
       50
102
RTVSPost2010PropOp47
 70
     1
102
RTVSPost2010Prop48
 90
       50
102
RTVSPost2010PropOp48
 70
     1
102
RTVSPost2010Prop49
280
     0
102
RTVSPost2010PropOp49
 70
     1
102
RTVSPost2010Prop50
 90
       50
102
RTVSPost2010PropOp50
 70
     1
102
RTVSPost2010Prop51ColorIndex
 90
      256
102
RTVSPost2010Prop51ColorRGB
 90
-16777216
102
RTVSPost2010PropOp51
 70
     0
102
RTVSPost2010Prop52
140
1.0
102
RTVSPost2010PropOp52
 70
     0
102
RTVSPost2010Prop53
 90
        2
102
RTVSPost2010PropOp53
 70
     1
102
RTVSPost2010Prop54
  1
strokes_ogs.tif
102
RTVSPost2010PropOp54
 70
     1
102
RTVSPost2010Prop55
280
     0
102
RTVSPost2010PropOp55
 70
     1
102
RTVSPost2010Prop56
140
1.0
102
RTVSPost2010PropOp56
 70
     1
102
RTVSPost2010Prop57
140
1.0
102
RTVSPost2010PropOp57
 70
     1
102
RTVSPropertyOp0
 70
     1
102
RTVSPropertyOp1
 70
     1
102
RTVSPropertyOp2
 70
     1
102
RTVSPropertyOp3
 70
     1
102
RTVSPropertyOp4
 70
     1
102
RTVSPropertyOp5
 70
     1
102
RTVSPropertyOp6
 70
     1
102
RTVSPropertyOp7
 70
     1
102
RTVSPropertyOp8
 70
     1
102
RTVSPropertyOp9
 70
     1
102
RTVSPropertyOp10
 70
     1
102
RTVSPropertyOp11
 70
     1
102
RTVSPropertyOp12
 70
     1
102
RTVSPropertyOp13
 70
     1
102
RTVSPropertyOp14
 70
     1
102
RTVSPropertyOp15
 70
     1
102
RTVSPropertyOp16
 70
     1
102
RTVSPropertyOp17
 70
     1
102
RTVSPropertyOp18
 70
     1
102
RTVSPropertyOp19
 70
     1
102
RTVSPropertyOp20
 70
     1
102
RTVSPropertyOp21
 70
     1
102
RTVSPropertyOp22
 70
     1
102
RTVSPropertyOp23
 70
     1
102
RTVSPropertyOp24
 70
     1
102
RTVSPropertyOp25
 70
     1
102
RTVSPropertyOp26
 70
     1
102
RTVSPropertyOp27
 70
     1
102
RTVSPropertyOp28
 70
     1
102
RTVSPropertyOp29
 70
     1
102
RTVSPropertyOp30
 70
     1
102
RTVSPropertyOp31
 70
     1
102
RTVSPropertyOp32
 70
     1
102
RTVSPropertyOp33
 70
     1
102
RTVSPropertyOp34
 70
     1
102
RTVSPropertyOp35
 70
     1
102
RTVSPropertyOp36
 70
     1
102
RTVSPropertyOp37
 70
     1
102
RTVSPropertyOp38
 70
     1
102
RTVSPropertyOp39
 70
     1
102
RTVSPropertyOp40
 70
     1
102
RTVSPropertyOp41
 70
     1
102
RTVSPropertyOp42
 70
     1
102
RTVSPropertyOp43
 70
     1
102
RTVSPropertyOp44
 70
     1
102
RTVSPropertyOp45
 70
     1
102
RTVSPropertyOp46
 70
     1
102
RTVSPropertyOp47
 70
     1
102
RTVSPropertyOp48
 70
     1
102
RTVSPropertyOp49
 70
     1
102
RTVSPropertyOp50
 70
     1
102
RTVSPropertyOp51
 70
     0
102
RTVSPropertyOp52
 70
     0
102
RTVSPropertyOp53
 70
     1
102
RTVSPropertyOp54
 70
     1
102
RTVSPropertyOp55
 70
     1
102
RTVSPropertyOp56
 70
     1
102
RTVSPropertyOp57
 70
     1
102
RTVSPropertyOp58
 70
     1
102
RTVSPropertyOp59
 70
     1
102
RTVSPropertyOp60
 70
     1
102
RTVSPropertyOp61
 70
     1
102
RTVSPropertyOp62
 70
     1
  0
XRECORD
  5
1429
102
{ACAD_REACTORS
330
1428
102
}
330
1428
100
AcDbXrecord
280
     1
102
RTVSPost2010Prop28
280
     0
102
RTVSPost2010PropOp28
 70
     1
102
RTVSPost2010Prop29
280
     1
102
RTVSPost2010PropOp29
 70
     1
102
RTVSPost2010Prop30
280
     1
102
RTVSPost2010PropOp30
 70
     1
102
RTVSPost2010Prop31
280
     0
102
RTVSPost2010PropOp31
 70
     1
102
RTVSPost2010Prop32
280
     0
102
RTVSPost2010PropOp32
 70
     1
102
RTVSPost2010Prop33
280
     0
102
RTVSPost2010PropOp33
 70
     1
102
RTVSPost2010Prop34
280
     0
102
RTVSPost2010PropOp34
 70
     1
102
RTVSPost2010Prop35
280
     0
102
RTVSPost2010PropOp35
 70
     1
102
RTVSPost2010Prop36
280
     0
102
RTVSPost2010PropOp36
 70
     1
102
RTVSPost2010Prop37
 90
       50
102
RTVSPost2010PropOp37
 70
     1
102
RTVSPost2010Prop38
140
0.0
102
RTVSPost2010PropOp38
 70
     1
102
RTVSPost2010Prop39
140
1.0
102
RTVSPost2010PropOp39
 70
     1
102
RTVSPost2010Prop40
 90
        0
102
RTVSPost2010PropOp40
 70
     1
102
RTVSPost2010Prop41ColorIndex
 90
       18
102
RTVSPost2010Prop41ColorRGB
 90
        0
102
RTVSPost2010PropOp41
 70
     1
102
RTVSPost2010Prop42
 90
       50
102
RTVSPost2010PropOp42
 70
     1
102
RTVSPost2010Prop43
 90
        3
102
RTVSPost2010PropOp43
 70
     1
102
RTVSPost2010Prop44ColorIndex
 90
        5
102
RTVSPost2010Prop44ColorRGB
 90
      255
102
RTVSPost2010PropOp44
 70
     1
102
RTVSPost2010Prop45
280
     0
102
RTVSPost2010PropOp45
 70
     1
102
RTVSPost2010Prop46
 90
       50
102
RTVSPost2010PropOp46
 70
     1
102
RTVSPost2010Prop47
 90
       50
102
RTVSPost2010PropOp47
 70
     1
102
RTVSPost2010Prop48
 90
       50
102
RTVSPost2010PropOp48
 70
     1
102
RTVSPost2010Prop49
280
     0
102
RTVSPost2010PropOp49
 70
     1
102
RTVSPost2010Prop50
 90
       50
102
RTVSPost2010PropOp50
 70
     1
102
RTVSPost2010Prop51ColorIndex
 90
      256
102
RTVSPost2010Prop51ColorRGB
 90
-16777216
102
RTVSPost2010PropOp51
 70
     0
102
RTVSPost2010Prop52
140
1.0
102
RTVSPost2010PropOp52
 70
     0
102
RTVSPost2010Prop53
 90
        2
102
RTVSPost2010PropOp53
 70
     1
102
RTVSPost2010Prop54
  1
strokes_ogs.tif
102
RTVSPost2010PropOp54
 70
     1
102
RTVSPost2010Prop55
280
     0
102
RTVSPost2010PropOp55
 70
     1
102
RTVSPost2010Prop56
140
1.0
102
RTVSPost2010PropOp56
 70
     1
102
RTVSPost2010Prop57
140
1.0
102
RTVSPost2010PropOp57
 70
     1
102
RTVSPropertyOp0
 70
     1
102
RTVSPropertyOp1
 70
     1
102
RTVSPropertyOp2
 70
     1
102
RTVSPropertyOp3
 70
     1
102
RTVSPropertyOp4
 70
     1
102
RTVSPropertyOp5
 70
     1
102
RTVSPropertyOp6
 70
     1
102
RTVSPropertyOp7
 70
     1
102
RTVSPropertyOp8
 70
     1
102
RTVSPropertyOp9
 70
     1
102
RTVSPropertyOp10
 70
     1
102
RTVSPropertyOp11
 70
     1
102
RTVSPropertyOp12
 70
     1
102
RTVSPropertyOp13
 70
     1
102
RTVSPropertyOp14
 70
     1
102
RTVSPropertyOp15
 70
     1
102
RTVSPropertyOp16
 70
     1
102
RTVSPropertyOp17
 70
     1
102
RTVSPropertyOp18
 70
     1
102
RTVSPropertyOp19
 70
     1
102
RTVSPropertyOp20
 70
     1
102
RTVSPropertyOp21
 70
     1
102
RTVSPropertyOp22
 70
     1
102
RTVSPropertyOp23
 70
     1
102
RTVSPropertyOp24
 70
     1
102
RTVSPropertyOp25
 70
     1
102
RTVSPropertyOp26
 70
     1
102
RTVSPropertyOp27
 70
     1
102
RTVSPropertyOp28
 70
     1
102
RTVSPropertyOp29
 70
     1
102
RTVSPropertyOp30
 70
     1
102
RTVSPropertyOp31
 70
     1
102
RTVSPropertyOp32
 70
     1
102
RTVSPropertyOp33
 70
     1
102
RTVSPropertyOp34
 70
     1
102
RTVSPropertyOp35
 70
     1
102
RTVSPropertyOp36
 70
     1
102
RTVSPropertyOp37
 70
     1
102
RTVSPropertyOp38
 70
     1
102
RTVSPropertyOp39
 70
     1
102
RTVSPropertyOp40
 70
     1
102
RTVSPropertyOp41
 70
     1
102
RTVSPropertyOp42
 70
     1
102
RTVSPropertyOp43
 70
     1
102
RTVSPropertyOp44
 70
     1
102
RTVSPropertyOp45
 70
     1
102
RTVSPropertyOp46
 70
     1
102
RTVSPropertyOp47
 70
     1
102
RTVSPropertyOp48
 70
     1
102
RTVSPropertyOp49
 70
     1
102
RTVSPropertyOp50
 70
     1
102
RTVSPropertyOp51
 70
     0
102
RTVSPropertyOp52
 70
     0
102
RTVSPropertyOp53
 70
     1
102
RTVSPropertyOp54
 70
     1
102
RTVSPropertyOp55
 70
     1
102
RTVSPropertyOp56
 70
     1
102
RTVSPropertyOp57
 70
     1
102
RTVSPropertyOp58
 70
     1
102
RTVSPropertyOp59
 70
     1
102
RTVSPropertyOp60
 70
     1
102
RTVSPropertyOp61
 70
     1
102
RTVSPropertyOp62
 70
     1
  0
XRECORD
  5
142D
102
{ACAD_REACTORS
330
142C
102
}
330
142C
100
AcDbXrecord
280
     1
102
RTVSPost2010Prop28
280
     0
102
RTVSPost2010PropOp28
 70
     1
102
RTVSPost2010Prop29
280
     1
102
RTVSPost2010PropOp29
 70
     1
102
RTVSPost2010Prop30
280
     1
102
RTVSPost2010PropOp30
 70
     1
102
RTVSPost2010Prop31
280
     0
102
RTVSPost2010PropOp31
 70
     1
102
RTVSPost2010Prop32
280
     0
102
RTVSPost2010PropOp32
 70
     1
102
RTVSPost2010Prop33
280
     0
102
RTVSPost2010PropOp33
 70
     1
102
RTVSPost2010Prop34
280
     0
102
RTVSPost2010PropOp34
 70
     1
102
RTVSPost2010Prop35
280
     0
102
RTVSPost2010PropOp35
 70
     1
102
RTVSPost2010Prop36
280
     0
102
RTVSPost2010PropOp36
 70
     1
102
RTVSPost2010Prop37
 90
       50
102
RTVSPost2010PropOp37
 70
     1
102
RTVSPost2010Prop38
140
0.0
102
RTVSPost2010PropOp38
 70
     1
102
RTVSPost2010Prop39
140
1.0
102
RTVSPost2010PropOp39
 70
     1
102
RTVSPost2010Prop40
 90
        0
102
RTVSPost2010PropOp40
 70
     1
102
RTVSPost2010Prop41ColorIndex
 90
       18
102
RTVSPost2010Prop41ColorRGB
 90
        0
102
RTVSPost2010PropOp41
 70
     1
102
RTVSPost2010Prop42
 90
       50
102
RTVSPost2010PropOp42
 70
     1
102
RTVSPost2010Prop43
 90
        3
102
RTVSPost2010PropOp43
 70
     1
102
RTVSPost2010Prop44ColorIndex
 90
        5
102
RTVSPost2010Prop44ColorRGB
 90
      255
102
RTVSPost2010PropOp44
 70
     1
102
RTVSPost2010Prop45
280
     0
102
RTVSPost2010PropOp45
 70
     1
102
RTVSPost2010Prop46
 90
       50
102
RTVSPost2010PropOp46
 70
     1
102
RTVSPost2010Prop47
 90
       50
102
RTVSPost2010PropOp47
 70
     1
102
RTVSPost2010Prop48
 90
       50
102
RTVSPost2010PropOp48
 70
     1
102
RTVSPost2010Prop49
280
     0
102
RTVSPost2010PropOp49
 70
     1
102
RTVSPost2010Prop50
 90
       50
102
RTVSPost2010PropOp50
 70
     1
102
RTVSPost2010Prop51ColorIndex
 90
      256
102
RTVSPost2010Prop51ColorRGB
 90
-16777216
102
RTVSPost2010PropOp51
 70
     0
102
RTVSPost2010Prop52
140
1.0
102
RTVSPost2010PropOp52
 70
     0
102
RTVSPost2010Prop53
 90
        2
102
RTVSPost2010PropOp53
 70
     1
102
RTVSPost2010Prop54
  1
strokes_ogs.tif
102
RTVSPost2010PropOp54
 70
     1
102
RTVSPost2010Prop55
280
     0
102
RTVSPost2010PropOp55
 70
     1
102
RTVSPost2010Prop56
140
1.0
102
RTVSPost2010PropOp56
 70
     1
102
RTVSPost2010Prop57
140
1.0
102
RTVSPost2010PropOp57
 70
     1
102
RTVSPropertyOp0
 70
     1
102
RTVSPropertyOp1
 70
     1
102
RTVSPropertyOp2
 70
     1
102
RTVSPropertyOp3
 70
     1
102
RTVSPropertyOp4
 70
     1
102
RTVSPropertyOp5
 70
     1
102
RTVSPropertyOp6
 70
     1
102
RTVSPropertyOp7
 70
     1
102
RTVSPropertyOp8
 70
     1
102
RTVSPropertyOp9
 70
     1
102
RTVSPropertyOp10
 70
     1
102
RTVSPropertyOp11
 70
     1
102
RTVSPropertyOp12
 70
     1
102
RTVSPropertyOp13
 70
     1
102
RTVSPropertyOp14
 70
     1
102
RTVSPropertyOp15
 70
     1
102
RTVSPropertyOp16
 70
     1
102
RTVSPropertyOp17
 70
     1
102
RTVSPropertyOp18
 70
     1
102
RTVSPropertyOp19
 70
     1
102
RTVSPropertyOp20
 70
     1
102
RTVSPropertyOp21
 70
     1
102
RTVSPropertyOp22
 70
     1
102
RTVSPropertyOp23
 70
     1
102
RTVSPropertyOp24
 70
     1
102
RTVSPropertyOp25
 70
     1
102
RTVSPropertyOp26
 70
     1
102
RTVSPropertyOp27
 70
     1
102
RTVSPropertyOp28
 70
     1
102
RTVSPropertyOp29
 70
     1
102
RTVSPropertyOp30
 70
     1
102
RTVSPropertyOp31
 70
     1
102
RTVSPropertyOp32
 70
     1
102
RTVSPropertyOp33
 70
     1
102
RTVSPropertyOp34
 70
     1
102
RTVSPropertyOp35
 70
     1
102
RTVSPropertyOp36
 70
     1
102
RTVSPropertyOp37
 70
     1
102
RTVSPropertyOp38
 70
     1
102
RTVSPropertyOp39
 70
     1
102
RTVSPropertyOp40
 70
     1
102
RTVSPropertyOp41
 70
     1
102
RTVSPropertyOp42
 70
     1
102
RTVSPropertyOp43
 70
     1
102
RTVSPropertyOp44
 70
     1
102
RTVSPropertyOp45
 70
     1
102
RTVSPropertyOp46
 70
     1
102
RTVSPropertyOp47
 70
     1
102
RTVSPropertyOp48
 70
     1
102
RTVSPropertyOp49
 70
     1
102
RTVSPropertyOp50
 70
     1
102
RTVSPropertyOp51
 70
     0
102
RTVSPropertyOp52
 70
     0
102
RTVSPropertyOp53
 70
     1
102
RTVSPropertyOp54
 70
     1
102
RTVSPropertyOp55
 70
     1
102
RTVSPropertyOp56
 70
     1
102
RTVSPropertyOp57
 70
     1
102
RTVSPropertyOp58
 70
     1
102
RTVSPropertyOp59
 70
     1
102
RTVSPropertyOp60
 70
     1
102
RTVSPropertyOp61
 70
     1
102
RTVSPropertyOp62
 70
     1
  0
XRECORD
  5
1447
102
{ACAD_REACTORS
330
1446
102
}
330
1446
100
AcDbXrecord
280
     1
102
RTVSPost2010Prop28
280
     0
102
RTVSPost2010PropOp28
 70
     1
102
RTVSPost2010Prop29
280
     1
102
RTVSPost2010PropOp29
 70
     1
102
RTVSPost2010Prop30
280
     1
102
RTVSPost2010PropOp30
 70
     1
102
RTVSPost2010Prop31
280
     0
102
RTVSPost2010PropOp31
 70
     1
102
RTVSPost2010Prop32
280
     0
102
RTVSPost2010PropOp32
 70
     1
102
RTVSPost2010Prop33
280
     0
102
RTVSPost2010PropOp33
 70
     1
102
RTVSPost2010Prop34
280
     0
102
RTVSPost2010PropOp34
 70
     1
102
RTVSPost2010Prop35
280
     0
102
RTVSPost2010PropOp35
 70
     1
102
RTVSPost2010Prop36
280
     0
102
RTVSPost2010PropOp36
 70
     1
102
RTVSPost2010Prop37
 90
       50
102
RTVSPost2010PropOp37
 70
     0
102
RTVSPost2010Prop38
140
0.0
102
RTVSPost2010PropOp38
 70
     0
102
RTVSPost2010Prop39
140
1.0
102
RTVSPost2010PropOp39
 70
     0
102
RTVSPost2010Prop40
 90
        0
102
RTVSPost2010PropOp40
 70
     0
102
RTVSPost2010Prop41ColorIndex
 90
       18
102
RTVSPost2010Prop41ColorRGB
 90
        0
102
RTVSPost2010PropOp41
 70
     0
102
RTVSPost2010Prop42
 90
       50
102
RTVSPost2010PropOp42
 70
     0
102
RTVSPost2010Prop43
 90
        3
102
RTVSPost2010PropOp43
 70
     0
102
RTVSPost2010Prop44ColorIndex
 90
        5
102
RTVSPost2010Prop44ColorRGB
 90
      255
102
RTVSPost2010PropOp44
 70
     0
102
RTVSPost2010Prop45
280
     0
102
RTVSPost2010PropOp45
 70
     1
102
RTVSPost2010Prop46
 90
       50
102
RTVSPost2010PropOp46
 70
     0
102
RTVSPost2010Prop47
 90
       50
102
RTVSPost2010PropOp47
 70
     0
102
RTVSPost2010Prop48
 90
       50
102
RTVSPost2010PropOp48
 70
     0
102
RTVSPost2010Prop49
280
     0
102
RTVSPost2010PropOp49
 70
     1
102
RTVSPost2010Prop50
 90
       50
102
RTVSPost2010PropOp50
 70
     0
102
RTVSPost2010Prop51ColorIndex
 90
      256
102
RTVSPost2010Prop51ColorRGB
 90
-16777216
102
RTVSPost2010PropOp51
 70
     0
102
RTVSPost2010Prop52
140
1.0
102
RTVSPost2010PropOp52
 70
     0
102
RTVSPost2010Prop53
 90
        2
102
RTVSPost2010PropOp53
 70
     0
102
RTVSPost2010Prop54
  1
strokes_ogs.tif
102
RTVSPost2010PropOp54
 70
     0
102
RTVSPost2010Prop55
280
     0
102
RTVSPost2010PropOp55
 70
     1
102
RTVSPost2010Prop56
140
1.0
102
RTVSPost2010PropOp56
 70
     0
102
RTVSPost2010Prop57
140
1.0
102
RTVSPost2010PropOp57
 70
     0
102
RTVSPropertyOp0
 70
     0
102
RTVSPropertyOp1
 70
     0
102
RTVSPropertyOp2
 70
     0
102
RTVSPropertyOp3
 70
     0
102
RTVSPropertyOp4
 70
     0
102
RTVSPropertyOp5
 70
     0
102
RTVSPropertyOp6
 70
     0
102
RTVSPropertyOp7
 70
     0
102
RTVSPropertyOp8
 70
     0
102
RTVSPropertyOp9
 70
     0
102
RTVSPropertyOp10
 70
     0
102
RTVSPropertyOp11
 70
     0
102
RTVSPropertyOp12
 70
     0
102
RTVSPropertyOp13
 70
     0
102
RTVSPropertyOp14
 70
     2
102
RTVSPropertyOp15
 70
     0
102
RTVSPropertyOp16
 70
     0
102
RTVSPropertyOp17
 70
     0
102
RTVSPropertyOp18
 70
     0
102
RTVSPropertyOp19
 70
     0
102
RTVSPropertyOp20
 70
     0
102
RTVSPropertyOp21
 70
     0
102
RTVSPropertyOp22
 70
     0
102
RTVSPropertyOp23
 70
     0
102
RTVSPropertyOp24
 70
     0
102
RTVSPropertyOp25
 70
     0
102
RTVSPropertyOp26
 70
     0
102
RTVSPropertyOp27
 70
     0
102
RTVSPropertyOp28
 70
     1
102
RTVSPropertyOp29
 70
     1
102
RTVSPropertyOp30
 70
     1
102
RTVSPropertyOp31
 70
     1
102
RTVSPropertyOp32
 70
     1
102
RTVSPropertyOp33
 70
     1
102
RTVSPropertyOp34
 70
     1
102
RTVSPropertyOp35
 70
     1
102
RTVSPropertyOp36
 70
     1
102
RTVSPropertyOp37
 70
     0
102
RTVSPropertyOp38
 70
     0
102
RTVSPropertyOp39
 70
     0
102
RTVSPropertyOp40
 70
     0
102
RTVSPropertyOp41
 70
     0
102
RTVSPropertyOp42
 70
     0
102
RTVSPropertyOp43
 70
     0
102
RTVSPropertyOp44
 70
     0
102
RTVSPropertyOp45
 70
     1
102
RTVSPropertyOp46
 70
     0
102
RTVSPropertyOp47
 70
     0
102
RTVSPropertyOp48
 70
     0
102
RTVSPropertyOp49
 70
     1
102
RTVSPropertyOp50
 70
     0
102
RTVSPropertyOp51
 70
     0
102
RTVSPropertyOp52
 70
     0
102
RTVSPropertyOp53
 70
     0
102
RTVSPropertyOp54
 70
     0
102
RTVSPropertyOp55
 70
     1
102
RTVSPropertyOp56
 70
     0
102
RTVSPropertyOp57
 70
     0
102
RTVSPropertyOp58
 70
     0
102
RTVSPropertyOp59
 70
     0
102
RTVSPropertyOp60
 70
     0
102
RTVSPropertyOp61
 70
     0
102
RTVSPropertyOp62
 70
     0
  0
XRECORD
  5
1435
102
{ACAD_REACTORS
330
1434
102
}
330
1434
100
AcDbXrecord
280
     1
102
RTVSPost2010Prop28
280
     0
102
RTVSPost2010PropOp28
 70
     1
102
RTVSPost2010Prop29
280
     1
102
RTVSPost2010PropOp29
 70
     1
102
RTVSPost2010Prop30
280
     1
102
RTVSPost2010PropOp30
 70
     1
102
RTVSPost2010Prop31
280
     0
102
RTVSPost2010PropOp31
 70
     1
102
RTVSPost2010Prop32
280
     0
102
RTVSPost2010PropOp32
 70
     1
102
RTVSPost2010Prop33
280
     0
102
RTVSPost2010PropOp33
 70
     1
102
RTVSPost2010Prop34
280
     0
102
RTVSPost2010PropOp34
 70
     1
102
RTVSPost2010Prop35
280
     0
102
RTVSPost2010PropOp35
 70
     1
102
RTVSPost2010Prop36
280
     0
102
RTVSPost2010PropOp36
 70
     1
102
RTVSPost2010Prop37
 90
       50
102
RTVSPost2010PropOp37
 70
     1
102
RTVSPost2010Prop38
140
0.0
102
RTVSPost2010PropOp38
 70
     1
102
RTVSPost2010Prop39
140
1.0
102
RTVSPost2010PropOp39
 70
     1
102
RTVSPost2010Prop40
 90
        0
102
RTVSPost2010PropOp40
 70
     1
102
RTVSPost2010Prop41ColorIndex
 90
       18
102
RTVSPost2010Prop41ColorRGB
 90
        0
102
RTVSPost2010PropOp41
 70
     1
102
RTVSPost2010Prop42
 90
       50
102
RTVSPost2010PropOp42
 70
     1
102
RTVSPost2010Prop43
 90
        3
102
RTVSPost2010PropOp43
 70
     1
102
RTVSPost2010Prop44ColorIndex
 90
        5
102
RTVSPost2010Prop44ColorRGB
 90
      255
102
RTVSPost2010PropOp44
 70
     1
102
RTVSPost2010Prop45
280
     0
102
RTVSPost2010PropOp45
 70
     1
102
RTVSPost2010Prop46
 90
       50
102
RTVSPost2010PropOp46
 70
     1
102
RTVSPost2010Prop47
 90
       50
102
RTVSPost2010PropOp47
 70
     1
102
RTVSPost2010Prop48
 90
       50
102
RTVSPost2010PropOp48
 70
     1
102
RTVSPost2010Prop49
280
     0
102
RTVSPost2010PropOp49
 70
     1
102
RTVSPost2010Prop50
 90
       50
102
RTVSPost2010PropOp50
 70
     1
102
RTVSPost2010Prop51ColorIndex
 90
      256
102
RTVSPost2010Prop51ColorRGB
 90
-16777216
102
RTVSPost2010PropOp51
 70
     0
102
RTVSPost2010Prop52
140
1.0
102
RTVSPost2010PropOp52
 70
     0
102
RTVSPost2010Prop53
 90
        2
102
RTVSPost2010PropOp53
 70
     1
102
RTVSPost2010Prop54
  1
strokes_ogs.tif
102
RTVSPost2010PropOp54
 70
     1
102
RTVSPost2010Prop55
280
     0
102
RTVSPost2010PropOp55
 70
     1
102
RTVSPost2010Prop56
140
1.0
102
RTVSPost2010PropOp56
 70
     1
102
RTVSPost2010Prop57
140
1.0
102
RTVSPost2010PropOp57
 70
     1
102
RTVSPropertyOp0
 70
     1
102
RTVSPropertyOp1
 70
     1
102
RTVSPropertyOp2
 70
     1
102
RTVSPropertyOp3
 70
     1
102
RTVSPropertyOp4
 70
     1
102
RTVSPropertyOp5
 70
     1
102
RTVSPropertyOp6
 70
     1
102
RTVSPropertyOp7
 70
     1
102
RTVSPropertyOp8
 70
     1
102
RTVSPropertyOp9
 70
     1
102
RTVSPropertyOp10
 70
     1
102
RTVSPropertyOp11
 70
     1
102
RTVSPropertyOp12
 70
     1
102
RTVSPropertyOp13
 70
     1
102
RTVSPropertyOp14
 70
     1
102
RTVSPropertyOp15
 70
     1
102
RTVSPropertyOp16
 70
     1
102
RTVSPropertyOp17
 70
     1
102
RTVSPropertyOp18
 70
     1
102
RTVSPropertyOp19
 70
     1
102
RTVSPropertyOp20
 70
     1
102
RTVSPropertyOp21
 70
     1
102
RTVSPropertyOp22
 70
     1
102
RTVSPropertyOp23
 70
     1
102
RTVSPropertyOp24
 70
     1
102
RTVSPropertyOp25
 70
     1
102
RTVSPropertyOp26
 70
     1
102
RTVSPropertyOp27
 70
     1
102
RTVSPropertyOp28
 70
     1
102
RTVSPropertyOp29
 70
     1
102
RTVSPropertyOp30
 70
     1
102
RTVSPropertyOp31
 70
     1
102
RTVSPropertyOp32
 70
     1
102
RTVSPropertyOp33
 70
     1
102
RTVSPropertyOp34
 70
     1
102
RTVSPropertyOp35
 70
     1
102
RTVSPropertyOp36
 70
     1
102
RTVSPropertyOp37
 70
     1
102
RTVSPropertyOp38
 70
     1
102
RTVSPropertyOp39
 70
     1
102
RTVSPropertyOp40
 70
     1
102
RTVSPropertyOp41
 70
     1
102
RTVSPropertyOp42
 70
     1
102
RTVSPropertyOp43
 70
     1
102
RTVSPropertyOp44
 70
     1
102
RTVSPropertyOp45
 70
     1
102
RTVSPropertyOp46
 70
     1
102
RTVSPropertyOp47
 70
     1
102
RTVSPropertyOp48
 70
     1
102
RTVSPropertyOp49
 70
     1
102
RTVSPropertyOp50
 70
     1
102
RTVSPropertyOp51
 70
     0
102
RTVSPropertyOp52
 70
     0
102
RTVSPropertyOp53
 70
     1
102
RTVSPropertyOp54
 70
     1
102
RTVSPropertyOp55
 70
     1
102
RTVSPropertyOp56
 70
     1
102
RTVSPropertyOp57
 70
     1
102
RTVSPropertyOp58
 70
     1
102
RTVSPropertyOp59
 70
     1
102
RTVSPropertyOp60
 70
     1
102
RTVSPropertyOp61
 70
     1
102
RTVSPropertyOp62
 70
     1
  0
XRECORD
  5
1419
102
{ACAD_REACTORS
330
1418
102
}
330
1418
100
AcDbXrecord
280
     1
102
RTVSPost2010Prop28
280
     0
102
RTVSPost2010PropOp28
 70
     1
102
RTVSPost2010Prop29
280
     1
102
RTVSPost2010PropOp29
 70
     1
102
RTVSPost2010Prop30
280
     1
102
RTVSPost2010PropOp30
 70
     1
102
RTVSPost2010Prop31
280
     0
102
RTVSPost2010PropOp31
 70
     1
102
RTVSPost2010Prop32
280
     0
102
RTVSPost2010PropOp32
 70
     1
102
RTVSPost2010Prop33
280
     0
102
RTVSPost2010PropOp33
 70
     1
102
RTVSPost2010Prop34
280
     0
102
RTVSPost2010PropOp34
 70
     1
102
RTVSPost2010Prop35
280
     0
102
RTVSPost2010PropOp35
 70
     1
102
RTVSPost2010Prop36
280
     0
102
RTVSPost2010PropOp36
 70
     1
102
RTVSPost2010Prop37
 90
       50
102
RTVSPost2010PropOp37
 70
     1
102
RTVSPost2010Prop38
140
0.0
102
RTVSPost2010PropOp38
 70
     1
102
RTVSPost2010Prop39
140
1.0
102
RTVSPost2010PropOp39
 70
     1
102
RTVSPost2010Prop40
 90
        0
102
RTVSPost2010PropOp40
 70
     1
102
RTVSPost2010Prop41ColorIndex
 90
       18
102
RTVSPost2010Prop41ColorRGB
 90
        0
102
RTVSPost2010PropOp41
 70
     1
102
RTVSPost2010Prop42
 90
       50
102
RTVSPost2010PropOp42
 70
     1
102
RTVSPost2010Prop43
 90
        3
102
RTVSPost2010PropOp43
 70
     1
102
RTVSPost2010Prop44ColorIndex
 90
        5
102
RTVSPost2010Prop44ColorRGB
 90
      255
102
RTVSPost2010PropOp44
 70
     1
102
RTVSPost2010Prop45
280
     0
102
RTVSPost2010PropOp45
 70
     1
102
RTVSPost2010Prop46
 90
       50
102
RTVSPost2010PropOp46
 70
     1
102
RTVSPost2010Prop47
 90
       50
102
RTVSPost2010PropOp47
 70
     1
102
RTVSPost2010Prop48
 90
       50
102
RTVSPost2010PropOp48
 70
     1
102
RTVSPost2010Prop49
280
     0
102
RTVSPost2010PropOp49
 70
     1
102
RTVSPost2010Prop50
 90
       50
102
RTVSPost2010PropOp50
 70
     1
102
RTVSPost2010Prop51ColorIndex
 90
      256
102
RTVSPost2010Prop51ColorRGB
 90
-16777216
102
RTVSPost2010PropOp51
 70
     0
102
RTVSPost2010Prop52
140
1.0
102
RTVSPost2010PropOp52
 70
     0
102
RTVSPost2010Prop53
 90
        2
102
RTVSPost2010PropOp53
 70
     1
102
RTVSPost2010Prop54
  1
strokes_ogs.tif
102
RTVSPost2010PropOp54
 70
     1
102
RTVSPost2010Prop55
280
     0
102
RTVSPost2010PropOp55
 70
     1
102
RTVSPost2010Prop56
140
1.0
102
RTVSPost2010PropOp56
 70
     1
102
RTVSPost2010Prop57
140
1.0
102
RTVSPost2010PropOp57
 70
     1
102
RTVSPropertyOp0
 70
     1
102
RTVSPropertyOp1
 70
     1
102
RTVSPropertyOp2
 70
     1
102
RTVSPropertyOp3
 70
     1
102
RTVSPropertyOp4
 70
     1
102
RTVSPropertyOp5
 70
     1
102
RTVSPropertyOp6
 70
     1
102
RTVSPropertyOp7
 70
     1
102
RTVSPropertyOp8
 70
     1
102
RTVSPropertyOp9
 70
     1
102
RTVSPropertyOp10
 70
     1
102
RTVSPropertyOp11
 70
     1
102
RTVSPropertyOp12
 70
     1
102
RTVSPropertyOp13
 70
     1
102
RTVSPropertyOp14
 70
     1
102
RTVSPropertyOp15
 70
     1
102
RTVSPropertyOp16
 70
     1
102
RTVSPropertyOp17
 70
     1
102
RTVSPropertyOp18
 70
     1
102
RTVSPropertyOp19
 70
     1
102
RTVSPropertyOp20
 70
     1
102
RTVSPropertyOp21
 70
     1
102
RTVSPropertyOp22
 70
     1
102
RTVSPropertyOp23
 70
     1
102
RTVSPropertyOp24
 70
     1
102
RTVSPropertyOp25
 70
     1
102
RTVSPropertyOp26
 70
     1
102
RTVSPropertyOp27
 70
     1
102
RTVSPropertyOp28
 70
     1
102
RTVSPropertyOp29
 70
     1
102
RTVSPropertyOp30
 70
     1
102
RTVSPropertyOp31
 70
     1
102
RTVSPropertyOp32
 70
     1
102
RTVSPropertyOp33
 70
     1
102
RTVSPropertyOp34
 70
     1
102
RTVSPropertyOp35
 70
     1
102
RTVSPropertyOp36
 70
     1
102
RTVSPropertyOp37
 70
     1
102
RTVSPropertyOp38
 70
     1
102
RTVSPropertyOp39
 70
     1
102
RTVSPropertyOp40
 70
     1
102
RTVSPropertyOp41
 70
     1
102
RTVSPropertyOp42
 70
     1
102
RTVSPropertyOp43
 70
     1
102
RTVSPropertyOp44
 70
     1
102
RTVSPropertyOp45
 70
     1
102
RTVSPropertyOp46
 70
     1
102
RTVSPropertyOp47
 70
     1
102
RTVSPropertyOp48
 70
     1
102
RTVSPropertyOp49
 70
     1
102
RTVSPropertyOp50
 70
     1
102
RTVSPropertyOp51
 70
     0
102
RTVSPropertyOp52
 70
     0
102
RTVSPropertyOp53
 70
     1
102
RTVSPropertyOp54
 70
     1
102
RTVSPropertyOp55
 70
     1
102
RTVSPropertyOp56
 70
     1
102
RTVSPropertyOp57
 70
     1
102
RTVSPropertyOp58
 70
     1
102
RTVSPropertyOp59
 70
     1
102
RTVSPropertyOp60
 70
     1
102
RTVSPropertyOp61
 70
     1
102
RTVSPropertyOp62
 70
     1
  0
XRECORD
  5
141B
102
{ACAD_REACTORS
330
141A
102
}
330
141A
100
AcDbXrecord
280
     1
102
RTVSPost2010Prop28
280
     0
102
RTVSPost2010PropOp28
 70
     1
102
RTVSPost2010Prop29
280
     1
102
RTVSPost2010PropOp29
 70
     1
102
RTVSPost2010Prop30
280
     1
102
RTVSPost2010PropOp30
 70
     1
102
RTVSPost2010Prop31
280
     0
102
RTVSPost2010PropOp31
 70
     1
102
RTVSPost2010Prop32
280
     0
102
RTVSPost2010PropOp32
 70
     1
102
RTVSPost2010Prop33
280
     0
102
RTVSPost2010PropOp33
 70
     1
102
RTVSPost2010Prop34
280
     0
102
RTVSPost2010PropOp34
 70
     1
102
RTVSPost2010Prop35
280
     0
102
RTVSPost2010PropOp35
 70
     1
102
RTVSPost2010Prop36
280
     0
102
RTVSPost2010PropOp36
 70
     1
102
RTVSPost2010Prop37
 90
       50
102
RTVSPost2010PropOp37
 70
     1
102
RTVSPost2010Prop38
140
0.0
102
RTVSPost2010PropOp38
 70
     1
102
RTVSPost2010Prop39
140
1.0
102
RTVSPost2010PropOp39
 70
     1
102
RTVSPost2010Prop40
 90
        0
102
RTVSPost2010PropOp40
 70
     1
102
RTVSPost2010Prop41ColorIndex
 90
       18
102
RTVSPost2010Prop41ColorRGB
 90
        0
102
RTVSPost2010PropOp41
 70
     1
102
RTVSPost2010Prop42
 90
       50
102
RTVSPost2010PropOp42
 70
     1
102
RTVSPost2010Prop43
 90
        3
102
RTVSPost2010PropOp43
 70
     1
102
RTVSPost2010Prop44ColorIndex
 90
        5
102
RTVSPost2010Prop44ColorRGB
 90
      255
102
RTVSPost2010PropOp44
 70
     1
102
RTVSPost2010Prop45
280
     0
102
RTVSPost2010PropOp45
 70
     1
102
RTVSPost2010Prop46
 90
       50
102
RTVSPost2010PropOp46
 70
     1
102
RTVSPost2010Prop47
 90
       50
102
RTVSPost2010PropOp47
 70
     1
102
RTVSPost2010Prop48
 90
       50
102
RTVSPost2010PropOp48
 70
     1
102
RTVSPost2010Prop49
280
     0
102
RTVSPost2010PropOp49
 70
     1
102
RTVSPost2010Prop50
 90
       50
102
RTVSPost2010PropOp50
 70
     1
102
RTVSPost2010Prop51ColorIndex
 90
      256
102
RTVSPost2010Prop51ColorRGB
 90
-16777216
102
RTVSPost2010PropOp51
 70
     0
102
RTVSPost2010Prop52
140
1.0
102
RTVSPost2010PropOp52
 70
     0
102
RTVSPost2010Prop53
 90
        2
102
RTVSPost2010PropOp53
 70
     1
102
RTVSPost2010Prop54
  1
strokes_ogs.tif
102
RTVSPost2010PropOp54
 70
     1
102
RTVSPost2010Prop55
280
     0
102
RTVSPost2010PropOp55
 70
     1
102
RTVSPost2010Prop56
140
1.0
102
RTVSPost2010PropOp56
 70
     1
102
RTVSPost2010Prop57
140
1.0
102
RTVSPost2010PropOp57
 70
     1
102
RTVSPropertyOp0
 70
     1
102
RTVSPropertyOp1
 70
     1
102
RTVSPropertyOp2
 70
     1
102
RTVSPropertyOp3
 70
     1
102
RTVSPropertyOp4
 70
     1
102
RTVSPropertyOp5
 70
     1
102
RTVSPropertyOp6
 70
     1
102
RTVSPropertyOp7
 70
     1
102
RTVSPropertyOp8
 70
     1
102
RTVSPropertyOp9
 70
     1
102
RTVSPropertyOp10
 70
     1
102
RTVSPropertyOp11
 70
     1
102
RTVSPropertyOp12
 70
     1
102
RTVSPropertyOp13
 70
     1
102
RTVSPropertyOp14
 70
     1
102
RTVSPropertyOp15
 70
     1
102
RTVSPropertyOp16
 70
     1
102
RTVSPropertyOp17
 70
     1
102
RTVSPropertyOp18
 70
     1
102
RTVSPropertyOp19
 70
     1
102
RTVSPropertyOp20
 70
     1
102
RTVSPropertyOp21
 70
     1
102
RTVSPropertyOp22
 70
     1
102
RTVSPropertyOp23
 70
     1
102
RTVSPropertyOp24
 70
     1
102
RTVSPropertyOp25
 70
     1
102
RTVSPropertyOp26
 70
     1
102
RTVSPropertyOp27
 70
     1
102
RTVSPropertyOp28
 70
     1
102
RTVSPropertyOp29
 70
     1
102
RTVSPropertyOp30
 70
     1
102
RTVSPropertyOp31
 70
     1
102
RTVSPropertyOp32
 70
     1
102
RTVSPropertyOp33
 70
     1
102
RTVSPropertyOp34
 70
     1
102
RTVSPropertyOp35
 70
     1
102
RTVSPropertyOp36
 70
     1
102
RTVSPropertyOp37
 70
     1
102
RTVSPropertyOp38
 70
     1
102
RTVSPropertyOp39
 70
     1
102
RTVSPropertyOp40
 70
     1
102
RTVSPropertyOp41
 70
     1
102
RTVSPropertyOp42
 70
     1
102
RTVSPropertyOp43
 70
     1
102
RTVSPropertyOp44
 70
     1
102
RTVSPropertyOp45
 70
     1
102
RTVSPropertyOp46
 70
     1
102
RTVSPropertyOp47
 70
     1
102
RTVSPropertyOp48
 70
     1
102
RTVSPropertyOp49
 70
     1
102
RTVSPropertyOp50
 70
     1
102
RTVSPropertyOp51
 70
     0
102
RTVSPropertyOp52
 70
     0
102
RTVSPropertyOp53
 70
     1
102
RTVSPropertyOp54
 70
     1
102
RTVSPropertyOp55
 70
     1
102
RTVSPropertyOp56
 70
     1
102
RTVSPropertyOp57
 70
     1
102
RTVSPropertyOp58
 70
     1
102
RTVSPropertyOp59
 70
     1
102
RTVSPropertyOp60
 70
     1
102
RTVSPropertyOp61
 70
     1
102
RTVSPropertyOp62
 70
     1
  0
XRECORD
  5
141D
102
{ACAD_REACTORS
330
141C
102
}
330
141C
100
AcDbXrecord
280
     1
102
RTVSPost2010Prop28
280
     0
102
RTVSPost2010PropOp28
 70
     1
102
RTVSPost2010Prop29
280
     1
102
RTVSPost2010PropOp29
 70
     1
102
RTVSPost2010Prop30
280
     1
102
RTVSPost2010PropOp30
 70
     1
102
RTVSPost2010Prop31
280
     0
102
RTVSPost2010PropOp31
 70
     1
102
RTVSPost2010Prop32
280
     0
102
RTVSPost2010PropOp32
 70
     1
102
RTVSPost2010Prop33
280
     0
102
RTVSPost2010PropOp33
 70
     1
102
RTVSPost2010Prop34
280
     0
102
RTVSPost2010PropOp34
 70
     1
102
RTVSPost2010Prop35
280
     0
102
RTVSPost2010PropOp35
 70
     1
102
RTVSPost2010Prop36
280
     0
102
RTVSPost2010PropOp36
 70
     1
102
RTVSPost2010Prop37
 90
       50
102
RTVSPost2010PropOp37
 70
     1
102
RTVSPost2010Prop38
140
0.0
102
RTVSPost2010PropOp38
 70
     1
102
RTVSPost2010Prop39
140
1.0
102
RTVSPost2010PropOp39
 70
     1
102
RTVSPost2010Prop40
 90
        0
102
RTVSPost2010PropOp40
 70
     1
102
RTVSPost2010Prop41ColorIndex
 90
       18
102
RTVSPost2010Prop41ColorRGB
 90
        0
102
RTVSPost2010PropOp41
 70
     1
102
RTVSPost2010Prop42
 90
       50
102
RTVSPost2010PropOp42
 70
     1
102
RTVSPost2010Prop43
 90
        3
102
RTVSPost2010PropOp43
 70
     1
102
RTVSPost2010Prop44ColorIndex
 90
        5
102
RTVSPost2010Prop44ColorRGB
 90
      255
102
RTVSPost2010PropOp44
 70
     1
102
RTVSPost2010Prop45
280
     0
102
RTVSPost2010PropOp45
 70
     1
102
RTVSPost2010Prop46
 90
       50
102
RTVSPost2010PropOp46
 70
     1
102
RTVSPost2010Prop47
 90
       50
102
RTVSPost2010PropOp47
 70
     1
102
RTVSPost2010Prop48
 90
       50
102
RTVSPost2010PropOp48
 70
     1
102
RTVSPost2010Prop49
280
     0
102
RTVSPost2010PropOp49
 70
     1
102
RTVSPost2010Prop50
 90
       50
102
RTVSPost2010PropOp50
 70
     1
102
RTVSPost2010Prop51ColorIndex
 90
      256
102
RTVSPost2010Prop51ColorRGB
 90
-16777216
102
RTVSPost2010PropOp51
 70
     0
102
RTVSPost2010Prop52
140
1.0
102
RTVSPost2010PropOp52
 70
     0
102
RTVSPost2010Prop53
 90
        2
102
RTVSPost2010PropOp53
 70
     1
102
RTVSPost2010Prop54
  1
strokes_ogs.tif
102
RTVSPost2010PropOp54
 70
     1
102
RTVSPost2010Prop55
280
     0
102
RTVSPost2010PropOp55
 70
     1
102
RTVSPost2010Prop56
140
1.0
102
RTVSPost2010PropOp56
 70
     1
102
RTVSPost2010Prop57
140
1.0
102
RTVSPost2010PropOp57
 70
     1
102
RTVSPropertyOp0
 70
     1
102
RTVSPropertyOp1
 70
     1
102
RTVSPropertyOp2
 70
     1
102
RTVSPropertyOp3
 70
     1
102
RTVSPropertyOp4
 70
     1
102
RTVSPropertyOp5
 70
     1
102
RTVSPropertyOp6
 70
     1
102
RTVSPropertyOp7
 70
     1
102
RTVSPropertyOp8
 70
     1
102
RTVSPropertyOp9
 70
     1
102
RTVSPropertyOp10
 70
     1
102
RTVSPropertyOp11
 70
     1
102
RTVSPropertyOp12
 70
     1
102
RTVSPropertyOp13
 70
     1
102
RTVSPropertyOp14
 70
     1
102
RTVSPropertyOp15
 70
     1
102
RTVSPropertyOp16
 70
     1
102
RTVSPropertyOp17
 70
     1
102
RTVSPropertyOp18
 70
     1
102
RTVSPropertyOp19
 70
     1
102
RTVSPropertyOp20
 70
     1
102
RTVSPropertyOp21
 70
     1
102
RTVSPropertyOp22
 70
     1
102
RTVSPropertyOp23
 70
     1
102
RTVSPropertyOp24
 70
     1
102
RTVSPropertyOp25
 70
     1
102
RTVSPropertyOp26
 70
     1
102
RTVSPropertyOp27
 70
     1
102
RTVSPropertyOp28
 70
     1
102
RTVSPropertyOp29
 70
     1
102
RTVSPropertyOp30
 70
     1
102
RTVSPropertyOp31
 70
     1
102
RTVSPropertyOp32
 70
     1
102
RTVSPropertyOp33
 70
     1
102
RTVSPropertyOp34
 70
     1
102
RTVSPropertyOp35
 70
     1
102
RTVSPropertyOp36
 70
     1
102
RTVSPropertyOp37
 70
     1
102
RTVSPropertyOp38
 70
     1
102
RTVSPropertyOp39
 70
     1
102
RTVSPropertyOp40
 70
     1
102
RTVSPropertyOp41
 70
     1
102
RTVSPropertyOp42
 70
     1
102
RTVSPropertyOp43
 70
     1
102
RTVSPropertyOp44
 70
     1
102
RTVSPropertyOp45
 70
     1
102
RTVSPropertyOp46
 70
     1
102
RTVSPropertyOp47
 70
     1
102
RTVSPropertyOp48
 70
     1
102
RTVSPropertyOp49
 70
     1
102
RTVSPropertyOp50
 70
     1
102
RTVSPropertyOp51
 70
     0
102
RTVSPropertyOp52
 70
     0
102
RTVSPropertyOp53
 70
     1
102
RTVSPropertyOp54
 70
     1
102
RTVSPropertyOp55
 70
     1
102
RTVSPropertyOp56
 70
     1
102
RTVSPropertyOp57
 70
     1
102
RTVSPropertyOp58
 70
     1
102
RTVSPropertyOp59
 70
     1
102
RTVSPropertyOp60
 70
     1
102
RTVSPropertyOp61
 70
     1
102
RTVSPropertyOp62
 70
     1
  0
XRECORD
  5
141F
102
{ACAD_REACTORS
330
141E
102
}
330
141E
100
AcDbXrecord
280
     1
102
RTVSPost2010Prop28
280
     0
102
RTVSPost2010PropOp28
 70
     1
102
RTVSPost2010Prop29
280
     1
102
RTVSPost2010PropOp29
 70
     1
102
RTVSPost2010Prop30
280
     1
102
RTVSPost2010PropOp30
 70
     1
102
RTVSPost2010Prop31
280
     0
102
RTVSPost2010PropOp31
 70
     1
102
RTVSPost2010Prop32
280
     0
102
RTVSPost2010PropOp32
 70
     1
102
RTVSPost2010Prop33
280
     0
102
RTVSPost2010PropOp33
 70
     1
102
RTVSPost2010Prop34
280
     0
102
RTVSPost2010PropOp34
 70
     1
102
RTVSPost2010Prop35
280
     0
102
RTVSPost2010PropOp35
 70
     1
102
RTVSPost2010Prop36
280
     0
102
RTVSPost2010PropOp36
 70
     1
102
RTVSPost2010Prop37
 90
       50
102
RTVSPost2010PropOp37
 70
     1
102
RTVSPost2010Prop38
140
0.0
102
RTVSPost2010PropOp38
 70
     1
102
RTVSPost2010Prop39
140
1.0
102
RTVSPost2010PropOp39
 70
     1
102
RTVSPost2010Prop40
 90
        0
102
RTVSPost2010PropOp40
 70
     1
102
RTVSPost2010Prop41ColorIndex
 90
       18
102
RTVSPost2010Prop41ColorRGB
 90
        0
102
RTVSPost2010PropOp41
 70
     1
102
RTVSPost2010Prop42
 90
       50
102
RTVSPost2010PropOp42
 70
     1
102
RTVSPost2010Prop43
 90
        3
102
RTVSPost2010PropOp43
 70
     1
102
RTVSPost2010Prop44ColorIndex
 90
        5
102
RTVSPost2010Prop44ColorRGB
 90
      255
102
RTVSPost2010PropOp44
 70
     1
102
RTVSPost2010Prop45
280
     0
102
RTVSPost2010PropOp45
 70
     1
102
RTVSPost2010Prop46
 90
       50
102
RTVSPost2010PropOp46
 70
     1
102
RTVSPost2010Prop47
 90
       50
102
RTVSPost2010PropOp47
 70
     1
102
RTVSPost2010Prop48
 90
       50
102
RTVSPost2010PropOp48
 70
     1
102
RTVSPost2010Prop49
280
     0
102
RTVSPost2010PropOp49
 70
     1
102
RTVSPost2010Prop50
 90
       50
102
RTVSPost2010PropOp50
 70
     1
102
RTVSPost2010Prop51ColorIndex
 90
      256
102
RTVSPost2010Prop51ColorRGB
 90
-16777216
102
RTVSPost2010PropOp51
 70
     0
102
RTVSPost2010Prop52
140
1.0
102
RTVSPost2010PropOp52
 70
     0
102
RTVSPost2010Prop53
 90
        2
102
RTVSPost2010PropOp53
 70
     1
102
RTVSPost2010Prop54
  1
strokes_ogs.tif
102
RTVSPost2010PropOp54
 70
     1
102
RTVSPost2010Prop55
280
     0
102
RTVSPost2010PropOp55
 70
     1
102
RTVSPost2010Prop56
140
1.0
102
RTVSPost2010PropOp56
 70
     1
102
RTVSPost2010Prop57
140
1.0
102
RTVSPost2010PropOp57
 70
     1
102
RTVSPropertyOp0
 70
     1
102
RTVSPropertyOp1
 70
     1
102
RTVSPropertyOp2
 70
     1
102
RTVSPropertyOp3
 70
     1
102
RTVSPropertyOp4
 70
     1
102
RTVSPropertyOp5
 70
     1
102
RTVSPropertyOp6
 70
     1
102
RTVSPropertyOp7
 70
     1
102
RTVSPropertyOp8
 70
     1
102
RTVSPropertyOp9
 70
     1
102
RTVSPropertyOp10
 70
     1
102
RTVSPropertyOp11
 70
     1
102
RTVSPropertyOp12
 70
     1
102
RTVSPropertyOp13
 70
     1
102
RTVSPropertyOp14
 70
     1
102
RTVSPropertyOp15
 70
     1
102
RTVSPropertyOp16
 70
     1
102
RTVSPropertyOp17
 70
     1
102
RTVSPropertyOp18
 70
     1
102
RTVSPropertyOp19
 70
     1
102
RTVSPropertyOp20
 70
     1
102
RTVSPropertyOp21
 70
     1
102
RTVSPropertyOp22
 70
     1
102
RTVSPropertyOp23
 70
     1
102
RTVSPropertyOp24
 70
     1
102
RTVSPropertyOp25
 70
     1
102
RTVSPropertyOp26
 70
     1
102
RTVSPropertyOp27
 70
     1
102
RTVSPropertyOp28
 70
     1
102
RTVSPropertyOp29
 70
     1
102
RTVSPropertyOp30
 70
     1
102
RTVSPropertyOp31
 70
     1
102
RTVSPropertyOp32
 70
     1
102
RTVSPropertyOp33
 70
     1
102
RTVSPropertyOp34
 70
     1
102
RTVSPropertyOp35
 70
     1
102
RTVSPropertyOp36
 70
     1
102
RTVSPropertyOp37
 70
     1
102
RTVSPropertyOp38
 70
     1
102
RTVSPropertyOp39
 70
     1
102
RTVSPropertyOp40
 70
     1
102
RTVSPropertyOp41
 70
     1
102
RTVSPropertyOp42
 70
     1
102
RTVSPropertyOp43
 70
     1
102
RTVSPropertyOp44
 70
     1
102
RTVSPropertyOp45
 70
     1
102
RTVSPropertyOp46
 70
     1
102
RTVSPropertyOp47
 70
     1
102
RTVSPropertyOp48
 70
     1
102
RTVSPropertyOp49
 70
     1
102
RTVSPropertyOp50
 70
     1
102
RTVSPropertyOp51
 70
     0
102
RTVSPropertyOp52
 70
     0
102
RTVSPropertyOp53
 70
     1
102
RTVSPropertyOp54
 70
     1
102
RTVSPropertyOp55
 70
     1
102
RTVSPropertyOp56
 70
     1
102
RTVSPropertyOp57
 70
     1
102
RTVSPropertyOp58
 70
     1
102
RTVSPropertyOp59
 70
     1
102
RTVSPropertyOp60
 70
     1
102
RTVSPropertyOp61
 70
     1
102
RTVSPropertyOp62
 70
     1
  0
XRECORD
  5
1427
102
{ACAD_REACTORS
330
1426
102
}
330
1426
100
AcDbXrecord
280
     1
102
RTVSPost2010Prop28
280
     0
102
RTVSPost2010PropOp28
 70
     1
102
RTVSPost2010Prop29
280
     1
102
RTVSPost2010PropOp29
 70
     1
102
RTVSPost2010Prop30
280
     1
102
RTVSPost2010PropOp30
 70
     1
102
RTVSPost2010Prop31
280
     0
102
RTVSPost2010PropOp31
 70
     1
102
RTVSPost2010Prop32
280
     0
102
RTVSPost2010PropOp32
 70
     1
102
RTVSPost2010Prop33
280
     0
102
RTVSPost2010PropOp33
 70
     1
102
RTVSPost2010Prop34
280
     0
102
RTVSPost2010PropOp34
 70
     1
102
RTVSPost2010Prop35
280
     0
102
RTVSPost2010PropOp35
 70
     1
102
RTVSPost2010Prop36
280
     0
102
RTVSPost2010PropOp36
 70
     1
102
RTVSPost2010Prop37
 90
       50
102
RTVSPost2010PropOp37
 70
     1
102
RTVSPost2010Prop38
140
0.0
102
RTVSPost2010PropOp38
 70
     1
102
RTVSPost2010Prop39
140
1.0
102
RTVSPost2010PropOp39
 70
     1
102
RTVSPost2010Prop40
 90
        0
102
RTVSPost2010PropOp40
 70
     1
102
RTVSPost2010Prop41ColorIndex
 90
       18
102
RTVSPost2010Prop41ColorRGB
 90
        0
102
RTVSPost2010PropOp41
 70
     1
102
RTVSPost2010Prop42
 90
       50
102
RTVSPost2010PropOp42
 70
     1
102
RTVSPost2010Prop43
 90
        3
102
RTVSPost2010PropOp43
 70
     1
102
RTVSPost2010Prop44ColorIndex
 90
        5
102
RTVSPost2010Prop44ColorRGB
 90
      255
102
RTVSPost2010PropOp44
 70
     1
102
RTVSPost2010Prop45
280
     0
102
RTVSPost2010PropOp45
 70
     1
102
RTVSPost2010Prop46
 90
       50
102
RTVSPost2010PropOp46
 70
     1
102
RTVSPost2010Prop47
 90
       50
102
RTVSPost2010PropOp47
 70
     1
102
RTVSPost2010Prop48
 90
       50
102
RTVSPost2010PropOp48
 70
     1
102
RTVSPost2010Prop49
280
     0
102
RTVSPost2010PropOp49
 70
     1
102
RTVSPost2010Prop50
 90
       50
102
RTVSPost2010PropOp50
 70
     1
102
RTVSPost2010Prop51ColorIndex
 90
      256
102
RTVSPost2010Prop51ColorRGB
 90
-16777216
102
RTVSPost2010PropOp51
 70
     0
102
RTVSPost2010Prop52
140
1.0
102
RTVSPost2010PropOp52
 70
     0
102
RTVSPost2010Prop53
 90
        2
102
RTVSPost2010PropOp53
 70
     1
102
RTVSPost2010Prop54
  1
strokes_ogs.tif
102
RTVSPost2010PropOp54
 70
     1
102
RTVSPost2010Prop55
280
     0
102
RTVSPost2010PropOp55
 70
     1
102
RTVSPost2010Prop56
140
1.0
102
RTVSPost2010PropOp56
 70
     1
102
RTVSPost2010Prop57
140
1.0
102
RTVSPost2010PropOp57
 70
     1
102
RTVSPropertyOp0
 70
     1
102
RTVSPropertyOp1
 70
     1
102
RTVSPropertyOp2
 70
     1
102
RTVSPropertyOp3
 70
     1
102
RTVSPropertyOp4
 70
     1
102
RTVSPropertyOp5
 70
     1
102
RTVSPropertyOp6
 70
     1
102
RTVSPropertyOp7
 70
     1
102
RTVSPropertyOp8
 70
     1
102
RTVSPropertyOp9
 70
     1
102
RTVSPropertyOp10
 70
     1
102
RTVSPropertyOp11
 70
     1
102
RTVSPropertyOp12
 70
     1
102
RTVSPropertyOp13
 70
     1
102
RTVSPropertyOp14
 70
     1
102
RTVSPropertyOp15
 70
     1
102
RTVSPropertyOp16
 70
     1
102
RTVSPropertyOp17
 70
     1
102
RTVSPropertyOp18
 70
     1
102
RTVSPropertyOp19
 70
     1
102
RTVSPropertyOp20
 70
     1
102
RTVSPropertyOp21
 70
     1
102
RTVSPropertyOp22
 70
     1
102
RTVSPropertyOp23
 70
     1
102
RTVSPropertyOp24
 70
     1
102
RTVSPropertyOp25
 70
     1
102
RTVSPropertyOp26
 70
     1
102
RTVSPropertyOp27
 70
     1
102
RTVSPropertyOp28
 70
     1
102
RTVSPropertyOp29
 70
     1
102
RTVSPropertyOp30
 70
     1
102
RTVSPropertyOp31
 70
     1
102
RTVSPropertyOp32
 70
     1
102
RTVSPropertyOp33
 70
     1
102
RTVSPropertyOp34
 70
     1
102
RTVSPropertyOp35
 70
     1
102
RTVSPropertyOp36
 70
     1
102
RTVSPropertyOp37
 70
     1
102
RTVSPropertyOp38
 70
     1
102
RTVSPropertyOp39
 70
     1
102
RTVSPropertyOp40
 70
     1
102
RTVSPropertyOp41
 70
     1
102
RTVSPropertyOp42
 70
     1
102
RTVSPropertyOp43
 70
     1
102
RTVSPropertyOp44
 70
     1
102
RTVSPropertyOp45
 70
     1
102
RTVSPropertyOp46
 70
     1
102
RTVSPropertyOp47
 70
     1
102
RTVSPropertyOp48
 70
     1
102
RTVSPropertyOp49
 70
     1
102
RTVSPropertyOp50
 70
     1
102
RTVSPropertyOp51
 70
     0
102
RTVSPropertyOp52
 70
     0
102
RTVSPropertyOp53
 70
     1
102
RTVSPropertyOp54
 70
     1
102
RTVSPropertyOp55
 70
     1
102
RTVSPropertyOp56
 70
     1
102
RTVSPropertyOp57
 70
     1
102
RTVSPropertyOp58
 70
     1
102
RTVSPropertyOp59
 70
     1
102
RTVSPropertyOp60
 70
     1
102
RTVSPropertyOp61
 70
     1
102
RTVSPropertyOp62
 70
     1
  0
XRECORD
  5
1443
102
{ACAD_REACTORS
330
1442
102
}
330
1442
100
AcDbXrecord
280
     1
102
RTVSPost2010Prop28
280
     0
102
RTVSPost2010PropOp28
 70
     1
102
RTVSPost2010Prop29
280
     1
102
RTVSPost2010PropOp29
 70
     1
102
RTVSPost2010Prop30
280
     1
102
RTVSPost2010PropOp30
 70
     1
102
RTVSPost2010Prop31
280
     0
102
RTVSPost2010PropOp31
 70
     1
102
RTVSPost2010Prop32
280
     0
102
RTVSPost2010PropOp32
 70
     1
102
RTVSPost2010Prop33
280
     0
102
RTVSPost2010PropOp33
 70
     1
102
RTVSPost2010Prop34
280
     0
102
RTVSPost2010PropOp34
 70
     1
102
RTVSPost2010Prop35
280
     0
102
RTVSPost2010PropOp35
 70
     1
102
RTVSPost2010Prop36
280
     0
102
RTVSPost2010PropOp36
 70
     1
102
RTVSPost2010Prop37
 90
       50
102
RTVSPost2010PropOp37
 70
     0
102
RTVSPost2010Prop38
140
0.0
102
RTVSPost2010PropOp38
 70
     0
102
RTVSPost2010Prop39
140
1.0
102
RTVSPost2010PropOp39
 70
     0
102
RTVSPost2010Prop40
 90
        0
102
RTVSPost2010PropOp40
 70
     0
102
RTVSPost2010Prop41ColorIndex
 90
       18
102
RTVSPost2010Prop41ColorRGB
 90
        0
102
RTVSPost2010PropOp41
 70
     0
102
RTVSPost2010Prop42
 90
       50
102
RTVSPost2010PropOp42
 70
     0
102
RTVSPost2010Prop43
 90
        3
102
RTVSPost2010PropOp43
 70
     0
102
RTVSPost2010Prop44ColorIndex
 90
        5
102
RTVSPost2010Prop44ColorRGB
 90
      255
102
RTVSPost2010PropOp44
 70
     0
102
RTVSPost2010Prop45
280
     0
102
RTVSPost2010PropOp45
 70
     1
102
RTVSPost2010Prop46
 90
       50
102
RTVSPost2010PropOp46
 70
     0
102
RTVSPost2010Prop47
 90
       50
102
RTVSPost2010PropOp47
 70
     0
102
RTVSPost2010Prop48
 90
       50
102
RTVSPost2010PropOp48
 70
     0
102
RTVSPost2010Prop49
280
     0
102
RTVSPost2010PropOp49
 70
     1
102
RTVSPost2010Prop50
 90
       50
102
RTVSPost2010PropOp50
 70
     0
102
RTVSPost2010Prop51ColorIndex
 90
      256
102
RTVSPost2010Prop51ColorRGB
 90
-16777216
102
RTVSPost2010PropOp51
 70
     0
102
RTVSPost2010Prop52
140
1.0
102
RTVSPost2010PropOp52
 70
     0
102
RTVSPost2010Prop53
 90
        2
102
RTVSPost2010PropOp53
 70
     0
102
RTVSPost2010Prop54
  1
strokes_ogs.tif
102
RTVSPost2010PropOp54
 70
     0
102
RTVSPost2010Prop55
280
     0
102
RTVSPost2010PropOp55
 70
     1
102
RTVSPost2010Prop56
140
1.0
102
RTVSPost2010PropOp56
 70
     0
102
RTVSPost2010Prop57
140
1.0
102
RTVSPost2010PropOp57
 70
     0
102
RTVSPropertyOp0
 70
     0
102
RTVSPropertyOp1
 70
     0
102
RTVSPropertyOp2
 70
     0
102
RTVSPropertyOp3
 70
     0
102
RTVSPropertyOp4
 70
     0
102
RTVSPropertyOp5
 70
     0
102
RTVSPropertyOp6
 70
     0
102
RTVSPropertyOp7
 70
     0
102
RTVSPropertyOp8
 70
     0
102
RTVSPropertyOp9
 70
     0
102
RTVSPropertyOp10
 70
     0
102
RTVSPropertyOp11
 70
     0
102
RTVSPropertyOp12
 70
     0
102
RTVSPropertyOp13
 70
     0
102
RTVSPropertyOp14
 70
     2
102
RTVSPropertyOp15
 70
     0
102
RTVSPropertyOp16
 70
     0
102
RTVSPropertyOp17
 70
     0
102
RTVSPropertyOp18
 70
     0
102
RTVSPropertyOp19
 70
     0
102
RTVSPropertyOp20
 70
     0
102
RTVSPropertyOp21
 70
     0
102
RTVSPropertyOp22
 70
     0
102
RTVSPropertyOp23
 70
     0
102
RTVSPropertyOp24
 70
     0
102
RTVSPropertyOp25
 70
     0
102
RTVSPropertyOp26
 70
     0
102
RTVSPropertyOp27
 70
     0
102
RTVSPropertyOp28
 70
     1
102
RTVSPropertyOp29
 70
     1
102
RTVSPropertyOp30
 70
     1
102
RTVSPropertyOp31
 70
     1
102
RTVSPropertyOp32
 70
     1
102
RTVSPropertyOp33
 70
     1
102
RTVSPropertyOp34
 70
     1
102
RTVSPropertyOp35
 70
     1
102
RTVSPropertyOp36
 70
     1
102
RTVSPropertyOp37
 70
     0
102
RTVSPropertyOp38
 70
     0
102
RTVSPropertyOp39
 70
     0
102
RTVSPropertyOp40
 70
     0
102
RTVSPropertyOp41
 70
     0
102
RTVSPropertyOp42
 70
     0
102
RTVSPropertyOp43
 70
     0
102
RTVSPropertyOp44
 70
     0
102
RTVSPropertyOp45
 70
     1
102
RTVSPropertyOp46
 70
     0
102
RTVSPropertyOp47
 70
     0
102
RTVSPropertyOp48
 70
     0
102
RTVSPropertyOp49
 70
     1
102
RTVSPropertyOp50
 70
     0
102
RTVSPropertyOp51
 70
     0
102
RTVSPropertyOp52
 70
     0
102
RTVSPropertyOp53
 70
     0
102
RTVSPropertyOp54
 70
     0
102
RTVSPropertyOp55
 70
     1
102
RTVSPropertyOp56
 70
     0
102
RTVSPropertyOp57
 70
     0
102
RTVSPropertyOp58
 70
     0
102
RTVSPropertyOp59
 70
     0
102
RTVSPropertyOp60
 70
     0
102
RTVSPropertyOp61
 70
     0
102
RTVSPropertyOp62
 70
     0
  0
XRECORD
  5
1433
102
{ACAD_REACTORS
330
1432
102
}
330
1432
100
AcDbXrecord
280
     1
102
RTVSPost2010Prop28
280
     0
102
RTVSPost2010PropOp28
 70
     1
102
RTVSPost2010Prop29
280
     1
102
RTVSPost2010PropOp29
 70
     1
102
RTVSPost2010Prop30
280
     1
102
RTVSPost2010PropOp30
 70
     1
102
RTVSPost2010Prop31
280
     0
102
RTVSPost2010PropOp31
 70
     1
102
RTVSPost2010Prop32
280
     0
102
RTVSPost2010PropOp32
 70
     1
102
RTVSPost2010Prop33
280
     0
102
RTVSPost2010PropOp33
 70
     1
102
RTVSPost2010Prop34
280
     0
102
RTVSPost2010PropOp34
 70
     1
102
RTVSPost2010Prop35
280
     0
102
RTVSPost2010PropOp35
 70
     1
102
RTVSPost2010Prop36
280
     0
102
RTVSPost2010PropOp36
 70
     1
102
RTVSPost2010Prop37
 90
       50
102
RTVSPost2010PropOp37
 70
     1
102
RTVSPost2010Prop38
140
0.0
102
RTVSPost2010PropOp38
 70
     1
102
RTVSPost2010Prop39
140
1.0
102
RTVSPost2010PropOp39
 70
     1
102
RTVSPost2010Prop40
 90
        0
102
RTVSPost2010PropOp40
 70
     1
102
RTVSPost2010Prop41ColorIndex
 90
       18
102
RTVSPost2010Prop41ColorRGB
 90
        0
102
RTVSPost2010PropOp41
 70
     1
102
RTVSPost2010Prop42
 90
       50
102
RTVSPost2010PropOp42
 70
     1
102
RTVSPost2010Prop43
 90
        3
102
RTVSPost2010PropOp43
 70
     1
102
RTVSPost2010Prop44ColorIndex
 90
        5
102
RTVSPost2010Prop44ColorRGB
 90
      255
102
RTVSPost2010PropOp44
 70
     1
102
RTVSPost2010Prop45
280
     0
102
RTVSPost2010PropOp45
 70
     1
102
RTVSPost2010Prop46
 90
       50
102
RTVSPost2010PropOp46
 70
     1
102
RTVSPost2010Prop47
 90
       50
102
RTVSPost2010PropOp47
 70
     1
102
RTVSPost2010Prop48
 90
       50
102
RTVSPost2010PropOp48
 70
     1
102
RTVSPost2010Prop49
280
     0
102
RTVSPost2010PropOp49
 70
     1
102
RTVSPost2010Prop50
 90
       50
102
RTVSPost2010PropOp50
 70
     1
102
RTVSPost2010Prop51ColorIndex
 90
      256
102
RTVSPost2010Prop51ColorRGB
 90
-16777216
102
RTVSPost2010PropOp51
 70
     0
102
RTVSPost2010Prop52
140
1.0
102
RTVSPost2010PropOp52
 70
     0
102
RTVSPost2010Prop53
 90
        2
102
RTVSPost2010PropOp53
 70
     1
102
RTVSPost2010Prop54
  1
strokes_ogs.tif
102
RTVSPost2010PropOp54
 70
     1
102
RTVSPost2010Prop55
280
     0
102
RTVSPost2010PropOp55
 70
     1
102
RTVSPost2010Prop56
140
1.0
102
RTVSPost2010PropOp56
 70
     1
102
RTVSPost2010Prop57
140
1.0
102
RTVSPost2010PropOp57
 70
     1
102
RTVSPropertyOp0
 70
     1
102
RTVSPropertyOp1
 70
     1
102
RTVSPropertyOp2
 70
     1
102
RTVSPropertyOp3
 70
     1
102
RTVSPropertyOp4
 70
     1
102
RTVSPropertyOp5
 70
     1
102
RTVSPropertyOp6
 70
     1
102
RTVSPropertyOp7
 70
     1
102
RTVSPropertyOp8
 70
     1
102
RTVSPropertyOp9
 70
     1
102
RTVSPropertyOp10
 70
     1
102
RTVSPropertyOp11
 70
     1
102
RTVSPropertyOp12
 70
     1
102
RTVSPropertyOp13
 70
     1
102
RTVSPropertyOp14
 70
     1
102
RTVSPropertyOp15
 70
     1
102
RTVSPropertyOp16
 70
     1
102
RTVSPropertyOp17
 70
     1
102
RTVSPropertyOp18
 70
     1
102
RTVSPropertyOp19
 70
     1
102
RTVSPropertyOp20
 70
     1
102
RTVSPropertyOp21
 70
     1
102
RTVSPropertyOp22
 70
     1
102
RTVSPropertyOp23
 70
     1
102
RTVSPropertyOp24
 70
     1
102
RTVSPropertyOp25
 70
     1
102
RTVSPropertyOp26
 70
     1
102
RTVSPropertyOp27
 70
     1
102
RTVSPropertyOp28
 70
     1
102
RTVSPropertyOp29
 70
     1
102
RTVSPropertyOp30
 70
     1
102
RTVSPropertyOp31
 70
     1
102
RTVSPropertyOp32
 70
     1
102
RTVSPropertyOp33
 70
     1
102
RTVSPropertyOp34
 70
     1
102
RTVSPropertyOp35
 70
     1
102
RTVSPropertyOp36
 70
     1
102
RTVSPropertyOp37
 70
     1
102
RTVSPropertyOp38
 70
     1
102
RTVSPropertyOp39
 70
     1
102
RTVSPropertyOp40
 70
     1
102
RTVSPropertyOp41
 70
     1
102
RTVSPropertyOp42
 70
     1
102
RTVSPropertyOp43
 70
     1
102
RTVSPropertyOp44
 70
     1
102
RTVSPropertyOp45
 70
     1
102
RTVSPropertyOp46
 70
     1
102
RTVSPropertyOp47
 70
     1
102
RTVSPropertyOp48
 70
     1
102
RTVSPropertyOp49
 70
     1
102
RTVSPropertyOp50
 70
     1
102
RTVSPropertyOp51
 70
     0
102
RTVSPropertyOp52
 70
     0
102
RTVSPropertyOp53
 70
     1
102
RTVSPropertyOp54
 70
     1
102
RTVSPropertyOp55
 70
     1
102
RTVSPropertyOp56
 70
     1
102
RTVSPropertyOp57
 70
     1
102
RTVSPropertyOp58
 70
     1
102
RTVSPropertyOp59
 70
     1
102
RTVSPropertyOp60
 70
     1
102
RTVSPropertyOp61
 70
     1
102
RTVSPropertyOp62
 70
     1
  0
XRECORD
  5
1445
102
{ACAD_REACTORS
330
1444
102
}
330
1444
100
AcDbXrecord
280
     1
102
RTVSPost2010Prop28
280
     0
102
RTVSPost2010PropOp28
 70
     1
102
RTVSPost2010Prop29
280
     1
102
RTVSPost2010PropOp29
 70
     1
102
RTVSPost2010Prop30
280
     1
102
RTVSPost2010PropOp30
 70
     1
102
RTVSPost2010Prop31
280
     0
102
RTVSPost2010PropOp31
 70
     1
102
RTVSPost2010Prop32
280
     0
102
RTVSPost2010PropOp32
 70
     1
102
RTVSPost2010Prop33
280
     0
102
RTVSPost2010PropOp33
 70
     1
102
RTVSPost2010Prop34
280
     0
102
RTVSPost2010PropOp34
 70
     1
102
RTVSPost2010Prop35
280
     0
102
RTVSPost2010PropOp35
 70
     1
102
RTVSPost2010Prop36
280
     0
102
RTVSPost2010PropOp36
 70
     1
102
RTVSPost2010Prop37
 90
       50
102
RTVSPost2010PropOp37
 70
     0
102
RTVSPost2010Prop38
140
0.0
102
RTVSPost2010PropOp38
 70
     0
102
RTVSPost2010Prop39
140
1.0
102
RTVSPost2010PropOp39
 70
     0
102
RTVSPost2010Prop40
 90
        0
102
RTVSPost2010PropOp40
 70
     0
102
RTVSPost2010Prop41ColorIndex
 90
       18
102
RTVSPost2010Prop41ColorRGB
 90
        0
102
RTVSPost2010PropOp41
 70
     0
102
RTVSPost2010Prop42
 90
       50
102
RTVSPost2010PropOp42
 70
     0
102
RTVSPost2010Prop43
 90
        3
102
RTVSPost2010PropOp43
 70
     0
102
RTVSPost2010Prop44ColorIndex
 90
        5
102
RTVSPost2010Prop44ColorRGB
 90
      255
102
RTVSPost2010PropOp44
 70
     0
102
RTVSPost2010Prop45
280
     0
102
RTVSPost2010PropOp45
 70
     1
102
RTVSPost2010Prop46
 90
       50
102
RTVSPost2010PropOp46
 70
     0
102
RTVSPost2010Prop47
 90
       50
102
RTVSPost2010PropOp47
 70
     0
102
RTVSPost2010Prop48
 90
       50
102
RTVSPost2010PropOp48
 70
     0
102
RTVSPost2010Prop49
280
     0
102
RTVSPost2010PropOp49
 70
     1
102
RTVSPost2010Prop50
 90
       50
102
RTVSPost2010PropOp50
 70
     0
102
RTVSPost2010Prop51ColorIndex
 90
      256
102
RTVSPost2010Prop51ColorRGB
 90
-16777216
102
RTVSPost2010PropOp51
 70
     0
102
RTVSPost2010Prop52
140
1.0
102
RTVSPost2010PropOp52
 70
     0
102
RTVSPost2010Prop53
 90
        2
102
RTVSPost2010PropOp53
 70
     0
102
RTVSPost2010Prop54
  1
strokes_ogs.tif
102
RTVSPost2010PropOp54
 70
     0
102
RTVSPost2010Prop55
280
     0
102
RTVSPost2010PropOp55
 70
     1
102
RTVSPost2010Prop56
140
1.0
102
RTVSPost2010PropOp56
 70
     0
102
RTVSPost2010Prop57
140
1.0
102
RTVSPost2010PropOp57
 70
     0
102
RTVSPropertyOp0
 70
     0
102
RTVSPropertyOp1
 70
     0
102
RTVSPropertyOp2
 70
     0
102
RTVSPropertyOp3
 70
     0
102
RTVSPropertyOp4
 70
     0
102
RTVSPropertyOp5
 70
     0
102
RTVSPropertyOp6
 70
     0
102
RTVSPropertyOp7
 70
     0
102
RTVSPropertyOp8
 70
     0
102
RTVSPropertyOp9
 70
     0
102
RTVSPropertyOp10
 70
     0
102
RTVSPropertyOp11
 70
     0
102
RTVSPropertyOp12
 70
     0
102
RTVSPropertyOp13
 70
     0
102
RTVSPropertyOp14
 70
     2
102
RTVSPropertyOp15
 70
     0
102
RTVSPropertyOp16
 70
     0
102
RTVSPropertyOp17
 70
     0
102
RTVSPropertyOp18
 70
     0
102
RTVSPropertyOp19
 70
     0
102
RTVSPropertyOp20
 70
     0
102
RTVSPropertyOp21
 70
     0
102
RTVSPropertyOp22
 70
     0
102
RTVSPropertyOp23
 70
     0
102
RTVSPropertyOp24
 70
     0
102
RTVSPropertyOp25
 70
     0
102
RTVSPropertyOp26
 70
     0
102
RTVSPropertyOp27
 70
     0
102
RTVSPropertyOp28
 70
     1
102
RTVSPropertyOp29
 70
     1
102
RTVSPropertyOp30
 70
     1
102
RTVSPropertyOp31
 70
     1
102
RTVSPropertyOp32
 70
     1
102
RTVSPropertyOp33
 70
     1
102
RTVSPropertyOp34
 70
     1
102
RTVSPropertyOp35
 70
     1
102
RTVSPropertyOp36
 70
     1
102
RTVSPropertyOp37
 70
     0
102
RTVSPropertyOp38
 70
     0
102
RTVSPropertyOp39
 70
     0
102
RTVSPropertyOp40
 70
     0
102
RTVSPropertyOp41
 70
     0
102
RTVSPropertyOp42
 70
     0
102
RTVSPropertyOp43
 70
     0
102
RTVSPropertyOp44
 70
     0
102
RTVSPropertyOp45
 70
     1
102
RTVSPropertyOp46
 70
     0
102
RTVSPropertyOp47
 70
     0
102
RTVSPropertyOp48
 70
     0
102
RTVSPropertyOp49
 70
     1
102
RTVSPropertyOp50
 70
     0
102
RTVSPropertyOp51
 70
     0
102
RTVSPropertyOp52
 70
     0
102
RTVSPropertyOp53
 70
     0
102
RTVSPropertyOp54
 70
     0
102
RTVSPropertyOp55
 70
     1
102
RTVSPropertyOp56
 70
     0
102
RTVSPropertyOp57
 70
     0
102
RTVSPropertyOp58
 70
     0
102
RTVSPropertyOp59
 70
     0
102
RTVSPropertyOp60
 70
     0
102
RTVSPropertyOp61
 70
     0
102
RTVSPropertyOp62
 70
     0
  0
XRECORD
  5
142B
102
{ACAD_REACTORS
330
142A
102
}
330
142A
100
AcDbXrecord
280
     1
102
RTVSPost2010Prop28
280
     0
102
RTVSPost2010PropOp28
 70
     1
102
RTVSPost2010Prop29
280
     1
102
RTVSPost2010PropOp29
 70
     1
102
RTVSPost2010Prop30
280
     1
102
RTVSPost2010PropOp30
 70
     1
102
RTVSPost2010Prop31
280
     0
102
RTVSPost2010PropOp31
 70
     1
102
RTVSPost2010Prop32
280
     0
102
RTVSPost2010PropOp32
 70
     1
102
RTVSPost2010Prop33
280
     0
102
RTVSPost2010PropOp33
 70
     1
102
RTVSPost2010Prop34
280
     0
102
RTVSPost2010PropOp34
 70
     1
102
RTVSPost2010Prop35
280
     0
102
RTVSPost2010PropOp35
 70
     1
102
RTVSPost2010Prop36
280
     0
102
RTVSPost2010PropOp36
 70
     1
102
RTVSPost2010Prop37
 90
       50
102
RTVSPost2010PropOp37
 70
     1
102
RTVSPost2010Prop38
140
0.0
102
RTVSPost2010PropOp38
 70
     1
102
RTVSPost2010Prop39
140
1.0
102
RTVSPost2010PropOp39
 70
     1
102
RTVSPost2010Prop40
 90
        0
102
RTVSPost2010PropOp40
 70
     1
102
RTVSPost2010Prop41ColorIndex
 90
       18
102
RTVSPost2010Prop41ColorRGB
 90
        0
102
RTVSPost2010PropOp41
 70
     1
102
RTVSPost2010Prop42
 90
       50
102
RTVSPost2010PropOp42
 70
     1
102
RTVSPost2010Prop43
 90
        3
102
RTVSPost2010PropOp43
 70
     1
102
RTVSPost2010Prop44ColorIndex
 90
        5
102
RTVSPost2010Prop44ColorRGB
 90
      255
102
RTVSPost2010PropOp44
 70
     1
102
RTVSPost2010Prop45
280
     0
102
RTVSPost2010PropOp45
 70
     1
102
RTVSPost2010Prop46
 90
       50
102
RTVSPost2010PropOp46
 70
     1
102
RTVSPost2010Prop47
 90
       50
102
RTVSPost2010PropOp47
 70
     1
102
RTVSPost2010Prop48
 90
       50
102
RTVSPost2010PropOp48
 70
     1
102
RTVSPost2010Prop49
280
     0
102
RTVSPost2010PropOp49
 70
     1
102
RTVSPost2010Prop50
 90
       50
102
RTVSPost2010PropOp50
 70
     1
102
RTVSPost2010Prop51ColorIndex
 90
      256
102
RTVSPost2010Prop51ColorRGB
 90
-16777216
102
RTVSPost2010PropOp51
 70
     0
102
RTVSPost2010Prop52
140
1.0
102
RTVSPost2010PropOp52
 70
     0
102
RTVSPost2010Prop53
 90
        2
102
RTVSPost2010PropOp53
 70
     1
102
RTVSPost2010Prop54
  1
strokes_ogs.tif
102
RTVSPost2010PropOp54
 70
     1
102
RTVSPost2010Prop55
280
     0
102
RTVSPost2010PropOp55
 70
     1
102
RTVSPost2010Prop56
140
1.0
102
RTVSPost2010PropOp56
 70
     1
102
RTVSPost2010Prop57
140
1.0
102
RTVSPost2010PropOp57
 70
     1
102
RTVSPropertyOp0
 70
     1
102
RTVSPropertyOp1
 70
     1
102
RTVSPropertyOp2
 70
     1
102
RTVSPropertyOp3
 70
     1
102
RTVSPropertyOp4
 70
     1
102
RTVSPropertyOp5
 70
     1
102
RTVSPropertyOp6
 70
     1
102
RTVSPropertyOp7
 70
     1
102
RTVSPropertyOp8
 70
     1
102
RTVSPropertyOp9
 70
     1
102
RTVSPropertyOp10
 70
     1
102
RTVSPropertyOp11
 70
     1
102
RTVSPropertyOp12
 70
     1
102
RTVSPropertyOp13
 70
     1
102
RTVSPropertyOp14
 70
     1
102
RTVSPropertyOp15
 70
     1
102
RTVSPropertyOp16
 70
     1
102
RTVSPropertyOp17
 70
     1
102
RTVSPropertyOp18
 70
     1
102
RTVSPropertyOp19
 70
     1
102
RTVSPropertyOp20
 70
     1
102
RTVSPropertyOp21
 70
     1
102
RTVSPropertyOp22
 70
     1
102
RTVSPropertyOp23
 70
     1
102
RTVSPropertyOp24
 70
     1
102
RTVSPropertyOp25
 70
     1
102
RTVSPropertyOp26
 70
     1
102
RTVSPropertyOp27
 70
     1
102
RTVSPropertyOp28
 70
     1
102
RTVSPropertyOp29
 70
     1
102
RTVSPropertyOp30
 70
     1
102
RTVSPropertyOp31
 70
     1
102
RTVSPropertyOp32
 70
     1
102
RTVSPropertyOp33
 70
     1
102
RTVSPropertyOp34
 70
     1
102
RTVSPropertyOp35
 70
     1
102
RTVSPropertyOp36
 70
     1
102
RTVSPropertyOp37
 70
     1
102
RTVSPropertyOp38
 70
     1
102
RTVSPropertyOp39
 70
     1
102
RTVSPropertyOp40
 70
     1
102
RTVSPropertyOp41
 70
     1
102
RTVSPropertyOp42
 70
     1
102
RTVSPropertyOp43
 70
     1
102
RTVSPropertyOp44
 70
     1
102
RTVSPropertyOp45
 70
     1
102
RTVSPropertyOp46
 70
     1
102
RTVSPropertyOp47
 70
     1
102
RTVSPropertyOp48
 70
     1
102
RTVSPropertyOp49
 70
     1
102
RTVSPropertyOp50
 70
     1
102
RTVSPropertyOp51
 70
     0
102
RTVSPropertyOp52
 70
     0
102
RTVSPropertyOp53
 70
     1
102
RTVSPropertyOp54
 70
     1
102
RTVSPropertyOp55
 70
     1
102
RTVSPropertyOp56
 70
     1
102
RTVSPropertyOp57
 70
     1
102
RTVSPropertyOp58
 70
     1
102
RTVSPropertyOp59
 70
     1
102
RTVSPropertyOp60
 70
     1
102
RTVSPropertyOp61
 70
     1
102
RTVSPropertyOp62
 70
     1
  0
XRECORD
  5
1441
102
{ACAD_REACTORS
330
1440
102
}
330
1440
100
AcDbXrecord
280
     1
102
RTVSPost2010Prop28
280
     0
102
RTVSPost2010PropOp28
 70
     1
102
RTVSPost2010Prop29
280
     1
102
RTVSPost2010PropOp29
 70
     1
102
RTVSPost2010Prop30
280
     1
102
RTVSPost2010PropOp30
 70
     1
102
RTVSPost2010Prop31
280
     0
102
RTVSPost2010PropOp31
 70
     1
102
RTVSPost2010Prop32
280
     0
102
RTVSPost2010PropOp32
 70
     1
102
RTVSPost2010Prop33
280
     0
102
RTVSPost2010PropOp33
 70
     1
102
RTVSPost2010Prop34
280
     0
102
RTVSPost2010PropOp34
 70
     1
102
RTVSPost2010Prop35
280
     0
102
RTVSPost2010PropOp35
 70
     1
102
RTVSPost2010Prop36
280
     0
102
RTVSPost2010PropOp36
 70
     1
102
RTVSPost2010Prop37
 90
       50
102
RTVSPost2010PropOp37
 70
     1
102
RTVSPost2010Prop38
140
0.0
102
RTVSPost2010PropOp38
 70
     1
102
RTVSPost2010Prop39
140
1.0
102
RTVSPost2010PropOp39
 70
     1
102
RTVSPost2010Prop40
 90
        0
102
RTVSPost2010PropOp40
 70
     1
102
RTVSPost2010Prop41ColorIndex
 90
       18
102
RTVSPost2010Prop41ColorRGB
 90
        0
102
RTVSPost2010PropOp41
 70
     1
102
RTVSPost2010Prop42
 90
       50
102
RTVSPost2010PropOp42
 70
     1
102
RTVSPost2010Prop43
 90
        3
102
RTVSPost2010PropOp43
 70
     1
102
RTVSPost2010Prop44ColorIndex
 90
        5
102
RTVSPost2010Prop44ColorRGB
 90
      255
102
RTVSPost2010PropOp44
 70
     1
102
RTVSPost2010Prop45
280
     0
102
RTVSPost2010PropOp45
 70
     1
102
RTVSPost2010Prop46
 90
       50
102
RTVSPost2010PropOp46
 70
     1
102
RTVSPost2010Prop47
 90
       50
102
RTVSPost2010PropOp47
 70
     1
102
RTVSPost2010Prop48
 90
       50
102
RTVSPost2010PropOp48
 70
     1
102
RTVSPost2010Prop49
280
     0
102
RTVSPost2010PropOp49
 70
     1
102
RTVSPost2010Prop50
 90
       50
102
RTVSPost2010PropOp50
 70
     1
102
RTVSPost2010Prop51ColorIndex
 90
      256
102
RTVSPost2010Prop51ColorRGB
 90
-16777216
102
RTVSPost2010PropOp51
 70
     0
102
RTVSPost2010Prop52
140
1.0
102
RTVSPost2010PropOp52
 70
     0
102
RTVSPost2010Prop53
 90
        2
102
RTVSPost2010PropOp53
 70
     1
102
RTVSPost2010Prop54
  1
strokes_ogs.tif
102
RTVSPost2010PropOp54
 70
     1
102
RTVSPost2010Prop55
280
     0
102
RTVSPost2010PropOp55
 70
     1
102
RTVSPost2010Prop56
140
1.0
102
RTVSPost2010PropOp56
 70
     1
102
RTVSPost2010Prop57
140
1.0
102
RTVSPost2010PropOp57
 70
     1
102
RTVSPropertyOp0
 70
     1
102
RTVSPropertyOp1
 70
     1
102
RTVSPropertyOp2
 70
     1
102
RTVSPropertyOp3
 70
     1
102
RTVSPropertyOp4
 70
     1
102
RTVSPropertyOp5
 70
     1
102
RTVSPropertyOp6
 70
     1
102
RTVSPropertyOp7
 70
     1
102
RTVSPropertyOp8
 70
     1
102
RTVSPropertyOp9
 70
     1
102
RTVSPropertyOp10
 70
     1
102
RTVSPropertyOp11
 70
     1
102
RTVSPropertyOp12
 70
     1
102
RTVSPropertyOp13
 70
     1
102
RTVSPropertyOp14
 70
     1
102
RTVSPropertyOp15
 70
     1
102
RTVSPropertyOp16
 70
     1
102
RTVSPropertyOp17
 70
     1
102
RTVSPropertyOp18
 70
     1
102
RTVSPropertyOp19
 70
     1
102
RTVSPropertyOp20
 70
     1
102
RTVSPropertyOp21
 70
     1
102
RTVSPropertyOp22
 70
     1
102
RTVSPropertyOp23
 70
     1
102
RTVSPropertyOp24
 70
     1
102
RTVSPropertyOp25
 70
     1
102
RTVSPropertyOp26
 70
     1
102
RTVSPropertyOp27
 70
     1
102
RTVSPropertyOp28
 70
     1
102
RTVSPropertyOp29
 70
     1
102
RTVSPropertyOp30
 70
     1
102
RTVSPropertyOp31
 70
     1
102
RTVSPropertyOp32
 70
     1
102
RTVSPropertyOp33
 70
     1
102
RTVSPropertyOp34
 70
     1
102
RTVSPropertyOp35
 70
     1
102
RTVSPropertyOp36
 70
     1
102
RTVSPropertyOp37
 70
     1
102
RTVSPropertyOp38
 70
     1
102
RTVSPropertyOp39
 70
     1
102
RTVSPropertyOp40
 70
     1
102
RTVSPropertyOp41
 70
     1
102
RTVSPropertyOp42
 70
     1
102
RTVSPropertyOp43
 70
     1
102
RTVSPropertyOp44
 70
     1
102
RTVSPropertyOp45
 70
     1
102
RTVSPropertyOp46
 70
     1
102
RTVSPropertyOp47
 70
     1
102
RTVSPropertyOp48
 70
     1
102
RTVSPropertyOp49
 70
     1
102
RTVSPropertyOp50
 70
     1
102
RTVSPropertyOp51
 70
     0
102
RTVSPropertyOp52
 70
     0
102
RTVSPropertyOp53
 70
     1
102
RTVSPropertyOp54
 70
     1
102
RTVSPropertyOp55
 70
     1
102
RTVSPropertyOp56
 70
     1
102
RTVSPropertyOp57
 70
     1
102
RTVSPropertyOp58
 70
     1
102
RTVSPropertyOp59
 70
     1
102
RTVSPropertyOp60
 70
     1
102
RTVSPropertyOp61
 70
     1
102
RTVSPropertyOp62
 70
     1
  0
XRECORD
  5
143F
102
{ACAD_REACTORS
330
143E
102
}
330
143E
100
AcDbXrecord
280
     1
102
RTVSPost2010Prop28
280
     0
102
RTVSPost2010PropOp28
 70
     1
102
RTVSPost2010Prop29
280
     1
102
RTVSPost2010PropOp29
 70
     1
102
RTVSPost2010Prop30
280
     1
102
RTVSPost2010PropOp30
 70
     1
102
RTVSPost2010Prop31
280
     0
102
RTVSPost2010PropOp31
 70
     1
102
RTVSPost2010Prop32
280
     0
102
RTVSPost2010PropOp32
 70
     1
102
RTVSPost2010Prop33
280
     0
102
RTVSPost2010PropOp33
 70
     1
102
RTVSPost2010Prop34
280
     0
102
RTVSPost2010PropOp34
 70
     1
102
RTVSPost2010Prop35
280
     0
102
RTVSPost2010PropOp35
 70
     1
102
RTVSPost2010Prop36
280
     0
102
RTVSPost2010PropOp36
 70
     1
102
RTVSPost2010Prop37
 90
       50
102
RTVSPost2010PropOp37
 70
     1
102
RTVSPost2010Prop38
140
0.0
102
RTVSPost2010PropOp38
 70
     1
102
RTVSPost2010Prop39
140
1.0
102
RTVSPost2010PropOp39
 70
     1
102
RTVSPost2010Prop40
 90
        0
102
RTVSPost2010PropOp40
 70
     1
102
RTVSPost2010Prop41ColorIndex
 90
       18
102
RTVSPost2010Prop41ColorRGB
 90
        0
102
RTVSPost2010PropOp41
 70
     1
102
RTVSPost2010Prop42
 90
       50
102
RTVSPost2010PropOp42
 70
     1
102
RTVSPost2010Prop43
 90
        3
102
RTVSPost2010PropOp43
 70
     1
102
RTVSPost2010Prop44ColorIndex
 90
        5
102
RTVSPost2010Prop44ColorRGB
 90
      255
102
RTVSPost2010PropOp44
 70
     1
102
RTVSPost2010Prop45
280
     0
102
RTVSPost2010PropOp45
 70
     1
102
RTVSPost2010Prop46
 90
       50
102
RTVSPost2010PropOp46
 70
     1
102
RTVSPost2010Prop47
 90
       50
102
RTVSPost2010PropOp47
 70
     1
102
RTVSPost2010Prop48
 90
       50
102
RTVSPost2010PropOp48
 70
     1
102
RTVSPost2010Prop49
280
     0
102
RTVSPost2010PropOp49
 70
     1
102
RTVSPost2010Prop50
 90
       50
102
RTVSPost2010PropOp50
 70
     1
102
RTVSPost2010Prop51ColorIndex
 90
      256
102
RTVSPost2010Prop51ColorRGB
 90
-16777216
102
RTVSPost2010PropOp51
 70
     0
102
RTVSPost2010Prop52
140
1.0
102
RTVSPost2010PropOp52
 70
     0
102
RTVSPost2010Prop53
 90
        2
102
RTVSPost2010PropOp53
 70
     1
102
RTVSPost2010Prop54
  1
strokes_ogs.tif
102
RTVSPost2010PropOp54
 70
     1
102
RTVSPost2010Prop55
280
     0
102
RTVSPost2010PropOp55
 70
     1
102
RTVSPost2010Prop56
140
1.0
102
RTVSPost2010PropOp56
 70
     1
102
RTVSPost2010Prop57
140
1.0
102
RTVSPost2010PropOp57
 70
     1
102
RTVSPropertyOp0
 70
     1
102
RTVSPropertyOp1
 70
     1
102
RTVSPropertyOp2
 70
     1
102
RTVSPropertyOp3
 70
     1
102
RTVSPropertyOp4
 70
     1
102
RTVSPropertyOp5
 70
     1
102
RTVSPropertyOp6
 70
     1
102
RTVSPropertyOp7
 70
     1
102
RTVSPropertyOp8
 70
     1
102
RTVSPropertyOp9
 70
     1
102
RTVSPropertyOp10
 70
     1
102
RTVSPropertyOp11
 70
     1
102
RTVSPropertyOp12
 70
     1
102
RTVSPropertyOp13
 70
     1
102
RTVSPropertyOp14
 70
     1
102
RTVSPropertyOp15
 70
     1
102
RTVSPropertyOp16
 70
     1
102
RTVSPropertyOp17
 70
     1
102
RTVSPropertyOp18
 70
     1
102
RTVSPropertyOp19
 70
     1
102
RTVSPropertyOp20
 70
     1
102
RTVSPropertyOp21
 70
     1
102
RTVSPropertyOp22
 70
     1
102
RTVSPropertyOp23
 70
     1
102
RTVSPropertyOp24
 70
     1
102
RTVSPropertyOp25
 70
     1
102
RTVSPropertyOp26
 70
     1
102
RTVSPropertyOp27
 70
     1
102
RTVSPropertyOp28
 70
     1
102
RTVSPropertyOp29
 70
     1
102
RTVSPropertyOp30
 70
     1
102
RTVSPropertyOp31
 70
     1
102
RTVSPropertyOp32
 70
     1
102
RTVSPropertyOp33
 70
     1
102
RTVSPropertyOp34
 70
     1
102
RTVSPropertyOp35
 70
     1
102
RTVSPropertyOp36
 70
     1
102
RTVSPropertyOp37
 70
     1
102
RTVSPropertyOp38
 70
     1
102
RTVSPropertyOp39
 70
     1
102
RTVSPropertyOp40
 70
     1
102
RTVSPropertyOp41
 70
     1
102
RTVSPropertyOp42
 70
     1
102
RTVSPropertyOp43
 70
     1
102
RTVSPropertyOp44
 70
     1
102
RTVSPropertyOp45
 70
     1
102
RTVSPropertyOp46
 70
     1
102
RTVSPropertyOp47
 70
     1
102
RTVSPropertyOp48
 70
     1
102
RTVSPropertyOp49
 70
     1
102
RTVSPropertyOp50
 70
     1
102
RTVSPropertyOp51
 70
     0
102
RTVSPropertyOp52
 70
     0
102
RTVSPropertyOp53
 70
     1
102
RTVSPropertyOp54
 70
     1
102
RTVSPropertyOp55
 70
     1
102
RTVSPropertyOp56
 70
     1
102
RTVSPropertyOp57
 70
     1
102
RTVSPropertyOp58
 70
     1
102
RTVSPropertyOp59
 70
     1
102
RTVSPropertyOp60
 70
     1
102
RTVSPropertyOp61
 70
     1
102
RTVSPropertyOp62
 70
     1
  0
XRECORD
  5
1439
102
{ACAD_REACTORS
330
1438
102
}
330
1438
100
AcDbXrecord
280
     1
102
RTVSPost2010Prop28
280
     0
102
RTVSPost2010PropOp28
 70
     1
102
RTVSPost2010Prop29
280
     1
102
RTVSPost2010PropOp29
 70
     1
102
RTVSPost2010Prop30
280
     1
102
RTVSPost2010PropOp30
 70
     1
102
RTVSPost2010Prop31
280
     0
102
RTVSPost2010PropOp31
 70
     1
102
RTVSPost2010Prop32
280
     0
102
RTVSPost2010PropOp32
 70
     1
102
RTVSPost2010Prop33
280
     0
102
RTVSPost2010PropOp33
 70
     1
102
RTVSPost2010Prop34
280
     0
102
RTVSPost2010PropOp34
 70
     1
102
RTVSPost2010Prop35
280
     0
102
RTVSPost2010PropOp35
 70
     1
102
RTVSPost2010Prop36
280
     0
102
RTVSPost2010PropOp36
 70
     1
102
RTVSPost2010Prop37
 90
       50
102
RTVSPost2010PropOp37
 70
     1
102
RTVSPost2010Prop38
140
0.0
102
RTVSPost2010PropOp38
 70
     1
102
RTVSPost2010Prop39
140
1.0
102
RTVSPost2010PropOp39
 70
     1
102
RTVSPost2010Prop40
 90
        0
102
RTVSPost2010PropOp40
 70
     1
102
RTVSPost2010Prop41ColorIndex
 90
       18
102
RTVSPost2010Prop41ColorRGB
 90
        0
102
RTVSPost2010PropOp41
 70
     1
102
RTVSPost2010Prop42
 90
       50
102
RTVSPost2010PropOp42
 70
     1
102
RTVSPost2010Prop43
 90
        3
102
RTVSPost2010PropOp43
 70
     1
102
RTVSPost2010Prop44ColorIndex
 90
        5
102
RTVSPost2010Prop44ColorRGB
 90
      255
102
RTVSPost2010PropOp44
 70
     1
102
RTVSPost2010Prop45
280
     0
102
RTVSPost2010PropOp45
 70
     1
102
RTVSPost2010Prop46
 90
       50
102
RTVSPost2010PropOp46
 70
     1
102
RTVSPost2010Prop47
 90
       50
102
RTVSPost2010PropOp47
 70
     1
102
RTVSPost2010Prop48
 90
       50
102
RTVSPost2010PropOp48
 70
     1
102
RTVSPost2010Prop49
280
     0
102
RTVSPost2010PropOp49
 70
     1
102
RTVSPost2010Prop50
 90
       50
102
RTVSPost2010PropOp50
 70
     1
102
RTVSPost2010Prop51ColorIndex
 90
      256
102
RTVSPost2010Prop51ColorRGB
 90
-16777216
102
RTVSPost2010PropOp51
 70
     0
102
RTVSPost2010Prop52
140
1.0
102
RTVSPost2010PropOp52
 70
     0
102
RTVSPost2010Prop53
 90
        2
102
RTVSPost2010PropOp53
 70
     1
102
RTVSPost2010Prop54
  1
strokes_ogs.tif
102
RTVSPost2010PropOp54
 70
     1
102
RTVSPost2010Prop55
280
     0
102
RTVSPost2010PropOp55
 70
     1
102
RTVSPost2010Prop56
140
1.0
102
RTVSPost2010PropOp56
 70
     1
102
RTVSPost2010Prop57
140
1.0
102
RTVSPost2010PropOp57
 70
     1
102
RTVSPropertyOp0
 70
     1
102
RTVSPropertyOp1
 70
     1
102
RTVSPropertyOp2
 70
     1
102
RTVSPropertyOp3
 70
     1
102
RTVSPropertyOp4
 70
     1
102
RTVSPropertyOp5
 70
     1
102
RTVSPropertyOp6
 70
     1
102
RTVSPropertyOp7
 70
     1
102
RTVSPropertyOp8
 70
     1
102
RTVSPropertyOp9
 70
     1
102
RTVSPropertyOp10
 70
     1
102
RTVSPropertyOp11
 70
     1
102
RTVSPropertyOp12
 70
     1
102
RTVSPropertyOp13
 70
     1
102
RTVSPropertyOp14
 70
     1
102
RTVSPropertyOp15
 70
     1
102
RTVSPropertyOp16
 70
     1
102
RTVSPropertyOp17
 70
     1
102
RTVSPropertyOp18
 70
     1
102
RTVSPropertyOp19
 70
     1
102
RTVSPropertyOp20
 70
     1
102
RTVSPropertyOp21
 70
     1
102
RTVSPropertyOp22
 70
     1
102
RTVSPropertyOp23
 70
     1
102
RTVSPropertyOp24
 70
     1
102
RTVSPropertyOp25
 70
     1
102
RTVSPropertyOp26
 70
     1
102
RTVSPropertyOp27
 70
     1
102
RTVSPropertyOp28
 70
     1
102
RTVSPropertyOp29
 70
     1
102
RTVSPropertyOp30
 70
     1
102
RTVSPropertyOp31
 70
     1
102
RTVSPropertyOp32
 70
     1
102
RTVSPropertyOp33
 70
     1
102
RTVSPropertyOp34
 70
     1
102
RTVSPropertyOp35
 70
     1
102
RTVSPropertyOp36
 70
     1
102
RTVSPropertyOp37
 70
     1
102
RTVSPropertyOp38
 70
     1
102
RTVSPropertyOp39
 70
     1
102
RTVSPropertyOp40
 70
     1
102
RTVSPropertyOp41
 70
     1
102
RTVSPropertyOp42
 70
     1
102
RTVSPropertyOp43
 70
     1
102
RTVSPropertyOp44
 70
     1
102
RTVSPropertyOp45
 70
     1
102
RTVSPropertyOp46
 70
     1
102
RTVSPropertyOp47
 70
     1
102
RTVSPropertyOp48
 70
     1
102
RTVSPropertyOp49
 70
     1
102
RTVSPropertyOp50
 70
     1
102
RTVSPropertyOp51
 70
     0
102
RTVSPropertyOp52
 70
     0
102
RTVSPropertyOp53
 70
     1
102
RTVSPropertyOp54
 70
     1
102
RTVSPropertyOp55
 70
     1
102
RTVSPropertyOp56
 70
     1
102
RTVSPropertyOp57
 70
     1
102
RTVSPropertyOp58
 70
     1
102
RTVSPropertyOp59
 70
     1
102
RTVSPropertyOp60
 70
     1
102
RTVSPropertyOp61
 70
     1
102
RTVSPropertyOp62
 70
     1
  0
XRECORD
  5
143B
102
{ACAD_REACTORS
330
143A
102
}
330
143A
100
AcDbXrecord
280
     1
102
RTVSPost2010Prop28
280
     0
102
RTVSPost2010PropOp28
 70
     1
102
RTVSPost2010Prop29
280
     1
102
RTVSPost2010PropOp29
 70
     1
102
RTVSPost2010Prop30
280
     1
102
RTVSPost2010PropOp30
 70
     1
102
RTVSPost2010Prop31
280
     0
102
RTVSPost2010PropOp31
 70
     1
102
RTVSPost2010Prop32
280
     0
102
RTVSPost2010PropOp32
 70
     1
102
RTVSPost2010Prop33
280
     0
102
RTVSPost2010PropOp33
 70
     1
102
RTVSPost2010Prop34
280
     0
102
RTVSPost2010PropOp34
 70
     1
102
RTVSPost2010Prop35
280
     0
102
RTVSPost2010PropOp35
 70
     1
102
RTVSPost2010Prop36
280
     0
102
RTVSPost2010PropOp36
 70
     1
102
RTVSPost2010Prop37
 90
       50
102
RTVSPost2010PropOp37
 70
     1
102
RTVSPost2010Prop38
140
0.0
102
RTVSPost2010PropOp38
 70
     1
102
RTVSPost2010Prop39
140
1.0
102
RTVSPost2010PropOp39
 70
     1
102
RTVSPost2010Prop40
 90
        0
102
RTVSPost2010PropOp40
 70
     1
102
RTVSPost2010Prop41ColorIndex
 90
       18
102
RTVSPost2010Prop41ColorRGB
 90
        0
102
RTVSPost2010PropOp41
 70
     1
102
RTVSPost2010Prop42
 90
       50
102
RTVSPost2010PropOp42
 70
     1
102
RTVSPost2010Prop43
 90
        3
102
RTVSPost2010PropOp43
 70
     1
102
RTVSPost2010Prop44ColorIndex
 90
        5
102
RTVSPost2010Prop44ColorRGB
 90
      255
102
RTVSPost2010PropOp44
 70
     1
102
RTVSPost2010Prop45
280
     0
102
RTVSPost2010PropOp45
 70
     1
102
RTVSPost2010Prop46
 90
       50
102
RTVSPost2010PropOp46
 70
     1
102
RTVSPost2010Prop47
 90
       50
102
RTVSPost2010PropOp47
 70
     1
102
RTVSPost2010Prop48
 90
       50
102
RTVSPost2010PropOp48
 70
     1
102
RTVSPost2010Prop49
280
     0
102
RTVSPost2010PropOp49
 70
     1
102
RTVSPost2010Prop50
 90
       50
102
RTVSPost2010PropOp50
 70
     1
102
RTVSPost2010Prop51ColorIndex
 90
      256
102
RTVSPost2010Prop51ColorRGB
 90
-16777216
102
RTVSPost2010PropOp51
 70
     0
102
RTVSPost2010Prop52
140
1.0
102
RTVSPost2010PropOp52
 70
     0
102
RTVSPost2010Prop53
 90
        2
102
RTVSPost2010PropOp53
 70
     1
102
RTVSPost2010Prop54
  1
strokes_ogs.tif
102
RTVSPost2010PropOp54
 70
     1
102
RTVSPost2010Prop55
280
     0
102
RTVSPost2010PropOp55
 70
     1
102
RTVSPost2010Prop56
140
1.0
102
RTVSPost2010PropOp56
 70
     1
102
RTVSPost2010Prop57
140
1.0
102
RTVSPost2010PropOp57
 70
     1
102
RTVSPropertyOp0
 70
     1
102
RTVSPropertyOp1
 70
     1
102
RTVSPropertyOp2
 70
     1
102
RTVSPropertyOp3
 70
     1
102
RTVSPropertyOp4
 70
     1
102
RTVSPropertyOp5
 70
     1
102
RTVSPropertyOp6
 70
     1
102
RTVSPropertyOp7
 70
     1
102
RTVSPropertyOp8
 70
     1
102
RTVSPropertyOp9
 70
     1
102
RTVSPropertyOp10
 70
     1
102
RTVSPropertyOp11
 70
     1
102
RTVSPropertyOp12
 70
     1
102
RTVSPropertyOp13
 70
     1
102
RTVSPropertyOp14
 70
     1
102
RTVSPropertyOp15
 70
     1
102
RTVSPropertyOp16
 70
     1
102
RTVSPropertyOp17
 70
     1
102
RTVSPropertyOp18
 70
     1
102
RTVSPropertyOp19
 70
     1
102
RTVSPropertyOp20
 70
     1
102
RTVSPropertyOp21
 70
     1
102
RTVSPropertyOp22
 70
     1
102
RTVSPropertyOp23
 70
     1
102
RTVSPropertyOp24
 70
     1
102
RTVSPropertyOp25
 70
     1
102
RTVSPropertyOp26
 70
     1
102
RTVSPropertyOp27
 70
     1
102
RTVSPropertyOp28
 70
     1
102
RTVSPropertyOp29
 70
     1
102
RTVSPropertyOp30
 70
     1
102
RTVSPropertyOp31
 70
     1
102
RTVSPropertyOp32
 70
     1
102
RTVSPropertyOp33
 70
     1
102
RTVSPropertyOp34
 70
     1
102
RTVSPropertyOp35
 70
     1
102
RTVSPropertyOp36
 70
     1
102
RTVSPropertyOp37
 70
     1
102
RTVSPropertyOp38
 70
     1
102
RTVSPropertyOp39
 70
     1
102
RTVSPropertyOp40
 70
     1
102
RTVSPropertyOp41
 70
     1
102
RTVSPropertyOp42
 70
     1
102
RTVSPropertyOp43
 70
     1
102
RTVSPropertyOp44
 70
     1
102
RTVSPropertyOp45
 70
     1
102
RTVSPropertyOp46
 70
     1
102
RTVSPropertyOp47
 70
     1
102
RTVSPropertyOp48
 70
     1
102
RTVSPropertyOp49
 70
     1
102
RTVSPropertyOp50
 70
     1
102
RTVSPropertyOp51
 70
     0
102
RTVSPropertyOp52
 70
     0
102
RTVSPropertyOp53
 70
     1
102
RTVSPropertyOp54
 70
     1
102
RTVSPropertyOp55
 70
     1
102
RTVSPropertyOp56
 70
     1
102
RTVSPropertyOp57
 70
     1
102
RTVSPropertyOp58
 70
     1
102
RTVSPropertyOp59
 70
     1
102
RTVSPropertyOp60
 70
     1
102
RTVSPropertyOp61
 70
     1
102
RTVSPropertyOp62
 70
     1
  0
XRECORD
  5
1431
102
{ACAD_REACTORS
330
1430
102
}
330
1430
100
AcDbXrecord
280
     1
102
RTVSPost2010Prop28
280
     0
102
RTVSPost2010PropOp28
 70
     1
102
RTVSPost2010Prop29
280
     1
102
RTVSPost2010PropOp29
 70
     1
102
RTVSPost2010Prop30
280
     1
102
RTVSPost2010PropOp30
 70
     1
102
RTVSPost2010Prop31
280
     0
102
RTVSPost2010PropOp31
 70
     1
102
RTVSPost2010Prop32
280
     0
102
RTVSPost2010PropOp32
 70
     1
102
RTVSPost2010Prop33
280
     0
102
RTVSPost2010PropOp33
 70
     1
102
RTVSPost2010Prop34
280
     0
102
RTVSPost2010PropOp34
 70
     1
102
RTVSPost2010Prop35
280
     0
102
RTVSPost2010PropOp35
 70
     1
102
RTVSPost2010Prop36
280
     0
102
RTVSPost2010PropOp36
 70
     1
102
RTVSPost2010Prop37
 90
       50
102
RTVSPost2010PropOp37
 70
     1
102
RTVSPost2010Prop38
140
0.0
102
RTVSPost2010PropOp38
 70
     1
102
RTVSPost2010Prop39
140
1.0
102
RTVSPost2010PropOp39
 70
     1
102
RTVSPost2010Prop40
 90
        0
102
RTVSPost2010PropOp40
 70
     1
102
RTVSPost2010Prop41ColorIndex
 90
       18
102
RTVSPost2010Prop41ColorRGB
 90
        0
102
RTVSPost2010PropOp41
 70
     1
102
RTVSPost2010Prop42
 90
       50
102
RTVSPost2010PropOp42
 70
     1
102
RTVSPost2010Prop43
 90
        3
102
RTVSPost2010PropOp43
 70
     1
102
RTVSPost2010Prop44ColorIndex
 90
        5
102
RTVSPost2010Prop44ColorRGB
 90
      255
102
RTVSPost2010PropOp44
 70
     1
102
RTVSPost2010Prop45
280
     0
102
RTVSPost2010PropOp45
 70
     1
102
RTVSPost2010Prop46
 90
       50
102
RTVSPost2010PropOp46
 70
     1
102
RTVSPost2010Prop47
 90
       50
102
RTVSPost2010PropOp47
 70
     1
102
RTVSPost2010Prop48
 90
       50
102
RTVSPost2010PropOp48
 70
     1
102
RTVSPost2010Prop49
280
     0
102
RTVSPost2010PropOp49
 70
     1
102
RTVSPost2010Prop50
 90
       50
102
RTVSPost2010PropOp50
 70
     1
102
RTVSPost2010Prop51ColorIndex
 90
      256
102
RTVSPost2010Prop51ColorRGB
 90
-16777216
102
RTVSPost2010PropOp51
 70
     0
102
RTVSPost2010Prop52
140
1.0
102
RTVSPost2010PropOp52
 70
     0
102
RTVSPost2010Prop53
 90
        2
102
RTVSPost2010PropOp53
 70
     1
102
RTVSPost2010Prop54
  1
strokes_ogs.tif
102
RTVSPost2010PropOp54
 70
     1
102
RTVSPost2010Prop55
280
     0
102
RTVSPost2010PropOp55
 70
     1
102
RTVSPost2010Prop56
140
1.0
102
RTVSPost2010PropOp56
 70
     1
102
RTVSPost2010Prop57
140
1.0
102
RTVSPost2010PropOp57
 70
     1
102
RTVSPropertyOp0
 70
     1
102
RTVSPropertyOp1
 70
     1
102
RTVSPropertyOp2
 70
     1
102
RTVSPropertyOp3
 70
     1
102
RTVSPropertyOp4
 70
     1
102
RTVSPropertyOp5
 70
     1
102
RTVSPropertyOp6
 70
     1
102
RTVSPropertyOp7
 70
     1
102
RTVSPropertyOp8
 70
     1
102
RTVSPropertyOp9
 70
     1
102
RTVSPropertyOp10
 70
     1
102
RTVSPropertyOp11
 70
     1
102
RTVSPropertyOp12
 70
     1
102
RTVSPropertyOp13
 70
     1
102
RTVSPropertyOp14
 70
     1
102
RTVSPropertyOp15
 70
     1
102
RTVSPropertyOp16
 70
     1
102
RTVSPropertyOp17
 70
     1
102
RTVSPropertyOp18
 70
     1
102
RTVSPropertyOp19
 70
     1
102
RTVSPropertyOp20
 70
     1
102
RTVSPropertyOp21
 70
     1
102
RTVSPropertyOp22
 70
     1
102
RTVSPropertyOp23
 70
     1
102
RTVSPropertyOp24
 70
     1
102
RTVSPropertyOp25
 70
     1
102
RTVSPropertyOp26
 70
     1
102
RTVSPropertyOp27
 70
     1
102
RTVSPropertyOp28
 70
     1
102
RTVSPropertyOp29
 70
     1
102
RTVSPropertyOp30
 70
     1
102
RTVSPropertyOp31
 70
     1
102
RTVSPropertyOp32
 70
     1
102
RTVSPropertyOp33
 70
     1
102
RTVSPropertyOp34
 70
     1
102
RTVSPropertyOp35
 70
     1
102
RTVSPropertyOp36
 70
     1
102
RTVSPropertyOp37
 70
     1
102
RTVSPropertyOp38
 70
     1
102
RTVSPropertyOp39
 70
     1
102
RTVSPropertyOp40
 70
     1
102
RTVSPropertyOp41
 70
     1
102
RTVSPropertyOp42
 70
     1
102
RTVSPropertyOp43
 70
     1
102
RTVSPropertyOp44
 70
     1
102
RTVSPropertyOp45
 70
     1
102
RTVSPropertyOp46
 70
     1
102
RTVSPropertyOp47
 70
     1
102
RTVSPropertyOp48
 70
     1
102
RTVSPropertyOp49
 70
     1
102
RTVSPropertyOp50
 70
     1
102
RTVSPropertyOp51
 70
     0
102
RTVSPropertyOp52
 70
     0
102
RTVSPropertyOp53
 70
     1
102
RTVSPropertyOp54
 70
     1
102
RTVSPropertyOp55
 70
     1
102
RTVSPropertyOp56
 70
     1
102
RTVSPropertyOp57
 70
     1
102
RTVSPropertyOp58
 70
     1
102
RTVSPropertyOp59
 70
     1
102
RTVSPropertyOp60
 70
     1
102
RTVSPropertyOp61
 70
     1
102
RTVSPropertyOp62
 70
     1
  0
XRECORD
  5
1425
102
{ACAD_REACTORS
330
1424
102
}
330
1424
100
AcDbXrecord
280
     1
102
RTVSPost2010Prop28
280
     0
102
RTVSPost2010PropOp28
 70
     1
102
RTVSPost2010Prop29
280
     1
102
RTVSPost2010PropOp29
 70
     1
102
RTVSPost2010Prop30
280
     1
102
RTVSPost2010PropOp30
 70
     1
102
RTVSPost2010Prop31
280
     0
102
RTVSPost2010PropOp31
 70
     1
102
RTVSPost2010Prop32
280
     0
102
RTVSPost2010PropOp32
 70
     1
102
RTVSPost2010Prop33
280
     0
102
RTVSPost2010PropOp33
 70
     1
102
RTVSPost2010Prop34
280
     0
102
RTVSPost2010PropOp34
 70
     1
102
RTVSPost2010Prop35
280
     0
102
RTVSPost2010PropOp35
 70
     1
102
RTVSPost2010Prop36
280
     0
102
RTVSPost2010PropOp36
 70
     1
102
RTVSPost2010Prop37
 90
       50
102
RTVSPost2010PropOp37
 70
     1
102
RTVSPost2010Prop38
140
0.0
102
RTVSPost2010PropOp38
 70
     1
102
RTVSPost2010Prop39
140
1.0
102
RTVSPost2010PropOp39
 70
     1
102
RTVSPost2010Prop40
 90
        0
102
RTVSPost2010PropOp40
 70
     1
102
RTVSPost2010Prop41ColorIndex
 90
       18
102
RTVSPost2010Prop41ColorRGB
 90
        0
102
RTVSPost2010PropOp41
 70
     1
102
RTVSPost2010Prop42
 90
       50
102
RTVSPost2010PropOp42
 70
     1
102
RTVSPost2010Prop43
 90
        3
102
RTVSPost2010PropOp43
 70
     1
102
RTVSPost2010Prop44ColorIndex
 90
        5
102
RTVSPost2010Prop44ColorRGB
 90
      255
102
RTVSPost2010PropOp44
 70
     1
102
RTVSPost2010Prop45
280
     0
102
RTVSPost2010PropOp45
 70
     1
102
RTVSPost2010Prop46
 90
       50
102
RTVSPost2010PropOp46
 70
     1
102
RTVSPost2010Prop47
 90
       50
102
RTVSPost2010PropOp47
 70
     1
102
RTVSPost2010Prop48
 90
       50
102
RTVSPost2010PropOp48
 70
     1
102
RTVSPost2010Prop49
280
     0
102
RTVSPost2010PropOp49
 70
     1
102
RTVSPost2010Prop50
 90
       50
102
RTVSPost2010PropOp50
 70
     1
102
RTVSPost2010Prop51ColorIndex
 90
      256
102
RTVSPost2010Prop51ColorRGB
 90
-16777216
102
RTVSPost2010PropOp51
 70
     0
102
RTVSPost2010Prop52
140
1.0
102
RTVSPost2010PropOp52
 70
     0
102
RTVSPost2010Prop53
 90
        2
102
RTVSPost2010PropOp53
 70
     1
102
RTVSPost2010Prop54
  1
strokes_ogs.tif
102
RTVSPost2010PropOp54
 70
     1
102
RTVSPost2010Prop55
280
     0
102
RTVSPost2010PropOp55
 70
     1
102
RTVSPost2010Prop56
140
1.0
102
RTVSPost2010PropOp56
 70
     1
102
RTVSPost2010Prop57
140
1.0
102
RTVSPost2010PropOp57
 70
     1
102
RTVSPropertyOp0
 70
     1
102
RTVSPropertyOp1
 70
     1
102
RTVSPropertyOp2
 70
     1
102
RTVSPropertyOp3
 70
     1
102
RTVSPropertyOp4
 70
     1
102
RTVSPropertyOp5
 70
     1
102
RTVSPropertyOp6
 70
     1
102
RTVSPropertyOp7
 70
     1
102
RTVSPropertyOp8
 70
     1
102
RTVSPropertyOp9
 70
     1
102
RTVSPropertyOp10
 70
     1
102
RTVSPropertyOp11
 70
     1
102
RTVSPropertyOp12
 70
     1
102
RTVSPropertyOp13
 70
     1
102
RTVSPropertyOp14
 70
     1
102
RTVSPropertyOp15
 70
     1
102
RTVSPropertyOp16
 70
     1
102
RTVSPropertyOp17
 70
     1
102
RTVSPropertyOp18
 70
     1
102
RTVSPropertyOp19
 70
     1
102
RTVSPropertyOp20
 70
     1
102
RTVSPropertyOp21
 70
     1
102
RTVSPropertyOp22
 70
     1
102
RTVSPropertyOp23
 70
     1
102
RTVSPropertyOp24
 70
     1
102
RTVSPropertyOp25
 70
     1
102
RTVSPropertyOp26
 70
     1
102
RTVSPropertyOp27
 70
     1
102
RTVSPropertyOp28
 70
     1
102
RTVSPropertyOp29
 70
     1
102
RTVSPropertyOp30
 70
     1
102
RTVSPropertyOp31
 70
     1
102
RTVSPropertyOp32
 70
     1
102
RTVSPropertyOp33
 70
     1
102
RTVSPropertyOp34
 70
     1
102
RTVSPropertyOp35
 70
     1
102
RTVSPropertyOp36
 70
     1
102
RTVSPropertyOp37
 70
     1
102
RTVSPropertyOp38
 70
     1
102
RTVSPropertyOp39
 70
     1
102
RTVSPropertyOp40
 70
     1
102
RTVSPropertyOp41
 70
     1
102
RTVSPropertyOp42
 70
     1
102
RTVSPropertyOp43
 70
     1
102
RTVSPropertyOp44
 70
     1
102
RTVSPropertyOp45
 70
     1
102
RTVSPropertyOp46
 70
     1
102
RTVSPropertyOp47
 70
     1
102
RTVSPropertyOp48
 70
     1
102
RTVSPropertyOp49
 70
     1
102
RTVSPropertyOp50
 70
     1
102
RTVSPropertyOp51
 70
     0
102
RTVSPropertyOp52
 70
     0
102
RTVSPropertyOp53
 70
     1
102
RTVSPropertyOp54
 70
     1
102
RTVSPropertyOp55
 70
     1
102
RTVSPropertyOp56
 70
     1
102
RTVSPropertyOp57
 70
     1
102
RTVSPropertyOp58
 70
     1
102
RTVSPropertyOp59
 70
     1
102
RTVSPropertyOp60
 70
     1
102
RTVSPropertyOp61
 70
     1
102
RTVSPropertyOp62
 70
     1
  0
XRECORD
  5
143D
102
{ACAD_REACTORS
330
143C
102
}
330
143C
100
AcDbXrecord
280
     1
102
RTVSPost2010Prop28
280
     0
102
RTVSPost2010PropOp28
 70
     1
102
RTVSPost2010Prop29
280
     1
102
RTVSPost2010PropOp29
 70
     1
102
RTVSPost2010Prop30
280
     1
102
RTVSPost2010PropOp30
 70
     1
102
RTVSPost2010Prop31
280
     0
102
RTVSPost2010PropOp31
 70
     1
102
RTVSPost2010Prop32
280
     0
102
RTVSPost2010PropOp32
 70
     1
102
RTVSPost2010Prop33
280
     0
102
RTVSPost2010PropOp33
 70
     1
102
RTVSPost2010Prop34
280
     0
102
RTVSPost2010PropOp34
 70
     1
102
RTVSPost2010Prop35
280
     0
102
RTVSPost2010PropOp35
 70
     1
102
RTVSPost2010Prop36
280
     0
102
RTVSPost2010PropOp36
 70
     1
102
RTVSPost2010Prop37
 90
       50
102
RTVSPost2010PropOp37
 70
     1
102
RTVSPost2010Prop38
140
0.0
102
RTVSPost2010PropOp38
 70
     1
102
RTVSPost2010Prop39
140
1.0
102
RTVSPost2010PropOp39
 70
     1
102
RTVSPost2010Prop40
 90
        0
102
RTVSPost2010PropOp40
 70
     1
102
RTVSPost2010Prop41ColorIndex
 90
       18
102
RTVSPost2010Prop41ColorRGB
 90
        0
102
RTVSPost2010PropOp41
 70
     1
102
RTVSPost2010Prop42
 90
       50
102
RTVSPost2010PropOp42
 70
     1
102
RTVSPost2010Prop43
 90
        3
102
RTVSPost2010PropOp43
 70
     1
102
RTVSPost2010Prop44ColorIndex
 90
        5
102
RTVSPost2010Prop44ColorRGB
 90
      255
102
RTVSPost2010PropOp44
 70
     1
102
RTVSPost2010Prop45
280
     0
102
RTVSPost2010PropOp45
 70
     1
102
RTVSPost2010Prop46
 90
       50
102
RTVSPost2010PropOp46
 70
     1
102
RTVSPost2010Prop47
 90
       50
102
RTVSPost2010PropOp47
 70
     1
102
RTVSPost2010Prop48
 90
       50
102
RTVSPost2010PropOp48
 70
     1
102
RTVSPost2010Prop49
280
     0
102
RTVSPost2010PropOp49
 70
     1
102
RTVSPost2010Prop50
 90
       50
102
RTVSPost2010PropOp50
 70
     1
102
RTVSPost2010Prop51ColorIndex
 90
      256
102
RTVSPost2010Prop51ColorRGB
 90
-16777216
102
RTVSPost2010PropOp51
 70
     0
102
RTVSPost2010Prop52
140
1.0
102
RTVSPost2010PropOp52
 70
     0
102
RTVSPost2010Prop53
 90
        2
102
RTVSPost2010PropOp53
 70
     1
102
RTVSPost2010Prop54
  1
strokes_ogs.tif
102
RTVSPost2010PropOp54
 70
     1
102
RTVSPost2010Prop55
280
     0
102
RTVSPost2010PropOp55
 70
     1
102
RTVSPost2010Prop56
140
1.0
102
RTVSPost2010PropOp56
 70
     1
102
RTVSPost2010Prop57
140
1.0
102
RTVSPost2010PropOp57
 70
     1
102
RTVSPropertyOp0
 70
     1
102
RTVSPropertyOp1
 70
     1
102
RTVSPropertyOp2
 70
     1
102
RTVSPropertyOp3
 70
     1
102
RTVSPropertyOp4
 70
     1
102
RTVSPropertyOp5
 70
     1
102
RTVSPropertyOp6
 70
     1
102
RTVSPropertyOp7
 70
     1
102
RTVSPropertyOp8
 70
     1
102
RTVSPropertyOp9
 70
     1
102
RTVSPropertyOp10
 70
     1
102
RTVSPropertyOp11
 70
     1
102
RTVSPropertyOp12
 70
     1
102
RTVSPropertyOp13
 70
     1
102
RTVSPropertyOp14
 70
     1
102
RTVSPropertyOp15
 70
     1
102
RTVSPropertyOp16
 70
     1
102
RTVSPropertyOp17
 70
     1
102
RTVSPropertyOp18
 70
     1
102
RTVSPropertyOp19
 70
     1
102
RTVSPropertyOp20
 70
     1
102
RTVSPropertyOp21
 70
     1
102
RTVSPropertyOp22
 70
     1
102
RTVSPropertyOp23
 70
     1
102
RTVSPropertyOp24
 70
     1
102
RTVSPropertyOp25
 70
     1
102
RTVSPropertyOp26
 70
     1
102
RTVSPropertyOp27
 70
     1
102
RTVSPropertyOp28
 70
     1
102
RTVSPropertyOp29
 70
     1
102
RTVSPropertyOp30
 70
     1
102
RTVSPropertyOp31
 70
     1
102
RTVSPropertyOp32
 70
     1
102
RTVSPropertyOp33
 70
     1
102
RTVSPropertyOp34
 70
     1
102
RTVSPropertyOp35
 70
     1
102
RTVSPropertyOp36
 70
     1
102
RTVSPropertyOp37
 70
     1
102
RTVSPropertyOp38
 70
     1
102
RTVSPropertyOp39
 70
     1
102
RTVSPropertyOp40
 70
     1
102
RTVSPropertyOp41
 70
     1
102
RTVSPropertyOp42
 70
     1
102
RTVSPropertyOp43
 70
     1
102
RTVSPropertyOp44
 70
     1
102
RTVSPropertyOp45
 70
     1
102
RTVSPropertyOp46
 70
     1
102
RTVSPropertyOp47
 70
     1
102
RTVSPropertyOp48
 70
     1
102
RTVSPropertyOp49
 70
     1
102
RTVSPropertyOp50
 70
     1
102
RTVSPropertyOp51
 70
     0
102
RTVSPropertyOp52
 70
     0
102
RTVSPropertyOp53
 70
     1
102
RTVSPropertyOp54
 70
     1
102
RTVSPropertyOp55
 70
     1
102
RTVSPropertyOp56
 70
     1
102
RTVSPropertyOp57
 70
     1
102
RTVSPropertyOp58
 70
     1
102
RTVSPropertyOp59
 70
     1
102
RTVSPropertyOp60
 70
     1
102
RTVSPropertyOp61
 70
     1
102
RTVSPropertyOp62
 70
     1
  0
ENDSEC
  0
EOF
