  0
SECTION
  2
HEADER
  9
$ACADVER
  1
AC1015
  9
$ACADMAINTVER
 70
    20
  9
$DWGCODEPAGE
  3
ANSI_932
  9
$INSBASE
 10
0.0
 20
0.0
 30
0.0
  9
$EXTMIN
 10
9.9999975266385
 20
10.0
 30
0.0
  9
$EXTMAX
 10
259.8839016338065
 20
202.1704578597465
 30
0.0
  9
$LIMMIN
 10
0.0000015376081137
 20
-0.0000001931532552
  9
$LIMMAX
 10
396.0000015376081
 20
272.9999998068465
  9
$ORTHOMODE
 70
     1
  9
$REGENMODE
 70
     1
  9
$FILLMODE
 70
     1
  9
$QTEXTMODE
 70
     0
  9
$MIRRTEXT
 70
     1
  9
$LTSCALE
 40
1.0
  9
$ATTMODE
 70
     1
  9
$TEXTSIZE
 40
2.5
  9
$TRACEWID
 40
1.0
  9
$TEXTSTYLE
  7
STANDARD
  9
$CLAYER
  8
0
  9
$CELTYPE
  6
BYLAYER
  9
$CECOLOR
 62
   256
  9
$CELTSCALE
 40
1.0
  9
$DISPSILH
 70
     0
  9
$DIMSCALE
 40
1.0
  9
$DIMASZ
 40
3.0
  9
$DIMEXO
 40
1.0
  9
$DIMDLI
 40
10.0
  9
$DIMRND
 40
0.0
  9
$DIMDLE
 40
0.0
  9
$DIMEXE
 40
1.0
  9
$DIMTP
 40
0.0
  9
$DIMTM
 40
0.0
  9
$DIMTXT
 40
2.5
  9
$DIMCEN
 40
0.0
  9
$DIMTSZ
 40
0.0
  9
$DIMTOL
 70
     0
  9
$DIMLIM
 70
     0
  9
$DIMTIH
 70
     0
  9
$DIMTOH
 70
     0
  9
$DIMSE1
 70
     0
  9
$DIMSE2
 70
     0
  9
$DIMTAD
 70
     3
  9
$DIMZIN
 70
     8
  9
$DIMBLK
  1

  9
$DIMASO
 70
     1
  9
$DIMSHO
 70
     1
  9
$DIMPOST
  1

  9
$DIMAPOST
  1

  9
$DIMALT
 70
     0
  9
$DIMALTD
 70
     2
  9
$DIMALTF
 40
25.4
  9
$DIMLFAC
 40
1.0
  9
$DIMTOFL
 70
     1
  9
$DIMTVP
 40
0.0
  9
$DIMTIX
 70
     0
  9
$DIMSOXD
 70
     0
  9
$DIMSAH
 70
     1
  9
$DIMBLK1
  1
OPEN
  9
$DIMBLK2
  1
OPEN
  9
$DIMSTYLE
  2
STANDARD
  9
$DIMCLRD
 70
     0
  9
$DIMCLRE
 70
     0
  9
$DIMCLRT
 70
     0
  9
$DIMTFAC
 40
1.0
  9
$DIMGAP
 40
1.0
  9
$DIMJUST
 70
     0
  9
$DIMSD1
 70
     0
  9
$DIMSD2
 70
     0
  9
$DIMTOLJ
 70
     1
  9
$DIMTZIN
 70
     0
  9
$DIMALTZ
 70
     0
  9
$DIMALTTZ
 70
     0
  9
$DIMUPT
 70
     0
  9
$DIMDEC
 70
     4
  9
$DIMTDEC
 70
     4
  9
$DIMALTU
 70
     2
  9
$DIMALTTD
 70
     2
  9
$DIMTXSTY
  7
STANDARD
  9
$DIMAUNIT
 70
     0
  9
$DIMADEC
 70
     0
  9
$DIMALTRND
 40
0.0
  9
$DIMAZIN
 70
     0
  9
$DIMDSEP
 70
    46
  9
$DIMATFIT
 70
     3
  9
$DIMFRAC
 70
     0
  9
$DIMLDRBLK
  1
OPEN
  9
$DIMLUNIT
 70
     2
  9
$DIMLWD
 70
    -2
  9
$DIMLWE
 70
    -2
  9
$DIMTMOVE
 70
     0
  9
$LUNITS
 70
     2
  9
$LUPREC
 70
     4
  9
$SKETCHINC
 40
1.0
  9
$FILLETRAD
 40
0.0
  9
$AUNITS
 70
     0
  9
$AUPREC
 70
     0
  9
$MENU
  1
.
  9
$ELEVATION
 40
0.0
  9
$PELEVATION
 40
0.0
  9
$THICKNESS
 40
0.0
  9
$LIMCHECK
 70
     0
  9
$CHAMFERA
 40
10.0
  9
$CHAMFERB
 40
10.0
  9
$CHAMFERC
 40
20.0
  9
$CHAMFERD
 40
0.0
  9
$SKPOLY
 70
     0
  9
$TDCREATE
 40
2453826.497792604
  9
$TDUCREATE
 40
2453826.122792605
  9
$TDUPDATE
 40
2457192.602105429
  9
$TDUUPDATE
 40
2457192.227105429
  9
$TDINDWG
 40
0.1950652778
  9
$TDUSRTIMER
 40
0.1950652778
  9
$USRTIMER
 70
     1
  9
$ANGBASE
 50
0.0
  9
$ANGDIR
 70
     0
  9
$PDMODE
 70
     0
  9
$PDSIZE
 40
0.0
  9
$PLINEWID
 40
0.0
  9
$SPLFRAME
 70
     0
  9
$SPLINETYPE
 70
     6
  9
$SPLINESEGS
 70
     8
  9
$HANDSEED
  5
231A
  9
$SURFTAB1
 70
     6
  9
$SURFTAB2
 70
     6
  9
$SURFTYPE
 70
     6
  9
$SURFU
 70
     6
  9
$SURFV
 70
     6
  9
$UCSBASE
  2

  9
$UCSNAME
  2

  9
$UCSORG
 10
0.0
 20
0.0
 30
0.0
  9
$UCSXDIR
 10
1.0
 20
0.0
 30
0.0
  9
$UCSYDIR
 10
0.0
 20
1.0
 30
0.0
  9
$UCSORTHOREF
  2

  9
$UCSORTHOVIEW
 70
     0
  9
$UCSORGTOP
 10
0.0
 20
0.0
 30
0.0
  9
$UCSORGBOTTOM
 10
0.0
 20
0.0
 30
0.0
  9
$UCSORGLEFT
 10
0.0
 20
0.0
 30
0.0
  9
$UCSORGRIGHT
 10
0.0
 20
0.0
 30
0.0
  9
$UCSORGFRONT
 10
0.0
 20
0.0
 30
0.0
  9
$UCSORGBACK
 10
0.0
 20
0.0
 30
0.0
  9
$PUCSBASE
  2

  9
$PUCSNAME
  2

  9
$PUCSORG
 10
0.0
 20
0.0
 30
0.0
  9
$PUCSXDIR
 10
1.0
 20
0.0
 30
0.0
  9
$PUCSYDIR
 10
0.0
 20
1.0
 30
0.0
  9
$PUCSORTHOREF
  2

  9
$PUCSORTHOVIEW
 70
     0
  9
$PUCSORGTOP
 10
0.0
 20
0.0
 30
0.0
  9
$PUCSORGBOTTOM
 10
0.0
 20
0.0
 30
0.0
  9
$PUCSORGLEFT
 10
0.0
 20
0.0
 30
0.0
  9
$PUCSORGRIGHT
 10
0.0
 20
0.0
 30
0.0
  9
$PUCSORGFRONT
 10
0.0
 20
0.0
 30
0.0
  9
$PUCSORGBACK
 10
0.0
 20
0.0
 30
0.0
  9
$USERI1
 70
     0
  9
$USERI2
 70
     0
  9
$USERI3
 70
     0
  9
$USERI4
 70
     0
  9
$USERI5
 70
     0
  9
$USERR1
 40
0.0
  9
$USERR2
 40
0.0
  9
$USERR3
 40
0.0
  9
$USERR4
 40
0.0
  9
$USERR5
 40
0.0
  9
$WORLDVIEW
 70
     1
  9
$SHADEDGE
 70
     3
  9
$SHADEDIF
 70
    70
  9
$TILEMODE
 70
     1
  9
$MAXACTVP
 70
    48
  9
$PINSBASE
 10
0.0
 20
0.0
 30
0.0
  9
$PLIMCHECK
 70
     0
  9
$PEXTMIN
 10
1.000000000000000E+20
 20
1.000000000000000E+20
 30
1.000000000000000E+20
  9
$PEXTMAX
 10
-1.000000000000000E+20
 20
-1.000000000000000E+20
 30
-1.000000000000000E+20
  9
$PLIMMIN
 10
0.0
 20
0.0
  9
$PLIMMAX
 10
420.0
 20
297.0
  9
$UNITMODE
 70
     0
  9
$VISRETAIN
 70
     1
  9
$PLINEGEN
 70
     0
  9
$PSLTSCALE
 70
     1
  9
$TREEDEPTH
 70
  3020
  9
$CMLSTYLE
  2
STANDARD
  9
$CMLJUST
 70
     0
  9
$CMLSCALE
 40
20.0
  9
$PROXYGRAPHICS
 70
     1
  9
$MEASUREMENT
 70
     0
  9
$CELWEIGHT
370
    -1
  9
$ENDCAPS
280
     0
  9
$JOINSTYLE
280
     0
  9
$LWDISPLAY
290
     0
  9
$INSUNITS
 70
     0
  9
$HYPERLINKBASE
  1

  9
$STYLESHEET
  1

  9
$XEDIT
290
     1
  9
$CEPSNTYPE
380
     0
  9
$PSTYLEMODE
290
     1
  9
$FINGERPRINTGUID
  2
{34DC81AD-7CD4-4635-9B09-B4227387FE16}
  9
$VERSIONGUID
  2
{1EB36DFC-7C60-45E7-8811-76F543410958}
  9
$EXTNAMES
290
     1
  9
$PSVPSCALE
 40
0.0
  9
$OLESTARTUP
290
     0
  0
ENDSEC
  0
SECTION
  2
CLASSES
  0
CLASS
  1
ACDBDICTIONARYWDFLT
  2
AcDbDictionaryWithDefault
  3
ObjectDBX Classes
 90
        0
280
     0
281
     0
  0
CLASS
  1
ACDBPLACEHOLDER
  2
AcDbPlaceHolder
  3
ObjectDBX Classes
 90
        0
280
     0
281
     0
  0
CLASS
  1
LAYOUT
  2
AcDbLayout
  3
ObjectDBX Classes
 90
        0
280
     0
281
     0
  0
CLASS
  1
DICTIONARYVAR
  2
AcDbDictionaryVar
  3
ObjectDBX Classes
 90
        0
280
     0
281
     0
  0
CLASS
  1
MATERIAL
  2
AcDbMaterial
  3
ObjectDBX Classes
 90
     1153
280
     0
281
     0
  0
CLASS
  1
VISUALSTYLE
  2
AcDbVisualStyle
  3
ObjectDBX Classes
 90
     4095
280
     0
281
     0
  0
CLASS
  1
TABLESTYLE
  2
AcDbTableStyle
  3
ObjectDBX Classes
 90
     4095
280
     0
281
     0
  0
CLASS
  1
SCALE
  2
AcDbScale
  3
ObjectDBX Classes
 90
     1153
280
     0
281
     0
  0
CLASS
  1
MLEADERSTYLE
  2
AcDbMLeaderStyle
  3
ACDB_MLEADERSTYLE_CLASS
 90
     4095
280
     0
281
     0
  0
CLASS
  1
ACDBSECTIONVIEWSTYLE
  2
AcDbSectionViewStyle
  3
ObjectDBX Classes
 90
     1025
280
     0
281
     0
  0
CLASS
  1
ACDBDETAILVIEWSTYLE
  2
AcDbDetailViewStyle
  3
ObjectDBX Classes
 90
     1025
280
     0
281
     0
  0
CLASS
  1
CELLSTYLEMAP
  2
AcDbCellStyleMap
  3
ObjectDBX Classes
 90
     1152
280
     0
281
     0
  0
ENDSEC
  0
SECTION
  2
TABLES
  0
TABLE
  2
VPORT
  5
8
330
0
100
AcDbSymbolTable
 70
     1
  0
VPORT
  5
2264
330
8
100
AcDbSymbolTableRecord
100
AcDbViewportTableRecord
  2
*ACTIVE
 70
     0
 10
0.0
 20
0.0
 11
1.0
 21
1.0
 12
196.7105925620662
 22
106.0803455608697
 13
0.0
 23
0.0
 14
10.0
 24
10.0
 15
10.0
 25
10.0
 16
0.0
 26
0.0
 36
1.0
 17
0.0
 27
0.0
 37
0.0
 40
194.0412995970022
 41
1.899603698811096
 42
50.0
 43
0.0
 44
0.0
 50
0.0
 51
0.0
 71
     0
 72
   100
 73
     1
 74
     0
 75
     0
 76
     0
 77
     0
 78
     0
281
     0
 65
     1
110
0.0
120
0.0
130
0.0
111
1.0
121
0.0
131
0.0
112
0.0
122
1.0
132
0.0
 79
     0
146
0.0
1001
ACAD_NAV_VCDISPLAY
1070
     3
  0
ENDTAB
  0
TABLE
  2
LTYPE
  5
5
330
0
100
AcDbSymbolTable
 70
     4
  0
LTYPE
  5
12
330
5
100
AcDbSymbolTableRecord
100
AcDbLinetypeTableRecord
  2
BYBLOCK
 70
     0
  3

 72
    65
 73
     0
 40
0.0
  0
LTYPE
  5
13
330
5
100
AcDbSymbolTableRecord
100
AcDbLinetypeTableRecord
  2
BYLAYER
 70
     0
  3

 72
    65
 73
     0
 40
0.0
  0
LTYPE
  5
14
330
5
100
AcDbSymbolTableRecord
100
AcDbLinetypeTableRecord
  2
CONTINUOUS
 70
     0
  3
Solid line
 72
    65
 73
     0
 40
0.0
  0
LTYPE
  5
4B
330
5
100
AcDbSymbolTableRecord
100
AcDbLinetypeTableRecord
  2
DASHED
 70
     0
  3
Dashed __ __ __ __ __ __ __ __ __ __ __ __ __ _
 72
    65
 73
     2
 40
19.04999999999999
 49
12.7
 74
     0
 49
-6.349999999999998
 74
     0
  0
LTYPE
  5
4C
330
5
100
AcDbSymbolTableRecord
100
AcDbLinetypeTableRecord
  2
CENTER
 70
     0
  3
Center ____ _ ____ _ ____ _ ____ _ ____ _ ____
 72
    65
 73
     4
 40
50.8
 49
31.75
 74
     0
 49
-6.349999999999998
 74
     0
 49
6.349999999999998
 74
     0
 49
-6.349999999999998
 74
     0
  0
LTYPE
  5
4D
330
5
100
AcDbSymbolTableRecord
100
AcDbLinetypeTableRecord
  2
PHANTOM
 70
     0
  3
Phantom ______  __  __  ______  __  __  ______
 72
    65
 73
     6
 40
63.5
 49
31.75
 74
     0
 49
-6.349999999999998
 74
     0
 49
6.349999999999998
 74
     0
 49
-6.349999999999998
 74
     0
 49
6.349999999999998
 74
     0
 49
-6.349999999999998
 74
     0
  0
ENDTAB
  0
TABLE
  2
LAYER
  5
2
330
0
100
AcDbSymbolTable
 70
     8
  0
LAYER
  5
E
102
{ACAD_XDICTIONARY
360
22BE
102
}
330
2
100
AcDbSymbolTableRecord
100
AcDbLayerTableRecord
  2
0
 70
     0
 62
     7
  6
CONTINUOUS
370
    -3
390
226D
  0
LAYER
  5
4E
102
{ACAD_XDICTIONARY
360
22C0
102
}
330
2
100
AcDbSymbolTableRecord
100
AcDbLayerTableRecord
  2
4
 70
     0
 62
     1
  6
CENTER
370
    -3
390
226D
  0
LAYER
  5
4F
102
{ACAD_XDICTIONARY
360
22C2
102
}
330
2
100
AcDbSymbolTableRecord
100
AcDbLayerTableRecord
  2
5
 70
     0
 62
     6
  6
PHANTOM
370
    -3
390
226D
  0
LAYER
  5
50
102
{ACAD_XDICTIONARY
360
22C4
102
}
330
2
100
AcDbSymbolTableRecord
100
AcDbLayerTableRecord
  2
1
 70
     0
 62
     7
  6
CONTINUOUS
370
    -3
390
226D
  0
LAYER
  5
51
102
{ACAD_XDICTIONARY
360
22C6
102
}
330
2
100
AcDbSymbolTableRecord
100
AcDbLayerTableRecord
  2
2
 70
     0
 62
     4
  6
CONTINUOUS
370
    -3
390
226D
  0
LAYER
  5
52
102
{ACAD_XDICTIONARY
360
22C8
102
}
330
2
100
AcDbSymbolTableRecord
100
AcDbLayerTableRecord
  2
3
 70
     0
 62
     2
  6
DASHED
370
    -3
390
226D
  0
LAYER
  5
53
102
{ACAD_XDICTIONARY
360
22CA
102
}
330
2
100
AcDbSymbolTableRecord
100
AcDbLayerTableRecord
  2
6
 70
     0
 62
     5
  6
CONTINUOUS
370
    -3
390
226D
  0
LAYER
  5
54
102
{ACAD_XDICTIONARY
360
22CC
102
}
330
2
100
AcDbSymbolTableRecord
100
AcDbLayerTableRecord
  2
7
 70
     0
 62
     3
  6
CONTINUOUS
370
    -3
390
226D
  0
ENDTAB
  0
TABLE
  2
STYLE
  5
3
330
0
100
AcDbSymbolTable
 70
     1
  0
STYLE
  5
F
330
3
100
AcDbSymbolTableRecord
100
AcDbTextStyleTableRecord
  2
STANDARD
 70
     0
 40
0.0
 41
1.0
 50
0.0
 71
     0
 42
2.5
  3
simplex.shx
  4

  0
ENDTAB
  0
TABLE
  2
VIEW
  5
6
330
0
100
AcDbSymbolTable
 70
     0
  0
ENDTAB
  0
TABLE
  2
UCS
  5
7
330
0
100
AcDbSymbolTable
 70
     0
  0
ENDTAB
  0
TABLE
  2
APPID
  5
9
330
0
100
AcDbSymbolTable
 70
     7
  0
APPID
  5
10
330
9
100
AcDbSymbolTableRecord
100
AcDbRegAppTableRecord
  2
ACAD
 70
     0
  0
APPID
  5
3E
330
9
100
AcDbSymbolTableRecord
100
AcDbRegAppTableRecord
  2
CONTENTTABDATA
 70
     0
  0
APPID
  5
3F
330
9
100
AcDbSymbolTableRecord
100
AcDbRegAppTableRecord
  2
CONTENTCURRENTTAB
 70
     0
  0
APPID
  5
88C
330
9
100
AcDbSymbolTableRecord
100
AcDbRegAppTableRecord
  2
CONTENTBLOCKICON
 70
     0
  0
APPID
  5
88D
330
9
100
AcDbSymbolTableRecord
100
AcDbRegAppTableRecord
  2
CONTENTBLOCKDESCRIPTION
 70
     0
  0
APPID
  5
22D8
330
9
100
AcDbSymbolTableRecord
100
AcDbRegAppTableRecord
  2
ACAD_NAV_VCDISPLAY
 70
     0
  0
APPID
  5
2311
330
9
100
AcDbSymbolTableRecord
100
AcDbRegAppTableRecord
  2
ACAD_MLEADERVER
 70
     0
  0
ENDTAB
  0
TABLE
  2
DIMSTYLE
  5
A
330
0
100
AcDbSymbolTable
 70
     1
100
AcDbDimStyleTable
 71
     0
  0
DIMSTYLE
105
1D
330
A
100
AcDbSymbolTableRecord
100
AcDbDimStyleTableRecord
  2
STANDARD
 70
     0
 41
3.0
 42
1.0
 43
10.0
 44
1.0
 73
     0
 74
     0
 77
     3
 78
     8
140
2.5
141
0.0
147
1.0
172
     1
173
     1
340
F
341
2E
343
2E
344
2E
  0
ENDTAB
  0
TABLE
  2
BLOCK_RECORD
  5
1
330
0
100
AcDbSymbolTable
 70
     1
  0
BLOCK_RECORD
  5
18
102
{ACAD_XDICTIONARY
360
2267
102
}
330
1
100
AcDbSymbolTableRecord
100
AcDbBlockTableRecord
  2
*MODEL_SPACE
340
22BB
  0
BLOCK_RECORD
  5
15
102
{ACAD_XDICTIONARY
360
2265
102
}
330
1
100
AcDbSymbolTableRecord
100
AcDbBlockTableRecord
  2
*PAPER_SPACE
340
22BC
  0
BLOCK_RECORD
  5
2E
330
1
100
AcDbSymbolTableRecord
100
AcDbBlockTableRecord
  2
_OPEN
340
0
  0
ENDTAB
  0
ENDSEC
  0
SECTION
  2
BLOCKS
  0
BLOCK
  5
19
330
18
100
AcDbEntity
  8
0
100
AcDbBlockBegin
  2
*MODEL_SPACE
 70
     0
 10
0.0
 20
0.0
 30
0.0
  3
*MODEL_SPACE
  1

  0
ENDBLK
  5
1A
330
18
100
AcDbEntity
  8
0
100
AcDbBlockEnd
  0
BLOCK
  5
16
330
15
100
AcDbEntity
 67
     1
  8
0
100
AcDbBlockBegin
  2
*PAPER_SPACE
 70
     0
 10
0.0
 20
0.0
 30
0.0
  3
*PAPER_SPACE
  1

  0
ENDBLK
  5
17
330
15
100
AcDbEntity
 67
     1
  8
0
100
AcDbBlockEnd
  0
BLOCK
  5
2F
330
2E
100
AcDbEntity
  8
0
100
AcDbBlockBegin
  2
_OPEN
 70
     0
 10
0.0
 20
0.0
 30
0.0
  3
_OPEN
  1

  0
LINE
  5
30
330
2E
100
AcDbEntity
  8
0
  6
ByBlock
 62
     0
100
AcDbLine
 10
-1.0
 20
0.1666666666666666
 30
0.0
 11
0.0
 21
0.0
 31
0.0
  0
LINE
  5
31
330
2E
100
AcDbEntity
  8
0
  6
ByBlock
 62
     0
100
AcDbLine
 10
0.0
 20
0.0
 30
0.0
 11
-1.0
 21
-0.1666666666666666
 31
0.0
  0
LINE
  5
32
330
2E
100
AcDbEntity
  8
0
  6
ByBlock
 62
     0
100
AcDbLine
 10
0.0
 20
0.0
 30
0.0
 11
-1.0
 21
0.0
 31
0.0
  0
ENDBLK
  5
33
330
2E
100
AcDbEntity
  8
0
100
AcDbBlockEnd
  0
ENDSEC
  0
SECTION
  2
ENTITIES
  0
TEXT
  5
63
330
18
100
AcDbEntity
  8
4
  6
CENTER
 48
0.25
100
AcDbText
 10
23.97950852663849
 20
10.0
 30
0.0
 40
1.399999999999999
  1
4
100
AcDbText
  0
TEXT
  5
64
330
18
100
AcDbEntity
  8
7
  6
Continuous
 48
0.25
100
AcDbText
 10
9.999997526638502
 20
26.0000007607689
 30
0.0
 40
3.0
  1
CODE No.1972
100
AcDbText
  0
TEXT
  5
65
330
18
100
AcDbEntity
  8
7
  6
Continuous
 48
0.25
100
AcDbText
 10
9.999997526638502
 20
18.00000076076889
 30
0.0
 40
3.0
  1
TYPE No.TL-348-2
100
AcDbText
  0
TEXT
  5
66
330
18
100
AcDbEntity
  8
1
  6
Continuous
 48
0.25
100
AcDbText
 10
9.999997526638502
 20
10.00000076076889
 30
0.0
 40
1.399999999999999
  1
LAYER
100
AcDbText
  0
TEXT
  5
67
330
18
100
AcDbEntity
  8
2
  6
Continuous
 48
0.25
100
AcDbText
 10
19.9795085266385
 20
10.0
 30
0.0
 40
1.399999999999999
  1
2
100
AcDbText
  0
TEXT
  5
68
330
18
100
AcDbEntity
  8
3
  6
DASHED
 48
0.25
100
AcDbText
 10
21.9795085266385
 20
10.0
 30
0.0
 40
1.399999999999999
  1
3
100
AcDbText
  0
TEXT
  5
69
330
18
100
AcDbEntity
  8
1
  6
Continuous
 48
0.25
100
AcDbText
 10
17.9795085266385
 20
10.0
 30
0.0
 40
1.399999999999999
  1
1
100
AcDbText
  0
TEXT
  5
6A
330
18
100
AcDbEntity
  8
5
  6
PHANTOM
 48
0.25
100
AcDbText
 10
25.9795085266385
 20
10.0
 30
0.0
 40
1.399999999999999
  1
5
100
AcDbText
  0
TEXT
  5
6B
330
18
100
AcDbEntity
  8
6
  6
Continuous
 48
0.25
100
AcDbText
 10
27.9795085266385
 20
10.0
 30
0.0
 40
1.399999999999999
  1
6
100
AcDbText
  0
TEXT
  5
6C
330
18
100
AcDbEntity
  8
7
  6
Continuous
 48
0.25
100
AcDbText
 10
29.9795085266385
 20
10.0
 30
0.0
 40
1.399999999999999
  1
7
100
AcDbText
  0
LINE
  5
3BB
330
18
100
AcDbEntity
  8
1
  6
Continuous
100
AcDbLine
 10
99.17818080407101
 20
126.2981894866971
 30
0.0
 11
103.8781808040819
 21
126.2981894867073
 31
0.0
  0
LINE
  5
3BC
330
18
100
AcDbEntity
  8
2
  6
Continuous
100
AcDbLine
 10
99.67818080407182
 20
125.7566894867091
 30
0.0
 11
103.8781808040819
 21
125.7566894867182
 31
0.0
  0
LINE
  5
3BD
330
18
100
AcDbEntity
  8
2
  6
Continuous
100
AcDbLine
 10
99.67818080409209
 20
112.839689486709
 30
0.0
 11
103.8781808040819
 21
112.8396894867182
 31
0.0
  0
LINE
  5
3BE
330
18
100
AcDbEntity
  8
1
  6
Continuous
100
AcDbLine
 10
99.17818080409297
 20
112.2981894866971
 30
0.0
 11
103.8781808040819
 21
112.2981894867073
 31
0.0
  0
LINE
  5
3BF
330
18
100
AcDbEntity
  8
2
  6
Continuous
100
AcDbLine
 10
111.7781808040788
 20
122.4719097010373
 30
0.0
 11
106.8781808040819
 21
119.5537468880319
 31
0.0
  0
LINE
  5
3C0
330
18
100
AcDbEntity
  8
2
  6
Continuous
100
AcDbLine
 10
101.8781808040776
 20
122.0203492410832
 30
0.0
 11
103.8781808040819
 21
120.8292623786195
 31
0.0
  0
LINE
  5
3C3
330
18
100
AcDbEntity
  8
1
  6
Continuous
100
AcDbLine
 10
55.34266985295193
 20
181.5555700731076
 30
0.0
 11
42.00528035846203
 21
181.5555700731076
 31
0.0
  0
LINE
  5
3C4
330
18
100
AcDbEntity
  8
1
  6
Continuous
100
AcDbLine
 10
55.34266985295198
 20
176.5555700731076
 30
0.0
 11
42.00528035846203
 21
176.5555700731076
 31
0.0
  0
LINE
  5
3C5
330
18
100
AcDbEntity
  8
1
  6
Continuous
100
AcDbLine
 10
110.3281808040916
 20
123.6283165054165
 30
0.0
 11
106.8781808040819
 21
123.6283165054136
 31
0.0
  0
LINE
  5
3C6
330
18
100
AcDbEntity
  8
1
  6
Continuous
100
AcDbLine
 10
110.3281808040991
 20
114.9680624675867
 30
0.0
 11
106.8781808040819
 21
114.9680624675861
 31
0.0
  0
LINE
  5
3C7
330
18
100
AcDbEntity
  8
4
  6
CENTER
 48
0.2
100
AcDbLine
 10
95.62818080408204
 20
119.2981894866956
 30
0.0
 11
123.6281808040819
 21
119.2981894866956
 31
0.0
  0
LINE
  5
3C9
330
18
100
AcDbEntity
  8
2
  6
Continuous
100
AcDbLine
 10
101.8781808040735
 20
124.6600921339444
 30
0.0
 11
100.1781808040903
 21
113.9362868391296
 31
0.0
  0
LINE
  5
3CD
330
18
100
AcDbEntity
  8
4
  6
CENTER
 48
0.2
100
AcDbLine
 10
25.70237533499278
 20
126.5481894868459
 30
0.0
 11
25.70237533499278
 21
112.0481894868459
 31
0.0
  0
LINE
  5
3D0
330
18
100
AcDbEntity
  8
2
  6
Continuous
100
AcDbLine
 10
100.1781808040878
 20
115.5636058988214
 30
0.0
 11
99.17818080407023
 21
114.968062467585
 31
0.0
  0
LINE
  5
3D1
330
18
100
AcDbEntity
  8
4
  6
CENTER
 48
0.2
100
AcDbLine
 10
42.20237533499271
 20
108.5965519408249
 30
0.0
 11
42.2023753349926
 21
143.048189486846
 31
0.0
  0
ARC
  5
3D2
330
18
100
AcDbEntity
  8
1
  6
Continuous
100
AcDbCircle
 10
25.70237533499278
 20
119.2981894868459
 30
0.0
 40
6.5
100
AcDbArc
 50
90.0
 51
270.0
  0
ARC
  5
3D3
330
18
100
AcDbEntity
  8
1
  6
Continuous
100
AcDbCircle
 10
42.20237533499278
 20
119.298189486846
 30
0.0
 40
4.65
100
AcDbArc
 50
24.06215144831416
 51
335.9378485516848
  0
LINE
  5
3D4
330
18
100
AcDbEntity
  8
1
  6
Continuous
100
AcDbLine
 10
100.1781808040735
 20
124.6600921339444
 30
0.0
 11
100.1781808040903
 21
113.9362868391182
 31
0.0
  0
LINE
  5
3D5
330
18
100
AcDbEntity
  8
1
  6
Continuous
100
AcDbLine
 10
101.8781808040735
 20
124.6600921338932
 30
0.0
 11
101.8781808040904
 21
113.9362868391296
 31
0.0
  0
LINE
  5
3D6
330
18
100
AcDbEntity
  8
1
  6
Continuous
100
AcDbLine
 10
99.17818080406895
 20
127.5981894866936
 30
0.0
 11
99.17818080409501
 21
110.9981894866936
 31
0.0
  0
LINE
  5
3D7
330
18
100
AcDbEntity
  8
1
  6
Continuous
100
AcDbLine
 10
98.17818080406867
 20
127.798189486692
 30
0.0
 11
98.17818080406867
 21
110.798189486692
 31
0.0
  0
LINE
  5
3D8
330
18
100
AcDbEntity
  8
1
  6
Continuous
100
AcDbLine
 10
98.97818080409535
 20
110.7981894866933
 30
0.0
 11
98.97818080409535
 21
127.7981894866933
 31
0.0
  0
LINE
  5
3D9
330
18
100
AcDbEntity
  8
1
  6
Continuous
100
AcDbLine
 10
97.37818080408205
 20
114.6481894866957
 30
0.0
 11
97.37818080408205
 21
117.4022572178235
 31
0.0
  0
LINE
  5
3DA
330
18
100
AcDbEntity
  8
1
  6
Continuous
100
AcDbLine
 10
96.37818080408205
 20
115.6481894866956
 30
0.0
 11
97.37818080408205
 21
114.6481894866956
 31
0.0
  0
LINE
  5
3DB
330
18
100
AcDbEntity
  8
1
  6
Continuous
100
AcDbLine
 10
97.67818080406948
 20
127.2981894866912
 30
0.0
 11
97.67818080409456
 21
111.2981894866912
 31
0.0
  0
CIRCLE
  5
3DC
330
18
100
AcDbEntity
  8
1
  6
Continuous
100
AcDbCircle
 10
42.20237533499274
 20
119.298189486846
 30
0.0
 40
4.75
  0
CIRCLE
  5
3DD
330
18
100
AcDbEntity
  8
1
  6
Continuous
100
AcDbCircle
 10
42.20237533499274
 20
119.298189486846
 30
0.0
 40
8.0
  0
CIRCLE
  5
3DE
330
18
100
AcDbEntity
  8
1
  6
Continuous
100
AcDbCircle
 10
42.20237533499274
 20
119.298189486846
 30
0.0
 40
8.5
  0
LINE
  5
3E9
330
18
100
AcDbEntity
  8
1
  6
Continuous
100
AcDbLine
 10
36.46070558419101
 20
112.798189486846
 30
0.0
 11
25.70237533499278
 21
112.798189486846
 31
0.0
  0
LINE
  5
3F6
330
18
100
AcDbEntity
  8
1
  6
Continuous
100
AcDbLine
 10
29.30524422714631
 20
180.722216666623
 30
0.0
 11
29.30524422714631
 21
180.388887347881
 31
0.0
  0
ARC
  5
3F7
330
18
100
AcDbEntity
  8
1
  6
Continuous
100
AcDbCircle
 10
31.18734841074962
 20
180.388887347881
 30
0.0
 40
0.3333293187420452
100
AcDbArc
 50
10.10418271612523
 51
90.0
  0
ARC
  5
3F8
330
18
100
AcDbEntity
  8
1
  6
Continuous
100
AcDbCircle
 10
27.42314004353187
 20
180.388887347881
 30
0.0
 40
0.3333293187420452
100
AcDbArc
 50
90.0
 51
169.8958172838747
  0
ARC
  5
3F9
330
18
100
AcDbEntity
  8
1
  6
Continuous
100
AcDbCircle
 10
23.70531167227454
 20
179.0555700729129
 30
0.0
 40
8.599896423544768
100
AcDbArc
 50
324.4623222080521
 51
35.53767779194789
  0
ARC
  5
3FA
330
18
100
AcDbEntity
  8
1
  6
Continuous
100
AcDbCircle
 10
34.90517678200713
 20
179.0555700729129
 30
0.0
 40
8.599896423544768
100
AcDbArc
 50
144.4623222079992
 51
215.5376777920007
  0
LINE
  5
3FB
330
18
100
AcDbEntity
  8
1
  6
Continuous
100
AcDbLine
 10
35.73875153557525
 20
175.3796119973074
 30
0.0
 11
35.73875153557525
 21
182.7315281489082
 31
0.0
  0
LINE
  5
3FC
330
18
100
AcDbEntity
  8
1
  6
Continuous
100
AcDbLine
 10
23.80528035846271
 20
181.5555700731076
 30
0.0
 11
23.80528035846202
 21
176.5555700731076
 31
0.0
  0
LINE
  5
40D
330
18
100
AcDbEntity
  8
1
  6
Continuous
100
AcDbLine
 10
27.99469055491022
 20
170.0555700731076
 30
0.0
 11
35.73875153557529
 21
175.3796119973074
 31
0.0
  0
LINE
  5
40E
330
18
100
AcDbEntity
  8
1
  6
Continuous
100
AcDbLine
 10
28.56121937779676
 20
169.2315281489079
 30
0.0
 11
36.30528035846179
 21
174.5555700731076
 31
0.0
  0
LINE
  5
425
330
18
100
AcDbEntity
  8
1
  6
Continuous
100
AcDbLine
 10
27.99469055491022
 20
170.0555700731076
 30
0.0
 11
24.79768185591717
 21
170.0555700731076
 31
0.0
  0
LINE
  5
426
330
18
100
AcDbEntity
  8
1
  6
Continuous
100
AcDbLine
 10
27.99469055491022
 20
169.0555700731076
 30
0.0
 11
24.79768185591717
 21
169.0555700731076
 31
0.0
  0
LINE
  5
429
330
18
100
AcDbEntity
  8
1
  6
Continuous
100
AcDbLine
 10
20.30528035846191
 20
175.8956920197935
 30
0.0
 11
24.79768185591717
 21
170.0555700731076
 31
0.0
  0
LINE
  5
42A
330
18
100
AcDbEntity
  8
1
  6
Continuous
100
AcDbLine
 10
19.51265636935761
 20
175.2859812589434
 30
0.0
 11
24.00505786681288
 21
169.4458593122575
 31
0.0
  0
ARC
  5
435
330
18
100
AcDbEntity
  8
1
  6
Continuous
100
AcDbCircle
 10
24.79768185591717
 20
170.0555700731076
 30
0.0
 40
1.0
100
AcDbArc
 50
217.5685920288555
 51
270.0
  0
LINE
  5
438
330
18
100
AcDbEntity
  8
1
  6
Continuous
100
AcDbLine
 10
23.30528035846203
 20
176.0555700731076
 30
0.0
 11
21.80528035846202
 21
176.0555700731076
 31
0.0
  0
LINE
  5
446
330
18
100
AcDbEntity
  8
1
  6
Continuous
100
AcDbLine
 10
21.30528035846271
 20
181.5555700731076
 30
0.0
 11
21.30528035846202
 21
176.5555700731076
 31
0.0
  0
LINE
  5
447
330
18
100
AcDbEntity
  8
1
  6
Continuous
100
AcDbLine
 10
20.30528035846282
 20
182.2154481264218
 30
0.0
 11
20.30528035846191
 21
175.8956920197935
 31
0.0
  0
LINE
  5
448
330
18
100
AcDbEntity
  8
1
  6
Continuous
100
AcDbLine
 10
19.30528035846282
 20
182.215448126422
 30
0.0
 11
19.30528035846191
 21
175.8956920197936
 31
0.0
  0
ARC
  5
449
330
18
100
AcDbEntity
  8
1
  6
Continuous
100
AcDbCircle
 10
21.80528035846202
 20
176.5555700731076
 30
0.0
 40
0.5
100
AcDbArc
 50
180.0
 51
270.0
  0
ARC
  5
44A
330
18
100
AcDbEntity
  8
1
  6
Continuous
100
AcDbCircle
 10
20.30528035846191
 20
175.8956920197935
 30
0.0
 40
1.0
100
AcDbArc
 50
180.0
 51
217.5685920288555
  0
ARC
  5
44D
330
18
100
AcDbEntity
  8
1
  6
Continuous
100
AcDbCircle
 10
23.30528035846203
 20
176.5555700731076
 30
0.0
 40
0.5
100
AcDbArc
 50
270.0
 51
0.0
  0
ARC
  5
44E
330
18
100
AcDbEntity
  8
1
  6
Continuous
100
AcDbCircle
 10
27.99469055491022
 20
170.0555700731076
 30
0.0
 40
1.0
100
AcDbArc
 50
270.0
 51
304.508522987631
  0
LINE
  5
454
330
18
100
AcDbEntity
  8
1
  6
Continuous
100
AcDbLine
 10
27.11125585366528
 20
180.055558029139
 30
0.0
 11
31.49923260061632
 21
180.055558029139
 31
0.0
  0
LINE
  5
455
330
18
100
AcDbEntity
  8
1
  6
Continuous
100
AcDbLine
 10
26.97894480612808
 20
179.3888993916549
 30
0.0
 11
31.63154364815352
 21
179.3888993916549
 31
0.0
  0
LINE
  5
456
330
18
100
AcDbEntity
  8
1
  6
Continuous
100
AcDbLine
 10
26.97894480612808
 20
178.7222407541709
 30
0.0
 11
31.63154364815352
 21
178.7222407541709
 31
0.0
  0
LINE
  5
457
330
18
100
AcDbEntity
  8
1
  6
Continuous
100
AcDbLine
 10
27.03521580004644
 20
178.0555821166867
 30
0.0
 11
31.57527265423505
 21
178.0555821166867
 31
0.0
  0
LINE
  5
458
330
18
100
AcDbEntity
  8
1
  6
Continuous
100
AcDbLine
 10
31.37854969371829
 20
177.3889234792026
 30
0.0
 11
30.10523459212715
 21
177.3889234792026
 31
0.0
  0
LINE
  5
459
330
18
100
AcDbEntity
  8
1
  6
Continuous
100
AcDbLine
 10
27.5731439764865
 20
176.7222648417184
 30
0.0
 11
31.03734447779521
 21
176.7222648417184
 31
0.0
  0
LINE
  5
45A
330
18
100
AcDbEntity
  8
1
  6
Continuous
100
AcDbLine
 10
27.66095592030586
 20
176.0556062042344
 30
0.0
 11
30.9495325339758
 21
176.0556062042344
 31
0.0
  0
LINE
  5
45B
330
18
100
AcDbEntity
  8
1
  6
Continuous
100
AcDbLine
 10
30.5352285999037
 20
175.3889475667504
 30
0.0
 11
28.07525985437791
 21
175.3889475667504
 31
0.0
  0
LINE
  5
45C
330
18
100
AcDbEntity
  8
1
  6
Continuous
100
AcDbLine
 10
27.47679250103357
 20
174.7222889292662
 30
0.0
 11
30.35053072812934
 21
174.7222889292662
 31
0.0
  0
ARC
  5
45D
330
18
100
AcDbEntity
  8
1
  6
Continuous
100
AcDbCircle
 10
29.30524422714631
 20
175.0556182480083
 30
0.0
 40
1.718119093483293
100
AcDbArc
 50
270.0
 51
324.4623222080521
  0
ARC
  5
45E
330
18
100
AcDbEntity
  8
1
  6
Continuous
100
AcDbCircle
 10
27.11125585366528
 20
180.1222238928874
 30
0.0
 40
0.066665863748409
100
AcDbArc
 50
172.2070756645772
 51
270.0
  0
ARC
  5
45F
330
18
100
AcDbEntity
  8
1
  6
Continuous
100
AcDbCircle
 10
34.90517678200713
 20
179.0555700729129
 30
0.0
 40
7.933237786060675
100
AcDbArc
 50
169.8958172838747
 51
172.2070756645772
  0
LINE
  5
460
330
18
100
AcDbEntity
  8
1
  6
Continuous
100
AcDbLine
 10
29.30524422714631
 20
178.7222407541709
 30
0.0
 11
29.30524422714631
 21
178.0555821166867
 31
0.0
  0
ARC
  5
461
330
18
100
AcDbEntity
  8
1
  6
Continuous
100
AcDbCircle
 10
27.5731439764865
 20
177.0555941604605
 30
0.0
 40
0.3333293187420452
100
AcDbArc
 50
195.2575232904559
 51
270.0
  0
ARC
  5
462
330
18
100
AcDbEntity
  8
1
  6
Continuous
100
AcDbCircle
 10
34.90517678200713
 20
179.0555700729129
 30
0.0
 40
7.933237786060675
100
AcDbArc
 50
193.2681189705563
 51
195.2575232904559
  0
ARC
  5
463
330
18
100
AcDbEntity
  8
1
  6
Continuous
100
AcDbCircle
 10
34.90517678200713
 20
179.0555700729129
 30
0.0
 40
7.933237786060675
100
AcDbArc
 50
192.7289438731228
 51
193.2681189705563
  0
ARC
  5
464
330
18
100
AcDbEntity
  8
1
  6
Continuous
100
AcDbCircle
 10
27.23193876056342
 20
177.3222576154543
 30
0.0
 40
0.066665863748409
100
AcDbArc
 50
90.0
 51
192.7289438731228
  0
LINE
  5
465
330
18
100
AcDbEntity
  8
1
  6
Continuous
100
AcDbLine
 10
28.50525386216543
 20
177.3889234792026
 30
0.0
 11
27.23193876056342
 21
177.3889234792026
 31
0.0
  0
ARC
  5
466
330
18
100
AcDbEntity
  8
1
  6
Continuous
100
AcDbCircle
 10
27.66095592030586
 20
175.9889403404859
 30
0.0
 40
0.066665863748409
100
AcDbArc
 50
90.0
 51
202.9439535565376
  0
ARC
  5
467
330
18
100
AcDbEntity
  8
1
  6
Continuous
100
AcDbCircle
 10
34.90517678200713
 20
179.0555700729129
 30
0.0
 40
7.933237786060675
100
AcDbArc
 50
202.9439535565376
 51
206.0143659996364
  0
ARC
  5
468
330
18
100
AcDbEntity
  8
1
  6
Continuous
100
AcDbCircle
 10
28.07525985437791
 20
175.7222768854924
 30
0.0
 40
0.3333293187420452
100
AcDbArc
 50
206.0143659996364
 51
270.0
  0
ARC
  5
469
330
18
100
AcDbEntity
  8
1
  6
Continuous
100
AcDbCircle
 10
29.30524422714631
 20
175.0556182480083
 30
0.0
 40
1.718119093483293
100
AcDbArc
 50
215.5376777920007
 51
256.5374393917332
  0
ARC
  5
46C
330
18
100
AcDbEntity
  8
1
  6
Continuous
100
AcDbCircle
 10
23.70531167227454
 20
179.0555700729129
 30
0.0
 40
7.933237786060675
100
AcDbArc
 50
7.792924335422747
 51
10.10418271612523
  0
ARC
  5
46D
330
18
100
AcDbEntity
  8
1
  6
Continuous
100
AcDbCircle
 10
31.49923260061632
 20
180.1222238928874
 30
0.0
 40
0.066665863748409
100
AcDbArc
 50
270.0
 51
7.792924335422747
  0
ARC
  5
46E
330
18
100
AcDbEntity
  8
1
  6
Continuous
100
AcDbCircle
 10
31.37854969371829
 20
177.3222576154543
 30
0.0
 40
0.066665863748409
100
AcDbArc
 50
347.2710561268771
 51
90.0
  0
ARC
  5
46F
330
18
100
AcDbEntity
  8
1
  6
Continuous
100
AcDbCircle
 10
23.70531167227454
 20
179.0555700729129
 30
0.0
 40
7.933237786060675
100
AcDbArc
 50
344.7937121239422
 51
347.2710561268771
  0
ARC
  5
470
330
18
100
AcDbEntity
  8
1
  6
Continuous
100
AcDbCircle
 10
23.70531167227454
 20
179.0555700729129
 30
0.0
 40
7.933237786060675
100
AcDbArc
 50
344.742476709544
 51
344.7937121239422
  0
ARC
  5
471
330
18
100
AcDbEntity
  8
1
  6
Continuous
100
AcDbCircle
 10
31.03734447779521
 20
177.0555941604605
 30
0.0
 40
0.3333293187420452
100
AcDbArc
 50
270.0
 51
344.742476709544
  0
ARC
  5
472
330
18
100
AcDbEntity
  8
1
  6
Continuous
100
AcDbCircle
 10
30.5352285999037
 20
175.7222768854924
 30
0.0
 40
0.3333293187420452
100
AcDbArc
 50
270.0
 51
333.9856340003635
  0
ARC
  5
473
330
18
100
AcDbEntity
  8
1
  6
Continuous
100
AcDbCircle
 10
23.70531167227454
 20
179.0555700729129
 30
0.0
 40
7.933237786060675
100
AcDbArc
 50
333.9856340003635
 51
337.0560464434623
  0
ARC
  5
474
330
18
100
AcDbEntity
  8
1
  6
Continuous
100
AcDbCircle
 10
30.9495325339758
 20
175.9889403404859
 30
0.0
 40
0.066665863748409
100
AcDbArc
 50
337.0560464434623
 51
90.0
  0
LINE
  5
475
330
18
100
AcDbEntity
  8
1
  6
Continuous
100
AcDbLine
 10
42.005280358462
 20
176.2055700731076
 30
0.0
 11
42.30528035846187
 21
175.9055700731073
 31
0.0
  0
ARC
  5
476
330
18
100
AcDbEntity
  8
1
  6
Continuous
100
AcDbCircle
 10
42.10528035846181
 20
174.7555700731076
 30
0.0
 40
0.2
100
AcDbArc
 50
270.0
 51
0.0
  0
LINE
  5
47E
330
18
100
AcDbEntity
  8
1
  6
Continuous
100
AcDbLine
 10
42.10528035846175
 20
174.5555700731076
 30
0.0
 11
36.30528035846179
 21
174.5555700731076
 31
0.0
  0
LINE
  5
480
330
18
100
AcDbEntity
  8
1
  6
Continuous
100
AcDbLine
 10
42.005280358462
 20
176.3984896503736
 30
0.0
 11
42.0473699308803
 21
176.5555700731076
 31
0.0
  0
LINE
  5
481
330
18
100
AcDbEntity
  8
1
  6
Continuous
100
AcDbLine
 10
42.00528035846203
 20
176.5555700731076
 30
0.0
 11
42.005280358462
 21
176.2055700731076
 31
0.0
  0
LINE
  5
482
330
18
100
AcDbEntity
  8
1
  6
Continuous
100
AcDbLine
 10
42.30528035846196
 20
175.9055700731073
 30
0.0
 11
42.30528035846179
 21
174.7555700731076
 31
0.0
  0
LINE
  5
489
330
18
100
AcDbEntity
  8
1
  6
Continuous
100
AcDbLine
 10
35.73875153557594
 20
182.7315281489082
 30
0.0
 11
27.9946905549213
 21
188.0555700731076
 31
0.0
  0
LINE
  5
48A
330
18
100
AcDbEntity
  8
1
  6
Continuous
100
AcDbLine
 10
36.305280358463
 20
183.5555700731076
 30
0.0
 11
28.5612193778083
 21
188.879611997307
 31
0.0
  0
LINE
  5
49A
330
18
100
AcDbEntity
  8
1
  6
Continuous
100
AcDbLine
 10
27.99469055492123
 20
188.0555700731076
 30
0.0
 11
24.79768185591467
 21
188.0555700731076
 31
0.0
  0
LINE
  5
49B
330
18
100
AcDbEntity
  8
1
  6
Continuous
100
AcDbLine
 10
27.99469055492123
 20
189.0555700731076
 30
0.0
 11
24.79768185591467
 21
189.0555700731076
 31
0.0
  0
ARC
  5
49C
330
18
100
AcDbEntity
  8
1
  6
Continuous
100
AcDbCircle
 10
24.79768185591467
 20
188.0555700731076
 30
0.0
 40
1.0
100
AcDbArc
 50
90.0
 51
142.4314079711642
  0
LINE
  5
49E
330
18
100
AcDbEntity
  8
1
  6
Continuous
100
AcDbLine
 10
20.30528035846282
 20
182.2154481264218
 30
0.0
 11
24.79768185591467
 21
188.0555700731076
 31
0.0
  0
LINE
  5
49F
330
18
100
AcDbEntity
  8
1
  6
Continuous
100
AcDbLine
 10
23.3052803584627
 20
182.0555700731076
 30
0.0
 11
21.80528035846271
 21
182.0555700731076
 31
0.0
  0
LINE
  5
4A0
330
18
100
AcDbEntity
  8
1
  6
Continuous
100
AcDbLine
 10
19.51265636935829
 20
182.8251588872717
 30
0.0
 11
24.00505786681014
 21
188.6652808339574
 31
0.0
  0
ARC
  5
4A4
330
18
100
AcDbEntity
  8
1
  6
Continuous
100
AcDbCircle
 10
21.80528035846271
 20
181.5555700731076
 30
0.0
 40
0.5
100
AcDbArc
 50
90.0
 51
180.0
  0
ARC
  5
4A5
330
18
100
AcDbEntity
  8
1
  6
Continuous
100
AcDbCircle
 10
20.30528035846282
 20
182.2154481264218
 30
0.0
 40
1.0
100
AcDbArc
 50
142.431407971165
 51
180.0
  0
ARC
  5
4A7
330
18
100
AcDbEntity
  8
1
  6
Continuous
100
AcDbCircle
 10
23.3052803584627
 20
181.5555700731076
 30
0.0
 40
0.5
100
AcDbArc
 50
0.0
 51
90.0
  0
LINE
  5
4A8
330
18
100
AcDbEntity
  8
1
  6
Continuous
100
AcDbLine
 10
30.55277322928311
 20
183.0616319790081
 30
0.0
 11
27.74217349087837
 21
183.8147299091631
 31
0.0
  0
LINE
  5
4A9
330
18
100
AcDbEntity
  8
1
  6
Continuous
100
AcDbLine
 10
29.30524422714631
 20
182.3888632603333
 30
0.0
 11
30.90429898278392
 21
182.3888632603333
 31
0.0
  0
LINE
  5
4AA
330
18
100
AcDbEntity
  8
1
  6
Continuous
100
AcDbLine
 10
27.11382231691306
 20
181.3888753041071
 30
0.0
 11
31.28765619545873
 21
181.3888753041071
 31
0.0
  0
LINE
  5
4AB
330
18
100
AcDbEntity
  8
1
  6
Continuous
100
AcDbLine
 10
31.18734841074962
 20
180.722216666623
 30
0.0
 11
29.30524422714631
 21
180.722216666623
 31
0.0
  0
LINE
  5
4AC
330
18
100
AcDbEntity
  8
1
  6
Continuous
100
AcDbLine
 10
29.30524422714631
 20
184.7736409913007
 30
0.0
 11
29.30524422714631
 21
183.3959063676662
 31
0.0
  0
LINE
  5
4AD
330
18
100
AcDbEntity
  8
1
  6
Continuous
100
AcDbLine
 10
28.97191490840418
 20
182.7221925790754
 30
0.0
 11
27.54772957513336
 21
182.7221925790754
 31
0.0
  0
ARC
  5
4AE
330
18
100
AcDbEntity
  8
1
  6
Continuous
100
AcDbCircle
 10
28.97191490840418
 20
182.3888632603333
 30
0.0
 40
0.3333293187420467
100
AcDbArc
 50
270.0
 51
90.0
  0
LINE
  5
4AF
330
18
100
AcDbEntity
  8
1
  6
Continuous
100
AcDbLine
 10
27.42789356163461
 20
182.0555339415913
 30
0.0
 11
28.97191490840418
 21
182.0555339415913
 31
0.0
  0
LINE
  5
4B0
330
18
100
AcDbEntity
  8
1
  6
Continuous
100
AcDbLine
 10
28.50525386216543
 20
180.722216666623
 30
0.0
 11
27.42314004353187
 21
180.722216666623
 31
0.0
  0
ARC
  5
4B1
330
18
100
AcDbEntity
  8
1
  6
Continuous
100
AcDbCircle
 10
29.30524422714631
 20
183.0555218978174
 30
0.0
 40
1.718119093483294
100
AcDbArc
 50
62.24965455462801
 51
144.4623222079992
  0
ARC
  5
4B4
330
18
100
AcDbEntity
  8
1
  6
Continuous
100
AcDbCircle
 10
29.30524422714631
 20
183.0555218978174
 30
0.0
 40
1.718119093483294
100
AcDbArc
 50
35.53767779194789
 51
45.69883927961678
  0
ARC
  5
4B5
330
18
100
AcDbEntity
  8
1
  6
Continuous
100
AcDbCircle
 10
27.9946905549213
 20
188.0555700731076
 30
0.0
 40
1.0
100
AcDbArc
 50
55.4914770123352
 51
90.0
  0
LINE
  5
4BC
330
18
100
AcDbEntity
  8
1
  6
Continuous
100
AcDbLine
 10
42.005280358462
 20
181.9055700731077
 30
0.0
 11
42.3052803584619
 21
182.205570073108
 31
0.0
  0
ARC
  5
4BD
330
18
100
AcDbEntity
  8
1
  6
Continuous
100
AcDbCircle
 10
42.10528035846293
 20
183.3555700731077
 30
0.0
 40
0.2
100
AcDbArc
 50
0.0
 51
90.0
  0
LINE
  5
4BF
330
18
100
AcDbEntity
  8
1
  6
Continuous
100
AcDbLine
 10
42.10528035846293
 20
183.5555700731076
 30
0.0
 11
36.305280358463
 21
183.5555700731076
 31
0.0
  0
LINE
  5
4C0
330
18
100
AcDbEntity
  8
1
  6
Continuous
100
AcDbLine
 10
42.00528035846203
 20
181.5555700731076
 30
0.0
 11
42.005280358462
 21
181.9055700731076
 31
0.0
  0
LINE
  5
4C2
330
18
100
AcDbEntity
  8
1
  6
Continuous
100
AcDbLine
 10
42.30528035846297
 20
183.3555700731076
 30
0.0
 11
42.30528035846282
 21
182.2055700731088
 31
0.0
  0
LINE
  5
4D2
330
18
100
AcDbEntity
  8
1
  6
Continuous
100
AcDbLine
 10
101.8781808040904
 20
113.9362868391296
 30
0.0
 11
100.1781808040903
 21
113.9362868391296
 31
0.0
  0
LINE
  5
4D9
330
18
100
AcDbEntity
  8
2
  6
Continuous
100
AcDbLine
 10
99.67818080409216
 20
112.839689486709
 30
0.0
 11
99.1781808040929
 21
112.298189486708
 31
0.0
  0
LINE
  5
4DA
330
18
100
AcDbEntity
  8
1
  6
Continuous
100
AcDbLine
 10
99.67818080408873
 20
114.9680624675851
 30
0.0
 11
99.67818080409294
 21
112.2981894867091
 31
0.0
  0
LINE
  5
4DB
330
18
100
AcDbEntity
  8
1
  6
Continuous
100
AcDbLine
 10
100.1781808040887
 20
114.9680624675852
 30
0.0
 11
99.17818080407023
 21
114.968062467585
 31
0.0
  0
LINE
  5
4DC
330
18
100
AcDbEntity
  8
1
  6
Continuous
100
AcDbLine
 10
97.37818080408199
 20
114.6481894866956
 30
0.0
 11
97.67818080408929
 21
114.6481894866956
 31
0.0
  0
LINE
  5
4DD
330
18
100
AcDbEntity
  8
1
  6
Continuous
100
AcDbLine
 10
99.17818080409501
 20
110.9981894866936
 30
0.0
 11
98.97818080409535
 21
110.7981894866933
 31
0.0
  0
LINE
  5
4DE
330
18
100
AcDbEntity
  8
1
  6
Continuous
100
AcDbLine
 10
97.67818080409453
 20
111.2981894866912
 30
0.0
 11
98.17818080409537
 21
110.798189486692
 31
0.0
  0
LINE
  5
4DF
330
18
100
AcDbEntity
  8
1
  6
Continuous
100
AcDbLine
 10
98.97818080409535
 20
110.7981894866933
 30
0.0
 11
98.17818080409537
 21
110.798189486692
 31
0.0
  0
ARC
  5
4E2
330
18
100
AcDbEntity
  8
5
  6
PHANTOM
 48
0.2
100
AcDbCircle
 10
42.2023753349926
 20
135.798189486846
 30
0.0
 40
6.5
100
AcDbArc
 50
0.0
 51
180.0
  0
LINE
  5
4E3
330
18
100
AcDbEntity
  8
4
  6
CENTER
 48
0.2
100
AcDbLine
 10
18.45237533499278
 20
119.2981894868459
 30
0.0
 11
51.45237533499275
 21
119.298189486846
 31
0.0
  0
LINE
  5
4E9
330
18
100
AcDbEntity
  8
5
  6
PHANTOM
 48
0.2
100
AcDbLine
 10
35.70237533499272
 20
125.3603673133386
 30
0.0
 11
35.70237533499269
 21
135.798189486846
 31
0.0
  0
LINE
  5
4EA
330
18
100
AcDbEntity
  8
1
  6
Continuous
100
AcDbLine
 10
36.46070558418877
 20
125.798189486846
 30
0.0
 11
25.70237533499278
 21
125.798189486846
 31
0.0
  0
LINE
  5
4EB
330
18
100
AcDbEntity
  8
1
  6
Continuous
100
AcDbLine
 10
27.20237533499278
 20
121.0231894868459
 30
0.0
 11
24.20237533499278
 21
121.0231894868459
 31
0.0
  0
LINE
  5
4EC
330
18
100
AcDbEntity
  8
1
  6
Continuous
100
AcDbLine
 10
27.20237533499278
 20
117.573189486846
 30
0.0
 11
24.20237533499278
 21
117.573189486846
 31
0.0
  0
ARC
  5
4ED
330
18
100
AcDbEntity
  8
1
  6
Continuous
100
AcDbCircle
 10
24.20237533499278
 20
118.573189486846
 30
0.0
 40
1.0
100
AcDbArc
 50
180.0
 51
270.0
  0
ARC
  5
4EE
330
18
100
AcDbEntity
  8
1
  6
Continuous
100
AcDbCircle
 10
24.20237533499278
 20
120.0231894868459
 30
0.0
 40
1.0
100
AcDbArc
 50
90.0
 51
180.0
  0
LINE
  5
4EF
330
18
100
AcDbEntity
  8
1
  6
Continuous
100
AcDbLine
 10
23.20237533499278
 20
120.0231894868459
 30
0.0
 11
23.20237533499278
 21
118.573189486846
 31
0.0
  0
ARC
  5
4F0
330
18
100
AcDbEntity
  8
1
  6
Continuous
100
AcDbCircle
 10
27.20237533499278
 20
120.0231894868459
 30
0.0
 40
1.0
100
AcDbArc
 50
0.0
 51
90.0
  0
ARC
  5
4F1
330
18
100
AcDbEntity
  8
1
  6
Continuous
100
AcDbCircle
 10
27.20237533499278
 20
118.573189486846
 30
0.0
 40
1.0
100
AcDbArc
 50
270.0
 51
0.0
  0
LINE
  5
4F2
330
18
100
AcDbEntity
  8
1
  6
Continuous
100
AcDbLine
 10
28.20237533499278
 20
120.0231894868459
 30
0.0
 11
28.20237533499278
 21
118.573189486846
 31
0.0
  0
LINE
  5
4F8
330
18
100
AcDbEntity
  8
5
  6
PHANTOM
 48
0.2
100
AcDbLine
 10
48.70237533499275
 20
124.7754150618977
 30
0.0
 11
48.70237533499275
 21
135.798189486846
 31
0.0
  0
LINE
  5
4F9
330
18
100
AcDbEntity
  8
1
  6
Continuous
100
AcDbLine
 10
45.60237533499278
 20
118.2481894868459
 30
0.0
 11
46.44830760386486
 21
117.4022572179739
 31
0.0
  0
LINE
  5
4FA
330
18
100
AcDbEntity
  8
1
  6
Continuous
100
AcDbLine
 10
45.60237533499281
 20
120.348189486846
 30
0.0
 11
46.44830760386486
 21
121.1941217557181
 31
0.0
  0
LINE
  5
4FB
330
18
100
AcDbEntity
  8
1
  6
Continuous
100
AcDbLine
 10
38.77308969509627
 20
118.048189486846
 30
0.0
 11
45.80237533499268
 21
118.048189486846
 31
0.0
  0
LINE
  5
4FC
330
18
100
AcDbEntity
  8
1
  6
Continuous
100
AcDbLine
 10
38.77308969509633
 20
120.548189486846
 30
0.0
 11
45.80237533499277
 21
120.548189486846
 31
0.0
  0
ARC
  5
4FD
330
18
100
AcDbEntity
  8
1
  6
Continuous
100
AcDbCircle
 10
42.20237533499278
 20
119.298189486846
 30
0.0
 40
3.649999999999999
100
AcDbArc
 50
200.027172483958
 51
339.972827516041
  0
ARC
  5
4FE
330
18
100
AcDbEntity
  8
1
  6
Continuous
100
AcDbCircle
 10
42.20237533499278
 20
119.298189486846
 30
0.0
 40
3.649999999999999
100
AcDbArc
 50
20.02717248395802
 51
159.9728275160419
  0
LINE
  5
4FF
330
18
100
AcDbEntity
  8
1
  6
Continuous
100
AcDbLine
 10
37.67247467383032
 20
120.348189486846
 30
0.0
 11
45.60237533499274
 21
120.348189486846
 31
0.0
  0
LINE
  5
500
330
18
100
AcDbEntity
  8
1
  6
Continuous
100
AcDbLine
 10
37.67247467383029
 20
118.248189486846
 30
0.0
 11
45.60237533499264
 21
118.248189486846
 31
0.0
  0
LINE
  5
501
330
18
100
AcDbEntity
  8
1
  6
Continuous
100
AcDbLine
 10
38.7730896950963
 20
118.048189486846
 30
0.0
 11
38.49832349950233
 21
118.248189486846
 31
0.0
  0
LINE
  5
502
330
18
100
AcDbEntity
  8
1
  6
Continuous
100
AcDbLine
 10
38.7730896950963
 20
120.548189486846
 30
0.0
 11
38.4983234995023
 21
120.348189486846
 31
0.0
  0
LINE
  5
503
330
18
100
AcDbEntity
  8
1
  6
Continuous
100
AcDbLine
 10
40.76237533499278
 20
118.2481894868461
 30
0.0
 11
40.76237533499278
 21
120.348189486846
 31
0.0
  0
ARC
  5
504
330
18
100
AcDbEntity
  8
1
  6
Continuous
100
AcDbCircle
 10
42.20237533499278
 20
119.298189486846
 30
0.0
 40
3.950000000000028
100
AcDbArc
 50
339.8777649811782
 51
20.12223501882086
  0
ARC
  5
505
330
18
100
AcDbEntity
  8
1
  6
Continuous
100
AcDbCircle
 10
42.20237533499278
 20
119.298189486846
 30
0.0
 40
3.750000000000028
100
AcDbArc
 50
341.3031354580356
 51
18.69686454196267
  0
LINE
  5
506
330
18
100
AcDbEntity
  8
5
  6
PHANTOM
 48
0.2
100
AcDbLine
 10
42.92737533499263
 20
138.298189486846
 30
0.0
 11
41.47737533499268
 21
138.298189486846
 31
0.0
  0
LINE
  5
507
330
18
100
AcDbEntity
  8
5
  6
PHANTOM
 48
0.2
100
AcDbLine
 10
42.92737533499263
 20
133.298189486846
 30
0.0
 11
41.47737533499268
 21
133.298189486846
 31
0.0
  0
ARC
  5
508
330
18
100
AcDbEntity
  8
5
  6
PHANTOM
 48
0.2
100
AcDbCircle
 10
41.47737533499268
 20
134.298189486846
 30
0.0
 40
1.0
100
AcDbArc
 50
180.0
 51
270.0
  0
ARC
  5
509
330
18
100
AcDbEntity
  8
5
  6
PHANTOM
 48
0.2
100
AcDbCircle
 10
41.47737533499268
 20
137.298189486846
 30
0.0
 40
1.0
100
AcDbArc
 50
90.0
 51
180.0
  0
LINE
  5
50A
330
18
100
AcDbEntity
  8
5
  6
PHANTOM
 48
0.2
100
AcDbLine
 10
40.47737533499271
 20
134.298189486846
 30
0.0
 11
40.47737533499271
 21
137.298189486846
 31
0.0
  0
ARC
  5
50B
330
18
100
AcDbEntity
  8
5
  6
PHANTOM
 48
0.2
100
AcDbCircle
 10
42.92737533499263
 20
134.298189486846
 30
0.0
 40
1.0
100
AcDbArc
 50
270.0
 51
0.0
  0
ARC
  5
50C
330
18
100
AcDbEntity
  8
5
  6
PHANTOM
 48
0.2
100
AcDbCircle
 10
42.92737533499263
 20
137.298189486846
 30
0.0
 40
1.0
100
AcDbArc
 50
0.0
 51
90.0
  0
LINE
  5
50D
330
18
100
AcDbEntity
  8
5
  6
PHANTOM
 48
0.2
100
AcDbLine
 10
43.92737533499262
 20
134.298189486846
 30
0.0
 11
43.92737533499262
 21
137.298189486846
 31
0.0
  0
LINE
  5
514
330
18
100
AcDbEntity
  8
1
  6
Continuous
100
AcDbLine
 10
96.57818080408205
 20
120.3481894866956
 30
0.0
 11
97.67818080408035
 21
120.3481894866956
 31
0.0
  0
LINE
  5
515
330
18
100
AcDbEntity
  8
1
  6
Continuous
100
AcDbLine
 10
96.57818080408205
 20
118.2481894866956
 30
0.0
 11
97.67818080408364
 21
118.2481894866956
 31
0.0
  0
LINE
  5
516
330
18
100
AcDbEntity
  8
1
  6
Continuous
100
AcDbLine
 10
96.53898080408199
 20
118.0481894866957
 30
0.0
 11
97.37818080408199
 21
117.4022572178235
 31
0.0
  0
LINE
  5
517
330
18
100
AcDbEntity
  8
1
  6
Continuous
100
AcDbLine
 10
96.53898080408199
 20
120.5481894866956
 30
0.0
 11
97.37818080408205
 21
121.1941217555678
 31
0.0
  0
LINE
  5
518
330
18
100
AcDbEntity
  8
1
  6
Continuous
100
AcDbLine
 10
97.37818080408205
 20
123.9481894866955
 30
0.0
 11
96.37818080408205
 21
122.9481894866955
 31
0.0
  0
LINE
  5
51A
330
18
100
AcDbEntity
  8
1
  6
Continuous
100
AcDbLine
 10
96.378180804082
 20
118.0481894866956
 30
0.0
 11
96.53898080408216
 21
118.0481894866955
 31
0.0
  0
LINE
  5
51B
330
18
100
AcDbEntity
  8
1
  6
Continuous
100
AcDbLine
 10
96.378180804082
 20
120.5481894866956
 30
0.0
 11
96.53898080408213
 21
120.5481894866957
 31
0.0
  0
LINE
  5
51C
330
18
100
AcDbEntity
  8
1
  6
Continuous
100
AcDbLine
 10
96.57818080408199
 20
118.2481894866956
 30
0.0
 11
96.378180804082
 21
118.0481894866956
 31
0.0
  0
LINE
  5
51D
330
18
100
AcDbEntity
  8
1
  6
Continuous
100
AcDbLine
 10
96.378180804082
 20
120.5481894866956
 30
0.0
 11
96.57818080408199
 21
120.3481894866956
 31
0.0
  0
LINE
  5
51E
330
18
100
AcDbEntity
  8
1
  6
Continuous
100
AcDbLine
 10
96.37818080408205
 20
118.0481894866956
 30
0.0
 11
96.37818080408205
 21
115.6481894866956
 31
0.0
  0
LINE
  5
51F
330
18
100
AcDbEntity
  8
1
  6
Continuous
100
AcDbLine
 10
96.37818080408205
 20
122.9481894866956
 30
0.0
 11
96.37818080408205
 21
120.5481894866956
 31
0.0
  0
LINE
  5
523
330
18
100
AcDbEntity
  8
2
  6
Continuous
100
AcDbLine
 10
101.8781808040903
 20
113.9362868391297
 30
0.0
 11
100.1781808040735
 21
124.6600921339444
 31
0.0
  0
LINE
  5
524
330
18
100
AcDbEntity
  8
2
  6
Continuous
100
AcDbLine
 10
99.17818080407517
 20
123.6283165054072
 30
0.0
 11
100.1781808040761
 21
123.0327730741761
 31
0.0
  0
LINE
  5
525
330
18
100
AcDbEntity
  8
1
  6
Continuous
100
AcDbLine
 10
97.37818080408205
 20
123.9481894866955
 30
0.0
 11
97.37818080408205
 21
121.1941217555678
 31
0.0
  0
LINE
  5
526
330
18
100
AcDbEntity
  8
1
  6
Continuous
100
AcDbLine
 10
97.37818080408199
 20
117.4022572178235
 30
0.0
 11
97.67818080407906
 21
117.4022572178235
 31
0.0
  0
LINE
  5
527
330
18
100
AcDbEntity
  8
1
  6
Continuous
100
AcDbLine
 10
97.37818080408199
 20
121.1941217555678
 30
0.0
 11
97.67818080407906
 21
121.1941217555678
 31
0.0
  0
LINE
  5
528
330
18
100
AcDbEntity
  8
1
  6
Continuous
100
AcDbLine
 10
97.37818080408205
 20
120.3481894866956
 30
0.0
 11
97.37818080408205
 21
118.2481894866956
 31
0.0
  0
LINE
  5
52F
330
18
100
AcDbEntity
  8
1
  6
Continuous
100
AcDbLine
 10
101.8781808040735
 20
124.6600921338932
 30
0.0
 11
100.1781808040735
 21
124.6600921338932
 31
0.0
  0
LINE
  5
535
330
18
100
AcDbEntity
  8
2
  6
Continuous
100
AcDbLine
 10
99.17818080407094
 20
126.2981894867079
 30
0.0
 11
99.67818080407182
 21
125.7566894867091
 31
0.0
  0
LINE
  5
536
330
18
100
AcDbEntity
  8
1
  6
Continuous
100
AcDbLine
 10
99.67818080407095
 20
126.2981894867091
 30
0.0
 11
99.67818080407518
 21
123.6283165054076
 31
0.0
  0
LINE
  5
537
330
18
100
AcDbEntity
  8
1
  6
Continuous
100
AcDbLine
 10
100.1781808040751
 20
123.628316505408
 30
0.0
 11
99.17818080407517
 21
123.6283165054072
 31
0.0
  0
LINE
  5
538
330
18
100
AcDbEntity
  8
1
  6
Continuous
100
AcDbLine
 10
97.37818080408199
 20
123.9481894866956
 30
0.0
 11
97.67818080407472
 21
123.9481894866956
 31
0.0
  0
LINE
  5
539
330
18
100
AcDbEntity
  8
1
  6
Continuous
100
AcDbLine
 10
98.97818080406864
 20
127.7981894866933
 30
0.0
 11
99.17818080406895
 21
127.5981894866936
 31
0.0
  0
LINE
  5
53A
330
18
100
AcDbEntity
  8
1
  6
Continuous
100
AcDbLine
 10
98.17818080406867
 20
127.798189486692
 30
0.0
 11
97.67818080406948
 21
127.2981894866912
 31
0.0
  0
LINE
  5
53B
330
18
100
AcDbEntity
  8
1
  6
Continuous
100
AcDbLine
 10
98.97818080406871
 20
127.7981894866933
 30
0.0
 11
98.17818080406867
 21
127.798189486692
 31
0.0
  0
LINE
  5
554
330
18
100
AcDbEntity
  8
4
  6
CENTER
 48
0.2
100
AcDbLine
 10
194.2560412189514
 20
126.5481894867241
 30
0.0
 11
194.2560412189514
 21
112.0481894867241
 31
0.0
  0
ARC
  5
555
330
18
100
AcDbEntity
  8
1
  6
Continuous
100
AcDbCircle
 10
194.2560412189514
 20
119.2981894867241
 30
0.0
 40
6.5
100
AcDbArc
 50
270.0
 51
90.0
  0
ARC
  5
556
330
18
100
AcDbEntity
  8
1
  6
Continuous
100
AcDbCircle
 10
177.7560412189516
 20
119.298189486724
 30
0.0
 40
6.50000000017225
100
AcDbArc
 50
90.0
 51
270.0
  0
LINE
  5
558
330
18
100
AcDbEntity
  8
1
  6
Continuous
100
AcDbLine
 10
114.1781808040819
 20
112.798189486895
 30
0.0
 11
114.1781808040819
 21
125.798189486895
 31
0.0
  0
LINE
  5
559
330
18
100
AcDbEntity
  8
1
  6
Continuous
100
AcDbLine
 10
112.9781808040819
 20
114.7481894866896
 30
0.0
 11
112.9781808040819
 21
124.6981894866956
 31
0.0
  0
LINE
  5
55A
330
18
100
AcDbEntity
  8
1
  6
Continuous
100
AcDbLine
 10
110.9781808040808
 20
116.1244692718902
 30
0.0
 11
110.9781808040838
 21
112.9481894867227
 31
0.0
  0
LINE
  5
55B
330
18
100
AcDbEntity
  8
1
  6
Continuous
100
AcDbLine
 10
111.7781808040919
 20
112.9481894867245
 30
0.0
 11
111.778180804072
 21
125.6481894867245
 31
0.0
  0
ARC
  5
55C
330
18
100
AcDbEntity
  8
1
  6
Continuous
100
AcDbCircle
 10
103.9781808045183
 20
119.2981894864564
 30
0.0
 40
7.68586364660608
100
AcDbArc
 50
325.7095410070415
 51
335.6110021270712
  0
ARC
  5
55D
330
18
100
AcDbEntity
  8
1
  6
Continuous
100
AcDbCircle
 10
119.0542172717213
 20
115.8405088807015
 30
0.0
 40
2.023963532360613
100
AcDbArc
 50
330.0000000000104
 51
34.56508554866339
  0
LINE
  5
55E
330
18
100
AcDbEntity
  8
1
  6
Continuous
100
AcDbLine
 10
121.078180804082
 20
115.2981894866957
 30
0.0
 11
120.7209153027947
 21
114.6793874866742
 31
0.0
  0
LINE
  5
55F
330
18
100
AcDbEntity
  8
1
  6
Continuous
100
AcDbLine
 10
117.0781808040819
 20
123.9169914866955
 30
0.0
 11
117.0781808040819
 21
114.6793874866721
 31
0.0
  0
LINE
  5
560
330
18
100
AcDbEntity
  8
1
  6
Continuous
100
AcDbLine
 10
116.9281808040819
 20
124.2981894866956
 30
0.0
 11
116.9281808040819
 21
114.2981894866956
 31
0.0
  0
LINE
  5
561
330
18
100
AcDbEntity
  8
1
  6
Continuous
100
AcDbLine
 10
116.328180804082
 20
124.2981894866956
 30
0.0
 11
116.328180804082
 21
114.2981894866956
 31
0.0
  0
LINE
  5
562
330
18
100
AcDbEntity
  8
1
  6
Continuous
100
AcDbLine
 10
116.1781808040819
 20
112.7981894868962
 30
0.0
 11
116.1781808040819
 21
125.7981894868962
 31
0.0
  0
LINE
  5
563
330
18
100
AcDbEntity
  8
2
  6
Continuous
100
AcDbLine
 10
113.5781808040906
 20
113.701538702347
 30
0.0
 11
112.0366491673546
 21
115.2309187720475
 31
0.0
  0
LINE
  5
56C
330
18
100
AcDbEntity
  8
1
  6
Continuous
100
AcDbLine
 10
172.2560412189482
 20
123.6283165056419
 30
0.0
 11
172.2560412189489
 21
122.7622911021807
 31
0.0
  0
LINE
  5
56F
330
18
100
AcDbEntity
  8
4
  6
CENTER
 48
0.2
100
AcDbLine
 10
177.7560412189443
 20
132.2189722734706
 30
0.0
 11
177.7560412189588
 21
108.9582088229086
 31
0.0
  0
ARC
  5
570
330
18
100
AcDbEntity
  8
1
  6
Continuous
100
AcDbCircle
 10
177.7560412189516
 20
119.298189486724
 30
0.0
 40
7.0
100
AcDbArc
 50
218.213210701783
 51
291.7867893020588
  0
LINE
  5
571
330
18
100
AcDbEntity
  8
1
  6
Continuous
100
AcDbLine
 10
55.87322955089764
 20
176.8259037416863
 30
0.0
 11
55.87322955089939
 21
181.2852364045279
 31
0.0
  0
LINE
  5
572
330
18
100
AcDbEntity
  8
1
  6
Continuous
100
AcDbLine
 10
57.30528035846258
 20
180.5555700731076
 30
0.0
 11
57.30528035846214
 21
177.5555700731076
 31
0.0
  0
LINE
  5
577
330
18
100
AcDbEntity
  8
1
  6
Continuous
100
AcDbLine
 10
57.30528035846214
 20
177.5555700731076
 30
0.0
 11
55.34266985295425
 21
176.5555700731088
 31
0.0
  0
LINE
  5
579
330
18
100
AcDbEntity
  8
1
  6
Continuous
100
AcDbLine
 10
57.30528035846219
 20
180.5555700731076
 30
0.0
 11
55.34266985295428
 21
181.5555700731065
 31
0.0
  0
LINE
  5
57A
330
18
100
AcDbEntity
  8
1
  6
Continuous
100
AcDbLine
 10
114.1781808040819
 20
114.7481894866901
 30
0.0
 11
112.9781808040645
 21
114.7481894866896
 31
0.0
  0
LINE
  5
57B
330
18
100
AcDbEntity
  8
1
  6
Continuous
100
AcDbLine
 10
113.5781808040907
 20
113.7015387023469
 30
0.0
 11
111.7781808041051
 21
113.7015387023487
 31
0.0
  0
LINE
  5
57C
330
18
100
AcDbEntity
  8
1
  6
Continuous
100
AcDbLine
 10
110.3281808040916
 20
112.2981894867327
 30
0.0
 11
110.3281808040916
 21
114.9680624675867
 31
0.0
  0
LINE
  5
57D
330
18
100
AcDbEntity
  8
2
  6
Continuous
100
AcDbLine
 10
113.0089754792525
 20
114.7481894866896
 30
0.0
 11
111.7781808041051
 21
113.7015387023487
 31
0.0
  0
LINE
  5
57E
330
18
100
AcDbEntity
  8
1
  6
Continuous
100
AcDbLine
 10
110.9781808040919
 20
112.9481894867228
 30
0.0
 11
110.3281808040917
 21
112.2981894867219
 31
0.0
  0
LINE
  5
57F
330
18
100
AcDbEntity
  8
1
  6
Continuous
100
AcDbLine
 10
110.9781808040919
 20
112.9481894867228
 30
0.0
 11
111.7781808040919
 21
112.9481894867245
 31
0.0
  0
LINE
  5
580
330
18
100
AcDbEntity
  8
1
  6
Continuous
100
AcDbLine
 10
120.7209153027947
 20
114.6793874866742
 30
0.0
 11
117.0781808040168
 21
114.6793874866721
 31
0.0
  0
LINE
  5
581
330
18
100
AcDbEntity
  8
1
  6
Continuous
100
AcDbLine
 10
116.9281808040819
 20
114.2981894866956
 30
0.0
 11
116.328180804082
 21
114.2981894866956
 31
0.0
  0
LINE
  5
582
330
18
100
AcDbEntity
  8
1
  6
Continuous
100
AcDbLine
 10
114.1781808040819
 20
112.798189486895
 30
0.0
 11
116.1781808040762
 21
112.7981894868962
 31
0.0
  0
LINE
  5
583
330
18
100
AcDbEntity
  8
1
  6
Continuous
100
AcDbLine
 10
113.8781808040891
 20
114.7481894866899
 30
0.0
 11
113.8781808040902
 21
114.0443813438098
 31
0.0
  0
LINE
  5
584
330
18
100
AcDbEntity
  8
1
  6
Continuous
100
AcDbLine
 10
113.5781808040906
 20
113.7015387023469
 30
0.0
 11
113.8781808040818
 21
114.0443813438098
 31
0.0
  0
LINE
  5
586
330
18
100
AcDbEntity
  8
1
  6
Continuous
100
AcDbLine
 10
177.7560412189567
 20
112.7981894868962
 30
0.0
 11
194.2560412189514
 21
112.7981894868962
 31
0.0
  0
LINE
  5
58D
330
18
100
AcDbEntity
  8
1
  6
Continuous
100
AcDbLine
 10
179.0060412189569
 20
112.4107008297471
 30
0.0
 11
179.0060412189566
 21
112.7981894868962
 31
0.0
  0
LINE
  5
58E
330
18
100
AcDbEntity
  8
1
  6
Continuous
100
AcDbLine
 10
176.5060412189569
 20
112.4107008297451
 30
0.0
 11
176.5060412189565
 21
112.9195140754609
 31
0.0
  0
ARC
  5
596
330
18
100
AcDbEntity
  8
1
  6
Continuous
100
AcDbCircle
 10
177.7560412189516
 20
119.298189486724
 30
0.0
 40
7.0
100
AcDbArc
 50
68.21321070553523
 51
141.786789298307
  0
LINE
  5
597
330
18
100
AcDbEntity
  8
4
  6
CENTER
 48
0.2
100
AcDbLine
 10
168.5060412189516
 20
119.2981894867167
 30
0.0
 11
201.5060412189515
 21
119.2981894867426
 31
0.0
  0
ARC
  5
59C
330
18
100
AcDbEntity
  8
1
  6
Continuous
100
AcDbCircle
 10
119.3781808040819
 20
119.2981894866956
 30
0.0
 40
2.569046515733119
100
AcDbArc
 50
314.4791005747732
 51
346.6862608035131
  0
ARC
  5
59D
330
18
100
AcDbEntity
  8
1
  6
Continuous
100
AcDbCircle
 10
119.3781808040819
 20
119.2981894866956
 30
0.0
 40
2.569046515733119
100
AcDbArc
 50
13.31373919648682
 51
45.52089942522674
  0
LINE
  5
59E
330
18
100
AcDbEntity
  8
1
  6
Continuous
100
AcDbLine
 10
121.8781808040819
 20
121.0981894866957
 30
0.0
 11
121.178180804082
 21
121.7981894866957
 31
0.0
  0
LINE
  5
59F
330
18
100
AcDbEntity
  8
1
  6
Continuous
100
AcDbLine
 10
121.878180804082
 20
117.4981894866956
 30
0.0
 11
121.178180804082
 21
116.7981894866956
 31
0.0
  0
LINE
  5
5A0
330
18
100
AcDbEntity
  8
2
  6
Continuous
100
AcDbLine
 10
121.0781808040819
 20
121.3651894866956
 30
0.0
 11
121.6111808040819
 21
121.3651894866956
 31
0.0
  0
LINE
  5
5A1
330
18
100
AcDbEntity
  8
2
  6
Continuous
100
AcDbLine
 10
121.0781808040819
 20
117.2311894866956
 30
0.0
 11
121.6111808040819
 21
117.2311894866956
 31
0.0
  0
LINE
  5
5A7
330
18
100
AcDbEntity
  8
2
  6
Continuous
100
AcDbLine
 10
113.5781808040731
 20
124.8948402706524
 30
0.0
 11
113.3799675470473
 21
124.6981894866956
 31
0.0
  0
LINE
  5
5A8
330
18
100
AcDbEntity
  8
1
  6
Continuous
100
AcDbLine
 10
114.1781808040819
 20
124.6981894866956
 30
0.0
 11
112.9781808040819
 21
124.6981894866956
 31
0.0
  0
LINE
  5
5A9
330
18
100
AcDbEntity
  8
1
  6
Continuous
100
AcDbLine
 10
114.1781808040819
 20
116.2981894866955
 30
0.0
 11
112.9781808040819
 21
116.2981894866955
 31
0.0
  0
LINE
  5
5AA
330
18
100
AcDbEntity
  8
1
  6
Continuous
100
AcDbLine
 10
113.5781808040732
 20
124.8948402706524
 30
0.0
 11
111.778180804047
 21
124.8948402706513
 31
0.0
  0
LINE
  5
5AB
330
18
100
AcDbEntity
  8
1
  6
Continuous
100
AcDbLine
 10
110.978180804072
 20
125.6481894867228
 30
0.0
 11
110.9781808040749
 21
122.4719097010355
 31
0.0
  0
ARC
  5
5AC
330
18
100
AcDbEntity
  8
1
  6
Continuous
100
AcDbCircle
 10
103.9781808045183
 20
119.2981894864564
 30
0.0
 40
7.68586364660608
100
AcDbArc
 50
24.38899787303516
 51
34.29045899305606
  0
ARC
  5
5AD
330
18
100
AcDbEntity
  8
1
  6
Continuous
100
AcDbCircle
 10
111.878180804079
 20
122.9981894866985
 30
0.0
 40
0.4000000000028904
100
AcDbArc
 50
0.0
 51
104.4775121863479
  0
LINE
  5
5AE
330
18
100
AcDbEntity
  8
1
  6
Continuous
100
AcDbLine
 10
110.9781808040926
 20
116.1244692718902
 30
0.0
 11
111.7781808040926
 21
116.1244692718919
 31
0.0
  0
LINE
  5
5AF
330
18
100
AcDbEntity
  8
1
  6
Continuous
100
AcDbLine
 10
110.9781808040789
 20
122.4719097010355
 30
0.0
 11
111.7781808040789
 21
122.4719097010373
 31
0.0
  0
LINE
  5
5B0
330
18
100
AcDbEntity
  8
1
  6
Continuous
100
AcDbLine
 10
112.2781808040819
 20
123.0481894866956
 30
0.0
 11
112.2781808040819
 21
115.5481894866956
 31
0.0
  0
ARC
  5
5B1
330
18
100
AcDbEntity
  8
1
  6
Continuous
100
AcDbCircle
 10
111.8781808040848
 20
115.5981894866985
 30
0.0
 40
0.3999999999970906
100
AcDbArc
 50
255.522487814476
 51
0.0
  0
LINE
  5
5B2
330
18
100
AcDbEntity
  8
1
  6
Continuous
100
AcDbLine
 10
112.7781808040819
 20
118.6817480863987
 30
0.0
 11
112.7781808040819
 21
115.5481894866956
 31
0.0
  0
LINE
  5
5B3
330
18
100
AcDbEntity
  8
1
  6
Continuous
100
AcDbLine
 10
112.7781808040819
 20
123.0481894866956
 30
0.0
 11
112.7781808040819
 21
119.9146308869925
 31
0.0
  0
ARC
  5
5B4
330
18
100
AcDbEntity
  8
1
  6
Continuous
100
AcDbCircle
 10
111.928180804082
 20
119.2981894866956
 30
0.0
 40
1.049999999999996
100
AcDbArc
 50
289.4712206344903
 51
70.52877936550962
  0
LINE
  5
5B5
330
18
100
AcDbEntity
  8
1
  6
Continuous
100
AcDbLine
 10
112.2781808040819
 20
123.0481894866956
 30
0.0
 11
112.7781808040819
 21
123.0481894866956
 31
0.0
  0
LINE
  5
5B6
330
18
100
AcDbEntity
  8
1
  6
Continuous
100
AcDbLine
 10
112.2781808040819
 20
115.5481894866956
 30
0.0
 11
112.7781808040819
 21
115.5481894866956
 31
0.0
  0
LINE
  5
5B7
330
18
100
AcDbEntity
  8
1
  6
Continuous
100
AcDbLine
 10
112.978180804082
 20
115.7481894866956
 30
0.0
 11
112.778180804082
 21
115.5481894866956
 31
0.0
  0
LINE
  5
5B8
330
18
100
AcDbEntity
  8
1
  6
Continuous
100
AcDbLine
 10
112.778180804082
 20
123.0481894866956
 30
0.0
 11
112.978180804082
 21
122.8481894866956
 31
0.0
  0
LINE
  5
5B9
330
18
100
AcDbEntity
  8
1
  6
Continuous
100
AcDbLine
 10
112.9781808040819
 20
115.4873496840506
 30
0.0
 11
112.262517294867
 21
115.4873496840509
 31
0.0
  0
LINE
  5
5BA
330
18
100
AcDbEntity
  8
1
  6
Continuous
100
AcDbLine
 10
112.9781808040819
 20
123.1090292889489
 30
0.0
 11
112.2625172949818
 21
123.1090292889488
 31
0.0
  0
LINE
  5
5BB
330
18
100
AcDbEntity
  8
2
  6
Continuous
100
AcDbLine
 10
112.9781808040819
 20
124.299569943416
 30
0.0
 11
112.0366491676693
 21
123.3654602012176
 31
0.0
  0
LINE
  5
5BC
330
18
100
AcDbEntity
  8
1
  6
Continuous
100
AcDbLine
 10
110.3281808040916
 20
123.6283165054165
 30
0.0
 11
110.3281808040916
 21
126.2981894867328
 31
0.0
  0
LINE
  5
5BD
330
18
100
AcDbEntity
  8
2
  6
Continuous
100
AcDbLine
 10
111.778180804047
 20
124.8948402706513
 30
0.0
 11
112.9781808040819
 21
123.8743768525201
 31
0.0
  0
LINE
  5
5BE
330
18
100
AcDbEntity
  8
1
  6
Continuous
100
AcDbLine
 10
110.978180804072
 20
125.6481894867227
 30
0.0
 11
110.3281808040735
 21
126.2981894867218
 31
0.0
  0
LINE
  5
5BF
330
18
100
AcDbEntity
  8
1
  6
Continuous
100
AcDbLine
 10
110.978180804072
 20
125.6481894867228
 30
0.0
 11
111.778180804072
 21
125.6481894867245
 31
0.0
  0
ARC
  5
5C0
330
18
100
AcDbEntity
  8
1
  6
Continuous
100
AcDbCircle
 10
119.0542172716835
 20
122.7558700926815
 30
0.0
 40
2.023963532398457
100
AcDbArc
 50
325.434914452354
 51
29.99999999989833
  0
LINE
  5
5C1
330
18
100
AcDbEntity
  8
1
  6
Continuous
100
AcDbLine
 10
121.0781808040819
 20
123.2981894866956
 30
0.0
 11
121.0781808040819
 21
115.2981894866956
 31
0.0
  0
LINE
  5
5C2
330
18
100
AcDbEntity
  8
1
  6
Continuous
100
AcDbLine
 10
117.0781808040819
 20
121.6075904866956
 30
0.0
 11
120.7209153028084
 21
121.6075904866956
 31
0.0
  0
LINE
  5
5C3
330
18
100
AcDbEntity
  8
1
  6
Continuous
100
AcDbLine
 10
117.0781808040819
 20
116.9887884866956
 30
0.0
 11
120.7209153027947
 21
116.9887884866956
 31
0.0
  0
LINE
  5
5C4
330
18
100
AcDbEntity
  8
1
  6
Continuous
100
AcDbLine
 10
116.3281808040819
 20
115.4731894865794
 30
0.0
 11
116.1781808040819
 21
116.6481894866957
 31
0.0
  0
LINE
  5
5C5
330
18
100
AcDbEntity
  8
1
  6
Continuous
100
AcDbLine
 10
117.0781808040829
 20
116.6481894866955
 30
0.0
 11
116.9281808040819
 21
115.4731894865794
 31
0.0
  0
LINE
  5
5C6
330
18
100
AcDbEntity
  8
1
  6
Continuous
100
AcDbLine
 10
116.1781808040819
 20
121.9481894866954
 30
0.0
 11
116.328180804082
 21
123.1231894868121
 31
0.0
  0
LINE
  5
5C7
330
18
100
AcDbEntity
  8
1
  6
Continuous
100
AcDbLine
 10
116.9281808040819
 20
123.1231894868121
 30
0.0
 11
117.0781808040811
 21
121.9481894866947
 31
0.0
  0
ARC
  5
5C8
330
18
100
AcDbEntity
  8
1
  6
Continuous
100
AcDbCircle
 10
113.4354450828407
 20
119.2981894867172
 30
0.0
 40
7.642735721241183
100
AcDbArc
 50
342.4120499452817
 51
17.58795005437662
  0
LINE
  5
5C9
330
18
100
AcDbEntity
  8
2
  6
Continuous
100
AcDbLine
 10
121.0781808040819
 20
117.5098672642739
 30
0.0
 11
121.1781808040819
 21
117.4651592087133
 31
0.0
  0
LINE
  5
5CA
330
18
100
AcDbEntity
  8
2
  6
Continuous
100
AcDbLine
 10
121.1781808040818
 20
121.1312197646779
 30
0.0
 11
121.0781808040819
 21
121.0865117091174
 31
0.0
  0
LINE
  5
5CB
330
18
100
AcDbEntity
  8
1
  6
Continuous
100
AcDbLine
 10
121.178180804082
 20
117.4651592087133
 30
0.0
 11
121.178180804082
 21
116.7981894866956
 31
0.0
  0
LINE
  5
5CC
330
18
100
AcDbEntity
  8
1
  6
Continuous
100
AcDbLine
 10
121.178180804082
 20
121.7981894866956
 30
0.0
 11
121.178180804082
 21
121.1312197646779
 31
0.0
  0
LINE
  5
5CD
330
18
100
AcDbEntity
  8
1
  6
Continuous
100
AcDbLine
 10
121.0781808040819
 20
121.1312197646779
 30
0.0
 11
121.178180804082
 21
121.1312197646779
 31
0.0
  0
LINE
  5
5CE
330
18
100
AcDbEntity
  8
1
  6
Continuous
100
AcDbLine
 10
121.0781808040819
 20
117.4651592087133
 30
0.0
 11
121.178180804082
 21
117.4651592087133
 31
0.0
  0
LINE
  5
5CF
330
18
100
AcDbEntity
  8
1
  6
Continuous
100
AcDbLine
 10
121.0781808040819
 20
121.7981894866956
 30
0.0
 11
121.178180804082
 21
121.7981894866956
 31
0.0
  0
LINE
  5
5D0
330
18
100
AcDbEntity
  8
1
  6
Continuous
100
AcDbLine
 10
121.0781808040819
 20
116.7981894866956
 30
0.0
 11
121.1781808040819
 21
116.7981894866956
 31
0.0
  0
LINE
  5
5D1
330
18
100
AcDbEntity
  8
1
  6
Continuous
100
AcDbLine
 10
120.7209153028084
 20
123.9169914866955
 30
0.0
 11
117.0781808040819
 21
123.9169914866955
 31
0.0
  0
LINE
  5
5D2
330
18
100
AcDbEntity
  8
1
  6
Continuous
100
AcDbLine
 10
116.9281808040819
 20
124.2981894866956
 30
0.0
 11
116.328180804082
 21
124.2981894866956
 31
0.0
  0
LINE
  5
5D3
330
18
100
AcDbEntity
  8
1
  6
Continuous
100
AcDbLine
 10
114.1781808040819
 20
125.798189486895
 30
0.0
 11
116.1781808040762
 21
125.7981894868962
 31
0.0
  0
LINE
  5
5D4
330
18
100
AcDbEntity
  8
1
  6
Continuous
100
AcDbLine
 10
113.5781808040732
 20
124.8948402706524
 30
0.0
 11
113.7502575181322
 21
124.6981894866956
 31
0.0
  0
LINE
  5
5D5
330
18
100
AcDbEntity
  8
1
  6
Continuous
100
AcDbLine
 10
121.0781808040819
 20
123.2981894866956
 30
0.0
 11
120.7209153028083
 21
123.9169914866955
 31
0.0
  0
LINE
  5
5E0
330
18
100
AcDbEntity
  8
1
  6
Continuous
100
AcDbLine
 10
121.8781808040819
 20
121.0981894866956
 30
0.0
 11
121.8781808040819
 21
117.4981894866956
 31
0.0
  0
LINE
  5
5E6
330
18
100
AcDbEntity
  8
1
  6
Continuous
100
AcDbLine
 10
177.7560412189465
 20
125.7981894868962
 30
0.0
 11
194.2560412189516
 21
125.7981894868962
 31
0.0
  0
ARC
  5
5EE
330
18
100
AcDbEntity
  8
1
  6
Continuous
100
AcDbCircle
 10
177.7560412189516
 20
119.298189486724
 30
0.0
 40
2.5
100
AcDbArc
 50
227.1563569564042
 51
312.8436430435957
  0
ARC
  5
5EF
330
18
100
AcDbEntity
  8
2
  6
Continuous
100
AcDbCircle
 10
177.7560412189516
 20
119.298189486724
 30
0.0
 40
2.066999999999999
100
AcDbArc
 50
214.6693966810416
 51
325.3306033189583
  0
ARC
  5
5F0
330
18
100
AcDbEntity
  8
1
  6
Continuous
100
AcDbCircle
 10
177.7560412189516
 20
119.298189486724
 30
0.0
 40
1.8
100
AcDbArc
 50
199.1881364537222
 51
340.8118635462777
  0
ARC
  5
5F1
330
18
100
AcDbEntity
  8
1
  6
Continuous
100
AcDbCircle
 10
177.7560412189516
 20
119.298189486724
 30
0.0
 40
2.5
100
AcDbArc
 50
47.15635695640423
 51
132.8436430435957
  0
ARC
  5
5F2
330
18
100
AcDbEntity
  8
2
  6
Continuous
100
AcDbCircle
 10
177.7560412189516
 20
119.298189486724
 30
0.0
 40
2.066999999999999
100
AcDbArc
 50
34.66939668104163
 51
145.3306033189574
  0
ARC
  5
5F3
330
18
100
AcDbEntity
  8
1
  6
Continuous
100
AcDbCircle
 10
177.7560412189516
 20
119.298189486724
 30
0.0
 40
1.8
100
AcDbArc
 50
19.18813645372224
 51
160.8118635462777
  0
LINE
  5
5F4
330
18
100
AcDbEntity
  8
1
  6
Continuous
100
AcDbLine
 10
176.0560412189516
 20
117.4651592087417
 30
0.0
 11
176.0560412189516
 21
121.1312197647063
 31
0.0
  0
LINE
  5
5F7
330
18
100
AcDbEntity
  8
1
  6
Continuous
100
AcDbLine
 10
179.4560412189516
 20
117.4651592087417
 30
0.0
 11
179.4560412189516
 21
121.1312197647064
 31
0.0
  0
LINE
  5
5FF
330
18
100
AcDbEntity
  8
1
  6
Continuous
100
AcDbLine
 10
179.006041218946
 20
126.185678143703
 30
0.0
 11
179.0060412189464
 21
125.7981894868962
 31
0.0
  0
LINE
  5
600
330
18
100
AcDbEntity
  8
1
  6
Continuous
100
AcDbLine
 10
176.5060412189461
 20
126.185678143701
 30
0.0
 11
176.5060412189465
 21
125.6768648979851
 31
0.0
  0
LINE
  5
60F
330
18
100
AcDbEntity
  8
1
  6
Continuous
100
AcDbLine
 10
192.7560412189515
 20
117.5731894867241
 30
0.0
 11
195.7560412189515
 21
117.5731894867241
 31
0.0
  0
LINE
  5
610
330
18
100
AcDbEntity
  8
1
  6
Continuous
100
AcDbLine
 10
192.7560412189515
 20
121.023189486724
 30
0.0
 11
195.7560412189515
 21
121.023189486724
 31
0.0
  0
ARC
  5
611
330
18
100
AcDbEntity
  8
1
  6
Continuous
100
AcDbCircle
 10
192.7560412189515
 20
118.5731894867241
 30
0.0
 40
1.0
100
AcDbArc
 50
180.0
 51
270.0
  0
LINE
  5
612
330
18
100
AcDbEntity
  8
1
  6
Continuous
100
AcDbLine
 10
191.7560412189515
 20
118.5731894867241
 30
0.0
 11
191.7560412189515
 21
120.023189486724
 31
0.0
  0
ARC
  5
613
330
18
100
AcDbEntity
  8
1
  6
Continuous
100
AcDbCircle
 10
192.7560412189515
 20
120.023189486724
 30
0.0
 40
1.0
100
AcDbArc
 50
90.0
 51
180.0
  0
ARC
  5
614
330
18
100
AcDbEntity
  8
1
  6
Continuous
100
AcDbCircle
 10
195.7560412189515
 20
120.023189486724
 30
0.0
 40
1.0
100
AcDbArc
 50
0.0
 51
90.0
  0
LINE
  5
615
330
18
100
AcDbEntity
  8
1
  6
Continuous
100
AcDbLine
 10
196.7560412189515
 20
118.573189486724
 30
0.0
 11
196.7560412189515
 21
120.023189486724
 31
0.0
  0
ARC
  5
616
330
18
100
AcDbEntity
  8
1
  6
Continuous
100
AcDbCircle
 10
195.7560412189515
 20
118.573189486724
 30
0.0
 40
1.0
100
AcDbArc
 50
270.0
 51
0.0
  0
LINE
  5
6BF
330
18
100
AcDbEntity
  8
1
  6
Continuous
100
AcDbLine
 10
172.2560412189543
 20
115.8340878712587
 30
0.0
 11
172.256041218955
 21
114.9680624677975
 31
0.0
  0
LINE
  5
6C1
330
18
100
AcDbEntity
  8
1
  6
Continuous
100
AcDbLine
 10
177.7560412189479
 20
123.9169914866955
 30
0.0
 11
181.7560410859755
 21
121.6075904867087
 31
0.0
  0
LINE
  5
6C3
330
18
100
AcDbEntity
  8
1
  6
Continuous
100
AcDbLine
 10
181.7560410859755
 20
121.6075904867087
 30
0.0
 11
181.7560410859755
 21
116.9887884867247
 31
0.0
  0
LINE
  5
6C5
330
18
100
AcDbEntity
  8
1
  6
Continuous
100
AcDbLine
 10
173.7560413519276
 20
121.6075904867232
 30
0.0
 11
173.7560413519276
 21
116.9887884867392
 31
0.0
  0
LINE
  5
6C6
330
18
100
AcDbEntity
  8
1
  6
Continuous
100
AcDbLine
 10
173.7560413519276
 20
121.6075904867232
 30
0.0
 11
177.7560412189479
 21
123.9169914866955
 31
0.0
  0
LINE
  5
6C7
330
18
100
AcDbEntity
  8
1
  6
Continuous
100
AcDbLine
 10
173.7560413519276
 20
116.9887884867309
 30
0.0
 11
177.7560412189479
 21
114.6793874867586
 31
0.0
  0
LINE
  5
6C8
330
18
100
AcDbEntity
  8
1
  6
Continuous
100
AcDbLine
 10
177.7560412189479
 20
114.6793874867586
 30
0.0
 11
181.7560410859755
 21
116.9887884867454
 31
0.0
  0
CIRCLE
  5
6CA
330
18
100
AcDbEntity
  8
1
  6
Continuous
100
AcDbCircle
 10
177.7560412189514
 20
119.2981894867239
 30
0.0
 40
3.999999999971663
  0
ARC
  5
6CB
330
18
100
AcDbEntity
  8
1
  6
Continuous
100
AcDbCircle
 10
177.7560412189514
 20
119.2981894867239
 30
0.0
 40
2.067000000000091
100
AcDbArc
 50
145.3306033189511
 51
214.6693966810488
  0
ARC
  5
6CC
330
18
100
AcDbEntity
  8
2
  6
Continuous
100
AcDbCircle
 10
177.7560412189514
 20
119.2981894867239
 30
0.0
 40
2.500000000000084
100
AcDbArc
 50
132.8436430435923
 51
227.1563569564076
  0
ARC
  5
6F6
330
18
100
AcDbEntity
  8
1
  6
Continuous
100
AcDbCircle
 10
177.7560412189476
 20
119.2981894867239
 30
0.0
 40
2.067000000000091
100
AcDbArc
 50
325.3306033189512
 51
34.66939668104883
  0
ARC
  5
6F7
330
18
100
AcDbEntity
  8
2
  6
Continuous
100
AcDbCircle
 10
177.7560412189476
 20
119.2981894867239
 30
0.0
 40
2.500000000000084
100
AcDbArc
 50
312.8436430435924
 51
47.15635695640761
  0
CIRCLE
  5
6F9
330
18
100
AcDbEntity
  8
1
  6
Continuous
100
AcDbCircle
 10
177.7560412189518
 20
119.2981894867238
 30
0.0
 40
4.999999999971834
  0
LINE
  5
726
330
18
100
AcDbEntity
  8
4
  6
CENTER
 48
0.2
100
AcDbLine
 10
16.6466664750269
 20
179.0555700731076
 30
0.0
 11
59.57831230571514
 21
179.0555700731077
 31
0.0
  0
LINE
  5
B55
330
18
100
AcDbEntity
  8
2
  6
Continuous
100
AcDbLine
 10
253.6339016337982
 20
113.9362868391297
 30
0.0
 11
255.333901633815
 21
124.6600921339444
 31
0.0
  0
LINE
  5
B57
330
18
100
AcDbEntity
  8
1
  6
Continuous
100
AcDbLine
 10
234.4339016338066
 20
123.2981894866956
 30
0.0
 11
234.7911671350802
 21
123.9169914866955
 31
0.0
  0
ARC
  5
B58
330
18
100
AcDbEntity
  8
1
  6
Continuous
100
AcDbCircle
 10
236.4578651662051
 20
122.7558700926815
 30
0.0
 40
2.023963532398457
100
AcDbArc
 50
150.0000000001016
 51
214.5650855476459
  0
LINE
  5
B59
330
18
100
AcDbEntity
  8
1
  6
Continuous
100
AcDbLine
 10
245.1839016337969
 20
123.6283165054165
 30
0.0
 11
245.1839016337969
 21
126.2981894867328
 31
0.0
  0
LINE
  5
B5A
330
18
100
AcDbEntity
  8
1
  6
Continuous
100
AcDbLine
 10
244.5339016338166
 20
125.6481894867228
 30
0.0
 11
244.5339016338136
 21
122.4719097010355
 31
0.0
  0
LINE
  5
B5B
330
18
100
AcDbEntity
  8
1
  6
Continuous
100
AcDbLine
 10
239.3339016338067
 20
112.7981894868962
 30
0.0
 11
239.3339016338067
 21
125.7981894868962
 31
0.0
  0
LINE
  5
B5C
330
18
100
AcDbEntity
  8
1
  6
Continuous
100
AcDbLine
 10
239.1839016338066
 20
124.2981894866956
 30
0.0
 11
239.1839016338066
 21
114.2981894866956
 31
0.0
  0
LINE
  5
B5D
330
18
100
AcDbEntity
  8
1
  6
Continuous
100
AcDbLine
 10
238.5839016338066
 20
124.2981894866956
 30
0.0
 11
238.5839016338066
 21
114.2981894866956
 31
0.0
  0
LINE
  5
B5E
330
18
100
AcDbEntity
  8
1
  6
Continuous
100
AcDbLine
 10
238.4339016338066
 20
123.9169914866955
 30
0.0
 11
238.4339016338066
 21
114.6793874866721
 31
0.0
  0
LINE
  5
B5F
330
18
100
AcDbEntity
  8
1
  6
Continuous
100
AcDbLine
 10
243.7339016337966
 20
112.9481894867245
 30
0.0
 11
243.7339016337978
 21
113.7015387023486
 31
0.0
  0
LINE
  5
B61
330
18
100
AcDbEntity
  8
1
  6
Continuous
100
AcDbLine
 10
241.3339016338067
 20
112.798189486895
 30
0.0
 11
241.3339016338067
 21
125.798189486895
 31
0.0
  0
LINE
  5
B62
330
18
100
AcDbEntity
  8
1
  6
Continuous
100
AcDbLine
 10
255.8339016338176
 20
126.2981894867091
 30
0.0
 11
255.8339016338134
 21
123.6283165054076
 31
0.0
  0
LINE
  5
B63
330
18
100
AcDbEntity
  8
1
  6
Continuous
100
AcDbLine
 10
258.1339016338066
 20
123.9481894866955
 30
0.0
 11
258.1339016338066
 21
114.6481894866956
 31
0.0
  0
LINE
  5
B64
330
18
100
AcDbEntity
  8
1
  6
Continuous
100
AcDbLine
 10
258.1339016338066
 20
123.9481894866955
 30
0.0
 11
259.1339016338066
 21
122.9481894866955
 31
0.0
  0
LINE
  5
B65
330
18
100
AcDbEntity
  8
1
  6
Continuous
100
AcDbLine
 10
257.8339016338191
 20
127.2981894866912
 30
0.0
 11
257.833901633794
 21
111.2981894866912
 31
0.0
  0
LINE
  5
B66
330
18
100
AcDbEntity
  8
1
  6
Continuous
100
AcDbLine
 10
256.5339016337933
 20
110.7981894866933
 30
0.0
 11
256.5339016337933
 21
127.7981894866933
 31
0.0
  0
LINE
  5
B67
330
18
100
AcDbEntity
  8
1
  6
Continuous
100
AcDbLine
 10
257.3339016338199
 20
127.798189486692
 30
0.0
 11
257.3339016338199
 21
110.798189486692
 31
0.0
  0
LINE
  5
B68
330
18
100
AcDbEntity
  8
1
  6
Continuous
100
AcDbLine
 10
256.3339016338196
 20
127.5981894866936
 30
0.0
 11
256.3339016337936
 21
110.9981894866936
 31
0.0
  0
LINE
  5
B69
330
18
100
AcDbEntity
  8
1
  6
Continuous
100
AcDbLine
 10
253.6339016338151
 20
124.6600921338932
 30
0.0
 11
253.6339016337982
 21
113.9362868391296
 31
0.0
  0
LINE
  5
B6A
330
18
100
AcDbEntity
  8
1
  6
Continuous
100
AcDbLine
 10
255.333901633815
 20
124.6600921339444
 30
0.0
 11
255.3339016337982
 21
113.9362868391182
 31
0.0
  0
LINE
  5
B6D
330
18
100
AcDbEntity
  8
4
  6
CENTER
 48
0.2
100
AcDbLine
 10
259.8839016338065
 20
119.2981894866956
 30
0.0
 11
232.8839016338066
 21
119.2981894866956
 31
0.0
  0
LINE
  5
B71
330
18
100
AcDbEntity
  8
2
  6
Continuous
100
AcDbLine
 10
255.8339016337965
 20
112.839689486709
 30
0.0
 11
251.6339016338066
 21
112.8396894867182
 31
0.0
  0
LINE
  5
B72
330
18
100
AcDbEntity
  8
1
  6
Continuous
100
AcDbLine
 10
245.1839016337895
 20
114.9680624675867
 30
0.0
 11
248.6339016338066
 21
114.9680624675861
 31
0.0
  0
LINE
  5
B73
330
18
100
AcDbEntity
  8
1
  6
Continuous
100
AcDbLine
 10
245.1839016337969
 20
123.6283165054165
 30
0.0
 11
248.6339016338066
 21
123.6283165054136
 31
0.0
  0
LINE
  5
B74
330
18
100
AcDbEntity
  8
1
  6
Continuous
100
AcDbLine
 10
256.3339016337957
 20
112.2981894866971
 30
0.0
 11
251.6339016338066
 21
112.2981894867073
 31
0.0
  0
LINE
  5
B75
330
18
100
AcDbEntity
  8
1
  6
Continuous
100
AcDbLine
 10
255.8339016337999
 20
114.9680624675851
 30
0.0
 11
255.8339016337956
 21
112.2981894867091
 31
0.0
  0
LINE
  5
B76
330
18
100
AcDbEntity
  8
2
  6
Continuous
100
AcDbLine
 10
255.8339016337964
 20
112.839689486709
 30
0.0
 11
256.3339016337957
 21
112.298189486708
 31
0.0
  0
LINE
  5
B78
330
18
100
AcDbEntity
  8
1
  6
Continuous
100
AcDbLine
 10
256.5339016337933
 20
110.7981894866933
 30
0.0
 11
257.3339016337933
 21
110.798189486692
 31
0.0
  0
LINE
  5
B79
330
18
100
AcDbEntity
  8
1
  6
Continuous
100
AcDbLine
 10
257.833901633794
 20
111.2981894866912
 30
0.0
 11
257.3339016337933
 21
110.798189486692
 31
0.0
  0
LINE
  5
B7A
330
18
100
AcDbEntity
  8
1
  6
Continuous
100
AcDbLine
 10
256.3339016337936
 20
110.9981894866936
 30
0.0
 11
256.5339016337933
 21
110.7981894866933
 31
0.0
  0
LINE
  5
B80
330
18
100
AcDbEntity
  8
2
  6
Continuous
100
AcDbLine
 10
256.3339016338134
 20
123.6283165054072
 30
0.0
 11
255.3339016338126
 21
123.10721600308
 31
0.0
  0
LINE
  5
B81
330
18
100
AcDbEntity
  8
2
  6
Continuous
100
AcDbLine
 10
241.9339016338116
 20
122.4719097010412
 30
0.0
 11
253.633901633802
 21
116.3750338238659
 31
0.0
  0
LINE
  5
B82
330
18
100
AcDbEntity
  8
1
  6
Continuous
100
AcDbLine
 10
255.3339016338134
 20
123.628316505408
 30
0.0
 11
256.3339016338134
 21
123.6283165054072
 31
0.0
  0
LINE
  5
B83
330
18
100
AcDbEntity
  8
1
  6
Continuous
100
AcDbLine
 10
255.3339016337998
 20
114.9680624675852
 30
0.0
 11
256.3339016338184
 21
114.968062467585
 31
0.0
  0
LINE
  5
B87
330
18
100
AcDbEntity
  8
1
  6
Continuous
100
AcDbLine
 10
259.1339016338066
 20
122.9481894866956
 30
0.0
 11
259.1339016338066
 21
120.5481894866956
 31
0.0
  0
LINE
  5
B88
330
18
100
AcDbEntity
  8
1
  6
Continuous
100
AcDbLine
 10
259.1339016338066
 20
118.0481894866956
 30
0.0
 11
259.1339016338066
 21
115.6481894866956
 31
0.0
  0
LINE
  5
B89
330
18
100
AcDbEntity
  8
1
  6
Continuous
100
AcDbLine
 10
259.1339016338066
 20
120.5481894866956
 30
0.0
 11
258.9339016338066
 21
120.3481894866956
 31
0.0
  0
LINE
  5
B8A
330
18
100
AcDbEntity
  8
1
  6
Continuous
100
AcDbLine
 10
258.9339016338066
 20
118.2481894866956
 30
0.0
 11
259.1339016338066
 21
118.0481894866956
 31
0.0
  0
LINE
  5
B8F
330
18
100
AcDbEntity
  8
1
  6
Continuous
100
AcDbLine
 10
258.9339016338066
 20
118.2481894866956
 30
0.0
 11
258.1339016338066
 21
118.2481894866956
 31
0.0
  0
LINE
  5
B90
330
18
100
AcDbEntity
  8
1
  6
Continuous
100
AcDbLine
 10
258.9339016338066
 20
120.3481894866956
 30
0.0
 11
258.1339016338066
 21
120.3481894866956
 31
0.0
  0
LINE
  5
B91
330
18
100
AcDbEntity
  8
1
  6
Continuous
100
AcDbLine
 10
258.1339016338066
 20
114.6481894866956
 30
0.0
 11
257.8339016337993
 21
114.6481894866956
 31
0.0
  0
LINE
  5
B92
330
18
100
AcDbEntity
  8
1
  6
Continuous
100
AcDbLine
 10
259.1339016338066
 20
115.6481894866956
 30
0.0
 11
258.1339016338066
 21
114.6481894866956
 31
0.0
  0
LINE
  5
B95
330
18
100
AcDbEntity
  8
2
  6
Continuous
100
AcDbLine
 10
253.6339016338151
 20
124.660092133944
 30
0.0
 11
255.3339016337982
 21
113.9362868391296
 31
0.0
  0
LINE
  5
B97
330
18
100
AcDbEntity
  8
1
  6
Continuous
100
AcDbLine
 10
253.6339016337982
 20
113.9362868391296
 30
0.0
 11
255.3339016337982
 21
113.9362868391296
 31
0.0
  0
LINE
  5
B98
330
18
100
AcDbEntity
  8
1
  6
Continuous
100
AcDbLine
 10
245.1839016337969
 20
112.2981894867327
 30
0.0
 11
245.1839016337969
 21
114.9680624675867
 31
0.0
  0
LINE
  5
B99
330
18
100
AcDbEntity
  8
1
  6
Continuous
100
AcDbLine
 10
244.5339016338077
 20
116.1244692718902
 30
0.0
 11
244.5339016338048
 21
112.9481894867227
 31
0.0
  0
LINE
  5
B9A
330
18
100
AcDbEntity
  8
1
  6
Continuous
100
AcDbLine
 10
241.3339016338067
 20
112.798189486895
 30
0.0
 11
239.3339016338124
 21
112.7981894868962
 31
0.0
  0
LINE
  5
B9B
330
18
100
AcDbEntity
  8
1
  6
Continuous
100
AcDbLine
 10
244.5339016337967
 20
112.9481894867228
 30
0.0
 11
243.7339016337966
 21
112.9481894867245
 31
0.0
  0
LINE
  5
B9C
330
18
100
AcDbEntity
  8
1
  6
Continuous
100
AcDbLine
 10
244.5339016337967
 20
112.9481894867228
 30
0.0
 11
245.1839016337968
 21
112.2981894867219
 31
0.0
  0
LINE
  5
BAA
330
18
100
AcDbEntity
  8
1
  6
Continuous
100
AcDbLine
 10
244.5339016338097
 20
122.4719097010355
 30
0.0
 11
241.9339016338116
 21
122.4719097010412
 31
0.0
  0
LINE
  5
BAB
330
18
100
AcDbEntity
  8
1
  6
Continuous
100
AcDbLine
 10
244.5339016337959
 20
116.1244692718902
 30
0.0
 11
241.9339016338017
 21
116.1244692718958
 31
0.0
  0
ARC
  5
BAD
330
18
100
AcDbEntity
  8
1
  6
Continuous
100
AcDbCircle
 10
251.5339016333703
 20
119.2981894864564
 30
0.0
 40
7.68586364660608
100
AcDbArc
 50
145.7095410069439
 51
155.6110021269648
  0
LINE
  5
BAE
330
18
100
AcDbEntity
  8
1
  6
Continuous
100
AcDbLine
 10
241.3339016338067
 20
122.7190811833433
 30
0.0
 11
241.6339016338019
 21
122.7190811833433
 31
0.0
  0
LINE
  5
BAF
330
18
100
AcDbEntity
  8
1
  6
Continuous
100
AcDbLine
 10
241.9339016337979
 20
113.7015387023469
 30
0.0
 11
241.6339016337984
 21
114.0443813438194
 31
0.0
  0
LINE
  5
BB0
330
18
100
AcDbEntity
  8
1
  6
Continuous
100
AcDbLine
 10
241.6339016337995
 20
114.7481894866899
 30
0.0
 11
241.6339016337984
 21
114.0443813438098
 31
0.0
  0
LINE
  5
BB1
330
18
100
AcDbEntity
  8
1
  6
Continuous
100
AcDbLine
 10
241.9339016337979
 20
113.7015387023469
 30
0.0
 11
243.7339016337834
 21
113.7015387023487
 31
0.0
  0
LINE
  5
BB2
330
18
100
AcDbEntity
  8
1
  6
Continuous
100
AcDbLine
 10
241.3339016338067
 20
114.7481894866901
 30
0.0
 11
241.6339016337995
 21
114.74818948669
 31
0.0
  0
ARC
  5
BB3
330
18
100
AcDbEntity
  8
1
  6
Continuous
100
AcDbCircle
 10
251.5339016333703
 20
119.2981894864564
 30
0.0
 40
7.68586364660608
100
AcDbArc
 50
204.3889978729287
 51
214.2904589929585
  0
LINE
  5
BB4
330
18
100
AcDbEntity
  8
2
  6
Continuous
100
AcDbLine
 10
234.3339016338067
 20
121.1312197646779
 30
0.0
 11
234.4339016338066
 21
121.0865117091174
 31
0.0
  0
LINE
  5
BB5
330
18
100
AcDbEntity
  8
2
  6
Continuous
100
AcDbLine
 10
234.4339016338067
 20
117.5098672642739
 30
0.0
 11
234.3339016338067
 21
117.4651592087133
 31
0.0
  0
LINE
  5
BB6
330
18
100
AcDbEntity
  8
2
  6
Continuous
100
AcDbLine
 10
234.4339016338066
 20
117.2311894866956
 30
0.0
 11
233.9009016338066
 21
117.2311894866956
 31
0.0
  0
LINE
  5
BB7
330
18
100
AcDbEntity
  8
2
  6
Continuous
100
AcDbLine
 10
234.4339016338066
 20
121.3651894866956
 30
0.0
 11
233.9009016338066
 21
121.3651894866956
 31
0.0
  0
LINE
  5
BB8
330
18
100
AcDbEntity
  8
1
  6
Continuous
100
AcDbLine
 10
233.6339016338066
 20
121.0981894866956
 30
0.0
 11
233.6339016338066
 21
117.4981894866956
 31
0.0
  0
LINE
  5
BB9
330
18
100
AcDbEntity
  8
1
  6
Continuous
100
AcDbLine
 10
234.4339016338066
 20
116.7981894866956
 30
0.0
 11
234.3339016338066
 21
116.7981894866956
 31
0.0
  0
LINE
  5
BBA
330
18
100
AcDbEntity
  8
1
  6
Continuous
100
AcDbLine
 10
234.4339016338066
 20
121.7981894866956
 30
0.0
 11
234.3339016338066
 21
121.7981894866956
 31
0.0
  0
LINE
  5
BBB
330
18
100
AcDbEntity
  8
1
  6
Continuous
100
AcDbLine
 10
234.4339016338066
 20
117.4651592087133
 30
0.0
 11
234.3339016338066
 21
117.4651592087133
 31
0.0
  0
LINE
  5
BBC
330
18
100
AcDbEntity
  8
1
  6
Continuous
100
AcDbLine
 10
234.4339016338066
 20
121.1312197646779
 30
0.0
 11
234.3339016338066
 21
121.1312197646779
 31
0.0
  0
LINE
  5
BBD
330
18
100
AcDbEntity
  8
1
  6
Continuous
100
AcDbLine
 10
234.3339016338066
 20
121.7981894866956
 30
0.0
 11
234.3339016338066
 21
121.1312197646779
 31
0.0
  0
LINE
  5
BBE
330
18
100
AcDbEntity
  8
1
  6
Continuous
100
AcDbLine
 10
234.3339016338066
 20
117.4651592087133
 30
0.0
 11
234.3339016338066
 21
116.7981894866956
 31
0.0
  0
ARC
  5
BBF
330
18
100
AcDbEntity
  8
1
  6
Continuous
100
AcDbCircle
 10
242.0766373550478
 20
119.2981894867172
 30
0.0
 40
7.642735721241183
100
AcDbArc
 50
162.4120499456233
 51
197.5879500547181
  0
LINE
  5
BC0
330
18
100
AcDbEntity
  8
1
  6
Continuous
100
AcDbLine
 10
238.5839016338066
 20
123.1231894868121
 30
0.0
 11
238.4339016338075
 21
121.9481894866947
 31
0.0
  0
LINE
  5
BC1
330
18
100
AcDbEntity
  8
1
  6
Continuous
100
AcDbLine
 10
239.3339016338067
 20
121.9481894866954
 30
0.0
 11
239.1839016338066
 21
123.1231894868121
 31
0.0
  0
LINE
  5
BC2
330
18
100
AcDbEntity
  8
1
  6
Continuous
100
AcDbLine
 10
238.4339016338056
 20
116.6481894866955
 30
0.0
 11
238.5839016338066
 21
115.4731894865794
 31
0.0
  0
LINE
  5
BC3
330
18
100
AcDbEntity
  8
1
  6
Continuous
100
AcDbLine
 10
239.1839016338066
 20
115.4731894865794
 30
0.0
 11
239.3339016338067
 21
116.6481894866957
 31
0.0
  0
LINE
  5
BC4
330
18
100
AcDbEntity
  8
1
  6
Continuous
100
AcDbLine
 10
238.4339016338066
 20
116.9887884866956
 30
0.0
 11
234.7911671350939
 21
116.9887884866956
 31
0.0
  0
LINE
  5
BC5
330
18
100
AcDbEntity
  8
1
  6
Continuous
100
AcDbLine
 10
238.4339016338066
 20
121.6075904866956
 30
0.0
 11
234.7911671350802
 21
121.6075904866956
 31
0.0
  0
LINE
  5
BC6
330
18
100
AcDbEntity
  8
1
  6
Continuous
100
AcDbLine
 10
234.4339016338066
 20
123.2981894866956
 30
0.0
 11
234.4339016338066
 21
115.2981894866956
 31
0.0
  0
LINE
  5
BC7
330
18
100
AcDbEntity
  8
1
  6
Continuous
100
AcDbLine
 10
233.6339016338066
 20
117.4981894866956
 30
0.0
 11
234.3339016338065
 21
116.7981894866956
 31
0.0
  0
LINE
  5
BC8
330
18
100
AcDbEntity
  8
1
  6
Continuous
100
AcDbLine
 10
233.6339016338066
 20
121.0981894866957
 30
0.0
 11
234.3339016338065
 21
121.7981894866957
 31
0.0
  0
ARC
  5
BC9
330
18
100
AcDbEntity
  8
1
  6
Continuous
100
AcDbCircle
 10
236.1339016338067
 20
119.2981894866956
 30
0.0
 40
2.569046515733119
100
AcDbArc
 50
134.4791005747732
 51
166.686260803513
  0
ARC
  5
BCA
330
18
100
AcDbEntity
  8
1
  6
Continuous
100
AcDbCircle
 10
236.1339016338067
 20
119.2981894866956
 30
0.0
 40
2.569046515733119
100
AcDbArc
 50
193.3137391964868
 51
225.5208994252267
  0
LINE
  5
BCB
330
18
100
AcDbEntity
  8
1
  6
Continuous
100
AcDbLine
 10
238.5839016338066
 20
114.2981894866956
 30
0.0
 11
239.1839016338066
 21
114.2981894866956
 31
0.0
  0
LINE
  5
BCC
330
18
100
AcDbEntity
  8
1
  6
Continuous
100
AcDbLine
 10
234.7911671350939
 20
114.6793874866742
 30
0.0
 11
238.4339016338717
 21
114.6793874866721
 31
0.0
  0
LINE
  5
BCD
330
18
100
AcDbEntity
  8
1
  6
Continuous
100
AcDbLine
 10
234.4339016338065
 20
115.2981894866957
 30
0.0
 11
234.7911671350939
 21
114.6793874866742
 31
0.0
  0
ARC
  5
BCE
330
18
100
AcDbEntity
  8
1
  6
Continuous
100
AcDbCircle
 10
236.4578651661672
 20
115.8405088807015
 30
0.0
 40
2.023963532360613
100
AcDbArc
 50
145.4349144513366
 51
209.9999999999895
  0
LINE
  5
BD2
330
18
100
AcDbEntity
  8
2
  6
Continuous
100
AcDbLine
 10
255.8339016338168
 20
125.7566894867091
 30
0.0
 11
251.6339016338066
 21
125.7566894867182
 31
0.0
  0
LINE
  5
BD3
330
18
100
AcDbEntity
  8
1
  6
Continuous
100
AcDbLine
 10
256.3339016338176
 20
126.2981894866971
 30
0.0
 11
251.6339016338066
 21
126.2981894867074
 31
0.0
  0
LINE
  5
BD4
330
18
100
AcDbEntity
  8
2
  6
Continuous
100
AcDbLine
 10
256.3339016338176
 20
126.2981894867079
 30
0.0
 11
255.8339016338168
 21
125.7566894867091
 31
0.0
  0
LINE
  5
BD6
330
18
100
AcDbEntity
  8
1
  6
Continuous
100
AcDbLine
 10
256.5339016338199
 20
127.7981894866933
 30
0.0
 11
257.3339016338199
 21
127.798189486692
 31
0.0
  0
LINE
  5
BD7
330
18
100
AcDbEntity
  8
1
  6
Continuous
100
AcDbLine
 10
257.3339016338199
 20
127.798189486692
 30
0.0
 11
257.8339016338191
 21
127.2981894866912
 31
0.0
  0
LINE
  5
BD8
330
18
100
AcDbEntity
  8
1
  6
Continuous
100
AcDbLine
 10
256.5339016338199
 20
127.7981894866933
 30
0.0
 11
256.3339016338196
 21
127.5981894866936
 31
0.0
  0
LINE
  5
BD9
330
18
100
AcDbEntity
  8
1
  6
Continuous
100
AcDbLine
 10
258.1339016338066
 20
123.9481894866956
 30
0.0
 11
257.8339016338139
 21
123.9481894866956
 31
0.0
  0
LINE
  5
BE1
330
18
100
AcDbEntity
  8
1
  6
Continuous
100
AcDbLine
 10
253.6339016338151
 20
124.6600921338932
 30
0.0
 11
255.333901633815
 21
124.6600921338932
 31
0.0
  0
LINE
  5
BE5
330
18
100
AcDbEntity
  8
1
  6
Continuous
100
AcDbLine
 10
241.3339016338067
 20
125.798189486895
 30
0.0
 11
239.3339016338124
 21
125.7981894868962
 31
0.0
  0
LINE
  5
BE8
330
18
100
AcDbEntity
  8
1
  6
Continuous
100
AcDbLine
 10
241.9339016338154
 20
124.8948402706524
 30
0.0
 11
241.6339016338148
 21
124.5519976291608
 31
0.0
  0
LINE
  5
BE9
330
18
100
AcDbEntity
  8
1
  6
Continuous
100
AcDbLine
 10
244.5339016338166
 20
125.6481894867228
 30
0.0
 11
243.7339016338166
 21
125.6481894867245
 31
0.0
  0
LINE
  5
BEA
330
18
100
AcDbEntity
  8
1
  6
Continuous
100
AcDbLine
 10
244.5339016338166
 20
125.6481894867227
 30
0.0
 11
245.183901633815
 21
126.2981894867218
 31
0.0
  0
LINE
  5
BEB
330
18
100
AcDbEntity
  8
1
  6
Continuous
100
AcDbLine
 10
241.9339016338154
 20
124.8948402706524
 30
0.0
 11
243.7339016338416
 21
124.8948402706513
 31
0.0
  0
LINE
  5
BEC
330
18
100
AcDbEntity
  8
1
  6
Continuous
100
AcDbLine
 10
241.3339016338067
 20
124.6981894866956
 30
0.0
 11
241.7618249197565
 21
124.6981894866956
 31
0.0
  0
LINE
  5
BED
330
18
100
AcDbEntity
  8
1
  6
Continuous
100
AcDbLine
 10
238.5839016338066
 20
124.2981894866956
 30
0.0
 11
239.1839016338066
 21
124.2981894866956
 31
0.0
  0
LINE
  5
BEE
330
18
100
AcDbEntity
  8
1
  6
Continuous
100
AcDbLine
 10
234.7911671350801
 20
123.9169914866955
 30
0.0
 11
238.4339016338066
 21
123.9169914866955
 31
0.0
  0
LINE
  5
1339
330
18
100
AcDbEntity
  8
1
  6
Continuous
100
AcDbLine
 10
116.1781808040819
 20
172.6704578599242
 30
0.0
 11
116.1781808040819
 21
202.1704578597465
 31
0.0
  0
LINE
  5
133A
330
18
100
AcDbEntity
  8
1
  6
Continuous
100
AcDbLine
 10
116.328180804082
 20
184.1704578597236
 30
0.0
 11
116.328180804082
 21
174.1704578597236
 31
0.0
  0
LINE
  5
133B
330
18
100
AcDbEntity
  8
1
  6
Continuous
100
AcDbLine
 10
116.9281808040819
 20
184.1704578597236
 30
0.0
 11
116.9281808040819
 21
174.1704578597236
 31
0.0
  0
LINE
  5
133C
330
18
100
AcDbEntity
  8
1
  6
Continuous
100
AcDbLine
 10
117.0781808040819
 20
183.1704577267547
 30
0.0
 11
117.0781808040819
 21
175.170457992707
 31
0.0
  0
LINE
  5
133D
330
18
100
AcDbEntity
  8
1
  6
Continuous
100
AcDbLine
 10
111.778180804088
 20
173.6704578597275
 30
0.0
 11
111.7781808040772
 21
182.1704578597409
 31
0.0
  0
LINE
  5
133E
330
18
100
AcDbEntity
  8
1
  6
Continuous
100
AcDbLine
 10
112.9781808040645
 20
173.7704578597449
 30
0.0
 11
112.9781808040819
 21
182.1704578597409
 31
0.0
  0
LINE
  5
133F
330
18
100
AcDbEntity
  8
1
  6
Continuous
100
AcDbLine
 10
114.1781808040819
 20
172.6704578599229
 30
0.0
 11
114.1781808040819
 21
202.1704578597453
 31
0.0
  0
LINE
  5
1343
330
18
100
AcDbEntity
  8
1
  6
Continuous
100
AcDbLine
 10
97.67818080406948
 20
187.1704578597192
 30
0.0
 11
97.67818080409456
 21
171.1704578597192
 31
0.0
  0
LINE
  5
1344
330
18
100
AcDbEntity
  8
1
  6
Continuous
100
AcDbLine
 10
98.97818080409535
 20
170.6704578597212
 30
0.0
 11
98.97818080409535
 21
187.6704578597212
 31
0.0
  0
LINE
  5
1345
330
18
100
AcDbEntity
  8
1
  6
Continuous
100
AcDbLine
 10
98.17818080406867
 20
187.67045785972
 30
0.0
 11
98.17818080406867
 21
170.67045785972
 31
0.0
  0
LINE
  5
1346
330
18
100
AcDbEntity
  8
1
  6
Continuous
100
AcDbLine
 10
99.17818080406895
 20
187.4704578597214
 30
0.0
 11
99.17818080409501
 21
170.8704578597215
 31
0.0
  0
LINE
  5
1348
330
18
100
AcDbEntity
  8
1
  6
Continuous
100
AcDbLine
 10
100.178180804089
 20
174.6704578597275
 30
0.0
 11
100.1781808040905
 21
173.6704578597275
 31
0.0
  0
LINE
  5
134C
330
18
100
AcDbEntity
  8
1
  6
Continuous
100
AcDbLine
 10
117.0781808040819
 20
179.1704578597236
 30
0.0
 11
120.7209153028084
 21
179.1704578597236
 31
0.0
  0
LINE
  5
134E
330
18
100
AcDbEntity
  8
4
  6
CENTER
 48
0.2
100
AcDbLine
 10
95.62818080408204
 20
179.1704578597236
 30
0.0
 11
123.6281808040819
 21
179.1704578597236
 31
0.0
  0
LINE
  5
1359
330
18
100
AcDbEntity
  8
1
  6
Continuous
100
AcDbLine
 10
98.97818080409535
 20
170.6704578597212
 30
0.0
 11
98.17818080409537
 21
170.67045785972
 31
0.0
  0
LINE
  5
135A
330
18
100
AcDbEntity
  8
1
  6
Continuous
100
AcDbLine
 10
97.67818080409453
 20
171.1704578597192
 30
0.0
 11
98.17818080409537
 21
170.67045785972
 31
0.0
  0
LINE
  5
135B
330
18
100
AcDbEntity
  8
1
  6
Continuous
100
AcDbLine
 10
99.17818080409501
 20
170.8704578597216
 30
0.0
 11
98.97818080409535
 21
170.6704578597212
 31
0.0
  0
LINE
  5
1365
330
18
100
AcDbEntity
  8
1
  6
Continuous
100
AcDbLine
 10
97.37818080408199
 20
183.8204578597236
 30
0.0
 11
97.3781808040821
 21
174.5204578597236
 31
0.0
  0
LINE
  5
1368
330
18
100
AcDbEntity
  8
1
  6
Continuous
100
AcDbLine
 10
97.37818080408199
 20
174.5204578597236
 30
0.0
 11
97.67818080408929
 21
174.5204578597236
 31
0.0
  0
LINE
  5
1379
330
18
100
AcDbEntity
  8
1
  6
Continuous
100
AcDbLine
 10
110.3281808040916
 20
173.6704578597274
 30
0.0
 11
110.3281808040916
 21
177.9204578597236
 31
0.0
  0
LINE
  5
137A
330
18
100
AcDbEntity
  8
1
  6
Continuous
100
AcDbLine
 10
110.9781808040728
 20
184.6704578597197
 30
0.0
 11
110.9781808040767
 21
180.4204578597236
 31
0.0
  0
LINE
  5
137B
330
18
100
AcDbEntity
  8
1
  6
Continuous
100
AcDbLine
 10
114.1781808040819
 20
172.6704578599229
 30
0.0
 11
116.1781808040762
 21
172.6704578599242
 31
0.0
  0
LINE
  5
137F
330
18
100
AcDbEntity
  8
1
  6
Continuous
100
AcDbLine
 10
112.978180804082
 20
175.6204578597236
 30
0.0
 11
112.778180804082
 21
175.4204578597235
 31
0.0
  0
LINE
  5
1380
330
18
100
AcDbEntity
  8
1
  6
Continuous
100
AcDbLine
 10
112.7781808040819
 20
182.1704578597409
 30
0.0
 11
112.778180804082
 21
175.4204578597235
 31
0.0
  0
LINE
  5
1384
330
18
100
AcDbEntity
  8
1
  6
Continuous
100
AcDbLine
 10
113.8781808040732
 20
184.6704578597197
 30
0.0
 11
113.8781808040772
 21
182.1704578597409
 31
0.0
  0
LINE
  5
1385
330
18
100
AcDbEntity
  8
1
  6
Continuous
100
AcDbLine
 10
114.1781808040819
 20
173.7704578597454
 30
0.0
 11
112.9781808040645
 21
173.7704578597449
 31
0.0
  0
LINE
  5
1386
330
18
100
AcDbEntity
  8
1
  6
Continuous
100
AcDbLine
 10
116.9281808040819
 20
182.9954578598399
 30
0.0
 11
117.0781808040811
 21
181.8204578597226
 31
0.0
  0
LINE
  5
1387
330
18
100
AcDbEntity
  8
1
  6
Continuous
100
AcDbLine
 10
116.1781808040819
 20
181.8204578597234
 30
0.0
 11
116.328180804082
 21
182.9954578598399
 31
0.0
  0
LINE
  5
1388
330
18
100
AcDbEntity
  8
1
  6
Continuous
100
AcDbLine
 10
117.0781808040829
 20
176.5204578597234
 30
0.0
 11
116.9281808040819
 21
175.3454578596073
 31
0.0
  0
LINE
  5
1389
330
18
100
AcDbEntity
  8
1
  6
Continuous
100
AcDbLine
 10
116.3281808040819
 20
175.3454578596073
 30
0.0
 11
116.1781808040819
 21
176.5204578597237
 31
0.0
  0
LINE
  5
138A
330
18
100
AcDbEntity
  8
1
  6
Continuous
100
AcDbLine
 10
116.9281808040819
 20
174.1704578597236
 30
0.0
 11
116.328180804082
 21
174.1704578597236
 31
0.0
  0
LINE
  5
138C
330
18
100
AcDbEntity
  8
1
  6
Continuous
100
AcDbLine
 10
112.2781808040819
 20
182.1704578597409
 30
0.0
 11
112.2781808040819
 21
175.4204578597236
 31
0.0
  0
LINE
  5
1396
330
18
100
AcDbEntity
  8
1
  6
Continuous
100
AcDbLine
 10
112.2781808040819
 20
175.4204578597236
 30
0.0
 11
112.7781808040819
 21
175.4204578597236
 31
0.0
  0
LINE
  5
139E
330
18
100
AcDbEntity
  8
1
  6
Continuous
100
AcDbLine
 10
121.8781808040819
 20
180.8704578597309
 30
0.0
 11
121.8781808040819
 21
177.4704578597309
 31
0.0
  0
LINE
  5
13A4
330
18
100
AcDbEntity
  8
1
  6
Continuous
100
AcDbLine
 10
121.178180804082
 20
180.8704578597309
 30
0.0
 11
121.178180804082
 21
177.4704578597309
 31
0.0
  0
ARC
  5
13A5
330
18
100
AcDbEntity
  8
1
  6
Continuous
100
AcDbCircle
 10
115.3014708254409
 20
181.170457793239
 30
0.0
 40
5.776709978641036
100
AcDbArc
 50
339.7438462615137
 51
20.25615373848795
  0
LINE
  5
13A6
330
18
100
AcDbEntity
  8
1
  6
Continuous
100
AcDbLine
 10
121.0781808040819
 20
183.1704577267547
 30
0.0
 11
121.0781808040819
 21
175.170457992707
 31
0.0
  0
LINE
  5
13B7
330
18
100
AcDbEntity
  8
1
  6
Continuous
100
AcDbLine
 10
98.97818080406871
 20
187.6704578597212
 30
0.0
 11
98.17818080406867
 21
187.67045785972
 31
0.0
  0
LINE
  5
13B8
330
18
100
AcDbEntity
  8
1
  6
Continuous
100
AcDbLine
 10
98.17818080406867
 20
187.67045785972
 30
0.0
 11
97.67818080406948
 21
187.1704578597192
 31
0.0
  0
LINE
  5
13B9
330
18
100
AcDbEntity
  8
1
  6
Continuous
100
AcDbLine
 10
98.97818080406864
 20
187.6704578597212
 30
0.0
 11
99.17818080406895
 21
187.4704578597216
 31
0.0
  0
LINE
  5
13BA
330
18
100
AcDbEntity
  8
1
  6
Continuous
100
AcDbLine
 10
97.37818080408199
 20
183.8204578597236
 30
0.0
 11
97.67818080407472
 21
183.8204578597236
 31
0.0
  0
LINE
  5
13C4
330
18
100
AcDbEntity
  8
1
  6
Continuous
100
AcDbLine
 10
114.1781808040819
 20
202.1704578597452
 30
0.0
 11
116.1781808040762
 21
202.1704578597465
 31
0.0
  0
LINE
  5
13C8
330
18
100
AcDbEntity
  8
1
  6
Continuous
100
AcDbLine
 10
116.9281808040819
 20
184.1704578597236
 30
0.0
 11
116.328180804082
 21
184.1704578597236
 31
0.0
  0
LINE
  5
15F6
330
18
100
AcDbEntity
  8
1
  6
Continuous
100
AcDbLine
 10
121.8781808040819
 20
180.8704578597309
 30
0.0
 11
121.0781808040819
 21
180.8704578597309
 31
0.0
  0
LINE
  5
15F7
330
18
100
AcDbEntity
  8
1
  6
Continuous
100
AcDbLine
 10
121.8781808040819
 20
177.4704578597309
 30
0.0
 11
121.0781808040819
 21
177.4704578597309
 31
0.0
  0
LINE
  5
1617
330
18
100
AcDbEntity
  8
1
  6
Continuous
100
AcDbLine
 10
117.0781808040819
 20
183.1704577267547
 30
0.0
 11
121.0781808040819
 21
183.1704577267547
 31
0.0
  0
LINE
  5
1618
330
18
100
AcDbEntity
  8
1
  6
Continuous
100
AcDbLine
 10
117.0781808040819
 20
175.170457992707
 30
0.0
 11
121.0781808040819
 21
175.170457992707
 31
0.0
  0
ARC
  5
161A
330
18
100
AcDbEntity
  8
1
  6
Continuous
100
AcDbCircle
 10
115.3014708254409
 20
177.1704579262081
 30
0.0
 40
5.776709978641036
100
AcDbArc
 50
339.743846261512
 51
20.25615373848622
  0
LINE
  5
162A
330
18
100
AcDbEntity
  8
1
  6
Continuous
100
AcDbLine
 10
111.778180804088
 20
173.6704578597275
 30
0.0
 11
106.8781808040819
 21
173.6704578597275
 31
0.0
  0
LINE
  5
162F
330
18
100
AcDbEntity
  8
1
  6
Continuous
100
AcDbLine
 10
100.1781808040905
 20
173.6704578597275
 30
0.0
 11
99.17818080409062
 21
173.6704578597275
 31
0.0
  0
LINE
  5
1630
330
18
100
AcDbEntity
  8
1
  6
Continuous
100
AcDbLine
 10
100.178180804089
 20
183.6704578597197
 30
0.0
 11
100.1781808040905
 21
184.6704578597197
 31
0.0
  0
LINE
  5
1633
330
18
100
AcDbEntity
  8
1
  6
Continuous
100
AcDbLine
 10
99.67818080407319
 20
173.6704578597275
 30
0.0
 11
99.67818080408031
 21
178.1704578597249
 31
0.0
  0
LINE
  5
1634
330
18
100
AcDbEntity
  8
1
  6
Continuous
100
AcDbLine
 10
113.8781808040732
 20
184.6704578597197
 30
0.0
 11
106.8781808040819
 21
184.6704578597197
 31
0.0
  0
LINE
  5
1635
330
18
100
AcDbEntity
  8
1
  6
Continuous
100
AcDbLine
 10
100.1781808040905
 20
184.6704578597197
 30
0.0
 11
99.17818080409062
 21
184.6704578597197
 31
0.0
  0
LINE
  5
16BC
330
18
100
AcDbEntity
  8
1
  6
Continuous
100
AcDbLine
 10
113.8781808040772
 20
182.1704578597409
 30
0.0
 11
111.7781808040772
 21
182.1704578597409
 31
0.0
  0
LINE
  5
16BD
330
18
100
AcDbEntity
  8
1
  6
Continuous
100
AcDbLine
 10
113.5781808040906
 20
182.1704578597409
 30
0.0
 11
113.5781808040906
 21
184.6704578597197
 31
0.0
  0
LINE
  5
16BE
330
18
100
AcDbEntity
  8
1
  6
Continuous
100
AcDbLine
 10
114.1781808040819
 20
183.7204578597454
 30
0.0
 11
113.8781808040747
 21
183.7204578597454
 31
0.0
  0
LINE
  5
172C
330
18
100
AcDbEntity
  8
1
  6
Continuous
100
AcDbLine
 10
99.67818080408349
 20
180.1704578597247
 30
0.0
 11
99.67818080409058
 21
184.6704578597197
 31
0.0
  0
LINE
  5
172D
330
18
100
AcDbEntity
  8
1
  6
Continuous
100
AcDbLine
 10
110.978180804079
 20
177.9204578597236
 30
0.0
 11
110.978180804083
 21
173.6704578597275
 31
0.0
  0
LINE
  5
172E
330
18
100
AcDbEntity
  8
1
  6
Continuous
100
AcDbLine
 10
110.3281808040916
 20
180.4204578597235
 30
0.0
 11
110.3281808040916
 21
184.6704578597197
 31
0.0
  0
CIRCLE
  5
1734
330
18
100
AcDbEntity
  8
1
  6
Continuous
100
AcDbCircle
 10
108.178180804082
 20
179.1704578597236
 30
0.0
 40
1.074999999999999
  0
LINE
  5
17A1
330
18
100
AcDbEntity
  8
1
  6
Continuous
100
AcDbLine
 10
111.7781808040852
 20
175.8704578597236
 30
0.0
 11
112.278180804082
 21
175.8704578597236
 31
0.0
  0
LINE
  5
17E5
330
18
100
AcDbEntity
  8
1
  6
Continuous
100
AcDbLine
 10
96.378180804082
 20
182.5997434996146
 30
0.0
 11
96.378180804082
 21
175.7411722198208
 31
0.0
  0
LINE
  5
17E6
330
18
100
AcDbEntity
  8
1
  6
Continuous
100
AcDbLine
 10
96.57818080408205
 20
182.8745096952095
 30
0.0
 11
97.37818080408182
 21
183.7003585208926
 31
0.0
  0
LINE
  5
17E7
330
18
100
AcDbEntity
  8
1
  6
Continuous
100
AcDbLine
 10
96.37818080408205
 20
182.5997434996146
 30
0.0
 11
96.57818080408205
 21
182.8745096952095
 31
0.0
  0
LINE
  5
17ED
330
18
100
AcDbEntity
  8
1
  6
Continuous
100
AcDbLine
 10
97.37818080408205
 20
174.9245255908513
 30
0.0
 11
96.53898080408197
 21
175.5704578597171
 31
0.0
  0
LINE
  5
17EF
330
18
100
AcDbEntity
  8
1
  6
Continuous
100
AcDbLine
 10
96.37818080408177
 20
175.7411722198208
 30
0.0
 11
96.53898080408197
 21
175.5704578597171
 31
0.0
  0
LINE
  5
180F
330
18
100
AcDbEntity
  8
1
  6
Continuous
100
AcDbLine
 10
241.6339016338148
 20
124.5519976291608
 30
0.0
 11
241.6339016337984
 21
114.0443813438194
 31
0.0
  0
LINE
  5
1810
330
18
100
AcDbEntity
  8
1
  6
Continuous
100
AcDbLine
 10
243.7339016338154
 20
124.8948402706513
 30
0.0
 11
243.7339016338166
 21
125.6481894867245
 31
0.0
  0
LINE
  5
1811
330
18
100
AcDbEntity
  8
1
  6
Continuous
100
AcDbLine
 10
241.9339016338154
 20
124.8948402706524
 30
0.0
 11
241.9339016338116
 21
122.4719097010412
 31
0.0
  0
LINE
  5
1812
330
18
100
AcDbEntity
  8
2
  6
Continuous
100
AcDbLine
 10
253.6339016338111
 20
122.2213451491238
 30
0.0
 11
241.9339016338017
 21
116.1244692718958
 31
0.0
  0
LINE
  5
1813
330
18
100
AcDbEntity
  8
2
  6
Continuous
100
AcDbLine
 10
255.3339016338007
 20
115.4891629699173
 30
0.0
 11
256.3339016338184
 21
114.968062467585
 31
0.0
  0
LINE
  5
1816
330
18
100
AcDbEntity
  8
1
  6
Continuous
100
AcDbLine
 10
241.9339016338116
 20
122.4719097010412
 30
0.0
 11
241.6339016338106
 21
121.818606118954
 31
0.0
  0
LINE
  5
1817
330
18
100
AcDbEntity
  8
1
  6
Continuous
100
AcDbLine
 10
241.9339016338116
 20
116.12446927235
 30
0.0
 11
241.6339016338106
 21
116.7777728544372
 31
0.0
  0
LINE
  5
1818
330
18
100
AcDbEntity
  8
1
  6
Continuous
100
AcDbLine
 10
241.9339016338017
 20
116.1244692723716
 30
0.0
 11
241.9339016337979
 21
113.7015387023469
 31
0.0
  0
LINE
  5
18BD
330
18
100
AcDbEntity
  8
4
  6
CENTER
 48
0.2
100
AcDbLine
 10
112.1781808040819
 20
195.6704578597453
 30
0.0
 11
118.1781808040819
 21
195.6704578597451
 31
0.0
  0
LINE
  5
18E3
330
18
100
AcDbEntity
  8
4
  6
CENTER
 48
0.2
100
AcDbLine
 10
112.1781808040819
 20
42.92592111364601
 30
0.0
 11
118.1781808040819
 21
42.92592111364604
 31
0.0
  0
LINE
  5
18E5
330
18
100
AcDbEntity
  8
1
  6
Continuous
100
AcDbLine
 10
117.0781808040819
 20
63.42592098068426
 30
0.0
 11
121.0781808040819
 21
63.42592098068426
 31
0.0
  0
LINE
  5
18E6
330
18
100
AcDbEntity
  8
1
  6
Continuous
100
AcDbLine
 10
117.0781808040819
 20
55.42592124663653
 30
0.0
 11
121.0781808040819
 21
55.42592124663653
 31
0.0
  0
LINE
  5
18E7
330
18
100
AcDbEntity
  8
4
  6
CENTER
 48
0.2
100
AcDbLine
 10
95.62818080408204
 20
59.42592111366771
 30
0.0
 11
123.6281808040819
 21
59.42592111366771
 31
0.0
  0
LINE
  5
18E8
330
18
100
AcDbEntity
  8
1
  6
Continuous
100
AcDbLine
 10
117.0781808040819
 20
59.42592111366771
 30
0.0
 11
120.7209153028084
 21
59.42592111366771
 31
0.0
  0
LINE
  5
18EA
330
18
100
AcDbEntity
  8
1
  6
Continuous
100
AcDbLine
 10
114.1781808040819
 20
65.92592111346835
 30
0.0
 11
114.1781808040819
 21
36.42592111364601
 31
0.0
  0
LINE
  5
18EB
330
18
100
AcDbEntity
  8
1
  6
Continuous
100
AcDbLine
 10
116.1781808040819
 20
65.9259211134671
 30
0.0
 11
116.1781808040819
 21
36.42592111364482
 31
0.0
  0
LINE
  5
18EE
330
18
100
AcDbEntity
  8
1
  6
Continuous
100
AcDbLine
 10
96.378180804082
 20
55.99663547377655
 30
0.0
 11
96.378180804082
 21
62.85520675357053
 31
0.0
  0
LINE
  5
18F0
330
18
100
AcDbEntity
  8
1
  6
Continuous
100
AcDbLine
 10
99.67818080407319
 20
64.92592111366382
 30
0.0
 11
99.67818080408031
 21
60.42592111366642
 31
0.0
  0
LINE
  5
18F1
330
18
100
AcDbEntity
  8
1
  6
Continuous
100
AcDbLine
 10
97.37818080408199
 20
54.77592111366771
 30
0.0
 11
97.3781808040821
 21
64.07592111366767
 31
0.0
  0
LINE
  5
18F2
330
18
100
AcDbEntity
  8
1
  6
Continuous
100
AcDbLine
 10
99.17818080406895
 20
51.12592111366972
 30
0.0
 11
99.17818080409501
 21
67.72592111366972
 31
0.0
  0
LINE
  5
18F3
330
18
100
AcDbEntity
  8
1
  6
Continuous
100
AcDbLine
 10
98.17818080406867
 20
50.92592111367128
 30
0.0
 11
98.17818080406867
 21
67.92592111367127
 31
0.0
  0
LINE
  5
18F4
330
18
100
AcDbEntity
  8
1
  6
Continuous
100
AcDbLine
 10
98.97818080409535
 20
67.92592111367006
 30
0.0
 11
98.97818080409535
 21
50.92592111367006
 31
0.0
  0
LINE
  5
18F5
330
18
100
AcDbEntity
  8
1
  6
Continuous
100
AcDbLine
 10
97.67818080406948
 20
51.42592111367207
 30
0.0
 11
97.67818080409456
 21
67.42592111367208
 31
0.0
  0
LINE
  5
18F7
330
18
100
AcDbEntity
  8
1
  6
Continuous
100
AcDbLine
 10
96.37818080408177
 20
62.85520675357053
 30
0.0
 11
96.53898080408197
 21
63.02592111367414
 31
0.0
  0
LINE
  5
18F8
330
18
100
AcDbEntity
  8
1
  6
Continuous
100
AcDbLine
 10
97.37818080408205
 20
63.67185338254
 30
0.0
 11
96.53898080408197
 21
63.02592111367414
 31
0.0
  0
LINE
  5
18FC
330
18
100
AcDbEntity
  8
1
  6
Continuous
100
AcDbLine
 10
100.1781808040905
 20
64.92592111366382
 30
0.0
 11
99.17818080409062
 21
64.92592111366383
 31
0.0
  0
LINE
  5
18FD
330
18
100
AcDbEntity
  8
1
  6
Continuous
100
AcDbLine
 10
101.8781808040903
 20
63.92592111367681
 30
0.0
 11
100.178180804089
 21
63.92592111366377
 31
0.0
  0
LINE
  5
18FE
330
18
100
AcDbEntity
  8
1
  6
Continuous
100
AcDbLine
 10
97.37818080408199
 20
64.07592111366767
 30
0.0
 11
97.67818080408929
 21
64.07592111366767
 31
0.0
  0
LINE
  5
18FF
330
18
100
AcDbEntity
  8
1
  6
Continuous
100
AcDbLine
 10
99.17818080409501
 20
67.7259211136697
 30
0.0
 11
98.97818080409535
 21
67.92592111367006
 31
0.0
  0
LINE
  5
1900
330
18
100
AcDbEntity
  8
1
  6
Continuous
100
AcDbLine
 10
97.67818080409453
 20
67.42592111367208
 30
0.0
 11
98.17818080409537
 21
67.92592111367127
 31
0.0
  0
LINE
  5
1901
330
18
100
AcDbEntity
  8
1
  6
Continuous
100
AcDbLine
 10
98.97818080409535
 20
67.92592111367006
 30
0.0
 11
98.17818080409537
 21
67.92592111367127
 31
0.0
  0
LINE
  5
1902
330
18
100
AcDbEntity
  8
1
  6
Continuous
100
AcDbLine
 10
100.178180804089
 20
63.92592111366377
 30
0.0
 11
100.1781808040905
 21
64.92592111366382
 31
0.0
  0
LINE
  5
1903
330
18
100
AcDbEntity
  8
1
  6
Continuous
100
AcDbLine
 10
96.37818080408205
 20
55.99663547377655
 30
0.0
 11
96.57818080408205
 21
55.72186927818183
 31
0.0
  0
LINE
  5
1904
330
18
100
AcDbEntity
  8
1
  6
Continuous
100
AcDbLine
 10
96.57818080408205
 20
55.72186927818183
 30
0.0
 11
97.37818080408182
 21
54.89602045249863
 31
0.0
  0
ARC
  5
1905
330
18
100
AcDbEntity
  8
1
  6
Continuous
100
AcDbCircle
 10
100.4281808040819
 20
59.42592111366771
 30
0.0
 40
1.24999999999997
100
AcDbArc
 50
90.0
 51
270.0
  0
LINE
  5
1907
330
18
100
AcDbEntity
  8
1
  6
Continuous
100
AcDbLine
 10
99.67818080408349
 20
58.42592111366659
 30
0.0
 11
99.67818080409058
 21
53.92592111367156
 31
0.0
  0
LINE
  5
190A
330
18
100
AcDbEntity
  8
1
  6
Continuous
100
AcDbLine
 10
100.1781808040905
 20
53.9259211136716
 30
0.0
 11
99.17818080409062
 21
53.92592111367156
 31
0.0
  0
LINE
  5
190C
330
18
100
AcDbEntity
  8
1
  6
Continuous
100
AcDbLine
 10
100.178180804089
 20
54.92592111367162
 30
0.0
 11
100.1781808040905
 21
53.9259211136716
 31
0.0
  0
LINE
  5
190E
330
18
100
AcDbEntity
  8
1
  6
Continuous
100
AcDbLine
 10
97.37818080408199
 20
54.77592111366771
 30
0.0
 11
97.67818080407472
 21
54.77592111366771
 31
0.0
  0
LINE
  5
190F
330
18
100
AcDbEntity
  8
1
  6
Continuous
100
AcDbLine
 10
98.97818080406864
 20
50.92592111367004
 30
0.0
 11
99.17818080406895
 21
51.12592111366968
 31
0.0
  0
LINE
  5
1910
330
18
100
AcDbEntity
  8
1
  6
Continuous
100
AcDbLine
 10
98.17818080406867
 20
50.92592111367128
 30
0.0
 11
97.67818080406948
 21
51.42592111367211
 31
0.0
  0
LINE
  5
1911
330
18
100
AcDbEntity
  8
1
  6
Continuous
100
AcDbLine
 10
98.97818080406871
 20
50.92592111367006
 30
0.0
 11
98.17818080406867
 21
50.92592111367128
 31
0.0
  0
LINE
  5
1912
330
18
100
AcDbEntity
  8
1
  6
Continuous
100
AcDbLine
 10
110.978180804079
 20
60.67592111366767
 30
0.0
 11
110.978180804083
 21
64.92592111366382
 31
0.0
  0
LINE
  5
1914
330
18
100
AcDbEntity
  8
1
  6
Continuous
100
AcDbLine
 10
112.2781808040819
 20
56.42592111365036
 30
0.0
 11
112.2781808040819
 21
63.17592111366771
 31
0.0
  0
LINE
  5
1915
330
18
100
AcDbEntity
  8
1
  6
Continuous
100
AcDbLine
 10
112.7781808040819
 20
56.42592111365036
 30
0.0
 11
112.778180804082
 21
63.17592111366778
 31
0.0
  0
LINE
  5
1916
330
18
100
AcDbEntity
  8
1
  6
Continuous
100
AcDbLine
 10
110.3281808040916
 20
64.92592111366386
 30
0.0
 11
110.3281808040916
 21
60.67592111366767
 31
0.0
  0
LINE
  5
1917
330
18
100
AcDbEntity
  8
1
  6
Continuous
100
AcDbLine
 10
112.9781808040645
 20
64.82592111364633
 30
0.0
 11
112.9781808040819
 21
56.42592111365036
 31
0.0
  0
LINE
  5
1918
330
18
100
AcDbEntity
  8
1
  6
Continuous
100
AcDbLine
 10
111.778180804088
 20
64.92592111366382
 30
0.0
 11
111.7781808040772
 21
56.42592111365036
 31
0.0
  0
LINE
  5
1919
330
18
100
AcDbEntity
  8
1
  6
Continuous
100
AcDbLine
 10
117.0781808040819
 20
55.42592124663653
 30
0.0
 11
117.0781808040819
 21
63.42592098068426
 31
0.0
  0
LINE
  5
191A
330
18
100
AcDbEntity
  8
1
  6
Continuous
100
AcDbLine
 10
116.9281808040819
 20
54.42592111366771
 30
0.0
 11
116.9281808040819
 21
64.42592111366771
 31
0.0
  0
LINE
  5
191B
330
18
100
AcDbEntity
  8
1
  6
Continuous
100
AcDbLine
 10
116.328180804082
 20
54.42592111366771
 30
0.0
 11
116.328180804082
 21
64.42592111366771
 31
0.0
  0
LINE
  5
191C
330
18
100
AcDbEntity
  8
1
  6
Continuous
100
AcDbLine
 10
111.778180804088
 20
64.92592111366382
 30
0.0
 11
106.878180804082
 21
64.92592111366382
 31
0.0
  0
LINE
  5
191E
330
18
100
AcDbEntity
  8
1
  6
Continuous
100
AcDbLine
 10
111.7781808040852
 20
62.72592111366768
 30
0.0
 11
112.278180804082
 21
62.72592111366768
 31
0.0
  0
LINE
  5
191F
330
18
100
AcDbEntity
  8
1
  6
Continuous
100
AcDbLine
 10
112.2781808040819
 20
63.17592111366771
 30
0.0
 11
112.7781808040819
 21
63.17592111366771
 31
0.0
  0
LINE
  5
1920
330
18
100
AcDbEntity
  8
1
  6
Continuous
100
AcDbLine
 10
116.9281808040819
 20
64.42592111366771
 30
0.0
 11
116.328180804082
 21
64.42592111366771
 31
0.0
  0
LINE
  5
1921
330
18
100
AcDbEntity
  8
1
  6
Continuous
100
AcDbLine
 10
116.3281808040819
 20
63.25092111378393
 30
0.0
 11
116.1781808040819
 21
62.07592111366762
 31
0.0
  0
LINE
  5
1922
330
18
100
AcDbEntity
  8
1
  6
Continuous
100
AcDbLine
 10
117.0781808040829
 20
62.07592111366786
 30
0.0
 11
116.9281808040819
 21
63.25092111378393
 31
0.0
  0
LINE
  5
1923
330
18
100
AcDbEntity
  8
1
  6
Continuous
100
AcDbLine
 10
114.1781808040819
 20
64.82592111364585
 30
0.0
 11
112.9781808040645
 21
64.82592111364633
 31
0.0
  0
LINE
  5
1924
330
18
100
AcDbEntity
  8
1
  6
Continuous
100
AcDbLine
 10
112.978180804082
 20
62.97592111366771
 30
0.0
 11
112.778180804082
 21
63.17592111366773
 31
0.0
  0
LINE
  5
1925
330
18
100
AcDbEntity
  8
1
  6
Continuous
100
AcDbLine
 10
114.1781808040819
 20
65.92592111346835
 30
0.0
 11
116.1781808040762
 21
65.9259211134671
 31
0.0
  0
LINE
  5
1926
330
18
100
AcDbEntity
  8
1
  6
Continuous
100
AcDbLine
 10
100.4281808040819
 20
60.67592111366771
 30
0.0
 11
103.8781808040819
 21
60.67592111366771
 31
0.0
  0
LINE
  5
1927
330
18
100
AcDbEntity
  8
1
  6
Continuous
100
AcDbLine
 10
100.4281808040819
 20
58.17592111366771
 30
0.0
 11
103.8781808040819
 21
58.17592111366772
 31
0.0
  0
LINE
  5
1928
330
18
100
AcDbEntity
  8
1
  6
Continuous
100
AcDbLine
 10
113.8781808040732
 20
53.92592111367156
 30
0.0
 11
106.8781808040819
 21
53.92592111367157
 31
0.0
  0
CIRCLE
  5
1929
330
18
100
AcDbEntity
  8
1
  6
Continuous
100
AcDbCircle
 10
108.178180804082
 20
59.42592111366771
 30
0.0
 40
1.074999999999999
  0
LINE
  5
192C
330
18
100
AcDbEntity
  8
1
  6
Continuous
100
AcDbLine
 10
110.3281808040916
 20
58.17592111366774
 30
0.0
 11
110.3281808040916
 21
53.9259211136716
 31
0.0
  0
LINE
  5
192D
330
18
100
AcDbEntity
  8
1
  6
Continuous
100
AcDbLine
 10
114.1781808040819
 20
54.87592111364588
 30
0.0
 11
113.8781808040747
 21
54.87592111364588
 31
0.0
  0
LINE
  5
192E
330
18
100
AcDbEntity
  8
1
  6
Continuous
100
AcDbLine
 10
113.5781808040906
 20
56.42592111365036
 30
0.0
 11
113.5781808040906
 21
53.92592111367154
 31
0.0
  0
LINE
  5
192F
330
18
100
AcDbEntity
  8
1
  6
Continuous
100
AcDbLine
 10
113.8781808040772
 20
56.42592111365036
 30
0.0
 11
111.7781808040772
 21
56.42592111365036
 31
0.0
  0
LINE
  5
1930
330
18
100
AcDbEntity
  8
1
  6
Continuous
100
AcDbLine
 10
116.9281808040819
 20
54.42592111366771
 30
0.0
 11
116.328180804082
 21
54.42592111366771
 31
0.0
  0
LINE
  5
1931
330
18
100
AcDbEntity
  8
1
  6
Continuous
100
AcDbLine
 10
116.1781808040819
 20
56.77592111366791
 30
0.0
 11
116.328180804082
 21
55.60092111355125
 31
0.0
  0
LINE
  5
1932
330
18
100
AcDbEntity
  8
1
  6
Continuous
100
AcDbLine
 10
116.9281808040819
 20
55.60092111355125
 30
0.0
 11
117.0781808040811
 21
56.77592111366856
 31
0.0
  0
LINE
  5
1933
330
18
100
AcDbEntity
  8
1
  6
Continuous
100
AcDbLine
 10
113.8781808040732
 20
53.92592111367156
 30
0.0
 11
113.8781808040772
 21
56.42592111365036
 31
0.0
  0
LINE
  5
1934
330
18
100
AcDbEntity
  8
1
  6
Continuous
100
AcDbLine
 10
110.9781808040728
 20
53.92592111367156
 30
0.0
 11
110.9781808040767
 21
58.17592111366773
 31
0.0
  0
LINE
  5
1935
330
18
100
AcDbEntity
  8
1
  6
Continuous
100
AcDbLine
 10
114.1781808040819
 20
36.42592111364606
 30
0.0
 11
116.1781808040762
 21
36.42592111364482
 31
0.0
  0
ARC
  5
1938
330
18
100
AcDbEntity
  8
1
  6
Continuous
100
AcDbCircle
 10
115.3014708254409
 20
61.42592104718318
 30
0.0
 40
5.776709978641036
100
AcDbArc
 50
339.7438462615137
 51
20.25615373848795
  0
LINE
  5
1939
330
18
100
AcDbEntity
  8
1
  6
Continuous
100
AcDbLine
 10
121.0781808040819
 20
55.42592124663653
 30
0.0
 11
121.0781808040819
 21
63.42592098068426
 31
0.0
  0
LINE
  5
193A
330
18
100
AcDbEntity
  8
1
  6
Continuous
100
AcDbLine
 10
121.8781808040819
 20
61.12592111366035
 30
0.0
 11
121.0781808040819
 21
61.12592111366038
 31
0.0
  0
LINE
  5
193B
330
18
100
AcDbEntity
  8
1
  6
Continuous
100
AcDbLine
 10
121.8781808040819
 20
57.72592111366043
 30
0.0
 11
121.0781808040819
 21
57.72592111366041
 31
0.0
  0
ARC
  5
193C
330
18
100
AcDbEntity
  8
1
  6
Continuous
100
AcDbCircle
 10
115.3014708254409
 20
57.4259211801522
 30
0.0
 40
5.776709978641036
100
AcDbArc
 50
339.743846261512
 51
20.25615373848622
  0
LINE
  5
193D
330
18
100
AcDbEntity
  8
1
  6
Continuous
100
AcDbLine
 10
121.178180804082
 20
57.72592111366036
 30
0.0
 11
121.178180804082
 21
61.12592111366038
 31
0.0
  0
LINE
  5
193E
330
18
100
AcDbEntity
  8
1
  6
Continuous
100
AcDbLine
 10
121.8781808040819
 20
57.72592111366043
 30
0.0
 11
121.8781808040819
 21
61.12592111366035
 31
0.0
  0
CIRCLE
  5
1AFA
330
18
100
AcDbEntity
  8
1
  6
Continuous
100
AcDbCircle
 10
100.678180804082
 20
59.42592111366771
 30
0.0
 40
1.074999999999994
  0
ARC
  5
1AFB
330
18
100
AcDbEntity
  8
1
  6
Continuous
100
AcDbCircle
 10
103.178180804082
 20
59.42592111366771
 30
0.0
 40
1.074999999999994
100
AcDbArc
 50
49.37067121667579
 51
310.6293287833242
  0
ARC
  5
1ED0
330
18
100
AcDbEntity
  8
1
  6
Continuous
100
AcDbCircle
 10
81.47891657340101
 20
119.2981894866957
 30
0.0
 40
25.39926423068099
100
AcDbArc
 50
348.859627838833
 51
11.14037216116696
  0
ARC
  5
1ED1
330
18
100
AcDbEntity
  8
1
  6
Continuous
100
AcDbCircle
 10
129.2774450347629
 20
119.2981894866956
 30
0.0
 40
25.39926423068099
100
AcDbArc
 50
168.859627838833
 51
191.1403721611669
  0
LINE
  5
1ED2
330
18
100
AcDbEntity
  8
1
  6
Continuous
100
AcDbLine
 10
106.8781808040819
 20
110.7981894866925
 30
0.0
 11
106.8781808040819
 21
127.7981894866925
 31
0.0
  0
LINE
  5
1ED3
330
18
100
AcDbEntity
  8
1
  6
Continuous
100
AcDbLine
 10
103.8781808040819
 20
110.7981894866925
 30
0.0
 11
103.8781808040819
 21
127.7981894866925
 31
0.0
  0
ARC
  5
1EDD
330
18
100
AcDbEntity
  8
1
  6
Continuous
100
AcDbCircle
 10
100.3825400701823
 20
126.6528327683134
 30
0.0
 40
6.495640733899679
100
AcDbArc
 50
337.8681197990974
 51
20.0000000000624
  0
ARC
  5
1EDE
330
18
100
AcDbEntity
  8
1
  6
Continuous
100
AcDbCircle
 10
110.3738215379816
 20
126.6528327683134
 30
0.0
 40
6.495640733899679
100
AcDbArc
 50
159.9999999999375
 51
202.1318802009025
  0
LINE
  5
1EDF
330
18
100
AcDbEntity
  8
1
  6
Continuous
100
AcDbLine
 10
103.8781808040819
 20
127.7981894866925
 30
0.0
 11
104.3567851292416
 21
129.1131440629175
 31
0.0
  0
LINE
  5
1EE0
330
18
100
AcDbEntity
  8
1
  6
Continuous
100
AcDbLine
 10
106.878180804082
 20
127.7981894866925
 30
0.0
 11
106.399576478924
 21
129.1131440629175
 31
0.0
  0
LINE
  5
1EE1
330
18
100
AcDbEntity
  8
1
  6
Continuous
100
AcDbLine
 10
106.3995764789239
 20
129.1131440629175
 30
0.0
 11
104.3567851292416
 21
129.1131440629175
 31
0.0
  0
LINE
  5
1EE2
330
18
100
AcDbEntity
  8
1
  6
Continuous
100
AcDbLine
 10
106.3995764789239
 20
124.2056667748031
 30
0.0
 11
104.3567851292415
 21
124.2056667748031
 31
0.0
  0
ARC
  5
1EEF
330
18
100
AcDbEntity
  8
1
  6
Continuous
100
AcDbCircle
 10
100.3825400701653
 20
111.9435462050746
 30
0.0
 40
6.495640733916607
100
AcDbArc
 50
339.9999999999375
 51
22.13188020087255
  0
ARC
  5
1EF0
330
18
100
AcDbEntity
  8
1
  6
Continuous
100
AcDbCircle
 10
110.3738215379985
 20
111.9435462050746
 30
0.0
 40
6.495640733916607
100
AcDbArc
 50
157.8681197991274
 51
200.0000000000623
  0
LINE
  5
1EF2
330
18
100
AcDbEntity
  8
1
  6
Continuous
100
AcDbLine
 10
106.3995764789239
 20
114.3907121985882
 30
0.0
 11
104.3567851292415
 21
114.3907121985882
 31
0.0
  0
LINE
  5
1EF3
330
18
100
AcDbEntity
  8
1
  6
Continuous
100
AcDbLine
 10
106.8781808040819
 20
110.7981894866925
 30
0.0
 11
106.3995764789239
 21
109.4832349104675
 31
0.0
  0
LINE
  5
1EF4
330
18
100
AcDbEntity
  8
1
  6
Continuous
100
AcDbLine
 10
103.8781808040819
 20
110.7981894866925
 30
0.0
 11
104.3567851292415
 21
109.4832349104675
 31
0.0
  0
LINE
  5
1EF5
330
18
100
AcDbEntity
  8
1
  6
Continuous
100
AcDbLine
 10
106.3995764789239
 20
109.4832349104675
 30
0.0
 11
104.3567851292415
 21
109.4832349104675
 31
0.0
  0
LINE
  5
1F0A
330
18
100
AcDbEntity
  8
1
  6
Continuous
100
AcDbLine
 10
101.8781808040903
 20
64.92592111366382
 30
0.0
 11
101.8781808040903
 21
63.92592111367681
 31
0.0
  0
LINE
  5
1F0B
330
18
100
AcDbEntity
  8
1
  6
Continuous
100
AcDbLine
 10
101.8781808040903
 20
53.9259211136716
 30
0.0
 11
101.8781808040903
 21
54.92592111365858
 31
0.0
  0
LINE
  5
1F0C
330
18
100
AcDbEntity
  8
1
  6
Continuous
100
AcDbLine
 10
101.8781808040903
 20
54.92592111365858
 30
0.0
 11
100.178180804089
 21
54.92592111367162
 31
0.0
  0
LINE
  5
1F0D
330
18
100
AcDbEntity
  8
1
  6
Continuous
100
AcDbLine
 10
101.8781808040903
 20
184.6704578597197
 30
0.0
 11
101.8781808040903
 21
183.6704578597327
 31
0.0
  0
LINE
  5
1F0E
330
18
100
AcDbEntity
  8
1
  6
Continuous
100
AcDbLine
 10
101.8781808040903
 20
183.6704578597327
 30
0.0
 11
100.178180804089
 21
183.6704578597197
 31
0.0
  0
LINE
  5
1F0F
330
18
100
AcDbEntity
  8
1
  6
Continuous
100
AcDbLine
 10
101.8781808040903
 20
174.6704578597145
 30
0.0
 11
100.178180804089
 21
174.6704578597275
 31
0.0
  0
LINE
  5
1F10
330
18
100
AcDbEntity
  8
1
  6
Continuous
100
AcDbLine
 10
101.8781808040903
 20
173.6704578597275
 30
0.0
 11
101.8781808040903
 21
174.6704578597145
 31
0.0
  0
CIRCLE
  5
1F12
330
18
100
AcDbEntity
  8
1
  6
Continuous
100
AcDbCircle
 10
100.678180804082
 20
179.1704578597236
 30
0.0
 40
1.074999999999994
  0
ARC
  5
1F13
330
18
100
AcDbEntity
  8
1
  6
Continuous
100
AcDbCircle
 10
103.178180804082
 20
179.1704578597236
 30
0.0
 40
1.074999999999994
100
AcDbArc
 50
49.37067121667604
 51
310.6293287833238
  0
LINE
  5
1F14
330
18
100
AcDbEntity
  8
1
  6
Continuous
100
AcDbLine
 10
100.4281808040819
 20
177.9204578597236
 30
0.0
 11
103.8781808040819
 21
177.9204578597236
 31
0.0
  0
LINE
  5
1F15
330
18
100
AcDbEntity
  8
1
  6
Continuous
100
AcDbLine
 10
100.4281808040819
 20
180.4204578597236
 30
0.0
 11
103.8781808040819
 21
180.4204578597236
 31
0.0
  0
ARC
  5
1F16
330
18
100
AcDbEntity
  8
1
  6
Continuous
100
AcDbCircle
 10
100.4281808040819
 20
179.1704578597236
 30
0.0
 40
1.24999999999997
100
AcDbArc
 50
90.0
 51
270.0
  0
LINE
  5
1F36
330
18
100
AcDbEntity
  8
1
  6
Continuous
100
AcDbLine
 10
103.8781808040819
 20
187.6704578597205
 30
0.0
 11
106.8781808040819
 21
187.6704578597205
 31
0.0
  0
LINE
  5
1F38
330
18
100
AcDbEntity
  8
1
  6
Continuous
100
AcDbLine
 10
103.8781808040819
 20
170.6704578597205
 30
0.0
 11
106.8781808040819
 21
170.6704578597206
 31
0.0
  0
LINE
  5
1F3A
330
18
100
AcDbEntity
  8
1
  6
Continuous
100
AcDbLine
 10
106.8781808040819
 20
170.6704578597206
 30
0.0
 11
106.8781808040819
 21
187.6704578597205
 31
0.0
  0
LINE
  5
1F3B
330
18
100
AcDbEntity
  8
1
  6
Continuous
100
AcDbLine
 10
103.8781808040819
 20
170.6704578597205
 30
0.0
 11
103.8781808040819
 21
187.6704578597205
 31
0.0
  0
LINE
  5
1F3C
330
18
100
AcDbEntity
  8
1
  6
Continuous
100
AcDbLine
 10
106.3995764789239
 20
179.1704578597204
 30
0.0
 11
104.3567851292416
 21
179.1704578597204
 31
0.0
  0
ARC
  5
1F3E
330
18
100
AcDbEntity
  8
1
  6
Continuous
100
AcDbCircle
 10
87.76890709032931
 20
183.4204578597204
 30
0.0
 40
19.10927371375267
100
AcDbArc
 50
347.1496643135119
 51
12.85033568648808
  0
ARC
  5
1F3F
330
18
100
AcDbEntity
  8
1
  6
Continuous
100
AcDbCircle
 10
87.76890709032931
 20
174.9204578597204
 30
0.0
 40
19.10927371375267
100
AcDbArc
 50
347.1496643135119
 51
12.85033568648807
  0
ARC
  5
1F40
330
18
100
AcDbEntity
  8
1
  6
Continuous
100
AcDbCircle
 10
122.9874545178363
 20
174.9204578597204
 30
0.0
 40
19.10927371375267
100
AcDbArc
 50
167.1496643135119
 51
192.850335686488
  0
ARC
  5
1F41
330
18
100
AcDbEntity
  8
1
  6
Continuous
100
AcDbCircle
 10
122.9874545178363
 20
183.4204578597204
 30
0.0
 40
19.10927371375267
100
AcDbArc
 50
167.1496643135119
 51
192.850335686488
  0
LINE
  5
1F45
330
18
100
AcDbEntity
  8
1
  6
Continuous
100
AcDbLine
 10
50.70237533499275
 20
124.2056667749607
 30
0.0
 11
42.20237533499285
 21
129.1131440630667
 31
0.0
  0
LINE
  5
1F46
330
18
100
AcDbEntity
  8
1
  6
Continuous
100
AcDbLine
 10
33.70237533499281
 20
124.2056667749607
 30
0.0
 11
42.20237533499285
 21
129.1131440630667
 31
0.0
  0
LINE
  5
1F47
330
18
100
AcDbEntity
  8
1
  6
Continuous
100
AcDbLine
 10
33.70237533499275
 20
124.20566677496
 30
0.0
 11
33.70237533499286
 21
114.390712198732
 31
0.0
  0
LINE
  5
1F48
330
18
100
AcDbEntity
  8
1
  6
Continuous
100
AcDbLine
 10
33.70237533499275
 20
114.390712198735
 30
0.0
 11
42.20237533499285
 21
109.4832349106216
 31
0.0
  0
LINE
  5
1F49
330
18
100
AcDbEntity
  8
1
  6
Continuous
100
AcDbLine
 10
50.70237533499275
 20
114.390712198735
 30
0.0
 11
42.20237533499285
 21
109.4832349106216
 31
0.0
  0
LINE
  5
1F4A
330
18
100
AcDbEntity
  8
1
  6
Continuous
100
AcDbLine
 10
50.70237533499275
 20
124.2056667749564
 30
0.0
 11
50.70237533499287
 21
114.3907121987357
 31
0.0
  0
LINE
  5
1F67
330
18
100
AcDbEntity
  8
1
  6
Continuous
100
AcDbLine
 10
103.8781808040819
 20
184.6704578597197
 30
0.0
 11
101.8781808040903
 21
184.6704578597197
 31
0.0
  0
LINE
  5
1F68
330
18
100
AcDbEntity
  8
1
  6
Continuous
100
AcDbLine
 10
106.8781808040819
 20
180.4204578597236
 30
0.0
 11
111.7781808040827
 21
180.4204578597236
 31
0.0
  0
LINE
  5
1F69
330
18
100
AcDbEntity
  8
1
  6
Continuous
100
AcDbLine
 10
106.8781808040819
 20
177.9204578597236
 30
0.0
 11
111.7781808040793
 21
177.9204578597236
 31
0.0
  0
LINE
  5
1F6A
330
18
100
AcDbEntity
  8
1
  6
Continuous
100
AcDbLine
 10
103.8781808040819
 20
173.6704578597275
 30
0.0
 11
101.8781808040904
 21
173.6704578597275
 31
0.0
  0
LINE
  5
1F9B
330
18
100
AcDbEntity
  8
1
  6
Continuous
100
AcDbLine
 10
106.8781808040819
 20
126.2981894867139
 30
0.0
 11
110.3281808040741
 21
126.2981894867214
 31
0.0
  0
LINE
  5
1F9C
330
18
100
AcDbEntity
  8
2
  6
Continuous
100
AcDbLine
 10
106.8781808040819
 20
125.7566894867247
 30
0.0
 11
110.8696808040723
 21
125.7566894867334
 31
0.0
  0
LINE
  5
1F9D
330
18
100
AcDbEntity
  8
1
  6
Continuous
100
AcDbLine
 10
103.8781808040819
 20
123.6283165054111
 30
0.0
 11
101.8781808040751
 21
123.6283165054094
 31
0.0
  0
LINE
  5
1F9E
330
18
100
AcDbEntity
  8
2
  6
Continuous
100
AcDbLine
 10
103.8781808040819
 20
117.767116594354
 30
0.0
 11
101.8781808040862
 21
116.5760297319046
 31
0.0
  0
LINE
  5
1F9F
330
18
100
AcDbEntity
  8
2
  6
Continuous
100
AcDbLine
 10
106.8781808040819
 20
119.0426320849279
 30
0.0
 11
111.7781808040926
 21
116.1244692718919
 31
0.0
  0
LINE
  5
1FA0
330
18
100
AcDbEntity
  8
1
  6
Continuous
100
AcDbLine
 10
103.8781808040819
 20
114.9680624675857
 30
0.0
 11
101.8781808040887
 21
114.9680624675854
 31
0.0
  0
LINE
  5
1FA1
330
18
100
AcDbEntity
  8
2
  6
Continuous
100
AcDbLine
 10
106.8781808040819
 20
112.8396894867247
 30
0.0
 11
110.8696808040917
 21
112.8396894867334
 31
0.0
  0
LINE
  5
1FA2
330
18
100
AcDbEntity
  8
1
  6
Continuous
100
AcDbLine
 10
106.8781808040819
 20
112.2981894867138
 30
0.0
 11
110.3281808040911
 21
112.2981894867213
 31
0.0
  0
ARC
  5
1FCC
330
18
100
AcDbEntity
  8
1
  6
Continuous
100
AcDbCircle
 10
122.9874545178363
 20
63.67592111367085
 30
0.0
 40
19.10927371375267
100
AcDbArc
 50
167.1496643135119
 51
192.850335686488
  0
ARC
  5
1FCD
330
18
100
AcDbEntity
  8
1
  6
Continuous
100
AcDbCircle
 10
87.76890709032931
 20
63.67592111367085
 30
0.0
 40
19.10927371375267
100
AcDbArc
 50
347.1496643135119
 51
12.85033568648807
  0
LINE
  5
1FCE
330
18
100
AcDbEntity
  8
1
  6
Continuous
100
AcDbLine
 10
103.8781808040819
 20
67.92592111367074
 30
0.0
 11
103.8781808040819
 21
50.92592111367078
 31
0.0
  0
LINE
  5
1FCF
330
18
100
AcDbEntity
  8
1
  6
Continuous
100
AcDbLine
 10
106.8781808040819
 20
67.92592111367068
 30
0.0
 11
106.8781808040819
 21
50.92592111367078
 31
0.0
  0
LINE
  5
1FD0
330
18
100
AcDbEntity
  8
1
  6
Continuous
100
AcDbLine
 10
103.8781808040819
 20
67.92592111367074
 30
0.0
 11
106.8781808040819
 21
67.92592111367068
 31
0.0
  0
ARC
  5
1FD1
330
18
100
AcDbEntity
  8
1
  6
Continuous
100
AcDbCircle
 10
122.9874545178363
 20
55.17592111367085
 30
0.0
 40
19.10927371375267
100
AcDbArc
 50
167.1496643135119
 51
192.850335686488
  0
ARC
  5
1FD2
330
18
100
AcDbEntity
  8
1
  6
Continuous
100
AcDbCircle
 10
87.76890709032931
 20
55.17592111367085
 30
0.0
 40
19.10927371375267
100
AcDbArc
 50
347.1496643135119
 51
12.85033568648807
  0
LINE
  5
1FD3
330
18
100
AcDbEntity
  8
1
  6
Continuous
100
AcDbLine
 10
106.3995764789239
 20
59.42592111367085
 30
0.0
 11
104.3567851292416
 21
59.42592111367085
 31
0.0
  0
LINE
  5
1FD4
330
18
100
AcDbEntity
  8
1
  6
Continuous
100
AcDbLine
 10
103.8781808040819
 20
50.92592111367078
 30
0.0
 11
106.8781808040819
 21
50.92592111367078
 31
0.0
  0
LINE
  5
2005
330
18
100
AcDbEntity
  8
1
  6
Continuous
100
AcDbLine
 10
103.8781808040819
 20
64.92592111366382
 30
0.0
 11
101.8781808040903
 21
64.92592111366382
 31
0.0
  0
LINE
  5
2006
330
18
100
AcDbEntity
  8
1
  6
Continuous
100
AcDbLine
 10
106.8781808040819
 20
60.67592111366769
 30
0.0
 11
111.7781808040827
 21
60.67592111366771
 31
0.0
  0
LINE
  5
2007
330
18
100
AcDbEntity
  8
1
  6
Continuous
100
AcDbLine
 10
106.8781808040819
 20
58.17592111366773
 30
0.0
 11
111.7781808040793
 21
58.17592111366774
 31
0.0
  0
LINE
  5
2008
330
18
100
AcDbEntity
  8
1
  6
Continuous
100
AcDbLine
 10
103.8781808040819
 20
53.92592111367157
 30
0.0
 11
101.8781808040835
 21
53.9259211136716
 31
0.0
  0
LINE
  5
2009
330
18
100
AcDbEntity
  8
1
  6
Continuous
100
AcDbLine
 10
169.2560412189524
 20
124.2056667748406
 30
0.0
 11
177.7560412189524
 21
129.1131440629467
 31
0.0
  0
LINE
  5
200A
330
18
100
AcDbEntity
  8
1
  6
Continuous
100
AcDbLine
 10
183.4977109694616
 20
125.7981894868962
 30
0.0
 11
177.7560412189524
 21
129.1131440629467
 31
0.0
  0
ARC
  5
200B
330
18
100
AcDbEntity
  8
2
  6
Continuous
100
AcDbCircle
 10
177.7560412189523
 20
119.298189486726
 30
0.0
 40
7.0
100
AcDbArc
 50
141.7867892983163
 51
218.2132107017735
  0
ARC
  5
200C
330
18
100
AcDbEntity
  8
1
  6
Continuous
100
AcDbCircle
 10
177.7560412189523
 20
119.298189486726
 30
0.0
 40
8.5
100
AcDbArc
 50
49.88083310337568
 51
310.119166900186
  0
LINE
  5
200D
330
18
100
AcDbEntity
  8
1
  6
Continuous
100
AcDbLine
 10
183.4977109700491
 20
112.7981894868962
 30
0.0
 11
177.7560412189524
 21
109.4832349105016
 31
0.0
  0
LINE
  5
200F
330
18
100
AcDbEntity
  8
1
  6
Continuous
100
AcDbLine
 10
169.2560412189523
 20
124.20566677484
 30
0.0
 11
169.2560412189525
 21
114.3907121986119
 31
0.0
  0
LINE
  5
2010
330
18
100
AcDbEntity
  8
1
  6
Continuous
100
AcDbLine
 10
169.2560412189523
 20
114.3907121986149
 30
0.0
 11
177.7560412189524
 21
109.4832349105016
 31
0.0
  0
ARC
  5
2047
330
18
100
AcDbEntity
  8
1
  6
Continuous
100
AcDbCircle
 10
274.0331658644877
 20
119.2981894866957
 30
0.0
 40
25.39926423068099
100
AcDbArc
 50
168.859627838833
 51
191.140372161167
  0
ARC
  5
2048
330
18
100
AcDbEntity
  8
1
  6
Continuous
100
AcDbCircle
 10
226.2346374031257
 20
119.2981894866956
 30
0.0
 40
25.39926423068099
100
AcDbArc
 50
348.859627838833
 51
11.14037216116697
  0
LINE
  5
2049
330
18
100
AcDbEntity
  8
1
  6
Continuous
100
AcDbLine
 10
248.6339016338066
 20
110.7981894866925
 30
0.0
 11
248.6339016338066
 21
127.7981894866925
 31
0.0
  0
LINE
  5
204A
330
18
100
AcDbEntity
  8
1
  6
Continuous
100
AcDbLine
 10
251.6339016338066
 20
110.7981894866925
 30
0.0
 11
251.6339016338066
 21
127.7981894866925
 31
0.0
  0
ARC
  5
2081
330
18
100
AcDbEntity
  8
1
  6
Continuous
100
AcDbCircle
 10
245.1382608998901
 20
111.9435462050746
 30
0.0
 40
6.495640733916607
100
AcDbArc
 50
339.9999999999376
 51
22.13188020087254
  0
ARC
  5
2082
330
18
100
AcDbEntity
  8
1
  6
Continuous
100
AcDbCircle
 10
255.1295423677233
 20
111.9435462050746
 30
0.0
 40
6.495640733916607
100
AcDbArc
 50
157.8681197991274
 51
200.0000000000624
  0
LINE
  5
2087
330
18
100
AcDbEntity
  8
1
  6
Continuous
100
AcDbLine
 10
249.1125059589647
 20
109.4832349104675
 30
0.0
 11
251.155297308647
 21
109.4832349104675
 31
0.0
  0
LINE
  5
2088
330
18
100
AcDbEntity
  8
1
  6
Continuous
100
AcDbLine
 10
251.6339016338066
 20
110.7981894866925
 30
0.0
 11
251.155297308647
 21
109.4832349104675
 31
0.0
  0
LINE
  5
2089
330
18
100
AcDbEntity
  8
1
  6
Continuous
100
AcDbLine
 10
248.6339016338066
 20
110.7981894866925
 30
0.0
 11
249.1125059589647
 21
109.4832349104675
 31
0.0
  0
LINE
  5
2091
330
18
100
AcDbEntity
  8
1
  6
Continuous
100
AcDbLine
 10
249.1125059589647
 20
114.3907121985882
 30
0.0
 11
251.155297308647
 21
114.3907121985882
 31
0.0
  0
LINE
  5
20B8
330
18
100
AcDbEntity
  8
1
  6
Continuous
100
AcDbLine
 10
249.1125059589647
 20
129.1131440629175
 30
0.0
 11
251.155297308647
 21
129.1131440629175
 31
0.0
  0
LINE
  5
20B9
330
18
100
AcDbEntity
  8
1
  6
Continuous
100
AcDbLine
 10
251.6339016338066
 20
127.7981894866925
 30
0.0
 11
251.155297308647
 21
129.1131440629175
 31
0.0
  0
LINE
  5
20BA
330
18
100
AcDbEntity
  8
1
  6
Continuous
100
AcDbLine
 10
248.6339016338066
 20
127.7981894866925
 30
0.0
 11
249.1125059589646
 21
129.1131440629175
 31
0.0
  0
LINE
  5
20BB
330
18
100
AcDbEntity
  8
1
  6
Continuous
100
AcDbLine
 10
249.1125059589647
 20
124.2056667748031
 30
0.0
 11
251.155297308647
 21
124.2056667748031
 31
0.0
  0
ARC
  5
20BC
330
18
100
AcDbEntity
  8
1
  6
Continuous
100
AcDbCircle
 10
245.138260899907
 20
126.6528327683134
 30
0.0
 40
6.495640733899679
100
AcDbArc
 50
337.8681197990974
 51
20.00000000006243
  0
ARC
  5
20BD
330
18
100
AcDbEntity
  8
1
  6
Continuous
100
AcDbCircle
 10
255.1295423677063
 20
126.6528327683134
 30
0.0
 40
6.495640733899679
100
AcDbArc
 50
159.9999999999375
 51
202.1318802009025
  0
LINE
  5
2207
330
18
100
AcDbEntity
  8
1
  6
Continuous
100
AcDbLine
 10
251.6339016338066
 20
123.6283165054111
 30
0.0
 11
253.6339016338134
 21
123.6283165054094
 31
0.0
  0
LINE
  5
2208
330
18
100
AcDbEntity
  8
2
  6
Continuous
100
AcDbLine
 10
248.6339016338066
 20
125.7566894867247
 30
0.0
 11
244.6424016338162
 21
125.7566894867334
 31
0.0
  0
LINE
  5
2209
330
18
100
AcDbEntity
  8
2
  6
Continuous
100
AcDbLine
 10
248.6339016338066
 20
112.8396894867247
 30
0.0
 11
244.6424016337969
 21
112.8396894867334
 31
0.0
  0
LINE
  5
220A
330
18
100
AcDbEntity
  8
1
  6
Continuous
100
AcDbLine
 10
251.6339016338066
 20
114.9680624675857
 30
0.0
 11
253.6339016337998
 21
114.9680624675854
 31
0.0
  0
LINE
  5
2215
330
18
100
AcDbEntity
  8
1
  6
Continuous
100
AcDbLine
 10
248.6339016338066
 20
126.2981894867139
 30
0.0
 11
245.1839016338145
 21
126.2981894867214
 31
0.0
  0
LINE
  5
2216
330
18
100
AcDbEntity
  8
1
  6
Continuous
100
AcDbLine
 10
248.6339016338066
 20
112.2981894867138
 30
0.0
 11
245.1839016337975
 21
112.2981894867213
 31
0.0
  0
ENDSEC
  0
SECTION
  2
OBJECTS
  0
DICTIONARY
  5
C
330
0
100
AcDbDictionary
281
     1
  3
ACAD_CIP_PREVIOUS_PRODUCT_INFO
350
22BD
  3
ACAD_COLOR
350
22A0
  3
ACAD_DETAILVIEWSTYLE
350
22B9
  3
ACAD_GROUP
350
D
  3
ACAD_LAYOUT
350
94
  3
ACAD_MATERIAL
350
226E
  3
ACAD_MLEADERSTYLE
350
22B5
  3
ACAD_MLINESTYLE
350
1B
  3
ACAD_PLOTSETTINGS
350
95
  3
ACAD_PLOTSTYLENAME
350
226C
  3
ACAD_SCALELIST
350
22A3
  3
ACAD_SECTIONVIEWSTYLE
350
22B7
  3
ACAD_TABLESTYLE
350
22A1
  3
ACAD_VISUALSTYLE
350
2287
  3
ACDB_RECOMPOSE_DATA
350
22DB
  3
AcDbVariableDictionary
350
22CE
  3
CONTENTDICTIONARY
350
3D
  3
DWGPROPS
350
22DC
  0
DICTIONARY
  5
22BE
330
E
100
AcDbDictionary
280
     1
281
     1
  3
ADSK_XREC_LAYER_RECONCILED
360
22BF
  0
DICTIONARY
  5
22C0
330
4E
100
AcDbDictionary
280
     1
281
     1
  3
ADSK_XREC_LAYER_RECONCILED
360
22C1
  0
DICTIONARY
  5
22C2
330
4F
100
AcDbDictionary
280
     1
281
     1
  3
ADSK_XREC_LAYER_RECONCILED
360
22C3
  0
DICTIONARY
  5
22C4
330
50
100
AcDbDictionary
280
     1
281
     1
  3
ADSK_XREC_LAYER_RECONCILED
360
22C5
  0
DICTIONARY
  5
22C6
330
51
100
AcDbDictionary
280
     1
281
     1
  3
ADSK_XREC_LAYER_RECONCILED
360
22C7
  0
DICTIONARY
  5
22C8
330
52
100
AcDbDictionary
280
     1
281
     1
  3
ADSK_XREC_LAYER_RECONCILED
360
22C9
  0
DICTIONARY
  5
22CA
330
53
100
AcDbDictionary
280
     1
281
     1
  3
ADSK_XREC_LAYER_RECONCILED
360
22CB
  0
DICTIONARY
  5
22CC
330
54
100
AcDbDictionary
280
     1
281
     1
  3
ADSK_XREC_LAYER_RECONCILED
360
22CD
  0
DICTIONARY
  5
2267
330
18
100
AcDbDictionary
281
     1
  3
ACAD_LAYOUTSELFREF
350
2268
  0
DICTIONARY
  5
2265
330
15
100
AcDbDictionary
281
     1
  3
ACAD_LAYOUTSELFREF
350
2266
  0
XRECORD
  5
22BD
102
{ACAD_REACTORS
330
C
102
}
330
C
100
AcDbXrecord
280
     1
300
ACDLT
300
2014
300
ACDLT_F_S
  0
DICTIONARY
  5
22A0
102
{ACAD_REACTORS
330
C
102
}
330
C
100
AcDbDictionary
281
     1
  0
DICTIONARY
  5
22B9
102
{ACAD_REACTORS
330
C
102
}
330
C
100
AcDbDictionary
281
     1
  3
Imperial24
350
22BA
  0
DICTIONARY
  5
D
102
{ACAD_REACTORS
330
C
102
}
330
C
100
AcDbDictionary
281
     1
  0
DICTIONARY
  5
94
102
{ACAD_REACTORS
330
C
102
}
330
C
100
AcDbDictionary
281
     1
  3
Model
350
22BB
  3
レイアウト1
350
22BC
  0
DICTIONARY
  5
226E
102
{ACAD_REACTORS
330
C
102
}
330
C
100
AcDbDictionary
281
     1
  3
ByBlock
350
2277
  3
ByLayer
350
226F
  3
Global
350
227F
  0
DICTIONARY
  5
22B5
102
{ACAD_REACTORS
330
C
102
}
330
C
100
AcDbDictionary
281
     1
  3
Standard
350
22B6
  0
DICTIONARY
  5
1B
102
{ACAD_REACTORS
330
C
102
}
330
C
100
AcDbDictionary
281
     1
  3
STANDARD
350
1C
  0
DICTIONARY
  5
95
102
{ACAD_REACTORS
330
C
102
}
330
C
100
AcDbDictionary
281
     1
  0
ACDBDICTIONARYWDFLT
  5
226C
102
{ACAD_REACTORS
330
C
102
}
330
C
100
AcDbDictionary
281
     1
  3
Normal
350
226D
100
AcDbDictionaryWithDefault
340
226D
  0
DICTIONARY
  5
22A3
102
{ACAD_REACTORS
330
C
102
}
330
C
100
AcDbDictionary
281
     1
  3
A0
350
22A4
  3
A1
350
22A5
  3
A2
350
22A6
  3
A3
350
22A7
  3
A4
350
22A8
  3
A5
350
22A9
  3
A6
350
22AA
  3
A7
350
22AB
  3
A8
350
22AC
  3
A9
350
22AD
  3
B0
350
22AE
  3
B1
350
22AF
  3
B2
350
22B0
  3
B3
350
22B1
  3
B4
350
22B2
  3
B5
350
22B3
  3
B6
350
22B4
  0
DICTIONARY
  5
22B7
102
{ACAD_REACTORS
330
C
102
}
330
C
100
AcDbDictionary
281
     1
  3
Imperial24
350
22B8
  0
DICTIONARY
  5
22A1
102
{ACAD_REACTORS
330
C
102
}
330
C
100
AcDbDictionary
281
     1
  3
Standard
350
22A2
  0
DICTIONARY
  5
2287
102
{ACAD_REACTORS
330
C
102
}
330
C
100
AcDbDictionary
281
     1
  3
2dWireframe
350
228D
  3
Basic
350
228C
  3
Brighten
350
2293
  3
ColorChange
350
2297
  3
Conceptual
350
2290
  3
Dim
350
2292
  3
EdgeColorOff
350
229F
  3
Facepattern
350
2296
  3
Flat
350
2288
  3
FlatWithEdges
350
2289
  3
Gouraud
350
228A
  3
GouraudWithEdges
350
228B
  3
Hidden
350
228F
  3
JitterOff
350
229D
  3
Linepattern
350
2295
  3
OverhangOff
350
229E
  3
Realistic
350
2291
  3
Shaded
350
229C
  3
Shaded with edges
350
229B
  3
Shades of Gray
350
2298
  3
Sketchy
350
2299
  3
Thicken
350
2294
  3
Wireframe
350
228E
  3
X-Ray
350
229A
  0
XRECORD
  5
22DB
102
{ACAD_REACTORS
330
C
102
}
330
C
100
AcDbXrecord
280
     1
 90
        1
330
22A2
  0
DICTIONARY
  5
22CE
102
{ACAD_REACTORS
330
C
102
}
330
C
100
AcDbDictionary
281
     1
  3
CANNOSCALE
350
22D3
  3
CMLEADERSTYLE
350
22D0
  3
CTABLESTYLE
350
22CF
  3
CVIEWDETAILSTYLE
350
22D1
  3
CVIEWSECTIONSTYLE
350
22D2
  3
DIMASSOC
350
22D6
  3
INDEXCTL
350
22D5
  3
SORTENTS
350
22D4
  3
XCLIPFRAME
350
22D7
  0
DICTIONARY
  5
3D
102
{ACAD_REACTORS
330
C
102
}
330
C
100
AcDbDictionary
281
     1
  0
XRECORD
  5
22DC
102
{ACAD_REACTORS
330
C
102
}
330
C
100
AcDbXrecord
280
     1
  1
DWGPROPS COOKIE
  2

  3

  4

  6

  7

  8
Yoshitsune
  9

300
=
301
=
302
=
303
=
304
=
305
=
306
=
307
=
308
=
309
=
 40
0.1950645486111111
 41
2453826.497792604
 42
2457192.602105429
  1

 90
        0
  0
XRECORD
  5
22BF
102
{ACAD_REACTORS
330
22BE
102
}
330
22BE
100
AcDbXrecord
280
     1
290
     1
  0
XRECORD
  5
22C1
102
{ACAD_REACTORS
330
22C0
102
}
330
22C0
100
AcDbXrecord
280
     1
290
     1
  0
XRECORD
  5
22C3
102
{ACAD_REACTORS
330
22C2
102
}
330
22C2
100
AcDbXrecord
280
     1
290
     1
  0
XRECORD
  5
22C5
102
{ACAD_REACTORS
330
22C4
102
}
330
22C4
100
AcDbXrecord
280
     1
290
     1
  0
XRECORD
  5
22C7
102
{ACAD_REACTORS
330
22C6
102
}
330
22C6
100
AcDbXrecord
280
     1
290
     1
  0
XRECORD
  5
22C9
102
{ACAD_REACTORS
330
22C8
102
}
330
22C8
100
AcDbXrecord
280
     1
290
     1
  0
XRECORD
  5
22CB
102
{ACAD_REACTORS
330
22CA
102
}
330
22CA
100
AcDbXrecord
280
     1
290
     1
  0
XRECORD
  5
22CD
102
{ACAD_REACTORS
330
22CC
102
}
330
22CC
100
AcDbXrecord
280
     1
290
     1
  0
XRECORD
  5
2268
102
{ACAD_REACTORS
330
2267
102
}
330
2267
100
AcDbXrecord
280
     1
340
18
  0
XRECORD
  5
2266
102
{ACAD_REACTORS
330
2265
102
}
330
2265
100
AcDbXrecord
280
     1
340
15
  0
ACDBDETAILVIEWSTYLE
  5
22BA
102
{ACAD_XDICTIONARY
360
2314
102
}
102
{ACAD_REACTORS
330
22B9
102
}
330
22B9
100
AcDbModelDocViewStyle
 70
     0
  3
Imperial24
290
     0
100
AcDbDetailViewStyle
 70
     0
 71
     0
 90
        3
 71
     1
340
F
 40
0.24
340
0
 40
0.24
300

 40
0.36
280
     3
 71
     2
340
14
 90
       25
 71
     3
340
F
 40
0.24
 90
        1
 40
0.75
 90
        1
300
%<\AcVar ViewType \f "%tc1">% %<\AcVar ViewDetailId>%\PSCALE %<\AcVar ViewScale \f "%sn">%
 71
     4
340
14
 90
       25
340
14
 90
       25
280
     0
  0
LAYOUT
  5
22BB
102
{ACAD_XDICTIONARY
360
2316
102
}
102
{ACAD_REACTORS
330
94
102
}
330
94
100
AcDbPlotSettings
  1

  2
Canon LBP9100C
  4

  6

 40
0.0
 41
0.0
 42
0.0
 43
0.0
 44
0.0
 45
0.0
 46
0.0
 47
0.0
 48
0.0
 49
0.0
140
0.0
141
0.0
142
1.0
143
1.0
 70
  1712
 72
     0
 73
     0
 74
     0
  7

 75
     0
147
1.0
148
0.0
149
0.0
100
AcDbLayout
  1
Model
 70
     1
 71
     0
 10
0.0
 20
0.0
 11
12.0
 21
9.0
 12
0.0
 22
0.0
 32
0.0
 14
0.0
 24
0.0
 34
0.0
 15
0.0
 25
0.0
 35
0.0
146
0.0
 13
0.0
 23
0.0
 33
0.0
 16
1.0
 26
0.0
 36
0.0
 17
0.0
 27
1.0
 37
0.0
 76
     0
330
18
331
2264
  0
LAYOUT
  5
22BC
102
{ACAD_XDICTIONARY
360
2318
102
}
102
{ACAD_REACTORS
330
94
102
}
330
94
100
AcDbPlotSettings
  1

  2
Canon LBP9100C
  4

  6

 40
0.0
 41
0.0
 42
0.0
 43
0.0
 44
0.0
 45
0.0
 46
0.0
 47
0.0
 48
0.0
 49
0.0
140
0.0
141
0.0
142
1.0
143
1.0
 70
   688
 72
     0
 73
     0
 74
     5
  7

 75
    16
147
1.0
148
0.0
149
0.0
100
AcDbLayout
  1
レイアウト1
 70
     1
 71
     1
 10
0.0
 20
0.0
 11
420.0
 21
297.0
 12
0.0
 22
0.0
 32
0.0
 14
1.000000000000000E+20
 24
1.000000000000000E+20
 34
1.000000000000000E+20
 15
-1.000000000000000E+20
 25
-1.000000000000000E+20
 35
-1.000000000000000E+20
146
0.0
 13
0.0
 23
0.0
 33
0.0
 16
1.0
 26
0.0
 36
0.0
 17
0.0
 27
1.0
 37
0.0
 76
     0
330
15
  0
MATERIAL
  5
2277
102
{ACAD_XDICTIONARY
360
2278
102
}
102
{ACAD_REACTORS
330
226E
102
}
330
226E
100
AcDbMaterial
  1
ByBlock
 72
     0
 43
0.0208333333333333
 43
0.0
 43
0.0
 43
0.0
 43
0.0
 43
0.0208333333333333
 43
0.0
 43
0.0
 43
0.0
 43
0.0
 43
1.0
 43
0.0
 43
0.0
 43
0.0
 43
0.0
 43
1.0
 77
     0
 47
0.0208333333333333
 47
0.0
 47
0.0
 47
0.0
 47
0.0
 47
0.0208333333333333
 47
0.0
 47
0.0
 47
0.0
 47
0.0
 47
1.0
 47
0.0
 47
0.0
 47
0.0
 47
0.0
 47
1.0
171
     0
 49
0.0208333333333333
 49
0.0
 49
0.0
 49
0.0
 49
0.0
 49
0.0208333333333333
 49
0.0
 49
0.0
 49
0.0
 49
0.0
 49
1.0
 49
0.0
 49
0.0
 49
0.0
 49
0.0
 49
1.0
175
     0
142
0.0208333333333333
142
0.0
142
0.0
142
0.0
142
0.0
142
0.0208333333333333
142
0.0
142
0.0
142
0.0
142
0.0
142
1.0
142
0.0
142
0.0
142
0.0
142
0.0
142
1.0
179
     0
144
0.0208333333333333
144
0.0
144
0.0
144
0.0
144
0.0
144
0.0208333333333333
144
0.0
144
0.0
144
0.0
144
0.0
144
1.0
144
0.0
144
0.0
144
0.0
144
0.0
144
1.0
147
0.0208333333333333
147
0.0
147
0.0
147
0.0
147
0.0
147
0.0208333333333333
147
0.0
147
0.0
147
0.0
147
0.0
147
1.0
147
0.0
147
0.0
147
0.0
147
0.0
147
1.0
  0
MATERIAL
  5
226F
102
{ACAD_XDICTIONARY
360
2270
102
}
102
{ACAD_REACTORS
330
226E
102
}
330
226E
100
AcDbMaterial
  1
ByLayer
 72
     0
 43
0.0208333333333333
 43
0.0
 43
0.0
 43
0.0
 43
0.0
 43
0.0208333333333333
 43
0.0
 43
0.0
 43
0.0
 43
0.0
 43
1.0
 43
0.0
 43
0.0
 43
0.0
 43
0.0
 43
1.0
 77
     0
 47
0.0208333333333333
 47
0.0
 47
0.0
 47
0.0
 47
0.0
 47
0.0208333333333333
 47
0.0
 47
0.0
 47
0.0
 47
0.0
 47
1.0
 47
0.0
 47
0.0
 47
0.0
 47
0.0
 47
1.0
171
     0
 49
0.0208333333333333
 49
0.0
 49
0.0
 49
0.0
 49
0.0
 49
0.0208333333333333
 49
0.0
 49
0.0
 49
0.0
 49
0.0
 49
1.0
 49
0.0
 49
0.0
 49
0.0
 49
0.0
 49
1.0
175
     0
142
0.0208333333333333
142
0.0
142
0.0
142
0.0
142
0.0
142
0.0208333333333333
142
0.0
142
0.0
142
0.0
142
0.0
142
1.0
142
0.0
142
0.0
142
0.0
142
0.0
142
1.0
179
     0
144
0.0208333333333333
144
0.0
144
0.0
144
0.0
144
0.0
144
0.0208333333333333
144
0.0
144
0.0
144
0.0
144
0.0
144
1.0
144
0.0
144
0.0
144
0.0
144
0.0
144
1.0
147
0.0208333333333333
147
0.0
147
0.0
147
0.0
147
0.0
147
0.0208333333333333
147
0.0
147
0.0
147
0.0
147
0.0
147
1.0
147
0.0
147
0.0
147
0.0
147
0.0
147
1.0
  0
MATERIAL
  5
227F
102
{ACAD_XDICTIONARY
360
2280
102
}
102
{ACAD_REACTORS
330
226E
102
}
330
226E
100
AcDbMaterial
  1
Global
 72
     0
 43
0.0208333333333333
 43
0.0
 43
0.0
 43
0.0
 43
0.0
 43
0.0208333333333333
 43
0.0
 43
0.0
 43
0.0
 43
0.0
 43
1.0
 43
0.0
 43
0.0
 43
0.0
 43
0.0
 43
1.0
 77
     0
 47
0.0208333333333333
 47
0.0
 47
0.0
 47
0.0
 47
0.0
 47
0.0208333333333333
 47
0.0
 47
0.0
 47
0.0
 47
0.0
 47
1.0
 47
0.0
 47
0.0
 47
0.0
 47
0.0
 47
1.0
171
     0
 49
0.0208333333333333
 49
0.0
 49
0.0
 49
0.0
 49
0.0
 49
0.0208333333333333
 49
0.0
 49
0.0
 49
0.0
 49
0.0
 49
1.0
 49
0.0
 49
0.0
 49
0.0
 49
0.0
 49
1.0
175
     0
142
0.0208333333333333
142
0.0
142
0.0
142
0.0
142
0.0
142
0.0208333333333333
142
0.0
142
0.0
142
0.0
142
0.0
142
1.0
142
0.0
142
0.0
142
0.0
142
0.0
142
1.0
179
     0
144
0.0208333333333333
144
0.0
144
0.0
144
0.0
144
0.0
144
0.0208333333333333
144
0.0
144
0.0
144
0.0
144
0.0
144
1.0
144
0.0
144
0.0
144
0.0
144
0.0
144
1.0
147
0.0208333333333333
147
0.0
147
0.0
147
0.0
147
0.0
147
0.0208333333333333
147
0.0
147
0.0
147
0.0
147
0.0
147
1.0
147
0.0
147
0.0
147
0.0
147
0.0
147
1.0
  0
MLEADERSTYLE
  5
22B6
102
{ACAD_REACTORS
330
22B5
102
}
330
22B5
100
AcDbMLeaderStyle
170
     2
171
     1
172
     0
 90
        2
 40
0.0
 41
0.0
173
     1
 91
-1056964608
340
12
 92
       -2
290
     1
 42
0.09
291
     1
 43
0.36
  3
Standard
 44
0.18
300

342
F
174
     1
178
     6
175
     1
176
     0
 93
-1056964608
 45
0.18
292
     0
297
     0
 46
0.18
 94
-1056964608
 47
1.0
 49
1.0
140
1.0
293
     1
141
0.0
294
     1
177
     0
142
1.0
295
     0
296
     0
143
0.125
1001
ACAD_MLEADERVER
1070
     2
  0
MLINESTYLE
  5
1C
102
{ACAD_REACTORS
330
1B
102
}
330
1B
100
AcDbMlineStyle
  2
STANDARD
 70
     0
  3

 62
   256
 51
90.0
 52
90.0
 71
     2
 49
0.5
 62
   256
  6
BYLAYER
 49
-0.5
 62
   256
  6
BYLAYER
  0
ACDBPLACEHOLDER
  5
226D
102
{ACAD_REACTORS
330
226C
102
}
330
226C
  0
SCALE
  5
22A4
102
{ACAD_REACTORS
330
22A3
102
}
330
22A3
100
AcDbScale
 70
     0
300
1:1
140
1.0
141
1.0
290
     1
  0
SCALE
  5
22A5
102
{ACAD_REACTORS
330
22A3
102
}
330
22A3
100
AcDbScale
 70
     0
300
1/128" = 1'-0"
140
0.0078125
141
12.0
290
     0
  0
SCALE
  5
22A6
102
{ACAD_REACTORS
330
22A3
102
}
330
22A3
100
AcDbScale
 70
     0
300
1/64" = 1'-0"
140
0.015625
141
12.0
290
     0
  0
SCALE
  5
22A7
102
{ACAD_REACTORS
330
22A3
102
}
330
22A3
100
AcDbScale
 70
     0
300
1/32" = 1'-0"
140
0.03125
141
12.0
290
     0
  0
SCALE
  5
22A8
102
{ACAD_REACTORS
330
22A3
102
}
330
22A3
100
AcDbScale
 70
     0
300
1/16" = 1'-0"
140
0.0625
141
12.0
290
     0
  0
SCALE
  5
22A9
102
{ACAD_REACTORS
330
22A3
102
}
330
22A3
100
AcDbScale
 70
     0
300
3/32" = 1'-0"
140
0.09375
141
12.0
290
     0
  0
SCALE
  5
22AA
102
{ACAD_REACTORS
330
22A3
102
}
330
22A3
100
AcDbScale
 70
     0
300
1/8" = 1'-0"
140
0.125
141
12.0
290
     0
  0
SCALE
  5
22AB
102
{ACAD_REACTORS
330
22A3
102
}
330
22A3
100
AcDbScale
 70
     0
300
3/16" = 1'-0"
140
0.1875
141
12.0
290
     0
  0
SCALE
  5
22AC
102
{ACAD_REACTORS
330
22A3
102
}
330
22A3
100
AcDbScale
 70
     0
300
1/4" = 1'-0"
140
0.25
141
12.0
290
     0
  0
SCALE
  5
22AD
102
{ACAD_REACTORS
330
22A3
102
}
330
22A3
100
AcDbScale
 70
     0
300
3/8" = 1'-0"
140
0.375
141
12.0
290
     0
  0
SCALE
  5
22AE
102
{ACAD_REACTORS
330
22A3
102
}
330
22A3
100
AcDbScale
 70
     0
300
1/2" = 1'-0"
140
0.5
141
12.0
290
     0
  0
SCALE
  5
22AF
102
{ACAD_REACTORS
330
22A3
102
}
330
22A3
100
AcDbScale
 70
     0
300
3/4" = 1'-0"
140
0.75
141
12.0
290
     0
  0
SCALE
  5
22B0
102
{ACAD_REACTORS
330
22A3
102
}
330
22A3
100
AcDbScale
 70
     0
300
1" = 1'-0"
140
1.0
141
12.0
290
     0
  0
SCALE
  5
22B1
102
{ACAD_REACTORS
330
22A3
102
}
330
22A3
100
AcDbScale
 70
     0
300
1-1/2" = 1'-0"
140
1.5
141
12.0
290
     0
  0
SCALE
  5
22B2
102
{ACAD_REACTORS
330
22A3
102
}
330
22A3
100
AcDbScale
 70
     0
300
3" = 1'-0"
140
3.0
141
12.0
290
     0
  0
SCALE
  5
22B3
102
{ACAD_REACTORS
330
22A3
102
}
330
22A3
100
AcDbScale
 70
     0
300
6" = 1'-0"
140
6.0
141
12.0
290
     0
  0
SCALE
  5
22B4
102
{ACAD_REACTORS
330
22A3
102
}
330
22A3
100
AcDbScale
 70
     0
300
1'-0" = 1'-0"
140
12.0
141
12.0
290
     0
  0
ACDBSECTIONVIEWSTYLE
  5
22B8
102
{ACAD_XDICTIONARY
360
2312
102
}
102
{ACAD_REACTORS
330
22B7
102
}
330
22B7
100
AcDbModelDocViewStyle
 70
     0
  3
Imperial24
290
     0
100
AcDbSectionViewStyle
 70
     0
 71
     0
 90
       78
 71
     1
340
F
 40
0.24
340
0
340
0
 40
0.24
300
I, O, Q, S, X, Z
 40
0.48
 90
        3
 40
0.18
 90
        1
 71
     2
340
14
 90
       25
340
14
 90
       50
 40
0.24
 40
0.0
 40
0.24
 71
     3
340
F
 40
0.24
 90
        1
 40
0.75
 90
        1
300
%<\AcVar ViewType \f "%tc1">% %<\AcVar ViewSectionStartId>%-%<\AcVar ViewSectionEndId>%\PSCALE %<\AcVar ViewScale \f "%sn">%
 71
     4
300
ANSI31
 40
1.0
 90
        0
290
     0
290
     0
 90
        6
 40
0.0
 40
1.570796326794896
 40
0.2617993877991494
 40
1.308996938995747
 40
-0.2617993877991494
 40
1.832595714594046
  0
TABLESTYLE
  5
22A2
102
{ACAD_XDICTIONARY
360
22D9
102
}
102
{ACAD_REACTORS
330
22A1
102
}
330
22A1
100
AcDbTableStyle
  3
Standard
 70
     0
 71
     0
 40
0.06
 41
0.06
280
     0
281
     0
  7
STANDARD
140
0.18
170
     2
 62
     0
 63
     7
283
     0
274
    -2
284
     1
 64
     0
275
    -2
285
     1
 65
     0
276
    -2
286
     1
 66
     0
277
    -2
287
     1
 67
     0
278
    -2
288
     1
 68
     0
279
    -2
289
     1
 69
     0
  7
STANDARD
140
0.25
170
     5
 62
     0
 63
     7
283
     0
274
    -2
284
     1
 64
     0
275
    -2
285
     1
 65
     0
276
    -2
286
     1
 66
     0
277
    -2
287
     1
 67
     0
278
    -2
288
     1
 68
     0
279
    -2
289
     1
 69
     0
  7
STANDARD
140
0.18
170
     5
 62
     0
 63
     7
283
     0
274
    -2
284
     1
 64
     0
275
    -2
285
     1
 65
     0
276
    -2
286
     1
 66
     0
277
    -2
287
     1
 67
     0
278
    -2
288
     1
 68
     0
279
    -2
289
     1
 69
     0
  0
VISUALSTYLE
  5
228D
102
{ACAD_XDICTIONARY
360
22EA
102
}
102
{ACAD_REACTORS
330
2287
102
}
330
2287
100
AcDbVisualStyle
  2
2dWireframe
 70
     4
 71
     0
 72
     2
 73
     0
 90
        0
 40
-0.6
 41
-30.0
 62
     5
 63
     7
 74
     1
 91
        4
 64
     7
 65
   257
 75
     1
175
     1
 42
1.0
 92
        0
 66
   257
 43
1.0
 76
     1
 77
     6
 78
     2
 67
     7
 79
     5
170
     0
171
     0
290
     0
174
     0
 93
        1
 44
0.0
173
     0
291
     0
 45
0.0
1001
ACAD
1000
AcDbSavedByObjectVersion
1070
     0
  0
VISUALSTYLE
  5
228C
102
{ACAD_XDICTIONARY
360
22E8
102
}
102
{ACAD_REACTORS
330
2287
102
}
330
2287
100
AcDbVisualStyle
  2
Basic
 70
     7
 71
     1
 72
     0
 73
     1
 90
        0
 40
-0.6
 41
-30.0
 62
     5
 63
     7
 74
     0
 91
        4
 64
     7
 65
   257
 75
     1
175
     1
 42
1.0
 92
        8
 66
     7
 43
1.0
 76
     1
 77
     6
 78
     2
 67
     7
 79
     5
170
     0
171
     0
290
     0
174
     0
 93
        1
 44
0.0
173
     0
291
     1
 45
0.0
1001
ACAD
1000
AcDbSavedByObjectVersion
1070
     0
  0
VISUALSTYLE
  5
2293
102
{ACAD_XDICTIONARY
360
22F6
102
}
102
{ACAD_REACTORS
330
2287
102
}
330
2287
100
AcDbVisualStyle
  2
Brighten
 70
    12
 71
     2
 72
     2
 73
     0
 90
        0
 40
-0.6
 41
-30.0
 62
     5
 63
     7
 74
     1
 91
        4
 64
     7
 65
   257
 75
     1
175
     1
 42
1.0
 92
        8
 66
     7
 43
1.0
 76
     1
 77
     6
 78
     2
 67
     7
 79
     5
170
     0
171
     0
290
     0
174
     0
 93
        1
 44
50.0
173
     0
291
     1
 45
0.0
1001
ACAD
1000
AcDbSavedByObjectVersion
1070
     0
  0
VISUALSTYLE
  5
2297
102
{ACAD_XDICTIONARY
360
22FE
102
}
102
{ACAD_REACTORS
330
2287
102
}
330
2287
100
AcDbVisualStyle
  2
ColorChange
 70
    16
 71
     2
 72
     2
 73
     3
 90
        0
 40
-0.6
 41
-30.0
 62
     5
 63
     8
 74
     1
 91
        4
 64
     7
 65
   257
 75
     1
175
     1
 42
1.0
 92
        8
 66
     8
 43
1.0
 76
     1
 77
     6
 78
     2
 67
     7
 79
     5
170
     0
171
     0
290
     0
174
     0
 93
        1
 44
0.0
173
     0
291
     1
 45
0.0
1001
ACAD
1000
AcDbSavedByObjectVersion
1070
     0
  0
VISUALSTYLE
  5
2290
102
{ACAD_XDICTIONARY
360
22F0
102
}
102
{ACAD_REACTORS
330
2287
102
}
330
2287
100
AcDbVisualStyle
  2
Conceptual
 70
     9
 71
     3
 72
     2
 73
     0
 90
        0
 40
-0.6
 41
-30.0
 62
     5
 63
     7
 74
     2
 91
        2
 64
     7
 65
   257
 75
     1
175
     1
 42
179.0
 92
        8
 66
     7
 43
1.0
 76
     1
 77
     6
 78
     2
 67
     7
 79
     3
170
     0
171
     0
290
     0
174
     0
 93
        1
 44
0.0
173
     0
291
     0
 45
0.0
1001
ACAD
1000
AcDbSavedByObjectVersion
1070
     0
  0
VISUALSTYLE
  5
2292
102
{ACAD_XDICTIONARY
360
22F4
102
}
102
{ACAD_REACTORS
330
2287
102
}
330
2287
100
AcDbVisualStyle
  2
Dim
 70
    11
 71
     2
 72
     2
 73
     0
 90
        0
 40
-0.6
 41
-30.0
 62
     5
 63
     7
 74
     1
 91
        4
 64
     7
 65
   257
 75
     1
175
     1
 42
1.0
 92
        8
 66
     7
 43
1.0
 76
     1
 77
     6
 78
     2
 67
     7
 79
     5
170
     0
171
     0
290
     0
174
     0
 93
        1
 44
-50.0
173
     0
291
     1
 45
0.0
1001
ACAD
1000
AcDbSavedByObjectVersion
1070
     0
  0
VISUALSTYLE
  5
229F
102
{ACAD_XDICTIONARY
360
230E
102
}
102
{ACAD_REACTORS
330
2287
102
}
330
2287
100
AcDbVisualStyle
  2
EdgeColorOff
 70
    22
 71
     2
 72
     2
 73
     0
 90
        0
 40
-0.6
 41
-30.0
 62
     5
 63
     7
 74
     1
 91
        4
 64
     7
 65
   257
 75
     1
175
     1
 42
1.0
 92
        8
 66
     7
 43
1.0
 76
     1
 77
     6
 78
     2
 67
     7
 79
     5
170
     0
171
     0
290
     0
174
     0
 93
        1
 44
0.0
173
     0
291
     1
 45
0.0
1001
ACAD
1000
AcDbSavedByObjectVersion
1070
     0
  0
VISUALSTYLE
  5
2296
102
{ACAD_XDICTIONARY
360
22FC
102
}
102
{ACAD_REACTORS
330
2287
102
}
330
2287
100
AcDbVisualStyle
  2
Facepattern
 70
    15
 71
     2
 72
     2
 73
     0
 90
        0
 40
-0.6
 41
-30.0
 62
     5
 63
     7
 74
     1
 91
        4
 64
     7
 65
   257
 75
     1
175
     1
 42
1.0
 92
        8
 66
     7
 43
1.0
 76
     1
 77
     6
 78
     2
 67
     7
 79
     5
170
     0
171
     0
290
     0
174
     0
 93
        1
 44
0.0
173
     0
291
     1
 45
0.0
1001
ACAD
1000
AcDbSavedByObjectVersion
1070
     0
  0
VISUALSTYLE
  5
2288
102
{ACAD_XDICTIONARY
360
22E0
102
}
102
{ACAD_REACTORS
330
2287
102
}
330
2287
100
AcDbVisualStyle
  2
Flat
 70
     0
 71
     2
 72
     1
 73
     1
 90
        2
 40
-0.6
 41
30.0
 62
     5
 63
     7
 74
     0
 91
        0
 64
     7
 65
   257
 75
     1
175
     1
 42
1.0
 92
        8
 66
     7
 43
1.0
 76
     1
 77
     6
 78
     2
 67
     7
 79
     5
170
     0
171
     0
290
     0
174
     0
 93
       13
 44
0.0
173
     0
291
     1
 45
0.0
1001
ACAD
1000
AcDbSavedByObjectVersion
1070
     0
  0
VISUALSTYLE
  5
2289
102
{ACAD_XDICTIONARY
360
22E2
102
}
102
{ACAD_REACTORS
330
2287
102
}
330
2287
100
AcDbVisualStyle
  2
FlatWithEdges
 70
     1
 71
     2
 72
     1
 73
     1
 90
        2
 40
-0.6
 41
30.0
 62
     5
 63
     7
 74
     1
 91
        0
 64
     7
 65
   257
 75
     1
175
     1
 42
1.0
 92
        0
 66
   257
 43
1.0
 76
     1
 77
     6
 78
     2
 67
     7
 79
     5
170
     0
171
     0
290
     0
174
     0
 93
       13
 44
0.0
173
     0
291
     1
 45
0.0
1001
ACAD
1000
AcDbSavedByObjectVersion
1070
     0
  0
VISUALSTYLE
  5
228A
102
{ACAD_XDICTIONARY
360
22E4
102
}
102
{ACAD_REACTORS
330
2287
102
}
330
2287
100
AcDbVisualStyle
  2
Gouraud
 70
     2
 71
     2
 72
     2
 73
     1
 90
        2
 40
-0.6
 41
30.0
 62
     5
 63
     7
 74
     0
 91
        0
 64
     7
 65
   257
 75
     1
175
     1
 42
1.0
 92
        0
 66
     7
 43
1.0
 76
     1
 77
     6
 78
     2
 67
     7
 79
     5
170
     0
171
     0
290
     0
174
     0
 93
       13
 44
0.0
173
     0
291
     1
 45
0.0
1001
ACAD
1000
AcDbSavedByObjectVersion
1070
     0
  0
VISUALSTYLE
  5
228B
102
{ACAD_XDICTIONARY
360
22E6
102
}
102
{ACAD_REACTORS
330
2287
102
}
330
2287
100
AcDbVisualStyle
  2
GouraudWithEdges
 70
     3
 71
     2
 72
     2
 73
     1
 90
        2
 40
-0.6
 41
30.0
 62
     5
 63
     7
 74
     1
 91
        0
 64
     7
 65
   257
 75
     1
175
     1
 42
1.0
 92
        0
 66
   257
 43
1.0
 76
     1
 77
     6
 78
     2
 67
     7
 79
     5
170
     0
171
     0
290
     0
174
     0
 93
       13
 44
0.0
173
     0
291
     1
 45
0.0
1001
ACAD
1000
AcDbSavedByObjectVersion
1070
     0
  0
VISUALSTYLE
  5
228F
102
{ACAD_XDICTIONARY
360
22EE
102
}
102
{ACAD_REACTORS
330
2287
102
}
330
2287
100
AcDbVisualStyle
  2
Hidden
 70
     6
 71
     1
 72
     2
 73
     2
 90
        0
 40
-0.6
 41
-30.0
 62
     5
 63
     7
 74
     2
 91
        2
 64
     7
 65
   257
 75
     2
175
     1
 42
40.0
 92
        0
 66
   257
 43
1.0
 76
     1
 77
     6
 78
     2
 67
     7
 79
     3
170
     0
171
     0
290
     0
174
     0
 93
        1
 44
0.0
173
     0
291
     0
 45
0.0
1001
ACAD
1000
AcDbSavedByObjectVersion
1070
     0
  0
VISUALSTYLE
  5
229D
102
{ACAD_XDICTIONARY
360
230A
102
}
102
{ACAD_REACTORS
330
2287
102
}
330
2287
100
AcDbVisualStyle
  2
JitterOff
 70
    20
 71
     2
 72
     2
 73
     0
 90
        0
 40
-0.6
 41
-30.0
 62
     5
 63
     7
 74
     1
 91
        4
 64
     7
 65
   257
 75
     1
175
     1
 42
1.0
 92
       10
 66
     7
 43
1.0
 76
     1
 77
     6
 78
     2
 67
     7
 79
     5
170
     0
171
     0
290
     0
174
     0
 93
        1
 44
0.0
173
     0
291
     1
 45
0.0
1001
ACAD
1000
AcDbSavedByObjectVersion
1070
     0
  0
VISUALSTYLE
  5
2295
102
{ACAD_XDICTIONARY
360
22FA
102
}
102
{ACAD_REACTORS
330
2287
102
}
330
2287
100
AcDbVisualStyle
  2
Linepattern
 70
    14
 71
     2
 72
     2
 73
     0
 90
        0
 40
-0.6
 41
-30.0
 62
     5
 63
     7
 74
     1
 91
        4
 64
     7
 65
   257
 75
     7
175
     7
 42
1.0
 92
        8
 66
     7
 43
1.0
 76
     1
 77
     6
 78
     2
 67
     7
 79
     5
170
     0
171
     0
290
     0
174
     0
 93
        1
 44
0.0
173
     0
291
     1
 45
0.0
1001
ACAD
1000
AcDbSavedByObjectVersion
1070
     0
  0
VISUALSTYLE
  5
229E
102
{ACAD_XDICTIONARY
360
230C
102
}
102
{ACAD_REACTORS
330
2287
102
}
330
2287
100
AcDbVisualStyle
  2
OverhangOff
 70
    21
 71
     2
 72
     2
 73
     0
 90
        0
 40
-0.6
 41
-30.0
 62
     5
 63
     7
 74
     1
 91
        4
 64
     7
 65
   257
 75
     1
175
     1
 42
1.0
 92
        9
 66
     7
 43
1.0
 76
     1
 77
     6
 78
     2
 67
     7
 79
     5
170
     0
171
     0
290
     0
174
     0
 93
        1
 44
0.0
173
     0
291
     1
 45
0.0
1001
ACAD
1000
AcDbSavedByObjectVersion
1070
     0
  0
VISUALSTYLE
  5
2291
102
{ACAD_XDICTIONARY
360
22F2
102
}
102
{ACAD_REACTORS
330
2287
102
}
330
2287
100
AcDbVisualStyle
  2
Realistic
 70
     8
 71
     2
 72
     3
 73
     0
 90
        2
 40
-0.6
 41
30.0
 62
     5
 63
     7
 74
     0
 91
        0
 64
     7
 65
   257
 75
     1
175
     1
 42
1.0
 92
        8
 66
   257
 43
1.0
 76
     1
 77
     6
 78
     2
 67
     7
 79
     3
170
     0
171
     0
290
     0
174
     0
 93
       13
 44
0.0
173
     0
291
     0
 45
0.0
1001
ACAD
1000
AcDbSavedByObjectVersion
1070
     0
  0
VISUALSTYLE
  5
229C
102
{ACAD_XDICTIONARY
360
2308
102
}
102
{ACAD_REACTORS
330
2287
102
}
330
2287
100
AcDbVisualStyle
  2
Shaded
 70
    27
 71
     2
 72
     2
 73
     1
 90
        2
 40
-0.6
 41
30.0
 62
     5
 63
     7
 74
     0
 91
        4
 64
     7
 65
   257
 75
     1
175
     1
 42
1.0
 92
        8
 66
   257
 43
1.0
 76
     1
 77
     6
 78
     2
 67
     8
 79
     3
170
     0
171
     0
290
     0
174
     0
 93
        5
 44
0.0
173
     0
291
     0
 45
0.0
1001
ACAD
1000
AcDbSavedByObjectVersion
1070
     0
  0
VISUALSTYLE
  5
229B
102
{ACAD_XDICTIONARY
360
2306
102
}
102
{ACAD_REACTORS
330
2287
102
}
330
2287
100
AcDbVisualStyle
  2
Shaded with edges
 70
    26
 71
     2
 72
     2
 73
     1
 90
        2
 40
-0.6
 41
30.0
 62
     5
 63
     7
 74
     1
 91
       10
 64
     7
 65
   257
 75
     2
175
     1
 42
1.0
 92
        8
 66
   257
 43
1.0
 76
     1
 77
     6
 78
     2
 67
     7
 79
     3
170
     0
171
     0
290
     0
174
     0
 93
        5
 44
0.0
173
     0
291
     0
 45
0.0
1001
ACAD
1000
AcDbSavedByObjectVersion
1070
     0
  0
VISUALSTYLE
  5
2298
102
{ACAD_XDICTIONARY
360
2300
102
}
102
{ACAD_REACTORS
330
2287
102
}
330
2287
100
AcDbVisualStyle
  2
Shades of Gray
 70
    23
 71
     2
 72
     2
 73
     3
 90
        0
 40
-0.6
 41
-30.0
 62
     5
 63
     7
 74
     2
 91
        2
 64
     7
 65
     7
 75
     1
175
     1
 42
40.0
 92
        8
 66
     7
 43
1.0
 76
     1
 77
     6
 78
     2
 67
     7
 79
     3
170
     0
171
     0
290
     0
174
     0
 93
        1
 44
0.0
173
     0
291
     0
 45
0.0
1001
ACAD
1000
AcDbSavedByObjectVersion
1070
     0
  0
VISUALSTYLE
  5
2299
102
{ACAD_XDICTIONARY
360
2302
102
}
102
{ACAD_REACTORS
330
2287
102
}
330
2287
100
AcDbVisualStyle
  2
Sketchy
 70
    24
 71
     1
 72
     2
 73
     2
 90
        0
 40
-0.6
 41
-30.0
 62
     5
 63
     7
 74
     2
 91
        2
 64
     7
 65
     7
 75
     1
175
     1
 42
40.0
 92
       11
 66
     7
 43
1.0
 76
     1
 77
     6
 78
     2
 67
     7
 79
     6
170
     0
171
     0
290
     0
174
     0
 93
        1
 44
0.0
173
     0
291
     0
 45
0.0
1001
ACAD
1000
AcDbSavedByObjectVersion
1070
     0
  0
VISUALSTYLE
  5
2294
102
{ACAD_XDICTIONARY
360
22F8
102
}
102
{ACAD_REACTORS
330
2287
102
}
330
2287
100
AcDbVisualStyle
  2
Thicken
 70
    13
 71
     2
 72
     2
 73
     0
 90
        0
 40
-0.6
 41
-30.0
 62
     5
 63
     7
 74
     1
 91
        4
 64
     7
 65
   257
 75
     1
175
     1
 42
1.0
 92
       12
 66
     7
 43
1.0
 76
     1
 77
     6
 78
     2
 67
     7
 79
     5
170
     0
171
     0
290
     0
174
     0
 93
        1
 44
0.0
173
     0
291
     1
 45
0.0
1001
ACAD
1000
AcDbSavedByObjectVersion
1070
     0
  0
VISUALSTYLE
  5
228E
102
{ACAD_XDICTIONARY
360
22EC
102
}
102
{ACAD_REACTORS
330
2287
102
}
330
2287
100
AcDbVisualStyle
  2
Wireframe
 70
     5
 71
     0
 72
     2
 73
     0
 90
        0
 40
-0.6
 41
-30.0
 62
     5
 63
     7
 74
     1
 91
        4
 64
     7
 65
   257
 75
     1
175
     1
 42
1.0
 92
        0
 66
   257
 43
1.0
 76
     1
 77
     6
 78
     2
 67
     7
 79
     3
170
     0
171
     0
290
     0
174
     0
 93
        1
 44
0.0
173
     0
291
     0
 45
0.0
1001
ACAD
1000
AcDbSavedByObjectVersion
1070
     0
  0
VISUALSTYLE
  5
229A
102
{ACAD_XDICTIONARY
360
2304
102
}
102
{ACAD_REACTORS
330
2287
102
}
330
2287
100
AcDbVisualStyle
  2
X-Ray
 70
    25
 71
     2
 72
     2
 73
     1
 90
        1
 40
0.5
 41
-30.0
 62
     5
 63
     7
 74
     1
 91
        0
 64
     7
 65
   257
 75
     1
175
     1
 42
1.0
 92
        8
 66
     7
 43
1.0
 76
     1
 77
     6
 78
     2
 67
     7
 79
     3
170
     0
171
     0
290
     0
174
     0
 93
       13
 44
0.0
173
     0
291
     0
 45
0.0
1001
ACAD
1000
AcDbSavedByObjectVersion
1070
     0
  0
DICTIONARYVAR
  5
22D3
102
{ACAD_REACTORS
330
22CE
102
}
330
22CE
100
DictionaryVariables
280
     0
  1
1:1
  0
DICTIONARYVAR
  5
22D0
102
{ACAD_REACTORS
330
22CE
102
}
330
22CE
100
DictionaryVariables
280
     0
  1
STANDARD
  0
DICTIONARYVAR
  5
22CF
102
{ACAD_REACTORS
330
22CE
102
}
330
22CE
100
DictionaryVariables
280
     0
  1
STANDARD
  0
DICTIONARYVAR
  5
22D1
102
{ACAD_REACTORS
330
22CE
102
}
330
22CE
100
DictionaryVariables
280
     0
  1
Imperial24
  0
DICTIONARYVAR
  5
22D2
102
{ACAD_REACTORS
330
22CE
102
}
330
22CE
100
DictionaryVariables
280
     0
  1
Imperial24
  0
DICTIONARYVAR
  5
22D6
102
{ACAD_REACTORS
330
22CE
102
}
330
22CE
100
DictionaryVariables
280
     0
  1
1
  0
DICTIONARYVAR
  5
22D5
102
{ACAD_REACTORS
330
22CE
102
}
330
22CE
100
DictionaryVariables
280
     0
  1
0
  0
DICTIONARYVAR
  5
22D4
102
{ACAD_REACTORS
330
22CE
102
}
330
22CE
100
DictionaryVariables
280
     0
  1
127
  0
DICTIONARYVAR
  5
22D7
102
{ACAD_REACTORS
330
22CE
102
}
330
22CE
100
DictionaryVariables
280
     0
  1
2
  0
DICTIONARY
  5
2314
330
22BA
100
AcDbDictionary
280
     1
281
     1
  3
ACAD_XREC_ROUNDTRIP
360
2315
  0
DICTIONARY
  5
2316
330
22BB
100
AcDbDictionary
280
     1
281
     1
  3
ACAD_XREC_ROUNDTRIP
360
2317
  0
DICTIONARY
  5
2318
330
22BC
100
AcDbDictionary
280
     1
281
     1
  3
ACAD_XREC_ROUNDTRIP
360
2319
  0
DICTIONARY
  5
2278
330
2277
100
AcDbDictionary
280
     1
281
     1
  3
ACAD_XREC_ROUNDTRIP
360
22DE
  3
BUMPTILE
360
227A
  3
DIFFUSETILE
360
2279
  3
OPACITYTILE
360
227D
  3
REFLECTIONTILE
360
227C
  3
REFRACTIONTILE
360
227E
  3
SPECULARTILE
360
227B
  0
DICTIONARY
  5
2270
330
226F
100
AcDbDictionary
280
     1
281
     1
  3
ACAD_XREC_ROUNDTRIP
360
22DD
  3
BUMPTILE
360
2272
  3
DIFFUSETILE
360
2271
  3
OPACITYTILE
360
2275
  3
REFLECTIONTILE
360
2274
  3
REFRACTIONTILE
360
2276
  3
SPECULARTILE
360
2273
  0
DICTIONARY
  5
2280
330
227F
100
AcDbDictionary
280
     1
281
     1
  3
ACAD_XREC_ROUNDTRIP
360
22DF
  3
BUMPTILE
360
2282
  3
DIFFUSETILE
360
2281
  3
OPACITYTILE
360
2285
  3
REFLECTIONTILE
360
2284
  3
REFRACTIONTILE
360
2286
  3
SPECULARTILE
360
2283
  0
DICTIONARY
  5
2312
330
22B8
100
AcDbDictionary
280
     1
281
     1
  3
ACAD_XREC_ROUNDTRIP
360
2313
  0
DICTIONARY
  5
22D9
330
22A2
100
AcDbDictionary
280
     1
281
     1
  3
ACAD_ROUNDTRIP_2008_TABLESTYLE_CELLSTYLEMAP
360
22DA
  3
ACAD_XREC_ROUNDTRIP
360
2310
  0
DICTIONARY
  5
22EA
330
228D
100
AcDbDictionary
280
     1
281
     1
  3
ACAD_XREC_ROUNDTRIP
360
22EB
  0
DICTIONARY
  5
22E8
330
228C
100
AcDbDictionary
280
     1
281
     1
  3
ACAD_XREC_ROUNDTRIP
360
22E9
  0
DICTIONARY
  5
22F6
330
2293
100
AcDbDictionary
280
     1
281
     1
  3
ACAD_XREC_ROUNDTRIP
360
22F7
  0
DICTIONARY
  5
22FE
330
2297
100
AcDbDictionary
280
     1
281
     1
  3
ACAD_XREC_ROUNDTRIP
360
22FF
  0
DICTIONARY
  5
22F0
330
2290
100
AcDbDictionary
280
     1
281
     1
  3
ACAD_XREC_ROUNDTRIP
360
22F1
  0
DICTIONARY
  5
22F4
330
2292
100
AcDbDictionary
280
     1
281
     1
  3
ACAD_XREC_ROUNDTRIP
360
22F5
  0
DICTIONARY
  5
230E
330
229F
100
AcDbDictionary
280
     1
281
     1
  3
ACAD_XREC_ROUNDTRIP
360
230F
  0
DICTIONARY
  5
22FC
330
2296
100
AcDbDictionary
280
     1
281
     1
  3
ACAD_XREC_ROUNDTRIP
360
22FD
  0
DICTIONARY
  5
22E0
330
2288
100
AcDbDictionary
280
     1
281
     1
  3
ACAD_XREC_ROUNDTRIP
360
22E1
  0
DICTIONARY
  5
22E2
330
2289
100
AcDbDictionary
280
     1
281
     1
  3
ACAD_XREC_ROUNDTRIP
360
22E3
  0
DICTIONARY
  5
22E4
330
228A
100
AcDbDictionary
280
     1
281
     1
  3
ACAD_XREC_ROUNDTRIP
360
22E5
  0
DICTIONARY
  5
22E6
330
228B
100
AcDbDictionary
280
     1
281
     1
  3
ACAD_XREC_ROUNDTRIP
360
22E7
  0
DICTIONARY
  5
22EE
330
228F
100
AcDbDictionary
280
     1
281
     1
  3
ACAD_XREC_ROUNDTRIP
360
22EF
  0
DICTIONARY
  5
230A
330
229D
100
AcDbDictionary
280
     1
281
     1
  3
ACAD_XREC_ROUNDTRIP
360
230B
  0
DICTIONARY
  5
22FA
330
2295
100
AcDbDictionary
280
     1
281
     1
  3
ACAD_XREC_ROUNDTRIP
360
22FB
  0
DICTIONARY
  5
230C
330
229E
100
AcDbDictionary
280
     1
281
     1
  3
ACAD_XREC_ROUNDTRIP
360
230D
  0
DICTIONARY
  5
22F2
330
2291
100
AcDbDictionary
280
     1
281
     1
  3
ACAD_XREC_ROUNDTRIP
360
22F3
  0
DICTIONARY
  5
2308
330
229C
100
AcDbDictionary
280
     1
281
     1
  3
ACAD_XREC_ROUNDTRIP
360
2309
  0
DICTIONARY
  5
2306
330
229B
100
AcDbDictionary
280
     1
281
     1
  3
ACAD_XREC_ROUNDTRIP
360
2307
  0
DICTIONARY
  5
2300
330
2298
100
AcDbDictionary
280
     1
281
     1
  3
ACAD_XREC_ROUNDTRIP
360
2301
  0
DICTIONARY
  5
2302
330
2299
100
AcDbDictionary
280
     1
281
     1
  3
ACAD_XREC_ROUNDTRIP
360
2303
  0
DICTIONARY
  5
22F8
330
2294
100
AcDbDictionary
280
     1
281
     1
  3
ACAD_XREC_ROUNDTRIP
360
22F9
  0
DICTIONARY
  5
22EC
330
228E
100
AcDbDictionary
280
     1
281
     1
  3
ACAD_XREC_ROUNDTRIP
360
22ED
  0
DICTIONARY
  5
2304
330
229A
100
AcDbDictionary
280
     1
281
     1
  3
ACAD_XREC_ROUNDTRIP
360
2305
  0
XRECORD
  5
2315
102
{ACAD_REACTORS
330
2314
102
}
330
2314
100
AcDbXrecord
280
     1
102
DISPLAYNAME
  1
Imperial24
102
FLAGS
 90
        0
  0
XRECORD
  5
2317
102
{ACAD_REACTORS
330
2316
102
}
330
2316
100
AcDbXrecord
280
     1
102
SHADEPLOT
 70
     0
102
SHADEPLOTRESLEVEL
 70
     2
102
SHADEPLOTCUSTOMDPI
 70
   300
  0
XRECORD
  5
2319
102
{ACAD_REACTORS
330
2318
102
}
330
2318
100
AcDbXrecord
280
     1
102
SHADEPLOT
 70
     0
102
SHADEPLOTRESLEVEL
 70
     2
102
SHADEPLOTCUSTOMDPI
 70
   300
  0
XRECORD
  5
22DE
102
{ACAD_REACTORS
330
2278
102
}
330
2278
100
AcDbXrecord
280
     1
102
MATERIAL
148
0.0
149
0.0
149
0.0
 93
        0
 94
      127
282
     0
 72
     0
 77
     0
171
     0
175
     0
179
     0
273
     0
  0
XRECORD
  5
227A
102
{ACAD_REACTORS
330
2278
102
}
330
2278
100
AcDbXrecord
280
     1
270
     1
271
     1
  0
XRECORD
  5
2279
102
{ACAD_REACTORS
330
2278
102
}
330
2278
100
AcDbXrecord
280
     1
270
     1
271
     1
  0
XRECORD
  5
227D
102
{ACAD_REACTORS
330
2278
102
}
330
2278
100
AcDbXrecord
280
     1
270
     1
271
     1
  0
XRECORD
  5
227C
102
{ACAD_REACTORS
330
2278
102
}
330
2278
100
AcDbXrecord
280
     1
270
     1
271
     1
  0
XRECORD
  5
227E
102
{ACAD_REACTORS
330
2278
102
}
330
2278
100
AcDbXrecord
280
     1
270
     1
271
     1
  0
XRECORD
  5
227B
102
{ACAD_REACTORS
330
2278
102
}
330
2278
100
AcDbXrecord
280
     1
270
     1
271
     1
  0
XRECORD
  5
22DD
102
{ACAD_REACTORS
330
2270
102
}
330
2270
100
AcDbXrecord
280
     1
102
MATERIAL
148
0.0
149
0.0
149
0.0
 93
        0
 94
      127
282
     0
 72
     0
 77
     0
171
     0
175
     0
179
     0
273
     0
  0
XRECORD
  5
2272
102
{ACAD_REACTORS
330
2270
102
}
330
2270
100
AcDbXrecord
280
     1
270
     1
271
     1
  0
XRECORD
  5
2271
102
{ACAD_REACTORS
330
2270
102
}
330
2270
100
AcDbXrecord
280
     1
270
     1
271
     1
  0
XRECORD
  5
2275
102
{ACAD_REACTORS
330
2270
102
}
330
2270
100
AcDbXrecord
280
     1
270
     1
271
     1
  0
XRECORD
  5
2274
102
{ACAD_REACTORS
330
2270
102
}
330
2270
100
AcDbXrecord
280
     1
270
     1
271
     1
  0
XRECORD
  5
2276
102
{ACAD_REACTORS
330
2270
102
}
330
2270
100
AcDbXrecord
280
     1
270
     1
271
     1
  0
XRECORD
  5
2273
102
{ACAD_REACTORS
330
2270
102
}
330
2270
100
AcDbXrecord
280
     1
270
     1
271
     1
  0
XRECORD
  5
22DF
102
{ACAD_REACTORS
330
2280
102
}
330
2280
100
AcDbXrecord
280
     1
102
MATERIAL
148
0.0
149
0.0
149
0.0
 93
        0
 94
      127
282
     0
 72
     0
 77
     0
171
     0
175
     0
179
     0
273
     0
  0
XRECORD
  5
2282
102
{ACAD_REACTORS
330
2280
102
}
330
2280
100
AcDbXrecord
280
     1
270
     1
271
     1
  0
XRECORD
  5
2281
102
{ACAD_REACTORS
330
2280
102
}
330
2280
100
AcDbXrecord
280
     1
270
     1
271
     1
  0
XRECORD
  5
2285
102
{ACAD_REACTORS
330
2280
102
}
330
2280
100
AcDbXrecord
280
     1
270
     1
271
     1
  0
XRECORD
  5
2284
102
{ACAD_REACTORS
330
2280
102
}
330
2280
100
AcDbXrecord
280
     1
270
     1
271
     1
  0
XRECORD
  5
2286
102
{ACAD_REACTORS
330
2280
102
}
330
2280
100
AcDbXrecord
280
     1
270
     1
271
     1
  0
XRECORD
  5
2283
102
{ACAD_REACTORS
330
2280
102
}
330
2280
100
AcDbXrecord
280
     1
270
     1
271
     1
  0
XRECORD
  5
2313
102
{ACAD_REACTORS
330
2312
102
}
330
2312
100
AcDbXrecord
280
     1
102
DISPLAYNAME
  1
Imperial24
102
FLAGS
 90
        0
  0
CELLSTYLEMAP
  5
22DA
102
{ACAD_REACTORS
330
22D9
102
}
330
22D9
100
AcDbCellStyleMap
 90
        3
300
CELLSTYLE
  1
TABLEFORMAT_BEGIN
 90
        5
170
     1
 91
        0
 92
    32768
 62
   257
 93
        1
300
CONTENTFORMAT
  1
CONTENTFORMAT_BEGIN
 90
        0
 91
        0
 92
      512
 93
        0
300

 40
0.0
140
1.0
 94
        5
 62
     0
340
F
144
0.25
309
CONTENTFORMAT_END
171
     0
 94
        0
309
TABLEFORMAT_END
  1
CELLSTYLE_BEGIN
 90
        1
 91
        1
300
_TITLE
309
CELLSTYLE_END
300
CELLSTYLE
  1
TABLEFORMAT_BEGIN
 90
        5
170
     1
 91
        0
 92
        0
 62
   257
 93
        1
300
CONTENTFORMAT
  1
CONTENTFORMAT_BEGIN
 90
        0
 91
        0
 92
      512
 93
        0
300

 40
0.0
140
1.0
 94
        5
 62
     0
340
F
144
0.18
309
CONTENTFORMAT_END
171
     0
 94
        0
309
TABLEFORMAT_END
  1
CELLSTYLE_BEGIN
 90
        2
 91
        1
300
_HEADER
309
CELLSTYLE_END
300
CELLSTYLE
  1
TABLEFORMAT_BEGIN
 90
        5
170
     1
 91
        0
 92
        0
 62
   257
 93
        1
300
CONTENTFORMAT
  1
CONTENTFORMAT_BEGIN
 90
        0
 91
        0
 92
      512
 93
        0
300

 40
0.0
140
1.0
 94
        2
 62
     0
340
F
144
0.18
309
CONTENTFORMAT_END
171
     0
 94
        0
309
TABLEFORMAT_END
  1
CELLSTYLE_BEGIN
 90
        3
 91
        2
300
_DATA
309
CELLSTYLE_END
  0
XRECORD
  5
2310
102
{ACAD_REACTORS
330
22D9
102
}
330
22D9
100
AcDbXrecord
280
     1
102
ACAD_ROUNDTRIP_PRE2007_TABLESTYLE
 90
      512
 91
        0
  1

 92
      512
 93
        0
  2

 94
      512
 95
        0
  3

  0
XRECORD
  5
22EB
102
{ACAD_REACTORS
330
22EA
102
}
330
22EA
100
AcDbXrecord
280
     1
102
RTVSPost2010Prop28
280
     1
102
RTVSPost2010PropOp28
 70
     1
102
RTVSPost2010Prop29
280
     1
102
RTVSPost2010PropOp29
 70
     1
102
RTVSPost2010Prop30
280
     0
102
RTVSPost2010PropOp30
 70
     1
102
RTVSPost2010Prop31
280
     0
102
RTVSPost2010PropOp31
 70
     1
102
RTVSPost2010Prop32
280
     0
102
RTVSPost2010PropOp32
 70
     1
102
RTVSPost2010Prop33
280
     0
102
RTVSPost2010PropOp33
 70
     1
102
RTVSPost2010Prop34
280
     0
102
RTVSPost2010PropOp34
 70
     1
102
RTVSPost2010Prop35
280
     0
102
RTVSPost2010PropOp35
 70
     1
102
RTVSPost2010Prop36
280
     0
102
RTVSPost2010PropOp36
 70
     1
102
RTVSPost2010Prop37
 90
       50
102
RTVSPost2010PropOp37
 70
     1
102
RTVSPost2010Prop38
140
0.0
102
RTVSPost2010PropOp38
 70
     1
102
RTVSPost2010Prop39
140
1.0
102
RTVSPost2010PropOp39
 70
     1
102
RTVSPost2010Prop40
 90
        0
102
RTVSPost2010PropOp40
 70
     1
102
RTVSPost2010Prop41ColorIndex
 90
       18
102
RTVSPost2010Prop41ColorRGB
 90
        0
102
RTVSPost2010PropOp41
 70
     1
102
RTVSPost2010Prop42
 90
       50
102
RTVSPost2010PropOp42
 70
     1
102
RTVSPost2010Prop43
 90
        3
102
RTVSPost2010PropOp43
 70
     1
102
RTVSPost2010Prop44ColorIndex
 90
        5
102
RTVSPost2010Prop44ColorRGB
 90
      255
102
RTVSPost2010PropOp44
 70
     1
102
RTVSPost2010Prop45
280
     0
102
RTVSPost2010PropOp45
 70
     1
102
RTVSPost2010Prop46
 90
       50
102
RTVSPost2010PropOp46
 70
     1
102
RTVSPost2010Prop47
 90
       50
102
RTVSPost2010PropOp47
 70
     1
102
RTVSPost2010Prop48
 90
       50
102
RTVSPost2010PropOp48
 70
     1
102
RTVSPost2010Prop49
280
     0
102
RTVSPost2010PropOp49
 70
     1
102
RTVSPost2010Prop50
 90
       50
102
RTVSPost2010PropOp50
 70
     1
102
RTVSPost2010Prop51ColorIndex
 90
      256
102
RTVSPost2010Prop51ColorRGB
 90
-16777216
102
RTVSPost2010PropOp51
 70
     0
102
RTVSPost2010Prop52
140
1.0
102
RTVSPost2010PropOp52
 70
     0
102
RTVSPost2010Prop53
 90
        2
102
RTVSPost2010PropOp53
 70
     1
102
RTVSPost2010Prop54
  1
strokes_ogs.tif
102
RTVSPost2010PropOp54
 70
     1
102
RTVSPost2010Prop55
280
     0
102
RTVSPost2010PropOp55
 70
     1
102
RTVSPost2010Prop56
140
1.0
102
RTVSPost2010PropOp56
 70
     1
102
RTVSPost2010Prop57
140
1.0
102
RTVSPost2010PropOp57
 70
     1
102
RTVSPropertyOp0
 70
     1
102
RTVSPropertyOp1
 70
     1
102
RTVSPropertyOp2
 70
     1
102
RTVSPropertyOp3
 70
     1
102
RTVSPropertyOp4
 70
     1
102
RTVSPropertyOp5
 70
     1
102
RTVSPropertyOp6
 70
     1
102
RTVSPropertyOp7
 70
     1
102
RTVSPropertyOp8
 70
     1
102
RTVSPropertyOp9
 70
     1
102
RTVSPropertyOp10
 70
     1
102
RTVSPropertyOp11
 70
     1
102
RTVSPropertyOp12
 70
     1
102
RTVSPropertyOp13
 70
     1
102
RTVSPropertyOp14
 70
     1
102
RTVSPropertyOp15
 70
     1
102
RTVSPropertyOp16
 70
     1
102
RTVSPropertyOp17
 70
     1
102
RTVSPropertyOp18
 70
     1
102
RTVSPropertyOp19
 70
     1
102
RTVSPropertyOp20
 70
     1
102
RTVSPropertyOp21
 70
     1
102
RTVSPropertyOp22
 70
     1
102
RTVSPropertyOp23
 70
     1
102
RTVSPropertyOp24
 70
     1
102
RTVSPropertyOp25
 70
     1
102
RTVSPropertyOp26
 70
     1
102
RTVSPropertyOp27
 70
     1
102
RTVSPropertyOp28
 70
     1
102
RTVSPropertyOp29
 70
     1
102
RTVSPropertyOp30
 70
     1
102
RTVSPropertyOp31
 70
     1
102
RTVSPropertyOp32
 70
     1
102
RTVSPropertyOp33
 70
     1
102
RTVSPropertyOp34
 70
     1
102
RTVSPropertyOp35
 70
     1
102
RTVSPropertyOp36
 70
     1
102
RTVSPropertyOp37
 70
     1
102
RTVSPropertyOp38
 70
     1
102
RTVSPropertyOp39
 70
     1
102
RTVSPropertyOp40
 70
     1
102
RTVSPropertyOp41
 70
     1
102
RTVSPropertyOp42
 70
     1
102
RTVSPropertyOp43
 70
     1
102
RTVSPropertyOp44
 70
     1
102
RTVSPropertyOp45
 70
     1
102
RTVSPropertyOp46
 70
     1
102
RTVSPropertyOp47
 70
     1
102
RTVSPropertyOp48
 70
     1
102
RTVSPropertyOp49
 70
     1
102
RTVSPropertyOp50
 70
     1
102
RTVSPropertyOp51
 70
     0
102
RTVSPropertyOp52
 70
     0
102
RTVSPropertyOp53
 70
     1
102
RTVSPropertyOp54
 70
     1
102
RTVSPropertyOp55
 70
     1
102
RTVSPropertyOp56
 70
     1
102
RTVSPropertyOp57
 70
     1
102
RTVSPropertyOp58
 70
     1
102
RTVSPropertyOp59
 70
     1
102
RTVSPropertyOp60
 70
     1
102
RTVSPropertyOp61
 70
     1
102
RTVSPropertyOp62
 70
     1
  0
XRECORD
  5
22E9
102
{ACAD_REACTORS
330
22E8
102
}
330
22E8
100
AcDbXrecord
280
     1
102
RTVSPost2010Prop28
280
     0
102
RTVSPost2010PropOp28
 70
     1
102
RTVSPost2010Prop29
280
     1
102
RTVSPost2010PropOp29
 70
     1
102
RTVSPost2010Prop30
280
     1
102
RTVSPost2010PropOp30
 70
     1
102
RTVSPost2010Prop31
280
     0
102
RTVSPost2010PropOp31
 70
     1
102
RTVSPost2010Prop32
280
     0
102
RTVSPost2010PropOp32
 70
     1
102
RTVSPost2010Prop33
280
     0
102
RTVSPost2010PropOp33
 70
     1
102
RTVSPost2010Prop34
280
     0
102
RTVSPost2010PropOp34
 70
     1
102
RTVSPost2010Prop35
280
     0
102
RTVSPost2010PropOp35
 70
     1
102
RTVSPost2010Prop36
280
     0
102
RTVSPost2010PropOp36
 70
     1
102
RTVSPost2010Prop37
 90
       50
102
RTVSPost2010PropOp37
 70
     1
102
RTVSPost2010Prop38
140
0.0
102
RTVSPost2010PropOp38
 70
     1
102
RTVSPost2010Prop39
140
1.0
102
RTVSPost2010PropOp39
 70
     1
102
RTVSPost2010Prop40
 90
        0
102
RTVSPost2010PropOp40
 70
     1
102
RTVSPost2010Prop41ColorIndex
 90
       18
102
RTVSPost2010Prop41ColorRGB
 90
        0
102
RTVSPost2010PropOp41
 70
     1
102
RTVSPost2010Prop42
 90
       50
102
RTVSPost2010PropOp42
 70
     1
102
RTVSPost2010Prop43
 90
        3
102
RTVSPost2010PropOp43
 70
     1
102
RTVSPost2010Prop44ColorIndex
 90
        5
102
RTVSPost2010Prop44ColorRGB
 90
      255
102
RTVSPost2010PropOp44
 70
     1
102
RTVSPost2010Prop45
280
     0
102
RTVSPost2010PropOp45
 70
     1
102
RTVSPost2010Prop46
 90
       50
102
RTVSPost2010PropOp46
 70
     1
102
RTVSPost2010Prop47
 90
       50
102
RTVSPost2010PropOp47
 70
     1
102
RTVSPost2010Prop48
 90
       50
102
RTVSPost2010PropOp48
 70
     1
102
RTVSPost2010Prop49
280
     0
102
RTVSPost2010PropOp49
 70
     1
102
RTVSPost2010Prop50
 90
       50
102
RTVSPost2010PropOp50
 70
     1
102
RTVSPost2010Prop51ColorIndex
 90
      256
102
RTVSPost2010Prop51ColorRGB
 90
-16777216
102
RTVSPost2010PropOp51
 70
     0
102
RTVSPost2010Prop52
140
1.0
102
RTVSPost2010PropOp52
 70
     0
102
RTVSPost2010Prop53
 90
        2
102
RTVSPost2010PropOp53
 70
     1
102
RTVSPost2010Prop54
  1
strokes_ogs.tif
102
RTVSPost2010PropOp54
 70
     1
102
RTVSPost2010Prop55
280
     0
102
RTVSPost2010PropOp55
 70
     1
102
RTVSPost2010Prop56
140
1.0
102
RTVSPost2010PropOp56
 70
     1
102
RTVSPost2010Prop57
140
1.0
102
RTVSPost2010PropOp57
 70
     1
102
RTVSPropertyOp0
 70
     1
102
RTVSPropertyOp1
 70
     1
102
RTVSPropertyOp2
 70
     1
102
RTVSPropertyOp3
 70
     1
102
RTVSPropertyOp4
 70
     1
102
RTVSPropertyOp5
 70
     1
102
RTVSPropertyOp6
 70
     1
102
RTVSPropertyOp7
 70
     1
102
RTVSPropertyOp8
 70
     1
102
RTVSPropertyOp9
 70
     1
102
RTVSPropertyOp10
 70
     1
102
RTVSPropertyOp11
 70
     1
102
RTVSPropertyOp12
 70
     1
102
RTVSPropertyOp13
 70
     1
102
RTVSPropertyOp14
 70
     1
102
RTVSPropertyOp15
 70
     1
102
RTVSPropertyOp16
 70
     1
102
RTVSPropertyOp17
 70
     1
102
RTVSPropertyOp18
 70
     1
102
RTVSPropertyOp19
 70
     1
102
RTVSPropertyOp20
 70
     1
102
RTVSPropertyOp21
 70
     1
102
RTVSPropertyOp22
 70
     1
102
RTVSPropertyOp23
 70
     1
102
RTVSPropertyOp24
 70
     1
102
RTVSPropertyOp25
 70
     1
102
RTVSPropertyOp26
 70
     1
102
RTVSPropertyOp27
 70
     1
102
RTVSPropertyOp28
 70
     1
102
RTVSPropertyOp29
 70
     1
102
RTVSPropertyOp30
 70
     1
102
RTVSPropertyOp31
 70
     1
102
RTVSPropertyOp32
 70
     1
102
RTVSPropertyOp33
 70
     1
102
RTVSPropertyOp34
 70
     1
102
RTVSPropertyOp35
 70
     1
102
RTVSPropertyOp36
 70
     1
102
RTVSPropertyOp37
 70
     1
102
RTVSPropertyOp38
 70
     1
102
RTVSPropertyOp39
 70
     1
102
RTVSPropertyOp40
 70
     1
102
RTVSPropertyOp41
 70
     1
102
RTVSPropertyOp42
 70
     1
102
RTVSPropertyOp43
 70
     1
102
RTVSPropertyOp44
 70
     1
102
RTVSPropertyOp45
 70
     1
102
RTVSPropertyOp46
 70
     1
102
RTVSPropertyOp47
 70
     1
102
RTVSPropertyOp48
 70
     1
102
RTVSPropertyOp49
 70
     1
102
RTVSPropertyOp50
 70
     1
102
RTVSPropertyOp51
 70
     0
102
RTVSPropertyOp52
 70
     0
102
RTVSPropertyOp53
 70
     1
102
RTVSPropertyOp54
 70
     1
102
RTVSPropertyOp55
 70
     1
102
RTVSPropertyOp56
 70
     1
102
RTVSPropertyOp57
 70
     1
102
RTVSPropertyOp58
 70
     1
102
RTVSPropertyOp59
 70
     1
102
RTVSPropertyOp60
 70
     1
102
RTVSPropertyOp61
 70
     1
102
RTVSPropertyOp62
 70
     1
  0
XRECORD
  5
22F7
102
{ACAD_REACTORS
330
22F6
102
}
330
22F6
100
AcDbXrecord
280
     1
102
RTVSPost2010Prop28
280
     0
102
RTVSPost2010PropOp28
 70
     1
102
RTVSPost2010Prop29
280
     1
102
RTVSPost2010PropOp29
 70
     1
102
RTVSPost2010Prop30
280
     1
102
RTVSPost2010PropOp30
 70
     1
102
RTVSPost2010Prop31
280
     0
102
RTVSPost2010PropOp31
 70
     1
102
RTVSPost2010Prop32
280
     0
102
RTVSPost2010PropOp32
 70
     1
102
RTVSPost2010Prop33
280
     0
102
RTVSPost2010PropOp33
 70
     1
102
RTVSPost2010Prop34
280
     0
102
RTVSPost2010PropOp34
 70
     1
102
RTVSPost2010Prop35
280
     0
102
RTVSPost2010PropOp35
 70
     1
102
RTVSPost2010Prop36
280
     0
102
RTVSPost2010PropOp36
 70
     1
102
RTVSPost2010Prop37
 90
       50
102
RTVSPost2010PropOp37
 70
     1
102
RTVSPost2010Prop38
140
0.0
102
RTVSPost2010PropOp38
 70
     1
102
RTVSPost2010Prop39
140
1.0
102
RTVSPost2010PropOp39
 70
     1
102
RTVSPost2010Prop40
 90
        0
102
RTVSPost2010PropOp40
 70
     1
102
RTVSPost2010Prop41ColorIndex
 90
       18
102
RTVSPost2010Prop41ColorRGB
 90
        0
102
RTVSPost2010PropOp41
 70
     1
102
RTVSPost2010Prop42
 90
       50
102
RTVSPost2010PropOp42
 70
     1
102
RTVSPost2010Prop43
 90
        3
102
RTVSPost2010PropOp43
 70
     1
102
RTVSPost2010Prop44ColorIndex
 90
        5
102
RTVSPost2010Prop44ColorRGB
 90
      255
102
RTVSPost2010PropOp44
 70
     1
102
RTVSPost2010Prop45
280
     0
102
RTVSPost2010PropOp45
 70
     1
102
RTVSPost2010Prop46
 90
       50
102
RTVSPost2010PropOp46
 70
     1
102
RTVSPost2010Prop47
 90
       50
102
RTVSPost2010PropOp47
 70
     1
102
RTVSPost2010Prop48
 90
       50
102
RTVSPost2010PropOp48
 70
     1
102
RTVSPost2010Prop49
280
     0
102
RTVSPost2010PropOp49
 70
     1
102
RTVSPost2010Prop50
 90
       50
102
RTVSPost2010PropOp50
 70
     1
102
RTVSPost2010Prop51ColorIndex
 90
      256
102
RTVSPost2010Prop51ColorRGB
 90
-16777216
102
RTVSPost2010PropOp51
 70
     0
102
RTVSPost2010Prop52
140
1.0
102
RTVSPost2010PropOp52
 70
     0
102
RTVSPost2010Prop53
 90
        2
102
RTVSPost2010PropOp53
 70
     1
102
RTVSPost2010Prop54
  1
strokes_ogs.tif
102
RTVSPost2010PropOp54
 70
     1
102
RTVSPost2010Prop55
280
     0
102
RTVSPost2010PropOp55
 70
     1
102
RTVSPost2010Prop56
140
1.0
102
RTVSPost2010PropOp56
 70
     1
102
RTVSPost2010Prop57
140
1.0
102
RTVSPost2010PropOp57
 70
     1
102
RTVSPropertyOp0
 70
     1
102
RTVSPropertyOp1
 70
     1
102
RTVSPropertyOp2
 70
     1
102
RTVSPropertyOp3
 70
     1
102
RTVSPropertyOp4
 70
     1
102
RTVSPropertyOp5
 70
     1
102
RTVSPropertyOp6
 70
     1
102
RTVSPropertyOp7
 70
     1
102
RTVSPropertyOp8
 70
     1
102
RTVSPropertyOp9
 70
     1
102
RTVSPropertyOp10
 70
     1
102
RTVSPropertyOp11
 70
     1
102
RTVSPropertyOp12
 70
     1
102
RTVSPropertyOp13
 70
     1
102
RTVSPropertyOp14
 70
     1
102
RTVSPropertyOp15
 70
     1
102
RTVSPropertyOp16
 70
     1
102
RTVSPropertyOp17
 70
     1
102
RTVSPropertyOp18
 70
     1
102
RTVSPropertyOp19
 70
     1
102
RTVSPropertyOp20
 70
     1
102
RTVSPropertyOp21
 70
     1
102
RTVSPropertyOp22
 70
     1
102
RTVSPropertyOp23
 70
     1
102
RTVSPropertyOp24
 70
     1
102
RTVSPropertyOp25
 70
     1
102
RTVSPropertyOp26
 70
     1
102
RTVSPropertyOp27
 70
     1
102
RTVSPropertyOp28
 70
     1
102
RTVSPropertyOp29
 70
     1
102
RTVSPropertyOp30
 70
     1
102
RTVSPropertyOp31
 70
     1
102
RTVSPropertyOp32
 70
     1
102
RTVSPropertyOp33
 70
     1
102
RTVSPropertyOp34
 70
     1
102
RTVSPropertyOp35
 70
     1
102
RTVSPropertyOp36
 70
     1
102
RTVSPropertyOp37
 70
     1
102
RTVSPropertyOp38
 70
     1
102
RTVSPropertyOp39
 70
     1
102
RTVSPropertyOp40
 70
     1
102
RTVSPropertyOp41
 70
     1
102
RTVSPropertyOp42
 70
     1
102
RTVSPropertyOp43
 70
     1
102
RTVSPropertyOp44
 70
     1
102
RTVSPropertyOp45
 70
     1
102
RTVSPropertyOp46
 70
     1
102
RTVSPropertyOp47
 70
     1
102
RTVSPropertyOp48
 70
     1
102
RTVSPropertyOp49
 70
     1
102
RTVSPropertyOp50
 70
     1
102
RTVSPropertyOp51
 70
     0
102
RTVSPropertyOp52
 70
     0
102
RTVSPropertyOp53
 70
     1
102
RTVSPropertyOp54
 70
     1
102
RTVSPropertyOp55
 70
     1
102
RTVSPropertyOp56
 70
     1
102
RTVSPropertyOp57
 70
     1
102
RTVSPropertyOp58
 70
     1
102
RTVSPropertyOp59
 70
     1
102
RTVSPropertyOp60
 70
     1
102
RTVSPropertyOp61
 70
     1
102
RTVSPropertyOp62
 70
     1
  0
XRECORD
  5
22FF
102
{ACAD_REACTORS
330
22FE
102
}
330
22FE
100
AcDbXrecord
280
     1
102
RTVSPost2010Prop28
280
     0
102
RTVSPost2010PropOp28
 70
     1
102
RTVSPost2010Prop29
280
     1
102
RTVSPost2010PropOp29
 70
     1
102
RTVSPost2010Prop30
280
     1
102
RTVSPost2010PropOp30
 70
     1
102
RTVSPost2010Prop31
280
     0
102
RTVSPost2010PropOp31
 70
     1
102
RTVSPost2010Prop32
280
     0
102
RTVSPost2010PropOp32
 70
     1
102
RTVSPost2010Prop33
280
     0
102
RTVSPost2010PropOp33
 70
     1
102
RTVSPost2010Prop34
280
     0
102
RTVSPost2010PropOp34
 70
     1
102
RTVSPost2010Prop35
280
     0
102
RTVSPost2010PropOp35
 70
     1
102
RTVSPost2010Prop36
280
     0
102
RTVSPost2010PropOp36
 70
     1
102
RTVSPost2010Prop37
 90
       50
102
RTVSPost2010PropOp37
 70
     1
102
RTVSPost2010Prop38
140
0.0
102
RTVSPost2010PropOp38
 70
     1
102
RTVSPost2010Prop39
140
1.0
102
RTVSPost2010PropOp39
 70
     1
102
RTVSPost2010Prop40
 90
        0
102
RTVSPost2010PropOp40
 70
     1
102
RTVSPost2010Prop41ColorIndex
 90
       18
102
RTVSPost2010Prop41ColorRGB
 90
        0
102
RTVSPost2010PropOp41
 70
     1
102
RTVSPost2010Prop42
 90
       50
102
RTVSPost2010PropOp42
 70
     1
102
RTVSPost2010Prop43
 90
        3
102
RTVSPost2010PropOp43
 70
     1
102
RTVSPost2010Prop44ColorIndex
 90
        5
102
RTVSPost2010Prop44ColorRGB
 90
      255
102
RTVSPost2010PropOp44
 70
     1
102
RTVSPost2010Prop45
280
     0
102
RTVSPost2010PropOp45
 70
     1
102
RTVSPost2010Prop46
 90
       50
102
RTVSPost2010PropOp46
 70
     1
102
RTVSPost2010Prop47
 90
       50
102
RTVSPost2010PropOp47
 70
     1
102
RTVSPost2010Prop48
 90
       50
102
RTVSPost2010PropOp48
 70
     1
102
RTVSPost2010Prop49
280
     0
102
RTVSPost2010PropOp49
 70
     1
102
RTVSPost2010Prop50
 90
       50
102
RTVSPost2010PropOp50
 70
     1
102
RTVSPost2010Prop51ColorIndex
 90
      256
102
RTVSPost2010Prop51ColorRGB
 90
-16777216
102
RTVSPost2010PropOp51
 70
     0
102
RTVSPost2010Prop52
140
1.0
102
RTVSPost2010PropOp52
 70
     0
102
RTVSPost2010Prop53
 90
        2
102
RTVSPost2010PropOp53
 70
     1
102
RTVSPost2010Prop54
  1
strokes_ogs.tif
102
RTVSPost2010PropOp54
 70
     1
102
RTVSPost2010Prop55
280
     0
102
RTVSPost2010PropOp55
 70
     1
102
RTVSPost2010Prop56
140
1.0
102
RTVSPost2010PropOp56
 70
     1
102
RTVSPost2010Prop57
140
1.0
102
RTVSPost2010PropOp57
 70
     1
102
RTVSPropertyOp0
 70
     1
102
RTVSPropertyOp1
 70
     1
102
RTVSPropertyOp2
 70
     1
102
RTVSPropertyOp3
 70
     1
102
RTVSPropertyOp4
 70
     1
102
RTVSPropertyOp5
 70
     1
102
RTVSPropertyOp6
 70
     1
102
RTVSPropertyOp7
 70
     1
102
RTVSPropertyOp8
 70
     1
102
RTVSPropertyOp9
 70
     1
102
RTVSPropertyOp10
 70
     1
102
RTVSPropertyOp11
 70
     1
102
RTVSPropertyOp12
 70
     1
102
RTVSPropertyOp13
 70
     1
102
RTVSPropertyOp14
 70
     1
102
RTVSPropertyOp15
 70
     1
102
RTVSPropertyOp16
 70
     1
102
RTVSPropertyOp17
 70
     1
102
RTVSPropertyOp18
 70
     1
102
RTVSPropertyOp19
 70
     1
102
RTVSPropertyOp20
 70
     1
102
RTVSPropertyOp21
 70
     1
102
RTVSPropertyOp22
 70
     1
102
RTVSPropertyOp23
 70
     1
102
RTVSPropertyOp24
 70
     1
102
RTVSPropertyOp25
 70
     1
102
RTVSPropertyOp26
 70
     1
102
RTVSPropertyOp27
 70
     1
102
RTVSPropertyOp28
 70
     1
102
RTVSPropertyOp29
 70
     1
102
RTVSPropertyOp30
 70
     1
102
RTVSPropertyOp31
 70
     1
102
RTVSPropertyOp32
 70
     1
102
RTVSPropertyOp33
 70
     1
102
RTVSPropertyOp34
 70
     1
102
RTVSPropertyOp35
 70
     1
102
RTVSPropertyOp36
 70
     1
102
RTVSPropertyOp37
 70
     1
102
RTVSPropertyOp38
 70
     1
102
RTVSPropertyOp39
 70
     1
102
RTVSPropertyOp40
 70
     1
102
RTVSPropertyOp41
 70
     1
102
RTVSPropertyOp42
 70
     1
102
RTVSPropertyOp43
 70
     1
102
RTVSPropertyOp44
 70
     1
102
RTVSPropertyOp45
 70
     1
102
RTVSPropertyOp46
 70
     1
102
RTVSPropertyOp47
 70
     1
102
RTVSPropertyOp48
 70
     1
102
RTVSPropertyOp49
 70
     1
102
RTVSPropertyOp50
 70
     1
102
RTVSPropertyOp51
 70
     0
102
RTVSPropertyOp52
 70
     0
102
RTVSPropertyOp53
 70
     1
102
RTVSPropertyOp54
 70
     1
102
RTVSPropertyOp55
 70
     1
102
RTVSPropertyOp56
 70
     1
102
RTVSPropertyOp57
 70
     1
102
RTVSPropertyOp58
 70
     1
102
RTVSPropertyOp59
 70
     1
102
RTVSPropertyOp60
 70
     1
102
RTVSPropertyOp61
 70
     1
102
RTVSPropertyOp62
 70
     1
  0
XRECORD
  5
22F1
102
{ACAD_REACTORS
330
22F0
102
}
330
22F0
100
AcDbXrecord
280
     1
102
RTVSPost2010Prop28
280
     0
102
RTVSPost2010PropOp28
 70
     1
102
RTVSPost2010Prop29
280
     1
102
RTVSPost2010PropOp29
 70
     1
102
RTVSPost2010Prop30
280
     1
102
RTVSPost2010PropOp30
 70
     1
102
RTVSPost2010Prop31
280
     0
102
RTVSPost2010PropOp31
 70
     1
102
RTVSPost2010Prop32
280
     0
102
RTVSPost2010PropOp32
 70
     1
102
RTVSPost2010Prop33
280
     0
102
RTVSPost2010PropOp33
 70
     1
102
RTVSPost2010Prop34
280
     0
102
RTVSPost2010PropOp34
 70
     1
102
RTVSPost2010Prop35
280
     0
102
RTVSPost2010PropOp35
 70
     1
102
RTVSPost2010Prop36
280
     0
102
RTVSPost2010PropOp36
 70
     1
102
RTVSPost2010Prop37
 90
       50
102
RTVSPost2010PropOp37
 70
     1
102
RTVSPost2010Prop38
140
0.0
102
RTVSPost2010PropOp38
 70
     1
102
RTVSPost2010Prop39
140
1.0
102
RTVSPost2010PropOp39
 70
     1
102
RTVSPost2010Prop40
 90
        0
102
RTVSPost2010PropOp40
 70
     1
102
RTVSPost2010Prop41ColorIndex
 90
       18
102
RTVSPost2010Prop41ColorRGB
 90
        0
102
RTVSPost2010PropOp41
 70
     1
102
RTVSPost2010Prop42
 90
       50
102
RTVSPost2010PropOp42
 70
     1
102
RTVSPost2010Prop43
 90
        3
102
RTVSPost2010PropOp43
 70
     1
102
RTVSPost2010Prop44ColorIndex
 90
        5
102
RTVSPost2010Prop44ColorRGB
 90
      255
102
RTVSPost2010PropOp44
 70
     1
102
RTVSPost2010Prop45
280
     0
102
RTVSPost2010PropOp45
 70
     1
102
RTVSPost2010Prop46
 90
       50
102
RTVSPost2010PropOp46
 70
     1
102
RTVSPost2010Prop47
 90
       50
102
RTVSPost2010PropOp47
 70
     1
102
RTVSPost2010Prop48
 90
       50
102
RTVSPost2010PropOp48
 70
     1
102
RTVSPost2010Prop49
280
     0
102
RTVSPost2010PropOp49
 70
     1
102
RTVSPost2010Prop50
 90
       50
102
RTVSPost2010PropOp50
 70
     1
102
RTVSPost2010Prop51ColorIndex
 90
      256
102
RTVSPost2010Prop51ColorRGB
 90
-16777216
102
RTVSPost2010PropOp51
 70
     0
102
RTVSPost2010Prop52
140
1.0
102
RTVSPost2010PropOp52
 70
     0
102
RTVSPost2010Prop53
 90
        2
102
RTVSPost2010PropOp53
 70
     1
102
RTVSPost2010Prop54
  1
strokes_ogs.tif
102
RTVSPost2010PropOp54
 70
     1
102
RTVSPost2010Prop55
280
     0
102
RTVSPost2010PropOp55
 70
     1
102
RTVSPost2010Prop56
140
1.0
102
RTVSPost2010PropOp56
 70
     1
102
RTVSPost2010Prop57
140
1.0
102
RTVSPost2010PropOp57
 70
     1
102
RTVSPropertyOp0
 70
     1
102
RTVSPropertyOp1
 70
     1
102
RTVSPropertyOp2
 70
     1
102
RTVSPropertyOp3
 70
     1
102
RTVSPropertyOp4
 70
     1
102
RTVSPropertyOp5
 70
     1
102
RTVSPropertyOp6
 70
     1
102
RTVSPropertyOp7
 70
     1
102
RTVSPropertyOp8
 70
     1
102
RTVSPropertyOp9
 70
     1
102
RTVSPropertyOp10
 70
     1
102
RTVSPropertyOp11
 70
     1
102
RTVSPropertyOp12
 70
     1
102
RTVSPropertyOp13
 70
     1
102
RTVSPropertyOp14
 70
     1
102
RTVSPropertyOp15
 70
     1
102
RTVSPropertyOp16
 70
     1
102
RTVSPropertyOp17
 70
     1
102
RTVSPropertyOp18
 70
     1
102
RTVSPropertyOp19
 70
     1
102
RTVSPropertyOp20
 70
     1
102
RTVSPropertyOp21
 70
     1
102
RTVSPropertyOp22
 70
     1
102
RTVSPropertyOp23
 70
     1
102
RTVSPropertyOp24
 70
     1
102
RTVSPropertyOp25
 70
     1
102
RTVSPropertyOp26
 70
     1
102
RTVSPropertyOp27
 70
     1
102
RTVSPropertyOp28
 70
     1
102
RTVSPropertyOp29
 70
     1
102
RTVSPropertyOp30
 70
     1
102
RTVSPropertyOp31
 70
     1
102
RTVSPropertyOp32
 70
     1
102
RTVSPropertyOp33
 70
     1
102
RTVSPropertyOp34
 70
     1
102
RTVSPropertyOp35
 70
     1
102
RTVSPropertyOp36
 70
     1
102
RTVSPropertyOp37
 70
     1
102
RTVSPropertyOp38
 70
     1
102
RTVSPropertyOp39
 70
     1
102
RTVSPropertyOp40
 70
     1
102
RTVSPropertyOp41
 70
     1
102
RTVSPropertyOp42
 70
     1
102
RTVSPropertyOp43
 70
     1
102
RTVSPropertyOp44
 70
     1
102
RTVSPropertyOp45
 70
     1
102
RTVSPropertyOp46
 70
     1
102
RTVSPropertyOp47
 70
     1
102
RTVSPropertyOp48
 70
     1
102
RTVSPropertyOp49
 70
     1
102
RTVSPropertyOp50
 70
     1
102
RTVSPropertyOp51
 70
     0
102
RTVSPropertyOp52
 70
     0
102
RTVSPropertyOp53
 70
     1
102
RTVSPropertyOp54
 70
     1
102
RTVSPropertyOp55
 70
     1
102
RTVSPropertyOp56
 70
     1
102
RTVSPropertyOp57
 70
     1
102
RTVSPropertyOp58
 70
     1
102
RTVSPropertyOp59
 70
     1
102
RTVSPropertyOp60
 70
     1
102
RTVSPropertyOp61
 70
     1
102
RTVSPropertyOp62
 70
     1
  0
XRECORD
  5
22F5
102
{ACAD_REACTORS
330
22F4
102
}
330
22F4
100
AcDbXrecord
280
     1
102
RTVSPost2010Prop28
280
     0
102
RTVSPost2010PropOp28
 70
     1
102
RTVSPost2010Prop29
280
     1
102
RTVSPost2010PropOp29
 70
     1
102
RTVSPost2010Prop30
280
     1
102
RTVSPost2010PropOp30
 70
     1
102
RTVSPost2010Prop31
280
     0
102
RTVSPost2010PropOp31
 70
     1
102
RTVSPost2010Prop32
280
     0
102
RTVSPost2010PropOp32
 70
     1
102
RTVSPost2010Prop33
280
     0
102
RTVSPost2010PropOp33
 70
     1
102
RTVSPost2010Prop34
280
     0
102
RTVSPost2010PropOp34
 70
     1
102
RTVSPost2010Prop35
280
     0
102
RTVSPost2010PropOp35
 70
     1
102
RTVSPost2010Prop36
280
     0
102
RTVSPost2010PropOp36
 70
     1
102
RTVSPost2010Prop37
 90
       50
102
RTVSPost2010PropOp37
 70
     1
102
RTVSPost2010Prop38
140
0.0
102
RTVSPost2010PropOp38
 70
     1
102
RTVSPost2010Prop39
140
1.0
102
RTVSPost2010PropOp39
 70
     1
102
RTVSPost2010Prop40
 90
        0
102
RTVSPost2010PropOp40
 70
     1
102
RTVSPost2010Prop41ColorIndex
 90
       18
102
RTVSPost2010Prop41ColorRGB
 90
        0
102
RTVSPost2010PropOp41
 70
     1
102
RTVSPost2010Prop42
 90
       50
102
RTVSPost2010PropOp42
 70
     1
102
RTVSPost2010Prop43
 90
        3
102
RTVSPost2010PropOp43
 70
     1
102
RTVSPost2010Prop44ColorIndex
 90
        5
102
RTVSPost2010Prop44ColorRGB
 90
      255
102
RTVSPost2010PropOp44
 70
     1
102
RTVSPost2010Prop45
280
     0
102
RTVSPost2010PropOp45
 70
     1
102
RTVSPost2010Prop46
 90
       50
102
RTVSPost2010PropOp46
 70
     1
102
RTVSPost2010Prop47
 90
       50
102
RTVSPost2010PropOp47
 70
     1
102
RTVSPost2010Prop48
 90
       50
102
RTVSPost2010PropOp48
 70
     1
102
RTVSPost2010Prop49
280
     0
102
RTVSPost2010PropOp49
 70
     1
102
RTVSPost2010Prop50
 90
       50
102
RTVSPost2010PropOp50
 70
     1
102
RTVSPost2010Prop51ColorIndex
 90
      256
102
RTVSPost2010Prop51ColorRGB
 90
-16777216
102
RTVSPost2010PropOp51
 70
     0
102
RTVSPost2010Prop52
140
1.0
102
RTVSPost2010PropOp52
 70
     0
102
RTVSPost2010Prop53
 90
        2
102
RTVSPost2010PropOp53
 70
     1
102
RTVSPost2010Prop54
  1
strokes_ogs.tif
102
RTVSPost2010PropOp54
 70
     1
102
RTVSPost2010Prop55
280
     0
102
RTVSPost2010PropOp55
 70
     1
102
RTVSPost2010Prop56
140
1.0
102
RTVSPost2010PropOp56
 70
     1
102
RTVSPost2010Prop57
140
1.0
102
RTVSPost2010PropOp57
 70
     1
102
RTVSPropertyOp0
 70
     1
102
RTVSPropertyOp1
 70
     1
102
RTVSPropertyOp2
 70
     1
102
RTVSPropertyOp3
 70
     1
102
RTVSPropertyOp4
 70
     1
102
RTVSPropertyOp5
 70
     1
102
RTVSPropertyOp6
 70
     1
102
RTVSPropertyOp7
 70
     1
102
RTVSPropertyOp8
 70
     1
102
RTVSPropertyOp9
 70
     1
102
RTVSPropertyOp10
 70
     1
102
RTVSPropertyOp11
 70
     1
102
RTVSPropertyOp12
 70
     1
102
RTVSPropertyOp13
 70
     1
102
RTVSPropertyOp14
 70
     1
102
RTVSPropertyOp15
 70
     1
102
RTVSPropertyOp16
 70
     1
102
RTVSPropertyOp17
 70
     1
102
RTVSPropertyOp18
 70
     1
102
RTVSPropertyOp19
 70
     1
102
RTVSPropertyOp20
 70
     1
102
RTVSPropertyOp21
 70
     1
102
RTVSPropertyOp22
 70
     1
102
RTVSPropertyOp23
 70
     1
102
RTVSPropertyOp24
 70
     1
102
RTVSPropertyOp25
 70
     1
102
RTVSPropertyOp26
 70
     1
102
RTVSPropertyOp27
 70
     1
102
RTVSPropertyOp28
 70
     1
102
RTVSPropertyOp29
 70
     1
102
RTVSPropertyOp30
 70
     1
102
RTVSPropertyOp31
 70
     1
102
RTVSPropertyOp32
 70
     1
102
RTVSPropertyOp33
 70
     1
102
RTVSPropertyOp34
 70
     1
102
RTVSPropertyOp35
 70
     1
102
RTVSPropertyOp36
 70
     1
102
RTVSPropertyOp37
 70
     1
102
RTVSPropertyOp38
 70
     1
102
RTVSPropertyOp39
 70
     1
102
RTVSPropertyOp40
 70
     1
102
RTVSPropertyOp41
 70
     1
102
RTVSPropertyOp42
 70
     1
102
RTVSPropertyOp43
 70
     1
102
RTVSPropertyOp44
 70
     1
102
RTVSPropertyOp45
 70
     1
102
RTVSPropertyOp46
 70
     1
102
RTVSPropertyOp47
 70
     1
102
RTVSPropertyOp48
 70
     1
102
RTVSPropertyOp49
 70
     1
102
RTVSPropertyOp50
 70
     1
102
RTVSPropertyOp51
 70
     0
102
RTVSPropertyOp52
 70
     0
102
RTVSPropertyOp53
 70
     1
102
RTVSPropertyOp54
 70
     1
102
RTVSPropertyOp55
 70
     1
102
RTVSPropertyOp56
 70
     1
102
RTVSPropertyOp57
 70
     1
102
RTVSPropertyOp58
 70
     1
102
RTVSPropertyOp59
 70
     1
102
RTVSPropertyOp60
 70
     1
102
RTVSPropertyOp61
 70
     1
102
RTVSPropertyOp62
 70
     1
  0
XRECORD
  5
230F
102
{ACAD_REACTORS
330
230E
102
}
330
230E
100
AcDbXrecord
280
     1
102
RTVSPost2010Prop28
280
     0
102
RTVSPost2010PropOp28
 70
     1
102
RTVSPost2010Prop29
280
     1
102
RTVSPost2010PropOp29
 70
     1
102
RTVSPost2010Prop30
280
     1
102
RTVSPost2010PropOp30
 70
     1
102
RTVSPost2010Prop31
280
     0
102
RTVSPost2010PropOp31
 70
     1
102
RTVSPost2010Prop32
280
     0
102
RTVSPost2010PropOp32
 70
     1
102
RTVSPost2010Prop33
280
     0
102
RTVSPost2010PropOp33
 70
     1
102
RTVSPost2010Prop34
280
     0
102
RTVSPost2010PropOp34
 70
     1
102
RTVSPost2010Prop35
280
     0
102
RTVSPost2010PropOp35
 70
     1
102
RTVSPost2010Prop36
280
     0
102
RTVSPost2010PropOp36
 70
     1
102
RTVSPost2010Prop37
 90
       50
102
RTVSPost2010PropOp37
 70
     0
102
RTVSPost2010Prop38
140
0.0
102
RTVSPost2010PropOp38
 70
     0
102
RTVSPost2010Prop39
140
1.0
102
RTVSPost2010PropOp39
 70
     0
102
RTVSPost2010Prop40
 90
        0
102
RTVSPost2010PropOp40
 70
     0
102
RTVSPost2010Prop41ColorIndex
 90
       18
102
RTVSPost2010Prop41ColorRGB
 90
        0
102
RTVSPost2010PropOp41
 70
     0
102
RTVSPost2010Prop42
 90
       50
102
RTVSPost2010PropOp42
 70
     0
102
RTVSPost2010Prop43
 90
        3
102
RTVSPost2010PropOp43
 70
     0
102
RTVSPost2010Prop44ColorIndex
 90
        5
102
RTVSPost2010Prop44ColorRGB
 90
      255
102
RTVSPost2010PropOp44
 70
     0
102
RTVSPost2010Prop45
280
     0
102
RTVSPost2010PropOp45
 70
     1
102
RTVSPost2010Prop46
 90
       50
102
RTVSPost2010PropOp46
 70
     0
102
RTVSPost2010Prop47
 90
       50
102
RTVSPost2010PropOp47
 70
     0
102
RTVSPost2010Prop48
 90
       50
102
RTVSPost2010PropOp48
 70
     0
102
RTVSPost2010Prop49
280
     0
102
RTVSPost2010PropOp49
 70
     1
102
RTVSPost2010Prop50
 90
       50
102
RTVSPost2010PropOp50
 70
     0
102
RTVSPost2010Prop51ColorIndex
 90
      256
102
RTVSPost2010Prop51ColorRGB
 90
-16777216
102
RTVSPost2010PropOp51
 70
     0
102
RTVSPost2010Prop52
140
1.0
102
RTVSPost2010PropOp52
 70
     0
102
RTVSPost2010Prop53
 90
        2
102
RTVSPost2010PropOp53
 70
     0
102
RTVSPost2010Prop54
  1
strokes_ogs.tif
102
RTVSPost2010PropOp54
 70
     0
102
RTVSPost2010Prop55
280
     0
102
RTVSPost2010PropOp55
 70
     1
102
RTVSPost2010Prop56
140
1.0
102
RTVSPost2010PropOp56
 70
     0
102
RTVSPost2010Prop57
140
1.0
102
RTVSPost2010PropOp57
 70
     0
102
RTVSPropertyOp0
 70
     0
102
RTVSPropertyOp1
 70
     0
102
RTVSPropertyOp2
 70
     0
102
RTVSPropertyOp3
 70
     0
102
RTVSPropertyOp4
 70
     0
102
RTVSPropertyOp5
 70
     0
102
RTVSPropertyOp6
 70
     0
102
RTVSPropertyOp7
 70
     0
102
RTVSPropertyOp8
 70
     0
102
RTVSPropertyOp9
 70
     0
102
RTVSPropertyOp10
 70
     0
102
RTVSPropertyOp11
 70
     0
102
RTVSPropertyOp12
 70
     0
102
RTVSPropertyOp13
 70
     0
102
RTVSPropertyOp14
 70
     2
102
RTVSPropertyOp15
 70
     0
102
RTVSPropertyOp16
 70
     0
102
RTVSPropertyOp17
 70
     0
102
RTVSPropertyOp18
 70
     0
102
RTVSPropertyOp19
 70
     0
102
RTVSPropertyOp20
 70
     0
102
RTVSPropertyOp21
 70
     0
102
RTVSPropertyOp22
 70
     0
102
RTVSPropertyOp23
 70
     0
102
RTVSPropertyOp24
 70
     0
102
RTVSPropertyOp25
 70
     0
102
RTVSPropertyOp26
 70
     0
102
RTVSPropertyOp27
 70
     0
102
RTVSPropertyOp28
 70
     1
102
RTVSPropertyOp29
 70
     1
102
RTVSPropertyOp30
 70
     1
102
RTVSPropertyOp31
 70
     1
102
RTVSPropertyOp32
 70
     1
102
RTVSPropertyOp33
 70
     1
102
RTVSPropertyOp34
 70
     1
102
RTVSPropertyOp35
 70
     1
102
RTVSPropertyOp36
 70
     1
102
RTVSPropertyOp37
 70
     0
102
RTVSPropertyOp38
 70
     0
102
RTVSPropertyOp39
 70
     0
102
RTVSPropertyOp40
 70
     0
102
RTVSPropertyOp41
 70
     0
102
RTVSPropertyOp42
 70
     0
102
RTVSPropertyOp43
 70
     0
102
RTVSPropertyOp44
 70
     0
102
RTVSPropertyOp45
 70
     1
102
RTVSPropertyOp46
 70
     0
102
RTVSPropertyOp47
 70
     0
102
RTVSPropertyOp48
 70
     0
102
RTVSPropertyOp49
 70
     1
102
RTVSPropertyOp50
 70
     0
102
RTVSPropertyOp51
 70
     0
102
RTVSPropertyOp52
 70
     0
102
RTVSPropertyOp53
 70
     0
102
RTVSPropertyOp54
 70
     0
102
RTVSPropertyOp55
 70
     1
102
RTVSPropertyOp56
 70
     0
102
RTVSPropertyOp57
 70
     0
102
RTVSPropertyOp58
 70
     0
102
RTVSPropertyOp59
 70
     0
102
RTVSPropertyOp60
 70
     0
102
RTVSPropertyOp61
 70
     0
102
RTVSPropertyOp62
 70
     0
  0
XRECORD
  5
22FD
102
{ACAD_REACTORS
330
22FC
102
}
330
22FC
100
AcDbXrecord
280
     1
102
RTVSPost2010Prop28
280
     0
102
RTVSPost2010PropOp28
 70
     1
102
RTVSPost2010Prop29
280
     1
102
RTVSPost2010PropOp29
 70
     1
102
RTVSPost2010Prop30
280
     1
102
RTVSPost2010PropOp30
 70
     1
102
RTVSPost2010Prop31
280
     0
102
RTVSPost2010PropOp31
 70
     1
102
RTVSPost2010Prop32
280
     0
102
RTVSPost2010PropOp32
 70
     1
102
RTVSPost2010Prop33
280
     0
102
RTVSPost2010PropOp33
 70
     1
102
RTVSPost2010Prop34
280
     0
102
RTVSPost2010PropOp34
 70
     1
102
RTVSPost2010Prop35
280
     0
102
RTVSPost2010PropOp35
 70
     1
102
RTVSPost2010Prop36
280
     0
102
RTVSPost2010PropOp36
 70
     1
102
RTVSPost2010Prop37
 90
       50
102
RTVSPost2010PropOp37
 70
     1
102
RTVSPost2010Prop38
140
0.0
102
RTVSPost2010PropOp38
 70
     1
102
RTVSPost2010Prop39
140
1.0
102
RTVSPost2010PropOp39
 70
     1
102
RTVSPost2010Prop40
 90
        0
102
RTVSPost2010PropOp40
 70
     1
102
RTVSPost2010Prop41ColorIndex
 90
       18
102
RTVSPost2010Prop41ColorRGB
 90
        0
102
RTVSPost2010PropOp41
 70
     1
102
RTVSPost2010Prop42
 90
       50
102
RTVSPost2010PropOp42
 70
     1
102
RTVSPost2010Prop43
 90
        3
102
RTVSPost2010PropOp43
 70
     1
102
RTVSPost2010Prop44ColorIndex
 90
        5
102
RTVSPost2010Prop44ColorRGB
 90
      255
102
RTVSPost2010PropOp44
 70
     1
102
RTVSPost2010Prop45
280
     0
102
RTVSPost2010PropOp45
 70
     1
102
RTVSPost2010Prop46
 90
       50
102
RTVSPost2010PropOp46
 70
     1
102
RTVSPost2010Prop47
 90
       50
102
RTVSPost2010PropOp47
 70
     1
102
RTVSPost2010Prop48
 90
       50
102
RTVSPost2010PropOp48
 70
     1
102
RTVSPost2010Prop49
280
     0
102
RTVSPost2010PropOp49
 70
     1
102
RTVSPost2010Prop50
 90
       50
102
RTVSPost2010PropOp50
 70
     1
102
RTVSPost2010Prop51ColorIndex
 90
      256
102
RTVSPost2010Prop51ColorRGB
 90
-16777216
102
RTVSPost2010PropOp51
 70
     0
102
RTVSPost2010Prop52
140
1.0
102
RTVSPost2010PropOp52
 70
     0
102
RTVSPost2010Prop53
 90
        2
102
RTVSPost2010PropOp53
 70
     1
102
RTVSPost2010Prop54
  1
strokes_ogs.tif
102
RTVSPost2010PropOp54
 70
     1
102
RTVSPost2010Prop55
280
     0
102
RTVSPost2010PropOp55
 70
     1
102
RTVSPost2010Prop56
140
1.0
102
RTVSPost2010PropOp56
 70
     1
102
RTVSPost2010Prop57
140
1.0
102
RTVSPost2010PropOp57
 70
     1
102
RTVSPropertyOp0
 70
     1
102
RTVSPropertyOp1
 70
     1
102
RTVSPropertyOp2
 70
     1
102
RTVSPropertyOp3
 70
     1
102
RTVSPropertyOp4
 70
     1
102
RTVSPropertyOp5
 70
     1
102
RTVSPropertyOp6
 70
     1
102
RTVSPropertyOp7
 70
     1
102
RTVSPropertyOp8
 70
     1
102
RTVSPropertyOp9
 70
     1
102
RTVSPropertyOp10
 70
     1
102
RTVSPropertyOp11
 70
     1
102
RTVSPropertyOp12
 70
     1
102
RTVSPropertyOp13
 70
     1
102
RTVSPropertyOp14
 70
     1
102
RTVSPropertyOp15
 70
     1
102
RTVSPropertyOp16
 70
     1
102
RTVSPropertyOp17
 70
     1
102
RTVSPropertyOp18
 70
     1
102
RTVSPropertyOp19
 70
     1
102
RTVSPropertyOp20
 70
     1
102
RTVSPropertyOp21
 70
     1
102
RTVSPropertyOp22
 70
     1
102
RTVSPropertyOp23
 70
     1
102
RTVSPropertyOp24
 70
     1
102
RTVSPropertyOp25
 70
     1
102
RTVSPropertyOp26
 70
     1
102
RTVSPropertyOp27
 70
     1
102
RTVSPropertyOp28
 70
     1
102
RTVSPropertyOp29
 70
     1
102
RTVSPropertyOp30
 70
     1
102
RTVSPropertyOp31
 70
     1
102
RTVSPropertyOp32
 70
     1
102
RTVSPropertyOp33
 70
     1
102
RTVSPropertyOp34
 70
     1
102
RTVSPropertyOp35
 70
     1
102
RTVSPropertyOp36
 70
     1
102
RTVSPropertyOp37
 70
     1
102
RTVSPropertyOp38
 70
     1
102
RTVSPropertyOp39
 70
     1
102
RTVSPropertyOp40
 70
     1
102
RTVSPropertyOp41
 70
     1
102
RTVSPropertyOp42
 70
     1
102
RTVSPropertyOp43
 70
     1
102
RTVSPropertyOp44
 70
     1
102
RTVSPropertyOp45
 70
     1
102
RTVSPropertyOp46
 70
     1
102
RTVSPropertyOp47
 70
     1
102
RTVSPropertyOp48
 70
     1
102
RTVSPropertyOp49
 70
     1
102
RTVSPropertyOp50
 70
     1
102
RTVSPropertyOp51
 70
     0
102
RTVSPropertyOp52
 70
     0
102
RTVSPropertyOp53
 70
     1
102
RTVSPropertyOp54
 70
     1
102
RTVSPropertyOp55
 70
     1
102
RTVSPropertyOp56
 70
     1
102
RTVSPropertyOp57
 70
     1
102
RTVSPropertyOp58
 70
     1
102
RTVSPropertyOp59
 70
     1
102
RTVSPropertyOp60
 70
     1
102
RTVSPropertyOp61
 70
     1
102
RTVSPropertyOp62
 70
     1
  0
XRECORD
  5
22E1
102
{ACAD_REACTORS
330
22E0
102
}
330
22E0
100
AcDbXrecord
280
     1
102
RTVSPost2010Prop28
280
     0
102
RTVSPost2010PropOp28
 70
     1
102
RTVSPost2010Prop29
280
     1
102
RTVSPost2010PropOp29
 70
     1
102
RTVSPost2010Prop30
280
     1
102
RTVSPost2010PropOp30
 70
     1
102
RTVSPost2010Prop31
280
     0
102
RTVSPost2010PropOp31
 70
     1
102
RTVSPost2010Prop32
280
     0
102
RTVSPost2010PropOp32
 70
     1
102
RTVSPost2010Prop33
280
     0
102
RTVSPost2010PropOp33
 70
     1
102
RTVSPost2010Prop34
280
     0
102
RTVSPost2010PropOp34
 70
     1
102
RTVSPost2010Prop35
280
     0
102
RTVSPost2010PropOp35
 70
     1
102
RTVSPost2010Prop36
280
     0
102
RTVSPost2010PropOp36
 70
     1
102
RTVSPost2010Prop37
 90
       50
102
RTVSPost2010PropOp37
 70
     1
102
RTVSPost2010Prop38
140
0.0
102
RTVSPost2010PropOp38
 70
     1
102
RTVSPost2010Prop39
140
1.0
102
RTVSPost2010PropOp39
 70
     1
102
RTVSPost2010Prop40
 90
        0
102
RTVSPost2010PropOp40
 70
     1
102
RTVSPost2010Prop41ColorIndex
 90
       18
102
RTVSPost2010Prop41ColorRGB
 90
        0
102
RTVSPost2010PropOp41
 70
     1
102
RTVSPost2010Prop42
 90
       50
102
RTVSPost2010PropOp42
 70
     1
102
RTVSPost2010Prop43
 90
        3
102
RTVSPost2010PropOp43
 70
     1
102
RTVSPost2010Prop44ColorIndex
 90
        5
102
RTVSPost2010Prop44ColorRGB
 90
      255
102
RTVSPost2010PropOp44
 70
     1
102
RTVSPost2010Prop45
280
     0
102
RTVSPost2010PropOp45
 70
     1
102
RTVSPost2010Prop46
 90
       50
102
RTVSPost2010PropOp46
 70
     1
102
RTVSPost2010Prop47
 90
       50
102
RTVSPost2010PropOp47
 70
     1
102
RTVSPost2010Prop48
 90
       50
102
RTVSPost2010PropOp48
 70
     1
102
RTVSPost2010Prop49
280
     0
102
RTVSPost2010PropOp49
 70
     1
102
RTVSPost2010Prop50
 90
       50
102
RTVSPost2010PropOp50
 70
     1
102
RTVSPost2010Prop51ColorIndex
 90
      256
102
RTVSPost2010Prop51ColorRGB
 90
-16777216
102
RTVSPost2010PropOp51
 70
     0
102
RTVSPost2010Prop52
140
1.0
102
RTVSPost2010PropOp52
 70
     0
102
RTVSPost2010Prop53
 90
        2
102
RTVSPost2010PropOp53
 70
     1
102
RTVSPost2010Prop54
  1
strokes_ogs.tif
102
RTVSPost2010PropOp54
 70
     1
102
RTVSPost2010Prop55
280
     0
102
RTVSPost2010PropOp55
 70
     1
102
RTVSPost2010Prop56
140
1.0
102
RTVSPost2010PropOp56
 70
     1
102
RTVSPost2010Prop57
140
1.0
102
RTVSPost2010PropOp57
 70
     1
102
RTVSPropertyOp0
 70
     1
102
RTVSPropertyOp1
 70
     1
102
RTVSPropertyOp2
 70
     1
102
RTVSPropertyOp3
 70
     1
102
RTVSPropertyOp4
 70
     1
102
RTVSPropertyOp5
 70
     1
102
RTVSPropertyOp6
 70
     1
102
RTVSPropertyOp7
 70
     1
102
RTVSPropertyOp8
 70
     1
102
RTVSPropertyOp9
 70
     1
102
RTVSPropertyOp10
 70
     1
102
RTVSPropertyOp11
 70
     1
102
RTVSPropertyOp12
 70
     1
102
RTVSPropertyOp13
 70
     1
102
RTVSPropertyOp14
 70
     1
102
RTVSPropertyOp15
 70
     1
102
RTVSPropertyOp16
 70
     1
102
RTVSPropertyOp17
 70
     1
102
RTVSPropertyOp18
 70
     1
102
RTVSPropertyOp19
 70
     1
102
RTVSPropertyOp20
 70
     1
102
RTVSPropertyOp21
 70
     1
102
RTVSPropertyOp22
 70
     1
102
RTVSPropertyOp23
 70
     1
102
RTVSPropertyOp24
 70
     1
102
RTVSPropertyOp25
 70
     1
102
RTVSPropertyOp26
 70
     1
102
RTVSPropertyOp27
 70
     1
102
RTVSPropertyOp28
 70
     1
102
RTVSPropertyOp29
 70
     1
102
RTVSPropertyOp30
 70
     1
102
RTVSPropertyOp31
 70
     1
102
RTVSPropertyOp32
 70
     1
102
RTVSPropertyOp33
 70
     1
102
RTVSPropertyOp34
 70
     1
102
RTVSPropertyOp35
 70
     1
102
RTVSPropertyOp36
 70
     1
102
RTVSPropertyOp37
 70
     1
102
RTVSPropertyOp38
 70
     1
102
RTVSPropertyOp39
 70
     1
102
RTVSPropertyOp40
 70
     1
102
RTVSPropertyOp41
 70
     1
102
RTVSPropertyOp42
 70
     1
102
RTVSPropertyOp43
 70
     1
102
RTVSPropertyOp44
 70
     1
102
RTVSPropertyOp45
 70
     1
102
RTVSPropertyOp46
 70
     1
102
RTVSPropertyOp47
 70
     1
102
RTVSPropertyOp48
 70
     1
102
RTVSPropertyOp49
 70
     1
102
RTVSPropertyOp50
 70
     1
102
RTVSPropertyOp51
 70
     0
102
RTVSPropertyOp52
 70
     0
102
RTVSPropertyOp53
 70
     1
102
RTVSPropertyOp54
 70
     1
102
RTVSPropertyOp55
 70
     1
102
RTVSPropertyOp56
 70
     1
102
RTVSPropertyOp57
 70
     1
102
RTVSPropertyOp58
 70
     1
102
RTVSPropertyOp59
 70
     1
102
RTVSPropertyOp60
 70
     1
102
RTVSPropertyOp61
 70
     1
102
RTVSPropertyOp62
 70
     1
  0
XRECORD
  5
22E3
102
{ACAD_REACTORS
330
22E2
102
}
330
22E2
100
AcDbXrecord
280
     1
102
RTVSPost2010Prop28
280
     0
102
RTVSPost2010PropOp28
 70
     1
102
RTVSPost2010Prop29
280
     1
102
RTVSPost2010PropOp29
 70
     1
102
RTVSPost2010Prop30
280
     1
102
RTVSPost2010PropOp30
 70
     1
102
RTVSPost2010Prop31
280
     0
102
RTVSPost2010PropOp31
 70
     1
102
RTVSPost2010Prop32
280
     0
102
RTVSPost2010PropOp32
 70
     1
102
RTVSPost2010Prop33
280
     0
102
RTVSPost2010PropOp33
 70
     1
102
RTVSPost2010Prop34
280
     0
102
RTVSPost2010PropOp34
 70
     1
102
RTVSPost2010Prop35
280
     0
102
RTVSPost2010PropOp35
 70
     1
102
RTVSPost2010Prop36
280
     0
102
RTVSPost2010PropOp36
 70
     1
102
RTVSPost2010Prop37
 90
       50
102
RTVSPost2010PropOp37
 70
     1
102
RTVSPost2010Prop38
140
0.0
102
RTVSPost2010PropOp38
 70
     1
102
RTVSPost2010Prop39
140
1.0
102
RTVSPost2010PropOp39
 70
     1
102
RTVSPost2010Prop40
 90
        0
102
RTVSPost2010PropOp40
 70
     1
102
RTVSPost2010Prop41ColorIndex
 90
       18
102
RTVSPost2010Prop41ColorRGB
 90
        0
102
RTVSPost2010PropOp41
 70
     1
102
RTVSPost2010Prop42
 90
       50
102
RTVSPost2010PropOp42
 70
     1
102
RTVSPost2010Prop43
 90
        3
102
RTVSPost2010PropOp43
 70
     1
102
RTVSPost2010Prop44ColorIndex
 90
        5
102
RTVSPost2010Prop44ColorRGB
 90
      255
102
RTVSPost2010PropOp44
 70
     1
102
RTVSPost2010Prop45
280
     0
102
RTVSPost2010PropOp45
 70
     1
102
RTVSPost2010Prop46
 90
       50
102
RTVSPost2010PropOp46
 70
     1
102
RTVSPost2010Prop47
 90
       50
102
RTVSPost2010PropOp47
 70
     1
102
RTVSPost2010Prop48
 90
       50
102
RTVSPost2010PropOp48
 70
     1
102
RTVSPost2010Prop49
280
     0
102
RTVSPost2010PropOp49
 70
     1
102
RTVSPost2010Prop50
 90
       50
102
RTVSPost2010PropOp50
 70
     1
102
RTVSPost2010Prop51ColorIndex
 90
      256
102
RTVSPost2010Prop51ColorRGB
 90
-16777216
102
RTVSPost2010PropOp51
 70
     0
102
RTVSPost2010Prop52
140
1.0
102
RTVSPost2010PropOp52
 70
     0
102
RTVSPost2010Prop53
 90
        2
102
RTVSPost2010PropOp53
 70
     1
102
RTVSPost2010Prop54
  1
strokes_ogs.tif
102
RTVSPost2010PropOp54
 70
     1
102
RTVSPost2010Prop55
280
     0
102
RTVSPost2010PropOp55
 70
     1
102
RTVSPost2010Prop56
140
1.0
102
RTVSPost2010PropOp56
 70
     1
102
RTVSPost2010Prop57
140
1.0
102
RTVSPost2010PropOp57
 70
     1
102
RTVSPropertyOp0
 70
     1
102
RTVSPropertyOp1
 70
     1
102
RTVSPropertyOp2
 70
     1
102
RTVSPropertyOp3
 70
     1
102
RTVSPropertyOp4
 70
     1
102
RTVSPropertyOp5
 70
     1
102
RTVSPropertyOp6
 70
     1
102
RTVSPropertyOp7
 70
     1
102
RTVSPropertyOp8
 70
     1
102
RTVSPropertyOp9
 70
     1
102
RTVSPropertyOp10
 70
     1
102
RTVSPropertyOp11
 70
     1
102
RTVSPropertyOp12
 70
     1
102
RTVSPropertyOp13
 70
     1
102
RTVSPropertyOp14
 70
     1
102
RTVSPropertyOp15
 70
     1
102
RTVSPropertyOp16
 70
     1
102
RTVSPropertyOp17
 70
     1
102
RTVSPropertyOp18
 70
     1
102
RTVSPropertyOp19
 70
     1
102
RTVSPropertyOp20
 70
     1
102
RTVSPropertyOp21
 70
     1
102
RTVSPropertyOp22
 70
     1
102
RTVSPropertyOp23
 70
     1
102
RTVSPropertyOp24
 70
     1
102
RTVSPropertyOp25
 70
     1
102
RTVSPropertyOp26
 70
     1
102
RTVSPropertyOp27
 70
     1
102
RTVSPropertyOp28
 70
     1
102
RTVSPropertyOp29
 70
     1
102
RTVSPropertyOp30
 70
     1
102
RTVSPropertyOp31
 70
     1
102
RTVSPropertyOp32
 70
     1
102
RTVSPropertyOp33
 70
     1
102
RTVSPropertyOp34
 70
     1
102
RTVSPropertyOp35
 70
     1
102
RTVSPropertyOp36
 70
     1
102
RTVSPropertyOp37
 70
     1
102
RTVSPropertyOp38
 70
     1
102
RTVSPropertyOp39
 70
     1
102
RTVSPropertyOp40
 70
     1
102
RTVSPropertyOp41
 70
     1
102
RTVSPropertyOp42
 70
     1
102
RTVSPropertyOp43
 70
     1
102
RTVSPropertyOp44
 70
     1
102
RTVSPropertyOp45
 70
     1
102
RTVSPropertyOp46
 70
     1
102
RTVSPropertyOp47
 70
     1
102
RTVSPropertyOp48
 70
     1
102
RTVSPropertyOp49
 70
     1
102
RTVSPropertyOp50
 70
     1
102
RTVSPropertyOp51
 70
     0
102
RTVSPropertyOp52
 70
     0
102
RTVSPropertyOp53
 70
     1
102
RTVSPropertyOp54
 70
     1
102
RTVSPropertyOp55
 70
     1
102
RTVSPropertyOp56
 70
     1
102
RTVSPropertyOp57
 70
     1
102
RTVSPropertyOp58
 70
     1
102
RTVSPropertyOp59
 70
     1
102
RTVSPropertyOp60
 70
     1
102
RTVSPropertyOp61
 70
     1
102
RTVSPropertyOp62
 70
     1
  0
XRECORD
  5
22E5
102
{ACAD_REACTORS
330
22E4
102
}
330
22E4
100
AcDbXrecord
280
     1
102
RTVSPost2010Prop28
280
     0
102
RTVSPost2010PropOp28
 70
     1
102
RTVSPost2010Prop29
280
     1
102
RTVSPost2010PropOp29
 70
     1
102
RTVSPost2010Prop30
280
     1
102
RTVSPost2010PropOp30
 70
     1
102
RTVSPost2010Prop31
280
     0
102
RTVSPost2010PropOp31
 70
     1
102
RTVSPost2010Prop32
280
     0
102
RTVSPost2010PropOp32
 70
     1
102
RTVSPost2010Prop33
280
     0
102
RTVSPost2010PropOp33
 70
     1
102
RTVSPost2010Prop34
280
     0
102
RTVSPost2010PropOp34
 70
     1
102
RTVSPost2010Prop35
280
     0
102
RTVSPost2010PropOp35
 70
     1
102
RTVSPost2010Prop36
280
     0
102
RTVSPost2010PropOp36
 70
     1
102
RTVSPost2010Prop37
 90
       50
102
RTVSPost2010PropOp37
 70
     1
102
RTVSPost2010Prop38
140
0.0
102
RTVSPost2010PropOp38
 70
     1
102
RTVSPost2010Prop39
140
1.0
102
RTVSPost2010PropOp39
 70
     1
102
RTVSPost2010Prop40
 90
        0
102
RTVSPost2010PropOp40
 70
     1
102
RTVSPost2010Prop41ColorIndex
 90
       18
102
RTVSPost2010Prop41ColorRGB
 90
        0
102
RTVSPost2010PropOp41
 70
     1
102
RTVSPost2010Prop42
 90
       50
102
RTVSPost2010PropOp42
 70
     1
102
RTVSPost2010Prop43
 90
        3
102
RTVSPost2010PropOp43
 70
     1
102
RTVSPost2010Prop44ColorIndex
 90
        5
102
RTVSPost2010Prop44ColorRGB
 90
      255
102
RTVSPost2010PropOp44
 70
     1
102
RTVSPost2010Prop45
280
     0
102
RTVSPost2010PropOp45
 70
     1
102
RTVSPost2010Prop46
 90
       50
102
RTVSPost2010PropOp46
 70
     1
102
RTVSPost2010Prop47
 90
       50
102
RTVSPost2010PropOp47
 70
     1
102
RTVSPost2010Prop48
 90
       50
102
RTVSPost2010PropOp48
 70
     1
102
RTVSPost2010Prop49
280
     0
102
RTVSPost2010PropOp49
 70
     1
102
RTVSPost2010Prop50
 90
       50
102
RTVSPost2010PropOp50
 70
     1
102
RTVSPost2010Prop51ColorIndex
 90
      256
102
RTVSPost2010Prop51ColorRGB
 90
-16777216
102
RTVSPost2010PropOp51
 70
     0
102
RTVSPost2010Prop52
140
1.0
102
RTVSPost2010PropOp52
 70
     0
102
RTVSPost2010Prop53
 90
        2
102
RTVSPost2010PropOp53
 70
     1
102
RTVSPost2010Prop54
  1
strokes_ogs.tif
102
RTVSPost2010PropOp54
 70
     1
102
RTVSPost2010Prop55
280
     0
102
RTVSPost2010PropOp55
 70
     1
102
RTVSPost2010Prop56
140
1.0
102
RTVSPost2010PropOp56
 70
     1
102
RTVSPost2010Prop57
140
1.0
102
RTVSPost2010PropOp57
 70
     1
102
RTVSPropertyOp0
 70
     1
102
RTVSPropertyOp1
 70
     1
102
RTVSPropertyOp2
 70
     1
102
RTVSPropertyOp3
 70
     1
102
RTVSPropertyOp4
 70
     1
102
RTVSPropertyOp5
 70
     1
102
RTVSPropertyOp6
 70
     1
102
RTVSPropertyOp7
 70
     1
102
RTVSPropertyOp8
 70
     1
102
RTVSPropertyOp9
 70
     1
102
RTVSPropertyOp10
 70
     1
102
RTVSPropertyOp11
 70
     1
102
RTVSPropertyOp12
 70
     1
102
RTVSPropertyOp13
 70
     1
102
RTVSPropertyOp14
 70
     1
102
RTVSPropertyOp15
 70
     1
102
RTVSPropertyOp16
 70
     1
102
RTVSPropertyOp17
 70
     1
102
RTVSPropertyOp18
 70
     1
102
RTVSPropertyOp19
 70
     1
102
RTVSPropertyOp20
 70
     1
102
RTVSPropertyOp21
 70
     1
102
RTVSPropertyOp22
 70
     1
102
RTVSPropertyOp23
 70
     1
102
RTVSPropertyOp24
 70
     1
102
RTVSPropertyOp25
 70
     1
102
RTVSPropertyOp26
 70
     1
102
RTVSPropertyOp27
 70
     1
102
RTVSPropertyOp28
 70
     1
102
RTVSPropertyOp29
 70
     1
102
RTVSPropertyOp30
 70
     1
102
RTVSPropertyOp31
 70
     1
102
RTVSPropertyOp32
 70
     1
102
RTVSPropertyOp33
 70
     1
102
RTVSPropertyOp34
 70
     1
102
RTVSPropertyOp35
 70
     1
102
RTVSPropertyOp36
 70
     1
102
RTVSPropertyOp37
 70
     1
102
RTVSPropertyOp38
 70
     1
102
RTVSPropertyOp39
 70
     1
102
RTVSPropertyOp40
 70
     1
102
RTVSPropertyOp41
 70
     1
102
RTVSPropertyOp42
 70
     1
102
RTVSPropertyOp43
 70
     1
102
RTVSPropertyOp44
 70
     1
102
RTVSPropertyOp45
 70
     1
102
RTVSPropertyOp46
 70
     1
102
RTVSPropertyOp47
 70
     1
102
RTVSPropertyOp48
 70
     1
102
RTVSPropertyOp49
 70
     1
102
RTVSPropertyOp50
 70
     1
102
RTVSPropertyOp51
 70
     0
102
RTVSPropertyOp52
 70
     0
102
RTVSPropertyOp53
 70
     1
102
RTVSPropertyOp54
 70
     1
102
RTVSPropertyOp55
 70
     1
102
RTVSPropertyOp56
 70
     1
102
RTVSPropertyOp57
 70
     1
102
RTVSPropertyOp58
 70
     1
102
RTVSPropertyOp59
 70
     1
102
RTVSPropertyOp60
 70
     1
102
RTVSPropertyOp61
 70
     1
102
RTVSPropertyOp62
 70
     1
  0
XRECORD
  5
22E7
102
{ACAD_REACTORS
330
22E6
102
}
330
22E6
100
AcDbXrecord
280
     1
102
RTVSPost2010Prop28
280
     0
102
RTVSPost2010PropOp28
 70
     1
102
RTVSPost2010Prop29
280
     1
102
RTVSPost2010PropOp29
 70
     1
102
RTVSPost2010Prop30
280
     1
102
RTVSPost2010PropOp30
 70
     1
102
RTVSPost2010Prop31
280
     0
102
RTVSPost2010PropOp31
 70
     1
102
RTVSPost2010Prop32
280
     0
102
RTVSPost2010PropOp32
 70
     1
102
RTVSPost2010Prop33
280
     0
102
RTVSPost2010PropOp33
 70
     1
102
RTVSPost2010Prop34
280
     0
102
RTVSPost2010PropOp34
 70
     1
102
RTVSPost2010Prop35
280
     0
102
RTVSPost2010PropOp35
 70
     1
102
RTVSPost2010Prop36
280
     0
102
RTVSPost2010PropOp36
 70
     1
102
RTVSPost2010Prop37
 90
       50
102
RTVSPost2010PropOp37
 70
     1
102
RTVSPost2010Prop38
140
0.0
102
RTVSPost2010PropOp38
 70
     1
102
RTVSPost2010Prop39
140
1.0
102
RTVSPost2010PropOp39
 70
     1
102
RTVSPost2010Prop40
 90
        0
102
RTVSPost2010PropOp40
 70
     1
102
RTVSPost2010Prop41ColorIndex
 90
       18
102
RTVSPost2010Prop41ColorRGB
 90
        0
102
RTVSPost2010PropOp41
 70
     1
102
RTVSPost2010Prop42
 90
       50
102
RTVSPost2010PropOp42
 70
     1
102
RTVSPost2010Prop43
 90
        3
102
RTVSPost2010PropOp43
 70
     1
102
RTVSPost2010Prop44ColorIndex
 90
        5
102
RTVSPost2010Prop44ColorRGB
 90
      255
102
RTVSPost2010PropOp44
 70
     1
102
RTVSPost2010Prop45
280
     0
102
RTVSPost2010PropOp45
 70
     1
102
RTVSPost2010Prop46
 90
       50
102
RTVSPost2010PropOp46
 70
     1
102
RTVSPost2010Prop47
 90
       50
102
RTVSPost2010PropOp47
 70
     1
102
RTVSPost2010Prop48
 90
       50
102
RTVSPost2010PropOp48
 70
     1
102
RTVSPost2010Prop49
280
     0
102
RTVSPost2010PropOp49
 70
     1
102
RTVSPost2010Prop50
 90
       50
102
RTVSPost2010PropOp50
 70
     1
102
RTVSPost2010Prop51ColorIndex
 90
      256
102
RTVSPost2010Prop51ColorRGB
 90
-16777216
102
RTVSPost2010PropOp51
 70
     0
102
RTVSPost2010Prop52
140
1.0
102
RTVSPost2010PropOp52
 70
     0
102
RTVSPost2010Prop53
 90
        2
102
RTVSPost2010PropOp53
 70
     1
102
RTVSPost2010Prop54
  1
strokes_ogs.tif
102
RTVSPost2010PropOp54
 70
     1
102
RTVSPost2010Prop55
280
     0
102
RTVSPost2010PropOp55
 70
     1
102
RTVSPost2010Prop56
140
1.0
102
RTVSPost2010PropOp56
 70
     1
102
RTVSPost2010Prop57
140
1.0
102
RTVSPost2010PropOp57
 70
     1
102
RTVSPropertyOp0
 70
     1
102
RTVSPropertyOp1
 70
     1
102
RTVSPropertyOp2
 70
     1
102
RTVSPropertyOp3
 70
     1
102
RTVSPropertyOp4
 70
     1
102
RTVSPropertyOp5
 70
     1
102
RTVSPropertyOp6
 70
     1
102
RTVSPropertyOp7
 70
     1
102
RTVSPropertyOp8
 70
     1
102
RTVSPropertyOp9
 70
     1
102
RTVSPropertyOp10
 70
     1
102
RTVSPropertyOp11
 70
     1
102
RTVSPropertyOp12
 70
     1
102
RTVSPropertyOp13
 70
     1
102
RTVSPropertyOp14
 70
     1
102
RTVSPropertyOp15
 70
     1
102
RTVSPropertyOp16
 70
     1
102
RTVSPropertyOp17
 70
     1
102
RTVSPropertyOp18
 70
     1
102
RTVSPropertyOp19
 70
     1
102
RTVSPropertyOp20
 70
     1
102
RTVSPropertyOp21
 70
     1
102
RTVSPropertyOp22
 70
     1
102
RTVSPropertyOp23
 70
     1
102
RTVSPropertyOp24
 70
     1
102
RTVSPropertyOp25
 70
     1
102
RTVSPropertyOp26
 70
     1
102
RTVSPropertyOp27
 70
     1
102
RTVSPropertyOp28
 70
     1
102
RTVSPropertyOp29
 70
     1
102
RTVSPropertyOp30
 70
     1
102
RTVSPropertyOp31
 70
     1
102
RTVSPropertyOp32
 70
     1
102
RTVSPropertyOp33
 70
     1
102
RTVSPropertyOp34
 70
     1
102
RTVSPropertyOp35
 70
     1
102
RTVSPropertyOp36
 70
     1
102
RTVSPropertyOp37
 70
     1
102
RTVSPropertyOp38
 70
     1
102
RTVSPropertyOp39
 70
     1
102
RTVSPropertyOp40
 70
     1
102
RTVSPropertyOp41
 70
     1
102
RTVSPropertyOp42
 70
     1
102
RTVSPropertyOp43
 70
     1
102
RTVSPropertyOp44
 70
     1
102
RTVSPropertyOp45
 70
     1
102
RTVSPropertyOp46
 70
     1
102
RTVSPropertyOp47
 70
     1
102
RTVSPropertyOp48
 70
     1
102
RTVSPropertyOp49
 70
     1
102
RTVSPropertyOp50
 70
     1
102
RTVSPropertyOp51
 70
     0
102
RTVSPropertyOp52
 70
     0
102
RTVSPropertyOp53
 70
     1
102
RTVSPropertyOp54
 70
     1
102
RTVSPropertyOp55
 70
     1
102
RTVSPropertyOp56
 70
     1
102
RTVSPropertyOp57
 70
     1
102
RTVSPropertyOp58
 70
     1
102
RTVSPropertyOp59
 70
     1
102
RTVSPropertyOp60
 70
     1
102
RTVSPropertyOp61
 70
     1
102
RTVSPropertyOp62
 70
     1
  0
XRECORD
  5
22EF
102
{ACAD_REACTORS
330
22EE
102
}
330
22EE
100
AcDbXrecord
280
     1
102
RTVSPost2010Prop28
280
     0
102
RTVSPost2010PropOp28
 70
     1
102
RTVSPost2010Prop29
280
     1
102
RTVSPost2010PropOp29
 70
     1
102
RTVSPost2010Prop30
280
     1
102
RTVSPost2010PropOp30
 70
     1
102
RTVSPost2010Prop31
280
     0
102
RTVSPost2010PropOp31
 70
     1
102
RTVSPost2010Prop32
280
     0
102
RTVSPost2010PropOp32
 70
     1
102
RTVSPost2010Prop33
280
     0
102
RTVSPost2010PropOp33
 70
     1
102
RTVSPost2010Prop34
280
     0
102
RTVSPost2010PropOp34
 70
     1
102
RTVSPost2010Prop35
280
     0
102
RTVSPost2010PropOp35
 70
     1
102
RTVSPost2010Prop36
280
     0
102
RTVSPost2010PropOp36
 70
     1
102
RTVSPost2010Prop37
 90
       50
102
RTVSPost2010PropOp37
 70
     1
102
RTVSPost2010Prop38
140
0.0
102
RTVSPost2010PropOp38
 70
     1
102
RTVSPost2010Prop39
140
1.0
102
RTVSPost2010PropOp39
 70
     1
102
RTVSPost2010Prop40
 90
        0
102
RTVSPost2010PropOp40
 70
     1
102
RTVSPost2010Prop41ColorIndex
 90
       18
102
RTVSPost2010Prop41ColorRGB
 90
        0
102
RTVSPost2010PropOp41
 70
     1
102
RTVSPost2010Prop42
 90
       50
102
RTVSPost2010PropOp42
 70
     1
102
RTVSPost2010Prop43
 90
        3
102
RTVSPost2010PropOp43
 70
     1
102
RTVSPost2010Prop44ColorIndex
 90
        5
102
RTVSPost2010Prop44ColorRGB
 90
      255
102
RTVSPost2010PropOp44
 70
     1
102
RTVSPost2010Prop45
280
     0
102
RTVSPost2010PropOp45
 70
     1
102
RTVSPost2010Prop46
 90
       50
102
RTVSPost2010PropOp46
 70
     1
102
RTVSPost2010Prop47
 90
       50
102
RTVSPost2010PropOp47
 70
     1
102
RTVSPost2010Prop48
 90
       50
102
RTVSPost2010PropOp48
 70
     1
102
RTVSPost2010Prop49
280
     0
102
RTVSPost2010PropOp49
 70
     1
102
RTVSPost2010Prop50
 90
       50
102
RTVSPost2010PropOp50
 70
     1
102
RTVSPost2010Prop51ColorIndex
 90
      256
102
RTVSPost2010Prop51ColorRGB
 90
-16777216
102
RTVSPost2010PropOp51
 70
     0
102
RTVSPost2010Prop52
140
1.0
102
RTVSPost2010PropOp52
 70
     0
102
RTVSPost2010Prop53
 90
        2
102
RTVSPost2010PropOp53
 70
     1
102
RTVSPost2010Prop54
  1
strokes_ogs.tif
102
RTVSPost2010PropOp54
 70
     1
102
RTVSPost2010Prop55
280
     0
102
RTVSPost2010PropOp55
 70
     1
102
RTVSPost2010Prop56
140
1.0
102
RTVSPost2010PropOp56
 70
     1
102
RTVSPost2010Prop57
140
1.0
102
RTVSPost2010PropOp57
 70
     1
102
RTVSPropertyOp0
 70
     1
102
RTVSPropertyOp1
 70
     1
102
RTVSPropertyOp2
 70
     1
102
RTVSPropertyOp3
 70
     1
102
RTVSPropertyOp4
 70
     1
102
RTVSPropertyOp5
 70
     1
102
RTVSPropertyOp6
 70
     1
102
RTVSPropertyOp7
 70
     1
102
RTVSPropertyOp8
 70
     1
102
RTVSPropertyOp9
 70
     1
102
RTVSPropertyOp10
 70
     1
102
RTVSPropertyOp11
 70
     1
102
RTVSPropertyOp12
 70
     1
102
RTVSPropertyOp13
 70
     1
102
RTVSPropertyOp14
 70
     1
102
RTVSPropertyOp15
 70
     1
102
RTVSPropertyOp16
 70
     1
102
RTVSPropertyOp17
 70
     1
102
RTVSPropertyOp18
 70
     1
102
RTVSPropertyOp19
 70
     1
102
RTVSPropertyOp20
 70
     1
102
RTVSPropertyOp21
 70
     1
102
RTVSPropertyOp22
 70
     1
102
RTVSPropertyOp23
 70
     1
102
RTVSPropertyOp24
 70
     1
102
RTVSPropertyOp25
 70
     1
102
RTVSPropertyOp26
 70
     1
102
RTVSPropertyOp27
 70
     1
102
RTVSPropertyOp28
 70
     1
102
RTVSPropertyOp29
 70
     1
102
RTVSPropertyOp30
 70
     1
102
RTVSPropertyOp31
 70
     1
102
RTVSPropertyOp32
 70
     1
102
RTVSPropertyOp33
 70
     1
102
RTVSPropertyOp34
 70
     1
102
RTVSPropertyOp35
 70
     1
102
RTVSPropertyOp36
 70
     1
102
RTVSPropertyOp37
 70
     1
102
RTVSPropertyOp38
 70
     1
102
RTVSPropertyOp39
 70
     1
102
RTVSPropertyOp40
 70
     1
102
RTVSPropertyOp41
 70
     1
102
RTVSPropertyOp42
 70
     1
102
RTVSPropertyOp43
 70
     1
102
RTVSPropertyOp44
 70
     1
102
RTVSPropertyOp45
 70
     1
102
RTVSPropertyOp46
 70
     1
102
RTVSPropertyOp47
 70
     1
102
RTVSPropertyOp48
 70
     1
102
RTVSPropertyOp49
 70
     1
102
RTVSPropertyOp50
 70
     1
102
RTVSPropertyOp51
 70
     0
102
RTVSPropertyOp52
 70
     0
102
RTVSPropertyOp53
 70
     1
102
RTVSPropertyOp54
 70
     1
102
RTVSPropertyOp55
 70
     1
102
RTVSPropertyOp56
 70
     1
102
RTVSPropertyOp57
 70
     1
102
RTVSPropertyOp58
 70
     1
102
RTVSPropertyOp59
 70
     1
102
RTVSPropertyOp60
 70
     1
102
RTVSPropertyOp61
 70
     1
102
RTVSPropertyOp62
 70
     1
  0
XRECORD
  5
230B
102
{ACAD_REACTORS
330
230A
102
}
330
230A
100
AcDbXrecord
280
     1
102
RTVSPost2010Prop28
280
     0
102
RTVSPost2010PropOp28
 70
     1
102
RTVSPost2010Prop29
280
     1
102
RTVSPost2010PropOp29
 70
     1
102
RTVSPost2010Prop30
280
     1
102
RTVSPost2010PropOp30
 70
     1
102
RTVSPost2010Prop31
280
     0
102
RTVSPost2010PropOp31
 70
     1
102
RTVSPost2010Prop32
280
     0
102
RTVSPost2010PropOp32
 70
     1
102
RTVSPost2010Prop33
280
     0
102
RTVSPost2010PropOp33
 70
     1
102
RTVSPost2010Prop34
280
     0
102
RTVSPost2010PropOp34
 70
     1
102
RTVSPost2010Prop35
280
     0
102
RTVSPost2010PropOp35
 70
     1
102
RTVSPost2010Prop36
280
     0
102
RTVSPost2010PropOp36
 70
     1
102
RTVSPost2010Prop37
 90
       50
102
RTVSPost2010PropOp37
 70
     0
102
RTVSPost2010Prop38
140
0.0
102
RTVSPost2010PropOp38
 70
     0
102
RTVSPost2010Prop39
140
1.0
102
RTVSPost2010PropOp39
 70
     0
102
RTVSPost2010Prop40
 90
        0
102
RTVSPost2010PropOp40
 70
     0
102
RTVSPost2010Prop41ColorIndex
 90
       18
102
RTVSPost2010Prop41ColorRGB
 90
        0
102
RTVSPost2010PropOp41
 70
     0
102
RTVSPost2010Prop42
 90
       50
102
RTVSPost2010PropOp42
 70
     0
102
RTVSPost2010Prop43
 90
        3
102
RTVSPost2010PropOp43
 70
     0
102
RTVSPost2010Prop44ColorIndex
 90
        5
102
RTVSPost2010Prop44ColorRGB
 90
      255
102
RTVSPost2010PropOp44
 70
     0
102
RTVSPost2010Prop45
280
     0
102
RTVSPost2010PropOp45
 70
     1
102
RTVSPost2010Prop46
 90
       50
102
RTVSPost2010PropOp46
 70
     0
102
RTVSPost2010Prop47
 90
       50
102
RTVSPost2010PropOp47
 70
     0
102
RTVSPost2010Prop48
 90
       50
102
RTVSPost2010PropOp48
 70
     0
102
RTVSPost2010Prop49
280
     0
102
RTVSPost2010PropOp49
 70
     1
102
RTVSPost2010Prop50
 90
       50
102
RTVSPost2010PropOp50
 70
     0
102
RTVSPost2010Prop51ColorIndex
 90
      256
102
RTVSPost2010Prop51ColorRGB
 90
-16777216
102
RTVSPost2010PropOp51
 70
     0
102
RTVSPost2010Prop52
140
1.0
102
RTVSPost2010PropOp52
 70
     0
102
RTVSPost2010Prop53
 90
        2
102
RTVSPost2010PropOp53
 70
     0
102
RTVSPost2010Prop54
  1
strokes_ogs.tif
102
RTVSPost2010PropOp54
 70
     0
102
RTVSPost2010Prop55
280
     0
102
RTVSPost2010PropOp55
 70
     1
102
RTVSPost2010Prop56
140
1.0
102
RTVSPost2010PropOp56
 70
     0
102
RTVSPost2010Prop57
140
1.0
102
RTVSPost2010PropOp57
 70
     0
102
RTVSPropertyOp0
 70
     0
102
RTVSPropertyOp1
 70
     0
102
RTVSPropertyOp2
 70
     0
102
RTVSPropertyOp3
 70
     0
102
RTVSPropertyOp4
 70
     0
102
RTVSPropertyOp5
 70
     0
102
RTVSPropertyOp6
 70
     0
102
RTVSPropertyOp7
 70
     0
102
RTVSPropertyOp8
 70
     0
102
RTVSPropertyOp9
 70
     0
102
RTVSPropertyOp10
 70
     0
102
RTVSPropertyOp11
 70
     0
102
RTVSPropertyOp12
 70
     0
102
RTVSPropertyOp13
 70
     0
102
RTVSPropertyOp14
 70
     2
102
RTVSPropertyOp15
 70
     0
102
RTVSPropertyOp16
 70
     0
102
RTVSPropertyOp17
 70
     0
102
RTVSPropertyOp18
 70
     0
102
RTVSPropertyOp19
 70
     0
102
RTVSPropertyOp20
 70
     0
102
RTVSPropertyOp21
 70
     0
102
RTVSPropertyOp22
 70
     0
102
RTVSPropertyOp23
 70
     0
102
RTVSPropertyOp24
 70
     0
102
RTVSPropertyOp25
 70
     0
102
RTVSPropertyOp26
 70
     0
102
RTVSPropertyOp27
 70
     0
102
RTVSPropertyOp28
 70
     1
102
RTVSPropertyOp29
 70
     1
102
RTVSPropertyOp30
 70
     1
102
RTVSPropertyOp31
 70
     1
102
RTVSPropertyOp32
 70
     1
102
RTVSPropertyOp33
 70
     1
102
RTVSPropertyOp34
 70
     1
102
RTVSPropertyOp35
 70
     1
102
RTVSPropertyOp36
 70
     1
102
RTVSPropertyOp37
 70
     0
102
RTVSPropertyOp38
 70
     0
102
RTVSPropertyOp39
 70
     0
102
RTVSPropertyOp40
 70
     0
102
RTVSPropertyOp41
 70
     0
102
RTVSPropertyOp42
 70
     0
102
RTVSPropertyOp43
 70
     0
102
RTVSPropertyOp44
 70
     0
102
RTVSPropertyOp45
 70
     1
102
RTVSPropertyOp46
 70
     0
102
RTVSPropertyOp47
 70
     0
102
RTVSPropertyOp48
 70
     0
102
RTVSPropertyOp49
 70
     1
102
RTVSPropertyOp50
 70
     0
102
RTVSPropertyOp51
 70
     0
102
RTVSPropertyOp52
 70
     0
102
RTVSPropertyOp53
 70
     0
102
RTVSPropertyOp54
 70
     0
102
RTVSPropertyOp55
 70
     1
102
RTVSPropertyOp56
 70
     0
102
RTVSPropertyOp57
 70
     0
102
RTVSPropertyOp58
 70
     0
102
RTVSPropertyOp59
 70
     0
102
RTVSPropertyOp60
 70
     0
102
RTVSPropertyOp61
 70
     0
102
RTVSPropertyOp62
 70
     0
  0
XRECORD
  5
22FB
102
{ACAD_REACTORS
330
22FA
102
}
330
22FA
100
AcDbXrecord
280
     1
102
RTVSPost2010Prop28
280
     0
102
RTVSPost2010PropOp28
 70
     1
102
RTVSPost2010Prop29
280
     1
102
RTVSPost2010PropOp29
 70
     1
102
RTVSPost2010Prop30
280
     1
102
RTVSPost2010PropOp30
 70
     1
102
RTVSPost2010Prop31
280
     0
102
RTVSPost2010PropOp31
 70
     1
102
RTVSPost2010Prop32
280
     0
102
RTVSPost2010PropOp32
 70
     1
102
RTVSPost2010Prop33
280
     0
102
RTVSPost2010PropOp33
 70
     1
102
RTVSPost2010Prop34
280
     0
102
RTVSPost2010PropOp34
 70
     1
102
RTVSPost2010Prop35
280
     0
102
RTVSPost2010PropOp35
 70
     1
102
RTVSPost2010Prop36
280
     0
102
RTVSPost2010PropOp36
 70
     1
102
RTVSPost2010Prop37
 90
       50
102
RTVSPost2010PropOp37
 70
     1
102
RTVSPost2010Prop38
140
0.0
102
RTVSPost2010PropOp38
 70
     1
102
RTVSPost2010Prop39
140
1.0
102
RTVSPost2010PropOp39
 70
     1
102
RTVSPost2010Prop40
 90
        0
102
RTVSPost2010PropOp40
 70
     1
102
RTVSPost2010Prop41ColorIndex
 90
       18
102
RTVSPost2010Prop41ColorRGB
 90
        0
102
RTVSPost2010PropOp41
 70
     1
102
RTVSPost2010Prop42
 90
       50
102
RTVSPost2010PropOp42
 70
     1
102
RTVSPost2010Prop43
 90
        3
102
RTVSPost2010PropOp43
 70
     1
102
RTVSPost2010Prop44ColorIndex
 90
        5
102
RTVSPost2010Prop44ColorRGB
 90
      255
102
RTVSPost2010PropOp44
 70
     1
102
RTVSPost2010Prop45
280
     0
102
RTVSPost2010PropOp45
 70
     1
102
RTVSPost2010Prop46
 90
       50
102
RTVSPost2010PropOp46
 70
     1
102
RTVSPost2010Prop47
 90
       50
102
RTVSPost2010PropOp47
 70
     1
102
RTVSPost2010Prop48
 90
       50
102
RTVSPost2010PropOp48
 70
     1
102
RTVSPost2010Prop49
280
     0
102
RTVSPost2010PropOp49
 70
     1
102
RTVSPost2010Prop50
 90
       50
102
RTVSPost2010PropOp50
 70
     1
102
RTVSPost2010Prop51ColorIndex
 90
      256
102
RTVSPost2010Prop51ColorRGB
 90
-16777216
102
RTVSPost2010PropOp51
 70
     0
102
RTVSPost2010Prop52
140
1.0
102
RTVSPost2010PropOp52
 70
     0
102
RTVSPost2010Prop53
 90
        2
102
RTVSPost2010PropOp53
 70
     1
102
RTVSPost2010Prop54
  1
strokes_ogs.tif
102
RTVSPost2010PropOp54
 70
     1
102
RTVSPost2010Prop55
280
     0
102
RTVSPost2010PropOp55
 70
     1
102
RTVSPost2010Prop56
140
1.0
102
RTVSPost2010PropOp56
 70
     1
102
RTVSPost2010Prop57
140
1.0
102
RTVSPost2010PropOp57
 70
     1
102
RTVSPropertyOp0
 70
     1
102
RTVSPropertyOp1
 70
     1
102
RTVSPropertyOp2
 70
     1
102
RTVSPropertyOp3
 70
     1
102
RTVSPropertyOp4
 70
     1
102
RTVSPropertyOp5
 70
     1
102
RTVSPropertyOp6
 70
     1
102
RTVSPropertyOp7
 70
     1
102
RTVSPropertyOp8
 70
     1
102
RTVSPropertyOp9
 70
     1
102
RTVSPropertyOp10
 70
     1
102
RTVSPropertyOp11
 70
     1
102
RTVSPropertyOp12
 70
     1
102
RTVSPropertyOp13
 70
     1
102
RTVSPropertyOp14
 70
     1
102
RTVSPropertyOp15
 70
     1
102
RTVSPropertyOp16
 70
     1
102
RTVSPropertyOp17
 70
     1
102
RTVSPropertyOp18
 70
     1
102
RTVSPropertyOp19
 70
     1
102
RTVSPropertyOp20
 70
     1
102
RTVSPropertyOp21
 70
     1
102
RTVSPropertyOp22
 70
     1
102
RTVSPropertyOp23
 70
     1
102
RTVSPropertyOp24
 70
     1
102
RTVSPropertyOp25
 70
     1
102
RTVSPropertyOp26
 70
     1
102
RTVSPropertyOp27
 70
     1
102
RTVSPropertyOp28
 70
     1
102
RTVSPropertyOp29
 70
     1
102
RTVSPropertyOp30
 70
     1
102
RTVSPropertyOp31
 70
     1
102
RTVSPropertyOp32
 70
     1
102
RTVSPropertyOp33
 70
     1
102
RTVSPropertyOp34
 70
     1
102
RTVSPropertyOp35
 70
     1
102
RTVSPropertyOp36
 70
     1
102
RTVSPropertyOp37
 70
     1
102
RTVSPropertyOp38
 70
     1
102
RTVSPropertyOp39
 70
     1
102
RTVSPropertyOp40
 70
     1
102
RTVSPropertyOp41
 70
     1
102
RTVSPropertyOp42
 70
     1
102
RTVSPropertyOp43
 70
     1
102
RTVSPropertyOp44
 70
     1
102
RTVSPropertyOp45
 70
     1
102
RTVSPropertyOp46
 70
     1
102
RTVSPropertyOp47
 70
     1
102
RTVSPropertyOp48
 70
     1
102
RTVSPropertyOp49
 70
     1
102
RTVSPropertyOp50
 70
     1
102
RTVSPropertyOp51
 70
     0
102
RTVSPropertyOp52
 70
     0
102
RTVSPropertyOp53
 70
     1
102
RTVSPropertyOp54
 70
     1
102
RTVSPropertyOp55
 70
     1
102
RTVSPropertyOp56
 70
     1
102
RTVSPropertyOp57
 70
     1
102
RTVSPropertyOp58
 70
     1
102
RTVSPropertyOp59
 70
     1
102
RTVSPropertyOp60
 70
     1
102
RTVSPropertyOp61
 70
     1
102
RTVSPropertyOp62
 70
     1
  0
XRECORD
  5
230D
102
{ACAD_REACTORS
330
230C
102
}
330
230C
100
AcDbXrecord
280
     1
102
RTVSPost2010Prop28
280
     0
102
RTVSPost2010PropOp28
 70
     1
102
RTVSPost2010Prop29
280
     1
102
RTVSPost2010PropOp29
 70
     1
102
RTVSPost2010Prop30
280
     1
102
RTVSPost2010PropOp30
 70
     1
102
RTVSPost2010Prop31
280
     0
102
RTVSPost2010PropOp31
 70
     1
102
RTVSPost2010Prop32
280
     0
102
RTVSPost2010PropOp32
 70
     1
102
RTVSPost2010Prop33
280
     0
102
RTVSPost2010PropOp33
 70
     1
102
RTVSPost2010Prop34
280
     0
102
RTVSPost2010PropOp34
 70
     1
102
RTVSPost2010Prop35
280
     0
102
RTVSPost2010PropOp35
 70
     1
102
RTVSPost2010Prop36
280
     0
102
RTVSPost2010PropOp36
 70
     1
102
RTVSPost2010Prop37
 90
       50
102
RTVSPost2010PropOp37
 70
     0
102
RTVSPost2010Prop38
140
0.0
102
RTVSPost2010PropOp38
 70
     0
102
RTVSPost2010Prop39
140
1.0
102
RTVSPost2010PropOp39
 70
     0
102
RTVSPost2010Prop40
 90
        0
102
RTVSPost2010PropOp40
 70
     0
102
RTVSPost2010Prop41ColorIndex
 90
       18
102
RTVSPost2010Prop41ColorRGB
 90
        0
102
RTVSPost2010PropOp41
 70
     0
102
RTVSPost2010Prop42
 90
       50
102
RTVSPost2010PropOp42
 70
     0
102
RTVSPost2010Prop43
 90
        3
102
RTVSPost2010PropOp43
 70
     0
102
RTVSPost2010Prop44ColorIndex
 90
        5
102
RTVSPost2010Prop44ColorRGB
 90
      255
102
RTVSPost2010PropOp44
 70
     0
102
RTVSPost2010Prop45
280
     0
102
RTVSPost2010PropOp45
 70
     1
102
RTVSPost2010Prop46
 90
       50
102
RTVSPost2010PropOp46
 70
     0
102
RTVSPost2010Prop47
 90
       50
102
RTVSPost2010PropOp47
 70
     0
102
RTVSPost2010Prop48
 90
       50
102
RTVSPost2010PropOp48
 70
     0
102
RTVSPost2010Prop49
280
     0
102
RTVSPost2010PropOp49
 70
     1
102
RTVSPost2010Prop50
 90
       50
102
RTVSPost2010PropOp50
 70
     0
102
RTVSPost2010Prop51ColorIndex
 90
      256
102
RTVSPost2010Prop51ColorRGB
 90
-16777216
102
RTVSPost2010PropOp51
 70
     0
102
RTVSPost2010Prop52
140
1.0
102
RTVSPost2010PropOp52
 70
     0
102
RTVSPost2010Prop53
 90
        2
102
RTVSPost2010PropOp53
 70
     0
102
RTVSPost2010Prop54
  1
strokes_ogs.tif
102
RTVSPost2010PropOp54
 70
     0
102
RTVSPost2010Prop55
280
     0
102
RTVSPost2010PropOp55
 70
     1
102
RTVSPost2010Prop56
140
1.0
102
RTVSPost2010PropOp56
 70
     0
102
RTVSPost2010Prop57
140
1.0
102
RTVSPost2010PropOp57
 70
     0
102
RTVSPropertyOp0
 70
     0
102
RTVSPropertyOp1
 70
     0
102
RTVSPropertyOp2
 70
     0
102
RTVSPropertyOp3
 70
     0
102
RTVSPropertyOp4
 70
     0
102
RTVSPropertyOp5
 70
     0
102
RTVSPropertyOp6
 70
     0
102
RTVSPropertyOp7
 70
     0
102
RTVSPropertyOp8
 70
     0
102
RTVSPropertyOp9
 70
     0
102
RTVSPropertyOp10
 70
     0
102
RTVSPropertyOp11
 70
     0
102
RTVSPropertyOp12
 70
     0
102
RTVSPropertyOp13
 70
     0
102
RTVSPropertyOp14
 70
     2
102
RTVSPropertyOp15
 70
     0
102
RTVSPropertyOp16
 70
     0
102
RTVSPropertyOp17
 70
     0
102
RTVSPropertyOp18
 70
     0
102
RTVSPropertyOp19
 70
     0
102
RTVSPropertyOp20
 70
     0
102
RTVSPropertyOp21
 70
     0
102
RTVSPropertyOp22
 70
     0
102
RTVSPropertyOp23
 70
     0
102
RTVSPropertyOp24
 70
     0
102
RTVSPropertyOp25
 70
     0
102
RTVSPropertyOp26
 70
     0
102
RTVSPropertyOp27
 70
     0
102
RTVSPropertyOp28
 70
     1
102
RTVSPropertyOp29
 70
     1
102
RTVSPropertyOp30
 70
     1
102
RTVSPropertyOp31
 70
     1
102
RTVSPropertyOp32
 70
     1
102
RTVSPropertyOp33
 70
     1
102
RTVSPropertyOp34
 70
     1
102
RTVSPropertyOp35
 70
     1
102
RTVSPropertyOp36
 70
     1
102
RTVSPropertyOp37
 70
     0
102
RTVSPropertyOp38
 70
     0
102
RTVSPropertyOp39
 70
     0
102
RTVSPropertyOp40
 70
     0
102
RTVSPropertyOp41
 70
     0
102
RTVSPropertyOp42
 70
     0
102
RTVSPropertyOp43
 70
     0
102
RTVSPropertyOp44
 70
     0
102
RTVSPropertyOp45
 70
     1
102
RTVSPropertyOp46
 70
     0
102
RTVSPropertyOp47
 70
     0
102
RTVSPropertyOp48
 70
     0
102
RTVSPropertyOp49
 70
     1
102
RTVSPropertyOp50
 70
     0
102
RTVSPropertyOp51
 70
     0
102
RTVSPropertyOp52
 70
     0
102
RTVSPropertyOp53
 70
     0
102
RTVSPropertyOp54
 70
     0
102
RTVSPropertyOp55
 70
     1
102
RTVSPropertyOp56
 70
     0
102
RTVSPropertyOp57
 70
     0
102
RTVSPropertyOp58
 70
     0
102
RTVSPropertyOp59
 70
     0
102
RTVSPropertyOp60
 70
     0
102
RTVSPropertyOp61
 70
     0
102
RTVSPropertyOp62
 70
     0
  0
XRECORD
  5
22F3
102
{ACAD_REACTORS
330
22F2
102
}
330
22F2
100
AcDbXrecord
280
     1
102
RTVSPost2010Prop28
280
     0
102
RTVSPost2010PropOp28
 70
     1
102
RTVSPost2010Prop29
280
     1
102
RTVSPost2010PropOp29
 70
     1
102
RTVSPost2010Prop30
280
     1
102
RTVSPost2010PropOp30
 70
     1
102
RTVSPost2010Prop31
280
     0
102
RTVSPost2010PropOp31
 70
     1
102
RTVSPost2010Prop32
280
     0
102
RTVSPost2010PropOp32
 70
     1
102
RTVSPost2010Prop33
280
     0
102
RTVSPost2010PropOp33
 70
     1
102
RTVSPost2010Prop34
280
     0
102
RTVSPost2010PropOp34
 70
     1
102
RTVSPost2010Prop35
280
     0
102
RTVSPost2010PropOp35
 70
     1
102
RTVSPost2010Prop36
280
     0
102
RTVSPost2010PropOp36
 70
     1
102
RTVSPost2010Prop37
 90
       50
102
RTVSPost2010PropOp37
 70
     1
102
RTVSPost2010Prop38
140
0.0
102
RTVSPost2010PropOp38
 70
     1
102
RTVSPost2010Prop39
140
1.0
102
RTVSPost2010PropOp39
 70
     1
102
RTVSPost2010Prop40
 90
        0
102
RTVSPost2010PropOp40
 70
     1
102
RTVSPost2010Prop41ColorIndex
 90
       18
102
RTVSPost2010Prop41ColorRGB
 90
        0
102
RTVSPost2010PropOp41
 70
     1
102
RTVSPost2010Prop42
 90
       50
102
RTVSPost2010PropOp42
 70
     1
102
RTVSPost2010Prop43
 90
        3
102
RTVSPost2010PropOp43
 70
     1
102
RTVSPost2010Prop44ColorIndex
 90
        5
102
RTVSPost2010Prop44ColorRGB
 90
      255
102
RTVSPost2010PropOp44
 70
     1
102
RTVSPost2010Prop45
280
     0
102
RTVSPost2010PropOp45
 70
     1
102
RTVSPost2010Prop46
 90
       50
102
RTVSPost2010PropOp46
 70
     1
102
RTVSPost2010Prop47
 90
       50
102
RTVSPost2010PropOp47
 70
     1
102
RTVSPost2010Prop48
 90
       50
102
RTVSPost2010PropOp48
 70
     1
102
RTVSPost2010Prop49
280
     0
102
RTVSPost2010PropOp49
 70
     1
102
RTVSPost2010Prop50
 90
       50
102
RTVSPost2010PropOp50
 70
     1
102
RTVSPost2010Prop51ColorIndex
 90
      256
102
RTVSPost2010Prop51ColorRGB
 90
-16777216
102
RTVSPost2010PropOp51
 70
     0
102
RTVSPost2010Prop52
140
1.0
102
RTVSPost2010PropOp52
 70
     0
102
RTVSPost2010Prop53
 90
        2
102
RTVSPost2010PropOp53
 70
     1
102
RTVSPost2010Prop54
  1
strokes_ogs.tif
102
RTVSPost2010PropOp54
 70
     1
102
RTVSPost2010Prop55
280
     0
102
RTVSPost2010PropOp55
 70
     1
102
RTVSPost2010Prop56
140
1.0
102
RTVSPost2010PropOp56
 70
     1
102
RTVSPost2010Prop57
140
1.0
102
RTVSPost2010PropOp57
 70
     1
102
RTVSPropertyOp0
 70
     1
102
RTVSPropertyOp1
 70
     1
102
RTVSPropertyOp2
 70
     1
102
RTVSPropertyOp3
 70
     1
102
RTVSPropertyOp4
 70
     1
102
RTVSPropertyOp5
 70
     1
102
RTVSPropertyOp6
 70
     1
102
RTVSPropertyOp7
 70
     1
102
RTVSPropertyOp8
 70
     1
102
RTVSPropertyOp9
 70
     1
102
RTVSPropertyOp10
 70
     1
102
RTVSPropertyOp11
 70
     1
102
RTVSPropertyOp12
 70
     1
102
RTVSPropertyOp13
 70
     1
102
RTVSPropertyOp14
 70
     1
102
RTVSPropertyOp15
 70
     1
102
RTVSPropertyOp16
 70
     1
102
RTVSPropertyOp17
 70
     1
102
RTVSPropertyOp18
 70
     1
102
RTVSPropertyOp19
 70
     1
102
RTVSPropertyOp20
 70
     1
102
RTVSPropertyOp21
 70
     1
102
RTVSPropertyOp22
 70
     1
102
RTVSPropertyOp23
 70
     1
102
RTVSPropertyOp24
 70
     1
102
RTVSPropertyOp25
 70
     1
102
RTVSPropertyOp26
 70
     1
102
RTVSPropertyOp27
 70
     1
102
RTVSPropertyOp28
 70
     1
102
RTVSPropertyOp29
 70
     1
102
RTVSPropertyOp30
 70
     1
102
RTVSPropertyOp31
 70
     1
102
RTVSPropertyOp32
 70
     1
102
RTVSPropertyOp33
 70
     1
102
RTVSPropertyOp34
 70
     1
102
RTVSPropertyOp35
 70
     1
102
RTVSPropertyOp36
 70
     1
102
RTVSPropertyOp37
 70
     1
102
RTVSPropertyOp38
 70
     1
102
RTVSPropertyOp39
 70
     1
102
RTVSPropertyOp40
 70
     1
102
RTVSPropertyOp41
 70
     1
102
RTVSPropertyOp42
 70
     1
102
RTVSPropertyOp43
 70
     1
102
RTVSPropertyOp44
 70
     1
102
RTVSPropertyOp45
 70
     1
102
RTVSPropertyOp46
 70
     1
102
RTVSPropertyOp47
 70
     1
102
RTVSPropertyOp48
 70
     1
102
RTVSPropertyOp49
 70
     1
102
RTVSPropertyOp50
 70
     1
102
RTVSPropertyOp51
 70
     0
102
RTVSPropertyOp52
 70
     0
102
RTVSPropertyOp53
 70
     1
102
RTVSPropertyOp54
 70
     1
102
RTVSPropertyOp55
 70
     1
102
RTVSPropertyOp56
 70
     1
102
RTVSPropertyOp57
 70
     1
102
RTVSPropertyOp58
 70
     1
102
RTVSPropertyOp59
 70
     1
102
RTVSPropertyOp60
 70
     1
102
RTVSPropertyOp61
 70
     1
102
RTVSPropertyOp62
 70
     1
  0
XRECORD
  5
2309
102
{ACAD_REACTORS
330
2308
102
}
330
2308
100
AcDbXrecord
280
     1
102
RTVSPost2010Prop28
280
     0
102
RTVSPost2010PropOp28
 70
     1
102
RTVSPost2010Prop29
280
     1
102
RTVSPost2010PropOp29
 70
     1
102
RTVSPost2010Prop30
280
     1
102
RTVSPost2010PropOp30
 70
     1
102
RTVSPost2010Prop31
280
     0
102
RTVSPost2010PropOp31
 70
     1
102
RTVSPost2010Prop32
280
     0
102
RTVSPost2010PropOp32
 70
     1
102
RTVSPost2010Prop33
280
     0
102
RTVSPost2010PropOp33
 70
     1
102
RTVSPost2010Prop34
280
     0
102
RTVSPost2010PropOp34
 70
     1
102
RTVSPost2010Prop35
280
     0
102
RTVSPost2010PropOp35
 70
     1
102
RTVSPost2010Prop36
280
     0
102
RTVSPost2010PropOp36
 70
     1
102
RTVSPost2010Prop37
 90
       50
102
RTVSPost2010PropOp37
 70
     1
102
RTVSPost2010Prop38
140
0.0
102
RTVSPost2010PropOp38
 70
     1
102
RTVSPost2010Prop39
140
1.0
102
RTVSPost2010PropOp39
 70
     1
102
RTVSPost2010Prop40
 90
        0
102
RTVSPost2010PropOp40
 70
     1
102
RTVSPost2010Prop41ColorIndex
 90
       18
102
RTVSPost2010Prop41ColorRGB
 90
        0
102
RTVSPost2010PropOp41
 70
     1
102
RTVSPost2010Prop42
 90
       50
102
RTVSPost2010PropOp42
 70
     1
102
RTVSPost2010Prop43
 90
        3
102
RTVSPost2010PropOp43
 70
     1
102
RTVSPost2010Prop44ColorIndex
 90
        5
102
RTVSPost2010Prop44ColorRGB
 90
      255
102
RTVSPost2010PropOp44
 70
     1
102
RTVSPost2010Prop45
280
     0
102
RTVSPost2010PropOp45
 70
     1
102
RTVSPost2010Prop46
 90
       50
102
RTVSPost2010PropOp46
 70
     1
102
RTVSPost2010Prop47
 90
       50
102
RTVSPost2010PropOp47
 70
     1
102
RTVSPost2010Prop48
 90
       50
102
RTVSPost2010PropOp48
 70
     1
102
RTVSPost2010Prop49
280
     0
102
RTVSPost2010PropOp49
 70
     1
102
RTVSPost2010Prop50
 90
       50
102
RTVSPost2010PropOp50
 70
     1
102
RTVSPost2010Prop51ColorIndex
 90
      256
102
RTVSPost2010Prop51ColorRGB
 90
-16777216
102
RTVSPost2010PropOp51
 70
     0
102
RTVSPost2010Prop52
140
1.0
102
RTVSPost2010PropOp52
 70
     0
102
RTVSPost2010Prop53
 90
        2
102
RTVSPost2010PropOp53
 70
     1
102
RTVSPost2010Prop54
  1
strokes_ogs.tif
102
RTVSPost2010PropOp54
 70
     1
102
RTVSPost2010Prop55
280
     0
102
RTVSPost2010PropOp55
 70
     1
102
RTVSPost2010Prop56
140
1.0
102
RTVSPost2010PropOp56
 70
     1
102
RTVSPost2010Prop57
140
1.0
102
RTVSPost2010PropOp57
 70
     1
102
RTVSPropertyOp0
 70
     1
102
RTVSPropertyOp1
 70
     1
102
RTVSPropertyOp2
 70
     1
102
RTVSPropertyOp3
 70
     1
102
RTVSPropertyOp4
 70
     1
102
RTVSPropertyOp5
 70
     1
102
RTVSPropertyOp6
 70
     1
102
RTVSPropertyOp7
 70
     1
102
RTVSPropertyOp8
 70
     1
102
RTVSPropertyOp9
 70
     1
102
RTVSPropertyOp10
 70
     1
102
RTVSPropertyOp11
 70
     1
102
RTVSPropertyOp12
 70
     1
102
RTVSPropertyOp13
 70
     1
102
RTVSPropertyOp14
 70
     1
102
RTVSPropertyOp15
 70
     1
102
RTVSPropertyOp16
 70
     1
102
RTVSPropertyOp17
 70
     1
102
RTVSPropertyOp18
 70
     1
102
RTVSPropertyOp19
 70
     1
102
RTVSPropertyOp20
 70
     1
102
RTVSPropertyOp21
 70
     1
102
RTVSPropertyOp22
 70
     1
102
RTVSPropertyOp23
 70
     1
102
RTVSPropertyOp24
 70
     1
102
RTVSPropertyOp25
 70
     1
102
RTVSPropertyOp26
 70
     1
102
RTVSPropertyOp27
 70
     1
102
RTVSPropertyOp28
 70
     1
102
RTVSPropertyOp29
 70
     1
102
RTVSPropertyOp30
 70
     1
102
RTVSPropertyOp31
 70
     1
102
RTVSPropertyOp32
 70
     1
102
RTVSPropertyOp33
 70
     1
102
RTVSPropertyOp34
 70
     1
102
RTVSPropertyOp35
 70
     1
102
RTVSPropertyOp36
 70
     1
102
RTVSPropertyOp37
 70
     1
102
RTVSPropertyOp38
 70
     1
102
RTVSPropertyOp39
 70
     1
102
RTVSPropertyOp40
 70
     1
102
RTVSPropertyOp41
 70
     1
102
RTVSPropertyOp42
 70
     1
102
RTVSPropertyOp43
 70
     1
102
RTVSPropertyOp44
 70
     1
102
RTVSPropertyOp45
 70
     1
102
RTVSPropertyOp46
 70
     1
102
RTVSPropertyOp47
 70
     1
102
RTVSPropertyOp48
 70
     1
102
RTVSPropertyOp49
 70
     1
102
RTVSPropertyOp50
 70
     1
102
RTVSPropertyOp51
 70
     0
102
RTVSPropertyOp52
 70
     0
102
RTVSPropertyOp53
 70
     1
102
RTVSPropertyOp54
 70
     1
102
RTVSPropertyOp55
 70
     1
102
RTVSPropertyOp56
 70
     1
102
RTVSPropertyOp57
 70
     1
102
RTVSPropertyOp58
 70
     1
102
RTVSPropertyOp59
 70
     1
102
RTVSPropertyOp60
 70
     1
102
RTVSPropertyOp61
 70
     1
102
RTVSPropertyOp62
 70
     1
  0
XRECORD
  5
2307
102
{ACAD_REACTORS
330
2306
102
}
330
2306
100
AcDbXrecord
280
     1
102
RTVSPost2010Prop28
280
     0
102
RTVSPost2010PropOp28
 70
     1
102
RTVSPost2010Prop29
280
     1
102
RTVSPost2010PropOp29
 70
     1
102
RTVSPost2010Prop30
280
     1
102
RTVSPost2010PropOp30
 70
     1
102
RTVSPost2010Prop31
280
     0
102
RTVSPost2010PropOp31
 70
     1
102
RTVSPost2010Prop32
280
     0
102
RTVSPost2010PropOp32
 70
     1
102
RTVSPost2010Prop33
280
     0
102
RTVSPost2010PropOp33
 70
     1
102
RTVSPost2010Prop34
280
     0
102
RTVSPost2010PropOp34
 70
     1
102
RTVSPost2010Prop35
280
     0
102
RTVSPost2010PropOp35
 70
     1
102
RTVSPost2010Prop36
280
     0
102
RTVSPost2010PropOp36
 70
     1
102
RTVSPost2010Prop37
 90
       50
102
RTVSPost2010PropOp37
 70
     1
102
RTVSPost2010Prop38
140
0.0
102
RTVSPost2010PropOp38
 70
     1
102
RTVSPost2010Prop39
140
1.0
102
RTVSPost2010PropOp39
 70
     1
102
RTVSPost2010Prop40
 90
        0
102
RTVSPost2010PropOp40
 70
     1
102
RTVSPost2010Prop41ColorIndex
 90
       18
102
RTVSPost2010Prop41ColorRGB
 90
        0
102
RTVSPost2010PropOp41
 70
     1
102
RTVSPost2010Prop42
 90
       50
102
RTVSPost2010PropOp42
 70
     1
102
RTVSPost2010Prop43
 90
        3
102
RTVSPost2010PropOp43
 70
     1
102
RTVSPost2010Prop44ColorIndex
 90
        5
102
RTVSPost2010Prop44ColorRGB
 90
      255
102
RTVSPost2010PropOp44
 70
     1
102
RTVSPost2010Prop45
280
     0
102
RTVSPost2010PropOp45
 70
     1
102
RTVSPost2010Prop46
 90
       50
102
RTVSPost2010PropOp46
 70
     1
102
RTVSPost2010Prop47
 90
       50
102
RTVSPost2010PropOp47
 70
     1
102
RTVSPost2010Prop48
 90
       50
102
RTVSPost2010PropOp48
 70
     1
102
RTVSPost2010Prop49
280
     0
102
RTVSPost2010PropOp49
 70
     1
102
RTVSPost2010Prop50
 90
       50
102
RTVSPost2010PropOp50
 70
     1
102
RTVSPost2010Prop51ColorIndex
 90
      256
102
RTVSPost2010Prop51ColorRGB
 90
-16777216
102
RTVSPost2010PropOp51
 70
     0
102
RTVSPost2010Prop52
140
1.0
102
RTVSPost2010PropOp52
 70
     0
102
RTVSPost2010Prop53
 90
        2
102
RTVSPost2010PropOp53
 70
     1
102
RTVSPost2010Prop54
  1
strokes_ogs.tif
102
RTVSPost2010PropOp54
 70
     1
102
RTVSPost2010Prop55
280
     0
102
RTVSPost2010PropOp55
 70
     1
102
RTVSPost2010Prop56
140
1.0
102
RTVSPost2010PropOp56
 70
     1
102
RTVSPost2010Prop57
140
1.0
102
RTVSPost2010PropOp57
 70
     1
102
RTVSPropertyOp0
 70
     1
102
RTVSPropertyOp1
 70
     1
102
RTVSPropertyOp2
 70
     1
102
RTVSPropertyOp3
 70
     1
102
RTVSPropertyOp4
 70
     1
102
RTVSPropertyOp5
 70
     1
102
RTVSPropertyOp6
 70
     1
102
RTVSPropertyOp7
 70
     1
102
RTVSPropertyOp8
 70
     1
102
RTVSPropertyOp9
 70
     1
102
RTVSPropertyOp10
 70
     1
102
RTVSPropertyOp11
 70
     1
102
RTVSPropertyOp12
 70
     1
102
RTVSPropertyOp13
 70
     1
102
RTVSPropertyOp14
 70
     1
102
RTVSPropertyOp15
 70
     1
102
RTVSPropertyOp16
 70
     1
102
RTVSPropertyOp17
 70
     1
102
RTVSPropertyOp18
 70
     1
102
RTVSPropertyOp19
 70
     1
102
RTVSPropertyOp20
 70
     1
102
RTVSPropertyOp21
 70
     1
102
RTVSPropertyOp22
 70
     1
102
RTVSPropertyOp23
 70
     1
102
RTVSPropertyOp24
 70
     1
102
RTVSPropertyOp25
 70
     1
102
RTVSPropertyOp26
 70
     1
102
RTVSPropertyOp27
 70
     1
102
RTVSPropertyOp28
 70
     1
102
RTVSPropertyOp29
 70
     1
102
RTVSPropertyOp30
 70
     1
102
RTVSPropertyOp31
 70
     1
102
RTVSPropertyOp32
 70
     1
102
RTVSPropertyOp33
 70
     1
102
RTVSPropertyOp34
 70
     1
102
RTVSPropertyOp35
 70
     1
102
RTVSPropertyOp36
 70
     1
102
RTVSPropertyOp37
 70
     1
102
RTVSPropertyOp38
 70
     1
102
RTVSPropertyOp39
 70
     1
102
RTVSPropertyOp40
 70
     1
102
RTVSPropertyOp41
 70
     1
102
RTVSPropertyOp42
 70
     1
102
RTVSPropertyOp43
 70
     1
102
RTVSPropertyOp44
 70
     1
102
RTVSPropertyOp45
 70
     1
102
RTVSPropertyOp46
 70
     1
102
RTVSPropertyOp47
 70
     1
102
RTVSPropertyOp48
 70
     1
102
RTVSPropertyOp49
 70
     1
102
RTVSPropertyOp50
 70
     1
102
RTVSPropertyOp51
 70
     0
102
RTVSPropertyOp52
 70
     0
102
RTVSPropertyOp53
 70
     1
102
RTVSPropertyOp54
 70
     1
102
RTVSPropertyOp55
 70
     1
102
RTVSPropertyOp56
 70
     1
102
RTVSPropertyOp57
 70
     1
102
RTVSPropertyOp58
 70
     1
102
RTVSPropertyOp59
 70
     1
102
RTVSPropertyOp60
 70
     1
102
RTVSPropertyOp61
 70
     1
102
RTVSPropertyOp62
 70
     1
  0
XRECORD
  5
2301
102
{ACAD_REACTORS
330
2300
102
}
330
2300
100
AcDbXrecord
280
     1
102
RTVSPost2010Prop28
280
     0
102
RTVSPost2010PropOp28
 70
     1
102
RTVSPost2010Prop29
280
     1
102
RTVSPost2010PropOp29
 70
     1
102
RTVSPost2010Prop30
280
     1
102
RTVSPost2010PropOp30
 70
     1
102
RTVSPost2010Prop31
280
     0
102
RTVSPost2010PropOp31
 70
     1
102
RTVSPost2010Prop32
280
     0
102
RTVSPost2010PropOp32
 70
     1
102
RTVSPost2010Prop33
280
     0
102
RTVSPost2010PropOp33
 70
     1
102
RTVSPost2010Prop34
280
     0
102
RTVSPost2010PropOp34
 70
     1
102
RTVSPost2010Prop35
280
     0
102
RTVSPost2010PropOp35
 70
     1
102
RTVSPost2010Prop36
280
     0
102
RTVSPost2010PropOp36
 70
     1
102
RTVSPost2010Prop37
 90
       50
102
RTVSPost2010PropOp37
 70
     1
102
RTVSPost2010Prop38
140
0.0
102
RTVSPost2010PropOp38
 70
     1
102
RTVSPost2010Prop39
140
1.0
102
RTVSPost2010PropOp39
 70
     1
102
RTVSPost2010Prop40
 90
        0
102
RTVSPost2010PropOp40
 70
     1
102
RTVSPost2010Prop41ColorIndex
 90
       18
102
RTVSPost2010Prop41ColorRGB
 90
        0
102
RTVSPost2010PropOp41
 70
     1
102
RTVSPost2010Prop42
 90
       50
102
RTVSPost2010PropOp42
 70
     1
102
RTVSPost2010Prop43
 90
        3
102
RTVSPost2010PropOp43
 70
     1
102
RTVSPost2010Prop44ColorIndex
 90
        5
102
RTVSPost2010Prop44ColorRGB
 90
      255
102
RTVSPost2010PropOp44
 70
     1
102
RTVSPost2010Prop45
280
     0
102
RTVSPost2010PropOp45
 70
     1
102
RTVSPost2010Prop46
 90
       50
102
RTVSPost2010PropOp46
 70
     1
102
RTVSPost2010Prop47
 90
       50
102
RTVSPost2010PropOp47
 70
     1
102
RTVSPost2010Prop48
 90
       50
102
RTVSPost2010PropOp48
 70
     1
102
RTVSPost2010Prop49
280
     0
102
RTVSPost2010PropOp49
 70
     1
102
RTVSPost2010Prop50
 90
       50
102
RTVSPost2010PropOp50
 70
     1
102
RTVSPost2010Prop51ColorIndex
 90
      256
102
RTVSPost2010Prop51ColorRGB
 90
-16777216
102
RTVSPost2010PropOp51
 70
     0
102
RTVSPost2010Prop52
140
1.0
102
RTVSPost2010PropOp52
 70
     0
102
RTVSPost2010Prop53
 90
        2
102
RTVSPost2010PropOp53
 70
     1
102
RTVSPost2010Prop54
  1
strokes_ogs.tif
102
RTVSPost2010PropOp54
 70
     1
102
RTVSPost2010Prop55
280
     0
102
RTVSPost2010PropOp55
 70
     1
102
RTVSPost2010Prop56
140
1.0
102
RTVSPost2010PropOp56
 70
     1
102
RTVSPost2010Prop57
140
1.0
102
RTVSPost2010PropOp57
 70
     1
102
RTVSPropertyOp0
 70
     1
102
RTVSPropertyOp1
 70
     1
102
RTVSPropertyOp2
 70
     1
102
RTVSPropertyOp3
 70
     1
102
RTVSPropertyOp4
 70
     1
102
RTVSPropertyOp5
 70
     1
102
RTVSPropertyOp6
 70
     1
102
RTVSPropertyOp7
 70
     1
102
RTVSPropertyOp8
 70
     1
102
RTVSPropertyOp9
 70
     1
102
RTVSPropertyOp10
 70
     1
102
RTVSPropertyOp11
 70
     1
102
RTVSPropertyOp12
 70
     1
102
RTVSPropertyOp13
 70
     1
102
RTVSPropertyOp14
 70
     1
102
RTVSPropertyOp15
 70
     1
102
RTVSPropertyOp16
 70
     1
102
RTVSPropertyOp17
 70
     1
102
RTVSPropertyOp18
 70
     1
102
RTVSPropertyOp19
 70
     1
102
RTVSPropertyOp20
 70
     1
102
RTVSPropertyOp21
 70
     1
102
RTVSPropertyOp22
 70
     1
102
RTVSPropertyOp23
 70
     1
102
RTVSPropertyOp24
 70
     1
102
RTVSPropertyOp25
 70
     1
102
RTVSPropertyOp26
 70
     1
102
RTVSPropertyOp27
 70
     1
102
RTVSPropertyOp28
 70
     1
102
RTVSPropertyOp29
 70
     1
102
RTVSPropertyOp30
 70
     1
102
RTVSPropertyOp31
 70
     1
102
RTVSPropertyOp32
 70
     1
102
RTVSPropertyOp33
 70
     1
102
RTVSPropertyOp34
 70
     1
102
RTVSPropertyOp35
 70
     1
102
RTVSPropertyOp36
 70
     1
102
RTVSPropertyOp37
 70
     1
102
RTVSPropertyOp38
 70
     1
102
RTVSPropertyOp39
 70
     1
102
RTVSPropertyOp40
 70
     1
102
RTVSPropertyOp41
 70
     1
102
RTVSPropertyOp42
 70
     1
102
RTVSPropertyOp43
 70
     1
102
RTVSPropertyOp44
 70
     1
102
RTVSPropertyOp45
 70
     1
102
RTVSPropertyOp46
 70
     1
102
RTVSPropertyOp47
 70
     1
102
RTVSPropertyOp48
 70
     1
102
RTVSPropertyOp49
 70
     1
102
RTVSPropertyOp50
 70
     1
102
RTVSPropertyOp51
 70
     0
102
RTVSPropertyOp52
 70
     0
102
RTVSPropertyOp53
 70
     1
102
RTVSPropertyOp54
 70
     1
102
RTVSPropertyOp55
 70
     1
102
RTVSPropertyOp56
 70
     1
102
RTVSPropertyOp57
 70
     1
102
RTVSPropertyOp58
 70
     1
102
RTVSPropertyOp59
 70
     1
102
RTVSPropertyOp60
 70
     1
102
RTVSPropertyOp61
 70
     1
102
RTVSPropertyOp62
 70
     1
  0
XRECORD
  5
2303
102
{ACAD_REACTORS
330
2302
102
}
330
2302
100
AcDbXrecord
280
     1
102
RTVSPost2010Prop28
280
     0
102
RTVSPost2010PropOp28
 70
     1
102
RTVSPost2010Prop29
280
     1
102
RTVSPost2010PropOp29
 70
     1
102
RTVSPost2010Prop30
280
     1
102
RTVSPost2010PropOp30
 70
     1
102
RTVSPost2010Prop31
280
     0
102
RTVSPost2010PropOp31
 70
     1
102
RTVSPost2010Prop32
280
     0
102
RTVSPost2010PropOp32
 70
     1
102
RTVSPost2010Prop33
280
     0
102
RTVSPost2010PropOp33
 70
     1
102
RTVSPost2010Prop34
280
     0
102
RTVSPost2010PropOp34
 70
     1
102
RTVSPost2010Prop35
280
     0
102
RTVSPost2010PropOp35
 70
     1
102
RTVSPost2010Prop36
280
     0
102
RTVSPost2010PropOp36
 70
     1
102
RTVSPost2010Prop37
 90
       50
102
RTVSPost2010PropOp37
 70
     1
102
RTVSPost2010Prop38
140
0.0
102
RTVSPost2010PropOp38
 70
     1
102
RTVSPost2010Prop39
140
1.0
102
RTVSPost2010PropOp39
 70
     1
102
RTVSPost2010Prop40
 90
        0
102
RTVSPost2010PropOp40
 70
     1
102
RTVSPost2010Prop41ColorIndex
 90
       18
102
RTVSPost2010Prop41ColorRGB
 90
        0
102
RTVSPost2010PropOp41
 70
     1
102
RTVSPost2010Prop42
 90
       50
102
RTVSPost2010PropOp42
 70
     1
102
RTVSPost2010Prop43
 90
        3
102
RTVSPost2010PropOp43
 70
     1
102
RTVSPost2010Prop44ColorIndex
 90
        5
102
RTVSPost2010Prop44ColorRGB
 90
      255
102
RTVSPost2010PropOp44
 70
     1
102
RTVSPost2010Prop45
280
     0
102
RTVSPost2010PropOp45
 70
     1
102
RTVSPost2010Prop46
 90
       50
102
RTVSPost2010PropOp46
 70
     1
102
RTVSPost2010Prop47
 90
       50
102
RTVSPost2010PropOp47
 70
     1
102
RTVSPost2010Prop48
 90
       50
102
RTVSPost2010PropOp48
 70
     1
102
RTVSPost2010Prop49
280
     0
102
RTVSPost2010PropOp49
 70
     1
102
RTVSPost2010Prop50
 90
       50
102
RTVSPost2010PropOp50
 70
     1
102
RTVSPost2010Prop51ColorIndex
 90
      256
102
RTVSPost2010Prop51ColorRGB
 90
-16777216
102
RTVSPost2010PropOp51
 70
     0
102
RTVSPost2010Prop52
140
1.0
102
RTVSPost2010PropOp52
 70
     0
102
RTVSPost2010Prop53
 90
        2
102
RTVSPost2010PropOp53
 70
     1
102
RTVSPost2010Prop54
  1
strokes_ogs.tif
102
RTVSPost2010PropOp54
 70
     1
102
RTVSPost2010Prop55
280
     0
102
RTVSPost2010PropOp55
 70
     1
102
RTVSPost2010Prop56
140
1.0
102
RTVSPost2010PropOp56
 70
     1
102
RTVSPost2010Prop57
140
1.0
102
RTVSPost2010PropOp57
 70
     1
102
RTVSPropertyOp0
 70
     1
102
RTVSPropertyOp1
 70
     1
102
RTVSPropertyOp2
 70
     1
102
RTVSPropertyOp3
 70
     1
102
RTVSPropertyOp4
 70
     1
102
RTVSPropertyOp5
 70
     1
102
RTVSPropertyOp6
 70
     1
102
RTVSPropertyOp7
 70
     1
102
RTVSPropertyOp8
 70
     1
102
RTVSPropertyOp9
 70
     1
102
RTVSPropertyOp10
 70
     1
102
RTVSPropertyOp11
 70
     1
102
RTVSPropertyOp12
 70
     1
102
RTVSPropertyOp13
 70
     1
102
RTVSPropertyOp14
 70
     1
102
RTVSPropertyOp15
 70
     1
102
RTVSPropertyOp16
 70
     1
102
RTVSPropertyOp17
 70
     1
102
RTVSPropertyOp18
 70
     1
102
RTVSPropertyOp19
 70
     1
102
RTVSPropertyOp20
 70
     1
102
RTVSPropertyOp21
 70
     1
102
RTVSPropertyOp22
 70
     1
102
RTVSPropertyOp23
 70
     1
102
RTVSPropertyOp24
 70
     1
102
RTVSPropertyOp25
 70
     1
102
RTVSPropertyOp26
 70
     1
102
RTVSPropertyOp27
 70
     1
102
RTVSPropertyOp28
 70
     1
102
RTVSPropertyOp29
 70
     1
102
RTVSPropertyOp30
 70
     1
102
RTVSPropertyOp31
 70
     1
102
RTVSPropertyOp32
 70
     1
102
RTVSPropertyOp33
 70
     1
102
RTVSPropertyOp34
 70
     1
102
RTVSPropertyOp35
 70
     1
102
RTVSPropertyOp36
 70
     1
102
RTVSPropertyOp37
 70
     1
102
RTVSPropertyOp38
 70
     1
102
RTVSPropertyOp39
 70
     1
102
RTVSPropertyOp40
 70
     1
102
RTVSPropertyOp41
 70
     1
102
RTVSPropertyOp42
 70
     1
102
RTVSPropertyOp43
 70
     1
102
RTVSPropertyOp44
 70
     1
102
RTVSPropertyOp45
 70
     1
102
RTVSPropertyOp46
 70
     1
102
RTVSPropertyOp47
 70
     1
102
RTVSPropertyOp48
 70
     1
102
RTVSPropertyOp49
 70
     1
102
RTVSPropertyOp50
 70
     1
102
RTVSPropertyOp51
 70
     0
102
RTVSPropertyOp52
 70
     0
102
RTVSPropertyOp53
 70
     1
102
RTVSPropertyOp54
 70
     1
102
RTVSPropertyOp55
 70
     1
102
RTVSPropertyOp56
 70
     1
102
RTVSPropertyOp57
 70
     1
102
RTVSPropertyOp58
 70
     1
102
RTVSPropertyOp59
 70
     1
102
RTVSPropertyOp60
 70
     1
102
RTVSPropertyOp61
 70
     1
102
RTVSPropertyOp62
 70
     1
  0
XRECORD
  5
22F9
102
{ACAD_REACTORS
330
22F8
102
}
330
22F8
100
AcDbXrecord
280
     1
102
RTVSPost2010Prop28
280
     0
102
RTVSPost2010PropOp28
 70
     1
102
RTVSPost2010Prop29
280
     1
102
RTVSPost2010PropOp29
 70
     1
102
RTVSPost2010Prop30
280
     1
102
RTVSPost2010PropOp30
 70
     1
102
RTVSPost2010Prop31
280
     0
102
RTVSPost2010PropOp31
 70
     1
102
RTVSPost2010Prop32
280
     0
102
RTVSPost2010PropOp32
 70
     1
102
RTVSPost2010Prop33
280
     0
102
RTVSPost2010PropOp33
 70
     1
102
RTVSPost2010Prop34
280
     0
102
RTVSPost2010PropOp34
 70
     1
102
RTVSPost2010Prop35
280
     0
102
RTVSPost2010PropOp35
 70
     1
102
RTVSPost2010Prop36
280
     0
102
RTVSPost2010PropOp36
 70
     1
102
RTVSPost2010Prop37
 90
       50
102
RTVSPost2010PropOp37
 70
     1
102
RTVSPost2010Prop38
140
0.0
102
RTVSPost2010PropOp38
 70
     1
102
RTVSPost2010Prop39
140
1.0
102
RTVSPost2010PropOp39
 70
     1
102
RTVSPost2010Prop40
 90
        0
102
RTVSPost2010PropOp40
 70
     1
102
RTVSPost2010Prop41ColorIndex
 90
       18
102
RTVSPost2010Prop41ColorRGB
 90
        0
102
RTVSPost2010PropOp41
 70
     1
102
RTVSPost2010Prop42
 90
       50
102
RTVSPost2010PropOp42
 70
     1
102
RTVSPost2010Prop43
 90
        3
102
RTVSPost2010PropOp43
 70
     1
102
RTVSPost2010Prop44ColorIndex
 90
        5
102
RTVSPost2010Prop44ColorRGB
 90
      255
102
RTVSPost2010PropOp44
 70
     1
102
RTVSPost2010Prop45
280
     0
102
RTVSPost2010PropOp45
 70
     1
102
RTVSPost2010Prop46
 90
       50
102
RTVSPost2010PropOp46
 70
     1
102
RTVSPost2010Prop47
 90
       50
102
RTVSPost2010PropOp47
 70
     1
102
RTVSPost2010Prop48
 90
       50
102
RTVSPost2010PropOp48
 70
     1
102
RTVSPost2010Prop49
280
     0
102
RTVSPost2010PropOp49
 70
     1
102
RTVSPost2010Prop50
 90
       50
102
RTVSPost2010PropOp50
 70
     1
102
RTVSPost2010Prop51ColorIndex
 90
      256
102
RTVSPost2010Prop51ColorRGB
 90
-16777216
102
RTVSPost2010PropOp51
 70
     0
102
RTVSPost2010Prop52
140
1.0
102
RTVSPost2010PropOp52
 70
     0
102
RTVSPost2010Prop53
 90
        2
102
RTVSPost2010PropOp53
 70
     1
102
RTVSPost2010Prop54
  1
strokes_ogs.tif
102
RTVSPost2010PropOp54
 70
     1
102
RTVSPost2010Prop55
280
     0
102
RTVSPost2010PropOp55
 70
     1
102
RTVSPost2010Prop56
140
1.0
102
RTVSPost2010PropOp56
 70
     1
102
RTVSPost2010Prop57
140
1.0
102
RTVSPost2010PropOp57
 70
     1
102
RTVSPropertyOp0
 70
     1
102
RTVSPropertyOp1
 70
     1
102
RTVSPropertyOp2
 70
     1
102
RTVSPropertyOp3
 70
     1
102
RTVSPropertyOp4
 70
     1
102
RTVSPropertyOp5
 70
     1
102
RTVSPropertyOp6
 70
     1
102
RTVSPropertyOp7
 70
     1
102
RTVSPropertyOp8
 70
     1
102
RTVSPropertyOp9
 70
     1
102
RTVSPropertyOp10
 70
     1
102
RTVSPropertyOp11
 70
     1
102
RTVSPropertyOp12
 70
     1
102
RTVSPropertyOp13
 70
     1
102
RTVSPropertyOp14
 70
     1
102
RTVSPropertyOp15
 70
     1
102
RTVSPropertyOp16
 70
     1
102
RTVSPropertyOp17
 70
     1
102
RTVSPropertyOp18
 70
     1
102
RTVSPropertyOp19
 70
     1
102
RTVSPropertyOp20
 70
     1
102
RTVSPropertyOp21
 70
     1
102
RTVSPropertyOp22
 70
     1
102
RTVSPropertyOp23
 70
     1
102
RTVSPropertyOp24
 70
     1
102
RTVSPropertyOp25
 70
     1
102
RTVSPropertyOp26
 70
     1
102
RTVSPropertyOp27
 70
     1
102
RTVSPropertyOp28
 70
     1
102
RTVSPropertyOp29
 70
     1
102
RTVSPropertyOp30
 70
     1
102
RTVSPropertyOp31
 70
     1
102
RTVSPropertyOp32
 70
     1
102
RTVSPropertyOp33
 70
     1
102
RTVSPropertyOp34
 70
     1
102
RTVSPropertyOp35
 70
     1
102
RTVSPropertyOp36
 70
     1
102
RTVSPropertyOp37
 70
     1
102
RTVSPropertyOp38
 70
     1
102
RTVSPropertyOp39
 70
     1
102
RTVSPropertyOp40
 70
     1
102
RTVSPropertyOp41
 70
     1
102
RTVSPropertyOp42
 70
     1
102
RTVSPropertyOp43
 70
     1
102
RTVSPropertyOp44
 70
     1
102
RTVSPropertyOp45
 70
     1
102
RTVSPropertyOp46
 70
     1
102
RTVSPropertyOp47
 70
     1
102
RTVSPropertyOp48
 70
     1
102
RTVSPropertyOp49
 70
     1
102
RTVSPropertyOp50
 70
     1
102
RTVSPropertyOp51
 70
     0
102
RTVSPropertyOp52
 70
     0
102
RTVSPropertyOp53
 70
     1
102
RTVSPropertyOp54
 70
     1
102
RTVSPropertyOp55
 70
     1
102
RTVSPropertyOp56
 70
     1
102
RTVSPropertyOp57
 70
     1
102
RTVSPropertyOp58
 70
     1
102
RTVSPropertyOp59
 70
     1
102
RTVSPropertyOp60
 70
     1
102
RTVSPropertyOp61
 70
     1
102
RTVSPropertyOp62
 70
     1
  0
XRECORD
  5
22ED
102
{ACAD_REACTORS
330
22EC
102
}
330
22EC
100
AcDbXrecord
280
     1
102
RTVSPost2010Prop28
280
     0
102
RTVSPost2010PropOp28
 70
     1
102
RTVSPost2010Prop29
280
     1
102
RTVSPost2010PropOp29
 70
     1
102
RTVSPost2010Prop30
280
     1
102
RTVSPost2010PropOp30
 70
     1
102
RTVSPost2010Prop31
280
     0
102
RTVSPost2010PropOp31
 70
     1
102
RTVSPost2010Prop32
280
     0
102
RTVSPost2010PropOp32
 70
     1
102
RTVSPost2010Prop33
280
     0
102
RTVSPost2010PropOp33
 70
     1
102
RTVSPost2010Prop34
280
     0
102
RTVSPost2010PropOp34
 70
     1
102
RTVSPost2010Prop35
280
     0
102
RTVSPost2010PropOp35
 70
     1
102
RTVSPost2010Prop36
280
     0
102
RTVSPost2010PropOp36
 70
     1
102
RTVSPost2010Prop37
 90
       50
102
RTVSPost2010PropOp37
 70
     1
102
RTVSPost2010Prop38
140
0.0
102
RTVSPost2010PropOp38
 70
     1
102
RTVSPost2010Prop39
140
1.0
102
RTVSPost2010PropOp39
 70
     1
102
RTVSPost2010Prop40
 90
        0
102
RTVSPost2010PropOp40
 70
     1
102
RTVSPost2010Prop41ColorIndex
 90
       18
102
RTVSPost2010Prop41ColorRGB
 90
        0
102
RTVSPost2010PropOp41
 70
     1
102
RTVSPost2010Prop42
 90
       50
102
RTVSPost2010PropOp42
 70
     1
102
RTVSPost2010Prop43
 90
        3
102
RTVSPost2010PropOp43
 70
     1
102
RTVSPost2010Prop44ColorIndex
 90
        5
102
RTVSPost2010Prop44ColorRGB
 90
      255
102
RTVSPost2010PropOp44
 70
     1
102
RTVSPost2010Prop45
280
     0
102
RTVSPost2010PropOp45
 70
     1
102
RTVSPost2010Prop46
 90
       50
102
RTVSPost2010PropOp46
 70
     1
102
RTVSPost2010Prop47
 90
       50
102
RTVSPost2010PropOp47
 70
     1
102
RTVSPost2010Prop48
 90
       50
102
RTVSPost2010PropOp48
 70
     1
102
RTVSPost2010Prop49
280
     0
102
RTVSPost2010PropOp49
 70
     1
102
RTVSPost2010Prop50
 90
       50
102
RTVSPost2010PropOp50
 70
     1
102
RTVSPost2010Prop51ColorIndex
 90
      256
102
RTVSPost2010Prop51ColorRGB
 90
-16777216
102
RTVSPost2010PropOp51
 70
     0
102
RTVSPost2010Prop52
140
1.0
102
RTVSPost2010PropOp52
 70
     0
102
RTVSPost2010Prop53
 90
        2
102
RTVSPost2010PropOp53
 70
     1
102
RTVSPost2010Prop54
  1
strokes_ogs.tif
102
RTVSPost2010PropOp54
 70
     1
102
RTVSPost2010Prop55
280
     0
102
RTVSPost2010PropOp55
 70
     1
102
RTVSPost2010Prop56
140
1.0
102
RTVSPost2010PropOp56
 70
     1
102
RTVSPost2010Prop57
140
1.0
102
RTVSPost2010PropOp57
 70
     1
102
RTVSPropertyOp0
 70
     1
102
RTVSPropertyOp1
 70
     1
102
RTVSPropertyOp2
 70
     1
102
RTVSPropertyOp3
 70
     1
102
RTVSPropertyOp4
 70
     1
102
RTVSPropertyOp5
 70
     1
102
RTVSPropertyOp6
 70
     1
102
RTVSPropertyOp7
 70
     1
102
RTVSPropertyOp8
 70
     1
102
RTVSPropertyOp9
 70
     1
102
RTVSPropertyOp10
 70
     1
102
RTVSPropertyOp11
 70
     1
102
RTVSPropertyOp12
 70
     1
102
RTVSPropertyOp13
 70
     1
102
RTVSPropertyOp14
 70
     1
102
RTVSPropertyOp15
 70
     1
102
RTVSPropertyOp16
 70
     1
102
RTVSPropertyOp17
 70
     1
102
RTVSPropertyOp18
 70
     1
102
RTVSPropertyOp19
 70
     1
102
RTVSPropertyOp20
 70
     1
102
RTVSPropertyOp21
 70
     1
102
RTVSPropertyOp22
 70
     1
102
RTVSPropertyOp23
 70
     1
102
RTVSPropertyOp24
 70
     1
102
RTVSPropertyOp25
 70
     1
102
RTVSPropertyOp26
 70
     1
102
RTVSPropertyOp27
 70
     1
102
RTVSPropertyOp28
 70
     1
102
RTVSPropertyOp29
 70
     1
102
RTVSPropertyOp30
 70
     1
102
RTVSPropertyOp31
 70
     1
102
RTVSPropertyOp32
 70
     1
102
RTVSPropertyOp33
 70
     1
102
RTVSPropertyOp34
 70
     1
102
RTVSPropertyOp35
 70
     1
102
RTVSPropertyOp36
 70
     1
102
RTVSPropertyOp37
 70
     1
102
RTVSPropertyOp38
 70
     1
102
RTVSPropertyOp39
 70
     1
102
RTVSPropertyOp40
 70
     1
102
RTVSPropertyOp41
 70
     1
102
RTVSPropertyOp42
 70
     1
102
RTVSPropertyOp43
 70
     1
102
RTVSPropertyOp44
 70
     1
102
RTVSPropertyOp45
 70
     1
102
RTVSPropertyOp46
 70
     1
102
RTVSPropertyOp47
 70
     1
102
RTVSPropertyOp48
 70
     1
102
RTVSPropertyOp49
 70
     1
102
RTVSPropertyOp50
 70
     1
102
RTVSPropertyOp51
 70
     0
102
RTVSPropertyOp52
 70
     0
102
RTVSPropertyOp53
 70
     1
102
RTVSPropertyOp54
 70
     1
102
RTVSPropertyOp55
 70
     1
102
RTVSPropertyOp56
 70
     1
102
RTVSPropertyOp57
 70
     1
102
RTVSPropertyOp58
 70
     1
102
RTVSPropertyOp59
 70
     1
102
RTVSPropertyOp60
 70
     1
102
RTVSPropertyOp61
 70
     1
102
RTVSPropertyOp62
 70
     1
  0
XRECORD
  5
2305
102
{ACAD_REACTORS
330
2304
102
}
330
2304
100
AcDbXrecord
280
     1
102
RTVSPost2010Prop28
280
     0
102
RTVSPost2010PropOp28
 70
     1
102
RTVSPost2010Prop29
280
     1
102
RTVSPost2010PropOp29
 70
     1
102
RTVSPost2010Prop30
280
     1
102
RTVSPost2010PropOp30
 70
     1
102
RTVSPost2010Prop31
280
     0
102
RTVSPost2010PropOp31
 70
     1
102
RTVSPost2010Prop32
280
     0
102
RTVSPost2010PropOp32
 70
     1
102
RTVSPost2010Prop33
280
     0
102
RTVSPost2010PropOp33
 70
     1
102
RTVSPost2010Prop34
280
     0
102
RTVSPost2010PropOp34
 70
     1
102
RTVSPost2010Prop35
280
     0
102
RTVSPost2010PropOp35
 70
     1
102
RTVSPost2010Prop36
280
     0
102
RTVSPost2010PropOp36
 70
     1
102
RTVSPost2010Prop37
 90
       50
102
RTVSPost2010PropOp37
 70
     1
102
RTVSPost2010Prop38
140
0.0
102
RTVSPost2010PropOp38
 70
     1
102
RTVSPost2010Prop39
140
1.0
102
RTVSPost2010PropOp39
 70
     1
102
RTVSPost2010Prop40
 90
        0
102
RTVSPost2010PropOp40
 70
     1
102
RTVSPost2010Prop41ColorIndex
 90
       18
102
RTVSPost2010Prop41ColorRGB
 90
        0
102
RTVSPost2010PropOp41
 70
     1
102
RTVSPost2010Prop42
 90
       50
102
RTVSPost2010PropOp42
 70
     1
102
RTVSPost2010Prop43
 90
        3
102
RTVSPost2010PropOp43
 70
     1
102
RTVSPost2010Prop44ColorIndex
 90
        5
102
RTVSPost2010Prop44ColorRGB
 90
      255
102
RTVSPost2010PropOp44
 70
     1
102
RTVSPost2010Prop45
280
     0
102
RTVSPost2010PropOp45
 70
     1
102
RTVSPost2010Prop46
 90
       50
102
RTVSPost2010PropOp46
 70
     1
102
RTVSPost2010Prop47
 90
       50
102
RTVSPost2010PropOp47
 70
     1
102
RTVSPost2010Prop48
 90
       50
102
RTVSPost2010PropOp48
 70
     1
102
RTVSPost2010Prop49
280
     0
102
RTVSPost2010PropOp49
 70
     1
102
RTVSPost2010Prop50
 90
       50
102
RTVSPost2010PropOp50
 70
     1
102
RTVSPost2010Prop51ColorIndex
 90
      256
102
RTVSPost2010Prop51ColorRGB
 90
-16777216
102
RTVSPost2010PropOp51
 70
     0
102
RTVSPost2010Prop52
140
1.0
102
RTVSPost2010PropOp52
 70
     0
102
RTVSPost2010Prop53
 90
        2
102
RTVSPost2010PropOp53
 70
     1
102
RTVSPost2010Prop54
  1
strokes_ogs.tif
102
RTVSPost2010PropOp54
 70
     1
102
RTVSPost2010Prop55
280
     0
102
RTVSPost2010PropOp55
 70
     1
102
RTVSPost2010Prop56
140
1.0
102
RTVSPost2010PropOp56
 70
     1
102
RTVSPost2010Prop57
140
1.0
102
RTVSPost2010PropOp57
 70
     1
102
RTVSPropertyOp0
 70
     1
102
RTVSPropertyOp1
 70
     1
102
RTVSPropertyOp2
 70
     1
102
RTVSPropertyOp3
 70
     1
102
RTVSPropertyOp4
 70
     1
102
RTVSPropertyOp5
 70
     1
102
RTVSPropertyOp6
 70
     1
102
RTVSPropertyOp7
 70
     1
102
RTVSPropertyOp8
 70
     1
102
RTVSPropertyOp9
 70
     1
102
RTVSPropertyOp10
 70
     1
102
RTVSPropertyOp11
 70
     1
102
RTVSPropertyOp12
 70
     1
102
RTVSPropertyOp13
 70
     1
102
RTVSPropertyOp14
 70
     1
102
RTVSPropertyOp15
 70
     1
102
RTVSPropertyOp16
 70
     1
102
RTVSPropertyOp17
 70
     1
102
RTVSPropertyOp18
 70
     1
102
RTVSPropertyOp19
 70
     1
102
RTVSPropertyOp20
 70
     1
102
RTVSPropertyOp21
 70
     1
102
RTVSPropertyOp22
 70
     1
102
RTVSPropertyOp23
 70
     1
102
RTVSPropertyOp24
 70
     1
102
RTVSPropertyOp25
 70
     1
102
RTVSPropertyOp26
 70
     1
102
RTVSPropertyOp27
 70
     1
102
RTVSPropertyOp28
 70
     1
102
RTVSPropertyOp29
 70
     1
102
RTVSPropertyOp30
 70
     1
102
RTVSPropertyOp31
 70
     1
102
RTVSPropertyOp32
 70
     1
102
RTVSPropertyOp33
 70
     1
102
RTVSPropertyOp34
 70
     1
102
RTVSPropertyOp35
 70
     1
102
RTVSPropertyOp36
 70
     1
102
RTVSPropertyOp37
 70
     1
102
RTVSPropertyOp38
 70
     1
102
RTVSPropertyOp39
 70
     1
102
RTVSPropertyOp40
 70
     1
102
RTVSPropertyOp41
 70
     1
102
RTVSPropertyOp42
 70
     1
102
RTVSPropertyOp43
 70
     1
102
RTVSPropertyOp44
 70
     1
102
RTVSPropertyOp45
 70
     1
102
RTVSPropertyOp46
 70
     1
102
RTVSPropertyOp47
 70
     1
102
RTVSPropertyOp48
 70
     1
102
RTVSPropertyOp49
 70
     1
102
RTVSPropertyOp50
 70
     1
102
RTVSPropertyOp51
 70
     0
102
RTVSPropertyOp52
 70
     0
102
RTVSPropertyOp53
 70
     1
102
RTVSPropertyOp54
 70
     1
102
RTVSPropertyOp55
 70
     1
102
RTVSPropertyOp56
 70
     1
102
RTVSPropertyOp57
 70
     1
102
RTVSPropertyOp58
 70
     1
102
RTVSPropertyOp59
 70
     1
102
RTVSPropertyOp60
 70
     1
102
RTVSPropertyOp61
 70
     1
102
RTVSPropertyOp62
 70
     1
  0
ENDSEC
  0
EOF
