  0
SECTION
  2
HEADER
  9
$ACADVER
  1
AC1015
  9
$ACADMAINTVER
 70
    20
  9
$DWGCODEPAGE
  3
ANSI_932
  9
$INSBASE
 10
0.0
 20
0.0
 30
0.0
  9
$EXTMIN
 10
9.990334240361562
 20
10.0
 30
0.0
  9
$EXTMAX
 10
396.2130848468193
 20
255.7849889767671
 30
0.0
  9
$LIMMIN
 10
0.0000015376081137
 20
-0.0000001931532552
  9
$LIMMAX
 10
426.0000015376081
 20
293.6818179886647
  9
$ORTHOMODE
 70
     1
  9
$REGENMODE
 70
     1
  9
$FILLMODE
 70
     1
  9
$QTEXTMODE
 70
     0
  9
$MIRRTEXT
 70
     1
  9
$LTSCALE
 40
1.0
  9
$ATTMODE
 70
     1
  9
$TEXTSIZE
 40
2.5
  9
$TRACEWID
 40
1.0
  9
$TEXTSTYLE
  7
STANDARD
  9
$CLAYER
  8
0
  9
$CELTYPE
  6
BYLAYER
  9
$CECOLOR
 62
   256
  9
$CELTSCALE
 40
1.0
  9
$DISPSILH
 70
     0
  9
$DIMSCALE
 40
1.0
  9
$DIMASZ
 40
3.0
  9
$DIMEXO
 40
1.0
  9
$DIMDLI
 40
10.0
  9
$DIMRND
 40
0.0
  9
$DIMDLE
 40
0.0
  9
$DIMEXE
 40
1.0
  9
$DIMTP
 40
0.0
  9
$DIMTM
 40
0.0
  9
$DIMTXT
 40
3.2
  9
$DIMCEN
 40
0.0
  9
$DIMTSZ
 40
0.0
  9
$DIMTOL
 70
     0
  9
$DIMLIM
 70
     0
  9
$DIMTIH
 70
     0
  9
$DIMTOH
 70
     0
  9
$DIMSE1
 70
     0
  9
$DIMSE2
 70
     0
  9
$DIMTAD
 70
     3
  9
$DIMZIN
 70
     8
  9
$DIMBLK
  1

  9
$DIMASO
 70
     1
  9
$DIMSHO
 70
     1
  9
$DIMPOST
  1

  9
$DIMAPOST
  1

  9
$DIMALT
 70
     0
  9
$DIMALTD
 70
     2
  9
$DIMALTF
 40
25.4
  9
$DIMLFAC
 40
1.0
  9
$DIMTOFL
 70
     1
  9
$DIMTVP
 40
0.0
  9
$DIMTIX
 70
     0
  9
$DIMSOXD
 70
     0
  9
$DIMSAH
 70
     1
  9
$DIMBLK1
  1
OPEN
  9
$DIMBLK2
  1
OPEN
  9
$DIMSTYLE
  2
STANDARD
  9
$DIMCLRD
 70
     0
  9
$DIMCLRE
 70
     0
  9
$DIMCLRT
 70
     0
  9
$DIMTFAC
 40
1.0
  9
$DIMGAP
 40
1.0
  9
$DIMJUST
 70
     0
  9
$DIMSD1
 70
     0
  9
$DIMSD2
 70
     0
  9
$DIMTOLJ
 70
     1
  9
$DIMTZIN
 70
     0
  9
$DIMALTZ
 70
     0
  9
$DIMALTTZ
 70
     0
  9
$DIMUPT
 70
     0
  9
$DIMDEC
 70
     4
  9
$DIMTDEC
 70
     4
  9
$DIMALTU
 70
     2
  9
$DIMALTTD
 70
     2
  9
$DIMTXSTY
  7
STANDARD
  9
$DIMAUNIT
 70
     0
  9
$DIMADEC
 70
     0
  9
$DIMALTRND
 40
0.0
  9
$DIMAZIN
 70
     0
  9
$DIMDSEP
 70
    46
  9
$DIMATFIT
 70
     3
  9
$DIMFRAC
 70
     0
  9
$DIMLDRBLK
  1
OPEN
  9
$DIMLUNIT
 70
     2
  9
$DIMLWD
 70
    -2
  9
$DIMLWE
 70
    -2
  9
$DIMTMOVE
 70
     0
  9
$LUNITS
 70
     2
  9
$LUPREC
 70
     4
  9
$SKETCHINC
 40
1.0
  9
$FILLETRAD
 40
0.0
  9
$AUNITS
 70
     0
  9
$AUPREC
 70
     0
  9
$MENU
  1
.
  9
$ELEVATION
 40
0.0
  9
$PELEVATION
 40
0.0
  9
$THICKNESS
 40
0.0
  9
$LIMCHECK
 70
     0
  9
$CHAMFERA
 40
10.0
  9
$CHAMFERB
 40
10.0
  9
$CHAMFERC
 40
20.0
  9
$CHAMFERD
 40
0.0
  9
$SKPOLY
 70
     0
  9
$TDCREATE
 40
2453831.646663044
  9
$TDUCREATE
 40
2453831.271663045
  9
$TDUPDATE
 40
2457192.602201667
  9
$TDUUPDATE
 40
2457192.227201667
  9
$TDINDWG
 40
0.2442817014
  9
$TDUSRTIMER
 40
0.2442817014
  9
$USRTIMER
 70
     1
  9
$ANGBASE
 50
0.0
  9
$ANGDIR
 70
     0
  9
$PDMODE
 70
     0
  9
$PDSIZE
 40
0.0
  9
$PLINEWID
 40
0.0
  9
$SPLFRAME
 70
     0
  9
$SPLINETYPE
 70
     6
  9
$SPLINESEGS
 70
     8
  9
$HANDSEED
  5
23F4
  9
$SURFTAB1
 70
     6
  9
$SURFTAB2
 70
     6
  9
$SURFTYPE
 70
     6
  9
$SURFU
 70
     6
  9
$SURFV
 70
     6
  9
$UCSBASE
  2

  9
$UCSNAME
  2

  9
$UCSORG
 10
0.0
 20
0.0
 30
0.0
  9
$UCSXDIR
 10
1.0
 20
0.0
 30
0.0
  9
$UCSYDIR
 10
0.0
 20
1.0
 30
0.0
  9
$UCSORTHOREF
  2

  9
$UCSORTHOVIEW
 70
     0
  9
$UCSORGTOP
 10
0.0
 20
0.0
 30
0.0
  9
$UCSORGBOTTOM
 10
0.0
 20
0.0
 30
0.0
  9
$UCSORGLEFT
 10
0.0
 20
0.0
 30
0.0
  9
$UCSORGRIGHT
 10
0.0
 20
0.0
 30
0.0
  9
$UCSORGFRONT
 10
0.0
 20
0.0
 30
0.0
  9
$UCSORGBACK
 10
0.0
 20
0.0
 30
0.0
  9
$PUCSBASE
  2

  9
$PUCSNAME
  2

  9
$PUCSORG
 10
0.0
 20
0.0
 30
0.0
  9
$PUCSXDIR
 10
1.0
 20
0.0
 30
0.0
  9
$PUCSYDIR
 10
0.0
 20
1.0
 30
0.0
  9
$PUCSORTHOREF
  2

  9
$PUCSORTHOVIEW
 70
     0
  9
$PUCSORGTOP
 10
0.0
 20
0.0
 30
0.0
  9
$PUCSORGBOTTOM
 10
0.0
 20
0.0
 30
0.0
  9
$PUCSORGLEFT
 10
0.0
 20
0.0
 30
0.0
  9
$PUCSORGRIGHT
 10
0.0
 20
0.0
 30
0.0
  9
$PUCSORGFRONT
 10
0.0
 20
0.0
 30
0.0
  9
$PUCSORGBACK
 10
0.0
 20
0.0
 30
0.0
  9
$USERI1
 70
     0
  9
$USERI2
 70
     0
  9
$USERI3
 70
     0
  9
$USERI4
 70
     0
  9
$USERI5
 70
     0
  9
$USERR1
 40
0.0
  9
$USERR2
 40
0.0
  9
$USERR3
 40
0.0
  9
$USERR4
 40
0.0
  9
$USERR5
 40
0.0
  9
$WORLDVIEW
 70
     1
  9
$SHADEDGE
 70
     3
  9
$SHADEDIF
 70
    70
  9
$TILEMODE
 70
     1
  9
$MAXACTVP
 70
    48
  9
$PINSBASE
 10
0.0
 20
0.0
 30
0.0
  9
$PLIMCHECK
 70
     0
  9
$PEXTMIN
 10
1.000000000000000E+20
 20
1.000000000000000E+20
 30
1.000000000000000E+20
  9
$PEXTMAX
 10
-1.000000000000000E+20
 20
-1.000000000000000E+20
 30
-1.000000000000000E+20
  9
$PLIMMIN
 10
0.0
 20
0.0
  9
$PLIMMAX
 10
420.0
 20
297.0
  9
$UNITMODE
 70
     0
  9
$VISRETAIN
 70
     1
  9
$PLINEGEN
 70
     0
  9
$PSLTSCALE
 70
     1
  9
$TREEDEPTH
 70
  3020
  9
$CMLSTYLE
  2
STANDARD
  9
$CMLJUST
 70
     0
  9
$CMLSCALE
 40
20.0
  9
$PROXYGRAPHICS
 70
     1
  9
$MEASUREMENT
 70
     0
  9
$CELWEIGHT
370
    -1
  9
$ENDCAPS
280
     0
  9
$JOINSTYLE
280
     0
  9
$LWDISPLAY
290
     0
  9
$INSUNITS
 70
     0
  9
$HYPERLINKBASE
  1

  9
$STYLESHEET
  1

  9
$XEDIT
290
     1
  9
$CEPSNTYPE
380
     0
  9
$PSTYLEMODE
290
     1
  9
$FINGERPRINTGUID
  2
{7D533D61-40CD-49F4-B40F-D5E501F6C48E}
  9
$VERSIONGUID
  2
{2054FBFF-7A16-47E4-B0BD-4BF118D7C82C}
  9
$EXTNAMES
290
     1
  9
$PSVPSCALE
 40
0.0
  9
$OLESTARTUP
290
     0
  0
ENDSEC
  0
SECTION
  2
CLASSES
  0
CLASS
  1
ACDBDICTIONARYWDFLT
  2
AcDbDictionaryWithDefault
  3
ObjectDBX Classes
 90
        0
280
     0
281
     0
  0
CLASS
  1
ACDBPLACEHOLDER
  2
AcDbPlaceHolder
  3
ObjectDBX Classes
 90
        0
280
     0
281
     0
  0
CLASS
  1
LAYOUT
  2
AcDbLayout
  3
ObjectDBX Classes
 90
        0
280
     0
281
     0
  0
CLASS
  1
DICTIONARYVAR
  2
AcDbDictionaryVar
  3
ObjectDBX Classes
 90
        0
280
     0
281
     0
  0
CLASS
  1
MATERIAL
  2
AcDbMaterial
  3
ObjectDBX Classes
 90
     1153
280
     0
281
     0
  0
CLASS
  1
VISUALSTYLE
  2
AcDbVisualStyle
  3
ObjectDBX Classes
 90
     4095
280
     0
281
     0
  0
CLASS
  1
TABLESTYLE
  2
AcDbTableStyle
  3
ObjectDBX Classes
 90
     4095
280
     0
281
     0
  0
CLASS
  1
SCALE
  2
AcDbScale
  3
ObjectDBX Classes
 90
     1153
280
     0
281
     0
  0
CLASS
  1
MLEADERSTYLE
  2
AcDbMLeaderStyle
  3
ACDB_MLEADERSTYLE_CLASS
 90
     4095
280
     0
281
     0
  0
CLASS
  1
ACDBSECTIONVIEWSTYLE
  2
AcDbSectionViewStyle
  3
ObjectDBX Classes
 90
     1025
280
     0
281
     0
  0
CLASS
  1
ACDBDETAILVIEWSTYLE
  2
AcDbDetailViewStyle
  3
ObjectDBX Classes
 90
     1025
280
     0
281
     0
  0
CLASS
  1
CELLSTYLEMAP
  2
AcDbCellStyleMap
  3
ObjectDBX Classes
 90
     1152
280
     0
281
     0
  0
ENDSEC
  0
SECTION
  2
TABLES
  0
TABLE
  2
VPORT
  5
8
330
0
100
AcDbSymbolTable
 70
     1
  0
VPORT
  5
233E
330
8
100
AcDbSymbolTableRecord
100
AcDbViewportTableRecord
  2
*ACTIVE
 70
     0
 10
0.0
 20
0.0
 11
1.0
 21
1.0
 12
282.1047530821275
 22
132.8930845669642
 13
0.0
 23
0.0
 14
10.0
 24
10.0
 15
10.0
 25
10.0
 16
0.0
 26
0.0
 36
1.0
 17
0.0
 27
0.0
 37
0.0
 40
248.1957167685123
 41
1.899603698811096
 42
50.0
 43
0.0
 44
0.0
 50
0.0
 51
0.0
 71
     0
 72
   100
 73
     1
 74
     0
 75
     0
 76
     0
 77
     0
 78
     0
281
     0
 65
     1
110
0.0
120
0.0
130
0.0
111
1.0
121
0.0
131
0.0
112
0.0
122
1.0
132
0.0
 79
     0
146
0.0
1001
ACAD_NAV_VCDISPLAY
1070
     3
  0
ENDTAB
  0
TABLE
  2
LTYPE
  5
5
330
0
100
AcDbSymbolTable
 70
     4
  0
LTYPE
  5
12
330
5
100
AcDbSymbolTableRecord
100
AcDbLinetypeTableRecord
  2
BYBLOCK
 70
     0
  3

 72
    65
 73
     0
 40
0.0
  0
LTYPE
  5
13
330
5
100
AcDbSymbolTableRecord
100
AcDbLinetypeTableRecord
  2
BYLAYER
 70
     0
  3

 72
    65
 73
     0
 40
0.0
  0
LTYPE
  5
14
330
5
100
AcDbSymbolTableRecord
100
AcDbLinetypeTableRecord
  2
CONTINUOUS
 70
     0
  3
Solid line
 72
    65
 73
     0
 40
0.0
  0
LTYPE
  5
4B
330
5
100
AcDbSymbolTableRecord
100
AcDbLinetypeTableRecord
  2
DASHED
 70
     0
  3
Dashed __ __ __ __ __ __ __ __ __ __ __ __ __ _
 72
    65
 73
     2
 40
19.04999999999999
 49
12.7
 74
     0
 49
-6.349999999999998
 74
     0
  0
LTYPE
  5
4C
330
5
100
AcDbSymbolTableRecord
100
AcDbLinetypeTableRecord
  2
CENTER
 70
     0
  3
Center ____ _ ____ _ ____ _ ____ _ ____ _ ____
 72
    65
 73
     4
 40
50.8
 49
31.75
 74
     0
 49
-6.349999999999998
 74
     0
 49
6.349999999999998
 74
     0
 49
-6.349999999999998
 74
     0
  0
LTYPE
  5
4D
330
5
100
AcDbSymbolTableRecord
100
AcDbLinetypeTableRecord
  2
PHANTOM
 70
     0
  3
Phantom ______  __  __  ______  __  __  ______
 72
    65
 73
     6
 40
63.5
 49
31.75
 74
     0
 49
-6.349999999999998
 74
     0
 49
6.349999999999998
 74
     0
 49
-6.349999999999998
 74
     0
 49
6.349999999999998
 74
     0
 49
-6.349999999999998
 74
     0
  0
ENDTAB
  0
TABLE
  2
LAYER
  5
2
330
0
100
AcDbSymbolTable
 70
     8
  0
LAYER
  5
E
102
{ACAD_XDICTIONARY
360
2398
102
}
330
2
100
AcDbSymbolTableRecord
100
AcDbLayerTableRecord
  2
0
 70
     0
 62
     7
  6
CONTINUOUS
370
    -3
390
2347
  0
LAYER
  5
4E
102
{ACAD_XDICTIONARY
360
239A
102
}
330
2
100
AcDbSymbolTableRecord
100
AcDbLayerTableRecord
  2
4
 70
     0
 62
     1
  6
CENTER
370
    -3
390
2347
  0
LAYER
  5
4F
102
{ACAD_XDICTIONARY
360
239C
102
}
330
2
100
AcDbSymbolTableRecord
100
AcDbLayerTableRecord
  2
5
 70
     0
 62
     6
  6
PHANTOM
370
    -3
390
2347
  0
LAYER
  5
50
102
{ACAD_XDICTIONARY
360
239E
102
}
330
2
100
AcDbSymbolTableRecord
100
AcDbLayerTableRecord
  2
1
 70
     0
 62
     7
  6
CONTINUOUS
370
    -3
390
2347
  0
LAYER
  5
51
102
{ACAD_XDICTIONARY
360
23A0
102
}
330
2
100
AcDbSymbolTableRecord
100
AcDbLayerTableRecord
  2
2
 70
     0
 62
     4
  6
CONTINUOUS
370
    -3
390
2347
  0
LAYER
  5
52
102
{ACAD_XDICTIONARY
360
23A2
102
}
330
2
100
AcDbSymbolTableRecord
100
AcDbLayerTableRecord
  2
3
 70
     0
 62
     2
  6
DASHED
370
    -3
390
2347
  0
LAYER
  5
53
102
{ACAD_XDICTIONARY
360
23A4
102
}
330
2
100
AcDbSymbolTableRecord
100
AcDbLayerTableRecord
  2
6
 70
     0
 62
     5
  6
CONTINUOUS
370
    -3
390
2347
  0
LAYER
  5
54
102
{ACAD_XDICTIONARY
360
23A6
102
}
330
2
100
AcDbSymbolTableRecord
100
AcDbLayerTableRecord
  2
7
 70
     0
 62
     3
  6
CONTINUOUS
370
    -3
390
2347
  0
ENDTAB
  0
TABLE
  2
STYLE
  5
3
330
0
100
AcDbSymbolTable
 70
     1
  0
STYLE
  5
F
330
3
100
AcDbSymbolTableRecord
100
AcDbTextStyleTableRecord
  2
STANDARD
 70
     0
 40
0.0
 41
1.0
 50
0.0
 71
     0
 42
2.5
  3
simplex.shx
  4

  0
ENDTAB
  0
TABLE
  2
VIEW
  5
6
330
0
100
AcDbSymbolTable
 70
     0
  0
ENDTAB
  0
TABLE
  2
UCS
  5
7
330
0
100
AcDbSymbolTable
 70
     0
  0
ENDTAB
  0
TABLE
  2
APPID
  5
9
330
0
100
AcDbSymbolTable
 70
     5
  0
APPID
  5
10
330
9
100
AcDbSymbolTableRecord
100
AcDbRegAppTableRecord
  2
ACAD
 70
     0
  0
APPID
  5
3E
330
9
100
AcDbSymbolTableRecord
100
AcDbRegAppTableRecord
  2
CONTENTTABDATA
 70
     0
  0
APPID
  5
3F
330
9
100
AcDbSymbolTableRecord
100
AcDbRegAppTableRecord
  2
CONTENTCURRENTTAB
 70
     0
  0
APPID
  5
23B2
330
9
100
AcDbSymbolTableRecord
100
AcDbRegAppTableRecord
  2
ACAD_NAV_VCDISPLAY
 70
     0
  0
APPID
  5
23EB
330
9
100
AcDbSymbolTableRecord
100
AcDbRegAppTableRecord
  2
ACAD_MLEADERVER
 70
     0
  0
ENDTAB
  0
TABLE
  2
DIMSTYLE
  5
A
330
0
100
AcDbSymbolTable
 70
     1
100
AcDbDimStyleTable
 71
     0
  0
DIMSTYLE
105
1D
330
A
100
AcDbSymbolTableRecord
100
AcDbDimStyleTableRecord
  2
STANDARD
 70
     0
 41
3.0
 42
1.0
 43
10.0
 44
1.0
 73
     0
 74
     0
 77
     3
 78
     8
140
3.2
141
0.0
147
1.0
172
     1
173
     1
340
F
341
2E
343
2E
344
2E
  0
ENDTAB
  0
TABLE
  2
BLOCK_RECORD
  5
1
330
0
100
AcDbSymbolTable
 70
     1
  0
BLOCK_RECORD
  5
18
102
{ACAD_XDICTIONARY
360
2341
102
}
330
1
100
AcDbSymbolTableRecord
100
AcDbBlockTableRecord
  2
*MODEL_SPACE
340
2395
  0
BLOCK_RECORD
  5
15
102
{ACAD_XDICTIONARY
360
233F
102
}
330
1
100
AcDbSymbolTableRecord
100
AcDbBlockTableRecord
  2
*PAPER_SPACE
340
2396
  0
BLOCK_RECORD
  5
2E
330
1
100
AcDbSymbolTableRecord
100
AcDbBlockTableRecord
  2
_OPEN
340
0
  0
ENDTAB
  0
ENDSEC
  0
SECTION
  2
BLOCKS
  0
BLOCK
  5
19
330
18
100
AcDbEntity
  8
0
100
AcDbBlockBegin
  2
*MODEL_SPACE
 70
     0
 10
0.0
 20
0.0
 30
0.0
  3
*MODEL_SPACE
  1

  0
ENDBLK
  5
1A
330
18
100
AcDbEntity
  8
0
100
AcDbBlockEnd
  0
BLOCK
  5
16
330
15
100
AcDbEntity
 67
     1
  8
0
100
AcDbBlockBegin
  2
*PAPER_SPACE
 70
     0
 10
0.0
 20
0.0
 30
0.0
  3
*PAPER_SPACE
  1

  0
ENDBLK
  5
17
330
15
100
AcDbEntity
 67
     1
  8
0
100
AcDbBlockEnd
  0
BLOCK
  5
2F
330
2E
100
AcDbEntity
  8
0
100
AcDbBlockBegin
  2
_OPEN
 70
     0
 10
0.0
 20
0.0
 30
0.0
  3
_OPEN
  1

  0
LINE
  5
30
330
2E
100
AcDbEntity
  8
0
  6
ByBlock
 62
     0
100
AcDbLine
 10
-1.0
 20
0.1666666666666666
 30
0.0
 11
0.0
 21
0.0
 31
0.0
  0
LINE
  5
31
330
2E
100
AcDbEntity
  8
0
  6
ByBlock
 62
     0
100
AcDbLine
 10
0.0
 20
0.0
 30
0.0
 11
-1.0
 21
-0.1666666666666666
 31
0.0
  0
LINE
  5
32
330
2E
100
AcDbEntity
  8
0
  6
ByBlock
 62
     0
100
AcDbLine
 10
0.0
 20
0.0
 30
0.0
 11
-1.0
 21
0.0
 31
0.0
  0
ENDBLK
  5
33
330
2E
100
AcDbEntity
  8
0
100
AcDbBlockEnd
  0
ENDSEC
  0
SECTION
  2
ENTITIES
  0
TEXT
  5
63
330
18
100
AcDbEntity
  8
4
  6
CENTER
 48
0.25
100
AcDbText
 10
23.97950852663849
 20
10.0
 30
0.0
 40
1.399999999999999
  1
4
100
AcDbText
  0
TEXT
  5
64
330
18
100
AcDbEntity
  8
7
  6
Continuous
 48
0.25
100
AcDbText
 10
9.999997526638502
 20
26.0000007607689
 30
0.0
 40
3.0
  1
CODE No.11010
100
AcDbText
  0
TEXT
  5
65
330
18
100
AcDbEntity
  8
7
  6
Continuous
 48
0.25
100
AcDbText
 10
9.999997526638502
 20
18.00000076076889
 30
0.0
 40
3.0
  1
TYPE No.TL-354-2K
100
AcDbText
  0
TEXT
  5
66
330
18
100
AcDbEntity
  8
1
  6
Continuous
 48
0.25
100
AcDbText
 10
9.999997526638502
 20
10.00000076076889
 30
0.0
 40
1.399999999999999
  1
LAYER
100
AcDbText
  0
TEXT
  5
67
330
18
100
AcDbEntity
  8
2
  6
Continuous
 48
0.25
100
AcDbText
 10
19.9795085266385
 20
10.0
 30
0.0
 40
1.399999999999999
  1
2
100
AcDbText
  0
TEXT
  5
68
330
18
100
AcDbEntity
  8
3
  6
DASHED
 48
0.25
100
AcDbText
 10
21.9795085266385
 20
10.0
 30
0.0
 40
1.399999999999999
  1
3
100
AcDbText
  0
TEXT
  5
69
330
18
100
AcDbEntity
  8
1
  6
Continuous
 48
0.25
100
AcDbText
 10
17.9795085266385
 20
10.0
 30
0.0
 40
1.399999999999999
  1
1
100
AcDbText
  0
TEXT
  5
6A
330
18
100
AcDbEntity
  8
5
  6
PHANTOM
 48
0.25
100
AcDbText
 10
25.9795085266385
 20
10.0
 30
0.0
 40
1.399999999999999
  1
5
100
AcDbText
  0
TEXT
  5
6B
330
18
100
AcDbEntity
  8
6
  6
Continuous
 48
0.25
100
AcDbText
 10
27.9795085266385
 20
10.0
 30
0.0
 40
1.399999999999999
  1
6
100
AcDbText
  0
TEXT
  5
6C
330
18
100
AcDbEntity
  8
7
  6
Continuous
 48
0.25
100
AcDbText
 10
29.9795085266385
 20
10.0
 30
0.0
 40
1.399999999999999
  1
7
100
AcDbText
  0
ARC
  5
11DB
330
18
100
AcDbEntity
  8
1
  6
Continuous
100
AcDbCircle
 10
33.26931157105434
 20
267.7880676446766
 30
0.0
 40
150.0
100
AcDbArc
 50
265.9039559999994
 51
274.0960440000005
  0
LINE
  5
11DC
330
18
100
AcDbEntity
  8
1
  6
Continuous
100
AcDbLine
 10
40.76931157105446
 20
119.6899816446766
 30
0.0
 11
25.76931157105446
 21
119.6899816446766
 31
0.0
  0
ARC
  5
11DD
330
18
100
AcDbEntity
  8
1
  6
Continuous
100
AcDbCircle
 10
33.26931157105434
 20
134.7880676446765
 30
0.0
 40
8.5
100
AcDbArc
 50
0.0
 51
180.0
  0
ARC
  5
11DE
330
18
100
AcDbEntity
  8
1
  6
Continuous
100
AcDbCircle
 10
33.26931157105434
 20
134.7078886446766
 30
0.0
 40
8.980358000000002
100
AcDbArc
 50
0.511561000001084
 51
179.4884389999989
  0
ARC
  5
11DF
330
18
100
AcDbEntity
  8
1
  6
Continuous
100
AcDbCircle
 10
33.26931157105434
 20
6.320951644676597
 30
0.0
 40
150.0
100
AcDbArc
 50
86.34443399999979
 51
93.6555660000002
  0
CIRCLE
  5
11E0
330
18
100
AcDbEntity
  8
1
  6
Continuous
100
AcDbCircle
 10
33.26931157105434
 20
134.7880676446765
 30
0.0
 40
8.125
  0
CIRCLE
  5
11E1
330
18
100
AcDbEntity
  8
1
  6
Continuous
100
AcDbCircle
 10
33.26931157105434
 20
134.7880676446765
 30
0.0
 40
7.0
  0
ARC
  5
11E2
330
18
100
AcDbEntity
  8
1
  6
Continuous
100
AcDbCircle
 10
31.26931157105434
 20
31.79890164467656
 30
0.0
 40
150.0
100
AcDbArc
 50
85.92349799999892
 51
89.23603400000109
  0
ARC
  5
11E3
330
18
100
AcDbEntity
  8
1
  6
Continuous
100
AcDbCircle
 10
33.76931157105434
 20
7.388901644676592
 30
0.0
 40
150.0
100
AcDbArc
 50
86.44075899999846
 51
90.19098599999987
  0
LINE
  5
11E7
330
18
100
AcDbEntity
  8
4
  6
CENTER
 48
0.2
100
AcDbLine
 10
23.26931157105446
 20
134.7880676446765
 30
0.0
 11
42.76931157105446
 21
134.7880676446765
 31
0.0
  0
LINE
  5
11EC
330
18
100
AcDbEntity
  8
1
  6
Continuous
100
AcDbLine
 10
46.76931157105445
 20
153.9527256446765
 30
0.0
 11
46.76931157105445
 21
121.1635476446766
 31
0.0
  0
LINE
  5
11ED
330
18
100
AcDbEntity
  8
1
  6
Continuous
100
AcDbLine
 10
41.76931157105445
 20
134.7880676446765
 30
0.0
 11
41.76931157105445
 21
120.6899816446766
 31
0.0
  0
LINE
  5
11EE
330
18
100
AcDbEntity
  8
1
  6
Continuous
100
AcDbLine
 10
42.24931157105435
 20
118.0571106446765
 30
0.0
 11
42.24931157105435
 21
134.7880676446765
 31
0.0
  0
LINE
  5
11EF
330
18
100
AcDbEntity
  8
1
  6
Continuous
100
AcDbLine
 10
120.3719709035843
 20
142.7422924099639
 30
0.0
 11
120.3719709035843
 21
120.5800616446766
 31
0.0
  0
LINE
  5
11F7
330
18
100
AcDbEntity
  8
1
  6
Continuous
100
AcDbLine
 10
122.8644909035844
 20
117.9607556446765
 30
0.0
 11
122.8695729035844
 21
132.1276216446765
 31
0.0
  0
LINE
  5
11F8
330
18
100
AcDbEntity
  8
1
  6
Continuous
100
AcDbLine
 10
137.8705269035843
 20
140.7880676446765
 30
0.0
 11
137.8705269035843
 21
122.2880676446765
 31
0.0
  0
LINE
  5
11F9
330
18
100
AcDbEntity
  8
1
  6
Continuous
100
AcDbLine
 10
122.8676389035842
 20
155.6838816446765
 30
0.0
 11
122.8676389035842
 21
129.4794886446765
 31
0.0
  0
LINE
  5
11FE
330
18
100
AcDbEntity
  8
1
  6
Continuous
100
AcDbLine
 10
137.3705269035844
 20
121.7880676446765
 30
0.0
 11
125.8676389035843
 21
121.7880676446765
 31
0.0
  0
ARC
  5
120F
330
18
100
AcDbEntity
  8
1
  6
Continuous
100
AcDbCircle
 10
137.3705269035842
 20
122.2880676446765
 30
0.0
 40
0.5
100
AcDbArc
 50
270.0
 51
0.0
  0
LINE
  5
1210
330
18
100
AcDbEntity
  8
4
  6
CENTER
 48
0.1
100
AcDbLine
 10
137.3104219035843
 20
130.2880676446765
 30
0.0
 11
140.1979009035844
 21
130.2880676446765
 31
0.0
  0
LINE
  5
1217
330
18
100
AcDbEntity
  8
1
  6
Continuous
100
AcDbLine
 10
125.8676389035843
 20
118.7880676446765
 30
0.0
 11
125.8676389035843
 21
125.1680676446765
 31
0.0
  0
ARC
  5
1218
330
18
100
AcDbEntity
  8
1
  6
Continuous
100
AcDbCircle
 10
123.3647509035843
 20
120.7880676446765
 30
0.0
 40
3.0
100
AcDbArc
 50
183.9758259999985
 51
270.0
  0
LINE
  5
1219
330
18
100
AcDbEntity
  8
1
  6
Continuous
100
AcDbLine
 10
124.8676389035842
 20
117.7880676446765
 30
0.0
 11
123.3647509035843
 21
117.7880676446765
 31
0.0
  0
ARC
  5
121A
330
18
100
AcDbEntity
  8
1
  6
Continuous
100
AcDbCircle
 10
124.8676389035842
 20
118.7880676446765
 30
0.0
 40
1.0
100
AcDbArc
 50
270.0
 51
0.0
  0
ARC
  5
121B
330
18
100
AcDbEntity
  8
1
  6
Continuous
100
AcDbCircle
 10
122.8676389035842
 20
123.7880676446765
 30
0.0
 40
0.5
100
AcDbArc
 50
269.8581819999994
 51
270.0
  0
ARC
  5
121C
330
18
100
AcDbEntity
  8
1
  6
Continuous
100
AcDbCircle
 10
122.8676389035842
 20
121.2880676446765
 30
0.0
 40
0.5
100
AcDbArc
 50
90.0
 51
90.20348500000055
  0
ARC
  5
1228
330
18
100
AcDbEntity
  8
1
  6
Continuous
100
AcDbCircle
 10
43.76931157105434
 20
121.1635476446766
 30
0.0
 40
3.0
100
AcDbArc
 50
274.0960440000005
 51
0.0
  0
ARC
  5
1229
330
18
100
AcDbEntity
  8
1
  6
Continuous
100
AcDbCircle
 10
40.76931157105434
 20
120.6899816446766
 30
0.0
 40
1.0
100
AcDbArc
 50
270.0
 51
0.0
  0
LINE
  5
122A
330
18
100
AcDbEntity
  8
1
  6
Continuous
100
AcDbLine
 10
41.54152457105442
 20
120.0546176446765
 30
0.0
 11
42.16515857105433
 21
118.2946046446765
 31
0.0
  0
CIRCLE
  5
122D
330
18
100
AcDbEntity
  8
1
  6
Continuous
100
AcDbCircle
 10
133.3705269035842
 20
144.2880676446765
 30
0.0
 40
2.5
  0
ARC
  5
122E
330
18
100
AcDbEntity
  8
1
  6
Continuous
100
AcDbCircle
 10
133.3705269035842
 20
144.2880676446765
 30
0.0
 40
4.5
100
AcDbArc
 50
208.9558679999968
 51
0.0
  0
LINE
  5
122F
330
18
100
AcDbEntity
  8
1
  6
Continuous
100
AcDbLine
 10
130.6886679035844
 20
181.7855676446766
 30
0.0
 11
135.8948139035844
 21
181.7855676446766
 31
0.0
  0
LINE
  5
1232
330
18
100
AcDbEntity
  8
4
  6
CENTER
 48
0.2
100
AcDbLine
 10
160.0719709035843
 20
171.7880676446765
 30
0.0
 11
171.0719709035843
 21
171.7880676446765
 31
0.0
  0
LINE
  5
1233
330
18
100
AcDbEntity
  8
1
  6
Continuous
100
AcDbLine
 10
136.8705269035842
 20
140.7880676446765
 30
0.0
 11
123.3695729035844
 21
132.9932886446766
 31
0.0
  0
LINE
  5
1234
330
18
100
AcDbEntity
  8
1
  6
Continuous
100
AcDbLine
 10
137.8705269035843
 20
180.2240676446766
 30
0.0
 11
137.8705269035843
 21
144.2880676446765
 31
0.0
  0
LINE
  5
123F
330
18
100
AcDbEntity
  8
4
  6
CENTER
 48
0.1
100
AcDbLine
 10
137.3104219035843
 20
142.2880676446765
 30
0.0
 11
140.1979009035844
 21
142.2880676446765
 31
0.0
  0
LINE
  5
1240
330
18
100
AcDbEntity
  8
1
  6
Continuous
100
AcDbLine
 10
137.8705269035843
 20
140.7880676446765
 30
0.0
 11
136.8705269035842
 21
140.7880676446765
 31
0.0
  0
LINE
  5
1241
330
18
100
AcDbEntity
  8
1
  6
Continuous
100
AcDbLine
 10
136.8705269035842
 20
140.7880676446765
 30
0.0
 11
136.8705269035842
 21
141.4596406446765
 31
0.0
  0
LINE
  5
1251
330
18
100
AcDbEntity
  8
1
  6
Continuous
100
AcDbLine
 10
136.6019209035844
 20
181.4926736446765
 30
0.0
 11
137.8705269035842
 21
180.2240676446766
 31
0.0
  0
ARC
  5
1252
330
18
100
AcDbEntity
  8
1
  6
Continuous
100
AcDbCircle
 10
135.8948139035843
 20
180.7855676446766
 30
0.0
 40
1.0
100
AcDbArc
 50
45.0
 51
90.0
  0
ARC
  5
1257
330
18
100
AcDbEntity
  8
1
  6
Continuous
100
AcDbCircle
 10
202.7875249035843
 20
150.0239326446765
 30
0.0
 40
80.0
100
AcDbArc
 50
157.5696899999993
 51
177.3063330000016
  0
ARC
  5
1258
330
18
100
AcDbEntity
  8
1
  6
Continuous
100
AcDbCircle
 10
-103.2306884289457
 20
153.9527256446765
 30
0.0
 40
150.0
100
AcDbArc
 50
0.0
 51
9.583945000001079
  0
LINE
  5
1259
330
18
100
AcDbEntity
  8
1
  6
Continuous
100
AcDbLine
 10
129.4330589035844
 20
142.1094566446766
 30
0.0
 11
123.0087879035843
 21
153.2366206446766
 31
0.0
  0
ARC
  5
125A
330
18
100
AcDbEntity
  8
1
  6
Continuous
100
AcDbCircle
 10
123.8695729035842
 20
132.1272626446766
 30
0.0
 40
1.0
100
AcDbArc
 50
120.0000000000005
 51
179.9794439999967
  0
CIRCLE
  5
125B
330
18
100
AcDbEntity
  8
1
  6
Continuous
100
AcDbCircle
 10
133.3705269035842
 20
144.2880676446765
 30
0.0
 40
2.0
  0
LINE
  5
125C
330
18
100
AcDbEntity
  8
4
  6
CENTER
 48
0.1
100
AcDbLine
 10
133.3705269035843
 20
147.7880676446765
 30
0.0
 11
133.3705269035843
 21
140.7880676446765
 31
0.0
  0
ARC
  5
125D
330
18
100
AcDbEntity
  8
1
  6
Continuous
100
AcDbCircle
 10
121.8676389035842
 20
144.4794886446765
 30
0.0
 40
1.0
100
AcDbArc
 50
280.0000000000018
 51
0.0
  0
ARC
  5
125E
330
18
100
AcDbEntity
  8
1
  6
Continuous
100
AcDbCircle
 10
120.8705069035843
 20
142.7805266446765
 30
0.0
 40
0.5
100
AcDbArc
 50
100.0000000000018
 51
184.3856017472921
  0
LINE
  5
125F
330
18
100
AcDbEntity
  8
1
  6
Continuous
100
AcDbLine
 10
122.0412879035843
 20
143.4946806446765
 30
0.0
 11
120.7836829035843
 21
143.2729306446765
 31
0.0
  0
ARC
  5
1260
330
18
100
AcDbEntity
  8
1
  6
Continuous
100
AcDbCircle
 10
123.8676389035842
 20
155.6838816446765
 30
0.0
 40
1.0
100
AcDbArc
 50
147.0568729999996
 51
180.0
  0
ARC
  5
1261
330
18
100
AcDbEntity
  8
1
  6
Continuous
100
AcDbCircle
 10
123.8748139035843
 20
153.7366206446766
 30
0.0
 40
1.0
100
AcDbArc
 50
177.3063330000016
 51
210.0000000000004
  0
LINE
  5
1263
330
18
100
AcDbEntity
  8
1
  6
Continuous
100
AcDbLine
 10
43.76931157105445
 20
156.7629396446764
 30
0.0
 11
43.76931157105445
 21
132.7047326446764
 31
0.0
  0
LINE
  5
1264
330
18
100
AcDbEntity
  8
1
  6
Continuous
100
AcDbLine
 10
44.01931157105446
 20
156.1015016446765
 30
0.0
 11
44.01931157105446
 21
139.7880676446765
 31
0.0
  0
LINE
  5
126A
330
18
100
AcDbEntity
  8
1
  6
Continuous
100
AcDbLine
 10
46.76931157105445
 20
132.7047326446765
 30
0.0
 11
43.76931157105445
 21
132.7047326446765
 31
0.0
  0
LINE
  5
126B
330
18
100
AcDbEntity
  8
1
  6
Continuous
100
AcDbLine
 10
46.75621157105434
 20
139.7880676446765
 30
0.0
 11
44.01931157105446
 21
139.7880676446765
 31
0.0
  0
LINE
  5
126C
330
18
100
AcDbEntity
  8
1
  6
Continuous
100
AcDbLine
 10
46.75621157105434
 20
140.7880676446765
 30
0.0
 11
46.76931157105445
 21
140.7880676446765
 31
0.0
  0
LINE
  5
126D
330
18
100
AcDbEntity
  8
1
  6
Continuous
100
AcDbLine
 10
43.76931157105445
 20
140.7880676446765
 30
0.0
 11
44.01931157105446
 21
140.7880676446765
 31
0.0
  0
ARC
  5
126E
330
18
100
AcDbEntity
  8
1
  6
Continuous
100
AcDbCircle
 10
42.76931157105434
 20
155.0177916446765
 30
0.0
 40
1.0
100
AcDbArc
 50
0.0
 51
86.34443399999979
  0
ARC
  5
126F
330
18
100
AcDbEntity
  8
1
  6
Continuous
100
AcDbCircle
 10
43.01931157105435
 20
156.1015016446765
 30
0.0
 40
1.0
100
AcDbArc
 50
0.0
 51
86.44075899999846
  0
LINE
  5
1270
330
18
100
AcDbEntity
  8
1
  6
Continuous
100
AcDbLine
 10
44.01931157105446
 20
153.4897656446765
 30
0.0
 11
46.76931157105445
 21
153.4897656446765
 31
0.0
  0
ARC
  5
1271
330
18
100
AcDbEntity
  8
1
  6
Continuous
100
AcDbCircle
 10
42.76931157105434
 20
156.1849066446765
 30
0.0
 40
1.0
100
AcDbArc
 50
0.0
 51
63.97809499999854
  0
ARC
  5
1273
330
18
100
AcDbEntity
  8
1
  6
Continuous
100
AcDbCircle
 10
130.6886679035843
 20
179.7855676446766
 30
0.0
 40
2.0
100
AcDbArc
 50
90.0
 51
157.5696899999993
  0
ARC
  5
127A
330
18
100
AcDbEntity
  8
1
  6
Continuous
100
AcDbCircle
 10
41.7175925710543
 20
178.4271166446765
 30
0.0
 40
3.0
100
AcDbArc
 50
9.583945000001079
 51
85.92416599999879
  0
LINE
  5
127B
330
18
100
AcDbEntity
  8
1
  6
Continuous
100
AcDbLine
 10
24.76931157105445
 20
134.7880676446765
 30
0.0
 11
24.76931157105445
 21
120.6899816446766
 31
0.0
  0
LINE
  5
127C
330
18
100
AcDbEntity
  8
1
  6
Continuous
100
AcDbLine
 10
24.28931157105444
 20
118.0571106446765
 30
0.0
 11
24.28931157105444
 21
134.7880676446765
 31
0.0
  0
LINE
  5
127D
330
18
100
AcDbEntity
  8
1
  6
Continuous
100
AcDbLine
 10
35.88560657105428
 20
130.6161376446766
 30
0.0
 11
37.44124157105443
 21
132.1717726446766
 31
0.0
  0
LINE
  5
127E
330
18
100
AcDbEntity
  8
1
  6
Continuous
100
AcDbLine
 10
30.93585957105438
 20
135.5658856446764
 30
0.0
 11
35.88560657105428
 21
130.6161376446766
 31
0.0
  0
ARC
  5
127F
330
18
100
AcDbEntity
  8
1
  6
Continuous
100
AcDbCircle
 10
34.54634857105429
 20
134.2266276446764
 30
0.0
 40
3.670046999999998
100
AcDbArc
 50
160.9506840000025
 51
289.0493160000005
  0
LINE
  5
1280
330
18
100
AcDbEntity
  8
1
  6
Continuous
100
AcDbLine
 10
19.76931157105445
 20
153.9527256446765
 30
0.0
 11
19.76931157105445
 21
121.1635476446766
 31
0.0
  0
LINE
  5
1282
330
18
100
AcDbEntity
  8
4
  6
CENTER
 48
0.2
100
AcDbLine
 10
33.26931157105446
 20
114.7880676446765
 30
0.0
 11
33.26931157105446
 21
185.7855677186979
 31
0.0
  0
ARC
  5
128C
330
18
100
AcDbEntity
  8
1
  6
Continuous
100
AcDbCircle
 10
22.76931157105434
 20
121.1635476446766
 30
0.0
 40
3.0
100
AcDbArc
 50
180.0
 51
265.9039559999994
  0
ARC
  5
128D
330
18
100
AcDbEntity
  8
1
  6
Continuous
100
AcDbCircle
 10
25.76931157105434
 20
120.6899816446766
 30
0.0
 40
1.0
100
AcDbArc
 50
180.0
 51
270.0
  0
LINE
  5
128E
330
18
100
AcDbEntity
  8
1
  6
Continuous
100
AcDbLine
 10
24.99709857105426
 20
120.0546176446765
 30
0.0
 11
24.42518857105437
 21
118.4405816446765
 31
0.0
  0
ARC
  5
1290
330
18
100
AcDbEntity
  8
1
  6
Continuous
100
AcDbCircle
 10
169.7693115710542
 20
153.9527256446765
 30
0.0
 40
150.0
100
AcDbArc
 50
170.4160549999989
 51
180.0
  0
LINE
  5
1291
330
18
100
AcDbEntity
  8
1
  6
Continuous
100
AcDbLine
 10
22.76931157105445
 20
156.7629396446764
 30
0.0
 11
22.76931157105445
 21
132.7047326446764
 31
0.0
  0
LINE
  5
1292
330
18
100
AcDbEntity
  8
1
  6
Continuous
100
AcDbLine
 10
22.51931157105445
 20
156.1015016446765
 30
0.0
 11
22.51931157105445
 21
139.7880676446765
 31
0.0
  0
LINE
  5
1293
330
18
100
AcDbEntity
  8
1
  6
Continuous
100
AcDbLine
 10
22.76931157105445
 20
132.7047326446765
 30
0.0
 11
19.76931157105445
 21
132.7047326446765
 31
0.0
  0
LINE
  5
1294
330
18
100
AcDbEntity
  8
1
  6
Continuous
100
AcDbLine
 10
19.76931157105445
 20
139.7880676446765
 30
0.0
 11
22.51931157105445
 21
139.7880676446765
 31
0.0
  0
LINE
  5
1295
330
18
100
AcDbEntity
  8
1
  6
Continuous
100
AcDbLine
 10
30.93585957105438
 20
135.5658856446765
 30
0.0
 11
32.49149457105443
 21
137.1215206446766
 31
0.0
  0
LINE
  5
1296
330
18
100
AcDbEntity
  8
1
  6
Continuous
100
AcDbLine
 10
32.49149457105431
 20
137.1215206446766
 30
0.0
 11
37.44124157105443
 21
132.1717726446766
 31
0.0
  0
LINE
  5
1297
330
18
100
AcDbEntity
  8
1
  6
Continuous
100
AcDbLine
 10
22.76931157105445
 20
140.7880676446765
 30
0.0
 11
22.51931157105445
 21
140.7880676446765
 31
0.0
  0
LINE
  5
1298
330
18
100
AcDbEntity
  8
1
  6
Continuous
100
AcDbLine
 10
22.51931157105445
 20
153.4897656446765
 30
0.0
 11
19.76931157105445
 21
153.4897656446765
 31
0.0
  0
ARC
  5
1299
330
18
100
AcDbEntity
  8
1
  6
Continuous
100
AcDbCircle
 10
23.51931157105434
 20
156.1015016446765
 30
0.0
 40
1.0
100
AcDbArc
 50
93.5592410000015
 51
180.0
  0
ARC
  5
129A
330
18
100
AcDbEntity
  8
1
  6
Continuous
100
AcDbCircle
 10
23.76931157105434
 20
155.0177916446765
 30
0.0
 40
1.0
100
AcDbArc
 50
93.6555660000002
 51
180.0
  0
ARC
  5
129B
330
18
100
AcDbEntity
  8
1
  6
Continuous
100
AcDbCircle
 10
32.76931157105434
 20
7.388901644676592
 30
0.0
 40
150.0
100
AcDbArc
 50
89.80901400000012
 51
93.5592410000015
  0
ARC
  5
129C
330
18
100
AcDbEntity
  8
1
  6
Continuous
100
AcDbCircle
 10
23.76931157105434
 20
156.1849066446765
 30
0.0
 40
1.0
100
AcDbArc
 50
116.0219050000014
 51
180.0
  0
ARC
  5
129D
330
18
100
AcDbEntity
  8
1
  6
Continuous
100
AcDbCircle
 10
24.82103057105428
 20
178.4271166446765
 30
0.0
 40
3.0
100
AcDbArc
 50
94.07583400000117
 51
170.4160549999989
  0
ARC
  5
129E
330
18
100
AcDbEntity
  8
1
  6
Continuous
100
AcDbCircle
 10
35.26931157105435
 20
31.79890164467656
 30
0.0
 40
150.0
100
AcDbArc
 50
90.76396599999894
 51
94.07583400000117
  0
LINE
  5
12D5
330
18
100
AcDbEntity
  8
4
  6
CENTER
 48
0.1
100
AcDbLine
 10
129.8705269035845
 20
144.2880676446765
 30
0.0
 11
136.8705269035844
 21
144.2880676446765
 31
0.0
  0
LINE
  5
12D6
330
18
100
AcDbEntity
  8
4
  6
CENTER
 48
0.2
100
AcDbLine
 10
17.76931157105446
 20
144.2880676446765
 30
0.0
 11
48.75621157105445
 21
144.2880676446765
 31
0.0
  0
LINE
  5
12D8
330
18
100
AcDbEntity
  8
1
  6
Continuous
100
AcDbLine
 10
137.8705269035843
 20
157.7880676446765
 30
0.0
 11
139.0719709035843
 21
157.7880676446765
 31
0.0
  0
LINE
  5
12DA
330
18
100
AcDbEntity
  8
1
  6
Continuous
100
AcDbLine
 10
137.8719709035843
 20
146.7880676446765
 30
0.0
 11
139.0719709035843
 21
146.7880676446765
 31
0.0
  0
LINE
  5
12DB
330
18
100
AcDbEntity
  8
1
  6
Continuous
100
AcDbLine
 10
137.8719709035843
 20
144.1565376446765
 30
0.0
 11
139.0719709035843
 21
144.1565376446765
 31
0.0
  0
LINE
  5
12E1
330
18
100
AcDbEntity
  8
1
  6
Continuous
100
AcDbLine
 10
139.0719709035843
 20
157.7880676446765
 30
0.0
 11
139.0719709035843
 21
126.2880676446765
 31
0.0
  0
ARC
  5
12E7
330
18
100
AcDbEntity
  8
1
  6
Continuous
100
AcDbCircle
 10
137.0719709035843
 20
126.2880676446765
 30
0.0
 40
2.0
100
AcDbArc
 50
293.5330529999994
 51
0.0
  0
LINE
  5
12E9
330
18
100
AcDbEntity
  8
3
  6
DASHED
 48
0.1
100
AcDbLine
 10
167.5719709035843
 20
173.2880676446765
 30
0.0
 11
169.0719709035843
 21
173.2880676446765
 31
0.0
  0
LINE
  5
12EA
330
18
100
AcDbEntity
  8
1
  6
Continuous
100
AcDbLine
 10
166.0719709035843
 20
177.7880676446765
 30
0.0
 11
169.0719709035843
 21
177.7880676446765
 31
0.0
  0
LINE
  5
12EB
330
18
100
AcDbEntity
  8
3
  6
DASHED
 48
0.1
100
AcDbLine
 10
167.5719709035843
 20
170.2880676446765
 30
0.0
 11
169.0719709035843
 21
170.2880676446765
 31
0.0
  0
LINE
  5
12EC
330
18
100
AcDbEntity
  8
1
  6
Continuous
100
AcDbLine
 10
163.0719709035843
 20
165.7880676446765
 30
0.0
 11
169.0719709035843
 21
165.7880676446765
 31
0.0
  0
LINE
  5
12ED
330
18
100
AcDbEntity
  8
1
  6
Continuous
100
AcDbLine
 10
162.0719709035843
 20
179.5880676446765
 30
0.0
 11
162.0719709035843
 21
166.7880676446765
 31
0.0
  0
LINE
  5
12EE
330
18
100
AcDbEntity
  8
3
  6
DASHED
 48
0.1
100
AcDbLine
 10
167.5719709035843
 20
173.2880676446765
 30
0.0
 11
166.0719709035843
 21
174.7880676446765
 31
0.0
  0
LINE
  5
12EF
330
18
100
AcDbEntity
  8
1
  6
Continuous
100
AcDbLine
 10
166.0719709035842
 20
179.5880676446765
 30
0.0
 11
166.0719709035843
 21
165.7880676446765
 31
0.0
  0
LINE
  5
12F0
330
18
100
AcDbEntity
  8
3
  6
DASHED
 48
0.1
100
AcDbLine
 10
167.5719709035843
 20
170.2880676446765
 30
0.0
 11
166.0719709035843
 21
168.7880676446765
 31
0.0
  0
LINE
  5
12F1
330
18
100
AcDbEntity
  8
3
  6
DASHED
 48
0.1
100
AcDbLine
 10
167.5719709035843
 20
173.2880676446765
 30
0.0
 11
167.5719709035843
 21
170.2880676446765
 31
0.0
  0
ARC
  5
12F2
330
18
100
AcDbEntity
  8
1
  6
Continuous
100
AcDbCircle
 10
163.0719709035843
 20
166.7880676446765
 30
0.0
 40
1.0
100
AcDbArc
 50
180.0
 51
270.0
  0
ARC
  5
12F3
330
18
100
AcDbEntity
  8
1
  6
Continuous
100
AcDbCircle
 10
163.0719709035843
 20
179.5880676446765
 30
0.0
 40
1.0
100
AcDbArc
 50
90.0
 51
180.0
  0
LINE
  5
12F4
330
18
100
AcDbEntity
  8
1
  6
Continuous
100
AcDbLine
 10
163.0719709035843
 20
180.5880676446765
 30
0.0
 11
165.0719709035843
 21
180.5880676446765
 31
0.0
  0
LINE
  5
12F5
330
18
100
AcDbEntity
  8
1
  6
Continuous
100
AcDbLine
 10
169.0719709035843
 20
177.7880676446765
 30
0.0
 11
169.0719709035843
 21
165.7880676446765
 31
0.0
  0
ARC
  5
12F6
330
18
100
AcDbEntity
  8
1
  6
Continuous
100
AcDbCircle
 10
165.0719709035843
 20
179.5880676446765
 30
0.0
 40
1.0
100
AcDbArc
 50
0.0
 51
90.0
  0
LINE
  5
12F9
330
18
100
AcDbEntity
  8
1
  6
Continuous
100
AcDbLine
 10
137.8719709035843
 20
146.7880676446765
 30
0.0
 11
137.8719709035843
 21
126.2880676446765
 31
0.0
  0
LINE
  5
12FA
330
18
100
AcDbEntity
  8
1
  6
Continuous
100
AcDbLine
 10
139.0719709035843
 20
126.2880676446765
 30
0.0
 11
137.8705269035843
 21
126.2880676446765
 31
0.0
  0
LINE
  5
12FC
330
18
100
AcDbEntity
  8
1
  6
Continuous
100
AcDbLine
 10
77.82090458854191
 20
180.5880676446765
 30
0.0
 11
66.3209045885419
 21
180.5880676446765
 31
0.0
  0
LINE
  5
12FD
330
18
100
AcDbEntity
  8
1
  6
Continuous
100
AcDbLine
 10
79.82090458854191
 20
165.7880676446765
 30
0.0
 11
64.32090458854189
 21
165.7880676446765
 31
0.0
  0
LINE
  5
12FE
330
18
100
AcDbEntity
  8
4
  6
CENTER
 48
0.2
100
AcDbLine
 10
72.07090458854191
 20
182.5880676446765
 30
0.0
 11
72.07090458854191
 21
163.7880676446765
 31
0.0
  0
CIRCLE
  5
1304
330
18
100
AcDbEntity
  8
1
  6
Continuous
100
AcDbCircle
 10
78.0709045885419
 20
171.7880676446765
 30
0.0
 40
1.5
  0
CIRCLE
  5
1305
330
18
100
AcDbEntity
  8
1
  6
Continuous
100
AcDbCircle
 10
78.0709045885419
 20
171.7880676446765
 30
0.0
 40
3.0
  0
CIRCLE
  5
1306
330
18
100
AcDbEntity
  8
1
  6
Continuous
100
AcDbCircle
 10
66.07090458854191
 20
171.7880676446765
 30
0.0
 40
3.0
  0
CIRCLE
  5
1307
330
18
100
AcDbEntity
  8
1
  6
Continuous
100
AcDbCircle
 10
66.07090458854191
 20
171.7880676446765
 30
0.0
 40
1.5
  0
LINE
  5
130B
330
18
100
AcDbEntity
  8
1
  6
Continuous
100
AcDbLine
 10
65.82090458854191
 20
180.0880676446766
 30
0.0
 11
65.82090458854191
 21
176.2811178335794
 31
0.0
  0
LINE
  5
130C
330
18
100
AcDbEntity
  8
1
  6
Continuous
100
AcDbLine
 10
78.32090458854191
 20
180.0880676446766
 30
0.0
 11
78.32090458854191
 21
176.2811178335794
 31
0.0
  0
ARC
  5
1313
330
18
100
AcDbEntity
  8
1
  6
Continuous
100
AcDbCircle
 10
66.07090458854191
 20
171.7880676446765
 30
0.0
 40
4.0
100
AcDbArc
 50
273.1847385367203
 51
86.8152614632795
  0
ARC
  5
1314
330
18
100
AcDbEntity
  8
1
  6
Continuous
100
AcDbCircle
 10
78.0709045885419
 20
171.7880676446765
 30
0.0
 40
4.0
100
AcDbArc
 50
93.18473853672028
 51
266.8152614632796
  0
LINE
  5
1315
330
18
100
AcDbEntity
  8
1
  6
Continuous
100
AcDbLine
 10
78.32090458854191
 20
167.2950174557737
 30
0.0
 11
78.32090458854191
 21
165.7880676446765
 31
0.0
  0
LINE
  5
1316
330
18
100
AcDbEntity
  8
1
  6
Continuous
100
AcDbLine
 10
65.82090458854191
 20
167.2950174557737
 30
0.0
 11
65.82090458854191
 21
165.7880676446765
 31
0.0
  0
ARC
  5
1317
330
18
100
AcDbEntity
  8
1
  6
Continuous
100
AcDbCircle
 10
77.82090458854191
 20
180.0880676446766
 30
0.0
 40
0.5
100
AcDbArc
 50
0.0
 51
89.99999999999998
  0
ARC
  5
1318
330
18
100
AcDbEntity
  8
1
  6
Continuous
100
AcDbCircle
 10
77.82090458854191
 20
176.2811178335794
 30
0.0
 40
0.5
100
AcDbArc
 50
273.1847385367197
 51
0.0
  0
ARC
  5
1319
330
18
100
AcDbEntity
  8
1
  6
Continuous
100
AcDbCircle
 10
77.82090458854191
 20
167.2950174557737
 30
0.0
 40
0.5
100
AcDbArc
 50
0.0
 51
86.8152614632803
  0
ARC
  5
131A
330
18
100
AcDbEntity
  8
1
  6
Continuous
100
AcDbCircle
 10
66.3209045885419
 20
167.2950174557737
 30
0.0
 40
0.5
100
AcDbArc
 50
93.18473853672134
 51
180.0
  0
ARC
  5
131B
330
18
100
AcDbEntity
  8
1
  6
Continuous
100
AcDbCircle
 10
66.3209045885419
 20
176.2811178335794
 30
0.0
 40
0.5
100
AcDbArc
 50
179.9999999999991
 51
266.8152614632802
  0
ARC
  5
131C
330
18
100
AcDbEntity
  8
1
  6
Continuous
100
AcDbCircle
 10
66.3209045885419
 20
180.0880676446766
 30
0.0
 40
0.5
100
AcDbArc
 50
89.99999999999998
 51
180.0
  0
LINE
  5
1321
330
18
100
AcDbEntity
  8
1
  6
Continuous
100
AcDbLine
 10
65.82090458854191
 20
177.7880676446765
 30
0.0
 11
63.53454513573229
 21
177.7880676446765
 31
0.0
  0
LINE
  5
1322
330
18
100
AcDbEntity
  8
4
  6
CENTER
 48
0.1
100
AcDbLine
 10
74.27090458854189
 20
171.7880676446765
 30
0.0
 11
81.87090458854191
 21
171.7880676446765
 31
0.0
  0
LINE
  5
1323
330
18
100
AcDbEntity
  8
4
  6
CENTER
 48
0.1
100
AcDbLine
 10
78.0709045885419
 20
167.9880676446765
 30
0.0
 11
78.0709045885419
 21
175.5880676446765
 31
0.0
  0
LINE
  5
1324
330
18
100
AcDbEntity
  8
4
  6
CENTER
 48
0.1
100
AcDbLine
 10
66.07090458854191
 20
167.9880676446765
 30
0.0
 11
66.07090458854191
 21
175.5880676446765
 31
0.0
  0
LINE
  5
1325
330
18
100
AcDbEntity
  8
4
  6
CENTER
 48
0.1
100
AcDbLine
 10
62.27090458854188
 20
171.7880676446765
 30
0.0
 11
69.87090458854192
 21
171.7880676446765
 31
0.0
  0
LINE
  5
132E
330
18
100
AcDbEntity
  8
1
  6
Continuous
100
AcDbLine
 10
220.3120479847948
 20
153.9527256446765
 30
0.0
 11
220.3120479847948
 21
121.1635476446766
 31
0.0
  0
LINE
  5
132F
330
18
100
AcDbEntity
  8
1
  6
Continuous
100
AcDbLine
 10
244.3120479847948
 20
158.7880676446765
 30
0.0
 11
244.3120479847948
 21
143.8313488971656
 31
0.0
  0
LINE
  5
1330
330
18
100
AcDbEntity
  8
1
  6
Continuous
100
AcDbLine
 10
247.3120479847948
 20
153.9527256446765
 30
0.0
 11
247.3120479847948
 21
121.1635476446766
 31
0.0
  0
LINE
  5
1331
330
18
100
AcDbEntity
  8
1
  6
Continuous
100
AcDbLine
 10
223.3120479847948
 20
158.7880676446765
 30
0.0
 11
223.3120479847948
 21
143.8313488971656
 31
0.0
  0
LINE
  5
1332
330
18
100
AcDbEntity
  8
4
  6
CENTER
 48
0.2
100
AcDbLine
 10
233.8120479847948
 20
114.7880676446765
 30
0.0
 11
233.8120479847948
 21
185.7855677186979
 31
0.0
  0
ARC
  5
1333
330
18
100
AcDbEntity
  8
1
  6
Continuous
100
AcDbCircle
 10
233.8120479847949
 20
267.7880676446766
 30
0.0
 40
150.0
100
AcDbArc
 50
265.9039559999994
 51
274.0960440000005
  0
ARC
  5
133A
330
18
100
AcDbEntity
  8
1
  6
Continuous
100
AcDbCircle
 10
244.3120479847949
 20
121.1635476446766
 30
0.0
 40
3.0
100
AcDbArc
 50
274.0960440000005
 51
0.000000000000007
  0
ARC
  5
1341
330
18
100
AcDbEntity
  8
1
  6
Continuous
100
AcDbCircle
 10
223.3120479847949
 20
121.1635476446766
 30
0.0
 40
3.0
100
AcDbArc
 50
180.0
 51
265.9039559999994
  0
LINE
  5
1344
330
18
100
AcDbEntity
  8
1
  6
Continuous
100
AcDbLine
 10
278.3636410022822
 20
180.5880676446765
 30
0.0
 11
266.8636410022823
 21
180.5880676446765
 31
0.0
  0
ARC
  5
1348
330
18
100
AcDbEntity
  8
1
  6
Continuous
100
AcDbCircle
 10
225.363766984795
 20
178.4271166446765
 30
0.0
 40
3.0
100
AcDbArc
 50
94.0758340000012
 51
170.4160549999989
  0
LINE
  5
1349
330
18
100
AcDbEntity
  8
4
  6
CENTER
 48
0.2
100
AcDbLine
 10
249.3120479847948
 20
144.2880676446765
 30
0.0
 11
218.3251479847948
 21
144.2880676446765
 31
0.0
  0
ARC
  5
134A
330
18
100
AcDbEntity
  8
1
  6
Continuous
100
AcDbCircle
 10
97.31204798479508
 20
153.9527256446765
 30
0.0
 40
150.0
100
AcDbArc
 50
0.000000000000007
 51
9.583945000001088
  0
LINE
  5
134C
330
18
100
AcDbEntity
  8
1
  6
Continuous
100
AcDbLine
 10
244.5620479847948
 20
156.1015016446765
 30
0.0
 11
244.5620479847948
 21
140.7880676446765
 31
0.0
  0
LINE
  5
134D
330
18
100
AcDbEntity
  8
1
  6
Continuous
100
AcDbLine
 10
244.3120479847948
 20
140.7880676446765
 30
0.0
 11
244.5620479847948
 21
140.7880676446765
 31
0.0
  0
ARC
  5
1354
330
18
100
AcDbEntity
  8
1
  6
Continuous
100
AcDbCircle
 10
231.8120479847949
 20
31.79890164467656
 30
0.0
 40
150.0
100
AcDbArc
 50
85.92416599999884
 51
89.23603400000109
  0
ARC
  5
1355
330
18
100
AcDbEntity
  8
1
  6
Continuous
100
AcDbCircle
 10
242.260328984795
 20
178.4271166446765
 30
0.0
 40
3.0
100
AcDbArc
 50
9.583945000001088
 51
85.92416599999884
  0
ARC
  5
1356
330
18
100
AcDbEntity
  8
1
  6
Continuous
100
AcDbCircle
 10
235.8120479847949
 20
31.79890164467656
 30
0.0
 40
150.0
100
AcDbArc
 50
90.76396599999892
 51
94.07650200000109
  0
ARC
  5
1357
330
18
100
AcDbEntity
  8
1
  6
Continuous
100
AcDbCircle
 10
370.312047984795
 20
153.9527256446765
 30
0.0
 40
150.0
100
AcDbArc
 50
170.4160549999989
 51
180.0
  0
LINE
  5
1358
330
18
100
AcDbEntity
  8
1
  6
Continuous
100
AcDbLine
 10
223.0620479847948
 20
156.1015016446765
 30
0.0
 11
223.0620479847948
 21
140.7880676446765
 31
0.0
  0
LINE
  5
1359
330
18
100
AcDbEntity
  8
1
  6
Continuous
100
AcDbLine
 10
223.3120479847948
 20
140.7880676446765
 30
0.0
 11
223.0620479847948
 21
140.7880676446765
 31
0.0
  0
LINE
  5
1360
330
18
100
AcDbEntity
  8
4
  6
CENTER
 48
0.1
100
AcDbLine
 10
266.6136410022823
 20
167.9880676446765
 30
0.0
 11
266.6136410022823
 21
175.5880676446765
 31
0.0
  0
LINE
  5
1361
330
18
100
AcDbEntity
  8
4
  6
CENTER
 48
0.2
100
AcDbLine
 10
272.6136410022823
 20
182.5880676446765
 30
0.0
 11
272.6136410022823
 21
163.7880676446765
 31
0.0
  0
LINE
  5
1365
330
18
100
AcDbEntity
  8
4
  6
CENTER
 48
0.1
100
AcDbLine
 10
262.8136410022822
 20
171.7880676446765
 30
0.0
 11
270.4136410022822
 21
171.7880676446765
 31
0.0
  0
CIRCLE
  5
1366
330
18
100
AcDbEntity
  8
1
  6
Continuous
100
AcDbCircle
 10
266.6136410022823
 20
171.7880676446765
 30
0.0
 40
1.5
  0
LINE
  5
136C
330
18
100
AcDbEntity
  8
1
  6
Continuous
100
AcDbLine
 10
266.3636410022823
 20
180.0880676446766
 30
0.0
 11
266.3636410022823
 21
177.7880676446765
 31
0.0
  0
ARC
  5
136D
330
18
100
AcDbEntity
  8
1
  6
Continuous
100
AcDbCircle
 10
266.8636410022823
 20
180.0880676446766
 30
0.0
 40
0.5
100
AcDbArc
 50
89.99999999999998
 51
180.0
  0
LINE
  5
136F
330
18
100
AcDbEntity
  8
4
  6
CENTER
 48
0.1
100
AcDbLine
 10
278.6136410022823
 20
167.9880676446765
 30
0.0
 11
278.6136410022823
 21
175.5880676446765
 31
0.0
  0
LINE
  5
1372
330
18
100
AcDbEntity
  8
4
  6
CENTER
 48
0.1
100
AcDbLine
 10
274.8136410022822
 20
171.7880676446765
 30
0.0
 11
282.4136410022823
 21
171.7880676446765
 31
0.0
  0
CIRCLE
  5
1376
330
18
100
AcDbEntity
  8
1
  6
Continuous
100
AcDbCircle
 10
278.6136410022823
 20
171.7880676446765
 30
0.0
 40
1.5
  0
LINE
  5
1379
330
18
100
AcDbEntity
  8
1
  6
Continuous
100
AcDbLine
 10
278.8636410022823
 20
180.0880676446766
 30
0.0
 11
278.8636410022823
 21
177.7880676446765
 31
0.0
  0
ARC
  5
137B
330
18
100
AcDbEntity
  8
1
  6
Continuous
100
AcDbCircle
 10
278.3636410022822
 20
180.0880676446766
 30
0.0
 40
0.5
100
AcDbArc
 50
0.000000000000007
 51
89.99999999999998
  0
ARC
  5
137E
330
18
100
AcDbEntity
  8
1
  6
Continuous
100
AcDbCircle
 10
244.3120479847949
 20
125.1635476446765
 30
0.0
 40
3.0
100
AcDbArc
 50
274.0960440000005
 51
0.000000000000007
  0
ARC
  5
137F
330
18
100
AcDbEntity
  8
1
  6
Continuous
100
AcDbCircle
 10
233.8120479847949
 20
271.7880676446765
 30
0.0
 40
150.0
100
AcDbArc
 50
265.9039559999994
 51
274.0960440000005
  0
ARC
  5
1380
330
18
100
AcDbEntity
  8
1
  6
Continuous
100
AcDbCircle
 10
223.3120479847949
 20
125.1635476446765
 30
0.0
 40
3.0
100
AcDbArc
 50
180.0
 51
265.9039559999994
  0
ARC
  5
1381
330
18
100
AcDbEntity
  8
1
  6
Continuous
100
AcDbCircle
 10
233.8120479847949
 20
267.7880676446766
 30
0.0
 40
149.0
100
AcDbArc
 50
265.9039559999994
 51
274.0960440000005
  0
ARC
  5
1382
330
18
100
AcDbEntity
  8
1
  6
Continuous
100
AcDbCircle
 10
223.3120479847949
 20
121.1635476446766
 30
0.0
 40
2.0
100
AcDbArc
 50
180.0
 51
265.9039559999994
  0
LINE
  5
1383
330
18
100
AcDbEntity
  8
1
  6
Continuous
100
AcDbLine
 10
221.3120479847948
 20
122.9274796671768
 30
0.0
 11
221.3120479847948
 21
121.1635476446766
 31
0.0
  0
ARC
  5
1384
330
18
100
AcDbEntity
  8
1
  6
Continuous
100
AcDbCircle
 10
244.3120479847949
 20
121.1635476446766
 30
0.0
 40
2.0
100
AcDbArc
 50
274.0960440000005
 51
0.000000000000007
  0
LINE
  5
1385
330
18
100
AcDbEntity
  8
1
  6
Continuous
100
AcDbLine
 10
246.3120479847948
 20
122.9274796671766
 30
0.0
 11
246.3120479847948
 21
121.1635476446766
 31
0.0
  0
ARC
  5
1386
330
18
100
AcDbEntity
  8
1
  6
Continuous
100
AcDbCircle
 10
233.8120479847949
 20
271.7880676446765
 30
0.0
 40
148.5
100
AcDbArc
 50
265.9039559999994
 51
274.0960440000005
  0
ARC
  5
1387
330
18
100
AcDbEntity
  8
1
  6
Continuous
100
AcDbCircle
 10
223.3120479847949
 20
125.1635476446765
 30
0.0
 40
1.5
100
AcDbArc
 50
180.0
 51
265.9039559999994
  0
LINE
  5
1388
330
18
100
AcDbEntity
  8
1
  6
Continuous
100
AcDbLine
 10
221.8120479847948
 20
139.2880676446765
 30
0.0
 11
221.8120479847948
 21
125.1635476446765
 31
0.0
  0
ARC
  5
1389
330
18
100
AcDbEntity
  8
1
  6
Continuous
100
AcDbCircle
 10
244.3120479847949
 20
125.1635476446765
 30
0.0
 40
1.5
100
AcDbArc
 50
274.0960440000005
 51
0.000000000000007
  0
LINE
  5
138A
330
18
100
AcDbEntity
  8
1
  6
Continuous
100
AcDbLine
 10
245.8120479847948
 20
139.2880676446765
 30
0.0
 11
245.8120479847948
 21
125.1635476446765
 31
0.0
  0
LINE
  5
138B
330
18
100
AcDbEntity
  8
1
  6
Continuous
100
AcDbLine
 10
220.3120479847948
 20
140.7880676446765
 30
0.0
 11
223.3120479847948
 21
140.7880676446765
 31
0.0
  0
LINE
  5
138C
330
18
100
AcDbEntity
  8
1
  6
Continuous
100
AcDbLine
 10
221.8120479847948
 20
139.2880676446765
 30
0.0
 11
223.3120479847948
 21
139.2880676446765
 31
0.0
  0
LINE
  5
138D
330
18
100
AcDbEntity
  8
1
  6
Continuous
100
AcDbLine
 10
225.8120479847948
 20
157.7880676446765
 30
0.0
 11
225.8120479847948
 21
145.2655264980461
 31
0.0
  0
LINE
  5
138E
330
18
100
AcDbEntity
  8
1
  6
Continuous
100
AcDbLine
 10
241.8120479847948
 20
157.7880676446765
 30
0.0
 11
241.8120479847948
 21
145.2655264980461
 31
0.0
  0
LINE
  5
138F
330
18
100
AcDbEntity
  8
1
  6
Continuous
100
AcDbLine
 10
244.3120479847948
 20
139.2880676446765
 30
0.0
 11
245.8120479847948
 21
139.2880676446765
 31
0.0
  0
LINE
  5
1390
330
18
100
AcDbEntity
  8
1
  6
Continuous
100
AcDbLine
 10
244.3120479847948
 20
140.7880676446765
 30
0.0
 11
247.3120479847948
 21
140.7880676446765
 31
0.0
  0
LINE
  5
1391
330
18
100
AcDbEntity
  8
1
  6
Continuous
100
AcDbLine
 10
223.3120479847948
 20
157.7880676446765
 30
0.0
 11
244.3120479847948
 21
157.7880676446765
 31
0.0
  0
ARC
  5
1399
330
18
100
AcDbEntity
  8
1
  6
Continuous
100
AcDbCircle
 10
225.363766984795
 20
178.4271166446765
 30
0.0
 40
1.0
100
AcDbArc
 50
94.0758340000012
 51
170.4160549999989
  0
ARC
  5
139A
330
18
100
AcDbEntity
  8
1
  6
Continuous
100
AcDbCircle
 10
235.8120479847949
 20
31.79890164467656
 30
0.0
 40
148.0
100
AcDbArc
 50
90.76396599999892
 51
94.07650200000109
  0
ARC
  5
139B
330
18
100
AcDbEntity
  8
1
  6
Continuous
100
AcDbCircle
 10
370.312047984795
 20
153.9527256446765
 30
0.0
 40
148.0
100
AcDbArc
 50
170.4160549999989
 51
180.0
  0
LINE
  5
139C
330
18
100
AcDbEntity
  8
1
  6
Continuous
100
AcDbLine
 10
222.3120479847948
 20
153.9527256446765
 30
0.0
 11
222.3120479847948
 21
140.7880676446765
 31
0.0
  0
ARC
  5
139D
330
18
100
AcDbEntity
  8
1
  6
Continuous
100
AcDbCircle
 10
231.8120479847949
 20
31.79890164467656
 30
0.0
 40
148.0
100
AcDbArc
 50
85.92416599999884
 51
89.23603400000109
  0
ARC
  5
139E
330
18
100
AcDbEntity
  8
1
  6
Continuous
100
AcDbCircle
 10
242.260328984795
 20
178.4271166446765
 30
0.0
 40
1.0
100
AcDbArc
 50
9.583945000001088
 51
85.92416599999884
  0
ARC
  5
139F
330
18
100
AcDbEntity
  8
1
  6
Continuous
100
AcDbCircle
 10
97.31204798479508
 20
153.9527256446765
 30
0.0
 40
148.0
100
AcDbArc
 50
0.000000000000007
 51
9.583945000001088
  0
LINE
  5
13A0
330
18
100
AcDbEntity
  8
1
  6
Continuous
100
AcDbLine
 10
245.3120479847948
 20
153.9527256446765
 30
0.0
 11
245.3120479847947
 21
140.7880676446765
 31
0.0
  0
ARC
  5
13A1
330
18
100
AcDbEntity
  8
1
  6
Continuous
100
AcDbCircle
 10
224.062047984795
 20
156.1015016446765
 30
0.0
 40
1.0
100
AcDbArc
 50
138.590377890748
 51
180.0
  0
ARC
  5
13A2
330
18
100
AcDbEntity
  8
1
  6
Continuous
100
AcDbCircle
 10
243.562047984795
 20
156.1015016446765
 30
0.0
 40
1.0
100
AcDbArc
 50
0.0
 51
41.40962210928996
  0
LINE
  5
13A3
330
18
100
AcDbEntity
  8
1
  6
Continuous
100
AcDbLine
 10
223.3120479847948
 20
158.7880676446765
 30
0.0
 11
244.3120479847948
 21
158.7880676446765
 31
0.0
  0
CIRCLE
  5
13A9
330
18
100
AcDbEntity
  8
1
  6
Continuous
100
AcDbCircle
 10
239.8120479847948
 20
142.2880676446765
 30
0.0
 40
1.5
  0
CIRCLE
  5
13AA
330
18
100
AcDbEntity
  8
1
  6
Continuous
100
AcDbCircle
 10
239.8120479847948
 20
130.2880676446765
 30
0.0
 40
1.5
  0
CIRCLE
  5
13AB
330
18
100
AcDbEntity
  8
1
  6
Continuous
100
AcDbCircle
 10
227.8120479847948
 20
130.2880676446765
 30
0.0
 40
1.5
  0
CIRCLE
  5
13AC
330
18
100
AcDbEntity
  8
1
  6
Continuous
100
AcDbCircle
 10
227.8120479847948
 20
142.2880676446765
 30
0.0
 40
1.5
  0
LINE
  5
13AD
330
18
100
AcDbEntity
  8
1
  6
Continuous
100
AcDbLine
 10
223.3120479847948
 20
126.7880676446765
 30
0.0
 11
223.3120479847948
 21
143.8313488971656
 31
0.0
  0
LINE
  5
13AE
330
18
100
AcDbEntity
  8
1
  6
Continuous
100
AcDbLine
 10
244.3120479847947
 20
126.7880676446765
 30
0.0
 11
244.3120479847948
 21
143.8313488971656
 31
0.0
  0
LINE
  5
13AF
330
18
100
AcDbEntity
  8
1
  6
Continuous
100
AcDbLine
 10
241.2120479847948
 20
146.7880676446765
 30
0.0
 11
241.8120479847948
 21
146.7880676446765
 31
0.0
  0
LINE
  5
13B1
330
18
100
AcDbEntity
  8
1
  6
Continuous
100
AcDbLine
 10
223.8120479847948
 20
126.2880676446765
 30
0.0
 11
224.0620479847949
 21
126.2880676446765
 31
0.0
  0
LINE
  5
13B3
330
18
100
AcDbEntity
  8
1
  6
Continuous
100
AcDbLine
 10
227.0620479847948
 20
124.4415560577841
 30
0.0
 11
227.0620479847948
 21
126.2880676446765
 31
0.0
  0
LINE
  5
13B4
330
18
100
AcDbEntity
  8
1
  6
Continuous
100
AcDbLine
 10
240.5620479847949
 20
124.4415560577841
 30
0.0
 11
240.5620479847949
 21
126.2880676446765
 31
0.0
  0
LINE
  5
13B5
330
18
100
AcDbEntity
  8
1
  6
Continuous
100
AcDbLine
 10
243.5620479847948
 20
124.6084890921648
 30
0.0
 11
243.5620479847948
 21
126.2880676446765
 31
0.0
  0
LINE
  5
13B6
330
18
100
AcDbEntity
  8
1
  6
Continuous
100
AcDbLine
 10
224.0620479847948
 20
124.6084890921648
 30
0.0
 11
224.0620479847948
 21
126.2880676446765
 31
0.0
  0
ARC
  5
13B7
330
18
100
AcDbEntity
  8
1
  6
Continuous
100
AcDbCircle
 10
233.8120479847949
 20
272.7880676446765
 30
0.0
 40
148.5
100
AcDbArc
 50
266.2354478841736
 51
268.8265777289269
  0
ARC
  5
13B8
330
18
100
AcDbEntity
  8
1
  6
Continuous
100
AcDbCircle
 10
233.8120479847949
 20
273.9880676446765
 30
0.0
 40
148.5
100
AcDbArc
 50
267.3947487349427
 51
268.3863749612836
  0
LINE
  5
13B9
330
18
100
AcDbEntity
  8
1
  6
Continuous
100
AcDbLine
 10
227.0620479847948
 20
126.2880676446765
 30
0.0
 11
240.5620479847949
 21
126.2880676446765
 31
0.0
  0
LINE
  5
13BA
330
18
100
AcDbEntity
  8
1
  6
Continuous
100
AcDbLine
 10
243.5620479847948
 20
126.2880676446765
 30
0.0
 11
243.8120479847947
 21
126.2880676446765
 31
0.0
  0
ARC
  5
13CE
330
18
100
AcDbEntity
  8
1
  6
Continuous
100
AcDbCircle
 10
241.2120479847948
 20
146.1880676446765
 30
0.0
 40
0.6
100
AcDbArc
 50
90.0
 51
246.0781395275293
  0
LINE
  5
13CF
330
18
100
AcDbEntity
  8
1
  6
Continuous
100
AcDbLine
 10
244.0147931743929
 20
144.288398553215
 30
0.0
 11
240.9687537572771
 21
145.6396080574173
 31
0.0
  0
LINE
  5
13D1
330
18
100
AcDbEntity
  8
1
  6
Continuous
100
AcDbLine
 10
226.4120479847948
 20
146.7880676446765
 30
0.0
 11
225.8120479847948
 21
146.7880676446765
 31
0.0
  0
ARC
  5
13D2
330
18
100
AcDbEntity
  8
1
  6
Continuous
100
AcDbCircle
 10
226.4120479847948
 20
146.1880676446765
 30
0.0
 40
0.6
100
AcDbArc
 50
293.9218604724707
 51
90.0
  0
LINE
  5
13D3
330
18
100
AcDbEntity
  8
1
  6
Continuous
100
AcDbLine
 10
223.6093027951967
 20
144.288398553215
 30
0.0
 11
226.6553422123124
 21
145.6396080574173
 31
0.0
  0
LINE
  5
13D4
330
18
100
AcDbEntity
  8
1
  6
Continuous
100
AcDbLine
 10
228.3120479847948
 20
123.3899544491241
 30
0.0
 11
228.3120479847949
 21
124.3899544491241
 31
0.0
  0
LINE
  5
13D5
330
18
100
AcDbEntity
  8
1
  6
Continuous
100
AcDbLine
 10
239.3120479847949
 20
123.3899544491241
 30
0.0
 11
239.3120479847949
 21
124.3899544491241
 31
0.0
  0
LINE
  5
13D6
330
18
100
AcDbEntity
  8
1
  6
Continuous
100
AcDbLine
 10
228.3120479847949
 20
125.589954449124
 30
0.0
 11
228.3120479847948
 21
126.2880676446765
 31
0.0
  0
LINE
  5
13D7
330
18
100
AcDbEntity
  8
1
  6
Continuous
100
AcDbLine
 10
239.3120479847949
 20
125.589954449124
 30
0.0
 11
239.3120479847949
 21
126.2880676446765
 31
0.0
  0
LINE
  5
13D8
330
18
100
AcDbEntity
  8
4
  6
CENTER
 48
0.1
100
AcDbLine
 10
236.0120479847948
 20
142.2880676446765
 30
0.0
 11
243.6120479847948
 21
142.2880676446765
 31
0.0
  0
LINE
  5
13D9
330
18
100
AcDbEntity
  8
4
  6
CENTER
 48
0.1
100
AcDbLine
 10
239.8120479847948
 20
138.4880676446765
 30
0.0
 11
239.8120479847948
 21
146.0880676446765
 31
0.0
  0
LINE
  5
13DA
330
18
100
AcDbEntity
  8
4
  6
CENTER
 48
0.1
100
AcDbLine
 10
224.0120479847948
 20
142.2880676446765
 30
0.0
 11
231.6120479847948
 21
142.2880676446765
 31
0.0
  0
LINE
  5
13DB
330
18
100
AcDbEntity
  8
4
  6
CENTER
 48
0.1
100
AcDbLine
 10
227.8120479847948
 20
138.4880676446765
 30
0.0
 11
227.8120479847948
 21
146.0880676446765
 31
0.0
  0
LINE
  5
13DC
330
18
100
AcDbEntity
  8
4
  6
CENTER
 48
0.1
100
AcDbLine
 10
224.0120479847948
 20
130.2880676446765
 30
0.0
 11
231.6120479847948
 21
130.2880676446765
 31
0.0
  0
LINE
  5
13DD
330
18
100
AcDbEntity
  8
4
  6
CENTER
 48
0.1
100
AcDbLine
 10
227.8120479847948
 20
126.4880676446765
 30
0.0
 11
227.8120479847948
 21
134.0880676446765
 31
0.0
  0
LINE
  5
13DE
330
18
100
AcDbEntity
  8
4
  6
CENTER
 48
0.1
100
AcDbLine
 10
236.0120479847948
 20
130.2880676446765
 30
0.0
 11
243.6120479847948
 21
130.2880676446765
 31
0.0
  0
LINE
  5
13DF
330
18
100
AcDbEntity
  8
4
  6
CENTER
 48
0.1
100
AcDbLine
 10
239.8120479847948
 20
126.4880676446765
 30
0.0
 11
239.8120479847948
 21
134.0880676446765
 31
0.0
  0
LINE
  5
1449
330
18
100
AcDbEntity
  8
1
  6
Continuous
100
AcDbLine
 10
166.0719709035843
 20
250.0349889767671
 30
0.0
 11
166.0719709035842
 21
230.534988976767
 31
0.0
  0
LINE
  5
144A
330
18
100
AcDbEntity
  8
1
  6
Continuous
100
AcDbLine
 10
169.0719709035843
 20
250.0349889767671
 30
0.0
 11
169.0719709035843
 21
230.534988976767
 31
0.0
  0
LINE
  5
144B
330
18
100
AcDbEntity
  8
1
  6
Continuous
100
AcDbLine
 10
162.0719709035843
 20
246.0349889767671
 30
0.0
 11
162.0719709035843
 21
234.534988976767
 31
0.0
  0
LINE
  5
144C
330
18
100
AcDbEntity
  8
1
  6
Continuous
100
AcDbLine
 10
162.5719709035843
 20
246.5349889767671
 30
0.0
 11
166.0719709035843
 21
246.5349889767671
 31
0.0
  0
LINE
  5
144D
330
18
100
AcDbEntity
  8
1
  6
Continuous
100
AcDbLine
 10
162.5719709035843
 20
234.034988976767
 30
0.0
 11
166.0719709035842
 21
234.0349889767671
 31
0.0
  0
ARC
  5
144E
330
18
100
AcDbEntity
  8
1
  6
Continuous
100
AcDbCircle
 10
162.5719709035843
 20
246.0349889767671
 30
0.0
 40
0.5
100
AcDbArc
 50
89.99999999999994
 51
180.0
  0
ARC
  5
144F
330
18
100
AcDbEntity
  8
1
  6
Continuous
100
AcDbCircle
 10
162.5719709035843
 20
234.534988976767
 30
0.0
 40
0.5
100
AcDbArc
 50
180.0
 51
270.0000000000014
  0
LINE
  5
1450
330
18
100
AcDbEntity
  8
1
  6
Continuous
100
AcDbLine
 10
169.0719709035843
 20
250.0349889767671
 30
0.0
 11
166.0719709035843
 21
250.0349889767671
 31
0.0
  0
LINE
  5
1451
330
18
100
AcDbEntity
  8
1
  6
Continuous
100
AcDbLine
 10
169.0719709035843
 20
230.534988976767
 30
0.0
 11
166.0719709035842
 21
230.534988976767
 31
0.0
  0
LINE
  5
1452
330
18
100
AcDbEntity
  8
1
  6
Continuous
100
AcDbLine
 10
168.5719709035843
 20
249.2849889767671
 30
0.0
 11
166.5719709035843
 21
249.2849889767671
 31
0.0
  0
LINE
  5
1453
330
18
100
AcDbEntity
  8
1
  6
Continuous
100
AcDbLine
 10
168.5719709035843
 20
231.2849889767671
 30
0.0
 11
166.5719709035843
 21
231.2849889767671
 31
0.0
  0
LINE
  5
1454
330
18
100
AcDbEntity
  8
4
  6
CENTER
 48
0.2
100
AcDbLine
 10
160.051276084089
 20
240.2849889767671
 30
0.0
 11
171.851276084089
 21
240.2849889767671
 31
0.0
  0
LINE
  5
1455
330
18
100
AcDbEntity
  8
4
  6
CENTER
 48
0.1
100
AcDbLine
 10
171.0719709035843
 20
246.2849889767671
 30
0.0
 11
164.0719709035843
 21
246.2849889767671
 31
0.0
  0
LINE
  5
1456
330
18
100
AcDbEntity
  8
4
  6
CENTER
 48
0.1
100
AcDbLine
 10
171.0719709035843
 20
234.2849889767671
 30
0.0
 11
164.0719709035842
 21
234.2849889767671
 31
0.0
  0
LINE
  5
1457
330
18
100
AcDbEntity
  8
1
  6
Continuous
100
AcDbLine
 10
137.8705269035843
 20
253.7849889767671
 30
0.0
 11
137.8705269035843
 21
226.7849889767671
 31
0.0
  0
LINE
  5
1459
330
18
100
AcDbEntity
  8
1
  6
Continuous
100
AcDbLine
 10
125.3151058856791
 20
253.7849889767671
 30
0.0
 11
137.8705269035843
 21
253.7849889767671
 31
0.0
  0
LINE
  5
145A
330
18
100
AcDbEntity
  8
1
  6
Continuous
100
AcDbLine
 10
125.3151058856791
 20
226.7849889767671
 30
0.0
 11
137.8705269035843
 21
226.7849889767671
 31
0.0
  0
LINE
  5
145B
330
18
100
AcDbEntity
  8
4
  6
CENTER
 48
0.2
100
AcDbLine
 10
142.0719709035842
 20
240.2849889767671
 30
0.0
 11
117.3719709035843
 21
240.2849889767671
 31
0.0
  0
ARC
  5
145C
330
18
100
AcDbEntity
  8
1
  6
Continuous
100
AcDbCircle
 10
272.8676389035844
 20
240.2849889767671
 30
0.0
 40
150.0
100
AcDbArc
 50
175.5434708443985
 51
184.4565291556014
  0
ARC
  5
145D
330
18
100
AcDbEntity
  8
1
  6
Continuous
100
AcDbCircle
 10
125.3151058856791
 20
251.7849889767671
 30
0.0
 40
2.0
100
AcDbArc
 50
90.0
 51
175.5434708443989
  0
ARC
  5
145E
330
18
100
AcDbEntity
  8
1
  6
Continuous
100
AcDbCircle
 10
125.3151058856791
 20
228.7849889767671
 30
0.0
 40
2.0
100
AcDbArc
 50
184.4565291556017
 51
270.0
  0
LINE
  5
145F
330
18
100
AcDbEntity
  8
1
  6
Continuous
100
AcDbLine
 10
139.0719709035843
 20
250.784988976767
 30
0.0
 11
139.0719709035843
 21
229.784988976767
 31
0.0
  0
ARC
  5
1462
330
18
100
AcDbEntity
  8
1
  6
Continuous
100
AcDbCircle
 10
137.8719709035842
 20
247.0849889767671
 30
0.0
 40
1.199999999999999
100
AcDbArc
 50
0.0
 51
90.0
  0
ARC
  5
1463
330
18
100
AcDbEntity
  8
1
  6
Continuous
100
AcDbCircle
 10
137.8719709035843
 20
233.4849889767671
 30
0.0
 40
1.199999999999999
100
AcDbArc
 50
270.0000000000001
 51
0.0000000000000763
  0
LINE
  5
1464
330
18
100
AcDbEntity
  8
1
  6
Continuous
100
AcDbLine
 10
139.0719709035843
 20
250.784988976767
 30
0.0
 11
137.8719709035843
 21
250.784988976767
 31
0.0
  0
LINE
  5
1465
330
18
100
AcDbEntity
  8
1
  6
Continuous
100
AcDbLine
 10
139.0719709035843
 20
229.784988976767
 30
0.0
 11
137.8719709035843
 21
229.784988976767
 31
0.0
  0
LINE
  5
1466
330
18
100
AcDbEntity
  8
4
  6
CENTER
 48
0.1
100
AcDbLine
 10
140.1979009035844
 20
234.2849889767671
 30
0.0
 11
136.3104219035843
 21
234.2849889767671
 31
0.0
  0
LINE
  5
1467
330
18
100
AcDbEntity
  8
4
  6
CENTER
 48
0.1
100
AcDbLine
 10
140.1979009035844
 20
246.2849889767671
 30
0.0
 11
136.3104219035843
 21
246.2849889767671
 31
0.0
  0
ARC
  5
146B
330
18
100
AcDbEntity
  8
1
  6
Continuous
100
AcDbCircle
 10
270.3719709035843
 20
240.2849889767671
 30
0.0
 40
150.0
100
AcDbArc
 50
176.9011171132182
 51
183.0988828867817
  0
LINE
  5
146F
330
18
100
AcDbEntity
  8
1
  6
Continuous
100
AcDbLine
 10
120.997156818704
 20
248.858055301893
 30
0.0
 11
122.373963801016
 21
249.1199214656421
 31
0.0
  0
ARC
  5
1470
330
18
100
AcDbEntity
  8
1
  6
Continuous
100
AcDbCircle
 10
121.0905810867287
 20
248.366860934922
 30
0.0
 40
0.5
100
AcDbArc
 50
100.7689251957753
 51
176.9011171132124
  0
ARC
  5
1471
330
18
100
AcDbEntity
  8
1
  6
Continuous
100
AcDbCircle
 10
122.1871152649665
 20
250.1023101995841
 30
0.0
 40
1.0
100
AcDbArc
 50
280.7689251957734
 51
356.2722642205269
  0
LINE
  5
1472
330
18
100
AcDbEntity
  8
1
  6
Continuous
100
AcDbLine
 10
120.997156818704
 20
231.7119226516412
 30
0.0
 11
122.373963801016
 21
231.4500564878921
 31
0.0
  0
ARC
  5
1473
330
18
100
AcDbEntity
  8
1
  6
Continuous
100
AcDbCircle
 10
122.1871152649665
 20
230.4676677539501
 30
0.0
 40
1.0
100
AcDbArc
 50
3.727735779472948
 51
79.23107480422655
  0
ARC
  5
1474
330
18
100
AcDbEntity
  8
1
  6
Continuous
100
AcDbCircle
 10
121.0905810867287
 20
232.2031170186121
 30
0.0
 40
0.5
100
AcDbArc
 50
183.0988828867875
 51
259.2310748042247
  0
LINE
  5
1476
330
18
100
AcDbEntity
  8
1
  6
Continuous
100
AcDbLine
 10
134.8090269035843
 20
251.2831093432544
 30
0.0
 11
131.6365309782883
 21
251.2831093432544
 31
0.0
  0
LINE
  5
1477
330
18
100
AcDbEntity
  8
1
  6
Continuous
100
AcDbLine
 10
134.8090269035843
 20
229.2868686102802
 30
0.0
 11
131.6365309782883
 21
229.2868686102802
 31
0.0
  0
LINE
  5
1479
330
18
100
AcDbEntity
  8
1
  6
Continuous
100
AcDbLine
 10
136.3090269035843
 20
230.7868686102801
 30
0.0
 11
136.3090269035843
 21
249.7831093432544
 31
0.0
  0
ARC
  5
147A
330
18
100
AcDbEntity
  8
1
  6
Continuous
100
AcDbCircle
 10
279.3627433776801
 20
240.2849889767671
 30
0.0
 40
150.0
100
AcDbArc
 50
176.5143752246818
 51
183.485624775318
  0
ARC
  5
14CF
330
18
100
AcDbEntity
  8
1
  6
Continuous
100
AcDbCircle
 10
131.6365309782883
 20
249.2831093432544
 30
0.0
 40
2.0
100
AcDbArc
 50
90.0
 51
176.5143752246817
  0
ARC
  5
14D0
330
18
100
AcDbEntity
  8
1
  6
Continuous
100
AcDbCircle
 10
131.6365309782883
 20
231.2868686102802
 30
0.0
 40
2.0
100
AcDbArc
 50
183.485624775317
 51
270.0
  0
LINE
  5
14D1
330
18
100
AcDbEntity
  8
1
  6
Continuous
100
AcDbLine
 10
128.8470581179151
 20
250.3871207386854
 30
0.0
 11
124.8501937422835
 21
251.9689908760056
 31
0.0
  0
LINE
  5
14D2
330
18
100
AcDbEntity
  8
1
  6
Continuous
100
AcDbLine
 10
128.8470581179151
 20
230.1828572148489
 30
0.0
 11
124.8501937422835
 21
228.6009870775286
 31
0.0
  0
ARC
  5
14D5
330
18
100
AcDbEntity
  8
1
  6
Continuous
100
AcDbCircle
 10
134.8090269035843
 20
249.7831093432544
 30
0.0
 40
1.5
100
AcDbArc
 50
0.0
 51
90.0
  0
ARC
  5
14D6
330
18
100
AcDbEntity
  8
1
  6
Continuous
100
AcDbCircle
 10
134.8090269035843
 20
230.7868686102801
 30
0.0
 40
1.5
100
AcDbArc
 50
270.0
 51
0.0
  0
LINE
  5
14D8
330
18
100
AcDbEntity
  8
1
  6
Continuous
100
AcDbLine
 10
137.2629216306157
 20
252.9907498237024
 30
0.0
 11
136.0242374495213
 21
251.3715876493837
 31
0.0
  0
LINE
  5
14D9
330
18
100
AcDbEntity
  8
1
  6
Continuous
100
AcDbLine
 10
137.2629216306157
 20
227.5792281298318
 30
0.0
 11
136.0242374495213
 21
229.1983903041504
 31
0.0
  0
ARC
  5
14DD
330
18
100
AcDbEntity
  8
1
  6
Continuous
100
AcDbCircle
 10
64.32090458854189
 20
167.7880676446765
 30
0.0
 40
2.0
100
AcDbArc
 50
175.6783565510559
 51
270.0
  0
LINE
  5
14DF
330
18
100
AcDbEntity
  8
1
  6
Continuous
100
AcDbLine
 10
63.03596676612887
 20
177.3257453484761
 30
0.0
 11
62.32659111012821
 21
167.9387784598748
 31
0.0
  0
LINE
  5
14E0
330
18
100
AcDbEntity
  8
1
  6
Continuous
100
AcDbLine
 10
78.32090458854191
 20
177.7880676446765
 30
0.0
 11
80.6072640413515
 21
177.7880676446765
 31
0.0
  0
LINE
  5
14E1
330
18
100
AcDbEntity
  8
1
  6
Continuous
100
AcDbLine
 10
81.10584241095493
 20
177.3257453484761
 30
0.0
 11
81.8152180669556
 21
167.9387784598748
 31
0.0
  0
ARC
  5
14E2
330
18
100
AcDbEntity
  8
1
  6
Continuous
100
AcDbCircle
 10
79.82090458854191
 20
167.7880676446765
 30
0.0
 40
2.0
100
AcDbArc
 50
270.0
 51
4.32164344894402
  0
ARC
  5
14E3
330
18
100
AcDbEntity
  8
1
  6
Continuous
100
AcDbCircle
 10
63.53454513573229
 20
177.2880676446765
 30
0.0
 40
0.5
100
AcDbArc
 50
90.0
 51
175.6783565510558
  0
ARC
  5
14E4
330
18
100
AcDbEntity
  8
1
  6
Continuous
100
AcDbCircle
 10
80.6072640413515
 20
177.2880676446765
 30
0.0
 40
0.5
100
AcDbArc
 50
4.321643448944142
 51
90.0
  0
LINE
  5
1504
330
18
100
AcDbEntity
  8
1
  6
Continuous
100
AcDbLine
 10
263.5787031798692
 20
177.3257453484761
 30
0.0
 11
262.8693275238686
 21
167.9387784598748
 31
0.0
  0
ARC
  5
1505
330
18
100
AcDbEntity
  8
1
  6
Continuous
100
AcDbCircle
 10
264.0772815494726
 20
177.2880676446765
 30
0.0
 40
0.5
100
AcDbArc
 50
90.0
 51
175.6783565510558
  0
LINE
  5
1506
330
18
100
AcDbEntity
  8
1
  6
Continuous
100
AcDbLine
 10
281.1500004550919
 20
177.7880676446764
 30
0.0
 11
264.0772815494726
 21
177.7880676446765
 31
0.0
  0
ARC
  5
1507
330
18
100
AcDbEntity
  8
1
  6
Continuous
100
AcDbCircle
 10
264.8636410022823
 20
167.7880676446765
 30
0.0
 40
2.0
100
AcDbArc
 50
175.6783565510559
 51
270.0
  0
LINE
  5
1508
330
18
100
AcDbEntity
  8
1
  6
Continuous
100
AcDbLine
 10
280.3636410022822
 20
165.7880676446765
 30
0.0
 11
264.8636410022823
 21
165.7880676446765
 31
0.0
  0
ARC
  5
1509
330
18
100
AcDbEntity
  8
1
  6
Continuous
100
AcDbCircle
 10
280.3636410022822
 20
167.7880676446765
 30
0.0
 40
2.0
100
AcDbArc
 50
270.0
 51
4.32164344894402
  0
LINE
  5
150A
330
18
100
AcDbEntity
  8
1
  6
Continuous
100
AcDbLine
 10
281.6485788246954
 20
177.3257453484761
 30
0.0
 11
282.357954480696
 21
167.9387784598748
 31
0.0
  0
ARC
  5
150B
330
18
100
AcDbEntity
  8
1
  6
Continuous
100
AcDbCircle
 10
281.1500004550919
 20
177.2880676446765
 30
0.0
 40
0.5
100
AcDbArc
 50
4.321643448944142
 51
90.0
  0
LINE
  5
1813
330
18
100
AcDbEntity
  8
1
  6
Continuous
100
AcDbLine
 10
137.8719709035842
 20
247.0849889767671
 30
0.0
 11
137.8719709035843
 21
233.4849889767671
 31
0.0
  0
LINE
  5
1814
330
18
100
AcDbEntity
  8
1
  6
Continuous
100
AcDbLine
 10
137.8719709035843
 20
232.2849889767671
 30
0.0
 11
137.8705269035843
 21
232.2849889767671
 31
0.0
  0
LINE
  5
1815
330
18
100
AcDbEntity
  8
1
  6
Continuous
100
AcDbLine
 10
137.8719709035842
 20
248.2849889767671
 30
0.0
 11
137.8705269035843
 21
248.2849889767671
 31
0.0
  0
LINE
  5
1832
330
18
100
AcDbEntity
  8
1
  6
Continuous
100
AcDbLine
 10
41.50888681022354
 20
243.3606989767671
 30
0.0
 11
54.75888681022354
 21
243.3606989767671
 31
0.0
  0
LINE
  5
1833
330
18
100
AcDbEntity
  8
1
  6
Continuous
100
AcDbLine
 10
41.50888681022354
 20
237.210698976767
 30
0.0
 11
54.75888681022354
 21
237.210698976767
 31
0.0
  0
LINE
  5
1834
330
18
100
AcDbEntity
  8
4
  6
CENTER
 48
0.2
100
AcDbLine
 10
9.990334240361562
 20
240.2849889767671
 30
0.0
 11
61.53578735298459
 21
240.2849889767671
 31
0.0
  0
ARC
  5
1835
330
18
100
AcDbEntity
  8
1
  6
Continuous
100
AcDbCircle
 10
21.22005481022358
 20
246.1356989767671
 30
0.0
 40
1.5
100
AcDbArc
 50
95.78798799999971
 51
168.1550959999999
  0
ARC
  5
1836
330
18
100
AcDbEntity
  8
1
  6
Continuous
100
AcDbCircle
 10
25.71996781022358
 20
218.5349889767671
 30
0.0
 40
33.0
100
AcDbArc
 50
71.44026699999975
 51
101.3764135863559
  0
ARC
  5
1837
330
18
100
AcDbEntity
  8
1
  6
Continuous
100
AcDbCircle
 10
21.22005481022358
 20
234.434278976767
 30
0.0
 40
1.5
100
AcDbArc
 50
191.844904
 51
264.2120120000003
  0
ARC
  5
1838
330
18
100
AcDbEntity
  8
1
  6
Continuous
100
AcDbCircle
 10
25.71996781022358
 20
262.0349889767671
 30
0.0
 40
33.0
100
AcDbArc
 50
258.623586413644
 51
288.5597330000002
  0
ARC
  5
1839
330
18
100
AcDbEntity
  8
1
  6
Continuous
100
AcDbCircle
 10
49.1131998102236
 20
240.2856989767671
 30
0.0
 40
30.0
100
AcDbArc
 50
168.1550959999999
 51
191.844904
  0
ARC
  5
183A
330
18
100
AcDbEntity
  8
1
  6
Continuous
100
AcDbCircle
 10
48.8088868102236
 20
240.2856989767671
 30
0.0
 40
33.0
100
AcDbArc
 50
165.2065519999998
 51
194.8810299653749
  0
ARC
  5
183B
330
18
100
AcDbEntity
  8
1
  6
Continuous
100
AcDbCircle
 10
19.80330881022359
 20
232.6242229767671
 30
0.0
 40
3.0
100
AcDbArc
 50
195.7306688208922
 51
258.6254469999998
  0
ARC
  5
183C
330
18
100
AcDbEntity
  8
1
  6
Continuous
100
AcDbCircle
 10
19.80330881022359
 20
247.9457549767671
 30
0.0
 40
3.0
100
AcDbArc
 50
101.3950099129828
 51
165.2065519999998
  0
LINE
  5
183D
330
18
100
AcDbEntity
  8
1
  6
Continuous
100
AcDbLine
 10
22.41751181022357
 20
246.1356989767671
 30
0.0
 11
22.41751181022357
 21
234.4356989767671
 31
0.0
  0
ARC
  5
183E
330
18
100
AcDbEntity
  8
1
  6
Continuous
100
AcDbCircle
 10
4.995604810223539
 20
240.3384959767671
 30
0.0
 40
33.0
100
AcDbArc
 50
344.310431
 51
348.8878930000002
  0
ARC
  5
183F
330
18
100
AcDbEntity
  8
1
  6
Continuous
100
AcDbCircle
 10
20.91751181022357
 20
234.434278976767
 30
0.0
 40
1.5
100
AcDbArc
 50
275.7879879999996
 51
0.0
  0
ARC
  5
1840
330
18
100
AcDbEntity
  8
1
  6
Continuous
100
AcDbCircle
 10
35.83018381022361
 20
231.6741009767671
 30
0.0
 40
1.0
100
AcDbArc
 50
288.4178259999996
 51
344.4893089999998
  0
LINE
  5
1841
330
18
100
AcDbEntity
  8
1
  6
Continuous
100
AcDbLine
 10
41.8088868102236
 20
236.1106989767671
 30
0.0
 11
41.8088868102236
 21
235.2856989767671
 31
0.0
  0
LINE
  5
1842
330
18
100
AcDbEntity
  8
1
  6
Continuous
100
AcDbLine
 10
38.35817181022344
 20
234.7856989767671
 30
0.0
 11
41.3088868102235
 21
234.7856989767671
 31
0.0
  0
ARC
  5
1843
330
18
100
AcDbEntity
  8
1
  6
Continuous
100
AcDbCircle
 10
38.35817181022355
 20
233.7856989767671
 30
0.0
 40
1.0
100
AcDbArc
 50
90.0
 51
168.8878930000001
  0
LINE
  5
1844
330
18
100
AcDbEntity
  8
1
  6
Continuous
100
AcDbLine
 10
41.50888681022364
 20
237.210698976767
 30
0.0
 11
41.8088868102236
 21
236.1106989767671
 31
0.0
  0
ARC
  5
1845
330
18
100
AcDbEntity
  8
1
  6
Continuous
100
AcDbCircle
 10
41.3088868102236
 20
235.2856989767671
 30
0.0
 40
0.5
100
AcDbArc
 50
270.0
 51
0.0
  0
ARC
  5
1846
330
18
100
AcDbEntity
  8
1
  6
Continuous
100
AcDbCircle
 10
4.995604810223539
 20
240.3384959767671
 30
0.0
 40
33.0
100
AcDbArc
 50
10.92518500000005
 51
15.51069100000005
  0
ARC
  5
1847
330
18
100
AcDbEntity
  8
1
  6
Continuous
100
AcDbCircle
 10
20.91751181022357
 20
246.1356989767671
 30
0.0
 40
1.5
100
AcDbArc
 50
0.0
 51
84.21201200000027
  0
ARC
  5
1848
330
18
100
AcDbEntity
  8
1
  6
Continuous
100
AcDbCircle
 10
35.83018381022361
 20
248.8958779767671
 30
0.0
 40
1.0
100
AcDbArc
 50
15.51069100000005
 51
71.5821740000003
  0
LINE
  5
1849
330
18
100
AcDbEntity
  8
1
  6
Continuous
100
AcDbLine
 10
38.37937181022357
 20
245.7824159767671
 30
0.0
 11
41.3088868102236
 21
245.7824159767671
 31
0.0
  0
ARC
  5
184A
330
18
100
AcDbEntity
  8
1
  6
Continuous
100
AcDbCircle
 10
38.37937181022357
 20
246.7824159767671
 30
0.0
 40
1.0
100
AcDbArc
 50
190.925185
 51
270.0
  0
LINE
  5
184B
330
18
100
AcDbEntity
  8
1
  6
Continuous
100
AcDbLine
 10
41.8088868102236
 20
244.4606989767671
 30
0.0
 11
41.8088868102236
 21
245.2824159767671
 31
0.0
  0
LINE
  5
184C
330
18
100
AcDbEntity
  8
1
  6
Continuous
100
AcDbLine
 10
41.50888681022364
 20
243.3606989767671
 30
0.0
 11
41.8088868102236
 21
244.4606989767671
 31
0.0
  0
ARC
  5
184D
330
18
100
AcDbEntity
  8
1
  6
Continuous
100
AcDbCircle
 10
41.3088868102236
 20
245.2824159767671
 30
0.0
 40
0.5
100
AcDbArc
 50
0.0
 51
90.0
  0
LINE
  5
184E
330
18
100
AcDbEntity
  8
1
  6
Continuous
100
AcDbLine
 10
54.75888681022354
 20
243.3606989767671
 30
0.0
 11
56.88646381022364
 21
242.3769579767671
 31
0.0
  0
ARC
  5
184F
330
18
100
AcDbEntity
  8
1
  6
Continuous
100
AcDbCircle
 10
51.60888681022356
 20
240.2856989767671
 30
0.0
 40
6.0
100
AcDbArc
 50
346.307093
 51
13.69290699999985
  0
LINE
  5
1850
330
18
100
AcDbEntity
  8
1
  6
Continuous
100
AcDbLine
 10
54.75888681022354
 20
237.210698976767
 30
0.0
 11
56.88646381022364
 21
238.1944399767671
 31
0.0
  0
ARC
  5
1851
330
18
100
AcDbEntity
  8
1
  6
Continuous
100
AcDbCircle
 10
50.20888681022359
 20
240.2856989767671
 30
0.0
 40
6.0
100
AcDbArc
 50
333.2378969999999
 51
26.76210300000002
  0
ARC
  5
1852
330
18
100
AcDbEntity
  8
1
  6
Continuous
100
AcDbCircle
 10
56.46677881022355
 20
241.4692889767671
 30
0.0
 40
1.0
100
AcDbArc
 50
13.69290699999995
 51
65.18530699999999
  0
ARC
  5
1853
330
18
100
AcDbEntity
  8
1
  6
Continuous
100
AcDbCircle
 10
56.46677881022355
 20
239.1021099767671
 30
0.0
 40
1.0
100
AcDbArc
 50
294.8146929999999
 51
346.307093
  0
LINE
  5
1A1E
330
18
100
AcDbEntity
  8
1
  6
Continuous
100
AcDbLine
 10
378.7130648468194
 20
180.2240676446766
 30
0.0
 11
378.7130648468194
 21
144.2880676446765
 31
0.0
  0
ARC
  5
1A1F
330
18
100
AcDbEntity
  8
1
  6
Continuous
100
AcDbCircle
 10
313.7960668468195
 20
150.0239326446765
 30
0.0
 40
80.0
100
AcDbArc
 50
2.693666999998384
 51
22.43031000000065
  0
LINE
  5
1A20
330
18
100
AcDbEntity
  8
1
  6
Continuous
100
AcDbLine
 10
347.5116208468195
 20
177.7880676446765
 30
0.0
 11
347.5116208468195
 21
165.7880676446765
 31
0.0
  0
LINE
  5
1A21
330
18
100
AcDbEntity
  8
1
  6
Continuous
100
AcDbLine
 10
350.5116208468194
 20
179.5880676446765
 30
0.0
 11
350.5116208468194
 21
165.7880676446765
 31
0.0
  0
LINE
  5
1A22
330
18
100
AcDbEntity
  8
1
  6
Continuous
100
AcDbLine
 10
354.5116208468194
 20
179.5880676446765
 30
0.0
 11
354.5116208468194
 21
166.7880676446765
 31
0.0
  0
LINE
  5
1A23
330
18
100
AcDbEntity
  8
3
  6
DASHED
 48
0.1
100
AcDbLine
 10
349.0116208468194
 20
173.2880676446765
 30
0.0
 11
349.0116208468194
 21
170.2880676446765
 31
0.0
  0
LINE
  5
1A30
330
18
100
AcDbEntity
  8
1
  6
Continuous
100
AcDbLine
 10
394.5423038468194
 20
143.4946806446765
 30
0.0
 11
395.7999088468194
 21
143.2729306446765
 31
0.0
  0
ARC
  5
1A31
330
18
100
AcDbEntity
  8
1
  6
Continuous
100
AcDbCircle
 10
394.7159528468194
 20
144.4794886446765
 30
0.0
 40
1.0
100
AcDbArc
 50
180.0
 51
259.999999999998
  0
LINE
  5
1A32
330
18
100
AcDbEntity
  8
1
  6
Continuous
100
AcDbLine
 10
387.1505328468193
 20
142.1094566446766
 30
0.0
 11
393.5748038468194
 21
153.2366206446766
 31
0.0
  0
CIRCLE
  5
1A33
330
18
100
AcDbEntity
  8
1
  6
Continuous
100
AcDbCircle
 10
383.2130648468195
 20
144.2880676446765
 30
0.0
 40
2.5
  0
CIRCLE
  5
1A34
330
18
100
AcDbEntity
  8
1
  6
Continuous
100
AcDbCircle
 10
383.2130648468195
 20
144.2880676446765
 30
0.0
 40
1.55
  0
LINE
  5
1A35
330
18
100
AcDbEntity
  8
1
  6
Continuous
100
AcDbLine
 10
378.7116208468193
 20
146.7880676446765
 30
0.0
 11
378.7116208468193
 21
126.2880676446765
 31
0.0
  0
LINE
  5
1A36
330
18
100
AcDbEntity
  8
1
  6
Continuous
100
AcDbLine
 10
377.5116208468194
 20
157.7880676446765
 30
0.0
 11
377.5116208468194
 21
126.2880676446765
 31
0.0
  0
LINE
  5
1A37
330
18
100
AcDbEntity
  8
1
  6
Continuous
100
AcDbLine
 10
393.7159528468196
 20
155.6838816446765
 30
0.0
 11
393.7159528468196
 21
129.4794886446765
 31
0.0
  0
LINE
  5
1A38
330
18
100
AcDbEntity
  8
4
  6
CENTER
 48
0.1
100
AcDbLine
 10
383.2130648468194
 20
147.7880676446765
 30
0.0
 11
383.2130648468194
 21
140.7880676446765
 31
0.0
  0
ARC
  5
1A39
330
18
100
AcDbEntity
  8
1
  6
Continuous
100
AcDbCircle
 10
383.2130648468195
 20
144.2880676446765
 30
0.0
 40
4.5
100
AcDbArc
 50
180.0
 51
331.0441320000032
  0
LINE
  5
1A3A
330
18
100
AcDbEntity
  8
1
  6
Continuous
100
AcDbLine
 10
379.7130648468193
 20
140.7880676446765
 30
0.0
 11
393.2140188468193
 21
132.9932886446766
 31
0.0
  0
LINE
  5
1A3B
330
18
100
AcDbEntity
  8
1
  6
Continuous
100
AcDbLine
 10
379.2130648468194
 20
121.7880676446765
 30
0.0
 11
390.7159528468196
 21
121.7880676446765
 31
0.0
  0
LINE
  5
1A3C
330
18
100
AcDbEntity
  8
1
  6
Continuous
100
AcDbLine
 10
393.7191008468193
 20
117.9607556446765
 30
0.0
 11
393.7140188468193
 21
132.1276216446765
 31
0.0
  0
LINE
  5
1A3D
330
18
100
AcDbEntity
  8
1
  6
Continuous
100
AcDbLine
 10
396.2116208468194
 20
142.7422924099639
 30
0.0
 11
396.2116208468194
 21
120.5800616446766
 31
0.0
  0
LINE
  5
1A3E
330
18
100
AcDbEntity
  8
1
  6
Continuous
100
AcDbLine
 10
391.7159528468196
 20
117.7880676446765
 30
0.0
 11
393.2188408468194
 21
117.7880676446765
 31
0.0
  0
ARC
  5
1A3F
330
18
100
AcDbEntity
  8
1
  6
Continuous
100
AcDbCircle
 10
393.2188408468194
 20
120.7880676446765
 30
0.0
 40
3.0
100
AcDbArc
 50
270.0
 51
356.0241740000014
  0
ARC
  5
1A40
330
18
100
AcDbEntity
  8
1
  6
Continuous
100
AcDbCircle
 10
393.7159528468196
 20
121.2880676446765
 30
0.0
 40
0.5
100
AcDbArc
 50
89.79651499999944
 51
90.0
  0
ARC
  5
1A41
330
18
100
AcDbEntity
  8
1
  6
Continuous
100
AcDbCircle
 10
393.7159528468196
 20
123.7880676446765
 30
0.0
 40
0.5
100
AcDbArc
 50
270.0
 51
270.1418180000004
  0
ARC
  5
1A42
330
18
100
AcDbEntity
  8
1
  6
Continuous
100
AcDbCircle
 10
391.7159528468196
 20
118.7880676446765
 30
0.0
 40
1.0
100
AcDbArc
 50
180.0
 51
270.0
  0
LINE
  5
1A43
330
18
100
AcDbEntity
  8
1
  6
Continuous
100
AcDbLine
 10
390.7159528468196
 20
118.7880676446765
 30
0.0
 11
390.7159528468196
 21
125.1680676446765
 31
0.0
  0
ARC
  5
1A44
330
18
100
AcDbEntity
  8
1
  6
Continuous
100
AcDbCircle
 10
395.7130848468194
 20
142.7805266446765
 30
0.0
 40
0.5
100
AcDbArc
 50
355.6143982527078
 51
79.99999999999818
  0
ARC
  5
1A45
330
18
100
AcDbEntity
  8
1
  6
Continuous
100
AcDbCircle
 10
392.7140188468194
 20
132.1272626446766
 30
0.0
 40
1.0
100
AcDbArc
 50
0.0205560000032983
 51
59.99999999999944
  0
LINE
  5
1A46
330
18
100
AcDbEntity
  8
1
  6
Continuous
100
AcDbLine
 10
378.7130648468194
 20
140.7880676446765
 30
0.0
 11
378.7130648468194
 21
122.2880676446765
 31
0.0
  0
ARC
  5
1A47
330
18
100
AcDbEntity
  8
1
  6
Continuous
100
AcDbCircle
 10
379.2130648468195
 20
122.2880676446765
 30
0.0
 40
0.5
100
AcDbArc
 50
180.0
 51
270.0
  0
LINE
  5
1A48
330
18
100
AcDbEntity
  8
1
  6
Continuous
100
AcDbLine
 10
377.5116208468194
 20
126.2880676446765
 30
0.0
 11
378.7130648468194
 21
126.2880676446765
 31
0.0
  0
ARC
  5
1A49
330
18
100
AcDbEntity
  8
1
  6
Continuous
100
AcDbCircle
 10
379.5116208468194
 20
126.2880676446765
 30
0.0
 40
2.0
100
AcDbArc
 50
180.0
 51
246.4669470000005
  0
LINE
  5
1A4A
330
18
100
AcDbEntity
  8
4
  6
CENTER
 48
0.1
100
AcDbLine
 10
379.2731698468194
 20
142.2880676446765
 30
0.0
 11
376.3856908468193
 21
142.2880676446765
 31
0.0
  0
LINE
  5
1A4B
330
18
100
AcDbEntity
  8
4
  6
CENTER
 48
0.1
100
AcDbLine
 10
379.2731698468194
 20
130.2880676446765
 30
0.0
 11
376.3856908468193
 21
130.2880676446765
 31
0.0
  0
LINE
  5
1A4C
330
18
100
AcDbEntity
  8
1
  6
Continuous
100
AcDbLine
 10
379.7130648468193
 20
140.7880676446765
 30
0.0
 11
379.7130648468193
 21
141.4596406446765
 31
0.0
  0
LINE
  5
1A4D
330
18
100
AcDbEntity
  8
1
  6
Continuous
100
AcDbLine
 10
378.7130648468194
 20
140.7880676446765
 30
0.0
 11
379.7130648468193
 21
140.7880676446765
 31
0.0
  0
LINE
  5
1A4E
330
18
100
AcDbEntity
  8
4
  6
CENTER
 48
0.1
100
AcDbLine
 10
386.7130648468192
 20
144.2880676446765
 30
0.0
 11
379.7130648468193
 21
144.2880676446765
 31
0.0
  0
ARC
  5
1A4F
330
18
100
AcDbEntity
  8
1
  6
Continuous
100
AcDbCircle
 10
392.7087778468194
 20
153.7366206446766
 30
0.0
 40
1.0
100
AcDbArc
 50
329.9999999999994
 51
2.693666999998384
  0
ARC
  5
1A50
330
18
100
AcDbEntity
  8
1
  6
Continuous
100
AcDbCircle
 10
392.7159528468195
 20
155.6838816446765
 30
0.0
 40
1.0
100
AcDbArc
 50
0.000000000000007
 51
32.94312700000032
  0
LINE
  5
1A51
330
18
100
AcDbEntity
  8
1
  6
Continuous
100
AcDbLine
 10
378.7116208468193
 20
144.1565376446765
 30
0.0
 11
377.5116208468194
 21
144.1565376446765
 31
0.0
  0
LINE
  5
1A52
330
18
100
AcDbEntity
  8
1
  6
Continuous
100
AcDbLine
 10
378.7116208468193
 20
146.7880676446765
 30
0.0
 11
377.5116208468194
 21
146.7880676446765
 31
0.0
  0
LINE
  5
1A53
330
18
100
AcDbEntity
  8
1
  6
Continuous
100
AcDbLine
 10
378.7130648468194
 20
157.7880676446765
 30
0.0
 11
377.5116208468194
 21
157.7880676446765
 31
0.0
  0
LINE
  5
1A54
330
18
100
AcDbEntity
  8
4
  6
CENTER
 48
0.2
100
AcDbLine
 10
356.5116208468193
 20
171.7880676446765
 30
0.0
 11
345.5116208468195
 21
171.7880676446765
 31
0.0
  0
LINE
  5
1A55
330
18
100
AcDbEntity
  8
1
  6
Continuous
100
AcDbLine
 10
353.5116208468195
 20
165.7880676446765
 30
0.0
 11
347.5116208468195
 21
165.7880676446765
 31
0.0
  0
ARC
  5
1A56
330
18
100
AcDbEntity
  8
1
  6
Continuous
100
AcDbCircle
 10
353.5116208468195
 20
166.7880676446765
 30
0.0
 40
1.0
100
AcDbArc
 50
270.0
 51
0.000000000000007
  0
LINE
  5
1A57
330
18
100
AcDbEntity
  8
3
  6
DASHED
 48
0.1
100
AcDbLine
 10
349.0116208468194
 20
170.2880676446765
 30
0.0
 11
350.5116208468194
 21
168.7880676446765
 31
0.0
  0
LINE
  5
1A58
330
18
100
AcDbEntity
  8
3
  6
DASHED
 48
0.1
100
AcDbLine
 10
349.0116208468194
 20
170.2880676446765
 30
0.0
 11
347.5116208468195
 21
170.2880676446765
 31
0.0
  0
LINE
  5
1A59
330
18
100
AcDbEntity
  8
1
  6
Continuous
100
AcDbLine
 10
385.8949238468193
 20
181.7855676446766
 30
0.0
 11
380.6887778468193
 21
181.7855676446766
 31
0.0
  0
ARC
  5
1A5A
330
18
100
AcDbEntity
  8
1
  6
Continuous
100
AcDbCircle
 10
385.8949238468194
 20
179.7855676446766
 30
0.0
 40
2.0
100
AcDbArc
 50
22.43031000000065
 51
90.0
  0
LINE
  5
1A5B
330
18
100
AcDbEntity
  8
1
  6
Continuous
100
AcDbLine
 10
379.9816708468193
 20
181.4926736446765
 30
0.0
 11
378.7130648468195
 21
180.2240676446766
 31
0.0
  0
ARC
  5
1A5C
330
18
100
AcDbEntity
  8
1
  6
Continuous
100
AcDbCircle
 10
380.6887778468194
 20
180.7855676446766
 30
0.0
 40
1.0
100
AcDbArc
 50
90.0
 51
135.0
  0
LINE
  5
1A5E
330
18
100
AcDbEntity
  8
1
  6
Continuous
100
AcDbLine
 10
353.5116208468195
 20
180.5880676446765
 30
0.0
 11
351.5116208468195
 21
180.5880676446765
 31
0.0
  0
ARC
  5
1A60
330
18
100
AcDbEntity
  8
1
  6
Continuous
100
AcDbCircle
 10
353.5116208468195
 20
179.5880676446765
 30
0.0
 40
1.0
100
AcDbArc
 50
0.000000000000007
 51
90.0
  0
LINE
  5
1A61
330
18
100
AcDbEntity
  8
3
  6
DASHED
 48
0.1
100
AcDbLine
 10
349.0116208468194
 20
173.2880676446765
 30
0.0
 11
350.5116208468194
 21
174.7880676446765
 31
0.0
  0
LINE
  5
1A62
330
18
100
AcDbEntity
  8
3
  6
DASHED
 48
0.1
100
AcDbLine
 10
349.0116208468194
 20
173.2880676446765
 30
0.0
 11
347.5116208468195
 21
173.2880676446765
 31
0.0
  0
ARC
  5
1A63
330
18
100
AcDbEntity
  8
1
  6
Continuous
100
AcDbCircle
 10
351.5116208468195
 20
179.5880676446765
 30
0.0
 40
1.0
100
AcDbArc
 50
90.0
 51
180.0
  0
LINE
  5
1A64
330
18
100
AcDbEntity
  8
1
  6
Continuous
100
AcDbLine
 10
350.5116208468194
 20
177.7880676446765
 30
0.0
 11
347.5116208468195
 21
177.7880676446765
 31
0.0
  0
ARC
  5
1BF5
330
18
100
AcDbEntity
  8
1
  6
Continuous
100
AcDbCircle
 10
272.8676389035844
 20
54.53965002996682
 30
0.0
 40
150.0
100
AcDbArc
 50
175.5434708443985
 51
176.2722642205268
  0
LINE
  5
1BF6
330
18
100
AcDbEntity
  8
1
  6
Continuous
100
AcDbLine
 10
137.8705269035843
 20
41.03965002996682
 30
0.0
 11
137.8705269035843
 21
68.03965002996682
 31
0.0
  0
LINE
  5
1BF9
330
18
100
AcDbEntity
  8
1
  6
Continuous
100
AcDbLine
 10
125.3151058856791
 20
68.03965002996682
 30
0.0
 11
137.8705269035843
 21
68.03965002996682
 31
0.0
  0
ARC
  5
1BFA
330
18
100
AcDbEntity
  8
1
  6
Continuous
100
AcDbCircle
 10
125.3151058856791
 20
66.03965002996682
 30
0.0
 40
2.0
100
AcDbArc
 50
90.00000000000005
 51
175.5434708443982
  0
LINE
  5
1BFB
330
18
100
AcDbEntity
  8
4
  6
CENTER
 48
0.2
100
AcDbLine
 10
142.0719709035842
 20
54.53965002996682
 30
0.0
 11
117.3719709035843
 21
54.53965002996682
 31
0.0
  0
LINE
  5
1BFC
330
18
100
AcDbEntity
  8
1
  6
Continuous
100
AcDbLine
 10
125.3151058856791
 20
41.03965002996682
 30
0.0
 11
137.8705269035843
 21
41.03965002996682
 31
0.0
  0
ARC
  5
1BFF
330
18
100
AcDbEntity
  8
1
  6
Continuous
100
AcDbCircle
 10
270.3719709035843
 20
54.53965002996682
 30
0.0
 40
150.0
100
AcDbArc
 50
176.9011171132182
 51
183.0988828867817
  0
LINE
  5
1C01
330
18
100
AcDbEntity
  8
1
  6
Continuous
100
AcDbLine
 10
120.997156818704
 20
63.11271635509275
 30
0.0
 11
122.373963801016
 21
63.37458251884179
 31
0.0
  0
ARC
  5
1C02
330
18
100
AcDbEntity
  8
1
  6
Continuous
100
AcDbCircle
 10
122.1871152649665
 20
64.35697125278379
 30
0.0
 40
1.0
100
AcDbArc
 50
280.7689251957734
 51
356.2722642205269
  0
ARC
  5
1C03
330
18
100
AcDbEntity
  8
1
  6
Continuous
100
AcDbCircle
 10
121.0905810867287
 20
62.62152198812177
 30
0.0
 40
0.5
100
AcDbArc
 50
100.7689251957753
 51
176.9011171132124
  0
ARC
  5
1C04
330
18
100
AcDbEntity
  8
1
  6
Continuous
100
AcDbCircle
 10
125.3151058856791
 20
43.03965002996682
 30
0.0
 40
2.0
100
AcDbArc
 50
184.456529155601
 51
270.0
  0
ARC
  5
1C05
330
18
100
AcDbEntity
  8
1
  6
Continuous
100
AcDbCircle
 10
121.0905810867287
 20
46.45777807181189
 30
0.0
 40
0.5
100
AcDbArc
 50
183.0988828867875
 51
259.2310748042247
  0
ARC
  5
1C06
330
18
100
AcDbEntity
  8
1
  6
Continuous
100
AcDbCircle
 10
122.1871152649665
 20
44.72232880714982
 30
0.0
 40
1.0
100
AcDbArc
 50
3.727735779472948
 51
79.23107480422655
  0
LINE
  5
1C07
330
18
100
AcDbEntity
  8
1
  6
Continuous
100
AcDbLine
 10
120.997156818704
 20
45.9665837048409
 30
0.0
 11
122.373963801016
 21
45.70471754109184
 31
0.0
  0
LINE
  5
1C0A
330
18
100
AcDbEntity
  8
1
  6
Continuous
100
AcDbLine
 10
139.0719709035843
 20
44.03965002996687
 30
0.0
 11
139.0719709035843
 21
65.03965002996685
 31
0.0
  0
LINE
  5
1C0D
330
18
100
AcDbEntity
  8
1
  6
Continuous
100
AcDbLine
 10
137.8719709035842
 20
46.53965002996682
 30
0.0
 11
137.8719709035843
 21
61.28965002996682
 31
0.0
  0
LINE
  5
1C0F
330
18
100
AcDbEntity
  8
1
  6
Continuous
100
AcDbLine
 10
139.0719709035843
 20
65.03965002996685
 30
0.0
 11
137.8719709035843
 21
65.03965002996685
 31
0.0
  0
LINE
  5
1C10
330
18
100
AcDbEntity
  8
4
  6
CENTER
 48
0.1
100
AcDbLine
 10
140.1979009035844
 20
60.53965002996682
 30
0.0
 11
136.3104219035843
 21
60.53965002996682
 31
0.0
  0
LINE
  5
1C13
330
18
100
AcDbEntity
  8
4
  6
CENTER
 48
0.1
100
AcDbLine
 10
140.1979009035844
 20
48.53965002996682
 30
0.0
 11
136.3104219035843
 21
48.53965002996682
 31
0.0
  0
LINE
  5
1C1A
330
18
100
AcDbEntity
  8
1
  6
Continuous
100
AcDbLine
 10
162.5719709035843
 20
60.78965002996685
 30
0.0
 11
166.0719709035842
 21
60.78965002996675
 31
0.0
  0
LINE
  5
1C1B
330
18
100
AcDbEntity
  8
4
  6
CENTER
 48
0.1
100
AcDbLine
 10
171.0719709035843
 20
60.53965002996682
 30
0.0
 11
164.0719709035842
 21
60.53965002996682
 31
0.0
  0
LINE
  5
1C1C
330
18
100
AcDbEntity
  8
1
  6
Continuous
100
AcDbLine
 10
162.5719709035843
 20
48.28965002996682
 30
0.0
 11
166.0719709035843
 21
48.28965002996682
 31
0.0
  0
LINE
  5
1C1D
330
18
100
AcDbEntity
  8
4
  6
CENTER
 48
0.1
100
AcDbLine
 10
171.0719709035843
 20
48.53965002996682
 30
0.0
 11
164.0719709035843
 21
48.53965002996682
 31
0.0
  0
LINE
  5
1C1E
330
18
100
AcDbEntity
  8
4
  6
CENTER
 48
0.2
100
AcDbLine
 10
160.051276084089
 20
54.53965002996682
 30
0.0
 11
171.851276084089
 21
54.53965002996682
 31
0.0
  0
LINE
  5
1C1F
330
18
100
AcDbEntity
  8
1
  6
Continuous
100
AcDbLine
 10
162.0719709035843
 20
48.78965002996682
 30
0.0
 11
162.0719709035843
 21
60.28965002996685
 31
0.0
  0
ARC
  5
1C21
330
18
100
AcDbEntity
  8
1
  6
Continuous
100
AcDbCircle
 10
162.5719709035843
 20
60.28965002996685
 30
0.0
 40
0.5
100
AcDbArc
 50
89.99999999999859
 51
180.0
  0
ARC
  5
1C22
330
18
100
AcDbEntity
  8
1
  6
Continuous
100
AcDbCircle
 10
162.5719709035843
 20
48.78965002996682
 30
0.0
 40
0.5
100
AcDbArc
 50
180.0
 51
270.0
  0
LINE
  5
1C23
330
18
100
AcDbEntity
  8
1
  6
Continuous
100
AcDbLine
 10
166.0719709035843
 20
44.78965002996676
 30
0.0
 11
166.0719709035843
 21
48.28965002996682
 31
0.0
  0
LINE
  5
1C24
330
18
100
AcDbEntity
  8
1
  6
Continuous
100
AcDbLine
 10
169.0719709035843
 20
44.78965002996676
 30
0.0
 11
169.0719709035843
 21
64.28965002996688
 31
0.0
  0
LINE
  5
1C25
330
18
100
AcDbEntity
  8
1
  6
Continuous
100
AcDbLine
 10
169.0719709035843
 20
64.28965002996688
 30
0.0
 11
166.0719709035842
 21
64.28965002996688
 31
0.0
  0
LINE
  5
1C27
330
18
100
AcDbEntity
  8
1
  6
Continuous
100
AcDbLine
 10
169.0719709035843
 20
44.78965002996676
 30
0.0
 11
166.0719709035843
 21
44.78965002996676
 31
0.0
  0
ARC
  5
1D4A
330
18
100
AcDbEntity
  8
1
  6
Continuous
100
AcDbCircle
 10
128.3151058856791
 20
66.03965002996682
 30
0.0
 40
2.0
100
AcDbArc
 50
90.00000000000005
 51
175.5434708443982
  0
ARC
  5
1D4B
330
18
100
AcDbEntity
  8
1
  6
Continuous
100
AcDbCircle
 10
275.8676389035843
 20
54.53965002996682
 30
0.0
 40
150.0
100
AcDbArc
 50
175.5434708443985
 51
184.4565291556014
  0
ARC
  5
1D4C
330
18
100
AcDbEntity
  8
1
  6
Continuous
100
AcDbCircle
 10
128.3151058856791
 20
43.03965002996682
 30
0.0
 40
2.0
100
AcDbArc
 50
184.456529155601
 51
270.0
  0
ARC
  5
1D4D
330
18
100
AcDbEntity
  8
1
  6
Continuous
100
AcDbCircle
 10
272.8676389035844
 20
54.53965002996682
 30
0.0
 40
150.0
100
AcDbArc
 50
183.7277357794731
 51
184.4565291556014
  0
LINE
  5
1D4E
330
18
100
AcDbEntity
  8
1
  6
Continuous
100
AcDbLine
 10
137.8705269035843
 20
64.2896500299668
 30
0.0
 11
139.0719709035843
 21
64.2896500299668
 31
0.0
  0
LINE
  5
1D4F
330
18
100
AcDbEntity
  8
1
  6
Continuous
100
AcDbLine
 10
137.8705269035843
 20
61.28965002996682
 30
0.0
 11
139.0719709035843
 21
61.28965002996682
 31
0.0
  0
LINE
  5
1D6C
330
18
100
AcDbEntity
  8
1
  6
Continuous
100
AcDbLine
 10
137.8719709035843
 20
64.2896500299668
 30
0.0
 11
137.8719709035843
 21
65.03965002996685
 31
0.0
  0
LINE
  5
1D6E
330
18
100
AcDbEntity
  8
1
  6
Continuous
100
AcDbLine
 10
137.8719709035842
 20
247.0849889767671
 30
0.0
 11
137.8705269035843
 21
247.0849889767671
 31
0.0
  0
LINE
  5
1D6F
330
18
100
AcDbEntity
  8
1
  6
Continuous
100
AcDbLine
 10
137.8719709035842
 20
233.4849889767671
 30
0.0
 11
137.8705269035843
 21
233.4849889767671
 31
0.0
  0
LINE
  5
1D7B
330
18
100
AcDbEntity
  8
1
  6
Continuous
100
AcDbLine
 10
137.8719709035843
 20
232.2849889767671
 30
0.0
 11
137.8719709035843
 21
229.784988976767
 31
0.0
  0
LINE
  5
1D7C
330
18
100
AcDbEntity
  8
1
  6
Continuous
100
AcDbLine
 10
137.8719709035843
 20
248.284988976767
 30
0.0
 11
137.8719709035843
 21
250.784988976767
 31
0.0
  0
LINE
  5
1D88
330
18
100
AcDbEntity
  8
1
  6
Continuous
100
AcDbLine
 10
137.8705269035843
 20
47.78965002996684
 30
0.0
 11
139.0719709035843
 21
47.78965002996682
 31
0.0
  0
LINE
  5
1D89
330
18
100
AcDbEntity
  8
1
  6
Continuous
100
AcDbLine
 10
139.0719709035843
 20
44.03965002996679
 30
0.0
 11
137.8719709035843
 21
44.03965002996679
 31
0.0
  0
LINE
  5
1D8A
330
18
100
AcDbEntity
  8
1
  6
Continuous
100
AcDbLine
 10
137.8719709035843
 20
44.78965002996685
 30
0.0
 11
137.8719709035843
 21
44.03965002996679
 31
0.0
  0
LINE
  5
1D8B
330
18
100
AcDbEntity
  8
1
  6
Continuous
100
AcDbLine
 10
137.8705269035843
 20
44.78965002996685
 30
0.0
 11
139.0719709035843
 21
44.78965002996685
 31
0.0
  0
LINE
  5
1D8C
330
18
100
AcDbEntity
  8
1
  6
Continuous
100
AcDbLine
 10
166.0719709035842
 20
60.78965002996675
 30
0.0
 11
166.0719709035842
 21
64.28965002996688
 31
0.0
  0
CIRCLE
  5
22E1
330
18
100
AcDbEntity
  8
1
  6
Continuous
100
AcDbCircle
 10
383.2130648468194
 20
144.2880676446765
 30
0.0
 40
1.0
  0
LINE
  5
22F0
330
18
100
AcDbEntity
  8
1
  6
Continuous
100
AcDbLine
 10
162.5719709035843
 20
175.7802475003443
 30
0.0
 11
165.5719709035843
 21
175.7802475003444
 31
0.0
  0
LINE
  5
22F1
330
18
100
AcDbEntity
  8
1
  6
Continuous
100
AcDbLine
 10
162.5719709035843
 20
167.7958877890088
 30
0.0
 11
165.5719709035843
 21
167.7958877890088
 31
0.0
  0
LINE
  5
22F2
330
18
100
AcDbEntity
  8
1
  6
Continuous
100
AcDbLine
 10
351.0116208468194
 20
167.7958877890088
 30
0.0
 11
354.0116208468194
 21
167.7958877890088
 31
0.0
  0
LINE
  5
22F3
330
18
100
AcDbEntity
  8
1
  6
Continuous
100
AcDbLine
 10
351.0116208468194
 20
175.7802475003443
 30
0.0
 11
354.0116208468194
 21
175.7802475003444
 31
0.0
  0
LINE
  5
2311
330
18
100
AcDbEntity
  8
4
  6
CENTER
 48
0.2
100
AcDbLine
 10
133.3705269035843
 20
70.03965002996681
 30
0.0
 11
133.3705269035843
 21
39.03965002996682
 31
0.0
  0
LINE
  5
2312
330
18
100
AcDbEntity
  8
4
  6
CENTER
 48
0.2
100
AcDbLine
 10
133.3705269035843
 20
255.7849889767671
 30
0.0
 11
133.3705269035843
 21
224.7849889767671
 31
0.0
  0
ARC
  5
2319
330
18
100
AcDbEntity
  8
1
  6
Continuous
100
AcDbCircle
 10
223.8120479847948
 20
126.7880676446765
 30
0.0
 40
0.5
100
AcDbArc
 50
180.0
 51
270.0
  0
ARC
  5
231A
330
18
100
AcDbEntity
  8
1
  6
Continuous
100
AcDbCircle
 10
243.8120479847947
 20
126.7880676446765
 30
0.0
 40
0.5
100
AcDbArc
 50
270.0
 51
359.9999999999997
  0
ARC
  5
231B
330
18
100
AcDbEntity
  8
1
  6
Continuous
100
AcDbCircle
 10
243.8120479847948
 20
143.8313488971656
 30
0.0
 40
0.5
100
AcDbArc
 50
359.9999999999997
 51
66.07813952752763
  0
ARC
  5
231C
330
18
100
AcDbEntity
  8
1
  6
Continuous
100
AcDbCircle
 10
223.8120479847948
 20
143.8313488971656
 30
0.0
 40
0.5
100
AcDbArc
 50
113.9218604724723
 51
180.0
  0
LINE
  5
2327
330
18
100
AcDbEntity
  8
4
  6
CENTER
 48
0.2
100
AcDbLine
 10
223.8120479847949
 20
134.7880676446765
 30
0.0
 11
243.3120479847949
 21
134.7880676446765
 31
0.0
  0
ARC
  5
232B
330
18
100
AcDbEntity
  8
1
  6
Continuous
100
AcDbCircle
 10
233.8120479847948
 20
128.2880676446765
 30
0.0
 40
5.0
100
AcDbArc
 50
212.5789703928041
 51
300.0000000000007
  0
LINE
  5
232D
330
18
100
AcDbEntity
  8
1
  6
Continuous
100
AcDbLine
 10
229.1564062460009
 20
126.2880676446765
 30
0.0
 11
229.5987975424474
 21
125.5957599523688
 31
0.0
  0
LINE
  5
232F
330
18
100
AcDbEntity
  8
1
  6
Continuous
100
AcDbLine
 10
236.3120479847948
 20
123.9579406257543
 30
0.0
 11
236.3120479847948
 21
126.2880676446765
 31
0.0
  0
ARC
  5
2331
330
18
100
AcDbEntity
  8
1
  6
Continuous
100
AcDbCircle
 10
233.8120479847949
 20
272.7880676446765
 30
0.0
 40
148.5
100
AcDbArc
 50
270.9646209814623
 51
273.7645521158263
  0
ARC
  5
2332
330
18
100
AcDbEntity
  8
1
  6
Continuous
100
AcDbCircle
 10
233.8120479847949
 20
273.9880676446765
 30
0.0
 40
148.5
100
AcDbArc
 50
270.9646209814623
 51
272.6052512650572
  0
ENDSEC
  0
SECTION
  2
OBJECTS
  0
DICTIONARY
  5
C
330
0
100
AcDbDictionary
281
     1
  3
ACAD_CIP_PREVIOUS_PRODUCT_INFO
350
2397
  3
ACAD_COLOR
350
237A
  3
ACAD_DETAILVIEWSTYLE
350
2393
  3
ACAD_GROUP
350
D
  3
ACAD_LAYOUT
350
94
  3
ACAD_MATERIAL
350
2348
  3
ACAD_MLEADERSTYLE
350
238F
  3
ACAD_MLINESTYLE
350
1B
  3
ACAD_PLOTSETTINGS
350
95
  3
ACAD_PLOTSTYLENAME
350
2346
  3
ACAD_SCALELIST
350
237D
  3
ACAD_SECTIONVIEWSTYLE
350
2391
  3
ACAD_TABLESTYLE
350
237B
  3
ACAD_VISUALSTYLE
350
2361
  3
ACDB_RECOMPOSE_DATA
350
23B5
  3
AcDbVariableDictionary
350
23A8
  3
CONTENTDICTIONARY
350
3D
  3
DWGPROPS
350
23B6
  0
DICTIONARY
  5
2398
330
E
100
AcDbDictionary
280
     1
281
     1
  3
ADSK_XREC_LAYER_RECONCILED
360
2399
  0
DICTIONARY
  5
239A
330
4E
100
AcDbDictionary
280
     1
281
     1
  3
ADSK_XREC_LAYER_RECONCILED
360
239B
  0
DICTIONARY
  5
239C
330
4F
100
AcDbDictionary
280
     1
281
     1
  3
ADSK_XREC_LAYER_RECONCILED
360
239D
  0
DICTIONARY
  5
239E
330
50
100
AcDbDictionary
280
     1
281
     1
  3
ADSK_XREC_LAYER_RECONCILED
360
239F
  0
DICTIONARY
  5
23A0
330
51
100
AcDbDictionary
280
     1
281
     1
  3
ADSK_XREC_LAYER_RECONCILED
360
23A1
  0
DICTIONARY
  5
23A2
330
52
100
AcDbDictionary
280
     1
281
     1
  3
ADSK_XREC_LAYER_RECONCILED
360
23A3
  0
DICTIONARY
  5
23A4
330
53
100
AcDbDictionary
280
     1
281
     1
  3
ADSK_XREC_LAYER_RECONCILED
360
23A5
  0
DICTIONARY
  5
23A6
330
54
100
AcDbDictionary
280
     1
281
     1
  3
ADSK_XREC_LAYER_RECONCILED
360
23A7
  0
DICTIONARY
  5
2341
330
18
100
AcDbDictionary
281
     1
  3
ACAD_LAYOUTSELFREF
350
2342
  0
DICTIONARY
  5
233F
330
15
100
AcDbDictionary
281
     1
  3
ACAD_LAYOUTSELFREF
350
2340
  0
XRECORD
  5
2397
102
{ACAD_REACTORS
330
C
102
}
330
C
100
AcDbXrecord
280
     1
300
ACDLT
300
2014
300
ACDLT_F_S
  0
DICTIONARY
  5
237A
102
{ACAD_REACTORS
330
C
102
}
330
C
100
AcDbDictionary
281
     1
  0
DICTIONARY
  5
2393
102
{ACAD_REACTORS
330
C
102
}
330
C
100
AcDbDictionary
281
     1
  3
Imperial24
350
2394
  0
DICTIONARY
  5
D
102
{ACAD_REACTORS
330
C
102
}
330
C
100
AcDbDictionary
281
     1
  0
DICTIONARY
  5
94
102
{ACAD_REACTORS
330
C
102
}
330
C
100
AcDbDictionary
281
     1
  3
Model
350
2395
  3
レイアウト1
350
2396
  0
DICTIONARY
  5
2348
102
{ACAD_REACTORS
330
C
102
}
330
C
100
AcDbDictionary
281
     1
  3
ByBlock
350
2351
  3
ByLayer
350
2349
  3
Global
350
2359
  0
DICTIONARY
  5
238F
102
{ACAD_REACTORS
330
C
102
}
330
C
100
AcDbDictionary
281
     1
  3
Standard
350
2390
  0
DICTIONARY
  5
1B
102
{ACAD_REACTORS
330
C
102
}
330
C
100
AcDbDictionary
281
     1
  3
STANDARD
350
1C
  0
DICTIONARY
  5
95
102
{ACAD_REACTORS
330
C
102
}
330
C
100
AcDbDictionary
281
     1
  0
ACDBDICTIONARYWDFLT
  5
2346
102
{ACAD_REACTORS
330
C
102
}
330
C
100
AcDbDictionary
281
     1
  3
Normal
350
2347
100
AcDbDictionaryWithDefault
340
2347
  0
DICTIONARY
  5
237D
102
{ACAD_REACTORS
330
C
102
}
330
C
100
AcDbDictionary
281
     1
  3
A0
350
237E
  3
A1
350
237F
  3
A2
350
2380
  3
A3
350
2381
  3
A4
350
2382
  3
A5
350
2383
  3
A6
350
2384
  3
A7
350
2385
  3
A8
350
2386
  3
A9
350
2387
  3
B0
350
2388
  3
B1
350
2389
  3
B2
350
238A
  3
B3
350
238B
  3
B4
350
238C
  3
B5
350
238D
  3
B6
350
238E
  0
DICTIONARY
  5
2391
102
{ACAD_REACTORS
330
C
102
}
330
C
100
AcDbDictionary
281
     1
  3
Imperial24
350
2392
  0
DICTIONARY
  5
237B
102
{ACAD_REACTORS
330
C
102
}
330
C
100
AcDbDictionary
281
     1
  3
Standard
350
237C
  0
DICTIONARY
  5
2361
102
{ACAD_REACTORS
330
C
102
}
330
C
100
AcDbDictionary
281
     1
  3
2dWireframe
350
2367
  3
Basic
350
2366
  3
Brighten
350
236D
  3
ColorChange
350
2371
  3
Conceptual
350
236A
  3
Dim
350
236C
  3
EdgeColorOff
350
2379
  3
Facepattern
350
2370
  3
Flat
350
2362
  3
FlatWithEdges
350
2363
  3
Gouraud
350
2364
  3
GouraudWithEdges
350
2365
  3
Hidden
350
2369
  3
JitterOff
350
2377
  3
Linepattern
350
236F
  3
OverhangOff
350
2378
  3
Realistic
350
236B
  3
Shaded
350
2376
  3
Shaded with edges
350
2375
  3
Shades of Gray
350
2372
  3
Sketchy
350
2373
  3
Thicken
350
236E
  3
Wireframe
350
2368
  3
X-Ray
350
2374
  0
XRECORD
  5
23B5
102
{ACAD_REACTORS
330
C
102
}
330
C
100
AcDbXrecord
280
     1
 90
        1
330
237C
  0
DICTIONARY
  5
23A8
102
{ACAD_REACTORS
330
C
102
}
330
C
100
AcDbDictionary
281
     1
  3
CANNOSCALE
350
23AD
  3
CMLEADERSTYLE
350
23AA
  3
CTABLESTYLE
350
23A9
  3
CVIEWDETAILSTYLE
350
23AB
  3
CVIEWSECTIONSTYLE
350
23AC
  3
DIMASSOC
350
23B0
  3
INDEXCTL
350
23AF
  3
SORTENTS
350
23AE
  3
XCLIPFRAME
350
23B1
  0
DICTIONARY
  5
3D
102
{ACAD_REACTORS
330
C
102
}
330
C
100
AcDbDictionary
281
     1
  0
XRECORD
  5
23B6
102
{ACAD_REACTORS
330
C
102
}
330
C
100
AcDbXrecord
280
     1
  1
DWGPROPS COOKIE
  2

  3

  4

  6

  7

  8
Yoshitsune
  9

300
=
301
=
302
=
303
=
304
=
305
=
306
=
307
=
308
=
309
=
 40
0.2442809722222222
 41
2453831.646663044
 42
2457192.602201667
  1

 90
        0
  0
XRECORD
  5
2399
102
{ACAD_REACTORS
330
2398
102
}
330
2398
100
AcDbXrecord
280
     1
290
     1
  0
XRECORD
  5
239B
102
{ACAD_REACTORS
330
239A
102
}
330
239A
100
AcDbXrecord
280
     1
290
     1
  0
XRECORD
  5
239D
102
{ACAD_REACTORS
330
239C
102
}
330
239C
100
AcDbXrecord
280
     1
290
     1
  0
XRECORD
  5
239F
102
{ACAD_REACTORS
330
239E
102
}
330
239E
100
AcDbXrecord
280
     1
290
     1
  0
XRECORD
  5
23A1
102
{ACAD_REACTORS
330
23A0
102
}
330
23A0
100
AcDbXrecord
280
     1
290
     1
  0
XRECORD
  5
23A3
102
{ACAD_REACTORS
330
23A2
102
}
330
23A2
100
AcDbXrecord
280
     1
290
     1
  0
XRECORD
  5
23A5
102
{ACAD_REACTORS
330
23A4
102
}
330
23A4
100
AcDbXrecord
280
     1
290
     1
  0
XRECORD
  5
23A7
102
{ACAD_REACTORS
330
23A6
102
}
330
23A6
100
AcDbXrecord
280
     1
290
     1
  0
XRECORD
  5
2342
102
{ACAD_REACTORS
330
2341
102
}
330
2341
100
AcDbXrecord
280
     1
340
18
  0
XRECORD
  5
2340
102
{ACAD_REACTORS
330
233F
102
}
330
233F
100
AcDbXrecord
280
     1
340
15
  0
ACDBDETAILVIEWSTYLE
  5
2394
102
{ACAD_XDICTIONARY
360
23EE
102
}
102
{ACAD_REACTORS
330
2393
102
}
330
2393
100
AcDbModelDocViewStyle
 70
     0
  3
Imperial24
290
     0
100
AcDbDetailViewStyle
 70
     0
 71
     0
 90
        3
 71
     1
340
F
 40
0.24
340
0
 40
0.24
300

 40
0.36
280
     3
 71
     2
340
14
 90
       25
 71
     3
340
F
 40
0.24
 90
        1
 40
0.75
 90
        1
300
%<\AcVar ViewType \f "%tc1">% %<\AcVar ViewDetailId>%\PSCALE %<\AcVar ViewScale \f "%sn">%
 71
     4
340
14
 90
       25
340
14
 90
       25
280
     0
  0
LAYOUT
  5
2395
102
{ACAD_XDICTIONARY
360
23F0
102
}
102
{ACAD_REACTORS
330
94
102
}
330
94
100
AcDbPlotSettings
  1

  2
Canon LBP9100C
  4

  6

 40
0.0
 41
0.0
 42
0.0
 43
0.0
 44
0.0
 45
0.0
 46
0.0
 47
0.0
 48
0.0
 49
0.0
140
0.0
141
0.0
142
1.0
143
1.0
 70
  1712
 72
     0
 73
     0
 74
     0
  7

 75
     0
147
1.0
148
0.0
149
0.0
100
AcDbLayout
  1
Model
 70
     1
 71
     0
 10
0.0
 20
0.0
 11
12.0
 21
9.0
 12
0.0
 22
0.0
 32
0.0
 14
0.0
 24
0.0
 34
0.0
 15
0.0
 25
0.0
 35
0.0
146
0.0
 13
0.0
 23
0.0
 33
0.0
 16
1.0
 26
0.0
 36
0.0
 17
0.0
 27
1.0
 37
0.0
 76
     0
330
18
331
233E
  0
LAYOUT
  5
2396
102
{ACAD_XDICTIONARY
360
23F2
102
}
102
{ACAD_REACTORS
330
94
102
}
330
94
100
AcDbPlotSettings
  1

  2
Canon LBP9100C
  4

  6

 40
0.0
 41
0.0
 42
0.0
 43
0.0
 44
0.0
 45
0.0
 46
0.0
 47
0.0
 48
0.0
 49
0.0
140
0.0
141
0.0
142
1.0
143
1.0
 70
   688
 72
     0
 73
     0
 74
     5
  7

 75
    16
147
1.0
148
0.0
149
0.0
100
AcDbLayout
  1
レイアウト1
 70
     1
 71
     1
 10
0.0
 20
0.0
 11
420.0
 21
297.0
 12
0.0
 22
0.0
 32
0.0
 14
1.000000000000000E+20
 24
1.000000000000000E+20
 34
1.000000000000000E+20
 15
-1.000000000000000E+20
 25
-1.000000000000000E+20
 35
-1.000000000000000E+20
146
0.0
 13
0.0
 23
0.0
 33
0.0
 16
1.0
 26
0.0
 36
0.0
 17
0.0
 27
1.0
 37
0.0
 76
     0
330
15
  0
MATERIAL
  5
2351
102
{ACAD_XDICTIONARY
360
2352
102
}
102
{ACAD_REACTORS
330
2348
102
}
330
2348
100
AcDbMaterial
  1
ByBlock
 72
     0
 43
0.0208333333333333
 43
0.0
 43
0.0
 43
0.0
 43
0.0
 43
0.0208333333333333
 43
0.0
 43
0.0
 43
0.0
 43
0.0
 43
1.0
 43
0.0
 43
0.0
 43
0.0
 43
0.0
 43
1.0
 77
     0
 47
0.0208333333333333
 47
0.0
 47
0.0
 47
0.0
 47
0.0
 47
0.0208333333333333
 47
0.0
 47
0.0
 47
0.0
 47
0.0
 47
1.0
 47
0.0
 47
0.0
 47
0.0
 47
0.0
 47
1.0
171
     0
 49
0.0208333333333333
 49
0.0
 49
0.0
 49
0.0
 49
0.0
 49
0.0208333333333333
 49
0.0
 49
0.0
 49
0.0
 49
0.0
 49
1.0
 49
0.0
 49
0.0
 49
0.0
 49
0.0
 49
1.0
175
     0
142
0.0208333333333333
142
0.0
142
0.0
142
0.0
142
0.0
142
0.0208333333333333
142
0.0
142
0.0
142
0.0
142
0.0
142
1.0
142
0.0
142
0.0
142
0.0
142
0.0
142
1.0
179
     0
144
0.0208333333333333
144
0.0
144
0.0
144
0.0
144
0.0
144
0.0208333333333333
144
0.0
144
0.0
144
0.0
144
0.0
144
1.0
144
0.0
144
0.0
144
0.0
144
0.0
144
1.0
147
0.0208333333333333
147
0.0
147
0.0
147
0.0
147
0.0
147
0.0208333333333333
147
0.0
147
0.0
147
0.0
147
0.0
147
1.0
147
0.0
147
0.0
147
0.0
147
0.0
147
1.0
  0
MATERIAL
  5
2349
102
{ACAD_XDICTIONARY
360
234A
102
}
102
{ACAD_REACTORS
330
2348
102
}
330
2348
100
AcDbMaterial
  1
ByLayer
 72
     0
 43
0.0208333333333333
 43
0.0
 43
0.0
 43
0.0
 43
0.0
 43
0.0208333333333333
 43
0.0
 43
0.0
 43
0.0
 43
0.0
 43
1.0
 43
0.0
 43
0.0
 43
0.0
 43
0.0
 43
1.0
 77
     0
 47
0.0208333333333333
 47
0.0
 47
0.0
 47
0.0
 47
0.0
 47
0.0208333333333333
 47
0.0
 47
0.0
 47
0.0
 47
0.0
 47
1.0
 47
0.0
 47
0.0
 47
0.0
 47
0.0
 47
1.0
171
     0
 49
0.0208333333333333
 49
0.0
 49
0.0
 49
0.0
 49
0.0
 49
0.0208333333333333
 49
0.0
 49
0.0
 49
0.0
 49
0.0
 49
1.0
 49
0.0
 49
0.0
 49
0.0
 49
0.0
 49
1.0
175
     0
142
0.0208333333333333
142
0.0
142
0.0
142
0.0
142
0.0
142
0.0208333333333333
142
0.0
142
0.0
142
0.0
142
0.0
142
1.0
142
0.0
142
0.0
142
0.0
142
0.0
142
1.0
179
     0
144
0.0208333333333333
144
0.0
144
0.0
144
0.0
144
0.0
144
0.0208333333333333
144
0.0
144
0.0
144
0.0
144
0.0
144
1.0
144
0.0
144
0.0
144
0.0
144
0.0
144
1.0
147
0.0208333333333333
147
0.0
147
0.0
147
0.0
147
0.0
147
0.0208333333333333
147
0.0
147
0.0
147
0.0
147
0.0
147
1.0
147
0.0
147
0.0
147
0.0
147
0.0
147
1.0
  0
MATERIAL
  5
2359
102
{ACAD_XDICTIONARY
360
235A
102
}
102
{ACAD_REACTORS
330
2348
102
}
330
2348
100
AcDbMaterial
  1
Global
 72
     0
 43
0.0208333333333333
 43
0.0
 43
0.0
 43
0.0
 43
0.0
 43
0.0208333333333333
 43
0.0
 43
0.0
 43
0.0
 43
0.0
 43
1.0
 43
0.0
 43
0.0
 43
0.0
 43
0.0
 43
1.0
 77
     0
 47
0.0208333333333333
 47
0.0
 47
0.0
 47
0.0
 47
0.0
 47
0.0208333333333333
 47
0.0
 47
0.0
 47
0.0
 47
0.0
 47
1.0
 47
0.0
 47
0.0
 47
0.0
 47
0.0
 47
1.0
171
     0
 49
0.0208333333333333
 49
0.0
 49
0.0
 49
0.0
 49
0.0
 49
0.0208333333333333
 49
0.0
 49
0.0
 49
0.0
 49
0.0
 49
1.0
 49
0.0
 49
0.0
 49
0.0
 49
0.0
 49
1.0
175
     0
142
0.0208333333333333
142
0.0
142
0.0
142
0.0
142
0.0
142
0.0208333333333333
142
0.0
142
0.0
142
0.0
142
0.0
142
1.0
142
0.0
142
0.0
142
0.0
142
0.0
142
1.0
179
     0
144
0.0208333333333333
144
0.0
144
0.0
144
0.0
144
0.0
144
0.0208333333333333
144
0.0
144
0.0
144
0.0
144
0.0
144
1.0
144
0.0
144
0.0
144
0.0
144
0.0
144
1.0
147
0.0208333333333333
147
0.0
147
0.0
147
0.0
147
0.0
147
0.0208333333333333
147
0.0
147
0.0
147
0.0
147
0.0
147
1.0
147
0.0
147
0.0
147
0.0
147
0.0
147
1.0
  0
MLEADERSTYLE
  5
2390
102
{ACAD_REACTORS
330
238F
102
}
330
238F
100
AcDbMLeaderStyle
170
     2
171
     1
172
     0
 90
        2
 40
0.0
 41
0.0
173
     1
 91
-1056964608
340
12
 92
       -2
290
     1
 42
0.09
291
     1
 43
0.36
  3
Standard
 44
0.18
300

342
F
174
     1
178
     6
175
     1
176
     0
 93
-1056964608
 45
0.18
292
     0
297
     0
 46
0.18
 94
-1056964608
 47
1.0
 49
1.0
140
1.0
293
     1
141
0.0
294
     1
177
     0
142
1.0
295
     0
296
     0
143
0.125
1001
ACAD_MLEADERVER
1070
     2
  0
MLINESTYLE
  5
1C
102
{ACAD_REACTORS
330
1B
102
}
330
1B
100
AcDbMlineStyle
  2
STANDARD
 70
     0
  3

 62
   256
 51
90.0
 52
90.0
 71
     2
 49
0.5
 62
   256
  6
BYLAYER
 49
-0.5
 62
   256
  6
BYLAYER
  0
ACDBPLACEHOLDER
  5
2347
102
{ACAD_REACTORS
330
2346
102
}
330
2346
  0
SCALE
  5
237E
102
{ACAD_REACTORS
330
237D
102
}
330
237D
100
AcDbScale
 70
     0
300
1:1
140
1.0
141
1.0
290
     1
  0
SCALE
  5
237F
102
{ACAD_REACTORS
330
237D
102
}
330
237D
100
AcDbScale
 70
     0
300
1/128" = 1'-0"
140
0.0078125
141
12.0
290
     0
  0
SCALE
  5
2380
102
{ACAD_REACTORS
330
237D
102
}
330
237D
100
AcDbScale
 70
     0
300
1/64" = 1'-0"
140
0.015625
141
12.0
290
     0
  0
SCALE
  5
2381
102
{ACAD_REACTORS
330
237D
102
}
330
237D
100
AcDbScale
 70
     0
300
1/32" = 1'-0"
140
0.03125
141
12.0
290
     0
  0
SCALE
  5
2382
102
{ACAD_REACTORS
330
237D
102
}
330
237D
100
AcDbScale
 70
     0
300
1/16" = 1'-0"
140
0.0625
141
12.0
290
     0
  0
SCALE
  5
2383
102
{ACAD_REACTORS
330
237D
102
}
330
237D
100
AcDbScale
 70
     0
300
3/32" = 1'-0"
140
0.09375
141
12.0
290
     0
  0
SCALE
  5
2384
102
{ACAD_REACTORS
330
237D
102
}
330
237D
100
AcDbScale
 70
     0
300
1/8" = 1'-0"
140
0.125
141
12.0
290
     0
  0
SCALE
  5
2385
102
{ACAD_REACTORS
330
237D
102
}
330
237D
100
AcDbScale
 70
     0
300
3/16" = 1'-0"
140
0.1875
141
12.0
290
     0
  0
SCALE
  5
2386
102
{ACAD_REACTORS
330
237D
102
}
330
237D
100
AcDbScale
 70
     0
300
1/4" = 1'-0"
140
0.25
141
12.0
290
     0
  0
SCALE
  5
2387
102
{ACAD_REACTORS
330
237D
102
}
330
237D
100
AcDbScale
 70
     0
300
3/8" = 1'-0"
140
0.375
141
12.0
290
     0
  0
SCALE
  5
2388
102
{ACAD_REACTORS
330
237D
102
}
330
237D
100
AcDbScale
 70
     0
300
1/2" = 1'-0"
140
0.5
141
12.0
290
     0
  0
SCALE
  5
2389
102
{ACAD_REACTORS
330
237D
102
}
330
237D
100
AcDbScale
 70
     0
300
3/4" = 1'-0"
140
0.75
141
12.0
290
     0
  0
SCALE
  5
238A
102
{ACAD_REACTORS
330
237D
102
}
330
237D
100
AcDbScale
 70
     0
300
1" = 1'-0"
140
1.0
141
12.0
290
     0
  0
SCALE
  5
238B
102
{ACAD_REACTORS
330
237D
102
}
330
237D
100
AcDbScale
 70
     0
300
1-1/2" = 1'-0"
140
1.5
141
12.0
290
     0
  0
SCALE
  5
238C
102
{ACAD_REACTORS
330
237D
102
}
330
237D
100
AcDbScale
 70
     0
300
3" = 1'-0"
140
3.0
141
12.0
290
     0
  0
SCALE
  5
238D
102
{ACAD_REACTORS
330
237D
102
}
330
237D
100
AcDbScale
 70
     0
300
6" = 1'-0"
140
6.0
141
12.0
290
     0
  0
SCALE
  5
238E
102
{ACAD_REACTORS
330
237D
102
}
330
237D
100
AcDbScale
 70
     0
300
1'-0" = 1'-0"
140
12.0
141
12.0
290
     0
  0
ACDBSECTIONVIEWSTYLE
  5
2392
102
{ACAD_XDICTIONARY
360
23EC
102
}
102
{ACAD_REACTORS
330
2391
102
}
330
2391
100
AcDbModelDocViewStyle
 70
     0
  3
Imperial24
290
     0
100
AcDbSectionViewStyle
 70
     0
 71
     0
 90
       78
 71
     1
340
F
 40
0.24
340
0
340
0
 40
0.24
300
I, O, Q, S, X, Z
 40
0.48
 90
        3
 40
0.18
 90
        1
 71
     2
340
14
 90
       25
340
14
 90
       50
 40
0.24
 40
0.0
 40
0.24
 71
     3
340
F
 40
0.24
 90
        1
 40
0.75
 90
        1
300
%<\AcVar ViewType \f "%tc1">% %<\AcVar ViewSectionStartId>%-%<\AcVar ViewSectionEndId>%\PSCALE %<\AcVar ViewScale \f "%sn">%
 71
     4
300
ANSI31
 40
1.0
 90
        0
290
     0
290
     0
 90
        6
 40
0.0
 40
1.570796326794896
 40
0.2617993877991494
 40
1.308996938995747
 40
-0.2617993877991494
 40
1.832595714594046
  0
TABLESTYLE
  5
237C
102
{ACAD_XDICTIONARY
360
23B3
102
}
102
{ACAD_REACTORS
330
237B
102
}
330
237B
100
AcDbTableStyle
  3
Standard
 70
     0
 71
     0
 40
0.06
 41
0.06
280
     0
281
     0
  7
STANDARD
140
0.18
170
     2
 62
     0
 63
     7
283
     0
274
    -2
284
     1
 64
     0
275
    -2
285
     1
 65
     0
276
    -2
286
     1
 66
     0
277
    -2
287
     1
 67
     0
278
    -2
288
     1
 68
     0
279
    -2
289
     1
 69
     0
  7
STANDARD
140
0.25
170
     5
 62
     0
 63
     7
283
     0
274
    -2
284
     1
 64
     0
275
    -2
285
     1
 65
     0
276
    -2
286
     1
 66
     0
277
    -2
287
     1
 67
     0
278
    -2
288
     1
 68
     0
279
    -2
289
     1
 69
     0
  7
STANDARD
140
0.18
170
     5
 62
     0
 63
     7
283
     0
274
    -2
284
     1
 64
     0
275
    -2
285
     1
 65
     0
276
    -2
286
     1
 66
     0
277
    -2
287
     1
 67
     0
278
    -2
288
     1
 68
     0
279
    -2
289
     1
 69
     0
  0
VISUALSTYLE
  5
2367
102
{ACAD_XDICTIONARY
360
23C4
102
}
102
{ACAD_REACTORS
330
2361
102
}
330
2361
100
AcDbVisualStyle
  2
2dWireframe
 70
     4
 71
     0
 72
     2
 73
     0
 90
        0
 40
-0.6
 41
-30.0
 62
     5
 63
     7
 74
     1
 91
        4
 64
     7
 65
   257
 75
     1
175
     1
 42
1.0
 92
        0
 66
   257
 43
1.0
 76
     1
 77
     6
 78
     2
 67
     7
 79
     5
170
     0
171
     0
290
     0
174
     0
 93
        1
 44
0.0
173
     0
291
     0
 45
0.0
1001
ACAD
1000
AcDbSavedByObjectVersion
1070
     0
  0
VISUALSTYLE
  5
2366
102
{ACAD_XDICTIONARY
360
23C2
102
}
102
{ACAD_REACTORS
330
2361
102
}
330
2361
100
AcDbVisualStyle
  2
Basic
 70
     7
 71
     1
 72
     0
 73
     1
 90
        0
 40
-0.6
 41
-30.0
 62
     5
 63
     7
 74
     0
 91
        4
 64
     7
 65
   257
 75
     1
175
     1
 42
1.0
 92
        8
 66
     7
 43
1.0
 76
     1
 77
     6
 78
     2
 67
     7
 79
     5
170
     0
171
     0
290
     0
174
     0
 93
        1
 44
0.0
173
     0
291
     1
 45
0.0
1001
ACAD
1000
AcDbSavedByObjectVersion
1070
     0
  0
VISUALSTYLE
  5
236D
102
{ACAD_XDICTIONARY
360
23D0
102
}
102
{ACAD_REACTORS
330
2361
102
}
330
2361
100
AcDbVisualStyle
  2
Brighten
 70
    12
 71
     2
 72
     2
 73
     0
 90
        0
 40
-0.6
 41
-30.0
 62
     5
 63
     7
 74
     1
 91
        4
 64
     7
 65
   257
 75
     1
175
     1
 42
1.0
 92
        8
 66
     7
 43
1.0
 76
     1
 77
     6
 78
     2
 67
     7
 79
     5
170
     0
171
     0
290
     0
174
     0
 93
        1
 44
50.0
173
     0
291
     1
 45
0.0
1001
ACAD
1000
AcDbSavedByObjectVersion
1070
     0
  0
VISUALSTYLE
  5
2371
102
{ACAD_XDICTIONARY
360
23D8
102
}
102
{ACAD_REACTORS
330
2361
102
}
330
2361
100
AcDbVisualStyle
  2
ColorChange
 70
    16
 71
     2
 72
     2
 73
     3
 90
        0
 40
-0.6
 41
-30.0
 62
     5
 63
     8
 74
     1
 91
        4
 64
     7
 65
   257
 75
     1
175
     1
 42
1.0
 92
        8
 66
     8
 43
1.0
 76
     1
 77
     6
 78
     2
 67
     7
 79
     5
170
     0
171
     0
290
     0
174
     0
 93
        1
 44
0.0
173
     0
291
     1
 45
0.0
1001
ACAD
1000
AcDbSavedByObjectVersion
1070
     0
  0
VISUALSTYLE
  5
236A
102
{ACAD_XDICTIONARY
360
23CA
102
}
102
{ACAD_REACTORS
330
2361
102
}
330
2361
100
AcDbVisualStyle
  2
Conceptual
 70
     9
 71
     3
 72
     2
 73
     0
 90
        0
 40
-0.6
 41
-30.0
 62
     5
 63
     7
 74
     2
 91
        2
 64
     7
 65
   257
 75
     1
175
     1
 42
179.0
 92
        8
 66
     7
 43
1.0
 76
     1
 77
     6
 78
     2
 67
     7
 79
     3
170
     0
171
     0
290
     0
174
     0
 93
        1
 44
0.0
173
     0
291
     0
 45
0.0
1001
ACAD
1000
AcDbSavedByObjectVersion
1070
     0
  0
VISUALSTYLE
  5
236C
102
{ACAD_XDICTIONARY
360
23CE
102
}
102
{ACAD_REACTORS
330
2361
102
}
330
2361
100
AcDbVisualStyle
  2
Dim
 70
    11
 71
     2
 72
     2
 73
     0
 90
        0
 40
-0.6
 41
-30.0
 62
     5
 63
     7
 74
     1
 91
        4
 64
     7
 65
   257
 75
     1
175
     1
 42
1.0
 92
        8
 66
     7
 43
1.0
 76
     1
 77
     6
 78
     2
 67
     7
 79
     5
170
     0
171
     0
290
     0
174
     0
 93
        1
 44
-50.0
173
     0
291
     1
 45
0.0
1001
ACAD
1000
AcDbSavedByObjectVersion
1070
     0
  0
VISUALSTYLE
  5
2379
102
{ACAD_XDICTIONARY
360
23E8
102
}
102
{ACAD_REACTORS
330
2361
102
}
330
2361
100
AcDbVisualStyle
  2
EdgeColorOff
 70
    22
 71
     2
 72
     2
 73
     0
 90
        0
 40
-0.6
 41
-30.0
 62
     5
 63
     7
 74
     1
 91
        4
 64
     7
 65
   257
 75
     1
175
     1
 42
1.0
 92
        8
 66
     7
 43
1.0
 76
     1
 77
     6
 78
     2
 67
     7
 79
     5
170
     0
171
     0
290
     0
174
     0
 93
        1
 44
0.0
173
     0
291
     1
 45
0.0
1001
ACAD
1000
AcDbSavedByObjectVersion
1070
     0
  0
VISUALSTYLE
  5
2370
102
{ACAD_XDICTIONARY
360
23D6
102
}
102
{ACAD_REACTORS
330
2361
102
}
330
2361
100
AcDbVisualStyle
  2
Facepattern
 70
    15
 71
     2
 72
     2
 73
     0
 90
        0
 40
-0.6
 41
-30.0
 62
     5
 63
     7
 74
     1
 91
        4
 64
     7
 65
   257
 75
     1
175
     1
 42
1.0
 92
        8
 66
     7
 43
1.0
 76
     1
 77
     6
 78
     2
 67
     7
 79
     5
170
     0
171
     0
290
     0
174
     0
 93
        1
 44
0.0
173
     0
291
     1
 45
0.0
1001
ACAD
1000
AcDbSavedByObjectVersion
1070
     0
  0
VISUALSTYLE
  5
2362
102
{ACAD_XDICTIONARY
360
23BA
102
}
102
{ACAD_REACTORS
330
2361
102
}
330
2361
100
AcDbVisualStyle
  2
Flat
 70
     0
 71
     2
 72
     1
 73
     1
 90
        2
 40
-0.6
 41
30.0
 62
     5
 63
     7
 74
     0
 91
        0
 64
     7
 65
   257
 75
     1
175
     1
 42
1.0
 92
        8
 66
     7
 43
1.0
 76
     1
 77
     6
 78
     2
 67
     7
 79
     5
170
     0
171
     0
290
     0
174
     0
 93
       13
 44
0.0
173
     0
291
     1
 45
0.0
1001
ACAD
1000
AcDbSavedByObjectVersion
1070
     0
  0
VISUALSTYLE
  5
2363
102
{ACAD_XDICTIONARY
360
23BC
102
}
102
{ACAD_REACTORS
330
2361
102
}
330
2361
100
AcDbVisualStyle
  2
FlatWithEdges
 70
     1
 71
     2
 72
     1
 73
     1
 90
        2
 40
-0.6
 41
30.0
 62
     5
 63
     7
 74
     1
 91
        0
 64
     7
 65
   257
 75
     1
175
     1
 42
1.0
 92
        0
 66
   257
 43
1.0
 76
     1
 77
     6
 78
     2
 67
     7
 79
     5
170
     0
171
     0
290
     0
174
     0
 93
       13
 44
0.0
173
     0
291
     1
 45
0.0
1001
ACAD
1000
AcDbSavedByObjectVersion
1070
     0
  0
VISUALSTYLE
  5
2364
102
{ACAD_XDICTIONARY
360
23BE
102
}
102
{ACAD_REACTORS
330
2361
102
}
330
2361
100
AcDbVisualStyle
  2
Gouraud
 70
     2
 71
     2
 72
     2
 73
     1
 90
        2
 40
-0.6
 41
30.0
 62
     5
 63
     7
 74
     0
 91
        0
 64
     7
 65
   257
 75
     1
175
     1
 42
1.0
 92
        0
 66
     7
 43
1.0
 76
     1
 77
     6
 78
     2
 67
     7
 79
     5
170
     0
171
     0
290
     0
174
     0
 93
       13
 44
0.0
173
     0
291
     1
 45
0.0
1001
ACAD
1000
AcDbSavedByObjectVersion
1070
     0
  0
VISUALSTYLE
  5
2365
102
{ACAD_XDICTIONARY
360
23C0
102
}
102
{ACAD_REACTORS
330
2361
102
}
330
2361
100
AcDbVisualStyle
  2
GouraudWithEdges
 70
     3
 71
     2
 72
     2
 73
     1
 90
        2
 40
-0.6
 41
30.0
 62
     5
 63
     7
 74
     1
 91
        0
 64
     7
 65
   257
 75
     1
175
     1
 42
1.0
 92
        0
 66
   257
 43
1.0
 76
     1
 77
     6
 78
     2
 67
     7
 79
     5
170
     0
171
     0
290
     0
174
     0
 93
       13
 44
0.0
173
     0
291
     1
 45
0.0
1001
ACAD
1000
AcDbSavedByObjectVersion
1070
     0
  0
VISUALSTYLE
  5
2369
102
{ACAD_XDICTIONARY
360
23C8
102
}
102
{ACAD_REACTORS
330
2361
102
}
330
2361
100
AcDbVisualStyle
  2
Hidden
 70
     6
 71
     1
 72
     2
 73
     2
 90
        0
 40
-0.6
 41
-30.0
 62
     5
 63
     7
 74
     2
 91
        2
 64
     7
 65
   257
 75
     2
175
     1
 42
40.0
 92
        0
 66
   257
 43
1.0
 76
     1
 77
     6
 78
     2
 67
     7
 79
     3
170
     0
171
     0
290
     0
174
     0
 93
        1
 44
0.0
173
     0
291
     0
 45
0.0
1001
ACAD
1000
AcDbSavedByObjectVersion
1070
     0
  0
VISUALSTYLE
  5
2377
102
{ACAD_XDICTIONARY
360
23E4
102
}
102
{ACAD_REACTORS
330
2361
102
}
330
2361
100
AcDbVisualStyle
  2
JitterOff
 70
    20
 71
     2
 72
     2
 73
     0
 90
        0
 40
-0.6
 41
-30.0
 62
     5
 63
     7
 74
     1
 91
        4
 64
     7
 65
   257
 75
     1
175
     1
 42
1.0
 92
       10
 66
     7
 43
1.0
 76
     1
 77
     6
 78
     2
 67
     7
 79
     5
170
     0
171
     0
290
     0
174
     0
 93
        1
 44
0.0
173
     0
291
     1
 45
0.0
1001
ACAD
1000
AcDbSavedByObjectVersion
1070
     0
  0
VISUALSTYLE
  5
236F
102
{ACAD_XDICTIONARY
360
23D4
102
}
102
{ACAD_REACTORS
330
2361
102
}
330
2361
100
AcDbVisualStyle
  2
Linepattern
 70
    14
 71
     2
 72
     2
 73
     0
 90
        0
 40
-0.6
 41
-30.0
 62
     5
 63
     7
 74
     1
 91
        4
 64
     7
 65
   257
 75
     7
175
     7
 42
1.0
 92
        8
 66
     7
 43
1.0
 76
     1
 77
     6
 78
     2
 67
     7
 79
     5
170
     0
171
     0
290
     0
174
     0
 93
        1
 44
0.0
173
     0
291
     1
 45
0.0
1001
ACAD
1000
AcDbSavedByObjectVersion
1070
     0
  0
VISUALSTYLE
  5
2378
102
{ACAD_XDICTIONARY
360
23E6
102
}
102
{ACAD_REACTORS
330
2361
102
}
330
2361
100
AcDbVisualStyle
  2
OverhangOff
 70
    21
 71
     2
 72
     2
 73
     0
 90
        0
 40
-0.6
 41
-30.0
 62
     5
 63
     7
 74
     1
 91
        4
 64
     7
 65
   257
 75
     1
175
     1
 42
1.0
 92
        9
 66
     7
 43
1.0
 76
     1
 77
     6
 78
     2
 67
     7
 79
     5
170
     0
171
     0
290
     0
174
     0
 93
        1
 44
0.0
173
     0
291
     1
 45
0.0
1001
ACAD
1000
AcDbSavedByObjectVersion
1070
     0
  0
VISUALSTYLE
  5
236B
102
{ACAD_XDICTIONARY
360
23CC
102
}
102
{ACAD_REACTORS
330
2361
102
}
330
2361
100
AcDbVisualStyle
  2
Realistic
 70
     8
 71
     2
 72
     3
 73
     0
 90
        2
 40
-0.6
 41
30.0
 62
     5
 63
     7
 74
     0
 91
        0
 64
     7
 65
   257
 75
     1
175
     1
 42
1.0
 92
        8
 66
   257
 43
1.0
 76
     1
 77
     6
 78
     2
 67
     7
 79
     3
170
     0
171
     0
290
     0
174
     0
 93
       13
 44
0.0
173
     0
291
     0
 45
0.0
1001
ACAD
1000
AcDbSavedByObjectVersion
1070
     0
  0
VISUALSTYLE
  5
2376
102
{ACAD_XDICTIONARY
360
23E2
102
}
102
{ACAD_REACTORS
330
2361
102
}
330
2361
100
AcDbVisualStyle
  2
Shaded
 70
    27
 71
     2
 72
     2
 73
     1
 90
        2
 40
-0.6
 41
30.0
 62
     5
 63
     7
 74
     0
 91
        4
 64
     7
 65
   257
 75
     1
175
     1
 42
1.0
 92
        8
 66
   257
 43
1.0
 76
     1
 77
     6
 78
     2
 67
     8
 79
     3
170
     0
171
     0
290
     0
174
     0
 93
        5
 44
0.0
173
     0
291
     0
 45
0.0
1001
ACAD
1000
AcDbSavedByObjectVersion
1070
     0
  0
VISUALSTYLE
  5
2375
102
{ACAD_XDICTIONARY
360
23E0
102
}
102
{ACAD_REACTORS
330
2361
102
}
330
2361
100
AcDbVisualStyle
  2
Shaded with edges
 70
    26
 71
     2
 72
     2
 73
     1
 90
        2
 40
-0.6
 41
30.0
 62
     5
 63
     7
 74
     1
 91
       10
 64
     7
 65
   257
 75
     2
175
     1
 42
1.0
 92
        8
 66
   257
 43
1.0
 76
     1
 77
     6
 78
     2
 67
     7
 79
     3
170
     0
171
     0
290
     0
174
     0
 93
        5
 44
0.0
173
     0
291
     0
 45
0.0
1001
ACAD
1000
AcDbSavedByObjectVersion
1070
     0
  0
VISUALSTYLE
  5
2372
102
{ACAD_XDICTIONARY
360
23DA
102
}
102
{ACAD_REACTORS
330
2361
102
}
330
2361
100
AcDbVisualStyle
  2
Shades of Gray
 70
    23
 71
     2
 72
     2
 73
     3
 90
        0
 40
-0.6
 41
-30.0
 62
     5
 63
     7
 74
     2
 91
        2
 64
     7
 65
     7
 75
     1
175
     1
 42
40.0
 92
        8
 66
     7
 43
1.0
 76
     1
 77
     6
 78
     2
 67
     7
 79
     3
170
     0
171
     0
290
     0
174
     0
 93
        1
 44
0.0
173
     0
291
     0
 45
0.0
1001
ACAD
1000
AcDbSavedByObjectVersion
1070
     0
  0
VISUALSTYLE
  5
2373
102
{ACAD_XDICTIONARY
360
23DC
102
}
102
{ACAD_REACTORS
330
2361
102
}
330
2361
100
AcDbVisualStyle
  2
Sketchy
 70
    24
 71
     1
 72
     2
 73
     2
 90
        0
 40
-0.6
 41
-30.0
 62
     5
 63
     7
 74
     2
 91
        2
 64
     7
 65
     7
 75
     1
175
     1
 42
40.0
 92
       11
 66
     7
 43
1.0
 76
     1
 77
     6
 78
     2
 67
     7
 79
     6
170
     0
171
     0
290
     0
174
     0
 93
        1
 44
0.0
173
     0
291
     0
 45
0.0
1001
ACAD
1000
AcDbSavedByObjectVersion
1070
     0
  0
VISUALSTYLE
  5
236E
102
{ACAD_XDICTIONARY
360
23D2
102
}
102
{ACAD_REACTORS
330
2361
102
}
330
2361
100
AcDbVisualStyle
  2
Thicken
 70
    13
 71
     2
 72
     2
 73
     0
 90
        0
 40
-0.6
 41
-30.0
 62
     5
 63
     7
 74
     1
 91
        4
 64
     7
 65
   257
 75
     1
175
     1
 42
1.0
 92
       12
 66
     7
 43
1.0
 76
     1
 77
     6
 78
     2
 67
     7
 79
     5
170
     0
171
     0
290
     0
174
     0
 93
        1
 44
0.0
173
     0
291
     1
 45
0.0
1001
ACAD
1000
AcDbSavedByObjectVersion
1070
     0
  0
VISUALSTYLE
  5
2368
102
{ACAD_XDICTIONARY
360
23C6
102
}
102
{ACAD_REACTORS
330
2361
102
}
330
2361
100
AcDbVisualStyle
  2
Wireframe
 70
     5
 71
     0
 72
     2
 73
     0
 90
        0
 40
-0.6
 41
-30.0
 62
     5
 63
     7
 74
     1
 91
        4
 64
     7
 65
   257
 75
     1
175
     1
 42
1.0
 92
        0
 66
   257
 43
1.0
 76
     1
 77
     6
 78
     2
 67
     7
 79
     3
170
     0
171
     0
290
     0
174
     0
 93
        1
 44
0.0
173
     0
291
     0
 45
0.0
1001
ACAD
1000
AcDbSavedByObjectVersion
1070
     0
  0
VISUALSTYLE
  5
2374
102
{ACAD_XDICTIONARY
360
23DE
102
}
102
{ACAD_REACTORS
330
2361
102
}
330
2361
100
AcDbVisualStyle
  2
X-Ray
 70
    25
 71
     2
 72
     2
 73
     1
 90
        1
 40
0.5
 41
-30.0
 62
     5
 63
     7
 74
     1
 91
        0
 64
     7
 65
   257
 75
     1
175
     1
 42
1.0
 92
        8
 66
     7
 43
1.0
 76
     1
 77
     6
 78
     2
 67
     7
 79
     3
170
     0
171
     0
290
     0
174
     0
 93
       13
 44
0.0
173
     0
291
     0
 45
0.0
1001
ACAD
1000
AcDbSavedByObjectVersion
1070
     0
  0
DICTIONARYVAR
  5
23AD
102
{ACAD_REACTORS
330
23A8
102
}
330
23A8
100
DictionaryVariables
280
     0
  1
1:1
  0
DICTIONARYVAR
  5
23AA
102
{ACAD_REACTORS
330
23A8
102
}
330
23A8
100
DictionaryVariables
280
     0
  1
STANDARD
  0
DICTIONARYVAR
  5
23A9
102
{ACAD_REACTORS
330
23A8
102
}
330
23A8
100
DictionaryVariables
280
     0
  1
STANDARD
  0
DICTIONARYVAR
  5
23AB
102
{ACAD_REACTORS
330
23A8
102
}
330
23A8
100
DictionaryVariables
280
     0
  1
Imperial24
  0
DICTIONARYVAR
  5
23AC
102
{ACAD_REACTORS
330
23A8
102
}
330
23A8
100
DictionaryVariables
280
     0
  1
Imperial24
  0
DICTIONARYVAR
  5
23B0
102
{ACAD_REACTORS
330
23A8
102
}
330
23A8
100
DictionaryVariables
280
     0
  1
1
  0
DICTIONARYVAR
  5
23AF
102
{ACAD_REACTORS
330
23A8
102
}
330
23A8
100
DictionaryVariables
280
     0
  1
0
  0
DICTIONARYVAR
  5
23AE
102
{ACAD_REACTORS
330
23A8
102
}
330
23A8
100
DictionaryVariables
280
     0
  1
127
  0
DICTIONARYVAR
  5
23B1
102
{ACAD_REACTORS
330
23A8
102
}
330
23A8
100
DictionaryVariables
280
     0
  1
2
  0
DICTIONARY
  5
23EE
330
2394
100
AcDbDictionary
280
     1
281
     1
  3
ACAD_XREC_ROUNDTRIP
360
23EF
  0
DICTIONARY
  5
23F0
330
2395
100
AcDbDictionary
280
     1
281
     1
  3
ACAD_XREC_ROUNDTRIP
360
23F1
  0
DICTIONARY
  5
23F2
330
2396
100
AcDbDictionary
280
     1
281
     1
  3
ACAD_XREC_ROUNDTRIP
360
23F3
  0
DICTIONARY
  5
2352
330
2351
100
AcDbDictionary
280
     1
281
     1
  3
ACAD_XREC_ROUNDTRIP
360
23B8
  3
BUMPTILE
360
2354
  3
DIFFUSETILE
360
2353
  3
OPACITYTILE
360
2357
  3
REFLECTIONTILE
360
2356
  3
REFRACTIONTILE
360
2358
  3
SPECULARTILE
360
2355
  0
DICTIONARY
  5
234A
330
2349
100
AcDbDictionary
280
     1
281
     1
  3
ACAD_XREC_ROUNDTRIP
360
23B7
  3
BUMPTILE
360
234C
  3
DIFFUSETILE
360
234B
  3
OPACITYTILE
360
234F
  3
REFLECTIONTILE
360
234E
  3
REFRACTIONTILE
360
2350
  3
SPECULARTILE
360
234D
  0
DICTIONARY
  5
235A
330
2359
100
AcDbDictionary
280
     1
281
     1
  3
ACAD_XREC_ROUNDTRIP
360
23B9
  3
BUMPTILE
360
235C
  3
DIFFUSETILE
360
235B
  3
OPACITYTILE
360
235F
  3
REFLECTIONTILE
360
235E
  3
REFRACTIONTILE
360
2360
  3
SPECULARTILE
360
235D
  0
DICTIONARY
  5
23EC
330
2392
100
AcDbDictionary
280
     1
281
     1
  3
ACAD_XREC_ROUNDTRIP
360
23ED
  0
DICTIONARY
  5
23B3
330
237C
100
AcDbDictionary
280
     1
281
     1
  3
ACAD_ROUNDTRIP_2008_TABLESTYLE_CELLSTYLEMAP
360
23B4
  3
ACAD_XREC_ROUNDTRIP
360
23EA
  0
DICTIONARY
  5
23C4
330
2367
100
AcDbDictionary
280
     1
281
     1
  3
ACAD_XREC_ROUNDTRIP
360
23C5
  0
DICTIONARY
  5
23C2
330
2366
100
AcDbDictionary
280
     1
281
     1
  3
ACAD_XREC_ROUNDTRIP
360
23C3
  0
DICTIONARY
  5
23D0
330
236D
100
AcDbDictionary
280
     1
281
     1
  3
ACAD_XREC_ROUNDTRIP
360
23D1
  0
DICTIONARY
  5
23D8
330
2371
100
AcDbDictionary
280
     1
281
     1
  3
ACAD_XREC_ROUNDTRIP
360
23D9
  0
DICTIONARY
  5
23CA
330
236A
100
AcDbDictionary
280
     1
281
     1
  3
ACAD_XREC_ROUNDTRIP
360
23CB
  0
DICTIONARY
  5
23CE
330
236C
100
AcDbDictionary
280
     1
281
     1
  3
ACAD_XREC_ROUNDTRIP
360
23CF
  0
DICTIONARY
  5
23E8
330
2379
100
AcDbDictionary
280
     1
281
     1
  3
ACAD_XREC_ROUNDTRIP
360
23E9
  0
DICTIONARY
  5
23D6
330
2370
100
AcDbDictionary
280
     1
281
     1
  3
ACAD_XREC_ROUNDTRIP
360
23D7
  0
DICTIONARY
  5
23BA
330
2362
100
AcDbDictionary
280
     1
281
     1
  3
ACAD_XREC_ROUNDTRIP
360
23BB
  0
DICTIONARY
  5
23BC
330
2363
100
AcDbDictionary
280
     1
281
     1
  3
ACAD_XREC_ROUNDTRIP
360
23BD
  0
DICTIONARY
  5
23BE
330
2364
100
AcDbDictionary
280
     1
281
     1
  3
ACAD_XREC_ROUNDTRIP
360
23BF
  0
DICTIONARY
  5
23C0
330
2365
100
AcDbDictionary
280
     1
281
     1
  3
ACAD_XREC_ROUNDTRIP
360
23C1
  0
DICTIONARY
  5
23C8
330
2369
100
AcDbDictionary
280
     1
281
     1
  3
ACAD_XREC_ROUNDTRIP
360
23C9
  0
DICTIONARY
  5
23E4
330
2377
100
AcDbDictionary
280
     1
281
     1
  3
ACAD_XREC_ROUNDTRIP
360
23E5
  0
DICTIONARY
  5
23D4
330
236F
100
AcDbDictionary
280
     1
281
     1
  3
ACAD_XREC_ROUNDTRIP
360
23D5
  0
DICTIONARY
  5
23E6
330
2378
100
AcDbDictionary
280
     1
281
     1
  3
ACAD_XREC_ROUNDTRIP
360
23E7
  0
DICTIONARY
  5
23CC
330
236B
100
AcDbDictionary
280
     1
281
     1
  3
ACAD_XREC_ROUNDTRIP
360
23CD
  0
DICTIONARY
  5
23E2
330
2376
100
AcDbDictionary
280
     1
281
     1
  3
ACAD_XREC_ROUNDTRIP
360
23E3
  0
DICTIONARY
  5
23E0
330
2375
100
AcDbDictionary
280
     1
281
     1
  3
ACAD_XREC_ROUNDTRIP
360
23E1
  0
DICTIONARY
  5
23DA
330
2372
100
AcDbDictionary
280
     1
281
     1
  3
ACAD_XREC_ROUNDTRIP
360
23DB
  0
DICTIONARY
  5
23DC
330
2373
100
AcDbDictionary
280
     1
281
     1
  3
ACAD_XREC_ROUNDTRIP
360
23DD
  0
DICTIONARY
  5
23D2
330
236E
100
AcDbDictionary
280
     1
281
     1
  3
ACAD_XREC_ROUNDTRIP
360
23D3
  0
DICTIONARY
  5
23C6
330
2368
100
AcDbDictionary
280
     1
281
     1
  3
ACAD_XREC_ROUNDTRIP
360
23C7
  0
DICTIONARY
  5
23DE
330
2374
100
AcDbDictionary
280
     1
281
     1
  3
ACAD_XREC_ROUNDTRIP
360
23DF
  0
XRECORD
  5
23EF
102
{ACAD_REACTORS
330
23EE
102
}
330
23EE
100
AcDbXrecord
280
     1
102
DISPLAYNAME
  1
Imperial24
102
FLAGS
 90
        0
  0
XRECORD
  5
23F1
102
{ACAD_REACTORS
330
23F0
102
}
330
23F0
100
AcDbXrecord
280
     1
102
SHADEPLOT
 70
     0
102
SHADEPLOTRESLEVEL
 70
     2
102
SHADEPLOTCUSTOMDPI
 70
   300
  0
XRECORD
  5
23F3
102
{ACAD_REACTORS
330
23F2
102
}
330
23F2
100
AcDbXrecord
280
     1
102
SHADEPLOT
 70
     0
102
SHADEPLOTRESLEVEL
 70
     2
102
SHADEPLOTCUSTOMDPI
 70
   300
  0
XRECORD
  5
23B8
102
{ACAD_REACTORS
330
2352
102
}
330
2352
100
AcDbXrecord
280
     1
102
MATERIAL
148
0.0
149
0.0
149
0.0
 93
        0
 94
      127
282
     0
 72
     0
 77
     0
171
     0
175
     0
179
     0
273
     0
  0
XRECORD
  5
2354
102
{ACAD_REACTORS
330
2352
102
}
330
2352
100
AcDbXrecord
280
     1
270
     1
271
     1
  0
XRECORD
  5
2353
102
{ACAD_REACTORS
330
2352
102
}
330
2352
100
AcDbXrecord
280
     1
270
     1
271
     1
  0
XRECORD
  5
2357
102
{ACAD_REACTORS
330
2352
102
}
330
2352
100
AcDbXrecord
280
     1
270
     1
271
     1
  0
XRECORD
  5
2356
102
{ACAD_REACTORS
330
2352
102
}
330
2352
100
AcDbXrecord
280
     1
270
     1
271
     1
  0
XRECORD
  5
2358
102
{ACAD_REACTORS
330
2352
102
}
330
2352
100
AcDbXrecord
280
     1
270
     1
271
     1
  0
XRECORD
  5
2355
102
{ACAD_REACTORS
330
2352
102
}
330
2352
100
AcDbXrecord
280
     1
270
     1
271
     1
  0
XRECORD
  5
23B7
102
{ACAD_REACTORS
330
234A
102
}
330
234A
100
AcDbXrecord
280
     1
102
MATERIAL
148
0.0
149
0.0
149
0.0
 93
        0
 94
      127
282
     0
 72
     0
 77
     0
171
     0
175
     0
179
     0
273
     0
  0
XRECORD
  5
234C
102
{ACAD_REACTORS
330
234A
102
}
330
234A
100
AcDbXrecord
280
     1
270
     1
271
     1
  0
XRECORD
  5
234B
102
{ACAD_REACTORS
330
234A
102
}
330
234A
100
AcDbXrecord
280
     1
270
     1
271
     1
  0
XRECORD
  5
234F
102
{ACAD_REACTORS
330
234A
102
}
330
234A
100
AcDbXrecord
280
     1
270
     1
271
     1
  0
XRECORD
  5
234E
102
{ACAD_REACTORS
330
234A
102
}
330
234A
100
AcDbXrecord
280
     1
270
     1
271
     1
  0
XRECORD
  5
2350
102
{ACAD_REACTORS
330
234A
102
}
330
234A
100
AcDbXrecord
280
     1
270
     1
271
     1
  0
XRECORD
  5
234D
102
{ACAD_REACTORS
330
234A
102
}
330
234A
100
AcDbXrecord
280
     1
270
     1
271
     1
  0
XRECORD
  5
23B9
102
{ACAD_REACTORS
330
235A
102
}
330
235A
100
AcDbXrecord
280
     1
102
MATERIAL
148
0.0
149
0.0
149
0.0
 93
        0
 94
      127
282
     0
 72
     0
 77
     0
171
     0
175
     0
179
     0
273
     0
  0
XRECORD
  5
235C
102
{ACAD_REACTORS
330
235A
102
}
330
235A
100
AcDbXrecord
280
     1
270
     1
271
     1
  0
XRECORD
  5
235B
102
{ACAD_REACTORS
330
235A
102
}
330
235A
100
AcDbXrecord
280
     1
270
     1
271
     1
  0
XRECORD
  5
235F
102
{ACAD_REACTORS
330
235A
102
}
330
235A
100
AcDbXrecord
280
     1
270
     1
271
     1
  0
XRECORD
  5
235E
102
{ACAD_REACTORS
330
235A
102
}
330
235A
100
AcDbXrecord
280
     1
270
     1
271
     1
  0
XRECORD
  5
2360
102
{ACAD_REACTORS
330
235A
102
}
330
235A
100
AcDbXrecord
280
     1
270
     1
271
     1
  0
XRECORD
  5
235D
102
{ACAD_REACTORS
330
235A
102
}
330
235A
100
AcDbXrecord
280
     1
270
     1
271
     1
  0
XRECORD
  5
23ED
102
{ACAD_REACTORS
330
23EC
102
}
330
23EC
100
AcDbXrecord
280
     1
102
DISPLAYNAME
  1
Imperial24
102
FLAGS
 90
        0
  0
CELLSTYLEMAP
  5
23B4
102
{ACAD_REACTORS
330
23B3
102
}
330
23B3
100
AcDbCellStyleMap
 90
        3
300
CELLSTYLE
  1
TABLEFORMAT_BEGIN
 90
        5
170
     1
 91
        0
 92
    32768
 62
   257
 93
        1
300
CONTENTFORMAT
  1
CONTENTFORMAT_BEGIN
 90
        0
 91
        0
 92
      512
 93
        0
300

 40
0.0
140
1.0
 94
        5
 62
     0
340
F
144
0.25
309
CONTENTFORMAT_END
171
     0
 94
        0
309
TABLEFORMAT_END
  1
CELLSTYLE_BEGIN
 90
        1
 91
        1
300
_TITLE
309
CELLSTYLE_END
300
CELLSTYLE
  1
TABLEFORMAT_BEGIN
 90
        5
170
     1
 91
        0
 92
        0
 62
   257
 93
        1
300
CONTENTFORMAT
  1
CONTENTFORMAT_BEGIN
 90
        0
 91
        0
 92
      512
 93
        0
300

 40
0.0
140
1.0
 94
        5
 62
     0
340
F
144
0.18
309
CONTENTFORMAT_END
171
     0
 94
        0
309
TABLEFORMAT_END
  1
CELLSTYLE_BEGIN
 90
        2
 91
        1
300
_HEADER
309
CELLSTYLE_END
300
CELLSTYLE
  1
TABLEFORMAT_BEGIN
 90
        5
170
     1
 91
        0
 92
        0
 62
   257
 93
        1
300
CONTENTFORMAT
  1
CONTENTFORMAT_BEGIN
 90
        0
 91
        0
 92
      512
 93
        0
300

 40
0.0
140
1.0
 94
        2
 62
     0
340
F
144
0.18
309
CONTENTFORMAT_END
171
     0
 94
        0
309
TABLEFORMAT_END
  1
CELLSTYLE_BEGIN
 90
        3
 91
        2
300
_DATA
309
CELLSTYLE_END
  0
XRECORD
  5
23EA
102
{ACAD_REACTORS
330
23B3
102
}
330
23B3
100
AcDbXrecord
280
     1
102
ACAD_ROUNDTRIP_PRE2007_TABLESTYLE
 90
      512
 91
        0
  1

 92
      512
 93
        0
  2

 94
      512
 95
        0
  3

  0
XRECORD
  5
23C5
102
{ACAD_REACTORS
330
23C4
102
}
330
23C4
100
AcDbXrecord
280
     1
102
RTVSPost2010Prop28
280
     1
102
RTVSPost2010PropOp28
 70
     1
102
RTVSPost2010Prop29
280
     1
102
RTVSPost2010PropOp29
 70
     1
102
RTVSPost2010Prop30
280
     0
102
RTVSPost2010PropOp30
 70
     1
102
RTVSPost2010Prop31
280
     0
102
RTVSPost2010PropOp31
 70
     1
102
RTVSPost2010Prop32
280
     0
102
RTVSPost2010PropOp32
 70
     1
102
RTVSPost2010Prop33
280
     0
102
RTVSPost2010PropOp33
 70
     1
102
RTVSPost2010Prop34
280
     0
102
RTVSPost2010PropOp34
 70
     1
102
RTVSPost2010Prop35
280
     0
102
RTVSPost2010PropOp35
 70
     1
102
RTVSPost2010Prop36
280
     0
102
RTVSPost2010PropOp36
 70
     1
102
RTVSPost2010Prop37
 90
       50
102
RTVSPost2010PropOp37
 70
     1
102
RTVSPost2010Prop38
140
0.0
102
RTVSPost2010PropOp38
 70
     1
102
RTVSPost2010Prop39
140
1.0
102
RTVSPost2010PropOp39
 70
     1
102
RTVSPost2010Prop40
 90
        0
102
RTVSPost2010PropOp40
 70
     1
102
RTVSPost2010Prop41ColorIndex
 90
       18
102
RTVSPost2010Prop41ColorRGB
 90
        0
102
RTVSPost2010PropOp41
 70
     1
102
RTVSPost2010Prop42
 90
       50
102
RTVSPost2010PropOp42
 70
     1
102
RTVSPost2010Prop43
 90
        3
102
RTVSPost2010PropOp43
 70
     1
102
RTVSPost2010Prop44ColorIndex
 90
        5
102
RTVSPost2010Prop44ColorRGB
 90
      255
102
RTVSPost2010PropOp44
 70
     1
102
RTVSPost2010Prop45
280
     0
102
RTVSPost2010PropOp45
 70
     1
102
RTVSPost2010Prop46
 90
       50
102
RTVSPost2010PropOp46
 70
     1
102
RTVSPost2010Prop47
 90
       50
102
RTVSPost2010PropOp47
 70
     1
102
RTVSPost2010Prop48
 90
       50
102
RTVSPost2010PropOp48
 70
     1
102
RTVSPost2010Prop49
280
     0
102
RTVSPost2010PropOp49
 70
     1
102
RTVSPost2010Prop50
 90
       50
102
RTVSPost2010PropOp50
 70
     1
102
RTVSPost2010Prop51ColorIndex
 90
      256
102
RTVSPost2010Prop51ColorRGB
 90
-16777216
102
RTVSPost2010PropOp51
 70
     0
102
RTVSPost2010Prop52
140
1.0
102
RTVSPost2010PropOp52
 70
     0
102
RTVSPost2010Prop53
 90
        2
102
RTVSPost2010PropOp53
 70
     1
102
RTVSPost2010Prop54
  1
strokes_ogs.tif
102
RTVSPost2010PropOp54
 70
     1
102
RTVSPost2010Prop55
280
     0
102
RTVSPost2010PropOp55
 70
     1
102
RTVSPost2010Prop56
140
1.0
102
RTVSPost2010PropOp56
 70
     1
102
RTVSPost2010Prop57
140
1.0
102
RTVSPost2010PropOp57
 70
     1
102
RTVSPropertyOp0
 70
     1
102
RTVSPropertyOp1
 70
     1
102
RTVSPropertyOp2
 70
     1
102
RTVSPropertyOp3
 70
     1
102
RTVSPropertyOp4
 70
     1
102
RTVSPropertyOp5
 70
     1
102
RTVSPropertyOp6
 70
     1
102
RTVSPropertyOp7
 70
     1
102
RTVSPropertyOp8
 70
     1
102
RTVSPropertyOp9
 70
     1
102
RTVSPropertyOp10
 70
     1
102
RTVSPropertyOp11
 70
     1
102
RTVSPropertyOp12
 70
     1
102
RTVSPropertyOp13
 70
     1
102
RTVSPropertyOp14
 70
     1
102
RTVSPropertyOp15
 70
     1
102
RTVSPropertyOp16
 70
     1
102
RTVSPropertyOp17
 70
     1
102
RTVSPropertyOp18
 70
     1
102
RTVSPropertyOp19
 70
     1
102
RTVSPropertyOp20
 70
     1
102
RTVSPropertyOp21
 70
     1
102
RTVSPropertyOp22
 70
     1
102
RTVSPropertyOp23
 70
     1
102
RTVSPropertyOp24
 70
     1
102
RTVSPropertyOp25
 70
     1
102
RTVSPropertyOp26
 70
     1
102
RTVSPropertyOp27
 70
     1
102
RTVSPropertyOp28
 70
     1
102
RTVSPropertyOp29
 70
     1
102
RTVSPropertyOp30
 70
     1
102
RTVSPropertyOp31
 70
     1
102
RTVSPropertyOp32
 70
     1
102
RTVSPropertyOp33
 70
     1
102
RTVSPropertyOp34
 70
     1
102
RTVSPropertyOp35
 70
     1
102
RTVSPropertyOp36
 70
     1
102
RTVSPropertyOp37
 70
     1
102
RTVSPropertyOp38
 70
     1
102
RTVSPropertyOp39
 70
     1
102
RTVSPropertyOp40
 70
     1
102
RTVSPropertyOp41
 70
     1
102
RTVSPropertyOp42
 70
     1
102
RTVSPropertyOp43
 70
     1
102
RTVSPropertyOp44
 70
     1
102
RTVSPropertyOp45
 70
     1
102
RTVSPropertyOp46
 70
     1
102
RTVSPropertyOp47
 70
     1
102
RTVSPropertyOp48
 70
     1
102
RTVSPropertyOp49
 70
     1
102
RTVSPropertyOp50
 70
     1
102
RTVSPropertyOp51
 70
     0
102
RTVSPropertyOp52
 70
     0
102
RTVSPropertyOp53
 70
     1
102
RTVSPropertyOp54
 70
     1
102
RTVSPropertyOp55
 70
     1
102
RTVSPropertyOp56
 70
     1
102
RTVSPropertyOp57
 70
     1
102
RTVSPropertyOp58
 70
     1
102
RTVSPropertyOp59
 70
     1
102
RTVSPropertyOp60
 70
     1
102
RTVSPropertyOp61
 70
     1
102
RTVSPropertyOp62
 70
     1
  0
XRECORD
  5
23C3
102
{ACAD_REACTORS
330
23C2
102
}
330
23C2
100
AcDbXrecord
280
     1
102
RTVSPost2010Prop28
280
     0
102
RTVSPost2010PropOp28
 70
     1
102
RTVSPost2010Prop29
280
     1
102
RTVSPost2010PropOp29
 70
     1
102
RTVSPost2010Prop30
280
     1
102
RTVSPost2010PropOp30
 70
     1
102
RTVSPost2010Prop31
280
     0
102
RTVSPost2010PropOp31
 70
     1
102
RTVSPost2010Prop32
280
     0
102
RTVSPost2010PropOp32
 70
     1
102
RTVSPost2010Prop33
280
     0
102
RTVSPost2010PropOp33
 70
     1
102
RTVSPost2010Prop34
280
     0
102
RTVSPost2010PropOp34
 70
     1
102
RTVSPost2010Prop35
280
     0
102
RTVSPost2010PropOp35
 70
     1
102
RTVSPost2010Prop36
280
     0
102
RTVSPost2010PropOp36
 70
     1
102
RTVSPost2010Prop37
 90
       50
102
RTVSPost2010PropOp37
 70
     1
102
RTVSPost2010Prop38
140
0.0
102
RTVSPost2010PropOp38
 70
     1
102
RTVSPost2010Prop39
140
1.0
102
RTVSPost2010PropOp39
 70
     1
102
RTVSPost2010Prop40
 90
        0
102
RTVSPost2010PropOp40
 70
     1
102
RTVSPost2010Prop41ColorIndex
 90
       18
102
RTVSPost2010Prop41ColorRGB
 90
        0
102
RTVSPost2010PropOp41
 70
     1
102
RTVSPost2010Prop42
 90
       50
102
RTVSPost2010PropOp42
 70
     1
102
RTVSPost2010Prop43
 90
        3
102
RTVSPost2010PropOp43
 70
     1
102
RTVSPost2010Prop44ColorIndex
 90
        5
102
RTVSPost2010Prop44ColorRGB
 90
      255
102
RTVSPost2010PropOp44
 70
     1
102
RTVSPost2010Prop45
280
     0
102
RTVSPost2010PropOp45
 70
     1
102
RTVSPost2010Prop46
 90
       50
102
RTVSPost2010PropOp46
 70
     1
102
RTVSPost2010Prop47
 90
       50
102
RTVSPost2010PropOp47
 70
     1
102
RTVSPost2010Prop48
 90
       50
102
RTVSPost2010PropOp48
 70
     1
102
RTVSPost2010Prop49
280
     0
102
RTVSPost2010PropOp49
 70
     1
102
RTVSPost2010Prop50
 90
       50
102
RTVSPost2010PropOp50
 70
     1
102
RTVSPost2010Prop51ColorIndex
 90
      256
102
RTVSPost2010Prop51ColorRGB
 90
-16777216
102
RTVSPost2010PropOp51
 70
     0
102
RTVSPost2010Prop52
140
1.0
102
RTVSPost2010PropOp52
 70
     0
102
RTVSPost2010Prop53
 90
        2
102
RTVSPost2010PropOp53
 70
     1
102
RTVSPost2010Prop54
  1
strokes_ogs.tif
102
RTVSPost2010PropOp54
 70
     1
102
RTVSPost2010Prop55
280
     0
102
RTVSPost2010PropOp55
 70
     1
102
RTVSPost2010Prop56
140
1.0
102
RTVSPost2010PropOp56
 70
     1
102
RTVSPost2010Prop57
140
1.0
102
RTVSPost2010PropOp57
 70
     1
102
RTVSPropertyOp0
 70
     1
102
RTVSPropertyOp1
 70
     1
102
RTVSPropertyOp2
 70
     1
102
RTVSPropertyOp3
 70
     1
102
RTVSPropertyOp4
 70
     1
102
RTVSPropertyOp5
 70
     1
102
RTVSPropertyOp6
 70
     1
102
RTVSPropertyOp7
 70
     1
102
RTVSPropertyOp8
 70
     1
102
RTVSPropertyOp9
 70
     1
102
RTVSPropertyOp10
 70
     1
102
RTVSPropertyOp11
 70
     1
102
RTVSPropertyOp12
 70
     1
102
RTVSPropertyOp13
 70
     1
102
RTVSPropertyOp14
 70
     1
102
RTVSPropertyOp15
 70
     1
102
RTVSPropertyOp16
 70
     1
102
RTVSPropertyOp17
 70
     1
102
RTVSPropertyOp18
 70
     1
102
RTVSPropertyOp19
 70
     1
102
RTVSPropertyOp20
 70
     1
102
RTVSPropertyOp21
 70
     1
102
RTVSPropertyOp22
 70
     1
102
RTVSPropertyOp23
 70
     1
102
RTVSPropertyOp24
 70
     1
102
RTVSPropertyOp25
 70
     1
102
RTVSPropertyOp26
 70
     1
102
RTVSPropertyOp27
 70
     1
102
RTVSPropertyOp28
 70
     1
102
RTVSPropertyOp29
 70
     1
102
RTVSPropertyOp30
 70
     1
102
RTVSPropertyOp31
 70
     1
102
RTVSPropertyOp32
 70
     1
102
RTVSPropertyOp33
 70
     1
102
RTVSPropertyOp34
 70
     1
102
RTVSPropertyOp35
 70
     1
102
RTVSPropertyOp36
 70
     1
102
RTVSPropertyOp37
 70
     1
102
RTVSPropertyOp38
 70
     1
102
RTVSPropertyOp39
 70
     1
102
RTVSPropertyOp40
 70
     1
102
RTVSPropertyOp41
 70
     1
102
RTVSPropertyOp42
 70
     1
102
RTVSPropertyOp43
 70
     1
102
RTVSPropertyOp44
 70
     1
102
RTVSPropertyOp45
 70
     1
102
RTVSPropertyOp46
 70
     1
102
RTVSPropertyOp47
 70
     1
102
RTVSPropertyOp48
 70
     1
102
RTVSPropertyOp49
 70
     1
102
RTVSPropertyOp50
 70
     1
102
RTVSPropertyOp51
 70
     0
102
RTVSPropertyOp52
 70
     0
102
RTVSPropertyOp53
 70
     1
102
RTVSPropertyOp54
 70
     1
102
RTVSPropertyOp55
 70
     1
102
RTVSPropertyOp56
 70
     1
102
RTVSPropertyOp57
 70
     1
102
RTVSPropertyOp58
 70
     1
102
RTVSPropertyOp59
 70
     1
102
RTVSPropertyOp60
 70
     1
102
RTVSPropertyOp61
 70
     1
102
RTVSPropertyOp62
 70
     1
  0
XRECORD
  5
23D1
102
{ACAD_REACTORS
330
23D0
102
}
330
23D0
100
AcDbXrecord
280
     1
102
RTVSPost2010Prop28
280
     0
102
RTVSPost2010PropOp28
 70
     1
102
RTVSPost2010Prop29
280
     1
102
RTVSPost2010PropOp29
 70
     1
102
RTVSPost2010Prop30
280
     1
102
RTVSPost2010PropOp30
 70
     1
102
RTVSPost2010Prop31
280
     0
102
RTVSPost2010PropOp31
 70
     1
102
RTVSPost2010Prop32
280
     0
102
RTVSPost2010PropOp32
 70
     1
102
RTVSPost2010Prop33
280
     0
102
RTVSPost2010PropOp33
 70
     1
102
RTVSPost2010Prop34
280
     0
102
RTVSPost2010PropOp34
 70
     1
102
RTVSPost2010Prop35
280
     0
102
RTVSPost2010PropOp35
 70
     1
102
RTVSPost2010Prop36
280
     0
102
RTVSPost2010PropOp36
 70
     1
102
RTVSPost2010Prop37
 90
       50
102
RTVSPost2010PropOp37
 70
     1
102
RTVSPost2010Prop38
140
0.0
102
RTVSPost2010PropOp38
 70
     1
102
RTVSPost2010Prop39
140
1.0
102
RTVSPost2010PropOp39
 70
     1
102
RTVSPost2010Prop40
 90
        0
102
RTVSPost2010PropOp40
 70
     1
102
RTVSPost2010Prop41ColorIndex
 90
       18
102
RTVSPost2010Prop41ColorRGB
 90
        0
102
RTVSPost2010PropOp41
 70
     1
102
RTVSPost2010Prop42
 90
       50
102
RTVSPost2010PropOp42
 70
     1
102
RTVSPost2010Prop43
 90
        3
102
RTVSPost2010PropOp43
 70
     1
102
RTVSPost2010Prop44ColorIndex
 90
        5
102
RTVSPost2010Prop44ColorRGB
 90
      255
102
RTVSPost2010PropOp44
 70
     1
102
RTVSPost2010Prop45
280
     0
102
RTVSPost2010PropOp45
 70
     1
102
RTVSPost2010Prop46
 90
       50
102
RTVSPost2010PropOp46
 70
     1
102
RTVSPost2010Prop47
 90
       50
102
RTVSPost2010PropOp47
 70
     1
102
RTVSPost2010Prop48
 90
       50
102
RTVSPost2010PropOp48
 70
     1
102
RTVSPost2010Prop49
280
     0
102
RTVSPost2010PropOp49
 70
     1
102
RTVSPost2010Prop50
 90
       50
102
RTVSPost2010PropOp50
 70
     1
102
RTVSPost2010Prop51ColorIndex
 90
      256
102
RTVSPost2010Prop51ColorRGB
 90
-16777216
102
RTVSPost2010PropOp51
 70
     0
102
RTVSPost2010Prop52
140
1.0
102
RTVSPost2010PropOp52
 70
     0
102
RTVSPost2010Prop53
 90
        2
102
RTVSPost2010PropOp53
 70
     1
102
RTVSPost2010Prop54
  1
strokes_ogs.tif
102
RTVSPost2010PropOp54
 70
     1
102
RTVSPost2010Prop55
280
     0
102
RTVSPost2010PropOp55
 70
     1
102
RTVSPost2010Prop56
140
1.0
102
RTVSPost2010PropOp56
 70
     1
102
RTVSPost2010Prop57
140
1.0
102
RTVSPost2010PropOp57
 70
     1
102
RTVSPropertyOp0
 70
     1
102
RTVSPropertyOp1
 70
     1
102
RTVSPropertyOp2
 70
     1
102
RTVSPropertyOp3
 70
     1
102
RTVSPropertyOp4
 70
     1
102
RTVSPropertyOp5
 70
     1
102
RTVSPropertyOp6
 70
     1
102
RTVSPropertyOp7
 70
     1
102
RTVSPropertyOp8
 70
     1
102
RTVSPropertyOp9
 70
     1
102
RTVSPropertyOp10
 70
     1
102
RTVSPropertyOp11
 70
     1
102
RTVSPropertyOp12
 70
     1
102
RTVSPropertyOp13
 70
     1
102
RTVSPropertyOp14
 70
     1
102
RTVSPropertyOp15
 70
     1
102
RTVSPropertyOp16
 70
     1
102
RTVSPropertyOp17
 70
     1
102
RTVSPropertyOp18
 70
     1
102
RTVSPropertyOp19
 70
     1
102
RTVSPropertyOp20
 70
     1
102
RTVSPropertyOp21
 70
     1
102
RTVSPropertyOp22
 70
     1
102
RTVSPropertyOp23
 70
     1
102
RTVSPropertyOp24
 70
     1
102
RTVSPropertyOp25
 70
     1
102
RTVSPropertyOp26
 70
     1
102
RTVSPropertyOp27
 70
     1
102
RTVSPropertyOp28
 70
     1
102
RTVSPropertyOp29
 70
     1
102
RTVSPropertyOp30
 70
     1
102
RTVSPropertyOp31
 70
     1
102
RTVSPropertyOp32
 70
     1
102
RTVSPropertyOp33
 70
     1
102
RTVSPropertyOp34
 70
     1
102
RTVSPropertyOp35
 70
     1
102
RTVSPropertyOp36
 70
     1
102
RTVSPropertyOp37
 70
     1
102
RTVSPropertyOp38
 70
     1
102
RTVSPropertyOp39
 70
     1
102
RTVSPropertyOp40
 70
     1
102
RTVSPropertyOp41
 70
     1
102
RTVSPropertyOp42
 70
     1
102
RTVSPropertyOp43
 70
     1
102
RTVSPropertyOp44
 70
     1
102
RTVSPropertyOp45
 70
     1
102
RTVSPropertyOp46
 70
     1
102
RTVSPropertyOp47
 70
     1
102
RTVSPropertyOp48
 70
     1
102
RTVSPropertyOp49
 70
     1
102
RTVSPropertyOp50
 70
     1
102
RTVSPropertyOp51
 70
     0
102
RTVSPropertyOp52
 70
     0
102
RTVSPropertyOp53
 70
     1
102
RTVSPropertyOp54
 70
     1
102
RTVSPropertyOp55
 70
     1
102
RTVSPropertyOp56
 70
     1
102
RTVSPropertyOp57
 70
     1
102
RTVSPropertyOp58
 70
     1
102
RTVSPropertyOp59
 70
     1
102
RTVSPropertyOp60
 70
     1
102
RTVSPropertyOp61
 70
     1
102
RTVSPropertyOp62
 70
     1
  0
XRECORD
  5
23D9
102
{ACAD_REACTORS
330
23D8
102
}
330
23D8
100
AcDbXrecord
280
     1
102
RTVSPost2010Prop28
280
     0
102
RTVSPost2010PropOp28
 70
     1
102
RTVSPost2010Prop29
280
     1
102
RTVSPost2010PropOp29
 70
     1
102
RTVSPost2010Prop30
280
     1
102
RTVSPost2010PropOp30
 70
     1
102
RTVSPost2010Prop31
280
     0
102
RTVSPost2010PropOp31
 70
     1
102
RTVSPost2010Prop32
280
     0
102
RTVSPost2010PropOp32
 70
     1
102
RTVSPost2010Prop33
280
     0
102
RTVSPost2010PropOp33
 70
     1
102
RTVSPost2010Prop34
280
     0
102
RTVSPost2010PropOp34
 70
     1
102
RTVSPost2010Prop35
280
     0
102
RTVSPost2010PropOp35
 70
     1
102
RTVSPost2010Prop36
280
     0
102
RTVSPost2010PropOp36
 70
     1
102
RTVSPost2010Prop37
 90
       50
102
RTVSPost2010PropOp37
 70
     1
102
RTVSPost2010Prop38
140
0.0
102
RTVSPost2010PropOp38
 70
     1
102
RTVSPost2010Prop39
140
1.0
102
RTVSPost2010PropOp39
 70
     1
102
RTVSPost2010Prop40
 90
        0
102
RTVSPost2010PropOp40
 70
     1
102
RTVSPost2010Prop41ColorIndex
 90
       18
102
RTVSPost2010Prop41ColorRGB
 90
        0
102
RTVSPost2010PropOp41
 70
     1
102
RTVSPost2010Prop42
 90
       50
102
RTVSPost2010PropOp42
 70
     1
102
RTVSPost2010Prop43
 90
        3
102
RTVSPost2010PropOp43
 70
     1
102
RTVSPost2010Prop44ColorIndex
 90
        5
102
RTVSPost2010Prop44ColorRGB
 90
      255
102
RTVSPost2010PropOp44
 70
     1
102
RTVSPost2010Prop45
280
     0
102
RTVSPost2010PropOp45
 70
     1
102
RTVSPost2010Prop46
 90
       50
102
RTVSPost2010PropOp46
 70
     1
102
RTVSPost2010Prop47
 90
       50
102
RTVSPost2010PropOp47
 70
     1
102
RTVSPost2010Prop48
 90
       50
102
RTVSPost2010PropOp48
 70
     1
102
RTVSPost2010Prop49
280
     0
102
RTVSPost2010PropOp49
 70
     1
102
RTVSPost2010Prop50
 90
       50
102
RTVSPost2010PropOp50
 70
     1
102
RTVSPost2010Prop51ColorIndex
 90
      256
102
RTVSPost2010Prop51ColorRGB
 90
-16777216
102
RTVSPost2010PropOp51
 70
     0
102
RTVSPost2010Prop52
140
1.0
102
RTVSPost2010PropOp52
 70
     0
102
RTVSPost2010Prop53
 90
        2
102
RTVSPost2010PropOp53
 70
     1
102
RTVSPost2010Prop54
  1
strokes_ogs.tif
102
RTVSPost2010PropOp54
 70
     1
102
RTVSPost2010Prop55
280
     0
102
RTVSPost2010PropOp55
 70
     1
102
RTVSPost2010Prop56
140
1.0
102
RTVSPost2010PropOp56
 70
     1
102
RTVSPost2010Prop57
140
1.0
102
RTVSPost2010PropOp57
 70
     1
102
RTVSPropertyOp0
 70
     1
102
RTVSPropertyOp1
 70
     1
102
RTVSPropertyOp2
 70
     1
102
RTVSPropertyOp3
 70
     1
102
RTVSPropertyOp4
 70
     1
102
RTVSPropertyOp5
 70
     1
102
RTVSPropertyOp6
 70
     1
102
RTVSPropertyOp7
 70
     1
102
RTVSPropertyOp8
 70
     1
102
RTVSPropertyOp9
 70
     1
102
RTVSPropertyOp10
 70
     1
102
RTVSPropertyOp11
 70
     1
102
RTVSPropertyOp12
 70
     1
102
RTVSPropertyOp13
 70
     1
102
RTVSPropertyOp14
 70
     1
102
RTVSPropertyOp15
 70
     1
102
RTVSPropertyOp16
 70
     1
102
RTVSPropertyOp17
 70
     1
102
RTVSPropertyOp18
 70
     1
102
RTVSPropertyOp19
 70
     1
102
RTVSPropertyOp20
 70
     1
102
RTVSPropertyOp21
 70
     1
102
RTVSPropertyOp22
 70
     1
102
RTVSPropertyOp23
 70
     1
102
RTVSPropertyOp24
 70
     1
102
RTVSPropertyOp25
 70
     1
102
RTVSPropertyOp26
 70
     1
102
RTVSPropertyOp27
 70
     1
102
RTVSPropertyOp28
 70
     1
102
RTVSPropertyOp29
 70
     1
102
RTVSPropertyOp30
 70
     1
102
RTVSPropertyOp31
 70
     1
102
RTVSPropertyOp32
 70
     1
102
RTVSPropertyOp33
 70
     1
102
RTVSPropertyOp34
 70
     1
102
RTVSPropertyOp35
 70
     1
102
RTVSPropertyOp36
 70
     1
102
RTVSPropertyOp37
 70
     1
102
RTVSPropertyOp38
 70
     1
102
RTVSPropertyOp39
 70
     1
102
RTVSPropertyOp40
 70
     1
102
RTVSPropertyOp41
 70
     1
102
RTVSPropertyOp42
 70
     1
102
RTVSPropertyOp43
 70
     1
102
RTVSPropertyOp44
 70
     1
102
RTVSPropertyOp45
 70
     1
102
RTVSPropertyOp46
 70
     1
102
RTVSPropertyOp47
 70
     1
102
RTVSPropertyOp48
 70
     1
102
RTVSPropertyOp49
 70
     1
102
RTVSPropertyOp50
 70
     1
102
RTVSPropertyOp51
 70
     0
102
RTVSPropertyOp52
 70
     0
102
RTVSPropertyOp53
 70
     1
102
RTVSPropertyOp54
 70
     1
102
RTVSPropertyOp55
 70
     1
102
RTVSPropertyOp56
 70
     1
102
RTVSPropertyOp57
 70
     1
102
RTVSPropertyOp58
 70
     1
102
RTVSPropertyOp59
 70
     1
102
RTVSPropertyOp60
 70
     1
102
RTVSPropertyOp61
 70
     1
102
RTVSPropertyOp62
 70
     1
  0
XRECORD
  5
23CB
102
{ACAD_REACTORS
330
23CA
102
}
330
23CA
100
AcDbXrecord
280
     1
102
RTVSPost2010Prop28
280
     0
102
RTVSPost2010PropOp28
 70
     1
102
RTVSPost2010Prop29
280
     1
102
RTVSPost2010PropOp29
 70
     1
102
RTVSPost2010Prop30
280
     1
102
RTVSPost2010PropOp30
 70
     1
102
RTVSPost2010Prop31
280
     0
102
RTVSPost2010PropOp31
 70
     1
102
RTVSPost2010Prop32
280
     0
102
RTVSPost2010PropOp32
 70
     1
102
RTVSPost2010Prop33
280
     0
102
RTVSPost2010PropOp33
 70
     1
102
RTVSPost2010Prop34
280
     0
102
RTVSPost2010PropOp34
 70
     1
102
RTVSPost2010Prop35
280
     0
102
RTVSPost2010PropOp35
 70
     1
102
RTVSPost2010Prop36
280
     0
102
RTVSPost2010PropOp36
 70
     1
102
RTVSPost2010Prop37
 90
       50
102
RTVSPost2010PropOp37
 70
     1
102
RTVSPost2010Prop38
140
0.0
102
RTVSPost2010PropOp38
 70
     1
102
RTVSPost2010Prop39
140
1.0
102
RTVSPost2010PropOp39
 70
     1
102
RTVSPost2010Prop40
 90
        0
102
RTVSPost2010PropOp40
 70
     1
102
RTVSPost2010Prop41ColorIndex
 90
       18
102
RTVSPost2010Prop41ColorRGB
 90
        0
102
RTVSPost2010PropOp41
 70
     1
102
RTVSPost2010Prop42
 90
       50
102
RTVSPost2010PropOp42
 70
     1
102
RTVSPost2010Prop43
 90
        3
102
RTVSPost2010PropOp43
 70
     1
102
RTVSPost2010Prop44ColorIndex
 90
        5
102
RTVSPost2010Prop44ColorRGB
 90
      255
102
RTVSPost2010PropOp44
 70
     1
102
RTVSPost2010Prop45
280
     0
102
RTVSPost2010PropOp45
 70
     1
102
RTVSPost2010Prop46
 90
       50
102
RTVSPost2010PropOp46
 70
     1
102
RTVSPost2010Prop47
 90
       50
102
RTVSPost2010PropOp47
 70
     1
102
RTVSPost2010Prop48
 90
       50
102
RTVSPost2010PropOp48
 70
     1
102
RTVSPost2010Prop49
280
     0
102
RTVSPost2010PropOp49
 70
     1
102
RTVSPost2010Prop50
 90
       50
102
RTVSPost2010PropOp50
 70
     1
102
RTVSPost2010Prop51ColorIndex
 90
      256
102
RTVSPost2010Prop51ColorRGB
 90
-16777216
102
RTVSPost2010PropOp51
 70
     0
102
RTVSPost2010Prop52
140
1.0
102
RTVSPost2010PropOp52
 70
     0
102
RTVSPost2010Prop53
 90
        2
102
RTVSPost2010PropOp53
 70
     1
102
RTVSPost2010Prop54
  1
strokes_ogs.tif
102
RTVSPost2010PropOp54
 70
     1
102
RTVSPost2010Prop55
280
     0
102
RTVSPost2010PropOp55
 70
     1
102
RTVSPost2010Prop56
140
1.0
102
RTVSPost2010PropOp56
 70
     1
102
RTVSPost2010Prop57
140
1.0
102
RTVSPost2010PropOp57
 70
     1
102
RTVSPropertyOp0
 70
     1
102
RTVSPropertyOp1
 70
     1
102
RTVSPropertyOp2
 70
     1
102
RTVSPropertyOp3
 70
     1
102
RTVSPropertyOp4
 70
     1
102
RTVSPropertyOp5
 70
     1
102
RTVSPropertyOp6
 70
     1
102
RTVSPropertyOp7
 70
     1
102
RTVSPropertyOp8
 70
     1
102
RTVSPropertyOp9
 70
     1
102
RTVSPropertyOp10
 70
     1
102
RTVSPropertyOp11
 70
     1
102
RTVSPropertyOp12
 70
     1
102
RTVSPropertyOp13
 70
     1
102
RTVSPropertyOp14
 70
     1
102
RTVSPropertyOp15
 70
     1
102
RTVSPropertyOp16
 70
     1
102
RTVSPropertyOp17
 70
     1
102
RTVSPropertyOp18
 70
     1
102
RTVSPropertyOp19
 70
     1
102
RTVSPropertyOp20
 70
     1
102
RTVSPropertyOp21
 70
     1
102
RTVSPropertyOp22
 70
     1
102
RTVSPropertyOp23
 70
     1
102
RTVSPropertyOp24
 70
     1
102
RTVSPropertyOp25
 70
     1
102
RTVSPropertyOp26
 70
     1
102
RTVSPropertyOp27
 70
     1
102
RTVSPropertyOp28
 70
     1
102
RTVSPropertyOp29
 70
     1
102
RTVSPropertyOp30
 70
     1
102
RTVSPropertyOp31
 70
     1
102
RTVSPropertyOp32
 70
     1
102
RTVSPropertyOp33
 70
     1
102
RTVSPropertyOp34
 70
     1
102
RTVSPropertyOp35
 70
     1
102
RTVSPropertyOp36
 70
     1
102
RTVSPropertyOp37
 70
     1
102
RTVSPropertyOp38
 70
     1
102
RTVSPropertyOp39
 70
     1
102
RTVSPropertyOp40
 70
     1
102
RTVSPropertyOp41
 70
     1
102
RTVSPropertyOp42
 70
     1
102
RTVSPropertyOp43
 70
     1
102
RTVSPropertyOp44
 70
     1
102
RTVSPropertyOp45
 70
     1
102
RTVSPropertyOp46
 70
     1
102
RTVSPropertyOp47
 70
     1
102
RTVSPropertyOp48
 70
     1
102
RTVSPropertyOp49
 70
     1
102
RTVSPropertyOp50
 70
     1
102
RTVSPropertyOp51
 70
     0
102
RTVSPropertyOp52
 70
     0
102
RTVSPropertyOp53
 70
     1
102
RTVSPropertyOp54
 70
     1
102
RTVSPropertyOp55
 70
     1
102
RTVSPropertyOp56
 70
     1
102
RTVSPropertyOp57
 70
     1
102
RTVSPropertyOp58
 70
     1
102
RTVSPropertyOp59
 70
     1
102
RTVSPropertyOp60
 70
     1
102
RTVSPropertyOp61
 70
     1
102
RTVSPropertyOp62
 70
     1
  0
XRECORD
  5
23CF
102
{ACAD_REACTORS
330
23CE
102
}
330
23CE
100
AcDbXrecord
280
     1
102
RTVSPost2010Prop28
280
     0
102
RTVSPost2010PropOp28
 70
     1
102
RTVSPost2010Prop29
280
     1
102
RTVSPost2010PropOp29
 70
     1
102
RTVSPost2010Prop30
280
     1
102
RTVSPost2010PropOp30
 70
     1
102
RTVSPost2010Prop31
280
     0
102
RTVSPost2010PropOp31
 70
     1
102
RTVSPost2010Prop32
280
     0
102
RTVSPost2010PropOp32
 70
     1
102
RTVSPost2010Prop33
280
     0
102
RTVSPost2010PropOp33
 70
     1
102
RTVSPost2010Prop34
280
     0
102
RTVSPost2010PropOp34
 70
     1
102
RTVSPost2010Prop35
280
     0
102
RTVSPost2010PropOp35
 70
     1
102
RTVSPost2010Prop36
280
     0
102
RTVSPost2010PropOp36
 70
     1
102
RTVSPost2010Prop37
 90
       50
102
RTVSPost2010PropOp37
 70
     1
102
RTVSPost2010Prop38
140
0.0
102
RTVSPost2010PropOp38
 70
     1
102
RTVSPost2010Prop39
140
1.0
102
RTVSPost2010PropOp39
 70
     1
102
RTVSPost2010Prop40
 90
        0
102
RTVSPost2010PropOp40
 70
     1
102
RTVSPost2010Prop41ColorIndex
 90
       18
102
RTVSPost2010Prop41ColorRGB
 90
        0
102
RTVSPost2010PropOp41
 70
     1
102
RTVSPost2010Prop42
 90
       50
102
RTVSPost2010PropOp42
 70
     1
102
RTVSPost2010Prop43
 90
        3
102
RTVSPost2010PropOp43
 70
     1
102
RTVSPost2010Prop44ColorIndex
 90
        5
102
RTVSPost2010Prop44ColorRGB
 90
      255
102
RTVSPost2010PropOp44
 70
     1
102
RTVSPost2010Prop45
280
     0
102
RTVSPost2010PropOp45
 70
     1
102
RTVSPost2010Prop46
 90
       50
102
RTVSPost2010PropOp46
 70
     1
102
RTVSPost2010Prop47
 90
       50
102
RTVSPost2010PropOp47
 70
     1
102
RTVSPost2010Prop48
 90
       50
102
RTVSPost2010PropOp48
 70
     1
102
RTVSPost2010Prop49
280
     0
102
RTVSPost2010PropOp49
 70
     1
102
RTVSPost2010Prop50
 90
       50
102
RTVSPost2010PropOp50
 70
     1
102
RTVSPost2010Prop51ColorIndex
 90
      256
102
RTVSPost2010Prop51ColorRGB
 90
-16777216
102
RTVSPost2010PropOp51
 70
     0
102
RTVSPost2010Prop52
140
1.0
102
RTVSPost2010PropOp52
 70
     0
102
RTVSPost2010Prop53
 90
        2
102
RTVSPost2010PropOp53
 70
     1
102
RTVSPost2010Prop54
  1
strokes_ogs.tif
102
RTVSPost2010PropOp54
 70
     1
102
RTVSPost2010Prop55
280
     0
102
RTVSPost2010PropOp55
 70
     1
102
RTVSPost2010Prop56
140
1.0
102
RTVSPost2010PropOp56
 70
     1
102
RTVSPost2010Prop57
140
1.0
102
RTVSPost2010PropOp57
 70
     1
102
RTVSPropertyOp0
 70
     1
102
RTVSPropertyOp1
 70
     1
102
RTVSPropertyOp2
 70
     1
102
RTVSPropertyOp3
 70
     1
102
RTVSPropertyOp4
 70
     1
102
RTVSPropertyOp5
 70
     1
102
RTVSPropertyOp6
 70
     1
102
RTVSPropertyOp7
 70
     1
102
RTVSPropertyOp8
 70
     1
102
RTVSPropertyOp9
 70
     1
102
RTVSPropertyOp10
 70
     1
102
RTVSPropertyOp11
 70
     1
102
RTVSPropertyOp12
 70
     1
102
RTVSPropertyOp13
 70
     1
102
RTVSPropertyOp14
 70
     1
102
RTVSPropertyOp15
 70
     1
102
RTVSPropertyOp16
 70
     1
102
RTVSPropertyOp17
 70
     1
102
RTVSPropertyOp18
 70
     1
102
RTVSPropertyOp19
 70
     1
102
RTVSPropertyOp20
 70
     1
102
RTVSPropertyOp21
 70
     1
102
RTVSPropertyOp22
 70
     1
102
RTVSPropertyOp23
 70
     1
102
RTVSPropertyOp24
 70
     1
102
RTVSPropertyOp25
 70
     1
102
RTVSPropertyOp26
 70
     1
102
RTVSPropertyOp27
 70
     1
102
RTVSPropertyOp28
 70
     1
102
RTVSPropertyOp29
 70
     1
102
RTVSPropertyOp30
 70
     1
102
RTVSPropertyOp31
 70
     1
102
RTVSPropertyOp32
 70
     1
102
RTVSPropertyOp33
 70
     1
102
RTVSPropertyOp34
 70
     1
102
RTVSPropertyOp35
 70
     1
102
RTVSPropertyOp36
 70
     1
102
RTVSPropertyOp37
 70
     1
102
RTVSPropertyOp38
 70
     1
102
RTVSPropertyOp39
 70
     1
102
RTVSPropertyOp40
 70
     1
102
RTVSPropertyOp41
 70
     1
102
RTVSPropertyOp42
 70
     1
102
RTVSPropertyOp43
 70
     1
102
RTVSPropertyOp44
 70
     1
102
RTVSPropertyOp45
 70
     1
102
RTVSPropertyOp46
 70
     1
102
RTVSPropertyOp47
 70
     1
102
RTVSPropertyOp48
 70
     1
102
RTVSPropertyOp49
 70
     1
102
RTVSPropertyOp50
 70
     1
102
RTVSPropertyOp51
 70
     0
102
RTVSPropertyOp52
 70
     0
102
RTVSPropertyOp53
 70
     1
102
RTVSPropertyOp54
 70
     1
102
RTVSPropertyOp55
 70
     1
102
RTVSPropertyOp56
 70
     1
102
RTVSPropertyOp57
 70
     1
102
RTVSPropertyOp58
 70
     1
102
RTVSPropertyOp59
 70
     1
102
RTVSPropertyOp60
 70
     1
102
RTVSPropertyOp61
 70
     1
102
RTVSPropertyOp62
 70
     1
  0
XRECORD
  5
23E9
102
{ACAD_REACTORS
330
23E8
102
}
330
23E8
100
AcDbXrecord
280
     1
102
RTVSPost2010Prop28
280
     0
102
RTVSPost2010PropOp28
 70
     1
102
RTVSPost2010Prop29
280
     1
102
RTVSPost2010PropOp29
 70
     1
102
RTVSPost2010Prop30
280
     1
102
RTVSPost2010PropOp30
 70
     1
102
RTVSPost2010Prop31
280
     0
102
RTVSPost2010PropOp31
 70
     1
102
RTVSPost2010Prop32
280
     0
102
RTVSPost2010PropOp32
 70
     1
102
RTVSPost2010Prop33
280
     0
102
RTVSPost2010PropOp33
 70
     1
102
RTVSPost2010Prop34
280
     0
102
RTVSPost2010PropOp34
 70
     1
102
RTVSPost2010Prop35
280
     0
102
RTVSPost2010PropOp35
 70
     1
102
RTVSPost2010Prop36
280
     0
102
RTVSPost2010PropOp36
 70
     1
102
RTVSPost2010Prop37
 90
       50
102
RTVSPost2010PropOp37
 70
     0
102
RTVSPost2010Prop38
140
0.0
102
RTVSPost2010PropOp38
 70
     0
102
RTVSPost2010Prop39
140
1.0
102
RTVSPost2010PropOp39
 70
     0
102
RTVSPost2010Prop40
 90
        0
102
RTVSPost2010PropOp40
 70
     0
102
RTVSPost2010Prop41ColorIndex
 90
       18
102
RTVSPost2010Prop41ColorRGB
 90
        0
102
RTVSPost2010PropOp41
 70
     0
102
RTVSPost2010Prop42
 90
       50
102
RTVSPost2010PropOp42
 70
     0
102
RTVSPost2010Prop43
 90
        3
102
RTVSPost2010PropOp43
 70
     0
102
RTVSPost2010Prop44ColorIndex
 90
        5
102
RTVSPost2010Prop44ColorRGB
 90
      255
102
RTVSPost2010PropOp44
 70
     0
102
RTVSPost2010Prop45
280
     0
102
RTVSPost2010PropOp45
 70
     1
102
RTVSPost2010Prop46
 90
       50
102
RTVSPost2010PropOp46
 70
     0
102
RTVSPost2010Prop47
 90
       50
102
RTVSPost2010PropOp47
 70
     0
102
RTVSPost2010Prop48
 90
       50
102
RTVSPost2010PropOp48
 70
     0
102
RTVSPost2010Prop49
280
     0
102
RTVSPost2010PropOp49
 70
     1
102
RTVSPost2010Prop50
 90
       50
102
RTVSPost2010PropOp50
 70
     0
102
RTVSPost2010Prop51ColorIndex
 90
      256
102
RTVSPost2010Prop51ColorRGB
 90
-16777216
102
RTVSPost2010PropOp51
 70
     0
102
RTVSPost2010Prop52
140
1.0
102
RTVSPost2010PropOp52
 70
     0
102
RTVSPost2010Prop53
 90
        2
102
RTVSPost2010PropOp53
 70
     0
102
RTVSPost2010Prop54
  1
strokes_ogs.tif
102
RTVSPost2010PropOp54
 70
     0
102
RTVSPost2010Prop55
280
     0
102
RTVSPost2010PropOp55
 70
     1
102
RTVSPost2010Prop56
140
1.0
102
RTVSPost2010PropOp56
 70
     0
102
RTVSPost2010Prop57
140
1.0
102
RTVSPost2010PropOp57
 70
     0
102
RTVSPropertyOp0
 70
     0
102
RTVSPropertyOp1
 70
     0
102
RTVSPropertyOp2
 70
     0
102
RTVSPropertyOp3
 70
     0
102
RTVSPropertyOp4
 70
     0
102
RTVSPropertyOp5
 70
     0
102
RTVSPropertyOp6
 70
     0
102
RTVSPropertyOp7
 70
     0
102
RTVSPropertyOp8
 70
     0
102
RTVSPropertyOp9
 70
     0
102
RTVSPropertyOp10
 70
     0
102
RTVSPropertyOp11
 70
     0
102
RTVSPropertyOp12
 70
     0
102
RTVSPropertyOp13
 70
     0
102
RTVSPropertyOp14
 70
     2
102
RTVSPropertyOp15
 70
     0
102
RTVSPropertyOp16
 70
     0
102
RTVSPropertyOp17
 70
     0
102
RTVSPropertyOp18
 70
     0
102
RTVSPropertyOp19
 70
     0
102
RTVSPropertyOp20
 70
     0
102
RTVSPropertyOp21
 70
     0
102
RTVSPropertyOp22
 70
     0
102
RTVSPropertyOp23
 70
     0
102
RTVSPropertyOp24
 70
     0
102
RTVSPropertyOp25
 70
     0
102
RTVSPropertyOp26
 70
     0
102
RTVSPropertyOp27
 70
     0
102
RTVSPropertyOp28
 70
     1
102
RTVSPropertyOp29
 70
     1
102
RTVSPropertyOp30
 70
     1
102
RTVSPropertyOp31
 70
     1
102
RTVSPropertyOp32
 70
     1
102
RTVSPropertyOp33
 70
     1
102
RTVSPropertyOp34
 70
     1
102
RTVSPropertyOp35
 70
     1
102
RTVSPropertyOp36
 70
     1
102
RTVSPropertyOp37
 70
     0
102
RTVSPropertyOp38
 70
     0
102
RTVSPropertyOp39
 70
     0
102
RTVSPropertyOp40
 70
     0
102
RTVSPropertyOp41
 70
     0
102
RTVSPropertyOp42
 70
     0
102
RTVSPropertyOp43
 70
     0
102
RTVSPropertyOp44
 70
     0
102
RTVSPropertyOp45
 70
     1
102
RTVSPropertyOp46
 70
     0
102
RTVSPropertyOp47
 70
     0
102
RTVSPropertyOp48
 70
     0
102
RTVSPropertyOp49
 70
     1
102
RTVSPropertyOp50
 70
     0
102
RTVSPropertyOp51
 70
     0
102
RTVSPropertyOp52
 70
     0
102
RTVSPropertyOp53
 70
     0
102
RTVSPropertyOp54
 70
     0
102
RTVSPropertyOp55
 70
     1
102
RTVSPropertyOp56
 70
     0
102
RTVSPropertyOp57
 70
     0
102
RTVSPropertyOp58
 70
     0
102
RTVSPropertyOp59
 70
     0
102
RTVSPropertyOp60
 70
     0
102
RTVSPropertyOp61
 70
     0
102
RTVSPropertyOp62
 70
     0
  0
XRECORD
  5
23D7
102
{ACAD_REACTORS
330
23D6
102
}
330
23D6
100
AcDbXrecord
280
     1
102
RTVSPost2010Prop28
280
     0
102
RTVSPost2010PropOp28
 70
     1
102
RTVSPost2010Prop29
280
     1
102
RTVSPost2010PropOp29
 70
     1
102
RTVSPost2010Prop30
280
     1
102
RTVSPost2010PropOp30
 70
     1
102
RTVSPost2010Prop31
280
     0
102
RTVSPost2010PropOp31
 70
     1
102
RTVSPost2010Prop32
280
     0
102
RTVSPost2010PropOp32
 70
     1
102
RTVSPost2010Prop33
280
     0
102
RTVSPost2010PropOp33
 70
     1
102
RTVSPost2010Prop34
280
     0
102
RTVSPost2010PropOp34
 70
     1
102
RTVSPost2010Prop35
280
     0
102
RTVSPost2010PropOp35
 70
     1
102
RTVSPost2010Prop36
280
     0
102
RTVSPost2010PropOp36
 70
     1
102
RTVSPost2010Prop37
 90
       50
102
RTVSPost2010PropOp37
 70
     1
102
RTVSPost2010Prop38
140
0.0
102
RTVSPost2010PropOp38
 70
     1
102
RTVSPost2010Prop39
140
1.0
102
RTVSPost2010PropOp39
 70
     1
102
RTVSPost2010Prop40
 90
        0
102
RTVSPost2010PropOp40
 70
     1
102
RTVSPost2010Prop41ColorIndex
 90
       18
102
RTVSPost2010Prop41ColorRGB
 90
        0
102
RTVSPost2010PropOp41
 70
     1
102
RTVSPost2010Prop42
 90
       50
102
RTVSPost2010PropOp42
 70
     1
102
RTVSPost2010Prop43
 90
        3
102
RTVSPost2010PropOp43
 70
     1
102
RTVSPost2010Prop44ColorIndex
 90
        5
102
RTVSPost2010Prop44ColorRGB
 90
      255
102
RTVSPost2010PropOp44
 70
     1
102
RTVSPost2010Prop45
280
     0
102
RTVSPost2010PropOp45
 70
     1
102
RTVSPost2010Prop46
 90
       50
102
RTVSPost2010PropOp46
 70
     1
102
RTVSPost2010Prop47
 90
       50
102
RTVSPost2010PropOp47
 70
     1
102
RTVSPost2010Prop48
 90
       50
102
RTVSPost2010PropOp48
 70
     1
102
RTVSPost2010Prop49
280
     0
102
RTVSPost2010PropOp49
 70
     1
102
RTVSPost2010Prop50
 90
       50
102
RTVSPost2010PropOp50
 70
     1
102
RTVSPost2010Prop51ColorIndex
 90
      256
102
RTVSPost2010Prop51ColorRGB
 90
-16777216
102
RTVSPost2010PropOp51
 70
     0
102
RTVSPost2010Prop52
140
1.0
102
RTVSPost2010PropOp52
 70
     0
102
RTVSPost2010Prop53
 90
        2
102
RTVSPost2010PropOp53
 70
     1
102
RTVSPost2010Prop54
  1
strokes_ogs.tif
102
RTVSPost2010PropOp54
 70
     1
102
RTVSPost2010Prop55
280
     0
102
RTVSPost2010PropOp55
 70
     1
102
RTVSPost2010Prop56
140
1.0
102
RTVSPost2010PropOp56
 70
     1
102
RTVSPost2010Prop57
140
1.0
102
RTVSPost2010PropOp57
 70
     1
102
RTVSPropertyOp0
 70
     1
102
RTVSPropertyOp1
 70
     1
102
RTVSPropertyOp2
 70
     1
102
RTVSPropertyOp3
 70
     1
102
RTVSPropertyOp4
 70
     1
102
RTVSPropertyOp5
 70
     1
102
RTVSPropertyOp6
 70
     1
102
RTVSPropertyOp7
 70
     1
102
RTVSPropertyOp8
 70
     1
102
RTVSPropertyOp9
 70
     1
102
RTVSPropertyOp10
 70
     1
102
RTVSPropertyOp11
 70
     1
102
RTVSPropertyOp12
 70
     1
102
RTVSPropertyOp13
 70
     1
102
RTVSPropertyOp14
 70
     1
102
RTVSPropertyOp15
 70
     1
102
RTVSPropertyOp16
 70
     1
102
RTVSPropertyOp17
 70
     1
102
RTVSPropertyOp18
 70
     1
102
RTVSPropertyOp19
 70
     1
102
RTVSPropertyOp20
 70
     1
102
RTVSPropertyOp21
 70
     1
102
RTVSPropertyOp22
 70
     1
102
RTVSPropertyOp23
 70
     1
102
RTVSPropertyOp24
 70
     1
102
RTVSPropertyOp25
 70
     1
102
RTVSPropertyOp26
 70
     1
102
RTVSPropertyOp27
 70
     1
102
RTVSPropertyOp28
 70
     1
102
RTVSPropertyOp29
 70
     1
102
RTVSPropertyOp30
 70
     1
102
RTVSPropertyOp31
 70
     1
102
RTVSPropertyOp32
 70
     1
102
RTVSPropertyOp33
 70
     1
102
RTVSPropertyOp34
 70
     1
102
RTVSPropertyOp35
 70
     1
102
RTVSPropertyOp36
 70
     1
102
RTVSPropertyOp37
 70
     1
102
RTVSPropertyOp38
 70
     1
102
RTVSPropertyOp39
 70
     1
102
RTVSPropertyOp40
 70
     1
102
RTVSPropertyOp41
 70
     1
102
RTVSPropertyOp42
 70
     1
102
RTVSPropertyOp43
 70
     1
102
RTVSPropertyOp44
 70
     1
102
RTVSPropertyOp45
 70
     1
102
RTVSPropertyOp46
 70
     1
102
RTVSPropertyOp47
 70
     1
102
RTVSPropertyOp48
 70
     1
102
RTVSPropertyOp49
 70
     1
102
RTVSPropertyOp50
 70
     1
102
RTVSPropertyOp51
 70
     0
102
RTVSPropertyOp52
 70
     0
102
RTVSPropertyOp53
 70
     1
102
RTVSPropertyOp54
 70
     1
102
RTVSPropertyOp55
 70
     1
102
RTVSPropertyOp56
 70
     1
102
RTVSPropertyOp57
 70
     1
102
RTVSPropertyOp58
 70
     1
102
RTVSPropertyOp59
 70
     1
102
RTVSPropertyOp60
 70
     1
102
RTVSPropertyOp61
 70
     1
102
RTVSPropertyOp62
 70
     1
  0
XRECORD
  5
23BB
102
{ACAD_REACTORS
330
23BA
102
}
330
23BA
100
AcDbXrecord
280
     1
102
RTVSPost2010Prop28
280
     0
102
RTVSPost2010PropOp28
 70
     1
102
RTVSPost2010Prop29
280
     1
102
RTVSPost2010PropOp29
 70
     1
102
RTVSPost2010Prop30
280
     1
102
RTVSPost2010PropOp30
 70
     1
102
RTVSPost2010Prop31
280
     0
102
RTVSPost2010PropOp31
 70
     1
102
RTVSPost2010Prop32
280
     0
102
RTVSPost2010PropOp32
 70
     1
102
RTVSPost2010Prop33
280
     0
102
RTVSPost2010PropOp33
 70
     1
102
RTVSPost2010Prop34
280
     0
102
RTVSPost2010PropOp34
 70
     1
102
RTVSPost2010Prop35
280
     0
102
RTVSPost2010PropOp35
 70
     1
102
RTVSPost2010Prop36
280
     0
102
RTVSPost2010PropOp36
 70
     1
102
RTVSPost2010Prop37
 90
       50
102
RTVSPost2010PropOp37
 70
     1
102
RTVSPost2010Prop38
140
0.0
102
RTVSPost2010PropOp38
 70
     1
102
RTVSPost2010Prop39
140
1.0
102
RTVSPost2010PropOp39
 70
     1
102
RTVSPost2010Prop40
 90
        0
102
RTVSPost2010PropOp40
 70
     1
102
RTVSPost2010Prop41ColorIndex
 90
       18
102
RTVSPost2010Prop41ColorRGB
 90
        0
102
RTVSPost2010PropOp41
 70
     1
102
RTVSPost2010Prop42
 90
       50
102
RTVSPost2010PropOp42
 70
     1
102
RTVSPost2010Prop43
 90
        3
102
RTVSPost2010PropOp43
 70
     1
102
RTVSPost2010Prop44ColorIndex
 90
        5
102
RTVSPost2010Prop44ColorRGB
 90
      255
102
RTVSPost2010PropOp44
 70
     1
102
RTVSPost2010Prop45
280
     0
102
RTVSPost2010PropOp45
 70
     1
102
RTVSPost2010Prop46
 90
       50
102
RTVSPost2010PropOp46
 70
     1
102
RTVSPost2010Prop47
 90
       50
102
RTVSPost2010PropOp47
 70
     1
102
RTVSPost2010Prop48
 90
       50
102
RTVSPost2010PropOp48
 70
     1
102
RTVSPost2010Prop49
280
     0
102
RTVSPost2010PropOp49
 70
     1
102
RTVSPost2010Prop50
 90
       50
102
RTVSPost2010PropOp50
 70
     1
102
RTVSPost2010Prop51ColorIndex
 90
      256
102
RTVSPost2010Prop51ColorRGB
 90
-16777216
102
RTVSPost2010PropOp51
 70
     0
102
RTVSPost2010Prop52
140
1.0
102
RTVSPost2010PropOp52
 70
     0
102
RTVSPost2010Prop53
 90
        2
102
RTVSPost2010PropOp53
 70
     1
102
RTVSPost2010Prop54
  1
strokes_ogs.tif
102
RTVSPost2010PropOp54
 70
     1
102
RTVSPost2010Prop55
280
     0
102
RTVSPost2010PropOp55
 70
     1
102
RTVSPost2010Prop56
140
1.0
102
RTVSPost2010PropOp56
 70
     1
102
RTVSPost2010Prop57
140
1.0
102
RTVSPost2010PropOp57
 70
     1
102
RTVSPropertyOp0
 70
     1
102
RTVSPropertyOp1
 70
     1
102
RTVSPropertyOp2
 70
     1
102
RTVSPropertyOp3
 70
     1
102
RTVSPropertyOp4
 70
     1
102
RTVSPropertyOp5
 70
     1
102
RTVSPropertyOp6
 70
     1
102
RTVSPropertyOp7
 70
     1
102
RTVSPropertyOp8
 70
     1
102
RTVSPropertyOp9
 70
     1
102
RTVSPropertyOp10
 70
     1
102
RTVSPropertyOp11
 70
     1
102
RTVSPropertyOp12
 70
     1
102
RTVSPropertyOp13
 70
     1
102
RTVSPropertyOp14
 70
     1
102
RTVSPropertyOp15
 70
     1
102
RTVSPropertyOp16
 70
     1
102
RTVSPropertyOp17
 70
     1
102
RTVSPropertyOp18
 70
     1
102
RTVSPropertyOp19
 70
     1
102
RTVSPropertyOp20
 70
     1
102
RTVSPropertyOp21
 70
     1
102
RTVSPropertyOp22
 70
     1
102
RTVSPropertyOp23
 70
     1
102
RTVSPropertyOp24
 70
     1
102
RTVSPropertyOp25
 70
     1
102
RTVSPropertyOp26
 70
     1
102
RTVSPropertyOp27
 70
     1
102
RTVSPropertyOp28
 70
     1
102
RTVSPropertyOp29
 70
     1
102
RTVSPropertyOp30
 70
     1
102
RTVSPropertyOp31
 70
     1
102
RTVSPropertyOp32
 70
     1
102
RTVSPropertyOp33
 70
     1
102
RTVSPropertyOp34
 70
     1
102
RTVSPropertyOp35
 70
     1
102
RTVSPropertyOp36
 70
     1
102
RTVSPropertyOp37
 70
     1
102
RTVSPropertyOp38
 70
     1
102
RTVSPropertyOp39
 70
     1
102
RTVSPropertyOp40
 70
     1
102
RTVSPropertyOp41
 70
     1
102
RTVSPropertyOp42
 70
     1
102
RTVSPropertyOp43
 70
     1
102
RTVSPropertyOp44
 70
     1
102
RTVSPropertyOp45
 70
     1
102
RTVSPropertyOp46
 70
     1
102
RTVSPropertyOp47
 70
     1
102
RTVSPropertyOp48
 70
     1
102
RTVSPropertyOp49
 70
     1
102
RTVSPropertyOp50
 70
     1
102
RTVSPropertyOp51
 70
     0
102
RTVSPropertyOp52
 70
     0
102
RTVSPropertyOp53
 70
     1
102
RTVSPropertyOp54
 70
     1
102
RTVSPropertyOp55
 70
     1
102
RTVSPropertyOp56
 70
     1
102
RTVSPropertyOp57
 70
     1
102
RTVSPropertyOp58
 70
     1
102
RTVSPropertyOp59
 70
     1
102
RTVSPropertyOp60
 70
     1
102
RTVSPropertyOp61
 70
     1
102
RTVSPropertyOp62
 70
     1
  0
XRECORD
  5
23BD
102
{ACAD_REACTORS
330
23BC
102
}
330
23BC
100
AcDbXrecord
280
     1
102
RTVSPost2010Prop28
280
     0
102
RTVSPost2010PropOp28
 70
     1
102
RTVSPost2010Prop29
280
     1
102
RTVSPost2010PropOp29
 70
     1
102
RTVSPost2010Prop30
280
     1
102
RTVSPost2010PropOp30
 70
     1
102
RTVSPost2010Prop31
280
     0
102
RTVSPost2010PropOp31
 70
     1
102
RTVSPost2010Prop32
280
     0
102
RTVSPost2010PropOp32
 70
     1
102
RTVSPost2010Prop33
280
     0
102
RTVSPost2010PropOp33
 70
     1
102
RTVSPost2010Prop34
280
     0
102
RTVSPost2010PropOp34
 70
     1
102
RTVSPost2010Prop35
280
     0
102
RTVSPost2010PropOp35
 70
     1
102
RTVSPost2010Prop36
280
     0
102
RTVSPost2010PropOp36
 70
     1
102
RTVSPost2010Prop37
 90
       50
102
RTVSPost2010PropOp37
 70
     1
102
RTVSPost2010Prop38
140
0.0
102
RTVSPost2010PropOp38
 70
     1
102
RTVSPost2010Prop39
140
1.0
102
RTVSPost2010PropOp39
 70
     1
102
RTVSPost2010Prop40
 90
        0
102
RTVSPost2010PropOp40
 70
     1
102
RTVSPost2010Prop41ColorIndex
 90
       18
102
RTVSPost2010Prop41ColorRGB
 90
        0
102
RTVSPost2010PropOp41
 70
     1
102
RTVSPost2010Prop42
 90
       50
102
RTVSPost2010PropOp42
 70
     1
102
RTVSPost2010Prop43
 90
        3
102
RTVSPost2010PropOp43
 70
     1
102
RTVSPost2010Prop44ColorIndex
 90
        5
102
RTVSPost2010Prop44ColorRGB
 90
      255
102
RTVSPost2010PropOp44
 70
     1
102
RTVSPost2010Prop45
280
     0
102
RTVSPost2010PropOp45
 70
     1
102
RTVSPost2010Prop46
 90
       50
102
RTVSPost2010PropOp46
 70
     1
102
RTVSPost2010Prop47
 90
       50
102
RTVSPost2010PropOp47
 70
     1
102
RTVSPost2010Prop48
 90
       50
102
RTVSPost2010PropOp48
 70
     1
102
RTVSPost2010Prop49
280
     0
102
RTVSPost2010PropOp49
 70
     1
102
RTVSPost2010Prop50
 90
       50
102
RTVSPost2010PropOp50
 70
     1
102
RTVSPost2010Prop51ColorIndex
 90
      256
102
RTVSPost2010Prop51ColorRGB
 90
-16777216
102
RTVSPost2010PropOp51
 70
     0
102
RTVSPost2010Prop52
140
1.0
102
RTVSPost2010PropOp52
 70
     0
102
RTVSPost2010Prop53
 90
        2
102
RTVSPost2010PropOp53
 70
     1
102
RTVSPost2010Prop54
  1
strokes_ogs.tif
102
RTVSPost2010PropOp54
 70
     1
102
RTVSPost2010Prop55
280
     0
102
RTVSPost2010PropOp55
 70
     1
102
RTVSPost2010Prop56
140
1.0
102
RTVSPost2010PropOp56
 70
     1
102
RTVSPost2010Prop57
140
1.0
102
RTVSPost2010PropOp57
 70
     1
102
RTVSPropertyOp0
 70
     1
102
RTVSPropertyOp1
 70
     1
102
RTVSPropertyOp2
 70
     1
102
RTVSPropertyOp3
 70
     1
102
RTVSPropertyOp4
 70
     1
102
RTVSPropertyOp5
 70
     1
102
RTVSPropertyOp6
 70
     1
102
RTVSPropertyOp7
 70
     1
102
RTVSPropertyOp8
 70
     1
102
RTVSPropertyOp9
 70
     1
102
RTVSPropertyOp10
 70
     1
102
RTVSPropertyOp11
 70
     1
102
RTVSPropertyOp12
 70
     1
102
RTVSPropertyOp13
 70
     1
102
RTVSPropertyOp14
 70
     1
102
RTVSPropertyOp15
 70
     1
102
RTVSPropertyOp16
 70
     1
102
RTVSPropertyOp17
 70
     1
102
RTVSPropertyOp18
 70
     1
102
RTVSPropertyOp19
 70
     1
102
RTVSPropertyOp20
 70
     1
102
RTVSPropertyOp21
 70
     1
102
RTVSPropertyOp22
 70
     1
102
RTVSPropertyOp23
 70
     1
102
RTVSPropertyOp24
 70
     1
102
RTVSPropertyOp25
 70
     1
102
RTVSPropertyOp26
 70
     1
102
RTVSPropertyOp27
 70
     1
102
RTVSPropertyOp28
 70
     1
102
RTVSPropertyOp29
 70
     1
102
RTVSPropertyOp30
 70
     1
102
RTVSPropertyOp31
 70
     1
102
RTVSPropertyOp32
 70
     1
102
RTVSPropertyOp33
 70
     1
102
RTVSPropertyOp34
 70
     1
102
RTVSPropertyOp35
 70
     1
102
RTVSPropertyOp36
 70
     1
102
RTVSPropertyOp37
 70
     1
102
RTVSPropertyOp38
 70
     1
102
RTVSPropertyOp39
 70
     1
102
RTVSPropertyOp40
 70
     1
102
RTVSPropertyOp41
 70
     1
102
RTVSPropertyOp42
 70
     1
102
RTVSPropertyOp43
 70
     1
102
RTVSPropertyOp44
 70
     1
102
RTVSPropertyOp45
 70
     1
102
RTVSPropertyOp46
 70
     1
102
RTVSPropertyOp47
 70
     1
102
RTVSPropertyOp48
 70
     1
102
RTVSPropertyOp49
 70
     1
102
RTVSPropertyOp50
 70
     1
102
RTVSPropertyOp51
 70
     0
102
RTVSPropertyOp52
 70
     0
102
RTVSPropertyOp53
 70
     1
102
RTVSPropertyOp54
 70
     1
102
RTVSPropertyOp55
 70
     1
102
RTVSPropertyOp56
 70
     1
102
RTVSPropertyOp57
 70
     1
102
RTVSPropertyOp58
 70
     1
102
RTVSPropertyOp59
 70
     1
102
RTVSPropertyOp60
 70
     1
102
RTVSPropertyOp61
 70
     1
102
RTVSPropertyOp62
 70
     1
  0
XRECORD
  5
23BF
102
{ACAD_REACTORS
330
23BE
102
}
330
23BE
100
AcDbXrecord
280
     1
102
RTVSPost2010Prop28
280
     0
102
RTVSPost2010PropOp28
 70
     1
102
RTVSPost2010Prop29
280
     1
102
RTVSPost2010PropOp29
 70
     1
102
RTVSPost2010Prop30
280
     1
102
RTVSPost2010PropOp30
 70
     1
102
RTVSPost2010Prop31
280
     0
102
RTVSPost2010PropOp31
 70
     1
102
RTVSPost2010Prop32
280
     0
102
RTVSPost2010PropOp32
 70
     1
102
RTVSPost2010Prop33
280
     0
102
RTVSPost2010PropOp33
 70
     1
102
RTVSPost2010Prop34
280
     0
102
RTVSPost2010PropOp34
 70
     1
102
RTVSPost2010Prop35
280
     0
102
RTVSPost2010PropOp35
 70
     1
102
RTVSPost2010Prop36
280
     0
102
RTVSPost2010PropOp36
 70
     1
102
RTVSPost2010Prop37
 90
       50
102
RTVSPost2010PropOp37
 70
     1
102
RTVSPost2010Prop38
140
0.0
102
RTVSPost2010PropOp38
 70
     1
102
RTVSPost2010Prop39
140
1.0
102
RTVSPost2010PropOp39
 70
     1
102
RTVSPost2010Prop40
 90
        0
102
RTVSPost2010PropOp40
 70
     1
102
RTVSPost2010Prop41ColorIndex
 90
       18
102
RTVSPost2010Prop41ColorRGB
 90
        0
102
RTVSPost2010PropOp41
 70
     1
102
RTVSPost2010Prop42
 90
       50
102
RTVSPost2010PropOp42
 70
     1
102
RTVSPost2010Prop43
 90
        3
102
RTVSPost2010PropOp43
 70
     1
102
RTVSPost2010Prop44ColorIndex
 90
        5
102
RTVSPost2010Prop44ColorRGB
 90
      255
102
RTVSPost2010PropOp44
 70
     1
102
RTVSPost2010Prop45
280
     0
102
RTVSPost2010PropOp45
 70
     1
102
RTVSPost2010Prop46
 90
       50
102
RTVSPost2010PropOp46
 70
     1
102
RTVSPost2010Prop47
 90
       50
102
RTVSPost2010PropOp47
 70
     1
102
RTVSPost2010Prop48
 90
       50
102
RTVSPost2010PropOp48
 70
     1
102
RTVSPost2010Prop49
280
     0
102
RTVSPost2010PropOp49
 70
     1
102
RTVSPost2010Prop50
 90
       50
102
RTVSPost2010PropOp50
 70
     1
102
RTVSPost2010Prop51ColorIndex
 90
      256
102
RTVSPost2010Prop51ColorRGB
 90
-16777216
102
RTVSPost2010PropOp51
 70
     0
102
RTVSPost2010Prop52
140
1.0
102
RTVSPost2010PropOp52
 70
     0
102
RTVSPost2010Prop53
 90
        2
102
RTVSPost2010PropOp53
 70
     1
102
RTVSPost2010Prop54
  1
strokes_ogs.tif
102
RTVSPost2010PropOp54
 70
     1
102
RTVSPost2010Prop55
280
     0
102
RTVSPost2010PropOp55
 70
     1
102
RTVSPost2010Prop56
140
1.0
102
RTVSPost2010PropOp56
 70
     1
102
RTVSPost2010Prop57
140
1.0
102
RTVSPost2010PropOp57
 70
     1
102
RTVSPropertyOp0
 70
     1
102
RTVSPropertyOp1
 70
     1
102
RTVSPropertyOp2
 70
     1
102
RTVSPropertyOp3
 70
     1
102
RTVSPropertyOp4
 70
     1
102
RTVSPropertyOp5
 70
     1
102
RTVSPropertyOp6
 70
     1
102
RTVSPropertyOp7
 70
     1
102
RTVSPropertyOp8
 70
     1
102
RTVSPropertyOp9
 70
     1
102
RTVSPropertyOp10
 70
     1
102
RTVSPropertyOp11
 70
     1
102
RTVSPropertyOp12
 70
     1
102
RTVSPropertyOp13
 70
     1
102
RTVSPropertyOp14
 70
     1
102
RTVSPropertyOp15
 70
     1
102
RTVSPropertyOp16
 70
     1
102
RTVSPropertyOp17
 70
     1
102
RTVSPropertyOp18
 70
     1
102
RTVSPropertyOp19
 70
     1
102
RTVSPropertyOp20
 70
     1
102
RTVSPropertyOp21
 70
     1
102
RTVSPropertyOp22
 70
     1
102
RTVSPropertyOp23
 70
     1
102
RTVSPropertyOp24
 70
     1
102
RTVSPropertyOp25
 70
     1
102
RTVSPropertyOp26
 70
     1
102
RTVSPropertyOp27
 70
     1
102
RTVSPropertyOp28
 70
     1
102
RTVSPropertyOp29
 70
     1
102
RTVSPropertyOp30
 70
     1
102
RTVSPropertyOp31
 70
     1
102
RTVSPropertyOp32
 70
     1
102
RTVSPropertyOp33
 70
     1
102
RTVSPropertyOp34
 70
     1
102
RTVSPropertyOp35
 70
     1
102
RTVSPropertyOp36
 70
     1
102
RTVSPropertyOp37
 70
     1
102
RTVSPropertyOp38
 70
     1
102
RTVSPropertyOp39
 70
     1
102
RTVSPropertyOp40
 70
     1
102
RTVSPropertyOp41
 70
     1
102
RTVSPropertyOp42
 70
     1
102
RTVSPropertyOp43
 70
     1
102
RTVSPropertyOp44
 70
     1
102
RTVSPropertyOp45
 70
     1
102
RTVSPropertyOp46
 70
     1
102
RTVSPropertyOp47
 70
     1
102
RTVSPropertyOp48
 70
     1
102
RTVSPropertyOp49
 70
     1
102
RTVSPropertyOp50
 70
     1
102
RTVSPropertyOp51
 70
     0
102
RTVSPropertyOp52
 70
     0
102
RTVSPropertyOp53
 70
     1
102
RTVSPropertyOp54
 70
     1
102
RTVSPropertyOp55
 70
     1
102
RTVSPropertyOp56
 70
     1
102
RTVSPropertyOp57
 70
     1
102
RTVSPropertyOp58
 70
     1
102
RTVSPropertyOp59
 70
     1
102
RTVSPropertyOp60
 70
     1
102
RTVSPropertyOp61
 70
     1
102
RTVSPropertyOp62
 70
     1
  0
XRECORD
  5
23C1
102
{ACAD_REACTORS
330
23C0
102
}
330
23C0
100
AcDbXrecord
280
     1
102
RTVSPost2010Prop28
280
     0
102
RTVSPost2010PropOp28
 70
     1
102
RTVSPost2010Prop29
280
     1
102
RTVSPost2010PropOp29
 70
     1
102
RTVSPost2010Prop30
280
     1
102
RTVSPost2010PropOp30
 70
     1
102
RTVSPost2010Prop31
280
     0
102
RTVSPost2010PropOp31
 70
     1
102
RTVSPost2010Prop32
280
     0
102
RTVSPost2010PropOp32
 70
     1
102
RTVSPost2010Prop33
280
     0
102
RTVSPost2010PropOp33
 70
     1
102
RTVSPost2010Prop34
280
     0
102
RTVSPost2010PropOp34
 70
     1
102
RTVSPost2010Prop35
280
     0
102
RTVSPost2010PropOp35
 70
     1
102
RTVSPost2010Prop36
280
     0
102
RTVSPost2010PropOp36
 70
     1
102
RTVSPost2010Prop37
 90
       50
102
RTVSPost2010PropOp37
 70
     1
102
RTVSPost2010Prop38
140
0.0
102
RTVSPost2010PropOp38
 70
     1
102
RTVSPost2010Prop39
140
1.0
102
RTVSPost2010PropOp39
 70
     1
102
RTVSPost2010Prop40
 90
        0
102
RTVSPost2010PropOp40
 70
     1
102
RTVSPost2010Prop41ColorIndex
 90
       18
102
RTVSPost2010Prop41ColorRGB
 90
        0
102
RTVSPost2010PropOp41
 70
     1
102
RTVSPost2010Prop42
 90
       50
102
RTVSPost2010PropOp42
 70
     1
102
RTVSPost2010Prop43
 90
        3
102
RTVSPost2010PropOp43
 70
     1
102
RTVSPost2010Prop44ColorIndex
 90
        5
102
RTVSPost2010Prop44ColorRGB
 90
      255
102
RTVSPost2010PropOp44
 70
     1
102
RTVSPost2010Prop45
280
     0
102
RTVSPost2010PropOp45
 70
     1
102
RTVSPost2010Prop46
 90
       50
102
RTVSPost2010PropOp46
 70
     1
102
RTVSPost2010Prop47
 90
       50
102
RTVSPost2010PropOp47
 70
     1
102
RTVSPost2010Prop48
 90
       50
102
RTVSPost2010PropOp48
 70
     1
102
RTVSPost2010Prop49
280
     0
102
RTVSPost2010PropOp49
 70
     1
102
RTVSPost2010Prop50
 90
       50
102
RTVSPost2010PropOp50
 70
     1
102
RTVSPost2010Prop51ColorIndex
 90
      256
102
RTVSPost2010Prop51ColorRGB
 90
-16777216
102
RTVSPost2010PropOp51
 70
     0
102
RTVSPost2010Prop52
140
1.0
102
RTVSPost2010PropOp52
 70
     0
102
RTVSPost2010Prop53
 90
        2
102
RTVSPost2010PropOp53
 70
     1
102
RTVSPost2010Prop54
  1
strokes_ogs.tif
102
RTVSPost2010PropOp54
 70
     1
102
RTVSPost2010Prop55
280
     0
102
RTVSPost2010PropOp55
 70
     1
102
RTVSPost2010Prop56
140
1.0
102
RTVSPost2010PropOp56
 70
     1
102
RTVSPost2010Prop57
140
1.0
102
RTVSPost2010PropOp57
 70
     1
102
RTVSPropertyOp0
 70
     1
102
RTVSPropertyOp1
 70
     1
102
RTVSPropertyOp2
 70
     1
102
RTVSPropertyOp3
 70
     1
102
RTVSPropertyOp4
 70
     1
102
RTVSPropertyOp5
 70
     1
102
RTVSPropertyOp6
 70
     1
102
RTVSPropertyOp7
 70
     1
102
RTVSPropertyOp8
 70
     1
102
RTVSPropertyOp9
 70
     1
102
RTVSPropertyOp10
 70
     1
102
RTVSPropertyOp11
 70
     1
102
RTVSPropertyOp12
 70
     1
102
RTVSPropertyOp13
 70
     1
102
RTVSPropertyOp14
 70
     1
102
RTVSPropertyOp15
 70
     1
102
RTVSPropertyOp16
 70
     1
102
RTVSPropertyOp17
 70
     1
102
RTVSPropertyOp18
 70
     1
102
RTVSPropertyOp19
 70
     1
102
RTVSPropertyOp20
 70
     1
102
RTVSPropertyOp21
 70
     1
102
RTVSPropertyOp22
 70
     1
102
RTVSPropertyOp23
 70
     1
102
RTVSPropertyOp24
 70
     1
102
RTVSPropertyOp25
 70
     1
102
RTVSPropertyOp26
 70
     1
102
RTVSPropertyOp27
 70
     1
102
RTVSPropertyOp28
 70
     1
102
RTVSPropertyOp29
 70
     1
102
RTVSPropertyOp30
 70
     1
102
RTVSPropertyOp31
 70
     1
102
RTVSPropertyOp32
 70
     1
102
RTVSPropertyOp33
 70
     1
102
RTVSPropertyOp34
 70
     1
102
RTVSPropertyOp35
 70
     1
102
RTVSPropertyOp36
 70
     1
102
RTVSPropertyOp37
 70
     1
102
RTVSPropertyOp38
 70
     1
102
RTVSPropertyOp39
 70
     1
102
RTVSPropertyOp40
 70
     1
102
RTVSPropertyOp41
 70
     1
102
RTVSPropertyOp42
 70
     1
102
RTVSPropertyOp43
 70
     1
102
RTVSPropertyOp44
 70
     1
102
RTVSPropertyOp45
 70
     1
102
RTVSPropertyOp46
 70
     1
102
RTVSPropertyOp47
 70
     1
102
RTVSPropertyOp48
 70
     1
102
RTVSPropertyOp49
 70
     1
102
RTVSPropertyOp50
 70
     1
102
RTVSPropertyOp51
 70
     0
102
RTVSPropertyOp52
 70
     0
102
RTVSPropertyOp53
 70
     1
102
RTVSPropertyOp54
 70
     1
102
RTVSPropertyOp55
 70
     1
102
RTVSPropertyOp56
 70
     1
102
RTVSPropertyOp57
 70
     1
102
RTVSPropertyOp58
 70
     1
102
RTVSPropertyOp59
 70
     1
102
RTVSPropertyOp60
 70
     1
102
RTVSPropertyOp61
 70
     1
102
RTVSPropertyOp62
 70
     1
  0
XRECORD
  5
23C9
102
{ACAD_REACTORS
330
23C8
102
}
330
23C8
100
AcDbXrecord
280
     1
102
RTVSPost2010Prop28
280
     0
102
RTVSPost2010PropOp28
 70
     1
102
RTVSPost2010Prop29
280
     1
102
RTVSPost2010PropOp29
 70
     1
102
RTVSPost2010Prop30
280
     1
102
RTVSPost2010PropOp30
 70
     1
102
RTVSPost2010Prop31
280
     0
102
RTVSPost2010PropOp31
 70
     1
102
RTVSPost2010Prop32
280
     0
102
RTVSPost2010PropOp32
 70
     1
102
RTVSPost2010Prop33
280
     0
102
RTVSPost2010PropOp33
 70
     1
102
RTVSPost2010Prop34
280
     0
102
RTVSPost2010PropOp34
 70
     1
102
RTVSPost2010Prop35
280
     0
102
RTVSPost2010PropOp35
 70
     1
102
RTVSPost2010Prop36
280
     0
102
RTVSPost2010PropOp36
 70
     1
102
RTVSPost2010Prop37
 90
       50
102
RTVSPost2010PropOp37
 70
     1
102
RTVSPost2010Prop38
140
0.0
102
RTVSPost2010PropOp38
 70
     1
102
RTVSPost2010Prop39
140
1.0
102
RTVSPost2010PropOp39
 70
     1
102
RTVSPost2010Prop40
 90
        0
102
RTVSPost2010PropOp40
 70
     1
102
RTVSPost2010Prop41ColorIndex
 90
       18
102
RTVSPost2010Prop41ColorRGB
 90
        0
102
RTVSPost2010PropOp41
 70
     1
102
RTVSPost2010Prop42
 90
       50
102
RTVSPost2010PropOp42
 70
     1
102
RTVSPost2010Prop43
 90
        3
102
RTVSPost2010PropOp43
 70
     1
102
RTVSPost2010Prop44ColorIndex
 90
        5
102
RTVSPost2010Prop44ColorRGB
 90
      255
102
RTVSPost2010PropOp44
 70
     1
102
RTVSPost2010Prop45
280
     0
102
RTVSPost2010PropOp45
 70
     1
102
RTVSPost2010Prop46
 90
       50
102
RTVSPost2010PropOp46
 70
     1
102
RTVSPost2010Prop47
 90
       50
102
RTVSPost2010PropOp47
 70
     1
102
RTVSPost2010Prop48
 90
       50
102
RTVSPost2010PropOp48
 70
     1
102
RTVSPost2010Prop49
280
     0
102
RTVSPost2010PropOp49
 70
     1
102
RTVSPost2010Prop50
 90
       50
102
RTVSPost2010PropOp50
 70
     1
102
RTVSPost2010Prop51ColorIndex
 90
      256
102
RTVSPost2010Prop51ColorRGB
 90
-16777216
102
RTVSPost2010PropOp51
 70
     0
102
RTVSPost2010Prop52
140
1.0
102
RTVSPost2010PropOp52
 70
     0
102
RTVSPost2010Prop53
 90
        2
102
RTVSPost2010PropOp53
 70
     1
102
RTVSPost2010Prop54
  1
strokes_ogs.tif
102
RTVSPost2010PropOp54
 70
     1
102
RTVSPost2010Prop55
280
     0
102
RTVSPost2010PropOp55
 70
     1
102
RTVSPost2010Prop56
140
1.0
102
RTVSPost2010PropOp56
 70
     1
102
RTVSPost2010Prop57
140
1.0
102
RTVSPost2010PropOp57
 70
     1
102
RTVSPropertyOp0
 70
     1
102
RTVSPropertyOp1
 70
     1
102
RTVSPropertyOp2
 70
     1
102
RTVSPropertyOp3
 70
     1
102
RTVSPropertyOp4
 70
     1
102
RTVSPropertyOp5
 70
     1
102
RTVSPropertyOp6
 70
     1
102
RTVSPropertyOp7
 70
     1
102
RTVSPropertyOp8
 70
     1
102
RTVSPropertyOp9
 70
     1
102
RTVSPropertyOp10
 70
     1
102
RTVSPropertyOp11
 70
     1
102
RTVSPropertyOp12
 70
     1
102
RTVSPropertyOp13
 70
     1
102
RTVSPropertyOp14
 70
     1
102
RTVSPropertyOp15
 70
     1
102
RTVSPropertyOp16
 70
     1
102
RTVSPropertyOp17
 70
     1
102
RTVSPropertyOp18
 70
     1
102
RTVSPropertyOp19
 70
     1
102
RTVSPropertyOp20
 70
     1
102
RTVSPropertyOp21
 70
     1
102
RTVSPropertyOp22
 70
     1
102
RTVSPropertyOp23
 70
     1
102
RTVSPropertyOp24
 70
     1
102
RTVSPropertyOp25
 70
     1
102
RTVSPropertyOp26
 70
     1
102
RTVSPropertyOp27
 70
     1
102
RTVSPropertyOp28
 70
     1
102
RTVSPropertyOp29
 70
     1
102
RTVSPropertyOp30
 70
     1
102
RTVSPropertyOp31
 70
     1
102
RTVSPropertyOp32
 70
     1
102
RTVSPropertyOp33
 70
     1
102
RTVSPropertyOp34
 70
     1
102
RTVSPropertyOp35
 70
     1
102
RTVSPropertyOp36
 70
     1
102
RTVSPropertyOp37
 70
     1
102
RTVSPropertyOp38
 70
     1
102
RTVSPropertyOp39
 70
     1
102
RTVSPropertyOp40
 70
     1
102
RTVSPropertyOp41
 70
     1
102
RTVSPropertyOp42
 70
     1
102
RTVSPropertyOp43
 70
     1
102
RTVSPropertyOp44
 70
     1
102
RTVSPropertyOp45
 70
     1
102
RTVSPropertyOp46
 70
     1
102
RTVSPropertyOp47
 70
     1
102
RTVSPropertyOp48
 70
     1
102
RTVSPropertyOp49
 70
     1
102
RTVSPropertyOp50
 70
     1
102
RTVSPropertyOp51
 70
     0
102
RTVSPropertyOp52
 70
     0
102
RTVSPropertyOp53
 70
     1
102
RTVSPropertyOp54
 70
     1
102
RTVSPropertyOp55
 70
     1
102
RTVSPropertyOp56
 70
     1
102
RTVSPropertyOp57
 70
     1
102
RTVSPropertyOp58
 70
     1
102
RTVSPropertyOp59
 70
     1
102
RTVSPropertyOp60
 70
     1
102
RTVSPropertyOp61
 70
     1
102
RTVSPropertyOp62
 70
     1
  0
XRECORD
  5
23E5
102
{ACAD_REACTORS
330
23E4
102
}
330
23E4
100
AcDbXrecord
280
     1
102
RTVSPost2010Prop28
280
     0
102
RTVSPost2010PropOp28
 70
     1
102
RTVSPost2010Prop29
280
     1
102
RTVSPost2010PropOp29
 70
     1
102
RTVSPost2010Prop30
280
     1
102
RTVSPost2010PropOp30
 70
     1
102
RTVSPost2010Prop31
280
     0
102
RTVSPost2010PropOp31
 70
     1
102
RTVSPost2010Prop32
280
     0
102
RTVSPost2010PropOp32
 70
     1
102
RTVSPost2010Prop33
280
     0
102
RTVSPost2010PropOp33
 70
     1
102
RTVSPost2010Prop34
280
     0
102
RTVSPost2010PropOp34
 70
     1
102
RTVSPost2010Prop35
280
     0
102
RTVSPost2010PropOp35
 70
     1
102
RTVSPost2010Prop36
280
     0
102
RTVSPost2010PropOp36
 70
     1
102
RTVSPost2010Prop37
 90
       50
102
RTVSPost2010PropOp37
 70
     0
102
RTVSPost2010Prop38
140
0.0
102
RTVSPost2010PropOp38
 70
     0
102
RTVSPost2010Prop39
140
1.0
102
RTVSPost2010PropOp39
 70
     0
102
RTVSPost2010Prop40
 90
        0
102
RTVSPost2010PropOp40
 70
     0
102
RTVSPost2010Prop41ColorIndex
 90
       18
102
RTVSPost2010Prop41ColorRGB
 90
        0
102
RTVSPost2010PropOp41
 70
     0
102
RTVSPost2010Prop42
 90
       50
102
RTVSPost2010PropOp42
 70
     0
102
RTVSPost2010Prop43
 90
        3
102
RTVSPost2010PropOp43
 70
     0
102
RTVSPost2010Prop44ColorIndex
 90
        5
102
RTVSPost2010Prop44ColorRGB
 90
      255
102
RTVSPost2010PropOp44
 70
     0
102
RTVSPost2010Prop45
280
     0
102
RTVSPost2010PropOp45
 70
     1
102
RTVSPost2010Prop46
 90
       50
102
RTVSPost2010PropOp46
 70
     0
102
RTVSPost2010Prop47
 90
       50
102
RTVSPost2010PropOp47
 70
     0
102
RTVSPost2010Prop48
 90
       50
102
RTVSPost2010PropOp48
 70
     0
102
RTVSPost2010Prop49
280
     0
102
RTVSPost2010PropOp49
 70
     1
102
RTVSPost2010Prop50
 90
       50
102
RTVSPost2010PropOp50
 70
     0
102
RTVSPost2010Prop51ColorIndex
 90
      256
102
RTVSPost2010Prop51ColorRGB
 90
-16777216
102
RTVSPost2010PropOp51
 70
     0
102
RTVSPost2010Prop52
140
1.0
102
RTVSPost2010PropOp52
 70
     0
102
RTVSPost2010Prop53
 90
        2
102
RTVSPost2010PropOp53
 70
     0
102
RTVSPost2010Prop54
  1
strokes_ogs.tif
102
RTVSPost2010PropOp54
 70
     0
102
RTVSPost2010Prop55
280
     0
102
RTVSPost2010PropOp55
 70
     1
102
RTVSPost2010Prop56
140
1.0
102
RTVSPost2010PropOp56
 70
     0
102
RTVSPost2010Prop57
140
1.0
102
RTVSPost2010PropOp57
 70
     0
102
RTVSPropertyOp0
 70
     0
102
RTVSPropertyOp1
 70
     0
102
RTVSPropertyOp2
 70
     0
102
RTVSPropertyOp3
 70
     0
102
RTVSPropertyOp4
 70
     0
102
RTVSPropertyOp5
 70
     0
102
RTVSPropertyOp6
 70
     0
102
RTVSPropertyOp7
 70
     0
102
RTVSPropertyOp8
 70
     0
102
RTVSPropertyOp9
 70
     0
102
RTVSPropertyOp10
 70
     0
102
RTVSPropertyOp11
 70
     0
102
RTVSPropertyOp12
 70
     0
102
RTVSPropertyOp13
 70
     0
102
RTVSPropertyOp14
 70
     2
102
RTVSPropertyOp15
 70
     0
102
RTVSPropertyOp16
 70
     0
102
RTVSPropertyOp17
 70
     0
102
RTVSPropertyOp18
 70
     0
102
RTVSPropertyOp19
 70
     0
102
RTVSPropertyOp20
 70
     0
102
RTVSPropertyOp21
 70
     0
102
RTVSPropertyOp22
 70
     0
102
RTVSPropertyOp23
 70
     0
102
RTVSPropertyOp24
 70
     0
102
RTVSPropertyOp25
 70
     0
102
RTVSPropertyOp26
 70
     0
102
RTVSPropertyOp27
 70
     0
102
RTVSPropertyOp28
 70
     1
102
RTVSPropertyOp29
 70
     1
102
RTVSPropertyOp30
 70
     1
102
RTVSPropertyOp31
 70
     1
102
RTVSPropertyOp32
 70
     1
102
RTVSPropertyOp33
 70
     1
102
RTVSPropertyOp34
 70
     1
102
RTVSPropertyOp35
 70
     1
102
RTVSPropertyOp36
 70
     1
102
RTVSPropertyOp37
 70
     0
102
RTVSPropertyOp38
 70
     0
102
RTVSPropertyOp39
 70
     0
102
RTVSPropertyOp40
 70
     0
102
RTVSPropertyOp41
 70
     0
102
RTVSPropertyOp42
 70
     0
102
RTVSPropertyOp43
 70
     0
102
RTVSPropertyOp44
 70
     0
102
RTVSPropertyOp45
 70
     1
102
RTVSPropertyOp46
 70
     0
102
RTVSPropertyOp47
 70
     0
102
RTVSPropertyOp48
 70
     0
102
RTVSPropertyOp49
 70
     1
102
RTVSPropertyOp50
 70
     0
102
RTVSPropertyOp51
 70
     0
102
RTVSPropertyOp52
 70
     0
102
RTVSPropertyOp53
 70
     0
102
RTVSPropertyOp54
 70
     0
102
RTVSPropertyOp55
 70
     1
102
RTVSPropertyOp56
 70
     0
102
RTVSPropertyOp57
 70
     0
102
RTVSPropertyOp58
 70
     0
102
RTVSPropertyOp59
 70
     0
102
RTVSPropertyOp60
 70
     0
102
RTVSPropertyOp61
 70
     0
102
RTVSPropertyOp62
 70
     0
  0
XRECORD
  5
23D5
102
{ACAD_REACTORS
330
23D4
102
}
330
23D4
100
AcDbXrecord
280
     1
102
RTVSPost2010Prop28
280
     0
102
RTVSPost2010PropOp28
 70
     1
102
RTVSPost2010Prop29
280
     1
102
RTVSPost2010PropOp29
 70
     1
102
RTVSPost2010Prop30
280
     1
102
RTVSPost2010PropOp30
 70
     1
102
RTVSPost2010Prop31
280
     0
102
RTVSPost2010PropOp31
 70
     1
102
RTVSPost2010Prop32
280
     0
102
RTVSPost2010PropOp32
 70
     1
102
RTVSPost2010Prop33
280
     0
102
RTVSPost2010PropOp33
 70
     1
102
RTVSPost2010Prop34
280
     0
102
RTVSPost2010PropOp34
 70
     1
102
RTVSPost2010Prop35
280
     0
102
RTVSPost2010PropOp35
 70
     1
102
RTVSPost2010Prop36
280
     0
102
RTVSPost2010PropOp36
 70
     1
102
RTVSPost2010Prop37
 90
       50
102
RTVSPost2010PropOp37
 70
     1
102
RTVSPost2010Prop38
140
0.0
102
RTVSPost2010PropOp38
 70
     1
102
RTVSPost2010Prop39
140
1.0
102
RTVSPost2010PropOp39
 70
     1
102
RTVSPost2010Prop40
 90
        0
102
RTVSPost2010PropOp40
 70
     1
102
RTVSPost2010Prop41ColorIndex
 90
       18
102
RTVSPost2010Prop41ColorRGB
 90
        0
102
RTVSPost2010PropOp41
 70
     1
102
RTVSPost2010Prop42
 90
       50
102
RTVSPost2010PropOp42
 70
     1
102
RTVSPost2010Prop43
 90
        3
102
RTVSPost2010PropOp43
 70
     1
102
RTVSPost2010Prop44ColorIndex
 90
        5
102
RTVSPost2010Prop44ColorRGB
 90
      255
102
RTVSPost2010PropOp44
 70
     1
102
RTVSPost2010Prop45
280
     0
102
RTVSPost2010PropOp45
 70
     1
102
RTVSPost2010Prop46
 90
       50
102
RTVSPost2010PropOp46
 70
     1
102
RTVSPost2010Prop47
 90
       50
102
RTVSPost2010PropOp47
 70
     1
102
RTVSPost2010Prop48
 90
       50
102
RTVSPost2010PropOp48
 70
     1
102
RTVSPost2010Prop49
280
     0
102
RTVSPost2010PropOp49
 70
     1
102
RTVSPost2010Prop50
 90
       50
102
RTVSPost2010PropOp50
 70
     1
102
RTVSPost2010Prop51ColorIndex
 90
      256
102
RTVSPost2010Prop51ColorRGB
 90
-16777216
102
RTVSPost2010PropOp51
 70
     0
102
RTVSPost2010Prop52
140
1.0
102
RTVSPost2010PropOp52
 70
     0
102
RTVSPost2010Prop53
 90
        2
102
RTVSPost2010PropOp53
 70
     1
102
RTVSPost2010Prop54
  1
strokes_ogs.tif
102
RTVSPost2010PropOp54
 70
     1
102
RTVSPost2010Prop55
280
     0
102
RTVSPost2010PropOp55
 70
     1
102
RTVSPost2010Prop56
140
1.0
102
RTVSPost2010PropOp56
 70
     1
102
RTVSPost2010Prop57
140
1.0
102
RTVSPost2010PropOp57
 70
     1
102
RTVSPropertyOp0
 70
     1
102
RTVSPropertyOp1
 70
     1
102
RTVSPropertyOp2
 70
     1
102
RTVSPropertyOp3
 70
     1
102
RTVSPropertyOp4
 70
     1
102
RTVSPropertyOp5
 70
     1
102
RTVSPropertyOp6
 70
     1
102
RTVSPropertyOp7
 70
     1
102
RTVSPropertyOp8
 70
     1
102
RTVSPropertyOp9
 70
     1
102
RTVSPropertyOp10
 70
     1
102
RTVSPropertyOp11
 70
     1
102
RTVSPropertyOp12
 70
     1
102
RTVSPropertyOp13
 70
     1
102
RTVSPropertyOp14
 70
     1
102
RTVSPropertyOp15
 70
     1
102
RTVSPropertyOp16
 70
     1
102
RTVSPropertyOp17
 70
     1
102
RTVSPropertyOp18
 70
     1
102
RTVSPropertyOp19
 70
     1
102
RTVSPropertyOp20
 70
     1
102
RTVSPropertyOp21
 70
     1
102
RTVSPropertyOp22
 70
     1
102
RTVSPropertyOp23
 70
     1
102
RTVSPropertyOp24
 70
     1
102
RTVSPropertyOp25
 70
     1
102
RTVSPropertyOp26
 70
     1
102
RTVSPropertyOp27
 70
     1
102
RTVSPropertyOp28
 70
     1
102
RTVSPropertyOp29
 70
     1
102
RTVSPropertyOp30
 70
     1
102
RTVSPropertyOp31
 70
     1
102
RTVSPropertyOp32
 70
     1
102
RTVSPropertyOp33
 70
     1
102
RTVSPropertyOp34
 70
     1
102
RTVSPropertyOp35
 70
     1
102
RTVSPropertyOp36
 70
     1
102
RTVSPropertyOp37
 70
     1
102
RTVSPropertyOp38
 70
     1
102
RTVSPropertyOp39
 70
     1
102
RTVSPropertyOp40
 70
     1
102
RTVSPropertyOp41
 70
     1
102
RTVSPropertyOp42
 70
     1
102
RTVSPropertyOp43
 70
     1
102
RTVSPropertyOp44
 70
     1
102
RTVSPropertyOp45
 70
     1
102
RTVSPropertyOp46
 70
     1
102
RTVSPropertyOp47
 70
     1
102
RTVSPropertyOp48
 70
     1
102
RTVSPropertyOp49
 70
     1
102
RTVSPropertyOp50
 70
     1
102
RTVSPropertyOp51
 70
     0
102
RTVSPropertyOp52
 70
     0
102
RTVSPropertyOp53
 70
     1
102
RTVSPropertyOp54
 70
     1
102
RTVSPropertyOp55
 70
     1
102
RTVSPropertyOp56
 70
     1
102
RTVSPropertyOp57
 70
     1
102
RTVSPropertyOp58
 70
     1
102
RTVSPropertyOp59
 70
     1
102
RTVSPropertyOp60
 70
     1
102
RTVSPropertyOp61
 70
     1
102
RTVSPropertyOp62
 70
     1
  0
XRECORD
  5
23E7
102
{ACAD_REACTORS
330
23E6
102
}
330
23E6
100
AcDbXrecord
280
     1
102
RTVSPost2010Prop28
280
     0
102
RTVSPost2010PropOp28
 70
     1
102
RTVSPost2010Prop29
280
     1
102
RTVSPost2010PropOp29
 70
     1
102
RTVSPost2010Prop30
280
     1
102
RTVSPost2010PropOp30
 70
     1
102
RTVSPost2010Prop31
280
     0
102
RTVSPost2010PropOp31
 70
     1
102
RTVSPost2010Prop32
280
     0
102
RTVSPost2010PropOp32
 70
     1
102
RTVSPost2010Prop33
280
     0
102
RTVSPost2010PropOp33
 70
     1
102
RTVSPost2010Prop34
280
     0
102
RTVSPost2010PropOp34
 70
     1
102
RTVSPost2010Prop35
280
     0
102
RTVSPost2010PropOp35
 70
     1
102
RTVSPost2010Prop36
280
     0
102
RTVSPost2010PropOp36
 70
     1
102
RTVSPost2010Prop37
 90
       50
102
RTVSPost2010PropOp37
 70
     0
102
RTVSPost2010Prop38
140
0.0
102
RTVSPost2010PropOp38
 70
     0
102
RTVSPost2010Prop39
140
1.0
102
RTVSPost2010PropOp39
 70
     0
102
RTVSPost2010Prop40
 90
        0
102
RTVSPost2010PropOp40
 70
     0
102
RTVSPost2010Prop41ColorIndex
 90
       18
102
RTVSPost2010Prop41ColorRGB
 90
        0
102
RTVSPost2010PropOp41
 70
     0
102
RTVSPost2010Prop42
 90
       50
102
RTVSPost2010PropOp42
 70
     0
102
RTVSPost2010Prop43
 90
        3
102
RTVSPost2010PropOp43
 70
     0
102
RTVSPost2010Prop44ColorIndex
 90
        5
102
RTVSPost2010Prop44ColorRGB
 90
      255
102
RTVSPost2010PropOp44
 70
     0
102
RTVSPost2010Prop45
280
     0
102
RTVSPost2010PropOp45
 70
     1
102
RTVSPost2010Prop46
 90
       50
102
RTVSPost2010PropOp46
 70
     0
102
RTVSPost2010Prop47
 90
       50
102
RTVSPost2010PropOp47
 70
     0
102
RTVSPost2010Prop48
 90
       50
102
RTVSPost2010PropOp48
 70
     0
102
RTVSPost2010Prop49
280
     0
102
RTVSPost2010PropOp49
 70
     1
102
RTVSPost2010Prop50
 90
       50
102
RTVSPost2010PropOp50
 70
     0
102
RTVSPost2010Prop51ColorIndex
 90
      256
102
RTVSPost2010Prop51ColorRGB
 90
-16777216
102
RTVSPost2010PropOp51
 70
     0
102
RTVSPost2010Prop52
140
1.0
102
RTVSPost2010PropOp52
 70
     0
102
RTVSPost2010Prop53
 90
        2
102
RTVSPost2010PropOp53
 70
     0
102
RTVSPost2010Prop54
  1
strokes_ogs.tif
102
RTVSPost2010PropOp54
 70
     0
102
RTVSPost2010Prop55
280
     0
102
RTVSPost2010PropOp55
 70
     1
102
RTVSPost2010Prop56
140
1.0
102
RTVSPost2010PropOp56
 70
     0
102
RTVSPost2010Prop57
140
1.0
102
RTVSPost2010PropOp57
 70
     0
102
RTVSPropertyOp0
 70
     0
102
RTVSPropertyOp1
 70
     0
102
RTVSPropertyOp2
 70
     0
102
RTVSPropertyOp3
 70
     0
102
RTVSPropertyOp4
 70
     0
102
RTVSPropertyOp5
 70
     0
102
RTVSPropertyOp6
 70
     0
102
RTVSPropertyOp7
 70
     0
102
RTVSPropertyOp8
 70
     0
102
RTVSPropertyOp9
 70
     0
102
RTVSPropertyOp10
 70
     0
102
RTVSPropertyOp11
 70
     0
102
RTVSPropertyOp12
 70
     0
102
RTVSPropertyOp13
 70
     0
102
RTVSPropertyOp14
 70
     2
102
RTVSPropertyOp15
 70
     0
102
RTVSPropertyOp16
 70
     0
102
RTVSPropertyOp17
 70
     0
102
RTVSPropertyOp18
 70
     0
102
RTVSPropertyOp19
 70
     0
102
RTVSPropertyOp20
 70
     0
102
RTVSPropertyOp21
 70
     0
102
RTVSPropertyOp22
 70
     0
102
RTVSPropertyOp23
 70
     0
102
RTVSPropertyOp24
 70
     0
102
RTVSPropertyOp25
 70
     0
102
RTVSPropertyOp26
 70
     0
102
RTVSPropertyOp27
 70
     0
102
RTVSPropertyOp28
 70
     1
102
RTVSPropertyOp29
 70
     1
102
RTVSPropertyOp30
 70
     1
102
RTVSPropertyOp31
 70
     1
102
RTVSPropertyOp32
 70
     1
102
RTVSPropertyOp33
 70
     1
102
RTVSPropertyOp34
 70
     1
102
RTVSPropertyOp35
 70
     1
102
RTVSPropertyOp36
 70
     1
102
RTVSPropertyOp37
 70
     0
102
RTVSPropertyOp38
 70
     0
102
RTVSPropertyOp39
 70
     0
102
RTVSPropertyOp40
 70
     0
102
RTVSPropertyOp41
 70
     0
102
RTVSPropertyOp42
 70
     0
102
RTVSPropertyOp43
 70
     0
102
RTVSPropertyOp44
 70
     0
102
RTVSPropertyOp45
 70
     1
102
RTVSPropertyOp46
 70
     0
102
RTVSPropertyOp47
 70
     0
102
RTVSPropertyOp48
 70
     0
102
RTVSPropertyOp49
 70
     1
102
RTVSPropertyOp50
 70
     0
102
RTVSPropertyOp51
 70
     0
102
RTVSPropertyOp52
 70
     0
102
RTVSPropertyOp53
 70
     0
102
RTVSPropertyOp54
 70
     0
102
RTVSPropertyOp55
 70
     1
102
RTVSPropertyOp56
 70
     0
102
RTVSPropertyOp57
 70
     0
102
RTVSPropertyOp58
 70
     0
102
RTVSPropertyOp59
 70
     0
102
RTVSPropertyOp60
 70
     0
102
RTVSPropertyOp61
 70
     0
102
RTVSPropertyOp62
 70
     0
  0
XRECORD
  5
23CD
102
{ACAD_REACTORS
330
23CC
102
}
330
23CC
100
AcDbXrecord
280
     1
102
RTVSPost2010Prop28
280
     0
102
RTVSPost2010PropOp28
 70
     1
102
RTVSPost2010Prop29
280
     1
102
RTVSPost2010PropOp29
 70
     1
102
RTVSPost2010Prop30
280
     1
102
RTVSPost2010PropOp30
 70
     1
102
RTVSPost2010Prop31
280
     0
102
RTVSPost2010PropOp31
 70
     1
102
RTVSPost2010Prop32
280
     0
102
RTVSPost2010PropOp32
 70
     1
102
RTVSPost2010Prop33
280
     0
102
RTVSPost2010PropOp33
 70
     1
102
RTVSPost2010Prop34
280
     0
102
RTVSPost2010PropOp34
 70
     1
102
RTVSPost2010Prop35
280
     0
102
RTVSPost2010PropOp35
 70
     1
102
RTVSPost2010Prop36
280
     0
102
RTVSPost2010PropOp36
 70
     1
102
RTVSPost2010Prop37
 90
       50
102
RTVSPost2010PropOp37
 70
     1
102
RTVSPost2010Prop38
140
0.0
102
RTVSPost2010PropOp38
 70
     1
102
RTVSPost2010Prop39
140
1.0
102
RTVSPost2010PropOp39
 70
     1
102
RTVSPost2010Prop40
 90
        0
102
RTVSPost2010PropOp40
 70
     1
102
RTVSPost2010Prop41ColorIndex
 90
       18
102
RTVSPost2010Prop41ColorRGB
 90
        0
102
RTVSPost2010PropOp41
 70
     1
102
RTVSPost2010Prop42
 90
       50
102
RTVSPost2010PropOp42
 70
     1
102
RTVSPost2010Prop43
 90
        3
102
RTVSPost2010PropOp43
 70
     1
102
RTVSPost2010Prop44ColorIndex
 90
        5
102
RTVSPost2010Prop44ColorRGB
 90
      255
102
RTVSPost2010PropOp44
 70
     1
102
RTVSPost2010Prop45
280
     0
102
RTVSPost2010PropOp45
 70
     1
102
RTVSPost2010Prop46
 90
       50
102
RTVSPost2010PropOp46
 70
     1
102
RTVSPost2010Prop47
 90
       50
102
RTVSPost2010PropOp47
 70
     1
102
RTVSPost2010Prop48
 90
       50
102
RTVSPost2010PropOp48
 70
     1
102
RTVSPost2010Prop49
280
     0
102
RTVSPost2010PropOp49
 70
     1
102
RTVSPost2010Prop50
 90
       50
102
RTVSPost2010PropOp50
 70
     1
102
RTVSPost2010Prop51ColorIndex
 90
      256
102
RTVSPost2010Prop51ColorRGB
 90
-16777216
102
RTVSPost2010PropOp51
 70
     0
102
RTVSPost2010Prop52
140
1.0
102
RTVSPost2010PropOp52
 70
     0
102
RTVSPost2010Prop53
 90
        2
102
RTVSPost2010PropOp53
 70
     1
102
RTVSPost2010Prop54
  1
strokes_ogs.tif
102
RTVSPost2010PropOp54
 70
     1
102
RTVSPost2010Prop55
280
     0
102
RTVSPost2010PropOp55
 70
     1
102
RTVSPost2010Prop56
140
1.0
102
RTVSPost2010PropOp56
 70
     1
102
RTVSPost2010Prop57
140
1.0
102
RTVSPost2010PropOp57
 70
     1
102
RTVSPropertyOp0
 70
     1
102
RTVSPropertyOp1
 70
     1
102
RTVSPropertyOp2
 70
     1
102
RTVSPropertyOp3
 70
     1
102
RTVSPropertyOp4
 70
     1
102
RTVSPropertyOp5
 70
     1
102
RTVSPropertyOp6
 70
     1
102
RTVSPropertyOp7
 70
     1
102
RTVSPropertyOp8
 70
     1
102
RTVSPropertyOp9
 70
     1
102
RTVSPropertyOp10
 70
     1
102
RTVSPropertyOp11
 70
     1
102
RTVSPropertyOp12
 70
     1
102
RTVSPropertyOp13
 70
     1
102
RTVSPropertyOp14
 70
     1
102
RTVSPropertyOp15
 70
     1
102
RTVSPropertyOp16
 70
     1
102
RTVSPropertyOp17
 70
     1
102
RTVSPropertyOp18
 70
     1
102
RTVSPropertyOp19
 70
     1
102
RTVSPropertyOp20
 70
     1
102
RTVSPropertyOp21
 70
     1
102
RTVSPropertyOp22
 70
     1
102
RTVSPropertyOp23
 70
     1
102
RTVSPropertyOp24
 70
     1
102
RTVSPropertyOp25
 70
     1
102
RTVSPropertyOp26
 70
     1
102
RTVSPropertyOp27
 70
     1
102
RTVSPropertyOp28
 70
     1
102
RTVSPropertyOp29
 70
     1
102
RTVSPropertyOp30
 70
     1
102
RTVSPropertyOp31
 70
     1
102
RTVSPropertyOp32
 70
     1
102
RTVSPropertyOp33
 70
     1
102
RTVSPropertyOp34
 70
     1
102
RTVSPropertyOp35
 70
     1
102
RTVSPropertyOp36
 70
     1
102
RTVSPropertyOp37
 70
     1
102
RTVSPropertyOp38
 70
     1
102
RTVSPropertyOp39
 70
     1
102
RTVSPropertyOp40
 70
     1
102
RTVSPropertyOp41
 70
     1
102
RTVSPropertyOp42
 70
     1
102
RTVSPropertyOp43
 70
     1
102
RTVSPropertyOp44
 70
     1
102
RTVSPropertyOp45
 70
     1
102
RTVSPropertyOp46
 70
     1
102
RTVSPropertyOp47
 70
     1
102
RTVSPropertyOp48
 70
     1
102
RTVSPropertyOp49
 70
     1
102
RTVSPropertyOp50
 70
     1
102
RTVSPropertyOp51
 70
     0
102
RTVSPropertyOp52
 70
     0
102
RTVSPropertyOp53
 70
     1
102
RTVSPropertyOp54
 70
     1
102
RTVSPropertyOp55
 70
     1
102
RTVSPropertyOp56
 70
     1
102
RTVSPropertyOp57
 70
     1
102
RTVSPropertyOp58
 70
     1
102
RTVSPropertyOp59
 70
     1
102
RTVSPropertyOp60
 70
     1
102
RTVSPropertyOp61
 70
     1
102
RTVSPropertyOp62
 70
     1
  0
XRECORD
  5
23E3
102
{ACAD_REACTORS
330
23E2
102
}
330
23E2
100
AcDbXrecord
280
     1
102
RTVSPost2010Prop28
280
     0
102
RTVSPost2010PropOp28
 70
     1
102
RTVSPost2010Prop29
280
     1
102
RTVSPost2010PropOp29
 70
     1
102
RTVSPost2010Prop30
280
     1
102
RTVSPost2010PropOp30
 70
     1
102
RTVSPost2010Prop31
280
     0
102
RTVSPost2010PropOp31
 70
     1
102
RTVSPost2010Prop32
280
     0
102
RTVSPost2010PropOp32
 70
     1
102
RTVSPost2010Prop33
280
     0
102
RTVSPost2010PropOp33
 70
     1
102
RTVSPost2010Prop34
280
     0
102
RTVSPost2010PropOp34
 70
     1
102
RTVSPost2010Prop35
280
     0
102
RTVSPost2010PropOp35
 70
     1
102
RTVSPost2010Prop36
280
     0
102
RTVSPost2010PropOp36
 70
     1
102
RTVSPost2010Prop37
 90
       50
102
RTVSPost2010PropOp37
 70
     1
102
RTVSPost2010Prop38
140
0.0
102
RTVSPost2010PropOp38
 70
     1
102
RTVSPost2010Prop39
140
1.0
102
RTVSPost2010PropOp39
 70
     1
102
RTVSPost2010Prop40
 90
        0
102
RTVSPost2010PropOp40
 70
     1
102
RTVSPost2010Prop41ColorIndex
 90
       18
102
RTVSPost2010Prop41ColorRGB
 90
        0
102
RTVSPost2010PropOp41
 70
     1
102
RTVSPost2010Prop42
 90
       50
102
RTVSPost2010PropOp42
 70
     1
102
RTVSPost2010Prop43
 90
        3
102
RTVSPost2010PropOp43
 70
     1
102
RTVSPost2010Prop44ColorIndex
 90
        5
102
RTVSPost2010Prop44ColorRGB
 90
      255
102
RTVSPost2010PropOp44
 70
     1
102
RTVSPost2010Prop45
280
     0
102
RTVSPost2010PropOp45
 70
     1
102
RTVSPost2010Prop46
 90
       50
102
RTVSPost2010PropOp46
 70
     1
102
RTVSPost2010Prop47
 90
       50
102
RTVSPost2010PropOp47
 70
     1
102
RTVSPost2010Prop48
 90
       50
102
RTVSPost2010PropOp48
 70
     1
102
RTVSPost2010Prop49
280
     0
102
RTVSPost2010PropOp49
 70
     1
102
RTVSPost2010Prop50
 90
       50
102
RTVSPost2010PropOp50
 70
     1
102
RTVSPost2010Prop51ColorIndex
 90
      256
102
RTVSPost2010Prop51ColorRGB
 90
-16777216
102
RTVSPost2010PropOp51
 70
     0
102
RTVSPost2010Prop52
140
1.0
102
RTVSPost2010PropOp52
 70
     0
102
RTVSPost2010Prop53
 90
        2
102
RTVSPost2010PropOp53
 70
     1
102
RTVSPost2010Prop54
  1
strokes_ogs.tif
102
RTVSPost2010PropOp54
 70
     1
102
RTVSPost2010Prop55
280
     0
102
RTVSPost2010PropOp55
 70
     1
102
RTVSPost2010Prop56
140
1.0
102
RTVSPost2010PropOp56
 70
     1
102
RTVSPost2010Prop57
140
1.0
102
RTVSPost2010PropOp57
 70
     1
102
RTVSPropertyOp0
 70
     1
102
RTVSPropertyOp1
 70
     1
102
RTVSPropertyOp2
 70
     1
102
RTVSPropertyOp3
 70
     1
102
RTVSPropertyOp4
 70
     1
102
RTVSPropertyOp5
 70
     1
102
RTVSPropertyOp6
 70
     1
102
RTVSPropertyOp7
 70
     1
102
RTVSPropertyOp8
 70
     1
102
RTVSPropertyOp9
 70
     1
102
RTVSPropertyOp10
 70
     1
102
RTVSPropertyOp11
 70
     1
102
RTVSPropertyOp12
 70
     1
102
RTVSPropertyOp13
 70
     1
102
RTVSPropertyOp14
 70
     1
102
RTVSPropertyOp15
 70
     1
102
RTVSPropertyOp16
 70
     1
102
RTVSPropertyOp17
 70
     1
102
RTVSPropertyOp18
 70
     1
102
RTVSPropertyOp19
 70
     1
102
RTVSPropertyOp20
 70
     1
102
RTVSPropertyOp21
 70
     1
102
RTVSPropertyOp22
 70
     1
102
RTVSPropertyOp23
 70
     1
102
RTVSPropertyOp24
 70
     1
102
RTVSPropertyOp25
 70
     1
102
RTVSPropertyOp26
 70
     1
102
RTVSPropertyOp27
 70
     1
102
RTVSPropertyOp28
 70
     1
102
RTVSPropertyOp29
 70
     1
102
RTVSPropertyOp30
 70
     1
102
RTVSPropertyOp31
 70
     1
102
RTVSPropertyOp32
 70
     1
102
RTVSPropertyOp33
 70
     1
102
RTVSPropertyOp34
 70
     1
102
RTVSPropertyOp35
 70
     1
102
RTVSPropertyOp36
 70
     1
102
RTVSPropertyOp37
 70
     1
102
RTVSPropertyOp38
 70
     1
102
RTVSPropertyOp39
 70
     1
102
RTVSPropertyOp40
 70
     1
102
RTVSPropertyOp41
 70
     1
102
RTVSPropertyOp42
 70
     1
102
RTVSPropertyOp43
 70
     1
102
RTVSPropertyOp44
 70
     1
102
RTVSPropertyOp45
 70
     1
102
RTVSPropertyOp46
 70
     1
102
RTVSPropertyOp47
 70
     1
102
RTVSPropertyOp48
 70
     1
102
RTVSPropertyOp49
 70
     1
102
RTVSPropertyOp50
 70
     1
102
RTVSPropertyOp51
 70
     0
102
RTVSPropertyOp52
 70
     0
102
RTVSPropertyOp53
 70
     1
102
RTVSPropertyOp54
 70
     1
102
RTVSPropertyOp55
 70
     1
102
RTVSPropertyOp56
 70
     1
102
RTVSPropertyOp57
 70
     1
102
RTVSPropertyOp58
 70
     1
102
RTVSPropertyOp59
 70
     1
102
RTVSPropertyOp60
 70
     1
102
RTVSPropertyOp61
 70
     1
102
RTVSPropertyOp62
 70
     1
  0
XRECORD
  5
23E1
102
{ACAD_REACTORS
330
23E0
102
}
330
23E0
100
AcDbXrecord
280
     1
102
RTVSPost2010Prop28
280
     0
102
RTVSPost2010PropOp28
 70
     1
102
RTVSPost2010Prop29
280
     1
102
RTVSPost2010PropOp29
 70
     1
102
RTVSPost2010Prop30
280
     1
102
RTVSPost2010PropOp30
 70
     1
102
RTVSPost2010Prop31
280
     0
102
RTVSPost2010PropOp31
 70
     1
102
RTVSPost2010Prop32
280
     0
102
RTVSPost2010PropOp32
 70
     1
102
RTVSPost2010Prop33
280
     0
102
RTVSPost2010PropOp33
 70
     1
102
RTVSPost2010Prop34
280
     0
102
RTVSPost2010PropOp34
 70
     1
102
RTVSPost2010Prop35
280
     0
102
RTVSPost2010PropOp35
 70
     1
102
RTVSPost2010Prop36
280
     0
102
RTVSPost2010PropOp36
 70
     1
102
RTVSPost2010Prop37
 90
       50
102
RTVSPost2010PropOp37
 70
     1
102
RTVSPost2010Prop38
140
0.0
102
RTVSPost2010PropOp38
 70
     1
102
RTVSPost2010Prop39
140
1.0
102
RTVSPost2010PropOp39
 70
     1
102
RTVSPost2010Prop40
 90
        0
102
RTVSPost2010PropOp40
 70
     1
102
RTVSPost2010Prop41ColorIndex
 90
       18
102
RTVSPost2010Prop41ColorRGB
 90
        0
102
RTVSPost2010PropOp41
 70
     1
102
RTVSPost2010Prop42
 90
       50
102
RTVSPost2010PropOp42
 70
     1
102
RTVSPost2010Prop43
 90
        3
102
RTVSPost2010PropOp43
 70
     1
102
RTVSPost2010Prop44ColorIndex
 90
        5
102
RTVSPost2010Prop44ColorRGB
 90
      255
102
RTVSPost2010PropOp44
 70
     1
102
RTVSPost2010Prop45
280
     0
102
RTVSPost2010PropOp45
 70
     1
102
RTVSPost2010Prop46
 90
       50
102
RTVSPost2010PropOp46
 70
     1
102
RTVSPost2010Prop47
 90
       50
102
RTVSPost2010PropOp47
 70
     1
102
RTVSPost2010Prop48
 90
       50
102
RTVSPost2010PropOp48
 70
     1
102
RTVSPost2010Prop49
280
     0
102
RTVSPost2010PropOp49
 70
     1
102
RTVSPost2010Prop50
 90
       50
102
RTVSPost2010PropOp50
 70
     1
102
RTVSPost2010Prop51ColorIndex
 90
      256
102
RTVSPost2010Prop51ColorRGB
 90
-16777216
102
RTVSPost2010PropOp51
 70
     0
102
RTVSPost2010Prop52
140
1.0
102
RTVSPost2010PropOp52
 70
     0
102
RTVSPost2010Prop53
 90
        2
102
RTVSPost2010PropOp53
 70
     1
102
RTVSPost2010Prop54
  1
strokes_ogs.tif
102
RTVSPost2010PropOp54
 70
     1
102
RTVSPost2010Prop55
280
     0
102
RTVSPost2010PropOp55
 70
     1
102
RTVSPost2010Prop56
140
1.0
102
RTVSPost2010PropOp56
 70
     1
102
RTVSPost2010Prop57
140
1.0
102
RTVSPost2010PropOp57
 70
     1
102
RTVSPropertyOp0
 70
     1
102
RTVSPropertyOp1
 70
     1
102
RTVSPropertyOp2
 70
     1
102
RTVSPropertyOp3
 70
     1
102
RTVSPropertyOp4
 70
     1
102
RTVSPropertyOp5
 70
     1
102
RTVSPropertyOp6
 70
     1
102
RTVSPropertyOp7
 70
     1
102
RTVSPropertyOp8
 70
     1
102
RTVSPropertyOp9
 70
     1
102
RTVSPropertyOp10
 70
     1
102
RTVSPropertyOp11
 70
     1
102
RTVSPropertyOp12
 70
     1
102
RTVSPropertyOp13
 70
     1
102
RTVSPropertyOp14
 70
     1
102
RTVSPropertyOp15
 70
     1
102
RTVSPropertyOp16
 70
     1
102
RTVSPropertyOp17
 70
     1
102
RTVSPropertyOp18
 70
     1
102
RTVSPropertyOp19
 70
     1
102
RTVSPropertyOp20
 70
     1
102
RTVSPropertyOp21
 70
     1
102
RTVSPropertyOp22
 70
     1
102
RTVSPropertyOp23
 70
     1
102
RTVSPropertyOp24
 70
     1
102
RTVSPropertyOp25
 70
     1
102
RTVSPropertyOp26
 70
     1
102
RTVSPropertyOp27
 70
     1
102
RTVSPropertyOp28
 70
     1
102
RTVSPropertyOp29
 70
     1
102
RTVSPropertyOp30
 70
     1
102
RTVSPropertyOp31
 70
     1
102
RTVSPropertyOp32
 70
     1
102
RTVSPropertyOp33
 70
     1
102
RTVSPropertyOp34
 70
     1
102
RTVSPropertyOp35
 70
     1
102
RTVSPropertyOp36
 70
     1
102
RTVSPropertyOp37
 70
     1
102
RTVSPropertyOp38
 70
     1
102
RTVSPropertyOp39
 70
     1
102
RTVSPropertyOp40
 70
     1
102
RTVSPropertyOp41
 70
     1
102
RTVSPropertyOp42
 70
     1
102
RTVSPropertyOp43
 70
     1
102
RTVSPropertyOp44
 70
     1
102
RTVSPropertyOp45
 70
     1
102
RTVSPropertyOp46
 70
     1
102
RTVSPropertyOp47
 70
     1
102
RTVSPropertyOp48
 70
     1
102
RTVSPropertyOp49
 70
     1
102
RTVSPropertyOp50
 70
     1
102
RTVSPropertyOp51
 70
     0
102
RTVSPropertyOp52
 70
     0
102
RTVSPropertyOp53
 70
     1
102
RTVSPropertyOp54
 70
     1
102
RTVSPropertyOp55
 70
     1
102
RTVSPropertyOp56
 70
     1
102
RTVSPropertyOp57
 70
     1
102
RTVSPropertyOp58
 70
     1
102
RTVSPropertyOp59
 70
     1
102
RTVSPropertyOp60
 70
     1
102
RTVSPropertyOp61
 70
     1
102
RTVSPropertyOp62
 70
     1
  0
XRECORD
  5
23DB
102
{ACAD_REACTORS
330
23DA
102
}
330
23DA
100
AcDbXrecord
280
     1
102
RTVSPost2010Prop28
280
     0
102
RTVSPost2010PropOp28
 70
     1
102
RTVSPost2010Prop29
280
     1
102
RTVSPost2010PropOp29
 70
     1
102
RTVSPost2010Prop30
280
     1
102
RTVSPost2010PropOp30
 70
     1
102
RTVSPost2010Prop31
280
     0
102
RTVSPost2010PropOp31
 70
     1
102
RTVSPost2010Prop32
280
     0
102
RTVSPost2010PropOp32
 70
     1
102
RTVSPost2010Prop33
280
     0
102
RTVSPost2010PropOp33
 70
     1
102
RTVSPost2010Prop34
280
     0
102
RTVSPost2010PropOp34
 70
     1
102
RTVSPost2010Prop35
280
     0
102
RTVSPost2010PropOp35
 70
     1
102
RTVSPost2010Prop36
280
     0
102
RTVSPost2010PropOp36
 70
     1
102
RTVSPost2010Prop37
 90
       50
102
RTVSPost2010PropOp37
 70
     1
102
RTVSPost2010Prop38
140
0.0
102
RTVSPost2010PropOp38
 70
     1
102
RTVSPost2010Prop39
140
1.0
102
RTVSPost2010PropOp39
 70
     1
102
RTVSPost2010Prop40
 90
        0
102
RTVSPost2010PropOp40
 70
     1
102
RTVSPost2010Prop41ColorIndex
 90
       18
102
RTVSPost2010Prop41ColorRGB
 90
        0
102
RTVSPost2010PropOp41
 70
     1
102
RTVSPost2010Prop42
 90
       50
102
RTVSPost2010PropOp42
 70
     1
102
RTVSPost2010Prop43
 90
        3
102
RTVSPost2010PropOp43
 70
     1
102
RTVSPost2010Prop44ColorIndex
 90
        5
102
RTVSPost2010Prop44ColorRGB
 90
      255
102
RTVSPost2010PropOp44
 70
     1
102
RTVSPost2010Prop45
280
     0
102
RTVSPost2010PropOp45
 70
     1
102
RTVSPost2010Prop46
 90
       50
102
RTVSPost2010PropOp46
 70
     1
102
RTVSPost2010Prop47
 90
       50
102
RTVSPost2010PropOp47
 70
     1
102
RTVSPost2010Prop48
 90
       50
102
RTVSPost2010PropOp48
 70
     1
102
RTVSPost2010Prop49
280
     0
102
RTVSPost2010PropOp49
 70
     1
102
RTVSPost2010Prop50
 90
       50
102
RTVSPost2010PropOp50
 70
     1
102
RTVSPost2010Prop51ColorIndex
 90
      256
102
RTVSPost2010Prop51ColorRGB
 90
-16777216
102
RTVSPost2010PropOp51
 70
     0
102
RTVSPost2010Prop52
140
1.0
102
RTVSPost2010PropOp52
 70
     0
102
RTVSPost2010Prop53
 90
        2
102
RTVSPost2010PropOp53
 70
     1
102
RTVSPost2010Prop54
  1
strokes_ogs.tif
102
RTVSPost2010PropOp54
 70
     1
102
RTVSPost2010Prop55
280
     0
102
RTVSPost2010PropOp55
 70
     1
102
RTVSPost2010Prop56
140
1.0
102
RTVSPost2010PropOp56
 70
     1
102
RTVSPost2010Prop57
140
1.0
102
RTVSPost2010PropOp57
 70
     1
102
RTVSPropertyOp0
 70
     1
102
RTVSPropertyOp1
 70
     1
102
RTVSPropertyOp2
 70
     1
102
RTVSPropertyOp3
 70
     1
102
RTVSPropertyOp4
 70
     1
102
RTVSPropertyOp5
 70
     1
102
RTVSPropertyOp6
 70
     1
102
RTVSPropertyOp7
 70
     1
102
RTVSPropertyOp8
 70
     1
102
RTVSPropertyOp9
 70
     1
102
RTVSPropertyOp10
 70
     1
102
RTVSPropertyOp11
 70
     1
102
RTVSPropertyOp12
 70
     1
102
RTVSPropertyOp13
 70
     1
102
RTVSPropertyOp14
 70
     1
102
RTVSPropertyOp15
 70
     1
102
RTVSPropertyOp16
 70
     1
102
RTVSPropertyOp17
 70
     1
102
RTVSPropertyOp18
 70
     1
102
RTVSPropertyOp19
 70
     1
102
RTVSPropertyOp20
 70
     1
102
RTVSPropertyOp21
 70
     1
102
RTVSPropertyOp22
 70
     1
102
RTVSPropertyOp23
 70
     1
102
RTVSPropertyOp24
 70
     1
102
RTVSPropertyOp25
 70
     1
102
RTVSPropertyOp26
 70
     1
102
RTVSPropertyOp27
 70
     1
102
RTVSPropertyOp28
 70
     1
102
RTVSPropertyOp29
 70
     1
102
RTVSPropertyOp30
 70
     1
102
RTVSPropertyOp31
 70
     1
102
RTVSPropertyOp32
 70
     1
102
RTVSPropertyOp33
 70
     1
102
RTVSPropertyOp34
 70
     1
102
RTVSPropertyOp35
 70
     1
102
RTVSPropertyOp36
 70
     1
102
RTVSPropertyOp37
 70
     1
102
RTVSPropertyOp38
 70
     1
102
RTVSPropertyOp39
 70
     1
102
RTVSPropertyOp40
 70
     1
102
RTVSPropertyOp41
 70
     1
102
RTVSPropertyOp42
 70
     1
102
RTVSPropertyOp43
 70
     1
102
RTVSPropertyOp44
 70
     1
102
RTVSPropertyOp45
 70
     1
102
RTVSPropertyOp46
 70
     1
102
RTVSPropertyOp47
 70
     1
102
RTVSPropertyOp48
 70
     1
102
RTVSPropertyOp49
 70
     1
102
RTVSPropertyOp50
 70
     1
102
RTVSPropertyOp51
 70
     0
102
RTVSPropertyOp52
 70
     0
102
RTVSPropertyOp53
 70
     1
102
RTVSPropertyOp54
 70
     1
102
RTVSPropertyOp55
 70
     1
102
RTVSPropertyOp56
 70
     1
102
RTVSPropertyOp57
 70
     1
102
RTVSPropertyOp58
 70
     1
102
RTVSPropertyOp59
 70
     1
102
RTVSPropertyOp60
 70
     1
102
RTVSPropertyOp61
 70
     1
102
RTVSPropertyOp62
 70
     1
  0
XRECORD
  5
23DD
102
{ACAD_REACTORS
330
23DC
102
}
330
23DC
100
AcDbXrecord
280
     1
102
RTVSPost2010Prop28
280
     0
102
RTVSPost2010PropOp28
 70
     1
102
RTVSPost2010Prop29
280
     1
102
RTVSPost2010PropOp29
 70
     1
102
RTVSPost2010Prop30
280
     1
102
RTVSPost2010PropOp30
 70
     1
102
RTVSPost2010Prop31
280
     0
102
RTVSPost2010PropOp31
 70
     1
102
RTVSPost2010Prop32
280
     0
102
RTVSPost2010PropOp32
 70
     1
102
RTVSPost2010Prop33
280
     0
102
RTVSPost2010PropOp33
 70
     1
102
RTVSPost2010Prop34
280
     0
102
RTVSPost2010PropOp34
 70
     1
102
RTVSPost2010Prop35
280
     0
102
RTVSPost2010PropOp35
 70
     1
102
RTVSPost2010Prop36
280
     0
102
RTVSPost2010PropOp36
 70
     1
102
RTVSPost2010Prop37
 90
       50
102
RTVSPost2010PropOp37
 70
     1
102
RTVSPost2010Prop38
140
0.0
102
RTVSPost2010PropOp38
 70
     1
102
RTVSPost2010Prop39
140
1.0
102
RTVSPost2010PropOp39
 70
     1
102
RTVSPost2010Prop40
 90
        0
102
RTVSPost2010PropOp40
 70
     1
102
RTVSPost2010Prop41ColorIndex
 90
       18
102
RTVSPost2010Prop41ColorRGB
 90
        0
102
RTVSPost2010PropOp41
 70
     1
102
RTVSPost2010Prop42
 90
       50
102
RTVSPost2010PropOp42
 70
     1
102
RTVSPost2010Prop43
 90
        3
102
RTVSPost2010PropOp43
 70
     1
102
RTVSPost2010Prop44ColorIndex
 90
        5
102
RTVSPost2010Prop44ColorRGB
 90
      255
102
RTVSPost2010PropOp44
 70
     1
102
RTVSPost2010Prop45
280
     0
102
RTVSPost2010PropOp45
 70
     1
102
RTVSPost2010Prop46
 90
       50
102
RTVSPost2010PropOp46
 70
     1
102
RTVSPost2010Prop47
 90
       50
102
RTVSPost2010PropOp47
 70
     1
102
RTVSPost2010Prop48
 90
       50
102
RTVSPost2010PropOp48
 70
     1
102
RTVSPost2010Prop49
280
     0
102
RTVSPost2010PropOp49
 70
     1
102
RTVSPost2010Prop50
 90
       50
102
RTVSPost2010PropOp50
 70
     1
102
RTVSPost2010Prop51ColorIndex
 90
      256
102
RTVSPost2010Prop51ColorRGB
 90
-16777216
102
RTVSPost2010PropOp51
 70
     0
102
RTVSPost2010Prop52
140
1.0
102
RTVSPost2010PropOp52
 70
     0
102
RTVSPost2010Prop53
 90
        2
102
RTVSPost2010PropOp53
 70
     1
102
RTVSPost2010Prop54
  1
strokes_ogs.tif
102
RTVSPost2010PropOp54
 70
     1
102
RTVSPost2010Prop55
280
     0
102
RTVSPost2010PropOp55
 70
     1
102
RTVSPost2010Prop56
140
1.0
102
RTVSPost2010PropOp56
 70
     1
102
RTVSPost2010Prop57
140
1.0
102
RTVSPost2010PropOp57
 70
     1
102
RTVSPropertyOp0
 70
     1
102
RTVSPropertyOp1
 70
     1
102
RTVSPropertyOp2
 70
     1
102
RTVSPropertyOp3
 70
     1
102
RTVSPropertyOp4
 70
     1
102
RTVSPropertyOp5
 70
     1
102
RTVSPropertyOp6
 70
     1
102
RTVSPropertyOp7
 70
     1
102
RTVSPropertyOp8
 70
     1
102
RTVSPropertyOp9
 70
     1
102
RTVSPropertyOp10
 70
     1
102
RTVSPropertyOp11
 70
     1
102
RTVSPropertyOp12
 70
     1
102
RTVSPropertyOp13
 70
     1
102
RTVSPropertyOp14
 70
     1
102
RTVSPropertyOp15
 70
     1
102
RTVSPropertyOp16
 70
     1
102
RTVSPropertyOp17
 70
     1
102
RTVSPropertyOp18
 70
     1
102
RTVSPropertyOp19
 70
     1
102
RTVSPropertyOp20
 70
     1
102
RTVSPropertyOp21
 70
     1
102
RTVSPropertyOp22
 70
     1
102
RTVSPropertyOp23
 70
     1
102
RTVSPropertyOp24
 70
     1
102
RTVSPropertyOp25
 70
     1
102
RTVSPropertyOp26
 70
     1
102
RTVSPropertyOp27
 70
     1
102
RTVSPropertyOp28
 70
     1
102
RTVSPropertyOp29
 70
     1
102
RTVSPropertyOp30
 70
     1
102
RTVSPropertyOp31
 70
     1
102
RTVSPropertyOp32
 70
     1
102
RTVSPropertyOp33
 70
     1
102
RTVSPropertyOp34
 70
     1
102
RTVSPropertyOp35
 70
     1
102
RTVSPropertyOp36
 70
     1
102
RTVSPropertyOp37
 70
     1
102
RTVSPropertyOp38
 70
     1
102
RTVSPropertyOp39
 70
     1
102
RTVSPropertyOp40
 70
     1
102
RTVSPropertyOp41
 70
     1
102
RTVSPropertyOp42
 70
     1
102
RTVSPropertyOp43
 70
     1
102
RTVSPropertyOp44
 70
     1
102
RTVSPropertyOp45
 70
     1
102
RTVSPropertyOp46
 70
     1
102
RTVSPropertyOp47
 70
     1
102
RTVSPropertyOp48
 70
     1
102
RTVSPropertyOp49
 70
     1
102
RTVSPropertyOp50
 70
     1
102
RTVSPropertyOp51
 70
     0
102
RTVSPropertyOp52
 70
     0
102
RTVSPropertyOp53
 70
     1
102
RTVSPropertyOp54
 70
     1
102
RTVSPropertyOp55
 70
     1
102
RTVSPropertyOp56
 70
     1
102
RTVSPropertyOp57
 70
     1
102
RTVSPropertyOp58
 70
     1
102
RTVSPropertyOp59
 70
     1
102
RTVSPropertyOp60
 70
     1
102
RTVSPropertyOp61
 70
     1
102
RTVSPropertyOp62
 70
     1
  0
XRECORD
  5
23D3
102
{ACAD_REACTORS
330
23D2
102
}
330
23D2
100
AcDbXrecord
280
     1
102
RTVSPost2010Prop28
280
     0
102
RTVSPost2010PropOp28
 70
     1
102
RTVSPost2010Prop29
280
     1
102
RTVSPost2010PropOp29
 70
     1
102
RTVSPost2010Prop30
280
     1
102
RTVSPost2010PropOp30
 70
     1
102
RTVSPost2010Prop31
280
     0
102
RTVSPost2010PropOp31
 70
     1
102
RTVSPost2010Prop32
280
     0
102
RTVSPost2010PropOp32
 70
     1
102
RTVSPost2010Prop33
280
     0
102
RTVSPost2010PropOp33
 70
     1
102
RTVSPost2010Prop34
280
     0
102
RTVSPost2010PropOp34
 70
     1
102
RTVSPost2010Prop35
280
     0
102
RTVSPost2010PropOp35
 70
     1
102
RTVSPost2010Prop36
280
     0
102
RTVSPost2010PropOp36
 70
     1
102
RTVSPost2010Prop37
 90
       50
102
RTVSPost2010PropOp37
 70
     1
102
RTVSPost2010Prop38
140
0.0
102
RTVSPost2010PropOp38
 70
     1
102
RTVSPost2010Prop39
140
1.0
102
RTVSPost2010PropOp39
 70
     1
102
RTVSPost2010Prop40
 90
        0
102
RTVSPost2010PropOp40
 70
     1
102
RTVSPost2010Prop41ColorIndex
 90
       18
102
RTVSPost2010Prop41ColorRGB
 90
        0
102
RTVSPost2010PropOp41
 70
     1
102
RTVSPost2010Prop42
 90
       50
102
RTVSPost2010PropOp42
 70
     1
102
RTVSPost2010Prop43
 90
        3
102
RTVSPost2010PropOp43
 70
     1
102
RTVSPost2010Prop44ColorIndex
 90
        5
102
RTVSPost2010Prop44ColorRGB
 90
      255
102
RTVSPost2010PropOp44
 70
     1
102
RTVSPost2010Prop45
280
     0
102
RTVSPost2010PropOp45
 70
     1
102
RTVSPost2010Prop46
 90
       50
102
RTVSPost2010PropOp46
 70
     1
102
RTVSPost2010Prop47
 90
       50
102
RTVSPost2010PropOp47
 70
     1
102
RTVSPost2010Prop48
 90
       50
102
RTVSPost2010PropOp48
 70
     1
102
RTVSPost2010Prop49
280
     0
102
RTVSPost2010PropOp49
 70
     1
102
RTVSPost2010Prop50
 90
       50
102
RTVSPost2010PropOp50
 70
     1
102
RTVSPost2010Prop51ColorIndex
 90
      256
102
RTVSPost2010Prop51ColorRGB
 90
-16777216
102
RTVSPost2010PropOp51
 70
     0
102
RTVSPost2010Prop52
140
1.0
102
RTVSPost2010PropOp52
 70
     0
102
RTVSPost2010Prop53
 90
        2
102
RTVSPost2010PropOp53
 70
     1
102
RTVSPost2010Prop54
  1
strokes_ogs.tif
102
RTVSPost2010PropOp54
 70
     1
102
RTVSPost2010Prop55
280
     0
102
RTVSPost2010PropOp55
 70
     1
102
RTVSPost2010Prop56
140
1.0
102
RTVSPost2010PropOp56
 70
     1
102
RTVSPost2010Prop57
140
1.0
102
RTVSPost2010PropOp57
 70
     1
102
RTVSPropertyOp0
 70
     1
102
RTVSPropertyOp1
 70
     1
102
RTVSPropertyOp2
 70
     1
102
RTVSPropertyOp3
 70
     1
102
RTVSPropertyOp4
 70
     1
102
RTVSPropertyOp5
 70
     1
102
RTVSPropertyOp6
 70
     1
102
RTVSPropertyOp7
 70
     1
102
RTVSPropertyOp8
 70
     1
102
RTVSPropertyOp9
 70
     1
102
RTVSPropertyOp10
 70
     1
102
RTVSPropertyOp11
 70
     1
102
RTVSPropertyOp12
 70
     1
102
RTVSPropertyOp13
 70
     1
102
RTVSPropertyOp14
 70
     1
102
RTVSPropertyOp15
 70
     1
102
RTVSPropertyOp16
 70
     1
102
RTVSPropertyOp17
 70
     1
102
RTVSPropertyOp18
 70
     1
102
RTVSPropertyOp19
 70
     1
102
RTVSPropertyOp20
 70
     1
102
RTVSPropertyOp21
 70
     1
102
RTVSPropertyOp22
 70
     1
102
RTVSPropertyOp23
 70
     1
102
RTVSPropertyOp24
 70
     1
102
RTVSPropertyOp25
 70
     1
102
RTVSPropertyOp26
 70
     1
102
RTVSPropertyOp27
 70
     1
102
RTVSPropertyOp28
 70
     1
102
RTVSPropertyOp29
 70
     1
102
RTVSPropertyOp30
 70
     1
102
RTVSPropertyOp31
 70
     1
102
RTVSPropertyOp32
 70
     1
102
RTVSPropertyOp33
 70
     1
102
RTVSPropertyOp34
 70
     1
102
RTVSPropertyOp35
 70
     1
102
RTVSPropertyOp36
 70
     1
102
RTVSPropertyOp37
 70
     1
102
RTVSPropertyOp38
 70
     1
102
RTVSPropertyOp39
 70
     1
102
RTVSPropertyOp40
 70
     1
102
RTVSPropertyOp41
 70
     1
102
RTVSPropertyOp42
 70
     1
102
RTVSPropertyOp43
 70
     1
102
RTVSPropertyOp44
 70
     1
102
RTVSPropertyOp45
 70
     1
102
RTVSPropertyOp46
 70
     1
102
RTVSPropertyOp47
 70
     1
102
RTVSPropertyOp48
 70
     1
102
RTVSPropertyOp49
 70
     1
102
RTVSPropertyOp50
 70
     1
102
RTVSPropertyOp51
 70
     0
102
RTVSPropertyOp52
 70
     0
102
RTVSPropertyOp53
 70
     1
102
RTVSPropertyOp54
 70
     1
102
RTVSPropertyOp55
 70
     1
102
RTVSPropertyOp56
 70
     1
102
RTVSPropertyOp57
 70
     1
102
RTVSPropertyOp58
 70
     1
102
RTVSPropertyOp59
 70
     1
102
RTVSPropertyOp60
 70
     1
102
RTVSPropertyOp61
 70
     1
102
RTVSPropertyOp62
 70
     1
  0
XRECORD
  5
23C7
102
{ACAD_REACTORS
330
23C6
102
}
330
23C6
100
AcDbXrecord
280
     1
102
RTVSPost2010Prop28
280
     0
102
RTVSPost2010PropOp28
 70
     1
102
RTVSPost2010Prop29
280
     1
102
RTVSPost2010PropOp29
 70
     1
102
RTVSPost2010Prop30
280
     1
102
RTVSPost2010PropOp30
 70
     1
102
RTVSPost2010Prop31
280
     0
102
RTVSPost2010PropOp31
 70
     1
102
RTVSPost2010Prop32
280
     0
102
RTVSPost2010PropOp32
 70
     1
102
RTVSPost2010Prop33
280
     0
102
RTVSPost2010PropOp33
 70
     1
102
RTVSPost2010Prop34
280
     0
102
RTVSPost2010PropOp34
 70
     1
102
RTVSPost2010Prop35
280
     0
102
RTVSPost2010PropOp35
 70
     1
102
RTVSPost2010Prop36
280
     0
102
RTVSPost2010PropOp36
 70
     1
102
RTVSPost2010Prop37
 90
       50
102
RTVSPost2010PropOp37
 70
     1
102
RTVSPost2010Prop38
140
0.0
102
RTVSPost2010PropOp38
 70
     1
102
RTVSPost2010Prop39
140
1.0
102
RTVSPost2010PropOp39
 70
     1
102
RTVSPost2010Prop40
 90
        0
102
RTVSPost2010PropOp40
 70
     1
102
RTVSPost2010Prop41ColorIndex
 90
       18
102
RTVSPost2010Prop41ColorRGB
 90
        0
102
RTVSPost2010PropOp41
 70
     1
102
RTVSPost2010Prop42
 90
       50
102
RTVSPost2010PropOp42
 70
     1
102
RTVSPost2010Prop43
 90
        3
102
RTVSPost2010PropOp43
 70
     1
102
RTVSPost2010Prop44ColorIndex
 90
        5
102
RTVSPost2010Prop44ColorRGB
 90
      255
102
RTVSPost2010PropOp44
 70
     1
102
RTVSPost2010Prop45
280
     0
102
RTVSPost2010PropOp45
 70
     1
102
RTVSPost2010Prop46
 90
       50
102
RTVSPost2010PropOp46
 70
     1
102
RTVSPost2010Prop47
 90
       50
102
RTVSPost2010PropOp47
 70
     1
102
RTVSPost2010Prop48
 90
       50
102
RTVSPost2010PropOp48
 70
     1
102
RTVSPost2010Prop49
280
     0
102
RTVSPost2010PropOp49
 70
     1
102
RTVSPost2010Prop50
 90
       50
102
RTVSPost2010PropOp50
 70
     1
102
RTVSPost2010Prop51ColorIndex
 90
      256
102
RTVSPost2010Prop51ColorRGB
 90
-16777216
102
RTVSPost2010PropOp51
 70
     0
102
RTVSPost2010Prop52
140
1.0
102
RTVSPost2010PropOp52
 70
     0
102
RTVSPost2010Prop53
 90
        2
102
RTVSPost2010PropOp53
 70
     1
102
RTVSPost2010Prop54
  1
strokes_ogs.tif
102
RTVSPost2010PropOp54
 70
     1
102
RTVSPost2010Prop55
280
     0
102
RTVSPost2010PropOp55
 70
     1
102
RTVSPost2010Prop56
140
1.0
102
RTVSPost2010PropOp56
 70
     1
102
RTVSPost2010Prop57
140
1.0
102
RTVSPost2010PropOp57
 70
     1
102
RTVSPropertyOp0
 70
     1
102
RTVSPropertyOp1
 70
     1
102
RTVSPropertyOp2
 70
     1
102
RTVSPropertyOp3
 70
     1
102
RTVSPropertyOp4
 70
     1
102
RTVSPropertyOp5
 70
     1
102
RTVSPropertyOp6
 70
     1
102
RTVSPropertyOp7
 70
     1
102
RTVSPropertyOp8
 70
     1
102
RTVSPropertyOp9
 70
     1
102
RTVSPropertyOp10
 70
     1
102
RTVSPropertyOp11
 70
     1
102
RTVSPropertyOp12
 70
     1
102
RTVSPropertyOp13
 70
     1
102
RTVSPropertyOp14
 70
     1
102
RTVSPropertyOp15
 70
     1
102
RTVSPropertyOp16
 70
     1
102
RTVSPropertyOp17
 70
     1
102
RTVSPropertyOp18
 70
     1
102
RTVSPropertyOp19
 70
     1
102
RTVSPropertyOp20
 70
     1
102
RTVSPropertyOp21
 70
     1
102
RTVSPropertyOp22
 70
     1
102
RTVSPropertyOp23
 70
     1
102
RTVSPropertyOp24
 70
     1
102
RTVSPropertyOp25
 70
     1
102
RTVSPropertyOp26
 70
     1
102
RTVSPropertyOp27
 70
     1
102
RTVSPropertyOp28
 70
     1
102
RTVSPropertyOp29
 70
     1
102
RTVSPropertyOp30
 70
     1
102
RTVSPropertyOp31
 70
     1
102
RTVSPropertyOp32
 70
     1
102
RTVSPropertyOp33
 70
     1
102
RTVSPropertyOp34
 70
     1
102
RTVSPropertyOp35
 70
     1
102
RTVSPropertyOp36
 70
     1
102
RTVSPropertyOp37
 70
     1
102
RTVSPropertyOp38
 70
     1
102
RTVSPropertyOp39
 70
     1
102
RTVSPropertyOp40
 70
     1
102
RTVSPropertyOp41
 70
     1
102
RTVSPropertyOp42
 70
     1
102
RTVSPropertyOp43
 70
     1
102
RTVSPropertyOp44
 70
     1
102
RTVSPropertyOp45
 70
     1
102
RTVSPropertyOp46
 70
     1
102
RTVSPropertyOp47
 70
     1
102
RTVSPropertyOp48
 70
     1
102
RTVSPropertyOp49
 70
     1
102
RTVSPropertyOp50
 70
     1
102
RTVSPropertyOp51
 70
     0
102
RTVSPropertyOp52
 70
     0
102
RTVSPropertyOp53
 70
     1
102
RTVSPropertyOp54
 70
     1
102
RTVSPropertyOp55
 70
     1
102
RTVSPropertyOp56
 70
     1
102
RTVSPropertyOp57
 70
     1
102
RTVSPropertyOp58
 70
     1
102
RTVSPropertyOp59
 70
     1
102
RTVSPropertyOp60
 70
     1
102
RTVSPropertyOp61
 70
     1
102
RTVSPropertyOp62
 70
     1
  0
XRECORD
  5
23DF
102
{ACAD_REACTORS
330
23DE
102
}
330
23DE
100
AcDbXrecord
280
     1
102
RTVSPost2010Prop28
280
     0
102
RTVSPost2010PropOp28
 70
     1
102
RTVSPost2010Prop29
280
     1
102
RTVSPost2010PropOp29
 70
     1
102
RTVSPost2010Prop30
280
     1
102
RTVSPost2010PropOp30
 70
     1
102
RTVSPost2010Prop31
280
     0
102
RTVSPost2010PropOp31
 70
     1
102
RTVSPost2010Prop32
280
     0
102
RTVSPost2010PropOp32
 70
     1
102
RTVSPost2010Prop33
280
     0
102
RTVSPost2010PropOp33
 70
     1
102
RTVSPost2010Prop34
280
     0
102
RTVSPost2010PropOp34
 70
     1
102
RTVSPost2010Prop35
280
     0
102
RTVSPost2010PropOp35
 70
     1
102
RTVSPost2010Prop36
280
     0
102
RTVSPost2010PropOp36
 70
     1
102
RTVSPost2010Prop37
 90
       50
102
RTVSPost2010PropOp37
 70
     1
102
RTVSPost2010Prop38
140
0.0
102
RTVSPost2010PropOp38
 70
     1
102
RTVSPost2010Prop39
140
1.0
102
RTVSPost2010PropOp39
 70
     1
102
RTVSPost2010Prop40
 90
        0
102
RTVSPost2010PropOp40
 70
     1
102
RTVSPost2010Prop41ColorIndex
 90
       18
102
RTVSPost2010Prop41ColorRGB
 90
        0
102
RTVSPost2010PropOp41
 70
     1
102
RTVSPost2010Prop42
 90
       50
102
RTVSPost2010PropOp42
 70
     1
102
RTVSPost2010Prop43
 90
        3
102
RTVSPost2010PropOp43
 70
     1
102
RTVSPost2010Prop44ColorIndex
 90
        5
102
RTVSPost2010Prop44ColorRGB
 90
      255
102
RTVSPost2010PropOp44
 70
     1
102
RTVSPost2010Prop45
280
     0
102
RTVSPost2010PropOp45
 70
     1
102
RTVSPost2010Prop46
 90
       50
102
RTVSPost2010PropOp46
 70
     1
102
RTVSPost2010Prop47
 90
       50
102
RTVSPost2010PropOp47
 70
     1
102
RTVSPost2010Prop48
 90
       50
102
RTVSPost2010PropOp48
 70
     1
102
RTVSPost2010Prop49
280
     0
102
RTVSPost2010PropOp49
 70
     1
102
RTVSPost2010Prop50
 90
       50
102
RTVSPost2010PropOp50
 70
     1
102
RTVSPost2010Prop51ColorIndex
 90
      256
102
RTVSPost2010Prop51ColorRGB
 90
-16777216
102
RTVSPost2010PropOp51
 70
     0
102
RTVSPost2010Prop52
140
1.0
102
RTVSPost2010PropOp52
 70
     0
102
RTVSPost2010Prop53
 90
        2
102
RTVSPost2010PropOp53
 70
     1
102
RTVSPost2010Prop54
  1
strokes_ogs.tif
102
RTVSPost2010PropOp54
 70
     1
102
RTVSPost2010Prop55
280
     0
102
RTVSPost2010PropOp55
 70
     1
102
RTVSPost2010Prop56
140
1.0
102
RTVSPost2010PropOp56
 70
     1
102
RTVSPost2010Prop57
140
1.0
102
RTVSPost2010PropOp57
 70
     1
102
RTVSPropertyOp0
 70
     1
102
RTVSPropertyOp1
 70
     1
102
RTVSPropertyOp2
 70
     1
102
RTVSPropertyOp3
 70
     1
102
RTVSPropertyOp4
 70
     1
102
RTVSPropertyOp5
 70
     1
102
RTVSPropertyOp6
 70
     1
102
RTVSPropertyOp7
 70
     1
102
RTVSPropertyOp8
 70
     1
102
RTVSPropertyOp9
 70
     1
102
RTVSPropertyOp10
 70
     1
102
RTVSPropertyOp11
 70
     1
102
RTVSPropertyOp12
 70
     1
102
RTVSPropertyOp13
 70
     1
102
RTVSPropertyOp14
 70
     1
102
RTVSPropertyOp15
 70
     1
102
RTVSPropertyOp16
 70
     1
102
RTVSPropertyOp17
 70
     1
102
RTVSPropertyOp18
 70
     1
102
RTVSPropertyOp19
 70
     1
102
RTVSPropertyOp20
 70
     1
102
RTVSPropertyOp21
 70
     1
102
RTVSPropertyOp22
 70
     1
102
RTVSPropertyOp23
 70
     1
102
RTVSPropertyOp24
 70
     1
102
RTVSPropertyOp25
 70
     1
102
RTVSPropertyOp26
 70
     1
102
RTVSPropertyOp27
 70
     1
102
RTVSPropertyOp28
 70
     1
102
RTVSPropertyOp29
 70
     1
102
RTVSPropertyOp30
 70
     1
102
RTVSPropertyOp31
 70
     1
102
RTVSPropertyOp32
 70
     1
102
RTVSPropertyOp33
 70
     1
102
RTVSPropertyOp34
 70
     1
102
RTVSPropertyOp35
 70
     1
102
RTVSPropertyOp36
 70
     1
102
RTVSPropertyOp37
 70
     1
102
RTVSPropertyOp38
 70
     1
102
RTVSPropertyOp39
 70
     1
102
RTVSPropertyOp40
 70
     1
102
RTVSPropertyOp41
 70
     1
102
RTVSPropertyOp42
 70
     1
102
RTVSPropertyOp43
 70
     1
102
RTVSPropertyOp44
 70
     1
102
RTVSPropertyOp45
 70
     1
102
RTVSPropertyOp46
 70
     1
102
RTVSPropertyOp47
 70
     1
102
RTVSPropertyOp48
 70
     1
102
RTVSPropertyOp49
 70
     1
102
RTVSPropertyOp50
 70
     1
102
RTVSPropertyOp51
 70
     0
102
RTVSPropertyOp52
 70
     0
102
RTVSPropertyOp53
 70
     1
102
RTVSPropertyOp54
 70
     1
102
RTVSPropertyOp55
 70
     1
102
RTVSPropertyOp56
 70
     1
102
RTVSPropertyOp57
 70
     1
102
RTVSPropertyOp58
 70
     1
102
RTVSPropertyOp59
 70
     1
102
RTVSPropertyOp60
 70
     1
102
RTVSPropertyOp61
 70
     1
102
RTVSPropertyOp62
 70
     1
  0
ENDSEC
  0
EOF
