  0
SECTION
  2
HEADER
  9
$ACADVER
  1
AC1015
  9
$ACADMAINTVER
 70
    20
  9
$DWGCODEPAGE
  3
ANSI_932
  9
$INSBASE
 10
0.0
 20
0.0
 30
0.0
  9
$EXTMIN
 10
9.9999975266385
 20
10.0
 30
0.0
  9
$EXTMAX
 10
303.5379565258888
 20
218.0416374639456
 30
0.0
  9
$LIMMIN
 10
0.0000015376081137
 20
-0.0000001931532552
  9
$LIMMAX
 10
396.0000015376081
 20
272.9999998068465
  9
$ORTHOMODE
 70
     1
  9
$REGENMODE
 70
     1
  9
$FILLMODE
 70
     1
  9
$QTEXTMODE
 70
     0
  9
$MIRRTEXT
 70
     1
  9
$LTSCALE
 40
1.0
  9
$ATTMODE
 70
     1
  9
$TEXTSIZE
 40
2.5
  9
$TRACEWID
 40
1.0
  9
$TEXTSTYLE
  7
STANDARD
  9
$CLAYER
  8
0
  9
$CELTYPE
  6
BYLAYER
  9
$CECOLOR
 62
   256
  9
$CELTSCALE
 40
1.0
  9
$DISPSILH
 70
     0
  9
$DIMSCALE
 40
1.0
  9
$DIMASZ
 40
3.0
  9
$DIMEXO
 40
1.0
  9
$DIMDLI
 40
10.0
  9
$DIMRND
 40
0.0
  9
$DIMDLE
 40
0.0
  9
$DIMEXE
 40
1.0
  9
$DIMTP
 40
0.0
  9
$DIMTM
 40
0.0
  9
$DIMTXT
 40
2.5
  9
$DIMCEN
 40
0.0
  9
$DIMTSZ
 40
0.0
  9
$DIMTOL
 70
     0
  9
$DIMLIM
 70
     0
  9
$DIMTIH
 70
     0
  9
$DIMTOH
 70
     0
  9
$DIMSE1
 70
     0
  9
$DIMSE2
 70
     0
  9
$DIMTAD
 70
     3
  9
$DIMZIN
 70
     8
  9
$DIMBLK
  1

  9
$DIMASO
 70
     1
  9
$DIMSHO
 70
     1
  9
$DIMPOST
  1

  9
$DIMAPOST
  1

  9
$DIMALT
 70
     0
  9
$DIMALTD
 70
     2
  9
$DIMALTF
 40
25.4
  9
$DIMLFAC
 40
1.0
  9
$DIMTOFL
 70
     1
  9
$DIMTVP
 40
0.0
  9
$DIMTIX
 70
     0
  9
$DIMSOXD
 70
     0
  9
$DIMSAH
 70
     1
  9
$DIMBLK1
  1
OPEN
  9
$DIMBLK2
  1
OPEN
  9
$DIMSTYLE
  2
STANDARD
  9
$DIMCLRD
 70
     0
  9
$DIMCLRE
 70
     0
  9
$DIMCLRT
 70
     0
  9
$DIMTFAC
 40
1.0
  9
$DIMGAP
 40
1.0
  9
$DIMJUST
 70
     0
  9
$DIMSD1
 70
     0
  9
$DIMSD2
 70
     0
  9
$DIMTOLJ
 70
     1
  9
$DIMTZIN
 70
     0
  9
$DIMALTZ
 70
     0
  9
$DIMALTTZ
 70
     0
  9
$DIMUPT
 70
     0
  9
$DIMDEC
 70
     4
  9
$DIMTDEC
 70
     4
  9
$DIMALTU
 70
     2
  9
$DIMALTTD
 70
     2
  9
$DIMTXSTY
  7
STANDARD
  9
$DIMAUNIT
 70
     0
  9
$DIMADEC
 70
     0
  9
$DIMALTRND
 40
0.0
  9
$DIMAZIN
 70
     0
  9
$DIMDSEP
 70
    46
  9
$DIMATFIT
 70
     3
  9
$DIMFRAC
 70
     0
  9
$DIMLDRBLK
  1
OPEN
  9
$DIMLUNIT
 70
     2
  9
$DIMLWD
 70
    -2
  9
$DIMLWE
 70
    -2
  9
$DIMTMOVE
 70
     0
  9
$LUNITS
 70
     2
  9
$LUPREC
 70
     4
  9
$SKETCHINC
 40
1.0
  9
$FILLETRAD
 40
1.0
  9
$AUNITS
 70
     0
  9
$AUPREC
 70
     0
  9
$MENU
  1
.
  9
$ELEVATION
 40
0.0
  9
$PELEVATION
 40
0.0
  9
$THICKNESS
 40
0.0
  9
$LIMCHECK
 70
     0
  9
$CHAMFERA
 40
10.0
  9
$CHAMFERB
 40
10.0
  9
$CHAMFERC
 40
20.0
  9
$CHAMFERD
 40
0.0
  9
$SKPOLY
 70
     0
  9
$TDCREATE
 40
2454525.396254514
  9
$TDUCREATE
 40
2454525.021254514
  9
$TDUPDATE
 40
2457192.602387546
  9
$TDUUPDATE
 40
2457192.227387546
  9
$TDINDWG
 40
0.1395033681
  9
$TDUSRTIMER
 40
0.1395033449
  9
$USRTIMER
 70
     1
  9
$ANGBASE
 50
0.0
  9
$ANGDIR
 70
     0
  9
$PDMODE
 70
     0
  9
$PDSIZE
 40
0.0
  9
$PLINEWID
 40
0.0
  9
$SPLFRAME
 70
     0
  9
$SPLINETYPE
 70
     6
  9
$SPLINESEGS
 70
     8
  9
$HANDSEED
  5
26BF
  9
$SURFTAB1
 70
     6
  9
$SURFTAB2
 70
     6
  9
$SURFTYPE
 70
     6
  9
$SURFU
 70
     6
  9
$SURFV
 70
     6
  9
$UCSBASE
  2

  9
$UCSNAME
  2

  9
$UCSORG
 10
0.0
 20
0.0
 30
0.0
  9
$UCSXDIR
 10
1.0
 20
0.0
 30
0.0
  9
$UCSYDIR
 10
0.0
 20
1.0
 30
0.0
  9
$UCSORTHOREF
  2

  9
$UCSORTHOVIEW
 70
     0
  9
$UCSORGTOP
 10
0.0
 20
0.0
 30
0.0
  9
$UCSORGBOTTOM
 10
0.0
 20
0.0
 30
0.0
  9
$UCSORGLEFT
 10
0.0
 20
0.0
 30
0.0
  9
$UCSORGRIGHT
 10
0.0
 20
0.0
 30
0.0
  9
$UCSORGFRONT
 10
0.0
 20
0.0
 30
0.0
  9
$UCSORGBACK
 10
0.0
 20
0.0
 30
0.0
  9
$PUCSBASE
  2

  9
$PUCSNAME
  2

  9
$PUCSORG
 10
0.0
 20
0.0
 30
0.0
  9
$PUCSXDIR
 10
1.0
 20
0.0
 30
0.0
  9
$PUCSYDIR
 10
0.0
 20
1.0
 30
0.0
  9
$PUCSORTHOREF
  2

  9
$PUCSORTHOVIEW
 70
     0
  9
$PUCSORGTOP
 10
0.0
 20
0.0
 30
0.0
  9
$PUCSORGBOTTOM
 10
0.0
 20
0.0
 30
0.0
  9
$PUCSORGLEFT
 10
0.0
 20
0.0
 30
0.0
  9
$PUCSORGRIGHT
 10
0.0
 20
0.0
 30
0.0
  9
$PUCSORGFRONT
 10
0.0
 20
0.0
 30
0.0
  9
$PUCSORGBACK
 10
0.0
 20
0.0
 30
0.0
  9
$USERI1
 70
     0
  9
$USERI2
 70
     0
  9
$USERI3
 70
     0
  9
$USERI4
 70
     0
  9
$USERI5
 70
     0
  9
$USERR1
 40
0.0
  9
$USERR2
 40
0.0
  9
$USERR3
 40
0.0
  9
$USERR4
 40
0.0
  9
$USERR5
 40
0.0
  9
$WORLDVIEW
 70
     1
  9
$SHADEDGE
 70
     3
  9
$SHADEDIF
 70
    70
  9
$TILEMODE
 70
     1
  9
$MAXACTVP
 70
    48
  9
$PINSBASE
 10
0.0
 20
0.0
 30
0.0
  9
$PLIMCHECK
 70
     0
  9
$PEXTMIN
 10
1.000000000000000E+20
 20
1.000000000000000E+20
 30
1.000000000000000E+20
  9
$PEXTMAX
 10
-1.000000000000000E+20
 20
-1.000000000000000E+20
 30
-1.000000000000000E+20
  9
$PLIMMIN
 10
0.0
 20
0.0
  9
$PLIMMAX
 10
420.0
 20
297.0
  9
$UNITMODE
 70
     0
  9
$VISRETAIN
 70
     1
  9
$PLINEGEN
 70
     0
  9
$PSLTSCALE
 70
     1
  9
$TREEDEPTH
 70
  3020
  9
$CMLSTYLE
  2
STANDARD
  9
$CMLJUST
 70
     0
  9
$CMLSCALE
 40
20.0
  9
$PROXYGRAPHICS
 70
     1
  9
$MEASUREMENT
 70
     0
  9
$CELWEIGHT
370
    -1
  9
$ENDCAPS
280
     0
  9
$JOINSTYLE
280
     0
  9
$LWDISPLAY
290
     0
  9
$INSUNITS
 70
     0
  9
$HYPERLINKBASE
  1

  9
$STYLESHEET
  1

  9
$XEDIT
290
     1
  9
$CEPSNTYPE
380
     0
  9
$PSTYLEMODE
290
     1
  9
$FINGERPRINTGUID
  2
{BDAB3556-C9BD-4097-B17C-BEF6D0E74622}
  9
$VERSIONGUID
  2
{E858C0DA-77EB-4352-8274-FF7A835E3B4F}
  9
$EXTNAMES
290
     1
  9
$PSVPSCALE
 40
0.0
  9
$OLESTARTUP
290
     0
  0
ENDSEC
  0
SECTION
  2
CLASSES
  0
CLASS
  1
ACDBDICTIONARYWDFLT
  2
AcDbDictionaryWithDefault
  3
ObjectDBX Classes
 90
        0
280
     0
281
     0
  0
CLASS
  1
ACDBPLACEHOLDER
  2
AcDbPlaceHolder
  3
ObjectDBX Classes
 90
        0
280
     0
281
     0
  0
CLASS
  1
LAYOUT
  2
AcDbLayout
  3
ObjectDBX Classes
 90
        0
280
     0
281
     0
  0
CLASS
  1
DICTIONARYVAR
  2
AcDbDictionaryVar
  3
ObjectDBX Classes
 90
        0
280
     0
281
     0
  0
CLASS
  1
MATERIAL
  2
AcDbMaterial
  3
ObjectDBX Classes
 90
     1153
280
     0
281
     0
  0
CLASS
  1
VISUALSTYLE
  2
AcDbVisualStyle
  3
ObjectDBX Classes
 90
     4095
280
     0
281
     0
  0
CLASS
  1
TABLESTYLE
  2
AcDbTableStyle
  3
ObjectDBX Classes
 90
     4095
280
     0
281
     0
  0
CLASS
  1
SCALE
  2
AcDbScale
  3
ObjectDBX Classes
 90
     1153
280
     0
281
     0
  0
CLASS
  1
MLEADERSTYLE
  2
AcDbMLeaderStyle
  3
ACDB_MLEADERSTYLE_CLASS
 90
     4095
280
     0
281
     0
  0
CLASS
  1
ACDBSECTIONVIEWSTYLE
  2
AcDbSectionViewStyle
  3
ObjectDBX Classes
 90
     1025
280
     0
281
     0
  0
CLASS
  1
ACDBDETAILVIEWSTYLE
  2
AcDbDetailViewStyle
  3
ObjectDBX Classes
 90
     1025
280
     0
281
     0
  0
CLASS
  1
CELLSTYLEMAP
  2
AcDbCellStyleMap
  3
ObjectDBX Classes
 90
     1152
280
     0
281
     0
  0
ENDSEC
  0
SECTION
  2
TABLES
  0
TABLE
  2
VPORT
  5
8
330
0
100
AcDbSymbolTable
 70
     1
  0
VPORT
  5
2609
330
8
100
AcDbSymbolTableRecord
100
AcDbViewportTableRecord
  2
*ACTIVE
 70
     0
 10
0.0
 20
0.0
 11
1.0
 21
1.0
 12
236.8547137136316
 22
114.015907703897
 13
0.0
 23
0.0
 14
10.0
 24
10.0
 15
10.0
 25
10.0
 16
0.0
 26
0.0
 36
1.0
 17
0.0
 27
0.0
 37
0.0
 40
209.7238225112304
 41
1.899603698811096
 42
50.0
 43
0.0
 44
0.0
 50
0.0
 51
0.0
 71
     0
 72
   100
 73
     1
 74
     0
 75
     0
 76
     0
 77
     0
 78
     0
281
     0
 65
     1
110
0.0
120
0.0
130
0.0
111
1.0
121
0.0
131
0.0
112
0.0
122
1.0
132
0.0
 79
     0
146
0.0
1001
ACAD_NAV_VCDISPLAY
1070
     3
  0
ENDTAB
  0
TABLE
  2
LTYPE
  5
5
330
0
100
AcDbSymbolTable
 70
     4
  0
LTYPE
  5
12
330
5
100
AcDbSymbolTableRecord
100
AcDbLinetypeTableRecord
  2
BYBLOCK
 70
     0
  3

 72
    65
 73
     0
 40
0.0
  0
LTYPE
  5
13
330
5
100
AcDbSymbolTableRecord
100
AcDbLinetypeTableRecord
  2
BYLAYER
 70
     0
  3

 72
    65
 73
     0
 40
0.0
  0
LTYPE
  5
14
330
5
100
AcDbSymbolTableRecord
100
AcDbLinetypeTableRecord
  2
CONTINUOUS
 70
     0
  3
Solid line
 72
    65
 73
     0
 40
0.0
  0
LTYPE
  5
4B
330
5
100
AcDbSymbolTableRecord
100
AcDbLinetypeTableRecord
  2
DASHED
 70
     0
  3
Dashed __ __ __ __ __ __ __ __ __ __ __ __ __ _
 72
    65
 73
     2
 40
19.04999999999999
 49
12.7
 74
     0
 49
-6.349999999999998
 74
     0
  0
LTYPE
  5
4C
330
5
100
AcDbSymbolTableRecord
100
AcDbLinetypeTableRecord
  2
CENTER
 70
     0
  3
Center ____ _ ____ _ ____ _ ____ _ ____ _ ____
 72
    65
 73
     4
 40
50.8
 49
31.75
 74
     0
 49
-6.349999999999998
 74
     0
 49
6.349999999999998
 74
     0
 49
-6.349999999999998
 74
     0
  0
LTYPE
  5
4D
330
5
100
AcDbSymbolTableRecord
100
AcDbLinetypeTableRecord
  2
PHANTOM
 70
     0
  3
Phantom ______  __  __  ______  __  __  ______
 72
    65
 73
     6
 40
63.5
 49
31.75
 74
     0
 49
-6.349999999999998
 74
     0
 49
6.349999999999998
 74
     0
 49
-6.349999999999998
 74
     0
 49
6.349999999999998
 74
     0
 49
-6.349999999999998
 74
     0
  0
ENDTAB
  0
TABLE
  2
LAYER
  5
2
330
0
100
AcDbSymbolTable
 70
     8
  0
LAYER
  5
E
102
{ACAD_XDICTIONARY
360
2663
102
}
330
2
100
AcDbSymbolTableRecord
100
AcDbLayerTableRecord
  2
0
 70
     0
 62
     7
  6
CONTINUOUS
370
    -3
390
2612
  0
LAYER
  5
4E
102
{ACAD_XDICTIONARY
360
2665
102
}
330
2
100
AcDbSymbolTableRecord
100
AcDbLayerTableRecord
  2
4
 70
     0
 62
     1
  6
CENTER
370
    -3
390
2612
  0
LAYER
  5
4F
102
{ACAD_XDICTIONARY
360
2667
102
}
330
2
100
AcDbSymbolTableRecord
100
AcDbLayerTableRecord
  2
5
 70
     0
 62
     6
  6
PHANTOM
370
    -3
390
2612
  0
LAYER
  5
50
102
{ACAD_XDICTIONARY
360
2669
102
}
330
2
100
AcDbSymbolTableRecord
100
AcDbLayerTableRecord
  2
1
 70
     0
 62
     7
  6
CONTINUOUS
370
    -3
390
2612
  0
LAYER
  5
51
102
{ACAD_XDICTIONARY
360
266B
102
}
330
2
100
AcDbSymbolTableRecord
100
AcDbLayerTableRecord
  2
2
 70
     0
 62
     4
  6
CONTINUOUS
370
    -3
390
2612
  0
LAYER
  5
52
102
{ACAD_XDICTIONARY
360
266D
102
}
330
2
100
AcDbSymbolTableRecord
100
AcDbLayerTableRecord
  2
3
 70
     0
 62
     2
  6
DASHED
370
    -3
390
2612
  0
LAYER
  5
53
102
{ACAD_XDICTIONARY
360
266F
102
}
330
2
100
AcDbSymbolTableRecord
100
AcDbLayerTableRecord
  2
6
 70
     0
 62
     5
  6
CONTINUOUS
370
    -3
390
2612
  0
LAYER
  5
54
102
{ACAD_XDICTIONARY
360
2671
102
}
330
2
100
AcDbSymbolTableRecord
100
AcDbLayerTableRecord
  2
7
 70
     0
 62
     3
  6
CONTINUOUS
370
    -3
390
2612
  0
ENDTAB
  0
TABLE
  2
STYLE
  5
3
330
0
100
AcDbSymbolTable
 70
     1
  0
STYLE
  5
F
330
3
100
AcDbSymbolTableRecord
100
AcDbTextStyleTableRecord
  2
STANDARD
 70
     0
 40
0.0
 41
1.0
 50
0.0
 71
     0
 42
2.5
  3
simplex.shx
  4

  0
ENDTAB
  0
TABLE
  2
VIEW
  5
6
330
0
100
AcDbSymbolTable
 70
     0
  0
ENDTAB
  0
TABLE
  2
UCS
  5
7
330
0
100
AcDbSymbolTable
 70
     0
  0
ENDTAB
  0
TABLE
  2
APPID
  5
9
330
0
100
AcDbSymbolTable
 70
     5
  0
APPID
  5
10
330
9
100
AcDbSymbolTableRecord
100
AcDbRegAppTableRecord
  2
ACAD
 70
     0
  0
APPID
  5
3E
330
9
100
AcDbSymbolTableRecord
100
AcDbRegAppTableRecord
  2
CONTENTTABDATA
 70
     0
  0
APPID
  5
3F
330
9
100
AcDbSymbolTableRecord
100
AcDbRegAppTableRecord
  2
CONTENTCURRENTTAB
 70
     0
  0
APPID
  5
267D
330
9
100
AcDbSymbolTableRecord
100
AcDbRegAppTableRecord
  2
ACAD_NAV_VCDISPLAY
 70
     0
  0
APPID
  5
26B6
330
9
100
AcDbSymbolTableRecord
100
AcDbRegAppTableRecord
  2
ACAD_MLEADERVER
 70
     0
  0
ENDTAB
  0
TABLE
  2
DIMSTYLE
  5
A
330
0
100
AcDbSymbolTable
 70
     1
100
AcDbDimStyleTable
 71
     0
  0
DIMSTYLE
105
1D
330
A
100
AcDbSymbolTableRecord
100
AcDbDimStyleTableRecord
  2
STANDARD
 70
     0
 41
3.0
 42
1.0
 43
10.0
 44
1.0
 73
     0
 74
     0
 77
     3
 78
     8
140
2.5
141
0.0
147
1.0
172
     1
173
     1
340
F
341
2E
343
2E
344
2E
  0
ENDTAB
  0
TABLE
  2
BLOCK_RECORD
  5
1
330
0
100
AcDbSymbolTable
 70
     1
  0
BLOCK_RECORD
  5
18
102
{ACAD_XDICTIONARY
360
260C
102
}
330
1
100
AcDbSymbolTableRecord
100
AcDbBlockTableRecord
  2
*MODEL_SPACE
340
2660
  0
BLOCK_RECORD
  5
15
102
{ACAD_XDICTIONARY
360
260A
102
}
330
1
100
AcDbSymbolTableRecord
100
AcDbBlockTableRecord
  2
*PAPER_SPACE
340
2661
  0
BLOCK_RECORD
  5
2E
330
1
100
AcDbSymbolTableRecord
100
AcDbBlockTableRecord
  2
_OPEN
340
0
  0
ENDTAB
  0
ENDSEC
  0
SECTION
  2
BLOCKS
  0
BLOCK
  5
19
330
18
100
AcDbEntity
  8
0
100
AcDbBlockBegin
  2
*MODEL_SPACE
 70
     0
 10
0.0
 20
0.0
 30
0.0
  3
*MODEL_SPACE
  1

  0
ENDBLK
  5
1A
330
18
100
AcDbEntity
  8
0
100
AcDbBlockEnd
  0
BLOCK
  5
16
330
15
100
AcDbEntity
 67
     1
  8
0
100
AcDbBlockBegin
  2
*PAPER_SPACE
 70
     0
 10
0.0
 20
0.0
 30
0.0
  3
*PAPER_SPACE
  1

  0
ENDBLK
  5
17
330
15
100
AcDbEntity
 67
     1
  8
0
100
AcDbBlockEnd
  0
BLOCK
  5
2F
330
2E
100
AcDbEntity
  8
0
100
AcDbBlockBegin
  2
_OPEN
 70
     0
 10
0.0
 20
0.0
 30
0.0
  3
_OPEN
  1

  0
LINE
  5
30
330
2E
100
AcDbEntity
  8
0
  6
ByBlock
 62
     0
100
AcDbLine
 10
-1.0
 20
0.1666666666666666
 30
0.0
 11
0.0
 21
0.0
 31
0.0
  0
LINE
  5
31
330
2E
100
AcDbEntity
  8
0
  6
ByBlock
 62
     0
100
AcDbLine
 10
0.0
 20
0.0
 30
0.0
 11
-1.0
 21
-0.1666666666666666
 31
0.0
  0
LINE
  5
32
330
2E
100
AcDbEntity
  8
0
  6
ByBlock
 62
     0
100
AcDbLine
 10
0.0
 20
0.0
 30
0.0
 11
-1.0
 21
0.0
 31
0.0
  0
ENDBLK
  5
33
330
2E
100
AcDbEntity
  8
0
100
AcDbBlockEnd
  0
ENDSEC
  0
SECTION
  2
ENTITIES
  0
TEXT
  5
63
330
18
100
AcDbEntity
  8
4
  6
CENTER
 48
0.25
100
AcDbText
 10
23.97950852663849
 20
10.0
 30
0.0
 40
1.399999999999999
  1
4
100
AcDbText
  0
TEXT
  5
64
330
18
100
AcDbEntity
  8
7
  6
Continuous
 48
0.25
100
AcDbText
 10
9.999997526638502
 20
26.0000007607689
 30
0.0
 40
3.0
  1
CODE No.11033
100
AcDbText
  0
TEXT
  5
65
330
18
100
AcDbEntity
  8
7
  6
Continuous
 48
0.25
100
AcDbText
 10
9.999997526638502
 20
18.00000076076889
 30
0.0
 40
3.0
  1
TYPE No.TL-368
100
AcDbText
  0
TEXT
  5
66
330
18
100
AcDbEntity
  8
1
  6
Continuous
 48
0.25
100
AcDbText
 10
9.999997526638502
 20
10.00000076076889
 30
0.0
 40
1.399999999999999
  1
LAYER
100
AcDbText
  0
TEXT
  5
67
330
18
100
AcDbEntity
  8
2
  6
Continuous
 48
0.25
100
AcDbText
 10
19.9795085266385
 20
10.0
 30
0.0
 40
1.399999999999999
  1
2
100
AcDbText
  0
TEXT
  5
68
330
18
100
AcDbEntity
  8
3
  6
DASHED
 48
0.25
100
AcDbText
 10
21.9795085266385
 20
10.0
 30
0.0
 40
1.399999999999999
  1
3
100
AcDbText
  0
TEXT
  5
69
330
18
100
AcDbEntity
  8
1
  6
Continuous
 48
0.25
100
AcDbText
 10
17.9795085266385
 20
10.0
 30
0.0
 40
1.399999999999999
  1
1
100
AcDbText
  0
TEXT
  5
6A
330
18
100
AcDbEntity
  8
5
  6
PHANTOM
 48
0.25
100
AcDbText
 10
25.9795085266385
 20
10.0
 30
0.0
 40
1.399999999999999
  1
5
100
AcDbText
  0
TEXT
  5
6B
330
18
100
AcDbEntity
  8
6
  6
Continuous
 48
0.25
100
AcDbText
 10
27.9795085266385
 20
10.0
 30
0.0
 40
1.399999999999999
  1
6
100
AcDbText
  0
TEXT
  5
6C
330
18
100
AcDbEntity
  8
7
  6
Continuous
 48
0.25
100
AcDbText
 10
29.9795085266385
 20
10.0
 30
0.0
 40
1.399999999999999
  1
7
100
AcDbText
  0
LINE
  5
4AD
330
18
100
AcDbEntity
  8
2
  6
Continuous
100
AcDbLine
 10
115.7989672394998
 20
116.5831374639456
 30
0.0
 11
103.8574672394999
 21
116.5831374639455
 31
0.0
  0
LINE
  5
4E9
330
18
100
AcDbEntity
  8
2
  6
Continuous
100
AcDbLine
 10
129.6634672395005
 20
128.6356374639451
 30
0.0
 11
120.2574672394998
 21
128.6356374639451
 31
0.0
  0
LINE
  5
4EA
330
18
100
AcDbEntity
  8
2
  6
Continuous
100
AcDbLine
 10
129.6634672394992
 20
122.4476374639451
 30
0.0
 11
120.2574672394998
 21
122.4476374639451
 31
0.0
  0
CIRCLE
  5
504
330
18
100
AcDbEntity
  8
1
  6
Continuous
100
AcDbCircle
 10
199.9477118826944
 20
125.5416374639457
 30
0.0
 40
11.0
  0
LINE
  5
505
330
18
100
AcDbEntity
  8
1
  6
Continuous
100
AcDbLine
 10
199.9477118827044
 20
138.2433433861222
 30
0.0
 11
188.9477118827043
 21
131.8924904250377
 31
0.0
  0
LINE
  5
506
330
18
100
AcDbEntity
  8
1
  6
Continuous
100
AcDbLine
 10
210.9477118827043
 20
131.8924904250272
 30
0.0
 11
199.9477118827044
 21
138.2433433861121
 31
0.0
  0
ARC
  5
508
330
18
100
AcDbEntity
  8
1
  6
Continuous
100
AcDbCircle
 10
199.9477118826943
 20
125.5416374639457
 30
0.0
 40
12.5
100
AcDbArc
 50
31.64236342368271
 51
88.35763657632389
  0
LINE
  5
50B
330
18
100
AcDbEntity
  8
1
  6
Continuous
100
AcDbLine
 10
199.9477118826843
 20
112.8399315417697
 30
0.0
 11
210.9477118826843
 21
119.1907845028542
 31
0.0
  0
ARC
  5
50D
330
18
100
AcDbEntity
  8
1
  6
Continuous
100
AcDbCircle
 10
199.9477118826944
 20
125.5416374639457
 30
0.0
 40
9.5
100
AcDbArc
 50
213.7387226487371
 51
326.2612773512617
  0
ARC
  5
50E
330
18
100
AcDbEntity
  8
1
  6
Continuous
100
AcDbCircle
 10
199.9477118826944
 20
125.5416374639858
 30
0.0
 40
9.5
100
AcDbArc
 50
33.73872264873821
 51
146.2612773512629
  0
LINE
  5
50F
330
18
100
AcDbEntity
  8
1
  6
Continuous
100
AcDbLine
 10
188.9477118826844
 20
119.1907845028647
 30
0.0
 11
199.9477118826844
 21
112.8399315417798
 31
0.0
  0
ARC
  5
511
330
18
100
AcDbEntity
  8
2
  6
Continuous
100
AcDbCircle
 10
199.9477118826944
 20
125.5416374639258
 30
0.0
 40
3.4999999999999
100
AcDbArc
 50
140.4823472028211
 51
219.5176527968957
  0
CIRCLE
  5
512
330
18
100
AcDbEntity
  8
1
  6
Continuous
100
AcDbCircle
 10
199.9477118826944
 20
125.5416374639457
 30
0.0
 40
5.499999999940895
  0
LINE
  5
513
330
18
100
AcDbEntity
  8
1
  6
Continuous
100
AcDbLine
 10
194.4477118826945
 20
128.7170639445459
 30
0.0
 11
199.9477118825944
 21
131.8924904250259
 31
0.0
  0
ARC
  5
515
330
18
100
AcDbEntity
  8
1
  6
Continuous
100
AcDbCircle
 10
199.9477118826894
 20
125.5416374639457
 30
0.0
 40
3.093999999999998
100
AcDbArc
 50
150.7688548602239
 51
209.2311451397727
  0
LINE
  5
518
330
18
100
AcDbEntity
  8
1
  6
Continuous
100
AcDbLine
 10
194.4477118826943
 20
122.3662109833958
 30
0.0
 11
199.9477118826943
 21
119.1907845028559
 31
0.0
  0
ARC
  5
519
330
18
100
AcDbEntity
  8
2
  6
Continuous
100
AcDbCircle
 10
199.9477118826893
 20
125.5416374639457
 30
0.0
 40
8.9585
100
AcDbArc
 50
208.134382499142
 51
331.8656175009927
  0
ARC
  5
51A
330
18
100
AcDbEntity
  8
1
  6
Continuous
100
AcDbCircle
 10
199.9477118826943
 20
125.5416374639557
 30
0.0
 40
8.799999999877
100
AcDbArc
 50
206.1390829635597
 51
295.0000000000098
  0
LINE
  5
51D
330
18
100
AcDbEntity
  8
1
  6
Continuous
100
AcDbLine
 10
203.3255810334942
 20
133.3416374639456
 30
0.0
 11
195.6616880843943
 21
133.3416374639456
 31
0.0
  0
ARC
  5
51E
330
18
100
AcDbEntity
  8
1
  6
Continuous
100
AcDbCircle
 10
199.9477118826943
 20
125.5416374639457
 30
0.0
 40
7.0
100
AcDbArc
 50
154.9999999999797
 51
295.0000000000299
  0
CIRCLE
  5
51F
330
18
100
AcDbEntity
  8
1
  6
Continuous
100
AcDbCircle
 10
199.9477118826943
 20
125.5416374639457
 30
0.0
 40
6.5
  0
LINE
  5
520
330
18
100
AcDbEntity
  8
1
  6
Continuous
100
AcDbLine
 10
188.9477118826944
 20
131.8924904250412
 30
0.0
 11
188.9477118826944
 21
119.1907845028712
 31
0.0
  0
ARC
  5
521
330
18
100
AcDbEntity
  8
1
  6
Continuous
100
AcDbCircle
 10
199.9477118826943
 20
125.5416374638958
 30
0.0
 40
7.299999999939498
100
AcDbArc
 50
154.9999999995304
 51
295.000000000253
  0
LINE
  5
522
330
18
100
AcDbEntity
  8
1
  6
Continuous
100
AcDbLine
 10
196.2286711794465
 20
117.5661289381362
 30
0.0
 11
196.8625985719944
 21
118.9255906185757
 31
0.0
  0
ARC
  5
523
330
18
100
AcDbEntity
  8
1
  6
Continuous
100
AcDbCircle
 10
199.9477118826943
 20
125.5416374639457
 30
0.0
 40
8.9
100
AcDbArc
 50
118.7883646262001
 51
155.0000000000199
  0
LINE
  5
524
330
18
100
AcDbEntity
  8
1
  6
Continuous
100
AcDbLine
 10
191.8815725780943
 20
129.3029399934358
 30
0.0
 11
193.6035573733943
 21
128.4999652961257
 31
0.0
  0
ARC
  5
525
330
18
100
AcDbEntity
  8
1
  6
Continuous
100
AcDbCircle
 10
199.9477118826944
 20
125.5416374639457
 30
0.0
 40
8.9585
100
AcDbArc
 50
151.865617500926
 51
208.1343824990739
  0
ARC
  5
526
330
18
100
AcDbEntity
  8
2
  6
Continuous
100
AcDbCircle
 10
199.9477118826944
 20
125.5416374639457
 30
0.0
 40
9.5
100
AcDbArc
 50
146.2612773512629
 51
213.7387226487371
  0
LINE
  5
527
330
18
100
AcDbEntity
  8
1
  6
Continuous
100
AcDbLine
 10
192.0477118826943
 20
120.2652750806358
 30
0.0
 11
192.0477118826943
 21
129.2254679633657
 31
0.0
  0
LINE
  5
528
330
18
100
AcDbEntity
  8
1
  6
Continuous
100
AcDbLine
 10
192.0477118826943
 20
129.6356311685458
 30
0.0
 11
192.0477118826943
 21
130.8179998472558
 31
0.0
  0
LINE
  5
529
330
18
100
AcDbEntity
  8
1
  6
Continuous
100
AcDbLine
 10
194.4477118826944
 20
122.3662109833957
 30
0.0
 11
194.4477118826944
 21
128.7170639445458
 31
0.0
  0
ARC
  5
52E
330
18
100
AcDbEntity
  8
1
  6
Continuous
100
AcDbCircle
 10
199.9477118826944
 20
125.5416374639457
 30
0.0
 40
8.9
100
AcDbArc
 50
294.9999999999898
 51
331.2116353738097
  0
LINE
  5
52F
330
18
100
AcDbEntity
  8
1
  6
Continuous
100
AcDbLine
 10
199.9477118826943
 20
119.1907845028558
 30
0.0
 11
205.4477118826944
 21
122.3662109833958
 31
0.0
  0
LINE
  5
530
330
18
100
AcDbEntity
  8
1
  6
Continuous
100
AcDbLine
 10
202.9060397148942
 20
119.1974829546858
 30
0.0
 11
203.7090144121943
 21
117.4754981593159
 31
0.0
  0
LINE
  5
537
330
18
100
AcDbEntity
  8
1
  6
Continuous
100
AcDbLine
 10
199.9477118825943
 20
131.8924904250257
 30
0.0
 11
205.4477118826943
 21
128.7170639444157
 31
0.0
  0
ARC
  5
538
330
18
100
AcDbEntity
  8
1
  6
Continuous
100
AcDbCircle
 10
199.9477118826943
 20
125.5416374639457
 30
0.0
 40
8.5
100
AcDbArc
 50
23.41551361544571
 51
66.58448638443886
  0
LINE
  5
539
330
18
100
AcDbEntity
  8
1
  6
Continuous
100
AcDbLine
 10
202.6477118826943
 20
123.3145317188158
 30
0.0
 11
202.6477118826942
 21
127.7687432090756
 31
0.0
  0
ARC
  5
545
330
18
100
AcDbEntity
  8
1
  6
Continuous
100
AcDbCircle
 10
199.9477118826944
 20
125.5416374639457
 30
0.0
 40
8.9585
100
AcDbArc
 50
331.8656175009235
 51
28.13438249907639
  0
ARC
  5
546
330
18
100
AcDbEntity
  8
2
  6
Continuous
100
AcDbCircle
 10
199.9477118826944
 20
125.5416374639457
 30
0.0
 40
9.5
100
AcDbArc
 50
326.2612773512617
 51
33.73872264873821
  0
LINE
  5
547
330
18
100
AcDbEntity
  8
1
  6
Continuous
100
AcDbLine
 10
207.7477118826943
 20
121.2556136655958
 30
0.0
 11
207.7477118826943
 21
128.9195066147557
 31
0.0
  0
LINE
  5
548
330
18
100
AcDbEntity
  8
1
  6
Continuous
100
AcDbLine
 10
207.8477118826943
 20
120.2652750806358
 30
0.0
 11
207.8477118826943
 21
130.8179998472558
 31
0.0
  0
LINE
  5
549
330
18
100
AcDbEntity
  8
1
  6
Continuous
100
AcDbLine
 10
205.4477118826943
 20
122.3662109833957
 30
0.0
 11
205.4477118826943
 21
128.7170639444157
 31
0.0
  0
ARC
  5
54F
330
18
100
AcDbEntity
  8
1
  6
Continuous
100
AcDbCircle
 10
199.9477118826943
 20
125.5416374639507
 30
0.0
 40
8.799999999877
100
AcDbArc
 50
332.4198007979294
 51
333.8609170365101
  0
LINE
  5
55E
330
18
100
AcDbEntity
  8
1
  6
Continuous
100
AcDbLine
 10
210.9477118826942
 20
119.1907845028507
 30
0.0
 11
210.9477118826942
 21
131.8924904250207
 31
0.0
  0
LINE
  5
6FA
330
18
100
AcDbEntity
  8
1
  6
Continuous
100
AcDbLine
 10
197.2477118826945
 20
123.3145317188158
 30
0.0
 11
197.2477118826946
 21
127.7687432090756
 31
0.0
  0
ARC
  5
6FB
330
18
100
AcDbEntity
  8
2
  6
Continuous
100
AcDbCircle
 10
199.9477118826894
 20
125.5416374639457
 30
0.0
 40
3.093999999999998
100
AcDbArc
 50
209.2311451397373
 51
330.768854860642
  0
ARC
  5
6FC
330
18
100
AcDbEntity
  8
1
  6
Continuous
100
AcDbCircle
 10
199.9477118826944
 20
125.5416374639258
 30
0.0
 40
3.4999999999999
100
AcDbArc
 50
219.5176527968957
 51
320.4823472028259
  0
ARC
  5
6FD
330
18
100
AcDbEntity
  8
2
  6
Continuous
100
AcDbCircle
 10
199.9477118826894
 20
125.5416374639457
 30
0.0
 40
3.093999999999998
100
AcDbArc
 50
29.23114513936132
 51
150.7688548602593
  0
ARC
  5
6FE
330
18
100
AcDbEntity
  8
1
  6
Continuous
100
AcDbCircle
 10
199.9477118826944
 20
125.5416374639258
 30
0.0
 40
3.4999999999999
100
AcDbArc
 50
39.51765279717705
 51
140.4823472028325
  0
ARC
  5
6FF
330
18
100
AcDbEntity
  8
1
  6
Continuous
100
AcDbCircle
 10
199.9477118826994
 20
125.5416374639457
 30
0.0
 40
3.093999999999998
100
AcDbArc
 50
330.7688548602272
 51
29.23114513977605
  0
ARC
  5
700
330
18
100
AcDbEntity
  8
2
  6
Continuous
100
AcDbCircle
 10
199.9477118826944
 20
125.5416374639258
 30
0.0
 40
3.4999999999999
100
AcDbArc
 50
320.4823472031043
 51
39.51765279717885
  0
LINE
  5
A70
330
18
100
AcDbEntity
  8
4
  6
CENTER
 48
0.3
100
AcDbLine
 10
96.35746723949996
 20
205.5416374639456
 30
0.0
 11
132.2574672394998
 21
205.5416374639456
 31
0.0
  0
LINE
  5
A84
330
18
100
AcDbEntity
  8
1
  6
Continuous
100
AcDbLine
 10
129.2574672394998
 20
202.841637463946
 30
0.0
 11
129.2574672394999
 21
208.2416374639457
 31
0.0
  0
LINE
  5
A85
330
18
100
AcDbEntity
  8
1
  6
Continuous
100
AcDbLine
 10
130.2574672394999
 20
208.0416374639457
 30
0.0
 11
130.0574672394999
 21
208.2416374639457
 31
0.0
  0
LINE
  5
A86
330
18
100
AcDbEntity
  8
1
  6
Continuous
100
AcDbLine
 10
152.8574672394999
 20
199.0416374639457
 30
0.0
 11
152.8574672394999
 21
212.0416374639457
 31
0.0
  0
LINE
  5
A87
330
18
100
AcDbEntity
  8
1
  6
Continuous
100
AcDbLine
 10
153.6574672394999
 20
199.0416374639457
 30
0.0
 11
153.6574672394999
 21
212.0416374639457
 31
0.0
  0
LINE
  5
A88
330
18
100
AcDbEntity
  8
1
  6
Continuous
100
AcDbLine
 10
157.6574672394999
 20
211.0416374640196
 30
0.0
 11
157.6574672394999
 21
200.0416374638727
 31
0.0
  0
LINE
  5
A8B
330
18
100
AcDbEntity
  8
1
  6
Continuous
100
AcDbLine
 10
120.2574672394999
 20
197.4754981593157
 30
0.0
 11
120.2574672394999
 21
213.3416374639457
 31
0.0
  0
LINE
  5
A8C
330
18
100
AcDbEntity
  8
1
  6
Continuous
100
AcDbLine
 10
118.6574672394999
 20
197.4754981593158
 30
0.0
 11
118.6574672394999
 21
213.3416374639458
 31
0.0
  0
LINE
  5
A8D
330
18
100
AcDbEntity
  8
1
  6
Continuous
100
AcDbLine
 10
117.6574672394999
 20
197.6416374639457
 30
0.0
 11
117.6574672394999
 21
213.4416374639457
 31
0.0
  0
LINE
  5
A92
330
18
100
AcDbEntity
  8
1
  6
Continuous
100
AcDbLine
 10
146.8574672394999
 20
194.541637463946
 30
0.0
 11
146.8574672394999
 21
216.5416374639456
 31
0.0
  0
LINE
  5
A96
330
18
100
AcDbEntity
  8
1
  6
Continuous
100
AcDbLine
 10
142.8574672394998
 20
216.5416374639457
 30
0.0
 11
142.8574672394999
 21
194.5416374639458
 31
0.0
  0
LINE
  5
A9A
330
18
100
AcDbEntity
  8
1
  6
Continuous
100
AcDbLine
 10
115.9574672394997
 20
197.6416374639457
 30
0.0
 11
115.9574672394999
 21
213.4416374639457
 31
0.0
  0
LINE
  5
A9C
330
18
100
AcDbEntity
  8
1
  6
Continuous
100
AcDbLine
 10
115.2574672395
 20
197.6416374639457
 30
0.0
 11
115.2574672394999
 21
213.4416374639458
 31
0.0
  0
LINE
  5
A9E
330
18
100
AcDbEntity
  8
1
  6
Continuous
100
AcDbLine
 10
142.8574672394999
 20
194.5416374639458
 30
0.0
 11
146.8574672394999
 21
194.5416374639458
 31
0.0
  0
LINE
  5
AAE
330
18
100
AcDbEntity
  8
1
  6
Continuous
100
AcDbLine
 10
120.2574672394999
 20
197.4754981593158
 30
0.0
 11
118.6574672394999
 21
197.4754981593158
 31
0.0
  0
LINE
  5
AB6
330
18
100
AcDbEntity
  8
1
  6
Continuous
100
AcDbLine
 10
152.8574672394999
 20
199.0416374639457
 30
0.0
 11
153.6574672394999
 21
199.0416374639457
 31
0.0
  0
LINE
  5
AB7
330
18
100
AcDbEntity
  8
1
  6
Continuous
100
AcDbLine
 10
120.2574672394999
 20
201.2556136656457
 30
0.0
 11
118.6574672394999
 21
201.2556136656457
 31
0.0
  0
LINE
  5
AC9
330
18
100
AcDbEntity
  8
1
  6
Continuous
100
AcDbLine
 10
130.0574672395001
 20
202.841637463946
 30
0.0
 11
130.2574672394998
 21
203.0416374639457
 31
0.0
  0
LINE
  5
ACB
330
18
100
AcDbEntity
  8
1
  6
Continuous
100
AcDbLine
 10
154.1487074256023
 20
205.5416374639482
 30
0.0
 11
157.1662270533963
 21
205.5416374639456
 31
0.0
  0
LINE
  5
ACD
330
18
100
AcDbEntity
  8
1
  6
Continuous
100
AcDbLine
 10
153.6574672394998
 20
200.0416374639323
 30
0.0
 11
157.6574672394999
 21
200.0416374639477
 31
0.0
  0
LINE
  5
ACF
330
18
100
AcDbEntity
  8
1
  6
Continuous
100
AcDbLine
 10
120.2574672394999
 20
202.841637463946
 30
0.0
 11
130.0574672395001
 21
202.841637463946
 31
0.0
  0
LINE
  5
AD2
330
18
100
AcDbEntity
  8
1
  6
Continuous
100
AcDbLine
 10
130.2574672394999
 20
203.0416374639457
 30
0.0
 11
130.2574672394999
 21
208.0416374639457
 31
0.0
  0
LINE
  5
AD8
330
18
100
AcDbEntity
  8
1
  6
Continuous
100
AcDbLine
 10
146.8574672394999
 20
216.5416374639457
 30
0.0
 11
142.8574672394998
 21
216.5416374639457
 31
0.0
  0
LINE
  5
AD9
330
18
100
AcDbEntity
  8
1
  6
Continuous
100
AcDbLine
 10
142.8574672394999
 20
205.5416374639456
 30
0.0
 11
145.8574672394999
 21
205.5416374639456
 31
0.0
  0
LINE
  5
AEC
330
18
100
AcDbEntity
  8
1
  6
Continuous
100
AcDbLine
 10
153.6574672394999
 20
212.0416374639457
 30
0.0
 11
152.8574672394999
 21
212.0416374639457
 31
0.0
  0
LINE
  5
AED
330
18
100
AcDbEntity
  8
1
  6
Continuous
100
AcDbLine
 10
120.2574672394999
 20
213.3416374639458
 30
0.0
 11
118.6574672394999
 21
213.3416374639458
 31
0.0
  0
LINE
  5
AEF
330
18
100
AcDbEntity
  8
1
  6
Continuous
100
AcDbLine
 10
120.2574672394999
 20
208.9195066147456
 30
0.0
 11
118.6574672394999
 21
208.9195066147456
 31
0.0
  0
LINE
  5
AF5
330
18
100
AcDbEntity
  8
1
  6
Continuous
100
AcDbLine
 10
153.6574672394999
 20
211.0416374639332
 30
0.0
 11
157.6574672394999
 21
211.0416374639474
 31
0.0
  0
LINE
  5
AF7
330
18
100
AcDbEntity
  8
1
  6
Continuous
100
AcDbLine
 10
130.0574672394999
 20
208.2416374639457
 30
0.0
 11
120.2574672394999
 21
208.2416374639456
 31
0.0
  0
ARC
  5
DBF
330
18
100
AcDbEntity
  8
1
  6
Continuous
100
AcDbCircle
 10
131.2324672390246
 20
200.0416374638592
 30
0.0
 40
15.62500000047528
100
AcDbArc
 50
339.3903070634625
 51
20.60969293721502
  0
ARC
  5
DC0
330
18
100
AcDbEntity
  8
1
  6
Continuous
100
AcDbCircle
 10
131.2324672390246
 20
211.041637464032
 30
0.0
 40
15.62500000047528
100
AcDbArc
 50
339.390307062785
 51
20.60969293653748
  0
ARC
  5
DE8
330
18
100
AcDbEntity
  8
1
  6
Continuous
100
AcDbCircle
 10
149.7144923553982
 20
208.2916374639677
 30
0.0
 40
7.942974884101682
100
AcDbArc
 50
339.7438420005554
 51
20.25615799910473
  0
ARC
  5
DE9
330
18
100
AcDbEntity
  8
1
  6
Continuous
100
AcDbCircle
 10
161.6004421235976
 20
208.2916374639677
 30
0.0
 40
7.942974884101682
100
AcDbArc
 50
159.7438420008952
 51
200.2561579994446
  0
ARC
  5
DEA
330
18
100
AcDbEntity
  8
1
  6
Continuous
100
AcDbCircle
 10
149.7144923553982
 20
202.7916374639287
 30
0.0
 40
7.942974884101682
100
AcDbArc
 50
339.7438420008952
 51
20.2561579994446
  0
ARC
  5
DEB
330
18
100
AcDbEntity
  8
1
  6
Continuous
100
AcDbCircle
 10
161.6004421235976
 20
202.7916374639287
 30
0.0
 40
7.942974884101682
100
AcDbArc
 50
159.7438420005554
 51
200.2561579991047
  0
LINE
  5
DF0
330
18
100
AcDbEntity
  8
1
  6
Continuous
100
AcDbLine
 10
102.8574672394999
 20
213.4416374639458
 30
0.0
 11
117.6574672394999
 21
213.4416374639457
 31
0.0
  0
LINE
  5
DF1
330
18
100
AcDbEntity
  8
1
  6
Continuous
100
AcDbLine
 10
102.8574672394999
 20
197.6416374639457
 30
0.0
 11
117.6574672394999
 21
197.6416374639457
 31
0.0
  0
LINE
  5
DF5
330
18
100
AcDbEntity
  8
1
  6
Continuous
100
AcDbLine
 10
103.8574672394998
 20
213.4416374639457
 30
0.0
 11
103.8574672394998
 21
197.6416374639457
 31
0.0
  0
LINE
  5
E81
330
18
100
AcDbEntity
  8
1
  6
Continuous
100
AcDbLine
 10
279.6379565258889
 20
121.2556136655958
 30
0.0
 11
281.2379565258889
 21
121.2556136655958
 31
0.0
  0
LINE
  5
EB4
330
18
100
AcDbEntity
  8
1
  6
Continuous
100
AcDbLine
 10
279.637956525889
 20
128.91950661475
 30
0.0
 11
281.2379565258889
 21
128.91950661475
 31
0.0
  0
ARC
  5
FDC
330
18
100
AcDbEntity
  8
2
  6
Continuous
100
AcDbCircle
 10
199.9477118826894
 20
125.5416374639457
 30
0.0
 40
8.9585
100
AcDbArc
 50
28.13438249900841
 51
151.8656175008583
  0
LINE
  5
13EF
330
18
100
AcDbEntity
  8
2
  6
Continuous
100
AcDbLine
 10
115.7989672394998
 20
134.5001374639456
 30
0.0
 11
103.8574672394998
 21
134.5001374639456
 31
0.0
  0
ARC
  5
140E
330
18
100
AcDbEntity
  8
1
  6
Continuous
100
AcDbCircle
 10
199.9477118826943
 20
125.5416374639757
 30
0.0
 40
8.799999999877
100
AcDbArc
 50
26.13908296347801
 51
117.5801992024782
  0
LINE
  5
155D
330
18
100
AcDbEntity
  8
1
  6
Continuous
100
AcDbLine
 10
119.9574672394997
 20
49.26067816719357
 30
0.0
 11
119.9574672394997
 21
41.82259676069771
 31
0.0
  0
LINE
  5
1562
330
18
100
AcDbEntity
  8
1
  6
Continuous
100
AcDbLine
 10
119.9574672394997
 20
49.26067816719357
 30
0.0
 11
117.6574672394999
 21
49.26067816719357
 31
0.0
  0
LINE
  5
1563
330
18
100
AcDbEntity
  8
1
  6
Continuous
100
AcDbLine
 10
120.2574672394999
 20
41.78033493444567
 30
0.0
 11
118.6574672394999
 21
41.78033493444567
 31
0.0
  0
LINE
  5
1CD2
330
18
100
AcDbEntity
  8
4
  6
CENTER
 48
0.3
100
AcDbLine
 10
96.35746723949996
 20
125.5416374639456
 30
0.0
 11
132.2574672394999
 21
125.5416374639456
 31
0.0
  0
LINE
  5
1CD4
330
18
100
AcDbEntity
  8
1
  6
Continuous
100
AcDbLine
 10
102.7574672394999
 20
113.0416374639456
 30
0.0
 11
102.7574672394999
 21
138.0416374639456
 31
0.0
  0
LINE
  5
1CD5
330
18
100
AcDbEntity
  8
1
  6
Continuous
100
AcDbLine
 10
102.2574672394999
 20
113.0416374639456
 30
0.0
 11
102.2574672394999
 21
138.0416374639456
 31
0.0
  0
LINE
  5
1CD6
330
18
100
AcDbEntity
  8
1
  6
Continuous
100
AcDbLine
 10
99.35746723949996
 20
114.5416374639456
 30
0.0
 11
99.35746723949996
 21
136.5416374639456
 31
0.0
  0
LINE
  5
1CD7
330
18
100
AcDbEntity
  8
4
  6
CENTER
 48
0.3
100
AcDbLine
 10
32.19852819750286
 20
140.0416374639457
 30
0.0
 11
32.19852819750286
 21
111.0416374639457
 31
0.0
  0
CIRCLE
  5
1CD8
330
18
100
AcDbEntity
  8
1
  6
Continuous
100
AcDbCircle
 10
32.19852819750286
 20
125.5416374639457
 30
0.0
 40
12.5
  0
CIRCLE
  5
1CDA
330
18
100
AcDbEntity
  8
1
  6
Continuous
100
AcDbCircle
 10
32.19852819750286
 20
125.5416374639457
 30
0.0
 40
11.0
  0
LINE
  5
1CDB
330
18
100
AcDbEntity
  8
4
  6
CENTER
 48
0.3
100
AcDbLine
 10
42.45157652470779
 20
135.7946857911507
 30
0.0
 11
21.94547987029789
 21
115.2885891367408
 31
0.0
  0
LINE
  5
1CDC
330
18
100
AcDbEntity
  8
4
  6
CENTER
 48
0.3
100
AcDbLine
 10
21.945479870298
 20
135.7946857911507
 30
0.0
 11
42.45157652470786
 21
115.2885891367408
 31
0.0
  0
LINE
  5
1CDD
330
18
100
AcDbEntity
  8
4
  6
CENTER
 48
0.3
100
AcDbLine
 10
46.69852819750285
 20
125.5416374639457
 30
0.0
 11
17.69852819750286
 21
125.5416374639457
 31
0.0
  0
CIRCLE
  5
1CDE
330
18
100
AcDbEntity
  8
1
  6
Continuous
100
AcDbCircle
 10
32.19852819750286
 20
125.5416374639457
 30
0.0
 40
10.5
  0
LINE
  5
1CE1
330
18
100
AcDbEntity
  8
1
  6
Continuous
100
AcDbLine
 10
31.50909908585288
 20
127.7159908160959
 30
0.0
 11
36.93848953601298
 21
122.2866003659259
 31
0.0
  0
LINE
  5
1CE2
330
18
100
AcDbEntity
  8
1
  6
Continuous
100
AcDbLine
 10
29.70597679382285
 20
129.7312451424758
 30
0.0
 11
36.3881358760334
 21
123.0490860602658
 31
0.0
  0
ARC
  5
1CE5
330
18
100
AcDbEntity
  8
1
  6
Continuous
100
AcDbCircle
 10
32.19852819751338
 20
125.5416374639457
 30
0.0
 40
5.2
100
AcDbArc
 50
303.3141496699896
 51
326.649437910729
  0
CIRCLE
  5
1CE7
330
18
100
AcDbEntity
  8
1
  6
Continuous
100
AcDbCircle
 10
32.19852819750286
 20
125.5416374639457
 30
0.0
 40
5.9
  0
ARC
  5
1CE8
330
18
100
AcDbEntity
  8
1
  6
Continuous
100
AcDbCircle
 10
32.19852819750338
 20
125.5416374639457
 30
0.0
 40
5.75
100
AcDbArc
 50
325.5217459659394
 51
304.4782540340009
  0
ARC
  5
1CE9
330
18
100
AcDbEntity
  8
1
  6
Continuous
100
AcDbCircle
 10
32.19852819750338
 20
125.5416374639457
 30
0.0
 40
4.0
100
AcDbArc
 50
332.4576031238004
 51
117.5423968761792
  0
LINE
  5
1CEB
330
18
100
AcDbEntity
  8
1
  6
Continuous
100
AcDbLine
 10
28.00892051897278
 20
128.0341888676257
 30
0.0
 11
34.69107960118288
 21
121.3520297854156
 31
0.0
  0
ARC
  5
1CEC
330
18
100
AcDbEntity
  8
1
  6
Continuous
100
AcDbCircle
 10
32.19852819751338
 20
125.5416374639457
 30
0.0
 40
4.0000000000001
100
AcDbArc
 50
152.4576031237698
 51
297.5423968762192
  0
ARC
  5
1CED
330
18
100
AcDbEntity
  8
1
  6
Continuous
100
AcDbCircle
 10
32.19852819750286
 20
125.5416374639457
 30
0.0
 40
4.875000000000098
100
AcDbArc
 50
120.7499673022196
 51
149.25003269783
  0
LINE
  5
1CEE
330
18
100
AcDbEntity
  8
1
  6
Continuous
100
AcDbLine
 10
30.02417484535345
 20
126.2310665756059
 30
0.0
 11
35.45356529552345
 21
120.8016761254358
 31
0.0
  0
LINE
  5
1CEF
330
18
100
AcDbEntity
  8
1
  6
Continuous
100
AcDbLine
 10
30.02417484535328
 20
126.2310665756058
 30
0.0
 11
31.50909908585282
 21
127.7159908160959
 31
0.0
  0
ARC
  5
1CF4
330
18
100
AcDbEntity
  8
1
  6
Continuous
100
AcDbCircle
 10
32.19852819751287
 20
125.5416374639557
 30
0.0
 40
4.875
100
AcDbArc
 50
300.7499673020794
 51
302.5619071848304
  0
ARC
  5
1CF6
330
18
100
AcDbEntity
  8
1
  6
Continuous
100
AcDbCircle
 10
32.1985281974629
 20
125.5416374638659
 30
0.0
 40
4.875
100
AcDbArc
 50
327.4380928161201
 51
329.2500326988705
  0
LINE
  5
1CF7
330
18
100
AcDbEntity
  8
1
  6
Continuous
100
AcDbLine
 10
102.8574672394999
 20
115.8666374639456
 30
0.0
 11
102.8574672394999
 21
135.2166374639457
 31
0.0
  0
LINE
  5
1CF8
330
18
100
AcDbEntity
  8
1
  6
Continuous
100
AcDbLine
 10
103.8574672394999
 20
120.2652750806356
 30
0.0
 11
103.8574672394999
 21
116.0416374639456
 31
0.0
  0
LINE
  5
1CF9
330
18
100
AcDbEntity
  8
1
  6
Continuous
100
AcDbLine
 10
99.35746723949996
 20
114.5416374639456
 30
0.0
 11
102.2574672394998
 21
113.0416374639456
 31
0.0
  0
LINE
  5
1CFA
330
18
100
AcDbEntity
  8
1
  6
Continuous
100
AcDbLine
 10
102.2574672394999
 20
113.0416374639456
 30
0.0
 11
102.7574672394999
 21
113.0416374639456
 31
0.0
  0
LINE
  5
1CFB
330
18
100
AcDbEntity
  8
1
  6
Continuous
100
AcDbLine
 10
102.7574672394999
 20
115.7666374639457
 30
0.0
 11
102.8574672394998
 21
115.8666374639455
 31
0.0
  0
LINE
  5
1CFC
330
18
100
AcDbEntity
  8
1
  6
Continuous
100
AcDbLine
 10
98.35746723949995
 20
121.5416374639456
 30
0.0
 11
98.35746723949995
 21
129.5416374639456
 31
0.0
  0
LINE
  5
1CFD
330
18
100
AcDbEntity
  8
1
  6
Continuous
100
AcDbLine
 10
99.08073075075993
 20
121.1505308104856
 30
0.0
 11
99.35746723949984
 21
120.8016761254356
 31
0.0
  0
LINE
  5
1CFE
330
18
100
AcDbEntity
  8
1
  6
Continuous
100
AcDbLine
 10
99.08073075075993
 20
122.6354550509757
 30
0.0
 11
99.35746723949987
 21
122.2866003659257
 31
0.0
  0
LINE
  5
1CFF
330
18
100
AcDbEntity
  8
1
  6
Continuous
100
AcDbLine
 10
98.85746723950001
 20
122.9178609562856
 30
0.0
 11
99.08073075075993
 21
122.6354550509757
 31
0.0
  0
LINE
  5
1D00
330
18
100
AcDbEntity
  8
1
  6
Continuous
100
AcDbLine
 10
98.85746723949996
 20
121.3520297854157
 30
0.0
 11
98.85746723949996
 21
123.0490860602656
 31
0.0
  0
LINE
  5
1D01
330
18
100
AcDbEntity
  8
1
  6
Continuous
100
AcDbLine
 10
98.85746723949992
 20
121.4329367157956
 30
0.0
 11
99.08073075075993
 21
121.1505308104856
 31
0.0
  0
LINE
  5
1D02
330
18
100
AcDbEntity
  8
1
  6
Continuous
100
AcDbLine
 10
98.85746723949985
 20
121.3520297854156
 30
0.0
 11
98.35746723949984
 21
121.9949618138756
 31
0.0
  0
LINE
  5
1D03
330
18
100
AcDbEntity
  8
1
  6
Continuous
100
AcDbLine
 10
98.35746723949995
 20
123.6920180887256
 30
0.0
 11
98.85746723950001
 21
123.0490860602656
 31
0.0
  0
LINE
  5
1D04
330
18
100
AcDbEntity
  8
1
  6
Continuous
100
AcDbLine
 10
98.35746723949995
 20
121.5416374639457
 30
0.0
 11
99.35746723949996
 21
119.7916374639458
 31
0.0
  0
LINE
  5
1D05
330
18
100
AcDbEntity
  8
1
  6
Continuous
100
AcDbLine
 10
99.35746723949996
 20
131.2916374639456
 30
0.0
 11
98.35746723949995
 21
129.5416374639457
 31
0.0
  0
LINE
  5
1D07
330
18
100
AcDbEntity
  8
1
  6
Continuous
100
AcDbLine
 10
102.7574672394998
 20
135.3166374639456
 30
0.0
 11
102.8574672394998
 21
135.2166374639455
 31
0.0
  0
LINE
  5
1D08
330
18
100
AcDbEntity
  8
1
  6
Continuous
100
AcDbLine
 10
103.8574672394998
 20
135.0416374639456
 30
0.0
 11
103.8574672394998
 21
130.8179998472556
 31
0.0
  0
LINE
  5
1D0C
330
18
100
AcDbEntity
  8
1
  6
Continuous
100
AcDbLine
 10
102.2574672394999
 20
138.0416374639457
 30
0.0
 11
99.35746723949987
 21
136.5416374639456
 31
0.0
  0
LINE
  5
1D0D
330
18
100
AcDbEntity
  8
1
  6
Continuous
100
AcDbLine
 10
102.7574672394999
 20
138.0416374639456
 30
0.0
 11
102.2574672394999
 21
138.0416374639456
 31
0.0
  0
LINE
  5
1D13
330
18
100
AcDbEntity
  8
1
  6
Continuous
100
AcDbLine
 10
142.8574672394999
 20
138.2433433861065
 30
0.0
 11
142.8574672394999
 21
112.8399315418977
 31
0.0
  0
LINE
  5
1D14
330
18
100
AcDbEntity
  8
1
  6
Continuous
100
AcDbLine
 10
146.8574672394999
 20
114.541637463946
 30
0.0
 11
146.8574672394999
 21
136.5416374639456
 31
0.0
  0
LINE
  5
1D19
330
18
100
AcDbEntity
  8
1
  6
Continuous
100
AcDbLine
 10
157.6574672395011
 20
120.041637463948
 30
0.0
 11
157.166227053379
 21
119.1907845028636
 31
0.0
  0
ARC
  5
1D1A
330
18
100
AcDbEntity
  8
1
  6
Continuous
100
AcDbCircle
 10
154.8460622162285
 20
120.7784977431257
 30
0.0
 40
2.811405023272465
100
AcDbArc
 50
334.3842474680282
 51
34.38424746793706
  0
ARC
  5
1D1B
330
18
100
AcDbEntity
  8
1
  6
Continuous
100
AcDbCircle
 10
147.1487074255275
 20
125.5416374639457
 30
0.0
 40
10.50875981397234
100
AcDbArc
 50
342.4120462261734
 51
17.58795377386117
  0
ARC
  5
1D1C
330
18
100
AcDbEntity
  8
1
  6
Continuous
100
AcDbCircle
 10
154.8460622162285
 20
130.3047771847655
 30
0.0
 40
2.811405023272465
100
AcDbArc
 50
325.6157525320629
 51
25.61575253197176
  0
LINE
  5
1D1D
330
18
100
AcDbEntity
  8
1
  6
Continuous
100
AcDbLine
 10
157.6574672395009
 20
131.0416374639522
 30
0.0
 11
157.1662270533789
 21
131.8924904250367
 31
0.0
  0
LINE
  5
1D21
330
18
100
AcDbEntity
  8
2
  6
Continuous
100
AcDbLine
 10
102.8574672394999
 20
120.2652750806356
 30
0.0
 11
117.6574672394999
 21
129.4184918589456
 31
0.0
  0
LINE
  5
1D22
330
18
100
AcDbEntity
  8
2
  6
Continuous
100
AcDbLine
 10
117.6574672394999
 20
121.6647830689458
 30
0.0
 11
102.8574672394999
 21
130.8179998472557
 31
0.0
  0
LINE
  5
1D27
330
18
100
AcDbEntity
  8
1
  6
Continuous
100
AcDbLine
 10
115.2574672394998
 20
120.2652750806356
 30
0.0
 11
115.9574672394999
 21
121.6647830689456
 31
0.0
  0
LINE
  5
1D29
330
18
100
AcDbEntity
  8
1
  6
Continuous
100
AcDbLine
 10
115.9574672394999
 20
129.4184918589457
 30
0.0
 11
115.2574672394999
 21
130.8179998472557
 31
0.0
  0
LINE
  5
1D2A
330
18
100
AcDbEntity
  8
1
  6
Continuous
100
AcDbLine
 10
115.9574672394998
 20
134.3416374639455
 30
0.0
 11
115.2574672394998
 21
135.0416374639456
 31
0.0
  0
LINE
  5
1D2B
330
18
100
AcDbEntity
  8
1
  6
Continuous
100
AcDbLine
 10
115.2574672394999
 20
116.0416374639457
 30
0.0
 11
115.9574672395
 21
116.7416374639458
 31
0.0
  0
ARC
  5
1D2C
330
18
100
AcDbEntity
  8
1
  6
Continuous
100
AcDbCircle
 10
126.1908005736799
 20
125.5416374640356
 30
0.0
 40
20.66666666581749
100
AcDbArc
 50
342.1034488703798
 51
17.89655112962332
  0
LINE
  5
1D2D
330
18
100
AcDbEntity
  8
1
  6
Continuous
100
AcDbLine
 10
115.2574672394999
 20
116.0416374639456
 30
0.0
 11
115.2574672394999
 21
120.2652750806356
 31
0.0
  0
LINE
  5
1D2F
330
18
100
AcDbEntity
  8
1
  6
Continuous
100
AcDbLine
 10
142.8574672394999
 20
112.8399315418975
 30
0.0
 11
145.8574672395649
 21
112.8399315418975
 31
0.0
  0
LINE
  5
1D30
330
18
100
AcDbEntity
  8
1
  6
Continuous
100
AcDbLine
 10
142.8574672395
 20
119.1907845030837
 30
0.0
 11
145.8574672395
 21
119.1907845029042
 31
0.0
  0
LINE
  5
1D31
330
18
100
AcDbEntity
  8
1
  6
Continuous
100
AcDbLine
 10
102.8574672394999
 20
116.0416374639456
 30
0.0
 11
115.2574672394999
 21
116.0416374639456
 31
0.0
  0
LINE
  5
1D32
330
18
100
AcDbEntity
  8
1
  6
Continuous
100
AcDbLine
 10
145.8574672395
 20
112.8399315417851
 30
0.0
 11
146.8574672395
 21
114.5416374639457
 31
0.0
  0
ARC
  5
1D33
330
18
100
AcDbEntity
  8
1
  6
Continuous
100
AcDbCircle
 10
130.7541506640049
 20
112.6893008853101
 30
0.0
 40
16.4432192957905
100
AcDbArc
 50
11.67004408717873
 51
23.29029631822757
  0
LINE
  5
1D34
330
18
100
AcDbEntity
  8
1
  6
Continuous
100
AcDbLine
 10
142.8574672394999
 20
131.8924904249876
 30
0.0
 11
145.8574672394999
 21
131.8924904249876
 31
0.0
  0
LINE
  5
1D3A
330
18
100
AcDbEntity
  8
1
  6
Continuous
100
AcDbLine
 10
102.8574672394999
 20
120.2652750806356
 30
0.0
 11
115.2574672394999
 21
120.2652750806356
 31
0.0
  0
LINE
  5
1D3C
330
18
100
AcDbEntity
  8
1
  6
Continuous
100
AcDbLine
 10
115.2574672394999
 20
130.8179998472556
 30
0.0
 11
102.8574672394999
 21
130.8179998472556
 31
0.0
  0
LINE
  5
1D3F
330
18
100
AcDbEntity
  8
1
  6
Continuous
100
AcDbLine
 10
115.2574672394999
 20
135.0416374639456
 30
0.0
 11
102.8574672394999
 21
135.0416374639456
 31
0.0
  0
ARC
  5
1D40
330
18
100
AcDbEntity
  8
1
  6
Continuous
100
AcDbCircle
 10
130.7541506640049
 20
138.3939740425817
 30
0.0
 40
16.4432192957905
100
AcDbArc
 50
336.7097036817694
 51
348.3299559128192
  0
LINE
  5
1D42
330
18
100
AcDbEntity
  8
1
  6
Continuous
100
AcDbLine
 10
115.2574672394999
 20
130.8179998472556
 30
0.0
 11
115.2574672394999
 21
135.0416374639456
 31
0.0
  0
ARC
  5
1D43
330
18
100
AcDbEntity
  8
1
  6
Continuous
100
AcDbCircle
 10
156.4688722627711
 20
120.7784977431257
 30
0.0
 40
2.811405023272465
100
AcDbArc
 50
145.6157525320629
 51
205.6157525319717
  0
LINE
  5
1D44
330
18
100
AcDbEntity
  8
1
  6
Continuous
100
AcDbLine
 10
153.6574672394988
 20
120.0416374639481
 30
0.0
 11
154.1487074256208
 21
119.1907845028636
 31
0.0
  0
LINE
  5
1D45
330
18
100
AcDbEntity
  8
1
  6
Continuous
100
AcDbLine
 10
153.6574672394999
 20
119.0416374639456
 30
0.0
 11
153.6574672394999
 21
132.0416374639456
 31
0.0
  0
LINE
  5
1D46
330
18
100
AcDbEntity
  8
1
  6
Continuous
100
AcDbLine
 10
152.8574672394999
 20
119.0416374639456
 30
0.0
 11
152.8574672394999
 21
132.0416374639456
 31
0.0
  0
LINE
  5
1D47
330
18
100
AcDbEntity
  8
1
  6
Continuous
100
AcDbLine
 10
120.2574672394998
 20
117.4754981593156
 30
0.0
 11
120.2574672394998
 21
133.3416374639456
 31
0.0
  0
LINE
  5
1D48
330
18
100
AcDbEntity
  8
1
  6
Continuous
100
AcDbLine
 10
118.6574672394999
 20
118.9255906186007
 30
0.0
 11
118.6574672394999
 21
133.3416374639457
 31
0.0
  0
LINE
  5
1D49
330
18
100
AcDbEntity
  8
1
  6
Continuous
100
AcDbLine
 10
117.6574672394999
 20
117.5661289380256
 30
0.0
 11
117.6574672394999
 21
134.3416374639457
 31
0.0
  0
LINE
  5
1D4A
330
18
100
AcDbEntity
  8
1
  6
Continuous
100
AcDbLine
 10
115.9574672394999
 20
116.7416374639457
 30
0.0
 11
115.9574672394999
 21
121.6647830689456
 31
0.0
  0
LINE
  5
1D4B
330
18
100
AcDbEntity
  8
1
  6
Continuous
100
AcDbLine
 10
117.7574672394999
 20
119.0295940664656
 30
0.0
 11
117.7574672394999
 21
132.1916374639456
 31
0.0
  0
LINE
  5
1D4D
330
18
100
AcDbEntity
  8
1
  6
Continuous
100
AcDbLine
 10
117.6574672394999
 20
118.9255906185756
 30
0.0
 11
119.9574672394999
 21
118.9255906185756
 31
0.0
  0
LINE
  5
1D4E
330
18
100
AcDbEntity
  8
1
  6
Continuous
100
AcDbLine
 10
117.6574672394999
 20
117.5661289380256
 30
0.0
 11
119.9574672394999
 21
117.5661289380256
 31
0.0
  0
LINE
  5
1D4F
330
18
100
AcDbEntity
  8
1
  6
Continuous
100
AcDbLine
 10
115.9574672394999
 20
116.7416374639457
 30
0.0
 11
119.7574672394999
 21
116.7416374639457
 31
0.0
  0
LINE
  5
1D50
330
18
100
AcDbEntity
  8
1
  6
Continuous
100
AcDbLine
 10
117.6574672394999
 20
119.0295940664657
 30
0.0
 11
117.7574672394999
 21
119.0295940664657
 31
0.0
  0
LINE
  5
1D51
330
18
100
AcDbEntity
  8
1
  6
Continuous
100
AcDbLine
 10
119.9574672394999
 20
118.5416374639556
 30
0.0
 11
120.2574672394999
 21
118.5416374639556
 31
0.0
  0
LINE
  5
1D52
330
18
100
AcDbEntity
  8
1
  6
Continuous
100
AcDbLine
 10
119.9574672394999
 20
117.4754981593157
 30
0.0
 11
120.2574672394999
 21
117.4754981593157
 31
0.0
  0
LINE
  5
1D53
330
18
100
AcDbEntity
  8
1
  6
Continuous
100
AcDbLine
 10
119.9574672394999
 20
118.9255906185756
 30
0.0
 11
119.9574672394999
 21
116.9416374639457
 31
0.0
  0
LINE
  5
1D55
330
18
100
AcDbEntity
  8
1
  6
Continuous
100
AcDbLine
 10
119.7574672394999
 20
116.7416374639457
 30
0.0
 11
119.9574672394999
 21
116.9416374639457
 31
0.0
  0
LINE
  5
1D56
330
18
100
AcDbEntity
  8
1
  6
Continuous
100
AcDbLine
 10
154.1487074256252
 20
119.1907845028557
 30
0.0
 11
157.1662270533732
 21
119.1907845028536
 31
0.0
  0
LINE
  5
1D57
330
18
100
AcDbEntity
  8
1
  6
Continuous
100
AcDbLine
 10
152.8574672394999
 20
119.0416374639456
 30
0.0
 11
153.6574672394999
 21
119.0416374639456
 31
0.0
  0
LINE
  5
1D64
330
18
100
AcDbEntity
  8
1
  6
Continuous
100
AcDbLine
 10
118.4574672394998
 20
120.5666374639455
 30
0.0
 11
118.6574672394998
 21
120.7666374639456
 31
0.0
  0
LINE
  5
1D65
330
18
100
AcDbEntity
  8
1
  6
Continuous
100
AcDbLine
 10
115.9574672394999
 20
121.6647830689456
 30
0.0
 11
117.6574672394999
 21
121.6647830689456
 31
0.0
  0
LINE
  5
1D69
330
18
100
AcDbEntity
  8
1
  6
Continuous
100
AcDbLine
 10
117.7574672394999
 20
120.5666374639457
 30
0.0
 11
118.4574672394999
 21
120.5666374639457
 31
0.0
  0
LINE
  5
1D6A
330
18
100
AcDbEntity
  8
1
  6
Continuous
100
AcDbLine
 10
118.6574672394999
 20
130.3166374639456
 30
0.0
 11
118.4574672394999
 21
130.5166374639457
 31
0.0
  0
LINE
  5
1D6F
330
18
100
AcDbEntity
  8
1
  6
Continuous
100
AcDbLine
 10
117.6574672394999
 20
129.4184918589457
 30
0.0
 11
115.9574672394999
 21
129.4184918589457
 31
0.0
  0
LINE
  5
1D74
330
18
100
AcDbEntity
  8
1
  6
Continuous
100
AcDbLine
 10
118.4574672394999
 20
130.5166374639457
 30
0.0
 11
117.7574672394999
 21
130.5166374639457
 31
0.0
  0
LINE
  5
1D77
330
18
100
AcDbEntity
  8
1
  6
Continuous
100
AcDbLine
 10
117.6574672394999
 20
134.3416374639457
 30
0.0
 11
115.9574672394999
 21
134.3416374639457
 31
0.0
  0
LINE
  5
1D7A
330
18
100
AcDbEntity
  8
1
  6
Continuous
100
AcDbLine
 10
115.9574672394999
 20
129.4184918589457
 30
0.0
 11
115.9574672394999
 21
134.3416374639457
 31
0.0
  0
LINE
  5
1D7B
330
18
100
AcDbEntity
  8
1
  6
Continuous
100
AcDbLine
 10
117.7574672394999
 20
132.1916374639457
 30
0.0
 11
117.6574672394999
 21
132.1916374639457
 31
0.0
  0
LINE
  5
1D7C
330
18
100
AcDbEntity
  8
1
  6
Continuous
100
AcDbLine
 10
118.6574672394999
 20
128.4999652961505
 30
0.0
 11
120.2574672394999
 21
128.4999652961505
 31
0.0
  0
LINE
  5
1D7D
330
18
100
AcDbEntity
  8
1
  6
Continuous
100
AcDbLine
 10
118.6574672394999
 20
129.3029399934557
 30
0.0
 11
120.2574672394999
 21
129.3029399934557
 31
0.0
  0
LINE
  5
1D7E
330
18
100
AcDbEntity
  8
1
  6
Continuous
100
AcDbLine
 10
118.6574672394999
 20
133.3416374639457
 30
0.0
 11
120.2574672394999
 21
133.3416374639457
 31
0.0
  0
ARC
  5
1D7F
330
18
100
AcDbEntity
  8
1
  6
Continuous
100
AcDbCircle
 10
164.1662270534721
 20
125.5416374639457
 30
0.0
 40
10.50875981397234
100
AcDbArc
 50
162.4120462261388
 51
197.5879537738267
  0
LINE
  5
1D80
330
18
100
AcDbEntity
  8
1
  6
Continuous
100
AcDbLine
 10
154.1487074256207
 20
122.3662109834042
 30
0.0
 11
157.166227053379
 21
122.366210983403
 31
0.0
  0
LINE
  5
1D81
330
18
100
AcDbEntity
  8
1
  6
Continuous
100
AcDbLine
 10
154.1487074256207
 20
128.717063944494
 30
0.0
 11
157.166227053379
 21
128.7170639444944
 31
0.0
  0
LINE
  5
1D82
330
18
100
AcDbEntity
  8
1
  6
Continuous
100
AcDbLine
 10
154.1487074256206
 20
131.8924904250365
 30
0.0
 11
157.166227053379
 21
131.8924904250367
 31
0.0
  0
ARC
  5
1D83
330
18
100
AcDbEntity
  8
1
  6
Continuous
100
AcDbCircle
 10
156.4688722627711
 20
130.3047771847655
 30
0.0
 40
2.811405023272465
100
AcDbArc
 50
154.3842474680282
 51
214.384247467937
  0
LINE
  5
1D84
330
18
100
AcDbEntity
  8
1
  6
Continuous
100
AcDbLine
 10
153.6574672394987
 20
131.0416374639523
 30
0.0
 11
154.1487074256207
 21
131.8924904250368
 31
0.0
  0
LINE
  5
1D85
330
18
100
AcDbEntity
  8
1
  6
Continuous
100
AcDbLine
 10
153.6574672394999
 20
132.0416374639456
 30
0.0
 11
152.8574672394999
 21
132.0416374639456
 31
0.0
  0
LINE
  5
1D88
330
18
100
AcDbEntity
  8
1
  6
Continuous
100
AcDbLine
 10
157.6574672394999
 20
131.0416374639541
 30
0.0
 11
157.6574672394999
 21
120.0416374639459
 31
0.0
  0
LINE
  5
1D89
330
18
100
AcDbEntity
  8
1
  6
Continuous
100
AcDbLine
 10
130.2574672394999
 20
123.0416374639456
 30
0.0
 11
130.2574672394999
 21
128.0416374639456
 31
0.0
  0
LINE
  5
1D8A
330
18
100
AcDbEntity
  8
1
  6
Continuous
100
AcDbLine
 10
129.2574672394999
 20
127.7687432090757
 30
0.0
 11
129.2574672394999
 21
129.0416374639456
 31
0.0
  0
LINE
  5
1D8B
330
18
100
AcDbEntity
  8
1
  6
Continuous
100
AcDbLine
 10
129.2574672394999
 20
122.0416374639456
 30
0.0
 11
130.2574672394999
 21
123.0416374639456
 31
0.0
  0
LINE
  5
1D8C
330
18
100
AcDbEntity
  8
2
  6
Continuous
100
AcDbLine
 10
120.2574672394998
 20
127.7687432090757
 30
0.0
 11
129.2574672395
 21
123.3145317188158
 31
0.0
  0
ARC
  5
1D8D
330
18
100
AcDbEntity
  8
1
  6
Continuous
100
AcDbCircle
 10
126.5168908565474
 20
125.5416374639456
 30
0.0
 40
3.531396170183692
100
AcDbArc
 50
320.9012624665162
 51
39.09873753348506
  0
LINE
  5
1D8F
330
18
100
AcDbEntity
  8
1
  6
Continuous
100
AcDbLine
 10
129.2574672394999
 20
123.3145317188156
 30
0.0
 11
120.2574672394998
 21
123.3145317188157
 31
0.0
  0
LINE
  5
1D90
330
18
100
AcDbEntity
  8
1
  6
Continuous
100
AcDbLine
 10
120.2574672394998
 20
122.0416374639456
 30
0.0
 11
129.2574672394999
 21
122.0416374639456
 31
0.0
  0
LINE
  5
1D91
330
18
100
AcDbEntity
  8
1
  6
Continuous
100
AcDbLine
 10
129.2574672394999
 20
122.0416374639456
 30
0.0
 11
129.2574672394999
 21
123.3145317188156
 31
0.0
  0
LINE
  5
1D92
330
18
100
AcDbEntity
  8
2
  6
Continuous
100
AcDbLine
 10
129.2574672395
 20
127.7687432090756
 30
0.0
 11
120.2574672394998
 21
123.3145317188159
 31
0.0
  0
LINE
  5
1D93
330
18
100
AcDbEntity
  8
1
  6
Continuous
100
AcDbLine
 10
120.2574672394998
 20
127.7687432090757
 30
0.0
 11
129.2574672394999
 21
127.7687432090757
 31
0.0
  0
LINE
  5
1D94
330
18
100
AcDbEntity
  8
1
  6
Continuous
100
AcDbLine
 10
130.2574672394998
 20
128.0416374639456
 30
0.0
 11
129.2574672394998
 21
129.0416374639456
 31
0.0
  0
LINE
  5
1D96
330
18
100
AcDbEntity
  8
1
  6
Continuous
100
AcDbLine
 10
129.2574672394999
 20
129.0416374639456
 30
0.0
 11
120.2574672394998
 21
129.0416374639456
 31
0.0
  0
LINE
  5
1DDA
330
18
100
AcDbEntity
  8
1
  6
Continuous
100
AcDbLine
 10
145.8574672394999
 20
138.2433433861065
 30
0.0
 11
142.8574672394999
 21
138.2433433861065
 31
0.0
  0
LINE
  5
1DDB
330
18
100
AcDbEntity
  8
1
  6
Continuous
100
AcDbLine
 10
145.8574672395
 20
138.2433433861067
 30
0.0
 11
146.8574672395
 21
136.5416374639456
 31
0.0
  0
LINE
  5
1DF1
330
18
100
AcDbEntity
  8
4
  6
CENTER
 48
0.3
100
AcDbLine
 10
64.73948321985415
 20
205.5416374639456
 30
0.0
 11
12.23948321985358
 21
205.5416374639456
 31
0.0
  0
LINE
  5
1DF2
330
18
100
AcDbEntity
  8
1
  6
Continuous
100
AcDbLine
 10
43.03948321985359
 20
211.0416374639457
 30
0.0
 11
34.93948321985362
 21
211.0416374639457
 31
0.0
  0
LINE
  5
1DF3
330
18
100
AcDbEntity
  8
1
  6
Continuous
100
AcDbLine
 10
34.93948321985362
 20
200.0416374639457
 30
0.0
 11
43.03948321985359
 21
200.0416374639457
 31
0.0
  0
LINE
  5
1E03
330
18
100
AcDbEntity
  8
1
  6
Continuous
100
AcDbLine
 10
21.84503449528756
 20
216.5416374639458
 30
0.0
 11
25.23979082693256
 21
216.5416374639458
 31
0.0
  0
LINE
  5
1E04
330
18
100
AcDbEntity
  8
1
  6
Continuous
100
AcDbLine
 10
25.57486216847354
 20
217.5416374639656
 30
0.0
 11
21.30985073676356
 21
217.5416374639656
 31
0.0
  0
LINE
  5
1E07
330
18
100
AcDbEntity
  8
1
  6
Continuous
100
AcDbLine
 10
21.84503449528762
 20
194.5416374639456
 30
0.0
 11
25.23979082693262
 21
194.5416374639456
 31
0.0
  0
LINE
  5
1E0E
330
18
100
AcDbEntity
  8
1
  6
Continuous
100
AcDbLine
 10
21.30985073676362
 20
193.5416374639256
 30
0.0
 11
25.57486216847354
 21
193.5416374639256
 31
0.0
  0
LINE
  5
1E12
330
18
100
AcDbEntity
  8
1
  6
Continuous
100
AcDbLine
 10
15.23948321985364
 20
209.4360861885557
 30
0.0
 11
15.23948321985364
 21
201.6471887393356
 31
0.0
  0
ARC
  5
1E14
330
18
100
AcDbEntity
  8
1
  6
Continuous
100
AcDbCircle
 10
18.23948321985364
 20
201.9499643770966
 30
0.0
 40
2.0
100
AcDbArc
 50
180.0
 51
213.6900675259802
  0
ARC
  5
1E15
330
18
100
AcDbEntity
  8
1
  6
Continuous
100
AcDbCircle
 10
20.73948321984363
 20
202.0416374639556
 30
0.0
 40
0.5
100
AcDbArc
 50
270.0
 51
0.0000000000113991
  0
ARC
  5
1E16
330
18
100
AcDbEntity
  8
1
  6
Continuous
100
AcDbCircle
 10
18.23948321982362
 20
202.0416374639456
 30
0.0
 40
0.5
100
AcDbArc
 50
180.0
 51
270.0000000019069
  0
ARC
  5
1E1A
330
18
100
AcDbEntity
  8
1
  6
Continuous
100
AcDbCircle
 10
18.21387340328999
 20
197.0982418548113
 30
0.0
 40
0.3
100
AcDbArc
 50
197.0520962571131
 51
230.3280387944553
  0
LINE
  5
1E1F
330
18
100
AcDbEntity
  8
1
  6
Continuous
100
AcDbLine
 10
16.57538263117805
 20
200.8405639846466
 30
0.0
 11
20.18093390661209
 21
195.4322370714951
 31
0.0
  0
LINE
  5
1E21
330
18
100
AcDbEntity
  8
1
  6
Continuous
100
AcDbLine
 10
15.57538263117368
 20
200.5377883468955
 30
0.0
 11
19.6457501480836
 21
194.4322370714854
 31
0.0
  0
ARC
  5
1E26
330
18
100
AcDbEntity
  8
1
  6
Continuous
100
AcDbCircle
 10
17.23948321985363
 20
201.6471887393456
 30
0.0
 40
2.0
100
AcDbArc
 50
180.0000000001188
 51
213.6900675259097
  0
ARC
  5
1E27
330
18
100
AcDbEntity
  8
1
  6
Continuous
100
AcDbCircle
 10
21.30985073676362
 20
195.5416374639256
 30
0.0
 40
1.999999999999899
100
AcDbArc
 50
213.6900675257792
 51
270.0000000000096
  0
ARC
  5
1E2A
330
18
100
AcDbEntity
  8
1
  6
Continuous
100
AcDbCircle
 10
21.84503449528762
 20
196.5416374639456
 30
0.0
 40
2.0
100
AcDbArc
 50
213.6900675259802
 51
270.0
  0
LINE
  5
1E2D
330
18
100
AcDbEntity
  8
1
  6
Continuous
100
AcDbLine
 10
18.23948321984363
 20
201.5416374639456
 30
0.0
 11
20.73948321984363
 21
201.5416374639456
 31
0.0
  0
ARC
  5
1E33
330
18
100
AcDbEntity
  8
1
  6
Continuous
100
AcDbCircle
 10
18.23948321984357
 20
209.0416374639256
 30
0.0
 40
0.5
100
AcDbArc
 50
90.0
 51
179.9999999980898
  0
LINE
  5
1E34
330
18
100
AcDbEntity
  8
1
  6
Continuous
100
AcDbLine
 10
20.18093390671447
 20
215.6510378563962
 30
0.0
 11
16.575382631178
 21
210.2427109430917
 31
0.0
  0
LINE
  5
1E37
330
18
100
AcDbEntity
  8
1
  6
Continuous
100
AcDbLine
 10
19.64575014808355
 20
216.6510378564062
 30
0.0
 11
15.57538263117356
 21
210.5454865809957
 31
0.0
  0
ARC
  5
1E38
330
18
100
AcDbEntity
  8
1
  6
Continuous
100
AcDbCircle
 10
18.23948321985358
 20
209.1333105506411
 30
0.0
 40
2.0
100
AcDbArc
 50
146.3099324740197
 51
180.0
  0
ARC
  5
1E39
330
18
100
AcDbEntity
  8
1
  6
Continuous
100
AcDbCircle
 10
17.23948321985358
 20
209.4360861885557
 30
0.0
 40
2.0
100
AcDbArc
 50
146.3099324742501
 51
180.0000000000195
  0
LINE
  5
1E41
330
18
100
AcDbEntity
  8
1
  6
Continuous
100
AcDbLine
 10
16.23948321985364
 20
201.9499643770966
 30
0.0
 11
16.23948321985364
 21
209.1333105506411
 31
0.0
  0
ARC
  5
1E46
330
18
100
AcDbEntity
  8
1
  6
Continuous
100
AcDbCircle
 10
20.73948321985358
 20
209.0416374639456
 30
0.0
 40
0.5
100
AcDbArc
 50
0.0
 51
90.00000000121969
  0
LINE
  5
1E4C
330
18
100
AcDbEntity
  8
1
  6
Continuous
100
AcDbLine
 10
20.73948321984363
 20
209.5416374639457
 30
0.0
 11
18.23948321984357
 21
209.5416374639456
 31
0.0
  0
LINE
  5
1E4D
330
18
100
AcDbEntity
  8
1
  6
Continuous
100
AcDbLine
 10
21.23948321984363
 20
202.0416374639456
 30
0.0
 11
21.23948321984363
 21
209.0416374639457
 31
0.0
  0
ARC
  5
1E4E
330
18
100
AcDbEntity
  8
1
  6
Continuous
100
AcDbCircle
 10
21.30985073675361
 20
215.5416374639556
 30
0.0
 40
1.999999999999899
100
AcDbArc
 50
89.99999999988926
 51
146.3099324740409
  0
ARC
  5
1E4F
330
18
100
AcDbEntity
  8
1
  6
Continuous
100
AcDbCircle
 10
21.84503449539005
 20
214.5416374639456
 30
0.0
 40
2.0
100
AcDbArc
 50
90.0
 51
146.3099324740197
  0
LINE
  5
1E5A
330
18
100
AcDbEntity
  8
1
  6
Continuous
100
AcDbLine
 10
34.9094832198536
 20
201.2914644748857
 30
0.0
 11
34.9094832198536
 21
209.7918104529992
 31
0.0
  0
LINE
  5
1E5F
330
18
100
AcDbEntity
  8
1
  6
Continuous
100
AcDbLine
 10
26.4394954945746
 20
194.9414160072601
 30
0.0
 11
34.90948321985348
 21
201.2914644748855
 31
0.0
  0
LINE
  5
1E60
330
18
100
AcDbEntity
  8
1
  6
Continuous
100
AcDbLine
 10
26.77191354550354
 20
193.9394302361556
 30
0.0
 11
34.93948321985362
 21
200.0416374639456
 31
0.0
  0
ARC
  5
1E61
330
18
100
AcDbEntity
  8
1
  6
Continuous
100
AcDbCircle
 10
25.57486216846354
 20
195.5416374639256
 30
0.0
 40
1.999999999999899
100
AcDbArc
 50
270.0000000000374
 51
306.7643806750883
  0
ARC
  5
1E62
330
18
100
AcDbEntity
  8
1
  6
Continuous
100
AcDbCircle
 10
25.23979082693262
 20
196.5416374639456
 30
0.0
 40
2.0
100
AcDbArc
 50
270.0000000000016
 51
306.8593225666882
  0
LINE
  5
1E71
330
18
100
AcDbEntity
  8
1
  6
Continuous
100
AcDbLine
 10
34.90948321985371
 20
209.7918104529992
 30
0.0
 11
26.43949549456573
 21
216.1418589206317
 31
0.0
  0
LINE
  5
1E74
330
18
100
AcDbEntity
  8
1
  6
Continuous
100
AcDbLine
 10
34.93948321985362
 20
211.0416374639457
 30
0.0
 11
26.77191354550359
 21
217.1438446917357
 31
0.0
  0
ARC
  5
1E76
330
18
100
AcDbEntity
  8
1
  6
Continuous
100
AcDbCircle
 10
25.57486216847354
 20
215.5416374639655
 30
0.0
 40
2.0
100
AcDbArc
 50
53.23561932502923
 51
90.00000000007981
  0
ARC
  5
1E77
330
18
100
AcDbEntity
  8
1
  6
Continuous
100
AcDbCircle
 10
25.23979082692358
 20
214.5416374639456
 30
0.0
 40
2.0
100
AcDbArc
 50
53.1406774333095
 51
90.0
  0
LINE
  5
1E82
330
18
100
AcDbEntity
  8
1
  6
Continuous
100
AcDbLine
 10
61.09288378857456
 20
203.547366567691
 30
0.0
 11
57.41029238367435
 21
202.1561653702757
 31
0.0
  0
LINE
  5
1E83
330
18
100
AcDbEntity
  8
1
  6
Continuous
100
AcDbLine
 10
61.09288378857554
 20
207.5359083601953
 30
0.0
 11
57.410292383674
 21
208.9271095576155
 31
0.0
  0
LINE
  5
1E85
330
18
100
AcDbEntity
  8
1
  6
Continuous
100
AcDbLine
 10
43.03948321985346
 20
208.9916374639458
 30
0.0
 11
57.0568918149541
 21
208.9916374639457
 31
0.0
  0
LINE
  5
1E86
330
18
100
AcDbEntity
  8
1
  6
Continuous
100
AcDbLine
 10
43.03948321985359
 20
202.0916374639456
 30
0.0
 11
57.0568918149541
 21
202.0916374639456
 31
0.0
  0
LINE
  5
1E87
330
18
100
AcDbEntity
  8
1
  6
Continuous
100
AcDbLine
 10
42.83948321985359
 20
201.8916374639457
 30
0.0
 11
42.83948321985359
 21
201.5532838664356
 31
0.0
  0
ARC
  5
1E98
330
18
100
AcDbEntity
  8
1
  6
Continuous
100
AcDbCircle
 10
43.03948321979361
 20
201.5532838664956
 30
0.0
 40
0.20000000000005
100
AcDbArc
 50
180.000000016869
 51
226.8476102906901
  0
ARC
  5
1E99
330
18
100
AcDbEntity
  8
1
  6
Continuous
100
AcDbCircle
 10
43.03948321985359
 20
200.2416374639252
 30
0.0
 40
0.19999999999999
100
AcDbArc
 50
270.0
 51
0.0000000059047379
  0
ARC
  5
1E9A
330
18
100
AcDbEntity
  8
1
  6
Continuous
100
AcDbCircle
 10
43.03948321982415
 20
201.0049910614851
 30
0.0
 40
0.20000000000005
100
AcDbArc
 50
0.0000000001139911
 51
46.84761025285921
  0
LINE
  5
1E9B
330
18
100
AcDbEntity
  8
1
  6
Continuous
100
AcDbLine
 10
42.9026949940735
 20
201.4073764256156
 30
0.0
 11
43.17627144559803
 21
201.1508985023096
 31
0.0
  0
LINE
  5
1E9C
330
18
100
AcDbEntity
  8
1
  6
Continuous
100
AcDbLine
 10
43.23948321985364
 20
200.2416374639456
 30
0.0
 11
43.23948321985364
 21
201.0049910614557
 31
0.0
  0
LINE
  5
1E9E
330
18
100
AcDbEntity
  8
1
  6
Continuous
100
AcDbLine
 10
42.9026949940735
 20
209.6758985022757
 30
0.0
 11
43.17627144563352
 21
209.9323764256157
 31
0.0
  0
ARC
  5
1E9F
330
18
100
AcDbEntity
  8
1
  6
Continuous
100
AcDbCircle
 10
43.03948321985359
 20
201.8916374639857
 30
0.0
 40
0.19999999999999
100
AcDbArc
 50
90.0
 51
180.0000000118502
  0
ARC
  5
1EA0
330
18
100
AcDbEntity
  8
1
  6
Continuous
100
AcDbCircle
 10
43.03948321985409
 20
209.1916374639457
 30
0.0
 40
0.19999999999999
100
AcDbArc
 50
180.0
 51
270.0000000010096
  0
ARC
  5
1EA1
330
18
100
AcDbEntity
  8
1
  6
Continuous
100
AcDbCircle
 10
43.03948321985359
 20
209.5299910614252
 30
0.0
 40
0.19999999999999
100
AcDbArc
 50
133.1523897281094
 51
179.9999999914197
  0
LINE
  5
1EA2
330
18
100
AcDbEntity
  8
1
  6
Continuous
100
AcDbLine
 10
42.83948321985359
 20
209.1916374639457
 30
0.0
 11
42.83948321985359
 21
209.5299910614556
 31
0.0
  0
ARC
  5
1EA3
330
18
100
AcDbEntity
  8
1
  6
Continuous
100
AcDbCircle
 10
43.03948321985359
 20
210.0782838665057
 30
0.0
 40
0.19999999999997
100
AcDbArc
 50
313.152389720205
 51
359.9999999999674
  0
ARC
  5
1EA4
330
18
100
AcDbEntity
  8
1
  6
Continuous
100
AcDbCircle
 10
43.03948321983404
 20
210.8416374639457
 30
0.0
 40
0.20000000000005
100
AcDbArc
 50
0.0
 51
89.99999999408059
  0
LINE
  5
1EA5
330
18
100
AcDbEntity
  8
1
  6
Continuous
100
AcDbLine
 10
43.23948321985364
 20
210.0782838664357
 30
0.0
 11
43.23948321985364
 21
210.8416374639457
 31
0.0
  0
ARC
  5
1EAD
330
18
100
AcDbEntity
  8
1
  6
Continuous
100
AcDbCircle
 10
57.0568918149441
 20
203.0916374639362
 30
0.0
 40
1.0
100
AcDbArc
 50
270.0000000008614
 51
290.6954507349839
  0
ARC
  5
1EAE
330
18
100
AcDbEntity
  8
1
  6
Continuous
100
AcDbCircle
 10
57.0568918149641
 20
207.9916374639457
 30
0.0
 40
1.0
100
AcDbArc
 50
69.30454926629934
 51
90.00000000038919
  0
LINE
  5
1EB1
330
18
100
AcDbEntity
  8
1
  6
Continuous
100
AcDbLine
 10
59.2394832198541
 20
202.8471930195027
 30
0.0
 11
59.2394832198541
 21
208.2360819083857
 31
0.0
  0
LINE
  5
1EBC
330
18
100
AcDbEntity
  8
1
  6
Continuous
100
AcDbLine
 10
61.7394832198541
 20
204.4828386613571
 30
0.0
 11
61.7394832198541
 21
206.6004362665296
 31
0.0
  0
LINE
  5
1FBF
330
18
100
AcDbEntity
  8
1
  6
Continuous
100
AcDbLine
 10
17.73948321984357
 20
202.0416374639422
 30
0.0
 11
17.73948321984357
 21
209.0416374639423
 31
0.0
  0
ARC
  5
2035
330
18
100
AcDbEntity
  8
1
  6
Continuous
100
AcDbCircle
 10
199.9477118826943
 20
125.5416374639457
 30
0.0
 40
12.5
100
AcDbArc
 50
331.6423634236716
 51
28.35763657632838
  0
ARC
  5
2036
330
18
100
AcDbEntity
  8
1
  6
Continuous
100
AcDbCircle
 10
199.9477118826943
 20
125.5416374639457
 30
0.0
 40
12.5
100
AcDbArc
 50
271.6423634236591
 51
328.3576365763298
  0
ARC
  5
2037
330
18
100
AcDbEntity
  8
1
  6
Continuous
100
AcDbCircle
 10
199.9477118826943
 20
125.5416374639457
 30
0.0
 40
12.5
100
AcDbArc
 50
211.6423634236793
 51
268.357636576328
  0
ARC
  5
2038
330
18
100
AcDbEntity
  8
1
  6
Continuous
100
AcDbCircle
 10
199.9477118826943
 20
125.5416374639457
 30
0.0
 40
12.5
100
AcDbArc
 50
151.6423634236714
 51
208.3576365763285
  0
ARC
  5
2039
330
18
100
AcDbEntity
  8
1
  6
Continuous
100
AcDbCircle
 10
199.9477118826943
 20
125.5416374639457
 30
0.0
 40
12.5
100
AcDbArc
 50
91.6423634236632
 51
148.3576365763258
  0
LINE
  5
21FD
330
18
100
AcDbEntity
  8
1
  6
Continuous
100
AcDbLine
 10
98.35746723949995
 20
201.5416374639456
 30
0.0
 11
98.35746723949995
 21
209.5416374639456
 31
0.0
  0
LINE
  5
21FE
330
18
100
AcDbEntity
  8
1
  6
Continuous
100
AcDbLine
 10
102.7574672394999
 20
193.0416374639456
 30
0.0
 11
102.7574672394999
 21
218.0416374639456
 31
0.0
  0
LINE
  5
21FF
330
18
100
AcDbEntity
  8
1
  6
Continuous
100
AcDbLine
 10
102.2574672394999
 20
193.0416374639456
 30
0.0
 11
102.2574672394999
 21
218.0416374639456
 31
0.0
  0
LINE
  5
2200
330
18
100
AcDbEntity
  8
1
  6
Continuous
100
AcDbLine
 10
99.35746723949996
 20
194.5416374639456
 30
0.0
 11
99.35746723949996
 21
216.5416374639456
 31
0.0
  0
LINE
  5
2201
330
18
100
AcDbEntity
  8
1
  6
Continuous
100
AcDbLine
 10
102.8574672394999
 20
195.8666374639457
 30
0.0
 11
102.8574672394999
 21
215.2166374639457
 31
0.0
  0
LINE
  5
2205
330
18
100
AcDbEntity
  8
1
  6
Continuous
100
AcDbLine
 10
98.85746723949996
 20
209.7312451424755
 30
0.0
 11
98.85746723949996
 21
208.0341888676255
 31
0.0
  0
LINE
  5
2207
330
18
100
AcDbEntity
  8
1
  6
Continuous
100
AcDbLine
 10
98.85746723949985
 20
209.7312451424756
 30
0.0
 11
98.35746723949984
 21
209.0883131140156
 31
0.0
  0
LINE
  5
2208
330
18
100
AcDbEntity
  8
1
  6
Continuous
100
AcDbLine
 10
98.35746723949995
 20
207.3912568391655
 30
0.0
 11
98.85746723950001
 21
208.0341888676255
 31
0.0
  0
LINE
  5
2209
330
18
100
AcDbEntity
  8
1
  6
Continuous
100
AcDbLine
 10
99.35746723949996
 20
194.5416374639456
 30
0.0
 11
102.2574672394998
 21
193.0416374639456
 31
0.0
  0
LINE
  5
220A
330
18
100
AcDbEntity
  8
1
  6
Continuous
100
AcDbLine
 10
102.2574672394999
 20
193.0416374639456
 30
0.0
 11
102.7574672394999
 21
193.0416374639456
 31
0.0
  0
LINE
  5
220B
330
18
100
AcDbEntity
  8
1
  6
Continuous
100
AcDbLine
 10
102.7574672394999
 20
195.7666374639457
 30
0.0
 11
102.8574672394998
 21
195.8666374639456
 31
0.0
  0
LINE
  5
220C
330
18
100
AcDbEntity
  8
1
  6
Continuous
100
AcDbLine
 10
98.35746723949995
 20
201.5416374639457
 30
0.0
 11
99.35746723949996
 21
199.7916374639458
 31
0.0
  0
LINE
  5
220D
330
18
100
AcDbEntity
  8
1
  6
Continuous
100
AcDbLine
 10
99.35746723949996
 20
211.2916374639457
 30
0.0
 11
98.35746723949995
 21
209.5416374639457
 31
0.0
  0
LINE
  5
220E
330
18
100
AcDbEntity
  8
1
  6
Continuous
100
AcDbLine
 10
102.7574672394998
 20
215.3166374639456
 30
0.0
 11
102.8574672394998
 21
215.2166374639455
 31
0.0
  0
LINE
  5
220F
330
18
100
AcDbEntity
  8
1
  6
Continuous
100
AcDbLine
 10
102.2574672394999
 20
218.0416374639456
 30
0.0
 11
99.35746723949987
 21
216.5416374639457
 31
0.0
  0
LINE
  5
2210
330
18
100
AcDbEntity
  8
1
  6
Continuous
100
AcDbLine
 10
102.7574672394999
 20
218.0416374639456
 30
0.0
 11
102.2574672394999
 21
218.0416374639456
 31
0.0
  0
LINE
  5
228A
330
18
100
AcDbEntity
  8
1
  6
Continuous
100
AcDbLine
 10
118.4574672394998
 20
200.5666374639455
 30
0.0
 11
118.6574672394998
 21
200.7666374639456
 31
0.0
  0
LINE
  5
228B
330
18
100
AcDbEntity
  8
1
  6
Continuous
100
AcDbLine
 10
117.7574672394999
 20
200.5666374639457
 30
0.0
 11
118.4574672394999
 21
200.5666374639457
 31
0.0
  0
LINE
  5
228C
330
18
100
AcDbEntity
  8
1
  6
Continuous
100
AcDbLine
 10
117.7574672394999
 20
212.1916374639457
 30
0.0
 11
117.6574672394999
 21
212.1916374639457
 31
0.0
  0
LINE
  5
228D
330
18
100
AcDbEntity
  8
1
  6
Continuous
100
AcDbLine
 10
118.6574672394999
 20
210.3166374639456
 30
0.0
 11
118.4574672394999
 21
210.5166374639457
 31
0.0
  0
LINE
  5
228E
330
18
100
AcDbEntity
  8
1
  6
Continuous
100
AcDbLine
 10
118.4574672394999
 20
210.5166374639457
 30
0.0
 11
117.7574672394999
 21
210.5166374639457
 31
0.0
  0
LINE
  5
228F
330
18
100
AcDbEntity
  8
1
  6
Continuous
100
AcDbLine
 10
117.7574672394999
 20
199.0295940664655
 30
0.0
 11
117.7574672394999
 21
212.1916374639456
 31
0.0
  0
LINE
  5
2290
330
18
100
AcDbEntity
  8
1
  6
Continuous
100
AcDbLine
 10
117.6574672394999
 20
199.0295940664656
 30
0.0
 11
117.7574672394999
 21
199.0295940664656
 31
0.0
  0
LINE
  5
229B
330
18
100
AcDbEntity
  8
4
  6
CENTER
 48
0.3
100
AcDbLine
 10
303.5379565258888
 20
125.5416374639456
 30
0.0
 11
267.6379565258889
 21
125.5416374639456
 31
0.0
  0
LINE
  5
22A3
330
18
100
AcDbEntity
  8
2
  6
Continuous
100
AcDbLine
 10
282.2379565258889
 20
121.6647830689458
 30
0.0
 11
297.0379565258889
 21
130.8179998472557
 31
0.0
  0
LINE
  5
22A4
330
18
100
AcDbEntity
  8
1
  6
Continuous
100
AcDbLine
 10
301.5379565258888
 20
121.5416374639456
 30
0.0
 11
301.5379565258888
 21
129.5416374639456
 31
0.0
  0
LINE
  5
22A5
330
18
100
AcDbEntity
  8
1
  6
Continuous
100
AcDbLine
 10
297.1379565258889
 20
113.0416374639456
 30
0.0
 11
297.1379565258889
 21
138.0416374639456
 31
0.0
  0
LINE
  5
22A6
330
18
100
AcDbEntity
  8
1
  6
Continuous
100
AcDbLine
 10
297.6379565258889
 20
113.0416374639456
 30
0.0
 11
297.6379565258889
 21
138.0416374639456
 31
0.0
  0
LINE
  5
22A7
330
18
100
AcDbEntity
  8
1
  6
Continuous
100
AcDbLine
 10
300.5379565258889
 20
114.5416374639456
 30
0.0
 11
300.5379565258889
 21
136.5416374639456
 31
0.0
  0
LINE
  5
22A8
330
18
100
AcDbEntity
  8
1
  6
Continuous
100
AcDbLine
 10
297.0379565258888
 20
115.8666374639456
 30
0.0
 11
297.0379565258888
 21
135.2166374639457
 31
0.0
  0
LINE
  5
22AC
330
18
100
AcDbEntity
  8
1
  6
Continuous
100
AcDbLine
 10
279.6379565258889
 20
117.4754981593156
 30
0.0
 11
279.6379565258889
 21
133.3416374639456
 31
0.0
  0
LINE
  5
22AD
330
18
100
AcDbEntity
  8
1
  6
Continuous
100
AcDbLine
 10
281.2379565258889
 20
117.4754981593157
 30
0.0
 11
281.2379565258889
 21
133.3416374639457
 31
0.0
  0
LINE
  5
22AE
330
18
100
AcDbEntity
  8
1
  6
Continuous
100
AcDbLine
 10
282.2379565258889
 20
117.5661289380256
 30
0.0
 11
282.2379565258889
 21
134.3416374639457
 31
0.0
  0
LINE
  5
22AF
330
18
100
AcDbEntity
  8
1
  6
Continuous
100
AcDbLine
 10
282.1379565258888
 20
119.0295940664656
 30
0.0
 11
282.1379565258888
 21
132.1916374639456
 31
0.0
  0
LINE
  5
22B7
330
18
100
AcDbEntity
  8
1
  6
Continuous
100
AcDbLine
 10
301.0379565258888
 20
129.7312451424755
 30
0.0
 11
301.0379565258888
 21
128.0341888676256
 31
0.0
  0
LINE
  5
22B9
330
18
100
AcDbEntity
  8
1
  6
Continuous
100
AcDbLine
 10
301.037956525889
 20
129.7312451424756
 30
0.0
 11
301.537956525889
 21
129.0883131140156
 31
0.0
  0
LINE
  5
22BA
330
18
100
AcDbEntity
  8
1
  6
Continuous
100
AcDbLine
 10
301.5379565258888
 20
127.3912568391656
 30
0.0
 11
301.0379565258888
 21
128.0341888676256
 31
0.0
  0
LINE
  5
22BB
330
18
100
AcDbEntity
  8
1
  6
Continuous
100
AcDbLine
 10
296.0379565258889
 20
120.2652750806356
 30
0.0
 11
296.0379565258889
 21
116.0416374639456
 31
0.0
  0
LINE
  5
22BC
330
18
100
AcDbEntity
  8
1
  6
Continuous
100
AcDbLine
 10
300.5379565258889
 20
114.5416374639456
 30
0.0
 11
297.6379565258889
 21
113.0416374639456
 31
0.0
  0
LINE
  5
22BD
330
18
100
AcDbEntity
  8
1
  6
Continuous
100
AcDbLine
 10
297.6379565258889
 20
113.0416374639456
 30
0.0
 11
297.1379565258889
 21
113.0416374639456
 31
0.0
  0
LINE
  5
22BE
330
18
100
AcDbEntity
  8
1
  6
Continuous
100
AcDbLine
 10
297.1379565258889
 20
115.7666374639457
 30
0.0
 11
297.0379565258889
 21
115.8666374639455
 31
0.0
  0
LINE
  5
22BF
330
18
100
AcDbEntity
  8
1
  6
Continuous
100
AcDbLine
 10
301.5379565258888
 20
121.5416374639457
 30
0.0
 11
300.5379565258889
 21
119.7916374639458
 31
0.0
  0
LINE
  5
22C2
330
18
100
AcDbEntity
  8
1
  6
Continuous
100
AcDbLine
 10
297.0379565258888
 20
116.0416374639456
 30
0.0
 11
284.6379565258889
 21
116.0416374639456
 31
0.0
  0
LINE
  5
22C3
330
18
100
AcDbEntity
  8
1
  6
Continuous
100
AcDbLine
 10
297.0379565258888
 20
120.2652750806356
 30
0.0
 11
284.6379565258889
 21
120.2652750806356
 31
0.0
  0
LINE
  5
22C4
330
18
100
AcDbEntity
  8
2
  6
Continuous
100
AcDbLine
 10
284.0964565258889
 20
116.5831374639456
 30
0.0
 11
296.0379565258889
 21
116.5831374639455
 31
0.0
  0
LINE
  5
22C7
330
18
100
AcDbEntity
  8
1
  6
Continuous
100
AcDbLine
 10
281.4379565258889
 20
120.5666374639455
 30
0.0
 11
281.2379565258889
 21
120.7666374639456
 31
0.0
  0
LINE
  5
22C8
330
18
100
AcDbEntity
  8
1
  6
Continuous
100
AcDbLine
 10
283.9379565258889
 20
121.6647830689456
 30
0.0
 11
282.2379565258889
 21
121.6647830689456
 31
0.0
  0
LINE
  5
22C9
330
18
100
AcDbEntity
  8
1
  6
Continuous
100
AcDbLine
 10
282.1379565258888
 20
120.5666374639457
 30
0.0
 11
281.4379565258889
 21
120.5666374639457
 31
0.0
  0
LINE
  5
22CA
330
18
100
AcDbEntity
  8
1
  6
Continuous
100
AcDbLine
 10
284.6379565258888
 20
116.0416374639457
 30
0.0
 11
283.9379565258888
 21
116.7416374639458
 31
0.0
  0
LINE
  5
22CB
330
18
100
AcDbEntity
  8
1
  6
Continuous
100
AcDbLine
 10
284.6379565258889
 20
116.0416374639456
 30
0.0
 11
284.6379565258889
 21
120.2652750806356
 31
0.0
  0
LINE
  5
22CC
330
18
100
AcDbEntity
  8
1
  6
Continuous
100
AcDbLine
 10
282.2379565258889
 20
118.9255906185756
 30
0.0
 11
281.2379565258889
 21
118.9255906185756
 31
0.0
  0
LINE
  5
22CD
330
18
100
AcDbEntity
  8
1
  6
Continuous
100
AcDbLine
 10
282.2379565258889
 20
117.5661289380256
 30
0.0
 11
281.2379565258889
 21
117.5661289380256
 31
0.0
  0
LINE
  5
22CE
330
18
100
AcDbEntity
  8
1
  6
Continuous
100
AcDbLine
 10
283.9379565258889
 20
116.7416374639457
 30
0.0
 11
280.1379565258889
 21
116.7416374639457
 31
0.0
  0
LINE
  5
22CF
330
18
100
AcDbEntity
  8
1
  6
Continuous
100
AcDbLine
 10
282.2379565258889
 20
119.0295940664657
 30
0.0
 11
282.1379565258888
 21
119.0295940664657
 31
0.0
  0
LINE
  5
22D1
330
18
100
AcDbEntity
  8
1
  6
Continuous
100
AcDbLine
 10
281.2379565258889
 20
117.4754981593157
 30
0.0
 11
279.6379565258888
 21
117.4754981593157
 31
0.0
  0
LINE
  5
22D2
330
18
100
AcDbEntity
  8
1
  6
Continuous
100
AcDbLine
 10
279.9379565258889
 20
117.4754981593157
 30
0.0
 11
279.9379565258889
 21
116.9416374639457
 31
0.0
  0
LINE
  5
22D3
330
18
100
AcDbEntity
  8
1
  6
Continuous
100
AcDbLine
 10
280.1379565258888
 20
116.7416374639457
 30
0.0
 11
279.9379565258889
 21
116.9416374639457
 31
0.0
  0
LINE
  5
22D4
330
18
100
AcDbEntity
  8
1
  6
Continuous
100
AcDbLine
 10
284.6379565258889
 20
120.2652750806356
 30
0.0
 11
283.9379565258889
 21
121.6647830689456
 31
0.0
  0
LINE
  5
22D5
330
18
100
AcDbEntity
  8
1
  6
Continuous
100
AcDbLine
 10
283.9379565258889
 20
116.7416374639457
 30
0.0
 11
283.9379565258889
 21
121.6647830689456
 31
0.0
  0
LINE
  5
22DA
330
18
100
AcDbEntity
  8
1
  6
Continuous
100
AcDbLine
 10
296.0379565258889
 20
135.0416374639456
 30
0.0
 11
296.0379565258889
 21
130.8179998472556
 31
0.0
  0
LINE
  5
22DB
330
18
100
AcDbEntity
  8
1
  6
Continuous
100
AcDbLine
 10
300.5379565258889
 20
131.2916374639456
 30
0.0
 11
301.5379565258888
 21
129.5416374639457
 31
0.0
  0
LINE
  5
22DC
330
18
100
AcDbEntity
  8
1
  6
Continuous
100
AcDbLine
 10
297.1379565258889
 20
135.3166374639456
 30
0.0
 11
297.0379565258889
 21
135.2166374639455
 31
0.0
  0
LINE
  5
22DD
330
18
100
AcDbEntity
  8
1
  6
Continuous
100
AcDbLine
 10
297.6379565258889
 20
138.0416374639457
 30
0.0
 11
300.5379565258889
 21
136.5416374639456
 31
0.0
  0
LINE
  5
22DE
330
18
100
AcDbEntity
  8
1
  6
Continuous
100
AcDbLine
 10
297.1379565258889
 20
138.0416374639456
 30
0.0
 11
297.6379565258889
 21
138.0416374639456
 31
0.0
  0
LINE
  5
22DF
330
18
100
AcDbEntity
  8
1
  6
Continuous
100
AcDbLine
 10
283.9379565258889
 20
134.3416374639455
 30
0.0
 11
284.6379565258889
 21
135.0416374639456
 31
0.0
  0
LINE
  5
22E1
330
18
100
AcDbEntity
  8
1
  6
Continuous
100
AcDbLine
 10
284.6379565258889
 20
130.8179998472556
 30
0.0
 11
284.6379565258889
 21
135.0416374639456
 31
0.0
  0
LINE
  5
22E2
330
18
100
AcDbEntity
  8
2
  6
Continuous
100
AcDbLine
 10
297.0379565258888
 20
120.2652750806356
 30
0.0
 11
282.2379565258888
 21
129.4184918589456
 31
0.0
  0
LINE
  5
22E3
330
18
100
AcDbEntity
  8
1
  6
Continuous
100
AcDbLine
 10
284.6379565258889
 20
130.8179998472556
 30
0.0
 11
297.0379565258888
 21
130.8179998472556
 31
0.0
  0
LINE
  5
22E5
330
18
100
AcDbEntity
  8
1
  6
Continuous
100
AcDbLine
 10
282.2379565258889
 20
134.3416374639457
 30
0.0
 11
283.9379565258889
 21
134.3416374639457
 31
0.0
  0
LINE
  5
22E6
330
18
100
AcDbEntity
  8
1
  6
Continuous
100
AcDbLine
 10
282.1379565258888
 20
132.1916374639457
 30
0.0
 11
282.2379565258889
 21
132.1916374639457
 31
0.0
  0
LINE
  5
22E7
330
18
100
AcDbEntity
  8
1
  6
Continuous
100
AcDbLine
 10
281.2379565258889
 20
133.3416374639457
 30
0.0
 11
279.6379565258888
 21
133.3416374639457
 31
0.0
  0
LINE
  5
22E8
330
18
100
AcDbEntity
  8
1
  6
Continuous
100
AcDbLine
 10
283.9379565258889
 20
129.4184918589457
 30
0.0
 11
284.6379565258889
 21
130.8179998472557
 31
0.0
  0
LINE
  5
22E9
330
18
100
AcDbEntity
  8
1
  6
Continuous
100
AcDbLine
 10
281.2379565258888
 20
130.3166374639456
 30
0.0
 11
281.4379565258889
 21
130.5166374639457
 31
0.0
  0
LINE
  5
22EA
330
18
100
AcDbEntity
  8
1
  6
Continuous
100
AcDbLine
 10
282.2379565258889
 20
129.4184918589457
 30
0.0
 11
283.9379565258889
 21
129.4184918589457
 31
0.0
  0
LINE
  5
22EB
330
18
100
AcDbEntity
  8
1
  6
Continuous
100
AcDbLine
 10
281.4379565258889
 20
130.5166374639457
 30
0.0
 11
282.1379565258888
 21
130.5166374639457
 31
0.0
  0
LINE
  5
22EE
330
18
100
AcDbEntity
  8
1
  6
Continuous
100
AcDbLine
 10
283.9379565258889
 20
129.4184918589457
 30
0.0
 11
283.9379565258889
 21
134.3416374639457
 31
0.0
  0
LINE
  5
22EF
330
18
100
AcDbEntity
  8
1
  6
Continuous
100
AcDbLine
 10
284.6379565258889
 20
135.0416374639456
 30
0.0
 11
297.0379565258888
 21
135.0416374639456
 31
0.0
  0
LINE
  5
22F0
330
18
100
AcDbEntity
  8
2
  6
Continuous
100
AcDbLine
 10
284.096456525889
 20
134.5001374639456
 30
0.0
 11
296.0379565258889
 21
134.5001374639457
 31
0.0
  0
LINE
  5
22F5
330
18
100
AcDbEntity
  8
1
  6
Continuous
100
AcDbLine
 10
269.6379565258889
 20
123.0416374639456
 30
0.0
 11
269.6379565258889
 21
128.0416374639456
 31
0.0
  0
ARC
  5
22F6
330
18
100
AcDbEntity
  8
1
  6
Continuous
100
AcDbCircle
 10
273.3785329088413
 20
125.5416374639456
 30
0.0
 40
3.531396170183692
100
AcDbArc
 50
140.9012624665149
 51
219.0987375334838
  0
LINE
  5
22F9
330
18
100
AcDbEntity
  8
2
  6
Continuous
100
AcDbLine
 10
279.6379565258888
 20
127.7687432090757
 30
0.0
 11
270.6379565258888
 21
123.3145317188158
 31
0.0
  0
LINE
  5
22FD
330
18
100
AcDbEntity
  8
1
  6
Continuous
100
AcDbLine
 10
270.6379565258889
 20
123.3145317188156
 30
0.0
 11
279.6379565258889
 21
123.3145317188157
 31
0.0
  0
LINE
  5
22FE
330
18
100
AcDbEntity
  8
1
  6
Continuous
100
AcDbLine
 10
279.6379565258889
 20
122.0416374639456
 30
0.0
 11
270.6379565258889
 21
122.0416374639456
 31
0.0
  0
LINE
  5
22FF
330
18
100
AcDbEntity
  8
2
  6
Continuous
100
AcDbLine
 10
270.2319565258895
 20
122.4476374639451
 30
0.0
 11
279.6379565258888
 21
122.4476374639451
 31
0.0
  0
LINE
  5
2307
330
18
100
AcDbEntity
  8
1
  6
Continuous
100
AcDbLine
 10
270.6379565258889
 20
122.0416374639456
 30
0.0
 11
269.6379565258889
 21
123.0416374639456
 31
0.0
  0
LINE
  5
2308
330
18
100
AcDbEntity
  8
1
  6
Continuous
100
AcDbLine
 10
270.6379565258889
 20
122.0416374639456
 30
0.0
 11
270.6379565258889
 21
123.3145317188156
 31
0.0
  0
LINE
  5
2309
330
18
100
AcDbEntity
  8
2
  6
Continuous
100
AcDbLine
 10
270.6379565258888
 20
127.7687432090756
 30
0.0
 11
279.6379565258889
 21
123.3145317188159
 31
0.0
  0
LINE
  5
230A
330
18
100
AcDbEntity
  8
1
  6
Continuous
100
AcDbLine
 10
279.6379565258889
 20
127.7687432090757
 30
0.0
 11
270.6379565258889
 21
127.7687432090757
 31
0.0
  0
LINE
  5
230B
330
18
100
AcDbEntity
  8
1
  6
Continuous
100
AcDbLine
 10
270.6379565258889
 20
129.0416374639456
 30
0.0
 11
279.6379565258889
 21
129.0416374639456
 31
0.0
  0
LINE
  5
230C
330
18
100
AcDbEntity
  8
2
  6
Continuous
100
AcDbLine
 10
270.2319565258883
 20
128.6356374639451
 30
0.0
 11
279.6379565258888
 21
128.6356374639451
 31
0.0
  0
LINE
  5
2314
330
18
100
AcDbEntity
  8
1
  6
Continuous
100
AcDbLine
 10
270.6379565258889
 20
127.7687432090757
 30
0.0
 11
270.6379565258889
 21
129.0416374639456
 31
0.0
  0
LINE
  5
2315
330
18
100
AcDbEntity
  8
1
  6
Continuous
100
AcDbLine
 10
269.6379565258889
 20
128.0416374639456
 30
0.0
 11
270.6379565258889
 21
129.0416374639456
 31
0.0
  0
LINE
  5
241A
330
18
100
AcDbEntity
  8
4
  6
CENTER
 48
0.3
100
AcDbLine
 10
96.35746723949996
 20
45.54163746394563
 30
0.0
 11
132.2574672394998
 21
45.54163746394563
 31
0.0
  0
LINE
  5
2426
330
18
100
AcDbEntity
  8
1
  6
Continuous
100
AcDbLine
 10
117.7574672394999
 20
52.0536808614257
 30
0.0
 11
117.7574672394999
 21
49.26067816719357
 31
0.0
  0
LINE
  5
2427
330
18
100
AcDbEntity
  8
1
  6
Continuous
100
AcDbLine
 10
117.6574672394999
 20
53.44163746394554
 30
0.0
 11
117.6574672394999
 21
49.26067816719357
 31
0.0
  0
LINE
  5
2428
330
18
100
AcDbEntity
  8
1
  6
Continuous
100
AcDbLine
 10
115.2574672395
 20
53.44163746394554
 30
0.0
 11
115.2574672394999
 21
37.64163746394547
 31
0.0
  0
LINE
  5
2429
330
18
100
AcDbEntity
  8
1
  6
Continuous
100
AcDbLine
 10
115.9574672394997
 20
53.44163746394554
 30
0.0
 11
115.9574672394999
 21
37.64163746394553
 31
0.0
  0
LINE
  5
242B
330
18
100
AcDbEntity
  8
1
  6
Continuous
100
AcDbLine
 10
102.8574672394999
 20
55.21663746394559
 30
0.0
 11
102.8574672394999
 21
35.86663746394552
 31
0.0
  0
LINE
  5
242C
330
18
100
AcDbEntity
  8
1
  6
Continuous
100
AcDbLine
 10
99.35746723949996
 20
56.54163746394565
 30
0.0
 11
99.35746723949996
 21
34.54163746394565
 31
0.0
  0
LINE
  5
242D
330
18
100
AcDbEntity
  8
1
  6
Continuous
100
AcDbLine
 10
102.2574672394999
 20
58.04163746394563
 30
0.0
 11
102.2574672394999
 21
33.04163746394564
 31
0.0
  0
LINE
  5
242E
330
18
100
AcDbEntity
  8
1
  6
Continuous
100
AcDbLine
 10
102.7574672394999
 20
58.04163746394563
 30
0.0
 11
102.7574672394999
 21
33.04163746394564
 31
0.0
  0
LINE
  5
242F
330
18
100
AcDbEntity
  8
1
  6
Continuous
100
AcDbLine
 10
98.35746723949995
 20
49.54163746394565
 30
0.0
 11
98.35746723949995
 21
41.54163746394565
 31
0.0
  0
LINE
  5
2430
330
18
100
AcDbEntity
  8
1
  6
Continuous
100
AcDbLine
 10
118.6574672394999
 20
53.60777676857541
 30
0.0
 11
118.6574672394999
 21
49.26067816719357
 31
0.0
  0
LINE
  5
2431
330
18
100
AcDbEntity
  8
1
  6
Continuous
100
AcDbLine
 10
120.2574672394999
 20
53.6077767685755
 30
0.0
 11
120.2574672394999
 21
37.74163746394552
 31
0.0
  0
LINE
  5
2432
330
18
100
AcDbEntity
  8
1
  6
Continuous
100
AcDbLine
 10
103.8574672394998
 20
37.6416374639455
 30
0.0
 11
103.8574672394998
 21
53.44163746394554
 31
0.0
  0
ARC
  5
2433
330
18
100
AcDbEntity
  8
1
  6
Continuous
100
AcDbCircle
 10
131.2324672390246
 20
40.04163746385927
 30
0.0
 40
15.62500000047528
100
AcDbArc
 50
339.3903070634625
 51
20.60969293721502
  0
LINE
  5
2434
330
18
100
AcDbEntity
  8
1
  6
Continuous
100
AcDbLine
 10
142.8574672394998
 20
34.54163746394559
 30
0.0
 11
142.8574672394999
 21
56.54163746394543
 31
0.0
  0
LINE
  5
2435
330
18
100
AcDbEntity
  8
1
  6
Continuous
100
AcDbLine
 10
146.8574672394999
 20
56.54163746394516
 30
0.0
 11
146.8574672394999
 21
34.54163746394562
 31
0.0
  0
LINE
  5
2436
330
18
100
AcDbEntity
  8
1
  6
Continuous
100
AcDbLine
 10
102.8574672394998
 20
53.44163746394554
 30
0.0
 11
117.6574672394999
 21
53.44163746394555
 31
0.0
  0
LINE
  5
2437
330
18
100
AcDbEntity
  8
1
  6
Continuous
100
AcDbLine
 10
102.7574672394999
 20
55.31663746394556
 30
0.0
 11
102.8574672394998
 21
55.21663746394573
 31
0.0
  0
LINE
  5
2438
330
18
100
AcDbEntity
  8
1
  6
Continuous
100
AcDbLine
 10
102.2574672394999
 20
58.04163746394563
 30
0.0
 11
102.7574672394999
 21
58.04163746394563
 31
0.0
  0
LINE
  5
2439
330
18
100
AcDbEntity
  8
1
  6
Continuous
100
AcDbLine
 10
99.35746723949996
 20
56.54163746394565
 30
0.0
 11
102.2574672394998
 21
58.04163746394563
 31
0.0
  0
LINE
  5
243B
330
18
100
AcDbEntity
  8
1
  6
Continuous
100
AcDbLine
 10
98.35746723949995
 20
49.54163746394553
 30
0.0
 11
99.35746723949996
 21
51.29163746394542
 31
0.0
  0
ARC
  5
243C
330
18
100
AcDbEntity
  8
1
  6
Continuous
100
AcDbCircle
 10
131.2324672390246
 20
51.04163746403202
 30
0.0
 40
15.62500000047528
100
AcDbArc
 50
339.390307062785
 51
20.60969293653748
  0
LINE
  5
243E
330
18
100
AcDbEntity
  8
1
  6
Continuous
100
AcDbLine
 10
142.8574672394999
 20
56.54163746394543
 30
0.0
 11
146.8574672394999
 21
56.54163746394543
 31
0.0
  0
LINE
  5
243F
330
18
100
AcDbEntity
  8
1
  6
Continuous
100
AcDbLine
 10
120.2574672394999
 20
53.60777676857543
 30
0.0
 11
118.6574672394999
 21
53.60777676857541
 31
0.0
  0
LINE
  5
2440
330
18
100
AcDbEntity
  8
1
  6
Continuous
100
AcDbLine
 10
142.8574672394999
 20
45.54163746394563
 30
0.0
 11
145.8574672394999
 21
45.54163746394563
 31
0.0
  0
LINE
  5
2441
330
18
100
AcDbEntity
  8
1
  6
Continuous
100
AcDbLine
 10
117.6574672394999
 20
52.05368086142559
 30
0.0
 11
117.7574672394999
 21
52.05368086142559
 31
0.0
  0
LINE
  5
2442
330
18
100
AcDbEntity
  8
1
  6
Continuous
100
AcDbLine
 10
117.7574672394999
 20
50.51663746394556
 30
0.0
 11
118.4574672394999
 21
50.51663746394556
 31
0.0
  0
LINE
  5
2443
330
18
100
AcDbEntity
  8
1
  6
Continuous
100
AcDbLine
 10
118.4574672394998
 20
50.51663746394572
 30
0.0
 11
118.6574672394998
 21
50.31663746394563
 31
0.0
  0
LINE
  5
2446
330
18
100
AcDbEntity
  8
1
  6
Continuous
100
AcDbLine
 10
102.8574672394998
 20
37.64163746394553
 30
0.0
 11
117.6574672394999
 21
37.64163746394553
 31
0.0
  0
LINE
  5
2448
330
18
100
AcDbEntity
  8
1
  6
Continuous
100
AcDbLine
 10
102.7574672394999
 20
33.04163746394564
 30
0.0
 11
102.2574672394999
 21
33.04163746394564
 31
0.0
  0
LINE
  5
2449
330
18
100
AcDbEntity
  8
1
  6
Continuous
100
AcDbLine
 10
102.2574672394999
 20
33.04163746394559
 30
0.0
 11
99.35746723949987
 21
34.54163746394559
 31
0.0
  0
LINE
  5
244A
330
18
100
AcDbEntity
  8
1
  6
Continuous
100
AcDbLine
 10
102.7574672394998
 20
35.76663746394567
 30
0.0
 11
102.8574672394998
 21
35.86663746394575
 31
0.0
  0
LINE
  5
244B
330
18
100
AcDbEntity
  8
1
  6
Continuous
100
AcDbLine
 10
99.35746723949996
 20
39.79163746394559
 30
0.0
 11
98.35746723949995
 21
41.54163746394553
 31
0.0
  0
LINE
  5
244D
330
18
100
AcDbEntity
  8
1
  6
Continuous
100
AcDbLine
 10
146.8574672394999
 20
34.54163746394559
 30
0.0
 11
142.8574672394998
 21
34.54163746394559
 31
0.0
  0
LINE
  5
244E
330
18
100
AcDbEntity
  8
1
  6
Continuous
100
AcDbLine
 10
118.4574672394999
 20
40.56663746394557
 30
0.0
 11
117.7574672394999
 21
40.56663746394557
 31
0.0
  0
LINE
  5
244F
330
18
100
AcDbEntity
  8
1
  6
Continuous
100
AcDbLine
 10
118.6574672394999
 20
40.76663746394561
 30
0.0
 11
118.4574672394999
 21
40.56663746394557
 31
0.0
  0
LINE
  5
2450
330
18
100
AcDbEntity
  8
1
  6
Continuous
100
AcDbLine
 10
117.7574672394999
 20
38.89163746394554
 30
0.0
 11
117.6574672394999
 21
38.89163746394554
 31
0.0
  0
LINE
  5
2451
330
18
100
AcDbEntity
  8
1
  6
Continuous
100
AcDbLine
 10
120.2574672394999
 20
37.74163746394544
 30
0.0
 11
118.6574672394999
 21
37.74163746394544
 31
0.0
  0
ARC
  5
2452
330
18
100
AcDbEntity
  8
1
  6
Continuous
100
AcDbCircle
 10
161.6004421235976
 20
42.79163746392351
 30
0.0
 40
7.942974884101682
100
AcDbArc
 50
159.7438420005554
 51
200.2561579991047
  0
ARC
  5
2453
330
18
100
AcDbEntity
  8
1
  6
Continuous
100
AcDbCircle
 10
149.7144923553982
 20
42.79163746392351
 30
0.0
 40
7.942974884101682
100
AcDbArc
 50
339.7438420008952
 51
20.2561579994446
  0
LINE
  5
2454
330
18
100
AcDbEntity
  8
1
  6
Continuous
100
AcDbLine
 10
157.6574672394999
 20
40.04163746387169
 30
0.0
 11
157.6574672394999
 21
51.04163746401854
 31
0.0
  0
LINE
  5
2455
330
18
100
AcDbEntity
  8
1
  6
Continuous
100
AcDbLine
 10
153.6574672394999
 20
52.0416374639455
 30
0.0
 11
153.6574672394999
 21
39.0416374639455
 31
0.0
  0
LINE
  5
2456
330
18
100
AcDbEntity
  8
1
  6
Continuous
100
AcDbLine
 10
152.8574672394999
 20
52.0416374639455
 30
0.0
 11
152.8574672394999
 21
39.0416374639455
 31
0.0
  0
LINE
  5
2458
330
18
100
AcDbEntity
  8
1
  6
Continuous
100
AcDbLine
 10
130.0574672394999
 20
42.8416374639456
 30
0.0
 11
120.2574672394999
 21
42.84163746394571
 31
0.0
  0
LINE
  5
2459
330
18
100
AcDbEntity
  8
1
  6
Continuous
100
AcDbLine
 10
120.2574672394999
 20
48.24163746394527
 30
0.0
 11
130.0574672395001
 21
48.24163746394527
 31
0.0
  0
ARC
  5
245A
330
18
100
AcDbEntity
  8
1
  6
Continuous
100
AcDbCircle
 10
149.7144923553982
 20
48.29163746396257
 30
0.0
 40
7.942974884101682
100
AcDbArc
 50
339.7438420005554
 51
20.25615799910476
  0
ARC
  5
245B
330
18
100
AcDbEntity
  8
1
  6
Continuous
100
AcDbCircle
 10
161.6004421235976
 20
48.29163746396257
 30
0.0
 40
7.942974884101682
100
AcDbArc
 50
159.7438420008952
 51
200.2561579994446
  0
LINE
  5
245C
330
18
100
AcDbEntity
  8
1
  6
Continuous
100
AcDbLine
 10
152.8574672394999
 20
52.0416374639455
 30
0.0
 11
153.6574672394999
 21
52.0416374639455
 31
0.0
  0
LINE
  5
245D
330
18
100
AcDbEntity
  8
1
  6
Continuous
100
AcDbLine
 10
153.6574672394998
 20
51.04163746395892
 30
0.0
 11
157.6574672394999
 21
51.04163746394356
 31
0.0
  0
LINE
  5
245E
330
18
100
AcDbEntity
  8
1
  6
Continuous
100
AcDbLine
 10
154.1487074256023
 20
45.54163746394303
 30
0.0
 11
157.1662270533963
 21
45.54163746394563
 31
0.0
  0
LINE
  5
245F
330
18
100
AcDbEntity
  8
1
  6
Continuous
100
AcDbLine
 10
130.2574672394999
 20
48.0416374639455
 30
0.0
 11
130.2574672394999
 21
43.0416374639455
 31
0.0
  0
LINE
  5
2460
330
18
100
AcDbEntity
  8
1
  6
Continuous
100
AcDbLine
 10
130.0574672395001
 20
48.24163746394527
 30
0.0
 11
130.2574672394998
 21
48.04163746394554
 31
0.0
  0
LINE
  5
2461
330
18
100
AcDbEntity
  8
1
  6
Continuous
100
AcDbLine
 10
130.2574672394999
 20
43.0416374639455
 30
0.0
 11
130.0574672394999
 21
42.8416374639456
 31
0.0
  0
LINE
  5
2462
330
18
100
AcDbEntity
  8
1
  6
Continuous
100
AcDbLine
 10
129.2574672394998
 20
48.24163746394527
 30
0.0
 11
129.2574672394999
 21
42.84163746394557
 31
0.0
  0
LINE
  5
2463
330
18
100
AcDbEntity
  8
1
  6
Continuous
100
AcDbLine
 10
153.6574672394999
 20
39.0416374639455
 30
0.0
 11
152.8574672394999
 21
39.0416374639455
 31
0.0
  0
LINE
  5
2464
330
18
100
AcDbEntity
  8
1
  6
Continuous
100
AcDbLine
 10
153.6574672394999
 20
40.041637463958
 30
0.0
 11
157.6574672394999
 21
40.04163746394381
 31
0.0
  0
LINE
  5
256F
330
18
100
AcDbEntity
  8
1
  6
Continuous
100
AcDbLine
 10
118.6574672394999
 20
41.82259676069772
 30
0.0
 11
118.6574672394999
 21
37.74163746394544
 31
0.0
  0
LINE
  5
2570
330
18
100
AcDbEntity
  8
1
  6
Continuous
100
AcDbLine
 10
117.7574672394999
 20
41.82259676069771
 30
0.0
 11
117.7574672394999
 21
38.89163746394561
 31
0.0
  0
LINE
  5
2571
330
18
100
AcDbEntity
  8
1
  6
Continuous
100
AcDbLine
 10
117.6574672394999
 20
41.82259676069771
 30
0.0
 11
117.6574672394999
 21
37.64163746394554
 31
0.0
  0
LINE
  5
25AD
330
18
100
AcDbEntity
  8
1
  6
Continuous
100
AcDbLine
 10
120.2574672394999
 20
42.58330963174578
 30
0.0
 11
119.9574672394997
 21
42.58330963174578
 31
0.0
  0
LINE
  5
25AE
330
18
100
AcDbEntity
  8
1
  6
Continuous
100
AcDbLine
 10
118.6574672394999
 20
52.54163746394571
 30
0.0
 11
120.2574672394999
 21
52.54163746394571
 31
0.0
  0
LINE
  5
25B0
330
18
100
AcDbEntity
  8
1
  6
Continuous
100
AcDbLine
 10
119.9574672394997
 20
41.82259676069771
 30
0.0
 11
117.6574672394999
 21
41.82259676069771
 31
0.0
  0
LINE
  5
25B2
330
18
100
AcDbEntity
  8
1
  6
Continuous
100
AcDbLine
 10
99.08073075075993
 20
48.44781987691558
 30
0.0
 11
99.35746723949987
 21
48.79667456196553
 31
0.0
  0
LINE
  5
25B3
330
18
100
AcDbEntity
  8
1
  6
Continuous
100
AcDbLine
 10
98.85746723950001
 20
48.16541397160561
 30
0.0
 11
99.08073075075993
 21
48.44781987691558
 31
0.0
  0
LINE
  5
25B4
330
18
100
AcDbEntity
  8
1
  6
Continuous
100
AcDbLine
 10
98.85746723949996
 20
49.73124514247555
 30
0.0
 11
98.85746723949996
 21
48.0341888676256
 31
0.0
  0
LINE
  5
25B5
330
18
100
AcDbEntity
  8
1
  6
Continuous
100
AcDbLine
 10
98.85746723949992
 20
49.65033821209566
 30
0.0
 11
99.08073075075993
 21
49.93274411740569
 31
0.0
  0
LINE
  5
25B6
330
18
100
AcDbEntity
  8
1
  6
Continuous
100
AcDbLine
 10
98.85746723949985
 20
49.73124514247567
 30
0.0
 11
98.35746723949984
 21
49.08831311401567
 31
0.0
  0
LINE
  5
25B7
330
18
100
AcDbEntity
  8
1
  6
Continuous
100
AcDbLine
 10
98.35746723949995
 20
47.39125683916561
 30
0.0
 11
98.85746723950001
 21
48.0341888676256
 31
0.0
  0
LINE
  5
25B8
330
18
100
AcDbEntity
  8
1
  6
Continuous
100
AcDbLine
 10
99.08073075075993
 20
49.93274411740563
 30
0.0
 11
99.35746723949984
 21
50.28159880245564
 31
0.0
  0
LINE
  5
25BD
330
18
100
AcDbEntity
  8
1
  6
Continuous
100
AcDbLine
 10
43.19852819750287
 20
119.1907845028705
 30
0.0
 11
43.19852819750286
 21
119.6044664204267
 31
0.0
  0
LINE
  5
25BE
330
18
100
AcDbEntity
  8
1
  6
Continuous
100
AcDbLine
 10
43.19852819751286
 20
131.8924904250469
 30
0.0
 11
42.84026914778347
 21
132.0993313838478
 31
0.0
  0
LINE
  5
25BF
330
18
100
AcDbEntity
  8
1
  6
Continuous
100
AcDbLine
 10
32.19852819751298
 20
138.243343386142
 30
0.0
 11
31.84026914776959
 21
138.036502427333
 31
0.0
  0
LINE
  5
25C0
330
18
100
AcDbEntity
  8
1
  6
Continuous
100
AcDbLine
 10
21.19852819750298
 20
131.892490425061
 30
0.0
 11
21.19852819750298
 21
131.4788085074649
 31
0.0
  0
LINE
  5
25C1
330
18
100
AcDbEntity
  8
1
  6
Continuous
100
AcDbLine
 10
21.19852819749297
 20
119.1907845028844
 30
0.0
 11
21.55678724718397
 21
118.9839435441057
 31
0.0
  0
LINE
  5
25C2
330
18
100
AcDbEntity
  8
1
  6
Continuous
100
AcDbLine
 10
32.19852819749287
 20
112.8399315417895
 30
0.0
 11
32.55678724716336
 21
113.0467725005563
 31
0.0
  0
LINE
  5
25C3
330
18
100
AcDbEntity
  8
1
  6
Continuous
100
AcDbLine
 10
21.19852819750298
 20
119.6044664204265
 30
0.0
 11
21.19852819750298
 21
119.190784502891
 31
0.0
  0
LINE
  5
25C4
330
18
100
AcDbEntity
  8
1
  6
Continuous
100
AcDbLine
 10
21.55678724722121
 20
132.0993313838461
 30
0.0
 11
21.19852819751292
 21
131.8924904250575
 31
0.0
  0
LINE
  5
25C5
330
18
100
AcDbEntity
  8
1
  6
Continuous
100
AcDbLine
 10
32.55678724723906
 20
138.036502427333
 30
0.0
 11
32.19852819751298
 21
138.2433433861319
 31
0.0
  0
LINE
  5
25C6
330
18
100
AcDbEntity
  8
1
  6
Continuous
100
AcDbLine
 10
43.19852819750286
 20
131.4788085074647
 30
0.0
 11
43.19852819750287
 21
131.8924904250404
 31
0.0
  0
LINE
  5
25C7
330
18
100
AcDbEntity
  8
1
  6
Continuous
100
AcDbLine
 10
42.84026914782272
 20
118.9839435441073
 30
0.0
 11
43.19852819749292
 21
119.190784502874
 31
0.0
  0
LINE
  5
25C8
330
18
100
AcDbEntity
  8
1
  6
Continuous
100
AcDbLine
 10
31.84026914783976
 20
113.0467725005564
 30
0.0
 11
32.19852819749297
 21
112.8399315417995
 31
0.0
  0
LINE
  5
25CC
330
18
100
AcDbEntity
  8
4
  6
CENTER
 48
0.3
100
AcDbLine
 10
214.4477118826944
 20
125.5416374639457
 30
0.0
 11
185.4477118826944
 21
125.5416374639457
 31
0.0
  0
LINE
  5
25CD
330
18
100
AcDbEntity
  8
4
  6
CENTER
 48
0.3
100
AcDbLine
 10
199.9477118826944
 20
140.0416374639458
 30
0.0
 11
199.9477118826944
 21
111.0416374639457
 31
0.0
  0
LINE
  5
25D9
330
18
100
AcDbEntity
  8
4
  6
CENTER
 48
0.3
100
AcDbLine
 10
139.8574672394999
 20
205.5416374639456
 30
0.0
 11
160.6574672394999
 21
205.5416374639456
 31
0.0
  0
LINE
  5
25DA
330
18
100
AcDbEntity
  8
4
  6
CENTER
 48
0.3
100
AcDbLine
 10
139.8574672394999
 20
125.5416374640021
 30
0.0
 11
160.6574672394999
 21
125.5416374640021
 31
0.0
  0
LINE
  5
25DB
330
18
100
AcDbEntity
  8
4
  6
CENTER
 48
0.3
100
AcDbLine
 10
139.8574672394999
 20
45.54163746394563
 30
0.0
 11
160.6574672394999
 21
45.54163746394567
 31
0.0
  0
LINE
  5
25DC
330
18
100
AcDbEntity
  8
4
  6
CENTER
 48
0.3
100
AcDbLine
 10
260.0379565258888
 20
125.5416374640021
 30
0.0
 11
239.2379565258888
 21
125.5416374640021
 31
0.0
  0
ARC
  5
25DD
330
18
100
AcDbEntity
  8
1
  6
Continuous
100
AcDbCircle
 10
273.7046231917088
 20
125.5416374640356
 30
0.0
 40
20.66666666581749
100
AcDbArc
 50
162.1034488703766
 51
197.8965511296202
  0
LINE
  5
25DE
330
18
100
AcDbEntity
  8
1
  6
Continuous
100
AcDbLine
 10
253.0379565258888
 20
114.541637463946
 30
0.0
 11
253.0379565258888
 21
136.5416374639456
 31
0.0
  0
LINE
  5
25DF
330
18
100
AcDbEntity
  8
1
  6
Continuous
100
AcDbLine
 10
257.0379565258888
 20
138.2433433861065
 30
0.0
 11
257.0379565258888
 21
112.8399315418977
 31
0.0
  0
LINE
  5
25E0
330
18
100
AcDbEntity
  8
1
  6
Continuous
100
AcDbLine
 10
254.0379565258888
 20
112.8399315417851
 30
0.0
 11
253.0379565258887
 21
114.5416374639457
 31
0.0
  0
LINE
  5
25E1
330
18
100
AcDbEntity
  8
1
  6
Continuous
100
AcDbLine
 10
257.0379565258888
 20
112.8399315418975
 30
0.0
 11
254.0379565258238
 21
112.8399315418975
 31
0.0
  0
ARC
  5
25E2
330
18
100
AcDbEntity
  8
1
  6
Continuous
100
AcDbCircle
 10
269.1412731013838
 20
112.6893008853101
 30
0.0
 40
16.4432192957905
100
AcDbArc
 50
156.7097036817724
 51
168.3299559128212
  0
LINE
  5
25E3
330
18
100
AcDbEntity
  8
1
  6
Continuous
100
AcDbLine
 10
257.0379565258888
 20
119.1907845030837
 30
0.0
 11
254.0379565258888
 21
119.1907845029042
 31
0.0
  0
ARC
  5
25E4
330
18
100
AcDbEntity
  8
1
  6
Continuous
100
AcDbCircle
 10
269.1412731013838
 20
138.3939740425817
 30
0.0
 40
16.4432192957905
100
AcDbArc
 50
191.6700440871806
 51
203.2902963182305
  0
LINE
  5
25E5
330
18
100
AcDbEntity
  8
1
  6
Continuous
100
AcDbLine
 10
257.0379565258888
 20
131.8924904249876
 30
0.0
 11
254.0379565258888
 21
131.8924904249876
 31
0.0
  0
LINE
  5
25E6
330
18
100
AcDbEntity
  8
1
  6
Continuous
100
AcDbLine
 10
254.0379565258886
 20
138.2433433861067
 30
0.0
 11
253.0379565258887
 21
136.5416374639456
 31
0.0
  0
LINE
  5
25E7
330
18
100
AcDbEntity
  8
1
  6
Continuous
100
AcDbLine
 10
254.0379565258888
 20
138.2433433861065
 30
0.0
 11
257.0379565258888
 21
138.2433433861065
 31
0.0
  0
ARC
  5
25E8
330
18
100
AcDbEntity
  8
1
  6
Continuous
100
AcDbCircle
 10
252.7467163398612
 20
125.5416374639457
 30
0.0
 40
10.50875981397234
100
AcDbArc
 50
162.4120462261388
 51
197.5879537738267
  0
LINE
  5
25E9
330
18
100
AcDbEntity
  8
1
  6
Continuous
100
AcDbLine
 10
246.2379565258889
 20
119.0416374639456
 30
0.0
 11
246.2379565258889
 21
132.0416374639456
 31
0.0
  0
LINE
  5
25EA
330
18
100
AcDbEntity
  8
1
  6
Continuous
100
AcDbLine
 10
247.0379565258888
 20
119.0416374639456
 30
0.0
 11
247.0379565258888
 21
132.0416374639456
 31
0.0
  0
ARC
  5
25EB
330
18
100
AcDbEntity
  8
1
  6
Continuous
100
AcDbCircle
 10
235.7291967119166
 20
125.5416374639457
 30
0.0
 40
10.50875981397234
100
AcDbArc
 50
342.4120462261734
 51
17.58795377386117
  0
LINE
  5
25EC
330
18
100
AcDbEntity
  8
1
  6
Continuous
100
AcDbLine
 10
242.2379565258889
 20
131.0416374639541
 30
0.0
 11
242.2379565258889
 21
120.0416374639459
 31
0.0
  0
LINE
  5
25ED
330
18
100
AcDbEntity
  8
1
  6
Continuous
100
AcDbLine
 10
245.7467163397635
 20
119.1907845028557
 30
0.0
 11
242.7291967120155
 21
119.1907845028536
 31
0.0
  0
LINE
  5
25EE
330
18
100
AcDbEntity
  8
1
  6
Continuous
100
AcDbLine
 10
245.7467163397681
 20
122.3662109834042
 30
0.0
 11
242.7291967120097
 21
122.366210983403
 31
0.0
  0
ARC
  5
25EF
330
18
100
AcDbEntity
  8
1
  6
Continuous
100
AcDbCircle
 10
243.4265515026177
 20
120.7784977431257
 30
0.0
 40
2.811405023272465
100
AcDbArc
 50
334.3842474680282
 51
34.38424746793708
  0
LINE
  5
25F0
330
18
100
AcDbEntity
  8
1
  6
Continuous
100
AcDbLine
 10
246.23795652589
 20
120.0416374639481
 30
0.0
 11
245.746716339768
 21
119.1907845028636
 31
0.0
  0
LINE
  5
25F1
330
18
100
AcDbEntity
  8
1
  6
Continuous
100
AcDbLine
 10
247.0379565258888
 20
119.0416374639456
 30
0.0
 11
246.2379565258889
 21
119.0416374639456
 31
0.0
  0
LINE
  5
25F2
330
18
100
AcDbEntity
  8
1
  6
Continuous
100
AcDbLine
 10
242.2379565258877
 20
120.041637463948
 30
0.0
 11
242.7291967120097
 21
119.1907845028636
 31
0.0
  0
ARC
  5
25F3
330
18
100
AcDbEntity
  8
1
  6
Continuous
100
AcDbCircle
 10
245.0493615491602
 20
120.7784977431257
 30
0.0
 40
2.811405023272465
100
AcDbArc
 50
145.6157525320629
 51
205.6157525319718
  0
LINE
  5
25F4
330
18
100
AcDbEntity
  8
1
  6
Continuous
100
AcDbLine
 10
245.7467163397681
 20
128.717063944494
 30
0.0
 11
242.7291967120097
 21
128.7170639444944
 31
0.0
  0
LINE
  5
25F5
330
18
100
AcDbEntity
  8
1
  6
Continuous
100
AcDbLine
 10
245.7467163397682
 20
131.8924904250365
 30
0.0
 11
242.7291967120097
 21
131.8924904250367
 31
0.0
  0
ARC
  5
25F6
330
18
100
AcDbEntity
  8
1
  6
Continuous
100
AcDbCircle
 10
243.4265515026177
 20
130.3047771847655
 30
0.0
 40
2.811405023272465
100
AcDbArc
 50
325.6157525320629
 51
25.61575253197177
  0
LINE
  5
25F7
330
18
100
AcDbEntity
  8
1
  6
Continuous
100
AcDbLine
 10
246.2379565258901
 20
131.0416374639523
 30
0.0
 11
245.7467163397681
 21
131.8924904250368
 31
0.0
  0
LINE
  5
25F8
330
18
100
AcDbEntity
  8
1
  6
Continuous
100
AcDbLine
 10
246.2379565258889
 20
132.0416374639456
 30
0.0
 11
247.0379565258888
 21
132.0416374639456
 31
0.0
  0
ARC
  5
25F9
330
18
100
AcDbEntity
  8
1
  6
Continuous
100
AcDbCircle
 10
245.0493615491602
 20
130.3047771847655
 30
0.0
 40
2.811405023272465
100
AcDbArc
 50
154.3842474680282
 51
214.384247467937
  0
LINE
  5
25FA
330
18
100
AcDbEntity
  8
1
  6
Continuous
100
AcDbLine
 10
242.2379565258878
 20
131.0416374639522
 30
0.0
 11
242.7291967120098
 21
131.8924904250367
 31
0.0
  0
ARC
  5
2601
330
18
100
AcDbEntity
  8
1
  6
Continuous
100
AcDbCircle
 10
60.73948321985409
 20
204.4828386613571
 30
0.0
 40
1.0
100
AcDbArc
 50
290.6954507341793
 51
0.0
  0
ARC
  5
2602
330
18
100
AcDbEntity
  8
1
  6
Continuous
100
AcDbCircle
 10
60.73948321985409
 20
206.6004362665296
 30
0.0
 40
1.0
100
AcDbArc
 50
0.0
 51
69.30454926576036
  0
ENDSEC
  0
SECTION
  2
OBJECTS
  0
DICTIONARY
  5
C
330
0
100
AcDbDictionary
281
     1
  3
ACAD_CIP_PREVIOUS_PRODUCT_INFO
350
2662
  3
ACAD_COLOR
350
2645
  3
ACAD_DETAILVIEWSTYLE
350
265E
  3
ACAD_GROUP
350
D
  3
ACAD_LAYOUT
350
94
  3
ACAD_MATERIAL
350
2613
  3
ACAD_MLEADERSTYLE
350
265A
  3
ACAD_MLINESTYLE
350
1B
  3
ACAD_PLOTSETTINGS
350
95
  3
ACAD_PLOTSTYLENAME
350
2611
  3
ACAD_SCALELIST
350
2648
  3
ACAD_SECTIONVIEWSTYLE
350
265C
  3
ACAD_TABLESTYLE
350
2646
  3
ACAD_VISUALSTYLE
350
262C
  3
ACDB_RECOMPOSE_DATA
350
2680
  3
AcDbVariableDictionary
350
2673
  3
CONTENTDICTIONARY
350
3D
  3
DWGPROPS
350
2681
  0
DICTIONARY
  5
2663
330
E
100
AcDbDictionary
280
     1
281
     1
  3
ADSK_XREC_LAYER_RECONCILED
360
2664
  0
DICTIONARY
  5
2665
330
4E
100
AcDbDictionary
280
     1
281
     1
  3
ADSK_XREC_LAYER_RECONCILED
360
2666
  0
DICTIONARY
  5
2667
330
4F
100
AcDbDictionary
280
     1
281
     1
  3
ADSK_XREC_LAYER_RECONCILED
360
2668
  0
DICTIONARY
  5
2669
330
50
100
AcDbDictionary
280
     1
281
     1
  3
ADSK_XREC_LAYER_RECONCILED
360
266A
  0
DICTIONARY
  5
266B
330
51
100
AcDbDictionary
280
     1
281
     1
  3
ADSK_XREC_LAYER_RECONCILED
360
266C
  0
DICTIONARY
  5
266D
330
52
100
AcDbDictionary
280
     1
281
     1
  3
ADSK_XREC_LAYER_RECONCILED
360
266E
  0
DICTIONARY
  5
266F
330
53
100
AcDbDictionary
280
     1
281
     1
  3
ADSK_XREC_LAYER_RECONCILED
360
2670
  0
DICTIONARY
  5
2671
330
54
100
AcDbDictionary
280
     1
281
     1
  3
ADSK_XREC_LAYER_RECONCILED
360
2672
  0
DICTIONARY
  5
260C
330
18
100
AcDbDictionary
281
     1
  3
ACAD_LAYOUTSELFREF
350
260D
  0
DICTIONARY
  5
260A
330
15
100
AcDbDictionary
281
     1
  3
ACAD_LAYOUTSELFREF
350
260B
  0
XRECORD
  5
2662
102
{ACAD_REACTORS
330
C
102
}
330
C
100
AcDbXrecord
280
     1
300
ACDLT
300
2014
300
ACDLT_F_S
  0
DICTIONARY
  5
2645
102
{ACAD_REACTORS
330
C
102
}
330
C
100
AcDbDictionary
281
     1
  0
DICTIONARY
  5
265E
102
{ACAD_REACTORS
330
C
102
}
330
C
100
AcDbDictionary
281
     1
  3
Imperial24
350
265F
  0
DICTIONARY
  5
D
102
{ACAD_REACTORS
330
C
102
}
330
C
100
AcDbDictionary
281
     1
  0
DICTIONARY
  5
94
102
{ACAD_REACTORS
330
C
102
}
330
C
100
AcDbDictionary
281
     1
  3
Model
350
2660
  3
レイアウト1
350
2661
  0
DICTIONARY
  5
2613
102
{ACAD_REACTORS
330
C
102
}
330
C
100
AcDbDictionary
281
     1
  3
ByBlock
350
261C
  3
ByLayer
350
2614
  3
Global
350
2624
  0
DICTIONARY
  5
265A
102
{ACAD_REACTORS
330
C
102
}
330
C
100
AcDbDictionary
281
     1
  3
Standard
350
265B
  0
DICTIONARY
  5
1B
102
{ACAD_REACTORS
330
C
102
}
330
C
100
AcDbDictionary
281
     1
  3
STANDARD
350
1C
  0
DICTIONARY
  5
95
102
{ACAD_REACTORS
330
C
102
}
330
C
100
AcDbDictionary
281
     1
  0
ACDBDICTIONARYWDFLT
  5
2611
102
{ACAD_REACTORS
330
C
102
}
330
C
100
AcDbDictionary
281
     1
  3
Normal
350
2612
100
AcDbDictionaryWithDefault
340
2612
  0
DICTIONARY
  5
2648
102
{ACAD_REACTORS
330
C
102
}
330
C
100
AcDbDictionary
281
     1
  3
A0
350
2649
  3
A1
350
264A
  3
A2
350
264B
  3
A3
350
264C
  3
A4
350
264D
  3
A5
350
264E
  3
A6
350
264F
  3
A7
350
2650
  3
A8
350
2651
  3
A9
350
2652
  3
B0
350
2653
  3
B1
350
2654
  3
B2
350
2655
  3
B3
350
2656
  3
B4
350
2657
  3
B5
350
2658
  3
B6
350
2659
  0
DICTIONARY
  5
265C
102
{ACAD_REACTORS
330
C
102
}
330
C
100
AcDbDictionary
281
     1
  3
Imperial24
350
265D
  0
DICTIONARY
  5
2646
102
{ACAD_REACTORS
330
C
102
}
330
C
100
AcDbDictionary
281
     1
  3
Standard
350
2647
  0
DICTIONARY
  5
262C
102
{ACAD_REACTORS
330
C
102
}
330
C
100
AcDbDictionary
281
     1
  3
2dWireframe
350
2632
  3
Basic
350
2631
  3
Brighten
350
2638
  3
ColorChange
350
263C
  3
Conceptual
350
2635
  3
Dim
350
2637
  3
EdgeColorOff
350
2644
  3
Facepattern
350
263B
  3
Flat
350
262D
  3
FlatWithEdges
350
262E
  3
Gouraud
350
262F
  3
GouraudWithEdges
350
2630
  3
Hidden
350
2634
  3
JitterOff
350
2642
  3
Linepattern
350
263A
  3
OverhangOff
350
2643
  3
Realistic
350
2636
  3
Shaded
350
2641
  3
Shaded with edges
350
2640
  3
Shades of Gray
350
263D
  3
Sketchy
350
263E
  3
Thicken
350
2639
  3
Wireframe
350
2633
  3
X-Ray
350
263F
  0
XRECORD
  5
2680
102
{ACAD_REACTORS
330
C
102
}
330
C
100
AcDbXrecord
280
     1
 90
        1
330
2647
  0
DICTIONARY
  5
2673
102
{ACAD_REACTORS
330
C
102
}
330
C
100
AcDbDictionary
281
     1
  3
CANNOSCALE
350
2678
  3
CMLEADERSTYLE
350
2675
  3
CTABLESTYLE
350
2674
  3
CVIEWDETAILSTYLE
350
2676
  3
CVIEWSECTIONSTYLE
350
2677
  3
DIMASSOC
350
267B
  3
INDEXCTL
350
267A
  3
SORTENTS
350
2679
  3
XCLIPFRAME
350
267C
  0
DICTIONARY
  5
3D
102
{ACAD_REACTORS
330
C
102
}
330
C
100
AcDbDictionary
281
     1
  0
XRECORD
  5
2681
102
{ACAD_REACTORS
330
C
102
}
330
C
100
AcDbXrecord
280
     1
  1
DWGPROPS COOKIE
  2

  3

  4

  6

  7

  8
Yoshitsune
  9

300
=
301
=
302
=
303
=
304
=
305
=
306
=
307
=
308
=
309
=
 40
0.1395026967592592
 41
2454525.396254514
 42
2457192.602387546
  1

 90
        0
  0
XRECORD
  5
2664
102
{ACAD_REACTORS
330
2663
102
}
330
2663
100
AcDbXrecord
280
     1
290
     1
  0
XRECORD
  5
2666
102
{ACAD_REACTORS
330
2665
102
}
330
2665
100
AcDbXrecord
280
     1
290
     1
  0
XRECORD
  5
2668
102
{ACAD_REACTORS
330
2667
102
}
330
2667
100
AcDbXrecord
280
     1
290
     1
  0
XRECORD
  5
266A
102
{ACAD_REACTORS
330
2669
102
}
330
2669
100
AcDbXrecord
280
     1
290
     1
  0
XRECORD
  5
266C
102
{ACAD_REACTORS
330
266B
102
}
330
266B
100
AcDbXrecord
280
     1
290
     1
  0
XRECORD
  5
266E
102
{ACAD_REACTORS
330
266D
102
}
330
266D
100
AcDbXrecord
280
     1
290
     1
  0
XRECORD
  5
2670
102
{ACAD_REACTORS
330
266F
102
}
330
266F
100
AcDbXrecord
280
     1
290
     1
  0
XRECORD
  5
2672
102
{ACAD_REACTORS
330
2671
102
}
330
2671
100
AcDbXrecord
280
     1
290
     1
  0
XRECORD
  5
260D
102
{ACAD_REACTORS
330
260C
102
}
330
260C
100
AcDbXrecord
280
     1
340
18
  0
XRECORD
  5
260B
102
{ACAD_REACTORS
330
260A
102
}
330
260A
100
AcDbXrecord
280
     1
340
15
  0
ACDBDETAILVIEWSTYLE
  5
265F
102
{ACAD_XDICTIONARY
360
26B9
102
}
102
{ACAD_REACTORS
330
265E
102
}
330
265E
100
AcDbModelDocViewStyle
 70
     0
  3
Imperial24
290
     0
100
AcDbDetailViewStyle
 70
     0
 71
     0
 90
        3
 71
     1
340
F
 40
0.24
340
0
 40
0.24
300

 40
0.36
280
     3
 71
     2
340
14
 90
       25
 71
     3
340
F
 40
0.24
 90
        1
 40
0.75
 90
        1
300
%<\AcVar ViewType \f "%tc1">% %<\AcVar ViewDetailId>%\PSCALE %<\AcVar ViewScale \f "%sn">%
 71
     4
340
14
 90
       25
340
14
 90
       25
280
     0
  0
LAYOUT
  5
2660
102
{ACAD_XDICTIONARY
360
26BB
102
}
102
{ACAD_REACTORS
330
94
102
}
330
94
100
AcDbPlotSettings
  1

  2
Canon LBP9100C
  4

  6

 40
0.0
 41
0.0
 42
0.0
 43
0.0
 44
0.0
 45
0.0
 46
0.0
 47
0.0
 48
0.0
 49
0.0
140
0.0
141
0.0
142
1.0
143
1.0
 70
  1712
 72
     0
 73
     0
 74
     0
  7

 75
     0
147
1.0
148
0.0
149
0.0
100
AcDbLayout
  1
Model
 70
     1
 71
     0
 10
0.0
 20
0.0
 11
12.0
 21
9.0
 12
0.0
 22
0.0
 32
0.0
 14
0.0
 24
0.0
 34
0.0
 15
0.0
 25
0.0
 35
0.0
146
0.0
 13
0.0
 23
0.0
 33
0.0
 16
1.0
 26
0.0
 36
0.0
 17
0.0
 27
1.0
 37
0.0
 76
     0
330
18
331
2609
  0
LAYOUT
  5
2661
102
{ACAD_XDICTIONARY
360
26BD
102
}
102
{ACAD_REACTORS
330
94
102
}
330
94
100
AcDbPlotSettings
  1

  2
Canon LBP9100C
  4

  6

 40
0.0
 41
0.0
 42
0.0
 43
0.0
 44
0.0
 45
0.0
 46
0.0
 47
0.0
 48
0.0
 49
0.0
140
0.0
141
0.0
142
1.0
143
1.0
 70
   688
 72
     0
 73
     0
 74
     5
  7

 75
    16
147
1.0
148
0.0
149
0.0
100
AcDbLayout
  1
レイアウト1
 70
     1
 71
     1
 10
0.0
 20
0.0
 11
420.0
 21
297.0
 12
0.0
 22
0.0
 32
0.0
 14
1.000000000000000E+20
 24
1.000000000000000E+20
 34
1.000000000000000E+20
 15
-1.000000000000000E+20
 25
-1.000000000000000E+20
 35
-1.000000000000000E+20
146
0.0
 13
0.0
 23
0.0
 33
0.0
 16
1.0
 26
0.0
 36
0.0
 17
0.0
 27
1.0
 37
0.0
 76
     0
330
15
  0
MATERIAL
  5
261C
102
{ACAD_XDICTIONARY
360
261D
102
}
102
{ACAD_REACTORS
330
2613
102
}
330
2613
100
AcDbMaterial
  1
ByBlock
 72
     0
 43
0.0208333333333333
 43
0.0
 43
0.0
 43
0.0
 43
0.0
 43
0.0208333333333333
 43
0.0
 43
0.0
 43
0.0
 43
0.0
 43
1.0
 43
0.0
 43
0.0
 43
0.0
 43
0.0
 43
1.0
 77
     0
 47
0.0208333333333333
 47
0.0
 47
0.0
 47
0.0
 47
0.0
 47
0.0208333333333333
 47
0.0
 47
0.0
 47
0.0
 47
0.0
 47
1.0
 47
0.0
 47
0.0
 47
0.0
 47
0.0
 47
1.0
171
     0
 49
0.0208333333333333
 49
0.0
 49
0.0
 49
0.0
 49
0.0
 49
0.0208333333333333
 49
0.0
 49
0.0
 49
0.0
 49
0.0
 49
1.0
 49
0.0
 49
0.0
 49
0.0
 49
0.0
 49
1.0
175
     0
142
0.0208333333333333
142
0.0
142
0.0
142
0.0
142
0.0
142
0.0208333333333333
142
0.0
142
0.0
142
0.0
142
0.0
142
1.0
142
0.0
142
0.0
142
0.0
142
0.0
142
1.0
179
     0
144
0.0208333333333333
144
0.0
144
0.0
144
0.0
144
0.0
144
0.0208333333333333
144
0.0
144
0.0
144
0.0
144
0.0
144
1.0
144
0.0
144
0.0
144
0.0
144
0.0
144
1.0
147
0.0208333333333333
147
0.0
147
0.0
147
0.0
147
0.0
147
0.0208333333333333
147
0.0
147
0.0
147
0.0
147
0.0
147
1.0
147
0.0
147
0.0
147
0.0
147
0.0
147
1.0
  0
MATERIAL
  5
2614
102
{ACAD_XDICTIONARY
360
2615
102
}
102
{ACAD_REACTORS
330
2613
102
}
330
2613
100
AcDbMaterial
  1
ByLayer
 72
     0
 43
0.0208333333333333
 43
0.0
 43
0.0
 43
0.0
 43
0.0
 43
0.0208333333333333
 43
0.0
 43
0.0
 43
0.0
 43
0.0
 43
1.0
 43
0.0
 43
0.0
 43
0.0
 43
0.0
 43
1.0
 77
     0
 47
0.0208333333333333
 47
0.0
 47
0.0
 47
0.0
 47
0.0
 47
0.0208333333333333
 47
0.0
 47
0.0
 47
0.0
 47
0.0
 47
1.0
 47
0.0
 47
0.0
 47
0.0
 47
0.0
 47
1.0
171
     0
 49
0.0208333333333333
 49
0.0
 49
0.0
 49
0.0
 49
0.0
 49
0.0208333333333333
 49
0.0
 49
0.0
 49
0.0
 49
0.0
 49
1.0
 49
0.0
 49
0.0
 49
0.0
 49
0.0
 49
1.0
175
     0
142
0.0208333333333333
142
0.0
142
0.0
142
0.0
142
0.0
142
0.0208333333333333
142
0.0
142
0.0
142
0.0
142
0.0
142
1.0
142
0.0
142
0.0
142
0.0
142
0.0
142
1.0
179
     0
144
0.0208333333333333
144
0.0
144
0.0
144
0.0
144
0.0
144
0.0208333333333333
144
0.0
144
0.0
144
0.0
144
0.0
144
1.0
144
0.0
144
0.0
144
0.0
144
0.0
144
1.0
147
0.0208333333333333
147
0.0
147
0.0
147
0.0
147
0.0
147
0.0208333333333333
147
0.0
147
0.0
147
0.0
147
0.0
147
1.0
147
0.0
147
0.0
147
0.0
147
0.0
147
1.0
  0
MATERIAL
  5
2624
102
{ACAD_XDICTIONARY
360
2625
102
}
102
{ACAD_REACTORS
330
2613
102
}
330
2613
100
AcDbMaterial
  1
Global
 72
     0
 43
0.0208333333333333
 43
0.0
 43
0.0
 43
0.0
 43
0.0
 43
0.0208333333333333
 43
0.0
 43
0.0
 43
0.0
 43
0.0
 43
1.0
 43
0.0
 43
0.0
 43
0.0
 43
0.0
 43
1.0
 77
     0
 47
0.0208333333333333
 47
0.0
 47
0.0
 47
0.0
 47
0.0
 47
0.0208333333333333
 47
0.0
 47
0.0
 47
0.0
 47
0.0
 47
1.0
 47
0.0
 47
0.0
 47
0.0
 47
0.0
 47
1.0
171
     0
 49
0.0208333333333333
 49
0.0
 49
0.0
 49
0.0
 49
0.0
 49
0.0208333333333333
 49
0.0
 49
0.0
 49
0.0
 49
0.0
 49
1.0
 49
0.0
 49
0.0
 49
0.0
 49
0.0
 49
1.0
175
     0
142
0.0208333333333333
142
0.0
142
0.0
142
0.0
142
0.0
142
0.0208333333333333
142
0.0
142
0.0
142
0.0
142
0.0
142
1.0
142
0.0
142
0.0
142
0.0
142
0.0
142
1.0
179
     0
144
0.0208333333333333
144
0.0
144
0.0
144
0.0
144
0.0
144
0.0208333333333333
144
0.0
144
0.0
144
0.0
144
0.0
144
1.0
144
0.0
144
0.0
144
0.0
144
0.0
144
1.0
147
0.0208333333333333
147
0.0
147
0.0
147
0.0
147
0.0
147
0.0208333333333333
147
0.0
147
0.0
147
0.0
147
0.0
147
1.0
147
0.0
147
0.0
147
0.0
147
0.0
147
1.0
  0
MLEADERSTYLE
  5
265B
102
{ACAD_REACTORS
330
265A
102
}
330
265A
100
AcDbMLeaderStyle
170
     2
171
     1
172
     0
 90
        2
 40
0.0
 41
0.0
173
     1
 91
-1056964608
340
12
 92
       -2
290
     1
 42
0.09
291
     1
 43
0.36
  3
Standard
 44
0.18
300

342
F
174
     1
178
     6
175
     1
176
     0
 93
-1056964608
 45
0.18
292
     0
297
     0
 46
0.18
 94
-1056964608
 47
1.0
 49
1.0
140
1.0
293
     1
141
0.0
294
     1
177
     0
142
1.0
295
     0
296
     0
143
0.125
1001
ACAD_MLEADERVER
1070
     2
  0
MLINESTYLE
  5
1C
102
{ACAD_REACTORS
330
1B
102
}
330
1B
100
AcDbMlineStyle
  2
STANDARD
 70
     0
  3

 62
   256
 51
90.0
 52
90.0
 71
     2
 49
0.5
 62
   256
  6
BYLAYER
 49
-0.5
 62
   256
  6
BYLAYER
  0
ACDBPLACEHOLDER
  5
2612
102
{ACAD_REACTORS
330
2611
102
}
330
2611
  0
SCALE
  5
2649
102
{ACAD_REACTORS
330
2648
102
}
330
2648
100
AcDbScale
 70
     0
300
1:1
140
1.0
141
1.0
290
     1
  0
SCALE
  5
264A
102
{ACAD_REACTORS
330
2648
102
}
330
2648
100
AcDbScale
 70
     0
300
1/128" = 1'-0"
140
0.0078125
141
12.0
290
     0
  0
SCALE
  5
264B
102
{ACAD_REACTORS
330
2648
102
}
330
2648
100
AcDbScale
 70
     0
300
1/64" = 1'-0"
140
0.015625
141
12.0
290
     0
  0
SCALE
  5
264C
102
{ACAD_REACTORS
330
2648
102
}
330
2648
100
AcDbScale
 70
     0
300
1/32" = 1'-0"
140
0.03125
141
12.0
290
     0
  0
SCALE
  5
264D
102
{ACAD_REACTORS
330
2648
102
}
330
2648
100
AcDbScale
 70
     0
300
1/16" = 1'-0"
140
0.0625
141
12.0
290
     0
  0
SCALE
  5
264E
102
{ACAD_REACTORS
330
2648
102
}
330
2648
100
AcDbScale
 70
     0
300
3/32" = 1'-0"
140
0.09375
141
12.0
290
     0
  0
SCALE
  5
264F
102
{ACAD_REACTORS
330
2648
102
}
330
2648
100
AcDbScale
 70
     0
300
1/8" = 1'-0"
140
0.125
141
12.0
290
     0
  0
SCALE
  5
2650
102
{ACAD_REACTORS
330
2648
102
}
330
2648
100
AcDbScale
 70
     0
300
3/16" = 1'-0"
140
0.1875
141
12.0
290
     0
  0
SCALE
  5
2651
102
{ACAD_REACTORS
330
2648
102
}
330
2648
100
AcDbScale
 70
     0
300
1/4" = 1'-0"
140
0.25
141
12.0
290
     0
  0
SCALE
  5
2652
102
{ACAD_REACTORS
330
2648
102
}
330
2648
100
AcDbScale
 70
     0
300
3/8" = 1'-0"
140
0.375
141
12.0
290
     0
  0
SCALE
  5
2653
102
{ACAD_REACTORS
330
2648
102
}
330
2648
100
AcDbScale
 70
     0
300
1/2" = 1'-0"
140
0.5
141
12.0
290
     0
  0
SCALE
  5
2654
102
{ACAD_REACTORS
330
2648
102
}
330
2648
100
AcDbScale
 70
     0
300
3/4" = 1'-0"
140
0.75
141
12.0
290
     0
  0
SCALE
  5
2655
102
{ACAD_REACTORS
330
2648
102
}
330
2648
100
AcDbScale
 70
     0
300
1" = 1'-0"
140
1.0
141
12.0
290
     0
  0
SCALE
  5
2656
102
{ACAD_REACTORS
330
2648
102
}
330
2648
100
AcDbScale
 70
     0
300
1-1/2" = 1'-0"
140
1.5
141
12.0
290
     0
  0
SCALE
  5
2657
102
{ACAD_REACTORS
330
2648
102
}
330
2648
100
AcDbScale
 70
     0
300
3" = 1'-0"
140
3.0
141
12.0
290
     0
  0
SCALE
  5
2658
102
{ACAD_REACTORS
330
2648
102
}
330
2648
100
AcDbScale
 70
     0
300
6" = 1'-0"
140
6.0
141
12.0
290
     0
  0
SCALE
  5
2659
102
{ACAD_REACTORS
330
2648
102
}
330
2648
100
AcDbScale
 70
     0
300
1'-0" = 1'-0"
140
12.0
141
12.0
290
     0
  0
ACDBSECTIONVIEWSTYLE
  5
265D
102
{ACAD_XDICTIONARY
360
26B7
102
}
102
{ACAD_REACTORS
330
265C
102
}
330
265C
100
AcDbModelDocViewStyle
 70
     0
  3
Imperial24
290
     0
100
AcDbSectionViewStyle
 70
     0
 71
     0
 90
       78
 71
     1
340
F
 40
0.24
340
0
340
0
 40
0.24
300
I, O, Q, S, X, Z
 40
0.48
 90
        3
 40
0.18
 90
        1
 71
     2
340
14
 90
       25
340
14
 90
       50
 40
0.24
 40
0.0
 40
0.24
 71
     3
340
F
 40
0.24
 90
        1
 40
0.75
 90
        1
300
%<\AcVar ViewType \f "%tc1">% %<\AcVar ViewSectionStartId>%-%<\AcVar ViewSectionEndId>%\PSCALE %<\AcVar ViewScale \f "%sn">%
 71
     4
300
ANSI31
 40
1.0
 90
        0
290
     0
290
     0
 90
        6
 40
0.0
 40
1.570796326794896
 40
0.2617993877991494
 40
1.308996938995747
 40
-0.2617993877991494
 40
1.832595714594046
  0
TABLESTYLE
  5
2647
102
{ACAD_XDICTIONARY
360
267E
102
}
102
{ACAD_REACTORS
330
2646
102
}
330
2646
100
AcDbTableStyle
  3
Standard
 70
     0
 71
     0
 40
0.06
 41
0.06
280
     0
281
     0
  7
STANDARD
140
0.18
170
     2
 62
     0
 63
     7
283
     0
274
    -2
284
     1
 64
     0
275
    -2
285
     1
 65
     0
276
    -2
286
     1
 66
     0
277
    -2
287
     1
 67
     0
278
    -2
288
     1
 68
     0
279
    -2
289
     1
 69
     0
  7
STANDARD
140
0.25
170
     5
 62
     0
 63
     7
283
     0
274
    -2
284
     1
 64
     0
275
    -2
285
     1
 65
     0
276
    -2
286
     1
 66
     0
277
    -2
287
     1
 67
     0
278
    -2
288
     1
 68
     0
279
    -2
289
     1
 69
     0
  7
STANDARD
140
0.18
170
     5
 62
     0
 63
     7
283
     0
274
    -2
284
     1
 64
     0
275
    -2
285
     1
 65
     0
276
    -2
286
     1
 66
     0
277
    -2
287
     1
 67
     0
278
    -2
288
     1
 68
     0
279
    -2
289
     1
 69
     0
  0
VISUALSTYLE
  5
2632
102
{ACAD_XDICTIONARY
360
268F
102
}
102
{ACAD_REACTORS
330
262C
102
}
330
262C
100
AcDbVisualStyle
  2
2dWireframe
 70
     4
 71
     0
 72
     2
 73
     0
 90
        0
 40
-0.6
 41
-30.0
 62
     5
 63
     7
 74
     1
 91
        4
 64
     7
 65
   257
 75
     1
175
     1
 42
1.0
 92
        0
 66
   257
 43
1.0
 76
     1
 77
     6
 78
     2
 67
     7
 79
     5
170
     0
171
     0
290
     0
174
     0
 93
        1
 44
0.0
173
     0
291
     0
 45
0.0
1001
ACAD
1000
AcDbSavedByObjectVersion
1070
     0
  0
VISUALSTYLE
  5
2631
102
{ACAD_XDICTIONARY
360
268D
102
}
102
{ACAD_REACTORS
330
262C
102
}
330
262C
100
AcDbVisualStyle
  2
Basic
 70
     7
 71
     1
 72
     0
 73
     1
 90
        0
 40
-0.6
 41
-30.0
 62
     5
 63
     7
 74
     0
 91
        4
 64
     7
 65
   257
 75
     1
175
     1
 42
1.0
 92
        8
 66
     7
 43
1.0
 76
     1
 77
     6
 78
     2
 67
     7
 79
     5
170
     0
171
     0
290
     0
174
     0
 93
        1
 44
0.0
173
     0
291
     1
 45
0.0
1001
ACAD
1000
AcDbSavedByObjectVersion
1070
     0
  0
VISUALSTYLE
  5
2638
102
{ACAD_XDICTIONARY
360
269B
102
}
102
{ACAD_REACTORS
330
262C
102
}
330
262C
100
AcDbVisualStyle
  2
Brighten
 70
    12
 71
     2
 72
     2
 73
     0
 90
        0
 40
-0.6
 41
-30.0
 62
     5
 63
     7
 74
     1
 91
        4
 64
     7
 65
   257
 75
     1
175
     1
 42
1.0
 92
        8
 66
     7
 43
1.0
 76
     1
 77
     6
 78
     2
 67
     7
 79
     5
170
     0
171
     0
290
     0
174
     0
 93
        1
 44
50.0
173
     0
291
     1
 45
0.0
1001
ACAD
1000
AcDbSavedByObjectVersion
1070
     0
  0
VISUALSTYLE
  5
263C
102
{ACAD_XDICTIONARY
360
26A3
102
}
102
{ACAD_REACTORS
330
262C
102
}
330
262C
100
AcDbVisualStyle
  2
ColorChange
 70
    16
 71
     2
 72
     2
 73
     3
 90
        0
 40
-0.6
 41
-30.0
 62
     5
 63
     8
 74
     1
 91
        4
 64
     7
 65
   257
 75
     1
175
     1
 42
1.0
 92
        8
 66
     8
 43
1.0
 76
     1
 77
     6
 78
     2
 67
     7
 79
     5
170
     0
171
     0
290
     0
174
     0
 93
        1
 44
0.0
173
     0
291
     1
 45
0.0
1001
ACAD
1000
AcDbSavedByObjectVersion
1070
     0
  0
VISUALSTYLE
  5
2635
102
{ACAD_XDICTIONARY
360
2695
102
}
102
{ACAD_REACTORS
330
262C
102
}
330
262C
100
AcDbVisualStyle
  2
Conceptual
 70
     9
 71
     3
 72
     2
 73
     0
 90
        0
 40
-0.6
 41
-30.0
 62
     5
 63
     7
 74
     2
 91
        2
 64
     7
 65
   257
 75
     1
175
     1
 42
179.0
 92
        8
 66
     7
 43
1.0
 76
     1
 77
     6
 78
     2
 67
     7
 79
     3
170
     0
171
     0
290
     0
174
     0
 93
        1
 44
0.0
173
     0
291
     0
 45
0.0
1001
ACAD
1000
AcDbSavedByObjectVersion
1070
     0
  0
VISUALSTYLE
  5
2637
102
{ACAD_XDICTIONARY
360
2699
102
}
102
{ACAD_REACTORS
330
262C
102
}
330
262C
100
AcDbVisualStyle
  2
Dim
 70
    11
 71
     2
 72
     2
 73
     0
 90
        0
 40
-0.6
 41
-30.0
 62
     5
 63
     7
 74
     1
 91
        4
 64
     7
 65
   257
 75
     1
175
     1
 42
1.0
 92
        8
 66
     7
 43
1.0
 76
     1
 77
     6
 78
     2
 67
     7
 79
     5
170
     0
171
     0
290
     0
174
     0
 93
        1
 44
-50.0
173
     0
291
     1
 45
0.0
1001
ACAD
1000
AcDbSavedByObjectVersion
1070
     0
  0
VISUALSTYLE
  5
2644
102
{ACAD_XDICTIONARY
360
26B3
102
}
102
{ACAD_REACTORS
330
262C
102
}
330
262C
100
AcDbVisualStyle
  2
EdgeColorOff
 70
    22
 71
     2
 72
     2
 73
     0
 90
        0
 40
-0.6
 41
-30.0
 62
     5
 63
     7
 74
     1
 91
        4
 64
     7
 65
   257
 75
     1
175
     1
 42
1.0
 92
        8
 66
     7
 43
1.0
 76
     1
 77
     6
 78
     2
 67
     7
 79
     5
170
     0
171
     0
290
     0
174
     0
 93
        1
 44
0.0
173
     0
291
     1
 45
0.0
1001
ACAD
1000
AcDbSavedByObjectVersion
1070
     0
  0
VISUALSTYLE
  5
263B
102
{ACAD_XDICTIONARY
360
26A1
102
}
102
{ACAD_REACTORS
330
262C
102
}
330
262C
100
AcDbVisualStyle
  2
Facepattern
 70
    15
 71
     2
 72
     2
 73
     0
 90
        0
 40
-0.6
 41
-30.0
 62
     5
 63
     7
 74
     1
 91
        4
 64
     7
 65
   257
 75
     1
175
     1
 42
1.0
 92
        8
 66
     7
 43
1.0
 76
     1
 77
     6
 78
     2
 67
     7
 79
     5
170
     0
171
     0
290
     0
174
     0
 93
        1
 44
0.0
173
     0
291
     1
 45
0.0
1001
ACAD
1000
AcDbSavedByObjectVersion
1070
     0
  0
VISUALSTYLE
  5
262D
102
{ACAD_XDICTIONARY
360
2685
102
}
102
{ACAD_REACTORS
330
262C
102
}
330
262C
100
AcDbVisualStyle
  2
Flat
 70
     0
 71
     2
 72
     1
 73
     1
 90
        2
 40
-0.6
 41
30.0
 62
     5
 63
     7
 74
     0
 91
        0
 64
     7
 65
   257
 75
     1
175
     1
 42
1.0
 92
        8
 66
     7
 43
1.0
 76
     1
 77
     6
 78
     2
 67
     7
 79
     5
170
     0
171
     0
290
     0
174
     0
 93
       13
 44
0.0
173
     0
291
     1
 45
0.0
1001
ACAD
1000
AcDbSavedByObjectVersion
1070
     0
  0
VISUALSTYLE
  5
262E
102
{ACAD_XDICTIONARY
360
2687
102
}
102
{ACAD_REACTORS
330
262C
102
}
330
262C
100
AcDbVisualStyle
  2
FlatWithEdges
 70
     1
 71
     2
 72
     1
 73
     1
 90
        2
 40
-0.6
 41
30.0
 62
     5
 63
     7
 74
     1
 91
        0
 64
     7
 65
   257
 75
     1
175
     1
 42
1.0
 92
        0
 66
   257
 43
1.0
 76
     1
 77
     6
 78
     2
 67
     7
 79
     5
170
     0
171
     0
290
     0
174
     0
 93
       13
 44
0.0
173
     0
291
     1
 45
0.0
1001
ACAD
1000
AcDbSavedByObjectVersion
1070
     0
  0
VISUALSTYLE
  5
262F
102
{ACAD_XDICTIONARY
360
2689
102
}
102
{ACAD_REACTORS
330
262C
102
}
330
262C
100
AcDbVisualStyle
  2
Gouraud
 70
     2
 71
     2
 72
     2
 73
     1
 90
        2
 40
-0.6
 41
30.0
 62
     5
 63
     7
 74
     0
 91
        0
 64
     7
 65
   257
 75
     1
175
     1
 42
1.0
 92
        0
 66
     7
 43
1.0
 76
     1
 77
     6
 78
     2
 67
     7
 79
     5
170
     0
171
     0
290
     0
174
     0
 93
       13
 44
0.0
173
     0
291
     1
 45
0.0
1001
ACAD
1000
AcDbSavedByObjectVersion
1070
     0
  0
VISUALSTYLE
  5
2630
102
{ACAD_XDICTIONARY
360
268B
102
}
102
{ACAD_REACTORS
330
262C
102
}
330
262C
100
AcDbVisualStyle
  2
GouraudWithEdges
 70
     3
 71
     2
 72
     2
 73
     1
 90
        2
 40
-0.6
 41
30.0
 62
     5
 63
     7
 74
     1
 91
        0
 64
     7
 65
   257
 75
     1
175
     1
 42
1.0
 92
        0
 66
   257
 43
1.0
 76
     1
 77
     6
 78
     2
 67
     7
 79
     5
170
     0
171
     0
290
     0
174
     0
 93
       13
 44
0.0
173
     0
291
     1
 45
0.0
1001
ACAD
1000
AcDbSavedByObjectVersion
1070
     0
  0
VISUALSTYLE
  5
2634
102
{ACAD_XDICTIONARY
360
2693
102
}
102
{ACAD_REACTORS
330
262C
102
}
330
262C
100
AcDbVisualStyle
  2
Hidden
 70
     6
 71
     1
 72
     2
 73
     2
 90
        0
 40
-0.6
 41
-30.0
 62
     5
 63
     7
 74
     2
 91
        2
 64
     7
 65
   257
 75
     2
175
     1
 42
40.0
 92
        0
 66
   257
 43
1.0
 76
     1
 77
     6
 78
     2
 67
     7
 79
     3
170
     0
171
     0
290
     0
174
     0
 93
        1
 44
0.0
173
     0
291
     0
 45
0.0
1001
ACAD
1000
AcDbSavedByObjectVersion
1070
     0
  0
VISUALSTYLE
  5
2642
102
{ACAD_XDICTIONARY
360
26AF
102
}
102
{ACAD_REACTORS
330
262C
102
}
330
262C
100
AcDbVisualStyle
  2
JitterOff
 70
    20
 71
     2
 72
     2
 73
     0
 90
        0
 40
-0.6
 41
-30.0
 62
     5
 63
     7
 74
     1
 91
        4
 64
     7
 65
   257
 75
     1
175
     1
 42
1.0
 92
       10
 66
     7
 43
1.0
 76
     1
 77
     6
 78
     2
 67
     7
 79
     5
170
     0
171
     0
290
     0
174
     0
 93
        1
 44
0.0
173
     0
291
     1
 45
0.0
1001
ACAD
1000
AcDbSavedByObjectVersion
1070
     0
  0
VISUALSTYLE
  5
263A
102
{ACAD_XDICTIONARY
360
269F
102
}
102
{ACAD_REACTORS
330
262C
102
}
330
262C
100
AcDbVisualStyle
  2
Linepattern
 70
    14
 71
     2
 72
     2
 73
     0
 90
        0
 40
-0.6
 41
-30.0
 62
     5
 63
     7
 74
     1
 91
        4
 64
     7
 65
   257
 75
     7
175
     7
 42
1.0
 92
        8
 66
     7
 43
1.0
 76
     1
 77
     6
 78
     2
 67
     7
 79
     5
170
     0
171
     0
290
     0
174
     0
 93
        1
 44
0.0
173
     0
291
     1
 45
0.0
1001
ACAD
1000
AcDbSavedByObjectVersion
1070
     0
  0
VISUALSTYLE
  5
2643
102
{ACAD_XDICTIONARY
360
26B1
102
}
102
{ACAD_REACTORS
330
262C
102
}
330
262C
100
AcDbVisualStyle
  2
OverhangOff
 70
    21
 71
     2
 72
     2
 73
     0
 90
        0
 40
-0.6
 41
-30.0
 62
     5
 63
     7
 74
     1
 91
        4
 64
     7
 65
   257
 75
     1
175
     1
 42
1.0
 92
        9
 66
     7
 43
1.0
 76
     1
 77
     6
 78
     2
 67
     7
 79
     5
170
     0
171
     0
290
     0
174
     0
 93
        1
 44
0.0
173
     0
291
     1
 45
0.0
1001
ACAD
1000
AcDbSavedByObjectVersion
1070
     0
  0
VISUALSTYLE
  5
2636
102
{ACAD_XDICTIONARY
360
2697
102
}
102
{ACAD_REACTORS
330
262C
102
}
330
262C
100
AcDbVisualStyle
  2
Realistic
 70
     8
 71
     2
 72
     3
 73
     0
 90
        2
 40
-0.6
 41
30.0
 62
     5
 63
     7
 74
     0
 91
        0
 64
     7
 65
   257
 75
     1
175
     1
 42
1.0
 92
        8
 66
   257
 43
1.0
 76
     1
 77
     6
 78
     2
 67
     7
 79
     3
170
     0
171
     0
290
     0
174
     0
 93
       13
 44
0.0
173
     0
291
     0
 45
0.0
1001
ACAD
1000
AcDbSavedByObjectVersion
1070
     0
  0
VISUALSTYLE
  5
2641
102
{ACAD_XDICTIONARY
360
26AD
102
}
102
{ACAD_REACTORS
330
262C
102
}
330
262C
100
AcDbVisualStyle
  2
Shaded
 70
    27
 71
     2
 72
     2
 73
     1
 90
        2
 40
-0.6
 41
30.0
 62
     5
 63
     7
 74
     0
 91
        4
 64
     7
 65
   257
 75
     1
175
     1
 42
1.0
 92
        8
 66
   257
 43
1.0
 76
     1
 77
     6
 78
     2
 67
     8
 79
     3
170
     0
171
     0
290
     0
174
     0
 93
        5
 44
0.0
173
     0
291
     0
 45
0.0
1001
ACAD
1000
AcDbSavedByObjectVersion
1070
     0
  0
VISUALSTYLE
  5
2640
102
{ACAD_XDICTIONARY
360
26AB
102
}
102
{ACAD_REACTORS
330
262C
102
}
330
262C
100
AcDbVisualStyle
  2
Shaded with edges
 70
    26
 71
     2
 72
     2
 73
     1
 90
        2
 40
-0.6
 41
30.0
 62
     5
 63
     7
 74
     1
 91
       10
 64
     7
 65
   257
 75
     2
175
     1
 42
1.0
 92
        8
 66
   257
 43
1.0
 76
     1
 77
     6
 78
     2
 67
     7
 79
     3
170
     0
171
     0
290
     0
174
     0
 93
        5
 44
0.0
173
     0
291
     0
 45
0.0
1001
ACAD
1000
AcDbSavedByObjectVersion
1070
     0
  0
VISUALSTYLE
  5
263D
102
{ACAD_XDICTIONARY
360
26A5
102
}
102
{ACAD_REACTORS
330
262C
102
}
330
262C
100
AcDbVisualStyle
  2
Shades of Gray
 70
    23
 71
     2
 72
     2
 73
     3
 90
        0
 40
-0.6
 41
-30.0
 62
     5
 63
     7
 74
     2
 91
        2
 64
     7
 65
     7
 75
     1
175
     1
 42
40.0
 92
        8
 66
     7
 43
1.0
 76
     1
 77
     6
 78
     2
 67
     7
 79
     3
170
     0
171
     0
290
     0
174
     0
 93
        1
 44
0.0
173
     0
291
     0
 45
0.0
1001
ACAD
1000
AcDbSavedByObjectVersion
1070
     0
  0
VISUALSTYLE
  5
263E
102
{ACAD_XDICTIONARY
360
26A7
102
}
102
{ACAD_REACTORS
330
262C
102
}
330
262C
100
AcDbVisualStyle
  2
Sketchy
 70
    24
 71
     1
 72
     2
 73
     2
 90
        0
 40
-0.6
 41
-30.0
 62
     5
 63
     7
 74
     2
 91
        2
 64
     7
 65
     7
 75
     1
175
     1
 42
40.0
 92
       11
 66
     7
 43
1.0
 76
     1
 77
     6
 78
     2
 67
     7
 79
     6
170
     0
171
     0
290
     0
174
     0
 93
        1
 44
0.0
173
     0
291
     0
 45
0.0
1001
ACAD
1000
AcDbSavedByObjectVersion
1070
     0
  0
VISUALSTYLE
  5
2639
102
{ACAD_XDICTIONARY
360
269D
102
}
102
{ACAD_REACTORS
330
262C
102
}
330
262C
100
AcDbVisualStyle
  2
Thicken
 70
    13
 71
     2
 72
     2
 73
     0
 90
        0
 40
-0.6
 41
-30.0
 62
     5
 63
     7
 74
     1
 91
        4
 64
     7
 65
   257
 75
     1
175
     1
 42
1.0
 92
       12
 66
     7
 43
1.0
 76
     1
 77
     6
 78
     2
 67
     7
 79
     5
170
     0
171
     0
290
     0
174
     0
 93
        1
 44
0.0
173
     0
291
     1
 45
0.0
1001
ACAD
1000
AcDbSavedByObjectVersion
1070
     0
  0
VISUALSTYLE
  5
2633
102
{ACAD_XDICTIONARY
360
2691
102
}
102
{ACAD_REACTORS
330
262C
102
}
330
262C
100
AcDbVisualStyle
  2
Wireframe
 70
     5
 71
     0
 72
     2
 73
     0
 90
        0
 40
-0.6
 41
-30.0
 62
     5
 63
     7
 74
     1
 91
        4
 64
     7
 65
   257
 75
     1
175
     1
 42
1.0
 92
        0
 66
   257
 43
1.0
 76
     1
 77
     6
 78
     2
 67
     7
 79
     3
170
     0
171
     0
290
     0
174
     0
 93
        1
 44
0.0
173
     0
291
     0
 45
0.0
1001
ACAD
1000
AcDbSavedByObjectVersion
1070
     0
  0
VISUALSTYLE
  5
263F
102
{ACAD_XDICTIONARY
360
26A9
102
}
102
{ACAD_REACTORS
330
262C
102
}
330
262C
100
AcDbVisualStyle
  2
X-Ray
 70
    25
 71
     2
 72
     2
 73
     1
 90
        1
 40
0.5
 41
-30.0
 62
     5
 63
     7
 74
     1
 91
        0
 64
     7
 65
   257
 75
     1
175
     1
 42
1.0
 92
        8
 66
     7
 43
1.0
 76
     1
 77
     6
 78
     2
 67
     7
 79
     3
170
     0
171
     0
290
     0
174
     0
 93
       13
 44
0.0
173
     0
291
     0
 45
0.0
1001
ACAD
1000
AcDbSavedByObjectVersion
1070
     0
  0
DICTIONARYVAR
  5
2678
102
{ACAD_REACTORS
330
2673
102
}
330
2673
100
DictionaryVariables
280
     0
  1
1:1
  0
DICTIONARYVAR
  5
2675
102
{ACAD_REACTORS
330
2673
102
}
330
2673
100
DictionaryVariables
280
     0
  1
STANDARD
  0
DICTIONARYVAR
  5
2674
102
{ACAD_REACTORS
330
2673
102
}
330
2673
100
DictionaryVariables
280
     0
  1
STANDARD
  0
DICTIONARYVAR
  5
2676
102
{ACAD_REACTORS
330
2673
102
}
330
2673
100
DictionaryVariables
280
     0
  1
Imperial24
  0
DICTIONARYVAR
  5
2677
102
{ACAD_REACTORS
330
2673
102
}
330
2673
100
DictionaryVariables
280
     0
  1
Imperial24
  0
DICTIONARYVAR
  5
267B
102
{ACAD_REACTORS
330
2673
102
}
330
2673
100
DictionaryVariables
280
     0
  1
1
  0
DICTIONARYVAR
  5
267A
102
{ACAD_REACTORS
330
2673
102
}
330
2673
100
DictionaryVariables
280
     0
  1
0
  0
DICTIONARYVAR
  5
2679
102
{ACAD_REACTORS
330
2673
102
}
330
2673
100
DictionaryVariables
280
     0
  1
127
  0
DICTIONARYVAR
  5
267C
102
{ACAD_REACTORS
330
2673
102
}
330
2673
100
DictionaryVariables
280
     0
  1
2
  0
DICTIONARY
  5
26B9
330
265F
100
AcDbDictionary
280
     1
281
     1
  3
ACAD_XREC_ROUNDTRIP
360
26BA
  0
DICTIONARY
  5
26BB
330
2660
100
AcDbDictionary
280
     1
281
     1
  3
ACAD_XREC_ROUNDTRIP
360
26BC
  0
DICTIONARY
  5
26BD
330
2661
100
AcDbDictionary
280
     1
281
     1
  3
ACAD_XREC_ROUNDTRIP
360
26BE
  0
DICTIONARY
  5
261D
330
261C
100
AcDbDictionary
280
     1
281
     1
  3
ACAD_XREC_ROUNDTRIP
360
2683
  3
BUMPTILE
360
261F
  3
DIFFUSETILE
360
261E
  3
OPACITYTILE
360
2622
  3
REFLECTIONTILE
360
2621
  3
REFRACTIONTILE
360
2623
  3
SPECULARTILE
360
2620
  0
DICTIONARY
  5
2615
330
2614
100
AcDbDictionary
280
     1
281
     1
  3
ACAD_XREC_ROUNDTRIP
360
2682
  3
BUMPTILE
360
2617
  3
DIFFUSETILE
360
2616
  3
OPACITYTILE
360
261A
  3
REFLECTIONTILE
360
2619
  3
REFRACTIONTILE
360
261B
  3
SPECULARTILE
360
2618
  0
DICTIONARY
  5
2625
330
2624
100
AcDbDictionary
280
     1
281
     1
  3
ACAD_XREC_ROUNDTRIP
360
2684
  3
BUMPTILE
360
2627
  3
DIFFUSETILE
360
2626
  3
OPACITYTILE
360
262A
  3
REFLECTIONTILE
360
2629
  3
REFRACTIONTILE
360
262B
  3
SPECULARTILE
360
2628
  0
DICTIONARY
  5
26B7
330
265D
100
AcDbDictionary
280
     1
281
     1
  3
ACAD_XREC_ROUNDTRIP
360
26B8
  0
DICTIONARY
  5
267E
330
2647
100
AcDbDictionary
280
     1
281
     1
  3
ACAD_ROUNDTRIP_2008_TABLESTYLE_CELLSTYLEMAP
360
267F
  3
ACAD_XREC_ROUNDTRIP
360
26B5
  0
DICTIONARY
  5
268F
330
2632
100
AcDbDictionary
280
     1
281
     1
  3
ACAD_XREC_ROUNDTRIP
360
2690
  0
DICTIONARY
  5
268D
330
2631
100
AcDbDictionary
280
     1
281
     1
  3
ACAD_XREC_ROUNDTRIP
360
268E
  0
DICTIONARY
  5
269B
330
2638
100
AcDbDictionary
280
     1
281
     1
  3
ACAD_XREC_ROUNDTRIP
360
269C
  0
DICTIONARY
  5
26A3
330
263C
100
AcDbDictionary
280
     1
281
     1
  3
ACAD_XREC_ROUNDTRIP
360
26A4
  0
DICTIONARY
  5
2695
330
2635
100
AcDbDictionary
280
     1
281
     1
  3
ACAD_XREC_ROUNDTRIP
360
2696
  0
DICTIONARY
  5
2699
330
2637
100
AcDbDictionary
280
     1
281
     1
  3
ACAD_XREC_ROUNDTRIP
360
269A
  0
DICTIONARY
  5
26B3
330
2644
100
AcDbDictionary
280
     1
281
     1
  3
ACAD_XREC_ROUNDTRIP
360
26B4
  0
DICTIONARY
  5
26A1
330
263B
100
AcDbDictionary
280
     1
281
     1
  3
ACAD_XREC_ROUNDTRIP
360
26A2
  0
DICTIONARY
  5
2685
330
262D
100
AcDbDictionary
280
     1
281
     1
  3
ACAD_XREC_ROUNDTRIP
360
2686
  0
DICTIONARY
  5
2687
330
262E
100
AcDbDictionary
280
     1
281
     1
  3
ACAD_XREC_ROUNDTRIP
360
2688
  0
DICTIONARY
  5
2689
330
262F
100
AcDbDictionary
280
     1
281
     1
  3
ACAD_XREC_ROUNDTRIP
360
268A
  0
DICTIONARY
  5
268B
330
2630
100
AcDbDictionary
280
     1
281
     1
  3
ACAD_XREC_ROUNDTRIP
360
268C
  0
DICTIONARY
  5
2693
330
2634
100
AcDbDictionary
280
     1
281
     1
  3
ACAD_XREC_ROUNDTRIP
360
2694
  0
DICTIONARY
  5
26AF
330
2642
100
AcDbDictionary
280
     1
281
     1
  3
ACAD_XREC_ROUNDTRIP
360
26B0
  0
DICTIONARY
  5
269F
330
263A
100
AcDbDictionary
280
     1
281
     1
  3
ACAD_XREC_ROUNDTRIP
360
26A0
  0
DICTIONARY
  5
26B1
330
2643
100
AcDbDictionary
280
     1
281
     1
  3
ACAD_XREC_ROUNDTRIP
360
26B2
  0
DICTIONARY
  5
2697
330
2636
100
AcDbDictionary
280
     1
281
     1
  3
ACAD_XREC_ROUNDTRIP
360
2698
  0
DICTIONARY
  5
26AD
330
2641
100
AcDbDictionary
280
     1
281
     1
  3
ACAD_XREC_ROUNDTRIP
360
26AE
  0
DICTIONARY
  5
26AB
330
2640
100
AcDbDictionary
280
     1
281
     1
  3
ACAD_XREC_ROUNDTRIP
360
26AC
  0
DICTIONARY
  5
26A5
330
263D
100
AcDbDictionary
280
     1
281
     1
  3
ACAD_XREC_ROUNDTRIP
360
26A6
  0
DICTIONARY
  5
26A7
330
263E
100
AcDbDictionary
280
     1
281
     1
  3
ACAD_XREC_ROUNDTRIP
360
26A8
  0
DICTIONARY
  5
269D
330
2639
100
AcDbDictionary
280
     1
281
     1
  3
ACAD_XREC_ROUNDTRIP
360
269E
  0
DICTIONARY
  5
2691
330
2633
100
AcDbDictionary
280
     1
281
     1
  3
ACAD_XREC_ROUNDTRIP
360
2692
  0
DICTIONARY
  5
26A9
330
263F
100
AcDbDictionary
280
     1
281
     1
  3
ACAD_XREC_ROUNDTRIP
360
26AA
  0
XRECORD
  5
26BA
102
{ACAD_REACTORS
330
26B9
102
}
330
26B9
100
AcDbXrecord
280
     1
102
DISPLAYNAME
  1
Imperial24
102
FLAGS
 90
        0
  0
XRECORD
  5
26BC
102
{ACAD_REACTORS
330
26BB
102
}
330
26BB
100
AcDbXrecord
280
     1
102
SHADEPLOT
 70
     0
102
SHADEPLOTRESLEVEL
 70
     2
102
SHADEPLOTCUSTOMDPI
 70
   300
  0
XRECORD
  5
26BE
102
{ACAD_REACTORS
330
26BD
102
}
330
26BD
100
AcDbXrecord
280
     1
102
SHADEPLOT
 70
     0
102
SHADEPLOTRESLEVEL
 70
     2
102
SHADEPLOTCUSTOMDPI
 70
   300
  0
XRECORD
  5
2683
102
{ACAD_REACTORS
330
261D
102
}
330
261D
100
AcDbXrecord
280
     1
102
MATERIAL
148
0.0
149
0.0
149
0.0
 93
        0
 94
      127
282
     0
 72
     0
 77
     0
171
     0
175
     0
179
     0
273
     0
  0
XRECORD
  5
261F
102
{ACAD_REACTORS
330
261D
102
}
330
261D
100
AcDbXrecord
280
     1
270
     1
271
     1
  0
XRECORD
  5
261E
102
{ACAD_REACTORS
330
261D
102
}
330
261D
100
AcDbXrecord
280
     1
270
     1
271
     1
  0
XRECORD
  5
2622
102
{ACAD_REACTORS
330
261D
102
}
330
261D
100
AcDbXrecord
280
     1
270
     1
271
     1
  0
XRECORD
  5
2621
102
{ACAD_REACTORS
330
261D
102
}
330
261D
100
AcDbXrecord
280
     1
270
     1
271
     1
  0
XRECORD
  5
2623
102
{ACAD_REACTORS
330
261D
102
}
330
261D
100
AcDbXrecord
280
     1
270
     1
271
     1
  0
XRECORD
  5
2620
102
{ACAD_REACTORS
330
261D
102
}
330
261D
100
AcDbXrecord
280
     1
270
     1
271
     1
  0
XRECORD
  5
2682
102
{ACAD_REACTORS
330
2615
102
}
330
2615
100
AcDbXrecord
280
     1
102
MATERIAL
148
0.0
149
0.0
149
0.0
 93
        0
 94
      127
282
     0
 72
     0
 77
     0
171
     0
175
     0
179
     0
273
     0
  0
XRECORD
  5
2617
102
{ACAD_REACTORS
330
2615
102
}
330
2615
100
AcDbXrecord
280
     1
270
     1
271
     1
  0
XRECORD
  5
2616
102
{ACAD_REACTORS
330
2615
102
}
330
2615
100
AcDbXrecord
280
     1
270
     1
271
     1
  0
XRECORD
  5
261A
102
{ACAD_REACTORS
330
2615
102
}
330
2615
100
AcDbXrecord
280
     1
270
     1
271
     1
  0
XRECORD
  5
2619
102
{ACAD_REACTORS
330
2615
102
}
330
2615
100
AcDbXrecord
280
     1
270
     1
271
     1
  0
XRECORD
  5
261B
102
{ACAD_REACTORS
330
2615
102
}
330
2615
100
AcDbXrecord
280
     1
270
     1
271
     1
  0
XRECORD
  5
2618
102
{ACAD_REACTORS
330
2615
102
}
330
2615
100
AcDbXrecord
280
     1
270
     1
271
     1
  0
XRECORD
  5
2684
102
{ACAD_REACTORS
330
2625
102
}
330
2625
100
AcDbXrecord
280
     1
102
MATERIAL
148
0.0
149
0.0
149
0.0
 93
        0
 94
      127
282
     0
 72
     0
 77
     0
171
     0
175
     0
179
     0
273
     0
  0
XRECORD
  5
2627
102
{ACAD_REACTORS
330
2625
102
}
330
2625
100
AcDbXrecord
280
     1
270
     1
271
     1
  0
XRECORD
  5
2626
102
{ACAD_REACTORS
330
2625
102
}
330
2625
100
AcDbXrecord
280
     1
270
     1
271
     1
  0
XRECORD
  5
262A
102
{ACAD_REACTORS
330
2625
102
}
330
2625
100
AcDbXrecord
280
     1
270
     1
271
     1
  0
XRECORD
  5
2629
102
{ACAD_REACTORS
330
2625
102
}
330
2625
100
AcDbXrecord
280
     1
270
     1
271
     1
  0
XRECORD
  5
262B
102
{ACAD_REACTORS
330
2625
102
}
330
2625
100
AcDbXrecord
280
     1
270
     1
271
     1
  0
XRECORD
  5
2628
102
{ACAD_REACTORS
330
2625
102
}
330
2625
100
AcDbXrecord
280
     1
270
     1
271
     1
  0
XRECORD
  5
26B8
102
{ACAD_REACTORS
330
26B7
102
}
330
26B7
100
AcDbXrecord
280
     1
102
DISPLAYNAME
  1
Imperial24
102
FLAGS
 90
        0
  0
CELLSTYLEMAP
  5
267F
102
{ACAD_REACTORS
330
267E
102
}
330
267E
100
AcDbCellStyleMap
 90
        3
300
CELLSTYLE
  1
TABLEFORMAT_BEGIN
 90
        5
170
     1
 91
        0
 92
    32768
 62
   257
 93
        1
300
CONTENTFORMAT
  1
CONTENTFORMAT_BEGIN
 90
        0
 91
        0
 92
      512
 93
        0
300

 40
0.0
140
1.0
 94
        5
 62
     0
340
F
144
0.25
309
CONTENTFORMAT_END
171
     0
 94
        0
309
TABLEFORMAT_END
  1
CELLSTYLE_BEGIN
 90
        1
 91
        1
300
_TITLE
309
CELLSTYLE_END
300
CELLSTYLE
  1
TABLEFORMAT_BEGIN
 90
        5
170
     1
 91
        0
 92
        0
 62
   257
 93
        1
300
CONTENTFORMAT
  1
CONTENTFORMAT_BEGIN
 90
        0
 91
        0
 92
      512
 93
        0
300

 40
0.0
140
1.0
 94
        5
 62
     0
340
F
144
0.18
309
CONTENTFORMAT_END
171
     0
 94
        0
309
TABLEFORMAT_END
  1
CELLSTYLE_BEGIN
 90
        2
 91
        1
300
_HEADER
309
CELLSTYLE_END
300
CELLSTYLE
  1
TABLEFORMAT_BEGIN
 90
        5
170
     1
 91
        0
 92
        0
 62
   257
 93
        1
300
CONTENTFORMAT
  1
CONTENTFORMAT_BEGIN
 90
        0
 91
        0
 92
      512
 93
        0
300

 40
0.0
140
1.0
 94
        2
 62
     0
340
F
144
0.18
309
CONTENTFORMAT_END
171
     0
 94
        0
309
TABLEFORMAT_END
  1
CELLSTYLE_BEGIN
 90
        3
 91
        2
300
_DATA
309
CELLSTYLE_END
  0
XRECORD
  5
26B5
102
{ACAD_REACTORS
330
267E
102
}
330
267E
100
AcDbXrecord
280
     1
102
ACAD_ROUNDTRIP_PRE2007_TABLESTYLE
 90
      512
 91
        0
  1

 92
      512
 93
        0
  2

 94
      512
 95
        0
  3

  0
XRECORD
  5
2690
102
{ACAD_REACTORS
330
268F
102
}
330
268F
100
AcDbXrecord
280
     1
102
RTVSPost2010Prop28
280
     1
102
RTVSPost2010PropOp28
 70
     1
102
RTVSPost2010Prop29
280
     1
102
RTVSPost2010PropOp29
 70
     1
102
RTVSPost2010Prop30
280
     0
102
RTVSPost2010PropOp30
 70
     1
102
RTVSPost2010Prop31
280
     0
102
RTVSPost2010PropOp31
 70
     1
102
RTVSPost2010Prop32
280
     0
102
RTVSPost2010PropOp32
 70
     1
102
RTVSPost2010Prop33
280
     0
102
RTVSPost2010PropOp33
 70
     1
102
RTVSPost2010Prop34
280
     0
102
RTVSPost2010PropOp34
 70
     1
102
RTVSPost2010Prop35
280
     0
102
RTVSPost2010PropOp35
 70
     1
102
RTVSPost2010Prop36
280
     0
102
RTVSPost2010PropOp36
 70
     1
102
RTVSPost2010Prop37
 90
       50
102
RTVSPost2010PropOp37
 70
     1
102
RTVSPost2010Prop38
140
0.0
102
RTVSPost2010PropOp38
 70
     1
102
RTVSPost2010Prop39
140
1.0
102
RTVSPost2010PropOp39
 70
     1
102
RTVSPost2010Prop40
 90
        0
102
RTVSPost2010PropOp40
 70
     1
102
RTVSPost2010Prop41ColorIndex
 90
       18
102
RTVSPost2010Prop41ColorRGB
 90
        0
102
RTVSPost2010PropOp41
 70
     1
102
RTVSPost2010Prop42
 90
       50
102
RTVSPost2010PropOp42
 70
     1
102
RTVSPost2010Prop43
 90
        3
102
RTVSPost2010PropOp43
 70
     1
102
RTVSPost2010Prop44ColorIndex
 90
        5
102
RTVSPost2010Prop44ColorRGB
 90
      255
102
RTVSPost2010PropOp44
 70
     1
102
RTVSPost2010Prop45
280
     0
102
RTVSPost2010PropOp45
 70
     1
102
RTVSPost2010Prop46
 90
       50
102
RTVSPost2010PropOp46
 70
     1
102
RTVSPost2010Prop47
 90
       50
102
RTVSPost2010PropOp47
 70
     1
102
RTVSPost2010Prop48
 90
       50
102
RTVSPost2010PropOp48
 70
     1
102
RTVSPost2010Prop49
280
     0
102
RTVSPost2010PropOp49
 70
     1
102
RTVSPost2010Prop50
 90
       50
102
RTVSPost2010PropOp50
 70
     1
102
RTVSPost2010Prop51ColorIndex
 90
      256
102
RTVSPost2010Prop51ColorRGB
 90
-16777216
102
RTVSPost2010PropOp51
 70
     0
102
RTVSPost2010Prop52
140
1.0
102
RTVSPost2010PropOp52
 70
     0
102
RTVSPost2010Prop53
 90
        2
102
RTVSPost2010PropOp53
 70
     1
102
RTVSPost2010Prop54
  1
strokes_ogs.tif
102
RTVSPost2010PropOp54
 70
     1
102
RTVSPost2010Prop55
280
     0
102
RTVSPost2010PropOp55
 70
     1
102
RTVSPost2010Prop56
140
1.0
102
RTVSPost2010PropOp56
 70
     1
102
RTVSPost2010Prop57
140
1.0
102
RTVSPost2010PropOp57
 70
     1
102
RTVSPropertyOp0
 70
     1
102
RTVSPropertyOp1
 70
     1
102
RTVSPropertyOp2
 70
     1
102
RTVSPropertyOp3
 70
     1
102
RTVSPropertyOp4
 70
     1
102
RTVSPropertyOp5
 70
     1
102
RTVSPropertyOp6
 70
     1
102
RTVSPropertyOp7
 70
     1
102
RTVSPropertyOp8
 70
     1
102
RTVSPropertyOp9
 70
     1
102
RTVSPropertyOp10
 70
     1
102
RTVSPropertyOp11
 70
     1
102
RTVSPropertyOp12
 70
     1
102
RTVSPropertyOp13
 70
     1
102
RTVSPropertyOp14
 70
     1
102
RTVSPropertyOp15
 70
     1
102
RTVSPropertyOp16
 70
     1
102
RTVSPropertyOp17
 70
     1
102
RTVSPropertyOp18
 70
     1
102
RTVSPropertyOp19
 70
     1
102
RTVSPropertyOp20
 70
     1
102
RTVSPropertyOp21
 70
     1
102
RTVSPropertyOp22
 70
     1
102
RTVSPropertyOp23
 70
     1
102
RTVSPropertyOp24
 70
     1
102
RTVSPropertyOp25
 70
     1
102
RTVSPropertyOp26
 70
     1
102
RTVSPropertyOp27
 70
     1
102
RTVSPropertyOp28
 70
     1
102
RTVSPropertyOp29
 70
     1
102
RTVSPropertyOp30
 70
     1
102
RTVSPropertyOp31
 70
     1
102
RTVSPropertyOp32
 70
     1
102
RTVSPropertyOp33
 70
     1
102
RTVSPropertyOp34
 70
     1
102
RTVSPropertyOp35
 70
     1
102
RTVSPropertyOp36
 70
     1
102
RTVSPropertyOp37
 70
     1
102
RTVSPropertyOp38
 70
     1
102
RTVSPropertyOp39
 70
     1
102
RTVSPropertyOp40
 70
     1
102
RTVSPropertyOp41
 70
     1
102
RTVSPropertyOp42
 70
     1
102
RTVSPropertyOp43
 70
     1
102
RTVSPropertyOp44
 70
     1
102
RTVSPropertyOp45
 70
     1
102
RTVSPropertyOp46
 70
     1
102
RTVSPropertyOp47
 70
     1
102
RTVSPropertyOp48
 70
     1
102
RTVSPropertyOp49
 70
     1
102
RTVSPropertyOp50
 70
     1
102
RTVSPropertyOp51
 70
     0
102
RTVSPropertyOp52
 70
     0
102
RTVSPropertyOp53
 70
     1
102
RTVSPropertyOp54
 70
     1
102
RTVSPropertyOp55
 70
     1
102
RTVSPropertyOp56
 70
     1
102
RTVSPropertyOp57
 70
     1
102
RTVSPropertyOp58
 70
     1
102
RTVSPropertyOp59
 70
     1
102
RTVSPropertyOp60
 70
     1
102
RTVSPropertyOp61
 70
     1
102
RTVSPropertyOp62
 70
     1
  0
XRECORD
  5
268E
102
{ACAD_REACTORS
330
268D
102
}
330
268D
100
AcDbXrecord
280
     1
102
RTVSPost2010Prop28
280
     0
102
RTVSPost2010PropOp28
 70
     1
102
RTVSPost2010Prop29
280
     1
102
RTVSPost2010PropOp29
 70
     1
102
RTVSPost2010Prop30
280
     1
102
RTVSPost2010PropOp30
 70
     1
102
RTVSPost2010Prop31
280
     0
102
RTVSPost2010PropOp31
 70
     1
102
RTVSPost2010Prop32
280
     0
102
RTVSPost2010PropOp32
 70
     1
102
RTVSPost2010Prop33
280
     0
102
RTVSPost2010PropOp33
 70
     1
102
RTVSPost2010Prop34
280
     0
102
RTVSPost2010PropOp34
 70
     1
102
RTVSPost2010Prop35
280
     0
102
RTVSPost2010PropOp35
 70
     1
102
RTVSPost2010Prop36
280
     0
102
RTVSPost2010PropOp36
 70
     1
102
RTVSPost2010Prop37
 90
       50
102
RTVSPost2010PropOp37
 70
     1
102
RTVSPost2010Prop38
140
0.0
102
RTVSPost2010PropOp38
 70
     1
102
RTVSPost2010Prop39
140
1.0
102
RTVSPost2010PropOp39
 70
     1
102
RTVSPost2010Prop40
 90
        0
102
RTVSPost2010PropOp40
 70
     1
102
RTVSPost2010Prop41ColorIndex
 90
       18
102
RTVSPost2010Prop41ColorRGB
 90
        0
102
RTVSPost2010PropOp41
 70
     1
102
RTVSPost2010Prop42
 90
       50
102
RTVSPost2010PropOp42
 70
     1
102
RTVSPost2010Prop43
 90
        3
102
RTVSPost2010PropOp43
 70
     1
102
RTVSPost2010Prop44ColorIndex
 90
        5
102
RTVSPost2010Prop44ColorRGB
 90
      255
102
RTVSPost2010PropOp44
 70
     1
102
RTVSPost2010Prop45
280
     0
102
RTVSPost2010PropOp45
 70
     1
102
RTVSPost2010Prop46
 90
       50
102
RTVSPost2010PropOp46
 70
     1
102
RTVSPost2010Prop47
 90
       50
102
RTVSPost2010PropOp47
 70
     1
102
RTVSPost2010Prop48
 90
       50
102
RTVSPost2010PropOp48
 70
     1
102
RTVSPost2010Prop49
280
     0
102
RTVSPost2010PropOp49
 70
     1
102
RTVSPost2010Prop50
 90
       50
102
RTVSPost2010PropOp50
 70
     1
102
RTVSPost2010Prop51ColorIndex
 90
      256
102
RTVSPost2010Prop51ColorRGB
 90
-16777216
102
RTVSPost2010PropOp51
 70
     0
102
RTVSPost2010Prop52
140
1.0
102
RTVSPost2010PropOp52
 70
     0
102
RTVSPost2010Prop53
 90
        2
102
RTVSPost2010PropOp53
 70
     1
102
RTVSPost2010Prop54
  1
strokes_ogs.tif
102
RTVSPost2010PropOp54
 70
     1
102
RTVSPost2010Prop55
280
     0
102
RTVSPost2010PropOp55
 70
     1
102
RTVSPost2010Prop56
140
1.0
102
RTVSPost2010PropOp56
 70
     1
102
RTVSPost2010Prop57
140
1.0
102
RTVSPost2010PropOp57
 70
     1
102
RTVSPropertyOp0
 70
     1
102
RTVSPropertyOp1
 70
     1
102
RTVSPropertyOp2
 70
     1
102
RTVSPropertyOp3
 70
     1
102
RTVSPropertyOp4
 70
     1
102
RTVSPropertyOp5
 70
     1
102
RTVSPropertyOp6
 70
     1
102
RTVSPropertyOp7
 70
     1
102
RTVSPropertyOp8
 70
     1
102
RTVSPropertyOp9
 70
     1
102
RTVSPropertyOp10
 70
     1
102
RTVSPropertyOp11
 70
     1
102
RTVSPropertyOp12
 70
     1
102
RTVSPropertyOp13
 70
     1
102
RTVSPropertyOp14
 70
     1
102
RTVSPropertyOp15
 70
     1
102
RTVSPropertyOp16
 70
     1
102
RTVSPropertyOp17
 70
     1
102
RTVSPropertyOp18
 70
     1
102
RTVSPropertyOp19
 70
     1
102
RTVSPropertyOp20
 70
     1
102
RTVSPropertyOp21
 70
     1
102
RTVSPropertyOp22
 70
     1
102
RTVSPropertyOp23
 70
     1
102
RTVSPropertyOp24
 70
     1
102
RTVSPropertyOp25
 70
     1
102
RTVSPropertyOp26
 70
     1
102
RTVSPropertyOp27
 70
     1
102
RTVSPropertyOp28
 70
     1
102
RTVSPropertyOp29
 70
     1
102
RTVSPropertyOp30
 70
     1
102
RTVSPropertyOp31
 70
     1
102
RTVSPropertyOp32
 70
     1
102
RTVSPropertyOp33
 70
     1
102
RTVSPropertyOp34
 70
     1
102
RTVSPropertyOp35
 70
     1
102
RTVSPropertyOp36
 70
     1
102
RTVSPropertyOp37
 70
     1
102
RTVSPropertyOp38
 70
     1
102
RTVSPropertyOp39
 70
     1
102
RTVSPropertyOp40
 70
     1
102
RTVSPropertyOp41
 70
     1
102
RTVSPropertyOp42
 70
     1
102
RTVSPropertyOp43
 70
     1
102
RTVSPropertyOp44
 70
     1
102
RTVSPropertyOp45
 70
     1
102
RTVSPropertyOp46
 70
     1
102
RTVSPropertyOp47
 70
     1
102
RTVSPropertyOp48
 70
     1
102
RTVSPropertyOp49
 70
     1
102
RTVSPropertyOp50
 70
     1
102
RTVSPropertyOp51
 70
     0
102
RTVSPropertyOp52
 70
     0
102
RTVSPropertyOp53
 70
     1
102
RTVSPropertyOp54
 70
     1
102
RTVSPropertyOp55
 70
     1
102
RTVSPropertyOp56
 70
     1
102
RTVSPropertyOp57
 70
     1
102
RTVSPropertyOp58
 70
     1
102
RTVSPropertyOp59
 70
     1
102
RTVSPropertyOp60
 70
     1
102
RTVSPropertyOp61
 70
     1
102
RTVSPropertyOp62
 70
     1
  0
XRECORD
  5
269C
102
{ACAD_REACTORS
330
269B
102
}
330
269B
100
AcDbXrecord
280
     1
102
RTVSPost2010Prop28
280
     0
102
RTVSPost2010PropOp28
 70
     1
102
RTVSPost2010Prop29
280
     1
102
RTVSPost2010PropOp29
 70
     1
102
RTVSPost2010Prop30
280
     1
102
RTVSPost2010PropOp30
 70
     1
102
RTVSPost2010Prop31
280
     0
102
RTVSPost2010PropOp31
 70
     1
102
RTVSPost2010Prop32
280
     0
102
RTVSPost2010PropOp32
 70
     1
102
RTVSPost2010Prop33
280
     0
102
RTVSPost2010PropOp33
 70
     1
102
RTVSPost2010Prop34
280
     0
102
RTVSPost2010PropOp34
 70
     1
102
RTVSPost2010Prop35
280
     0
102
RTVSPost2010PropOp35
 70
     1
102
RTVSPost2010Prop36
280
     0
102
RTVSPost2010PropOp36
 70
     1
102
RTVSPost2010Prop37
 90
       50
102
RTVSPost2010PropOp37
 70
     1
102
RTVSPost2010Prop38
140
0.0
102
RTVSPost2010PropOp38
 70
     1
102
RTVSPost2010Prop39
140
1.0
102
RTVSPost2010PropOp39
 70
     1
102
RTVSPost2010Prop40
 90
        0
102
RTVSPost2010PropOp40
 70
     1
102
RTVSPost2010Prop41ColorIndex
 90
       18
102
RTVSPost2010Prop41ColorRGB
 90
        0
102
RTVSPost2010PropOp41
 70
     1
102
RTVSPost2010Prop42
 90
       50
102
RTVSPost2010PropOp42
 70
     1
102
RTVSPost2010Prop43
 90
        3
102
RTVSPost2010PropOp43
 70
     1
102
RTVSPost2010Prop44ColorIndex
 90
        5
102
RTVSPost2010Prop44ColorRGB
 90
      255
102
RTVSPost2010PropOp44
 70
     1
102
RTVSPost2010Prop45
280
     0
102
RTVSPost2010PropOp45
 70
     1
102
RTVSPost2010Prop46
 90
       50
102
RTVSPost2010PropOp46
 70
     1
102
RTVSPost2010Prop47
 90
       50
102
RTVSPost2010PropOp47
 70
     1
102
RTVSPost2010Prop48
 90
       50
102
RTVSPost2010PropOp48
 70
     1
102
RTVSPost2010Prop49
280
     0
102
RTVSPost2010PropOp49
 70
     1
102
RTVSPost2010Prop50
 90
       50
102
RTVSPost2010PropOp50
 70
     1
102
RTVSPost2010Prop51ColorIndex
 90
      256
102
RTVSPost2010Prop51ColorRGB
 90
-16777216
102
RTVSPost2010PropOp51
 70
     0
102
RTVSPost2010Prop52
140
1.0
102
RTVSPost2010PropOp52
 70
     0
102
RTVSPost2010Prop53
 90
        2
102
RTVSPost2010PropOp53
 70
     1
102
RTVSPost2010Prop54
  1
strokes_ogs.tif
102
RTVSPost2010PropOp54
 70
     1
102
RTVSPost2010Prop55
280
     0
102
RTVSPost2010PropOp55
 70
     1
102
RTVSPost2010Prop56
140
1.0
102
RTVSPost2010PropOp56
 70
     1
102
RTVSPost2010Prop57
140
1.0
102
RTVSPost2010PropOp57
 70
     1
102
RTVSPropertyOp0
 70
     1
102
RTVSPropertyOp1
 70
     1
102
RTVSPropertyOp2
 70
     1
102
RTVSPropertyOp3
 70
     1
102
RTVSPropertyOp4
 70
     1
102
RTVSPropertyOp5
 70
     1
102
RTVSPropertyOp6
 70
     1
102
RTVSPropertyOp7
 70
     1
102
RTVSPropertyOp8
 70
     1
102
RTVSPropertyOp9
 70
     1
102
RTVSPropertyOp10
 70
     1
102
RTVSPropertyOp11
 70
     1
102
RTVSPropertyOp12
 70
     1
102
RTVSPropertyOp13
 70
     1
102
RTVSPropertyOp14
 70
     1
102
RTVSPropertyOp15
 70
     1
102
RTVSPropertyOp16
 70
     1
102
RTVSPropertyOp17
 70
     1
102
RTVSPropertyOp18
 70
     1
102
RTVSPropertyOp19
 70
     1
102
RTVSPropertyOp20
 70
     1
102
RTVSPropertyOp21
 70
     1
102
RTVSPropertyOp22
 70
     1
102
RTVSPropertyOp23
 70
     1
102
RTVSPropertyOp24
 70
     1
102
RTVSPropertyOp25
 70
     1
102
RTVSPropertyOp26
 70
     1
102
RTVSPropertyOp27
 70
     1
102
RTVSPropertyOp28
 70
     1
102
RTVSPropertyOp29
 70
     1
102
RTVSPropertyOp30
 70
     1
102
RTVSPropertyOp31
 70
     1
102
RTVSPropertyOp32
 70
     1
102
RTVSPropertyOp33
 70
     1
102
RTVSPropertyOp34
 70
     1
102
RTVSPropertyOp35
 70
     1
102
RTVSPropertyOp36
 70
     1
102
RTVSPropertyOp37
 70
     1
102
RTVSPropertyOp38
 70
     1
102
RTVSPropertyOp39
 70
     1
102
RTVSPropertyOp40
 70
     1
102
RTVSPropertyOp41
 70
     1
102
RTVSPropertyOp42
 70
     1
102
RTVSPropertyOp43
 70
     1
102
RTVSPropertyOp44
 70
     1
102
RTVSPropertyOp45
 70
     1
102
RTVSPropertyOp46
 70
     1
102
RTVSPropertyOp47
 70
     1
102
RTVSPropertyOp48
 70
     1
102
RTVSPropertyOp49
 70
     1
102
RTVSPropertyOp50
 70
     1
102
RTVSPropertyOp51
 70
     0
102
RTVSPropertyOp52
 70
     0
102
RTVSPropertyOp53
 70
     1
102
RTVSPropertyOp54
 70
     1
102
RTVSPropertyOp55
 70
     1
102
RTVSPropertyOp56
 70
     1
102
RTVSPropertyOp57
 70
     1
102
RTVSPropertyOp58
 70
     1
102
RTVSPropertyOp59
 70
     1
102
RTVSPropertyOp60
 70
     1
102
RTVSPropertyOp61
 70
     1
102
RTVSPropertyOp62
 70
     1
  0
XRECORD
  5
26A4
102
{ACAD_REACTORS
330
26A3
102
}
330
26A3
100
AcDbXrecord
280
     1
102
RTVSPost2010Prop28
280
     0
102
RTVSPost2010PropOp28
 70
     1
102
RTVSPost2010Prop29
280
     1
102
RTVSPost2010PropOp29
 70
     1
102
RTVSPost2010Prop30
280
     1
102
RTVSPost2010PropOp30
 70
     1
102
RTVSPost2010Prop31
280
     0
102
RTVSPost2010PropOp31
 70
     1
102
RTVSPost2010Prop32
280
     0
102
RTVSPost2010PropOp32
 70
     1
102
RTVSPost2010Prop33
280
     0
102
RTVSPost2010PropOp33
 70
     1
102
RTVSPost2010Prop34
280
     0
102
RTVSPost2010PropOp34
 70
     1
102
RTVSPost2010Prop35
280
     0
102
RTVSPost2010PropOp35
 70
     1
102
RTVSPost2010Prop36
280
     0
102
RTVSPost2010PropOp36
 70
     1
102
RTVSPost2010Prop37
 90
       50
102
RTVSPost2010PropOp37
 70
     1
102
RTVSPost2010Prop38
140
0.0
102
RTVSPost2010PropOp38
 70
     1
102
RTVSPost2010Prop39
140
1.0
102
RTVSPost2010PropOp39
 70
     1
102
RTVSPost2010Prop40
 90
        0
102
RTVSPost2010PropOp40
 70
     1
102
RTVSPost2010Prop41ColorIndex
 90
       18
102
RTVSPost2010Prop41ColorRGB
 90
        0
102
RTVSPost2010PropOp41
 70
     1
102
RTVSPost2010Prop42
 90
       50
102
RTVSPost2010PropOp42
 70
     1
102
RTVSPost2010Prop43
 90
        3
102
RTVSPost2010PropOp43
 70
     1
102
RTVSPost2010Prop44ColorIndex
 90
        5
102
RTVSPost2010Prop44ColorRGB
 90
      255
102
RTVSPost2010PropOp44
 70
     1
102
RTVSPost2010Prop45
280
     0
102
RTVSPost2010PropOp45
 70
     1
102
RTVSPost2010Prop46
 90
       50
102
RTVSPost2010PropOp46
 70
     1
102
RTVSPost2010Prop47
 90
       50
102
RTVSPost2010PropOp47
 70
     1
102
RTVSPost2010Prop48
 90
       50
102
RTVSPost2010PropOp48
 70
     1
102
RTVSPost2010Prop49
280
     0
102
RTVSPost2010PropOp49
 70
     1
102
RTVSPost2010Prop50
 90
       50
102
RTVSPost2010PropOp50
 70
     1
102
RTVSPost2010Prop51ColorIndex
 90
      256
102
RTVSPost2010Prop51ColorRGB
 90
-16777216
102
RTVSPost2010PropOp51
 70
     0
102
RTVSPost2010Prop52
140
1.0
102
RTVSPost2010PropOp52
 70
     0
102
RTVSPost2010Prop53
 90
        2
102
RTVSPost2010PropOp53
 70
     1
102
RTVSPost2010Prop54
  1
strokes_ogs.tif
102
RTVSPost2010PropOp54
 70
     1
102
RTVSPost2010Prop55
280
     0
102
RTVSPost2010PropOp55
 70
     1
102
RTVSPost2010Prop56
140
1.0
102
RTVSPost2010PropOp56
 70
     1
102
RTVSPost2010Prop57
140
1.0
102
RTVSPost2010PropOp57
 70
     1
102
RTVSPropertyOp0
 70
     1
102
RTVSPropertyOp1
 70
     1
102
RTVSPropertyOp2
 70
     1
102
RTVSPropertyOp3
 70
     1
102
RTVSPropertyOp4
 70
     1
102
RTVSPropertyOp5
 70
     1
102
RTVSPropertyOp6
 70
     1
102
RTVSPropertyOp7
 70
     1
102
RTVSPropertyOp8
 70
     1
102
RTVSPropertyOp9
 70
     1
102
RTVSPropertyOp10
 70
     1
102
RTVSPropertyOp11
 70
     1
102
RTVSPropertyOp12
 70
     1
102
RTVSPropertyOp13
 70
     1
102
RTVSPropertyOp14
 70
     1
102
RTVSPropertyOp15
 70
     1
102
RTVSPropertyOp16
 70
     1
102
RTVSPropertyOp17
 70
     1
102
RTVSPropertyOp18
 70
     1
102
RTVSPropertyOp19
 70
     1
102
RTVSPropertyOp20
 70
     1
102
RTVSPropertyOp21
 70
     1
102
RTVSPropertyOp22
 70
     1
102
RTVSPropertyOp23
 70
     1
102
RTVSPropertyOp24
 70
     1
102
RTVSPropertyOp25
 70
     1
102
RTVSPropertyOp26
 70
     1
102
RTVSPropertyOp27
 70
     1
102
RTVSPropertyOp28
 70
     1
102
RTVSPropertyOp29
 70
     1
102
RTVSPropertyOp30
 70
     1
102
RTVSPropertyOp31
 70
     1
102
RTVSPropertyOp32
 70
     1
102
RTVSPropertyOp33
 70
     1
102
RTVSPropertyOp34
 70
     1
102
RTVSPropertyOp35
 70
     1
102
RTVSPropertyOp36
 70
     1
102
RTVSPropertyOp37
 70
     1
102
RTVSPropertyOp38
 70
     1
102
RTVSPropertyOp39
 70
     1
102
RTVSPropertyOp40
 70
     1
102
RTVSPropertyOp41
 70
     1
102
RTVSPropertyOp42
 70
     1
102
RTVSPropertyOp43
 70
     1
102
RTVSPropertyOp44
 70
     1
102
RTVSPropertyOp45
 70
     1
102
RTVSPropertyOp46
 70
     1
102
RTVSPropertyOp47
 70
     1
102
RTVSPropertyOp48
 70
     1
102
RTVSPropertyOp49
 70
     1
102
RTVSPropertyOp50
 70
     1
102
RTVSPropertyOp51
 70
     0
102
RTVSPropertyOp52
 70
     0
102
RTVSPropertyOp53
 70
     1
102
RTVSPropertyOp54
 70
     1
102
RTVSPropertyOp55
 70
     1
102
RTVSPropertyOp56
 70
     1
102
RTVSPropertyOp57
 70
     1
102
RTVSPropertyOp58
 70
     1
102
RTVSPropertyOp59
 70
     1
102
RTVSPropertyOp60
 70
     1
102
RTVSPropertyOp61
 70
     1
102
RTVSPropertyOp62
 70
     1
  0
XRECORD
  5
2696
102
{ACAD_REACTORS
330
2695
102
}
330
2695
100
AcDbXrecord
280
     1
102
RTVSPost2010Prop28
280
     0
102
RTVSPost2010PropOp28
 70
     1
102
RTVSPost2010Prop29
280
     1
102
RTVSPost2010PropOp29
 70
     1
102
RTVSPost2010Prop30
280
     1
102
RTVSPost2010PropOp30
 70
     1
102
RTVSPost2010Prop31
280
     0
102
RTVSPost2010PropOp31
 70
     1
102
RTVSPost2010Prop32
280
     0
102
RTVSPost2010PropOp32
 70
     1
102
RTVSPost2010Prop33
280
     0
102
RTVSPost2010PropOp33
 70
     1
102
RTVSPost2010Prop34
280
     0
102
RTVSPost2010PropOp34
 70
     1
102
RTVSPost2010Prop35
280
     0
102
RTVSPost2010PropOp35
 70
     1
102
RTVSPost2010Prop36
280
     0
102
RTVSPost2010PropOp36
 70
     1
102
RTVSPost2010Prop37
 90
       50
102
RTVSPost2010PropOp37
 70
     1
102
RTVSPost2010Prop38
140
0.0
102
RTVSPost2010PropOp38
 70
     1
102
RTVSPost2010Prop39
140
1.0
102
RTVSPost2010PropOp39
 70
     1
102
RTVSPost2010Prop40
 90
        0
102
RTVSPost2010PropOp40
 70
     1
102
RTVSPost2010Prop41ColorIndex
 90
       18
102
RTVSPost2010Prop41ColorRGB
 90
        0
102
RTVSPost2010PropOp41
 70
     1
102
RTVSPost2010Prop42
 90
       50
102
RTVSPost2010PropOp42
 70
     1
102
RTVSPost2010Prop43
 90
        3
102
RTVSPost2010PropOp43
 70
     1
102
RTVSPost2010Prop44ColorIndex
 90
        5
102
RTVSPost2010Prop44ColorRGB
 90
      255
102
RTVSPost2010PropOp44
 70
     1
102
RTVSPost2010Prop45
280
     0
102
RTVSPost2010PropOp45
 70
     1
102
RTVSPost2010Prop46
 90
       50
102
RTVSPost2010PropOp46
 70
     1
102
RTVSPost2010Prop47
 90
       50
102
RTVSPost2010PropOp47
 70
     1
102
RTVSPost2010Prop48
 90
       50
102
RTVSPost2010PropOp48
 70
     1
102
RTVSPost2010Prop49
280
     0
102
RTVSPost2010PropOp49
 70
     1
102
RTVSPost2010Prop50
 90
       50
102
RTVSPost2010PropOp50
 70
     1
102
RTVSPost2010Prop51ColorIndex
 90
      256
102
RTVSPost2010Prop51ColorRGB
 90
-16777216
102
RTVSPost2010PropOp51
 70
     0
102
RTVSPost2010Prop52
140
1.0
102
RTVSPost2010PropOp52
 70
     0
102
RTVSPost2010Prop53
 90
        2
102
RTVSPost2010PropOp53
 70
     1
102
RTVSPost2010Prop54
  1
strokes_ogs.tif
102
RTVSPost2010PropOp54
 70
     1
102
RTVSPost2010Prop55
280
     0
102
RTVSPost2010PropOp55
 70
     1
102
RTVSPost2010Prop56
140
1.0
102
RTVSPost2010PropOp56
 70
     1
102
RTVSPost2010Prop57
140
1.0
102
RTVSPost2010PropOp57
 70
     1
102
RTVSPropertyOp0
 70
     1
102
RTVSPropertyOp1
 70
     1
102
RTVSPropertyOp2
 70
     1
102
RTVSPropertyOp3
 70
     1
102
RTVSPropertyOp4
 70
     1
102
RTVSPropertyOp5
 70
     1
102
RTVSPropertyOp6
 70
     1
102
RTVSPropertyOp7
 70
     1
102
RTVSPropertyOp8
 70
     1
102
RTVSPropertyOp9
 70
     1
102
RTVSPropertyOp10
 70
     1
102
RTVSPropertyOp11
 70
     1
102
RTVSPropertyOp12
 70
     1
102
RTVSPropertyOp13
 70
     1
102
RTVSPropertyOp14
 70
     1
102
RTVSPropertyOp15
 70
     1
102
RTVSPropertyOp16
 70
     1
102
RTVSPropertyOp17
 70
     1
102
RTVSPropertyOp18
 70
     1
102
RTVSPropertyOp19
 70
     1
102
RTVSPropertyOp20
 70
     1
102
RTVSPropertyOp21
 70
     1
102
RTVSPropertyOp22
 70
     1
102
RTVSPropertyOp23
 70
     1
102
RTVSPropertyOp24
 70
     1
102
RTVSPropertyOp25
 70
     1
102
RTVSPropertyOp26
 70
     1
102
RTVSPropertyOp27
 70
     1
102
RTVSPropertyOp28
 70
     1
102
RTVSPropertyOp29
 70
     1
102
RTVSPropertyOp30
 70
     1
102
RTVSPropertyOp31
 70
     1
102
RTVSPropertyOp32
 70
     1
102
RTVSPropertyOp33
 70
     1
102
RTVSPropertyOp34
 70
     1
102
RTVSPropertyOp35
 70
     1
102
RTVSPropertyOp36
 70
     1
102
RTVSPropertyOp37
 70
     1
102
RTVSPropertyOp38
 70
     1
102
RTVSPropertyOp39
 70
     1
102
RTVSPropertyOp40
 70
     1
102
RTVSPropertyOp41
 70
     1
102
RTVSPropertyOp42
 70
     1
102
RTVSPropertyOp43
 70
     1
102
RTVSPropertyOp44
 70
     1
102
RTVSPropertyOp45
 70
     1
102
RTVSPropertyOp46
 70
     1
102
RTVSPropertyOp47
 70
     1
102
RTVSPropertyOp48
 70
     1
102
RTVSPropertyOp49
 70
     1
102
RTVSPropertyOp50
 70
     1
102
RTVSPropertyOp51
 70
     0
102
RTVSPropertyOp52
 70
     0
102
RTVSPropertyOp53
 70
     1
102
RTVSPropertyOp54
 70
     1
102
RTVSPropertyOp55
 70
     1
102
RTVSPropertyOp56
 70
     1
102
RTVSPropertyOp57
 70
     1
102
RTVSPropertyOp58
 70
     1
102
RTVSPropertyOp59
 70
     1
102
RTVSPropertyOp60
 70
     1
102
RTVSPropertyOp61
 70
     1
102
RTVSPropertyOp62
 70
     1
  0
XRECORD
  5
269A
102
{ACAD_REACTORS
330
2699
102
}
330
2699
100
AcDbXrecord
280
     1
102
RTVSPost2010Prop28
280
     0
102
RTVSPost2010PropOp28
 70
     1
102
RTVSPost2010Prop29
280
     1
102
RTVSPost2010PropOp29
 70
     1
102
RTVSPost2010Prop30
280
     1
102
RTVSPost2010PropOp30
 70
     1
102
RTVSPost2010Prop31
280
     0
102
RTVSPost2010PropOp31
 70
     1
102
RTVSPost2010Prop32
280
     0
102
RTVSPost2010PropOp32
 70
     1
102
RTVSPost2010Prop33
280
     0
102
RTVSPost2010PropOp33
 70
     1
102
RTVSPost2010Prop34
280
     0
102
RTVSPost2010PropOp34
 70
     1
102
RTVSPost2010Prop35
280
     0
102
RTVSPost2010PropOp35
 70
     1
102
RTVSPost2010Prop36
280
     0
102
RTVSPost2010PropOp36
 70
     1
102
RTVSPost2010Prop37
 90
       50
102
RTVSPost2010PropOp37
 70
     1
102
RTVSPost2010Prop38
140
0.0
102
RTVSPost2010PropOp38
 70
     1
102
RTVSPost2010Prop39
140
1.0
102
RTVSPost2010PropOp39
 70
     1
102
RTVSPost2010Prop40
 90
        0
102
RTVSPost2010PropOp40
 70
     1
102
RTVSPost2010Prop41ColorIndex
 90
       18
102
RTVSPost2010Prop41ColorRGB
 90
        0
102
RTVSPost2010PropOp41
 70
     1
102
RTVSPost2010Prop42
 90
       50
102
RTVSPost2010PropOp42
 70
     1
102
RTVSPost2010Prop43
 90
        3
102
RTVSPost2010PropOp43
 70
     1
102
RTVSPost2010Prop44ColorIndex
 90
        5
102
RTVSPost2010Prop44ColorRGB
 90
      255
102
RTVSPost2010PropOp44
 70
     1
102
RTVSPost2010Prop45
280
     0
102
RTVSPost2010PropOp45
 70
     1
102
RTVSPost2010Prop46
 90
       50
102
RTVSPost2010PropOp46
 70
     1
102
RTVSPost2010Prop47
 90
       50
102
RTVSPost2010PropOp47
 70
     1
102
RTVSPost2010Prop48
 90
       50
102
RTVSPost2010PropOp48
 70
     1
102
RTVSPost2010Prop49
280
     0
102
RTVSPost2010PropOp49
 70
     1
102
RTVSPost2010Prop50
 90
       50
102
RTVSPost2010PropOp50
 70
     1
102
RTVSPost2010Prop51ColorIndex
 90
      256
102
RTVSPost2010Prop51ColorRGB
 90
-16777216
102
RTVSPost2010PropOp51
 70
     0
102
RTVSPost2010Prop52
140
1.0
102
RTVSPost2010PropOp52
 70
     0
102
RTVSPost2010Prop53
 90
        2
102
RTVSPost2010PropOp53
 70
     1
102
RTVSPost2010Prop54
  1
strokes_ogs.tif
102
RTVSPost2010PropOp54
 70
     1
102
RTVSPost2010Prop55
280
     0
102
RTVSPost2010PropOp55
 70
     1
102
RTVSPost2010Prop56
140
1.0
102
RTVSPost2010PropOp56
 70
     1
102
RTVSPost2010Prop57
140
1.0
102
RTVSPost2010PropOp57
 70
     1
102
RTVSPropertyOp0
 70
     1
102
RTVSPropertyOp1
 70
     1
102
RTVSPropertyOp2
 70
     1
102
RTVSPropertyOp3
 70
     1
102
RTVSPropertyOp4
 70
     1
102
RTVSPropertyOp5
 70
     1
102
RTVSPropertyOp6
 70
     1
102
RTVSPropertyOp7
 70
     1
102
RTVSPropertyOp8
 70
     1
102
RTVSPropertyOp9
 70
     1
102
RTVSPropertyOp10
 70
     1
102
RTVSPropertyOp11
 70
     1
102
RTVSPropertyOp12
 70
     1
102
RTVSPropertyOp13
 70
     1
102
RTVSPropertyOp14
 70
     1
102
RTVSPropertyOp15
 70
     1
102
RTVSPropertyOp16
 70
     1
102
RTVSPropertyOp17
 70
     1
102
RTVSPropertyOp18
 70
     1
102
RTVSPropertyOp19
 70
     1
102
RTVSPropertyOp20
 70
     1
102
RTVSPropertyOp21
 70
     1
102
RTVSPropertyOp22
 70
     1
102
RTVSPropertyOp23
 70
     1
102
RTVSPropertyOp24
 70
     1
102
RTVSPropertyOp25
 70
     1
102
RTVSPropertyOp26
 70
     1
102
RTVSPropertyOp27
 70
     1
102
RTVSPropertyOp28
 70
     1
102
RTVSPropertyOp29
 70
     1
102
RTVSPropertyOp30
 70
     1
102
RTVSPropertyOp31
 70
     1
102
RTVSPropertyOp32
 70
     1
102
RTVSPropertyOp33
 70
     1
102
RTVSPropertyOp34
 70
     1
102
RTVSPropertyOp35
 70
     1
102
RTVSPropertyOp36
 70
     1
102
RTVSPropertyOp37
 70
     1
102
RTVSPropertyOp38
 70
     1
102
RTVSPropertyOp39
 70
     1
102
RTVSPropertyOp40
 70
     1
102
RTVSPropertyOp41
 70
     1
102
RTVSPropertyOp42
 70
     1
102
RTVSPropertyOp43
 70
     1
102
RTVSPropertyOp44
 70
     1
102
RTVSPropertyOp45
 70
     1
102
RTVSPropertyOp46
 70
     1
102
RTVSPropertyOp47
 70
     1
102
RTVSPropertyOp48
 70
     1
102
RTVSPropertyOp49
 70
     1
102
RTVSPropertyOp50
 70
     1
102
RTVSPropertyOp51
 70
     0
102
RTVSPropertyOp52
 70
     0
102
RTVSPropertyOp53
 70
     1
102
RTVSPropertyOp54
 70
     1
102
RTVSPropertyOp55
 70
     1
102
RTVSPropertyOp56
 70
     1
102
RTVSPropertyOp57
 70
     1
102
RTVSPropertyOp58
 70
     1
102
RTVSPropertyOp59
 70
     1
102
RTVSPropertyOp60
 70
     1
102
RTVSPropertyOp61
 70
     1
102
RTVSPropertyOp62
 70
     1
  0
XRECORD
  5
26B4
102
{ACAD_REACTORS
330
26B3
102
}
330
26B3
100
AcDbXrecord
280
     1
102
RTVSPost2010Prop28
280
     0
102
RTVSPost2010PropOp28
 70
     1
102
RTVSPost2010Prop29
280
     1
102
RTVSPost2010PropOp29
 70
     1
102
RTVSPost2010Prop30
280
     1
102
RTVSPost2010PropOp30
 70
     1
102
RTVSPost2010Prop31
280
     0
102
RTVSPost2010PropOp31
 70
     1
102
RTVSPost2010Prop32
280
     0
102
RTVSPost2010PropOp32
 70
     1
102
RTVSPost2010Prop33
280
     0
102
RTVSPost2010PropOp33
 70
     1
102
RTVSPost2010Prop34
280
     0
102
RTVSPost2010PropOp34
 70
     1
102
RTVSPost2010Prop35
280
     0
102
RTVSPost2010PropOp35
 70
     1
102
RTVSPost2010Prop36
280
     0
102
RTVSPost2010PropOp36
 70
     1
102
RTVSPost2010Prop37
 90
       50
102
RTVSPost2010PropOp37
 70
     0
102
RTVSPost2010Prop38
140
0.0
102
RTVSPost2010PropOp38
 70
     0
102
RTVSPost2010Prop39
140
1.0
102
RTVSPost2010PropOp39
 70
     0
102
RTVSPost2010Prop40
 90
        0
102
RTVSPost2010PropOp40
 70
     0
102
RTVSPost2010Prop41ColorIndex
 90
       18
102
RTVSPost2010Prop41ColorRGB
 90
        0
102
RTVSPost2010PropOp41
 70
     0
102
RTVSPost2010Prop42
 90
       50
102
RTVSPost2010PropOp42
 70
     0
102
RTVSPost2010Prop43
 90
        3
102
RTVSPost2010PropOp43
 70
     0
102
RTVSPost2010Prop44ColorIndex
 90
        5
102
RTVSPost2010Prop44ColorRGB
 90
      255
102
RTVSPost2010PropOp44
 70
     0
102
RTVSPost2010Prop45
280
     0
102
RTVSPost2010PropOp45
 70
     1
102
RTVSPost2010Prop46
 90
       50
102
RTVSPost2010PropOp46
 70
     0
102
RTVSPost2010Prop47
 90
       50
102
RTVSPost2010PropOp47
 70
     0
102
RTVSPost2010Prop48
 90
       50
102
RTVSPost2010PropOp48
 70
     0
102
RTVSPost2010Prop49
280
     0
102
RTVSPost2010PropOp49
 70
     1
102
RTVSPost2010Prop50
 90
       50
102
RTVSPost2010PropOp50
 70
     0
102
RTVSPost2010Prop51ColorIndex
 90
      256
102
RTVSPost2010Prop51ColorRGB
 90
-16777216
102
RTVSPost2010PropOp51
 70
     0
102
RTVSPost2010Prop52
140
1.0
102
RTVSPost2010PropOp52
 70
     0
102
RTVSPost2010Prop53
 90
        2
102
RTVSPost2010PropOp53
 70
     0
102
RTVSPost2010Prop54
  1
strokes_ogs.tif
102
RTVSPost2010PropOp54
 70
     0
102
RTVSPost2010Prop55
280
     0
102
RTVSPost2010PropOp55
 70
     1
102
RTVSPost2010Prop56
140
1.0
102
RTVSPost2010PropOp56
 70
     0
102
RTVSPost2010Prop57
140
1.0
102
RTVSPost2010PropOp57
 70
     0
102
RTVSPropertyOp0
 70
     0
102
RTVSPropertyOp1
 70
     0
102
RTVSPropertyOp2
 70
     0
102
RTVSPropertyOp3
 70
     0
102
RTVSPropertyOp4
 70
     0
102
RTVSPropertyOp5
 70
     0
102
RTVSPropertyOp6
 70
     0
102
RTVSPropertyOp7
 70
     0
102
RTVSPropertyOp8
 70
     0
102
RTVSPropertyOp9
 70
     0
102
RTVSPropertyOp10
 70
     0
102
RTVSPropertyOp11
 70
     0
102
RTVSPropertyOp12
 70
     0
102
RTVSPropertyOp13
 70
     0
102
RTVSPropertyOp14
 70
     2
102
RTVSPropertyOp15
 70
     0
102
RTVSPropertyOp16
 70
     0
102
RTVSPropertyOp17
 70
     0
102
RTVSPropertyOp18
 70
     0
102
RTVSPropertyOp19
 70
     0
102
RTVSPropertyOp20
 70
     0
102
RTVSPropertyOp21
 70
     0
102
RTVSPropertyOp22
 70
     0
102
RTVSPropertyOp23
 70
     0
102
RTVSPropertyOp24
 70
     0
102
RTVSPropertyOp25
 70
     0
102
RTVSPropertyOp26
 70
     0
102
RTVSPropertyOp27
 70
     0
102
RTVSPropertyOp28
 70
     1
102
RTVSPropertyOp29
 70
     1
102
RTVSPropertyOp30
 70
     1
102
RTVSPropertyOp31
 70
     1
102
RTVSPropertyOp32
 70
     1
102
RTVSPropertyOp33
 70
     1
102
RTVSPropertyOp34
 70
     1
102
RTVSPropertyOp35
 70
     1
102
RTVSPropertyOp36
 70
     1
102
RTVSPropertyOp37
 70
     0
102
RTVSPropertyOp38
 70
     0
102
RTVSPropertyOp39
 70
     0
102
RTVSPropertyOp40
 70
     0
102
RTVSPropertyOp41
 70
     0
102
RTVSPropertyOp42
 70
     0
102
RTVSPropertyOp43
 70
     0
102
RTVSPropertyOp44
 70
     0
102
RTVSPropertyOp45
 70
     1
102
RTVSPropertyOp46
 70
     0
102
RTVSPropertyOp47
 70
     0
102
RTVSPropertyOp48
 70
     0
102
RTVSPropertyOp49
 70
     1
102
RTVSPropertyOp50
 70
     0
102
RTVSPropertyOp51
 70
     0
102
RTVSPropertyOp52
 70
     0
102
RTVSPropertyOp53
 70
     0
102
RTVSPropertyOp54
 70
     0
102
RTVSPropertyOp55
 70
     1
102
RTVSPropertyOp56
 70
     0
102
RTVSPropertyOp57
 70
     0
102
RTVSPropertyOp58
 70
     0
102
RTVSPropertyOp59
 70
     0
102
RTVSPropertyOp60
 70
     0
102
RTVSPropertyOp61
 70
     0
102
RTVSPropertyOp62
 70
     0
  0
XRECORD
  5
26A2
102
{ACAD_REACTORS
330
26A1
102
}
330
26A1
100
AcDbXrecord
280
     1
102
RTVSPost2010Prop28
280
     0
102
RTVSPost2010PropOp28
 70
     1
102
RTVSPost2010Prop29
280
     1
102
RTVSPost2010PropOp29
 70
     1
102
RTVSPost2010Prop30
280
     1
102
RTVSPost2010PropOp30
 70
     1
102
RTVSPost2010Prop31
280
     0
102
RTVSPost2010PropOp31
 70
     1
102
RTVSPost2010Prop32
280
     0
102
RTVSPost2010PropOp32
 70
     1
102
RTVSPost2010Prop33
280
     0
102
RTVSPost2010PropOp33
 70
     1
102
RTVSPost2010Prop34
280
     0
102
RTVSPost2010PropOp34
 70
     1
102
RTVSPost2010Prop35
280
     0
102
RTVSPost2010PropOp35
 70
     1
102
RTVSPost2010Prop36
280
     0
102
RTVSPost2010PropOp36
 70
     1
102
RTVSPost2010Prop37
 90
       50
102
RTVSPost2010PropOp37
 70
     1
102
RTVSPost2010Prop38
140
0.0
102
RTVSPost2010PropOp38
 70
     1
102
RTVSPost2010Prop39
140
1.0
102
RTVSPost2010PropOp39
 70
     1
102
RTVSPost2010Prop40
 90
        0
102
RTVSPost2010PropOp40
 70
     1
102
RTVSPost2010Prop41ColorIndex
 90
       18
102
RTVSPost2010Prop41ColorRGB
 90
        0
102
RTVSPost2010PropOp41
 70
     1
102
RTVSPost2010Prop42
 90
       50
102
RTVSPost2010PropOp42
 70
     1
102
RTVSPost2010Prop43
 90
        3
102
RTVSPost2010PropOp43
 70
     1
102
RTVSPost2010Prop44ColorIndex
 90
        5
102
RTVSPost2010Prop44ColorRGB
 90
      255
102
RTVSPost2010PropOp44
 70
     1
102
RTVSPost2010Prop45
280
     0
102
RTVSPost2010PropOp45
 70
     1
102
RTVSPost2010Prop46
 90
       50
102
RTVSPost2010PropOp46
 70
     1
102
RTVSPost2010Prop47
 90
       50
102
RTVSPost2010PropOp47
 70
     1
102
RTVSPost2010Prop48
 90
       50
102
RTVSPost2010PropOp48
 70
     1
102
RTVSPost2010Prop49
280
     0
102
RTVSPost2010PropOp49
 70
     1
102
RTVSPost2010Prop50
 90
       50
102
RTVSPost2010PropOp50
 70
     1
102
RTVSPost2010Prop51ColorIndex
 90
      256
102
RTVSPost2010Prop51ColorRGB
 90
-16777216
102
RTVSPost2010PropOp51
 70
     0
102
RTVSPost2010Prop52
140
1.0
102
RTVSPost2010PropOp52
 70
     0
102
RTVSPost2010Prop53
 90
        2
102
RTVSPost2010PropOp53
 70
     1
102
RTVSPost2010Prop54
  1
strokes_ogs.tif
102
RTVSPost2010PropOp54
 70
     1
102
RTVSPost2010Prop55
280
     0
102
RTVSPost2010PropOp55
 70
     1
102
RTVSPost2010Prop56
140
1.0
102
RTVSPost2010PropOp56
 70
     1
102
RTVSPost2010Prop57
140
1.0
102
RTVSPost2010PropOp57
 70
     1
102
RTVSPropertyOp0
 70
     1
102
RTVSPropertyOp1
 70
     1
102
RTVSPropertyOp2
 70
     1
102
RTVSPropertyOp3
 70
     1
102
RTVSPropertyOp4
 70
     1
102
RTVSPropertyOp5
 70
     1
102
RTVSPropertyOp6
 70
     1
102
RTVSPropertyOp7
 70
     1
102
RTVSPropertyOp8
 70
     1
102
RTVSPropertyOp9
 70
     1
102
RTVSPropertyOp10
 70
     1
102
RTVSPropertyOp11
 70
     1
102
RTVSPropertyOp12
 70
     1
102
RTVSPropertyOp13
 70
     1
102
RTVSPropertyOp14
 70
     1
102
RTVSPropertyOp15
 70
     1
102
RTVSPropertyOp16
 70
     1
102
RTVSPropertyOp17
 70
     1
102
RTVSPropertyOp18
 70
     1
102
RTVSPropertyOp19
 70
     1
102
RTVSPropertyOp20
 70
     1
102
RTVSPropertyOp21
 70
     1
102
RTVSPropertyOp22
 70
     1
102
RTVSPropertyOp23
 70
     1
102
RTVSPropertyOp24
 70
     1
102
RTVSPropertyOp25
 70
     1
102
RTVSPropertyOp26
 70
     1
102
RTVSPropertyOp27
 70
     1
102
RTVSPropertyOp28
 70
     1
102
RTVSPropertyOp29
 70
     1
102
RTVSPropertyOp30
 70
     1
102
RTVSPropertyOp31
 70
     1
102
RTVSPropertyOp32
 70
     1
102
RTVSPropertyOp33
 70
     1
102
RTVSPropertyOp34
 70
     1
102
RTVSPropertyOp35
 70
     1
102
RTVSPropertyOp36
 70
     1
102
RTVSPropertyOp37
 70
     1
102
RTVSPropertyOp38
 70
     1
102
RTVSPropertyOp39
 70
     1
102
RTVSPropertyOp40
 70
     1
102
RTVSPropertyOp41
 70
     1
102
RTVSPropertyOp42
 70
     1
102
RTVSPropertyOp43
 70
     1
102
RTVSPropertyOp44
 70
     1
102
RTVSPropertyOp45
 70
     1
102
RTVSPropertyOp46
 70
     1
102
RTVSPropertyOp47
 70
     1
102
RTVSPropertyOp48
 70
     1
102
RTVSPropertyOp49
 70
     1
102
RTVSPropertyOp50
 70
     1
102
RTVSPropertyOp51
 70
     0
102
RTVSPropertyOp52
 70
     0
102
RTVSPropertyOp53
 70
     1
102
RTVSPropertyOp54
 70
     1
102
RTVSPropertyOp55
 70
     1
102
RTVSPropertyOp56
 70
     1
102
RTVSPropertyOp57
 70
     1
102
RTVSPropertyOp58
 70
     1
102
RTVSPropertyOp59
 70
     1
102
RTVSPropertyOp60
 70
     1
102
RTVSPropertyOp61
 70
     1
102
RTVSPropertyOp62
 70
     1
  0
XRECORD
  5
2686
102
{ACAD_REACTORS
330
2685
102
}
330
2685
100
AcDbXrecord
280
     1
102
RTVSPost2010Prop28
280
     0
102
RTVSPost2010PropOp28
 70
     1
102
RTVSPost2010Prop29
280
     1
102
RTVSPost2010PropOp29
 70
     1
102
RTVSPost2010Prop30
280
     1
102
RTVSPost2010PropOp30
 70
     1
102
RTVSPost2010Prop31
280
     0
102
RTVSPost2010PropOp31
 70
     1
102
RTVSPost2010Prop32
280
     0
102
RTVSPost2010PropOp32
 70
     1
102
RTVSPost2010Prop33
280
     0
102
RTVSPost2010PropOp33
 70
     1
102
RTVSPost2010Prop34
280
     0
102
RTVSPost2010PropOp34
 70
     1
102
RTVSPost2010Prop35
280
     0
102
RTVSPost2010PropOp35
 70
     1
102
RTVSPost2010Prop36
280
     0
102
RTVSPost2010PropOp36
 70
     1
102
RTVSPost2010Prop37
 90
       50
102
RTVSPost2010PropOp37
 70
     1
102
RTVSPost2010Prop38
140
0.0
102
RTVSPost2010PropOp38
 70
     1
102
RTVSPost2010Prop39
140
1.0
102
RTVSPost2010PropOp39
 70
     1
102
RTVSPost2010Prop40
 90
        0
102
RTVSPost2010PropOp40
 70
     1
102
RTVSPost2010Prop41ColorIndex
 90
       18
102
RTVSPost2010Prop41ColorRGB
 90
        0
102
RTVSPost2010PropOp41
 70
     1
102
RTVSPost2010Prop42
 90
       50
102
RTVSPost2010PropOp42
 70
     1
102
RTVSPost2010Prop43
 90
        3
102
RTVSPost2010PropOp43
 70
     1
102
RTVSPost2010Prop44ColorIndex
 90
        5
102
RTVSPost2010Prop44ColorRGB
 90
      255
102
RTVSPost2010PropOp44
 70
     1
102
RTVSPost2010Prop45
280
     0
102
RTVSPost2010PropOp45
 70
     1
102
RTVSPost2010Prop46
 90
       50
102
RTVSPost2010PropOp46
 70
     1
102
RTVSPost2010Prop47
 90
       50
102
RTVSPost2010PropOp47
 70
     1
102
RTVSPost2010Prop48
 90
       50
102
RTVSPost2010PropOp48
 70
     1
102
RTVSPost2010Prop49
280
     0
102
RTVSPost2010PropOp49
 70
     1
102
RTVSPost2010Prop50
 90
       50
102
RTVSPost2010PropOp50
 70
     1
102
RTVSPost2010Prop51ColorIndex
 90
      256
102
RTVSPost2010Prop51ColorRGB
 90
-16777216
102
RTVSPost2010PropOp51
 70
     0
102
RTVSPost2010Prop52
140
1.0
102
RTVSPost2010PropOp52
 70
     0
102
RTVSPost2010Prop53
 90
        2
102
RTVSPost2010PropOp53
 70
     1
102
RTVSPost2010Prop54
  1
strokes_ogs.tif
102
RTVSPost2010PropOp54
 70
     1
102
RTVSPost2010Prop55
280
     0
102
RTVSPost2010PropOp55
 70
     1
102
RTVSPost2010Prop56
140
1.0
102
RTVSPost2010PropOp56
 70
     1
102
RTVSPost2010Prop57
140
1.0
102
RTVSPost2010PropOp57
 70
     1
102
RTVSPropertyOp0
 70
     1
102
RTVSPropertyOp1
 70
     1
102
RTVSPropertyOp2
 70
     1
102
RTVSPropertyOp3
 70
     1
102
RTVSPropertyOp4
 70
     1
102
RTVSPropertyOp5
 70
     1
102
RTVSPropertyOp6
 70
     1
102
RTVSPropertyOp7
 70
     1
102
RTVSPropertyOp8
 70
     1
102
RTVSPropertyOp9
 70
     1
102
RTVSPropertyOp10
 70
     1
102
RTVSPropertyOp11
 70
     1
102
RTVSPropertyOp12
 70
     1
102
RTVSPropertyOp13
 70
     1
102
RTVSPropertyOp14
 70
     1
102
RTVSPropertyOp15
 70
     1
102
RTVSPropertyOp16
 70
     1
102
RTVSPropertyOp17
 70
     1
102
RTVSPropertyOp18
 70
     1
102
RTVSPropertyOp19
 70
     1
102
RTVSPropertyOp20
 70
     1
102
RTVSPropertyOp21
 70
     1
102
RTVSPropertyOp22
 70
     1
102
RTVSPropertyOp23
 70
     1
102
RTVSPropertyOp24
 70
     1
102
RTVSPropertyOp25
 70
     1
102
RTVSPropertyOp26
 70
     1
102
RTVSPropertyOp27
 70
     1
102
RTVSPropertyOp28
 70
     1
102
RTVSPropertyOp29
 70
     1
102
RTVSPropertyOp30
 70
     1
102
RTVSPropertyOp31
 70
     1
102
RTVSPropertyOp32
 70
     1
102
RTVSPropertyOp33
 70
     1
102
RTVSPropertyOp34
 70
     1
102
RTVSPropertyOp35
 70
     1
102
RTVSPropertyOp36
 70
     1
102
RTVSPropertyOp37
 70
     1
102
RTVSPropertyOp38
 70
     1
102
RTVSPropertyOp39
 70
     1
102
RTVSPropertyOp40
 70
     1
102
RTVSPropertyOp41
 70
     1
102
RTVSPropertyOp42
 70
     1
102
RTVSPropertyOp43
 70
     1
102
RTVSPropertyOp44
 70
     1
102
RTVSPropertyOp45
 70
     1
102
RTVSPropertyOp46
 70
     1
102
RTVSPropertyOp47
 70
     1
102
RTVSPropertyOp48
 70
     1
102
RTVSPropertyOp49
 70
     1
102
RTVSPropertyOp50
 70
     1
102
RTVSPropertyOp51
 70
     0
102
RTVSPropertyOp52
 70
     0
102
RTVSPropertyOp53
 70
     1
102
RTVSPropertyOp54
 70
     1
102
RTVSPropertyOp55
 70
     1
102
RTVSPropertyOp56
 70
     1
102
RTVSPropertyOp57
 70
     1
102
RTVSPropertyOp58
 70
     1
102
RTVSPropertyOp59
 70
     1
102
RTVSPropertyOp60
 70
     1
102
RTVSPropertyOp61
 70
     1
102
RTVSPropertyOp62
 70
     1
  0
XRECORD
  5
2688
102
{ACAD_REACTORS
330
2687
102
}
330
2687
100
AcDbXrecord
280
     1
102
RTVSPost2010Prop28
280
     0
102
RTVSPost2010PropOp28
 70
     1
102
RTVSPost2010Prop29
280
     1
102
RTVSPost2010PropOp29
 70
     1
102
RTVSPost2010Prop30
280
     1
102
RTVSPost2010PropOp30
 70
     1
102
RTVSPost2010Prop31
280
     0
102
RTVSPost2010PropOp31
 70
     1
102
RTVSPost2010Prop32
280
     0
102
RTVSPost2010PropOp32
 70
     1
102
RTVSPost2010Prop33
280
     0
102
RTVSPost2010PropOp33
 70
     1
102
RTVSPost2010Prop34
280
     0
102
RTVSPost2010PropOp34
 70
     1
102
RTVSPost2010Prop35
280
     0
102
RTVSPost2010PropOp35
 70
     1
102
RTVSPost2010Prop36
280
     0
102
RTVSPost2010PropOp36
 70
     1
102
RTVSPost2010Prop37
 90
       50
102
RTVSPost2010PropOp37
 70
     1
102
RTVSPost2010Prop38
140
0.0
102
RTVSPost2010PropOp38
 70
     1
102
RTVSPost2010Prop39
140
1.0
102
RTVSPost2010PropOp39
 70
     1
102
RTVSPost2010Prop40
 90
        0
102
RTVSPost2010PropOp40
 70
     1
102
RTVSPost2010Prop41ColorIndex
 90
       18
102
RTVSPost2010Prop41ColorRGB
 90
        0
102
RTVSPost2010PropOp41
 70
     1
102
RTVSPost2010Prop42
 90
       50
102
RTVSPost2010PropOp42
 70
     1
102
RTVSPost2010Prop43
 90
        3
102
RTVSPost2010PropOp43
 70
     1
102
RTVSPost2010Prop44ColorIndex
 90
        5
102
RTVSPost2010Prop44ColorRGB
 90
      255
102
RTVSPost2010PropOp44
 70
     1
102
RTVSPost2010Prop45
280
     0
102
RTVSPost2010PropOp45
 70
     1
102
RTVSPost2010Prop46
 90
       50
102
RTVSPost2010PropOp46
 70
     1
102
RTVSPost2010Prop47
 90
       50
102
RTVSPost2010PropOp47
 70
     1
102
RTVSPost2010Prop48
 90
       50
102
RTVSPost2010PropOp48
 70
     1
102
RTVSPost2010Prop49
280
     0
102
RTVSPost2010PropOp49
 70
     1
102
RTVSPost2010Prop50
 90
       50
102
RTVSPost2010PropOp50
 70
     1
102
RTVSPost2010Prop51ColorIndex
 90
      256
102
RTVSPost2010Prop51ColorRGB
 90
-16777216
102
RTVSPost2010PropOp51
 70
     0
102
RTVSPost2010Prop52
140
1.0
102
RTVSPost2010PropOp52
 70
     0
102
RTVSPost2010Prop53
 90
        2
102
RTVSPost2010PropOp53
 70
     1
102
RTVSPost2010Prop54
  1
strokes_ogs.tif
102
RTVSPost2010PropOp54
 70
     1
102
RTVSPost2010Prop55
280
     0
102
RTVSPost2010PropOp55
 70
     1
102
RTVSPost2010Prop56
140
1.0
102
RTVSPost2010PropOp56
 70
     1
102
RTVSPost2010Prop57
140
1.0
102
RTVSPost2010PropOp57
 70
     1
102
RTVSPropertyOp0
 70
     1
102
RTVSPropertyOp1
 70
     1
102
RTVSPropertyOp2
 70
     1
102
RTVSPropertyOp3
 70
     1
102
RTVSPropertyOp4
 70
     1
102
RTVSPropertyOp5
 70
     1
102
RTVSPropertyOp6
 70
     1
102
RTVSPropertyOp7
 70
     1
102
RTVSPropertyOp8
 70
     1
102
RTVSPropertyOp9
 70
     1
102
RTVSPropertyOp10
 70
     1
102
RTVSPropertyOp11
 70
     1
102
RTVSPropertyOp12
 70
     1
102
RTVSPropertyOp13
 70
     1
102
RTVSPropertyOp14
 70
     1
102
RTVSPropertyOp15
 70
     1
102
RTVSPropertyOp16
 70
     1
102
RTVSPropertyOp17
 70
     1
102
RTVSPropertyOp18
 70
     1
102
RTVSPropertyOp19
 70
     1
102
RTVSPropertyOp20
 70
     1
102
RTVSPropertyOp21
 70
     1
102
RTVSPropertyOp22
 70
     1
102
RTVSPropertyOp23
 70
     1
102
RTVSPropertyOp24
 70
     1
102
RTVSPropertyOp25
 70
     1
102
RTVSPropertyOp26
 70
     1
102
RTVSPropertyOp27
 70
     1
102
RTVSPropertyOp28
 70
     1
102
RTVSPropertyOp29
 70
     1
102
RTVSPropertyOp30
 70
     1
102
RTVSPropertyOp31
 70
     1
102
RTVSPropertyOp32
 70
     1
102
RTVSPropertyOp33
 70
     1
102
RTVSPropertyOp34
 70
     1
102
RTVSPropertyOp35
 70
     1
102
RTVSPropertyOp36
 70
     1
102
RTVSPropertyOp37
 70
     1
102
RTVSPropertyOp38
 70
     1
102
RTVSPropertyOp39
 70
     1
102
RTVSPropertyOp40
 70
     1
102
RTVSPropertyOp41
 70
     1
102
RTVSPropertyOp42
 70
     1
102
RTVSPropertyOp43
 70
     1
102
RTVSPropertyOp44
 70
     1
102
RTVSPropertyOp45
 70
     1
102
RTVSPropertyOp46
 70
     1
102
RTVSPropertyOp47
 70
     1
102
RTVSPropertyOp48
 70
     1
102
RTVSPropertyOp49
 70
     1
102
RTVSPropertyOp50
 70
     1
102
RTVSPropertyOp51
 70
     0
102
RTVSPropertyOp52
 70
     0
102
RTVSPropertyOp53
 70
     1
102
RTVSPropertyOp54
 70
     1
102
RTVSPropertyOp55
 70
     1
102
RTVSPropertyOp56
 70
     1
102
RTVSPropertyOp57
 70
     1
102
RTVSPropertyOp58
 70
     1
102
RTVSPropertyOp59
 70
     1
102
RTVSPropertyOp60
 70
     1
102
RTVSPropertyOp61
 70
     1
102
RTVSPropertyOp62
 70
     1
  0
XRECORD
  5
268A
102
{ACAD_REACTORS
330
2689
102
}
330
2689
100
AcDbXrecord
280
     1
102
RTVSPost2010Prop28
280
     0
102
RTVSPost2010PropOp28
 70
     1
102
RTVSPost2010Prop29
280
     1
102
RTVSPost2010PropOp29
 70
     1
102
RTVSPost2010Prop30
280
     1
102
RTVSPost2010PropOp30
 70
     1
102
RTVSPost2010Prop31
280
     0
102
RTVSPost2010PropOp31
 70
     1
102
RTVSPost2010Prop32
280
     0
102
RTVSPost2010PropOp32
 70
     1
102
RTVSPost2010Prop33
280
     0
102
RTVSPost2010PropOp33
 70
     1
102
RTVSPost2010Prop34
280
     0
102
RTVSPost2010PropOp34
 70
     1
102
RTVSPost2010Prop35
280
     0
102
RTVSPost2010PropOp35
 70
     1
102
RTVSPost2010Prop36
280
     0
102
RTVSPost2010PropOp36
 70
     1
102
RTVSPost2010Prop37
 90
       50
102
RTVSPost2010PropOp37
 70
     1
102
RTVSPost2010Prop38
140
0.0
102
RTVSPost2010PropOp38
 70
     1
102
RTVSPost2010Prop39
140
1.0
102
RTVSPost2010PropOp39
 70
     1
102
RTVSPost2010Prop40
 90
        0
102
RTVSPost2010PropOp40
 70
     1
102
RTVSPost2010Prop41ColorIndex
 90
       18
102
RTVSPost2010Prop41ColorRGB
 90
        0
102
RTVSPost2010PropOp41
 70
     1
102
RTVSPost2010Prop42
 90
       50
102
RTVSPost2010PropOp42
 70
     1
102
RTVSPost2010Prop43
 90
        3
102
RTVSPost2010PropOp43
 70
     1
102
RTVSPost2010Prop44ColorIndex
 90
        5
102
RTVSPost2010Prop44ColorRGB
 90
      255
102
RTVSPost2010PropOp44
 70
     1
102
RTVSPost2010Prop45
280
     0
102
RTVSPost2010PropOp45
 70
     1
102
RTVSPost2010Prop46
 90
       50
102
RTVSPost2010PropOp46
 70
     1
102
RTVSPost2010Prop47
 90
       50
102
RTVSPost2010PropOp47
 70
     1
102
RTVSPost2010Prop48
 90
       50
102
RTVSPost2010PropOp48
 70
     1
102
RTVSPost2010Prop49
280
     0
102
RTVSPost2010PropOp49
 70
     1
102
RTVSPost2010Prop50
 90
       50
102
RTVSPost2010PropOp50
 70
     1
102
RTVSPost2010Prop51ColorIndex
 90
      256
102
RTVSPost2010Prop51ColorRGB
 90
-16777216
102
RTVSPost2010PropOp51
 70
     0
102
RTVSPost2010Prop52
140
1.0
102
RTVSPost2010PropOp52
 70
     0
102
RTVSPost2010Prop53
 90
        2
102
RTVSPost2010PropOp53
 70
     1
102
RTVSPost2010Prop54
  1
strokes_ogs.tif
102
RTVSPost2010PropOp54
 70
     1
102
RTVSPost2010Prop55
280
     0
102
RTVSPost2010PropOp55
 70
     1
102
RTVSPost2010Prop56
140
1.0
102
RTVSPost2010PropOp56
 70
     1
102
RTVSPost2010Prop57
140
1.0
102
RTVSPost2010PropOp57
 70
     1
102
RTVSPropertyOp0
 70
     1
102
RTVSPropertyOp1
 70
     1
102
RTVSPropertyOp2
 70
     1
102
RTVSPropertyOp3
 70
     1
102
RTVSPropertyOp4
 70
     1
102
RTVSPropertyOp5
 70
     1
102
RTVSPropertyOp6
 70
     1
102
RTVSPropertyOp7
 70
     1
102
RTVSPropertyOp8
 70
     1
102
RTVSPropertyOp9
 70
     1
102
RTVSPropertyOp10
 70
     1
102
RTVSPropertyOp11
 70
     1
102
RTVSPropertyOp12
 70
     1
102
RTVSPropertyOp13
 70
     1
102
RTVSPropertyOp14
 70
     1
102
RTVSPropertyOp15
 70
     1
102
RTVSPropertyOp16
 70
     1
102
RTVSPropertyOp17
 70
     1
102
RTVSPropertyOp18
 70
     1
102
RTVSPropertyOp19
 70
     1
102
RTVSPropertyOp20
 70
     1
102
RTVSPropertyOp21
 70
     1
102
RTVSPropertyOp22
 70
     1
102
RTVSPropertyOp23
 70
     1
102
RTVSPropertyOp24
 70
     1
102
RTVSPropertyOp25
 70
     1
102
RTVSPropertyOp26
 70
     1
102
RTVSPropertyOp27
 70
     1
102
RTVSPropertyOp28
 70
     1
102
RTVSPropertyOp29
 70
     1
102
RTVSPropertyOp30
 70
     1
102
RTVSPropertyOp31
 70
     1
102
RTVSPropertyOp32
 70
     1
102
RTVSPropertyOp33
 70
     1
102
RTVSPropertyOp34
 70
     1
102
RTVSPropertyOp35
 70
     1
102
RTVSPropertyOp36
 70
     1
102
RTVSPropertyOp37
 70
     1
102
RTVSPropertyOp38
 70
     1
102
RTVSPropertyOp39
 70
     1
102
RTVSPropertyOp40
 70
     1
102
RTVSPropertyOp41
 70
     1
102
RTVSPropertyOp42
 70
     1
102
RTVSPropertyOp43
 70
     1
102
RTVSPropertyOp44
 70
     1
102
RTVSPropertyOp45
 70
     1
102
RTVSPropertyOp46
 70
     1
102
RTVSPropertyOp47
 70
     1
102
RTVSPropertyOp48
 70
     1
102
RTVSPropertyOp49
 70
     1
102
RTVSPropertyOp50
 70
     1
102
RTVSPropertyOp51
 70
     0
102
RTVSPropertyOp52
 70
     0
102
RTVSPropertyOp53
 70
     1
102
RTVSPropertyOp54
 70
     1
102
RTVSPropertyOp55
 70
     1
102
RTVSPropertyOp56
 70
     1
102
RTVSPropertyOp57
 70
     1
102
RTVSPropertyOp58
 70
     1
102
RTVSPropertyOp59
 70
     1
102
RTVSPropertyOp60
 70
     1
102
RTVSPropertyOp61
 70
     1
102
RTVSPropertyOp62
 70
     1
  0
XRECORD
  5
268C
102
{ACAD_REACTORS
330
268B
102
}
330
268B
100
AcDbXrecord
280
     1
102
RTVSPost2010Prop28
280
     0
102
RTVSPost2010PropOp28
 70
     1
102
RTVSPost2010Prop29
280
     1
102
RTVSPost2010PropOp29
 70
     1
102
RTVSPost2010Prop30
280
     1
102
RTVSPost2010PropOp30
 70
     1
102
RTVSPost2010Prop31
280
     0
102
RTVSPost2010PropOp31
 70
     1
102
RTVSPost2010Prop32
280
     0
102
RTVSPost2010PropOp32
 70
     1
102
RTVSPost2010Prop33
280
     0
102
RTVSPost2010PropOp33
 70
     1
102
RTVSPost2010Prop34
280
     0
102
RTVSPost2010PropOp34
 70
     1
102
RTVSPost2010Prop35
280
     0
102
RTVSPost2010PropOp35
 70
     1
102
RTVSPost2010Prop36
280
     0
102
RTVSPost2010PropOp36
 70
     1
102
RTVSPost2010Prop37
 90
       50
102
RTVSPost2010PropOp37
 70
     1
102
RTVSPost2010Prop38
140
0.0
102
RTVSPost2010PropOp38
 70
     1
102
RTVSPost2010Prop39
140
1.0
102
RTVSPost2010PropOp39
 70
     1
102
RTVSPost2010Prop40
 90
        0
102
RTVSPost2010PropOp40
 70
     1
102
RTVSPost2010Prop41ColorIndex
 90
       18
102
RTVSPost2010Prop41ColorRGB
 90
        0
102
RTVSPost2010PropOp41
 70
     1
102
RTVSPost2010Prop42
 90
       50
102
RTVSPost2010PropOp42
 70
     1
102
RTVSPost2010Prop43
 90
        3
102
RTVSPost2010PropOp43
 70
     1
102
RTVSPost2010Prop44ColorIndex
 90
        5
102
RTVSPost2010Prop44ColorRGB
 90
      255
102
RTVSPost2010PropOp44
 70
     1
102
RTVSPost2010Prop45
280
     0
102
RTVSPost2010PropOp45
 70
     1
102
RTVSPost2010Prop46
 90
       50
102
RTVSPost2010PropOp46
 70
     1
102
RTVSPost2010Prop47
 90
       50
102
RTVSPost2010PropOp47
 70
     1
102
RTVSPost2010Prop48
 90
       50
102
RTVSPost2010PropOp48
 70
     1
102
RTVSPost2010Prop49
280
     0
102
RTVSPost2010PropOp49
 70
     1
102
RTVSPost2010Prop50
 90
       50
102
RTVSPost2010PropOp50
 70
     1
102
RTVSPost2010Prop51ColorIndex
 90
      256
102
RTVSPost2010Prop51ColorRGB
 90
-16777216
102
RTVSPost2010PropOp51
 70
     0
102
RTVSPost2010Prop52
140
1.0
102
RTVSPost2010PropOp52
 70
     0
102
RTVSPost2010Prop53
 90
        2
102
RTVSPost2010PropOp53
 70
     1
102
RTVSPost2010Prop54
  1
strokes_ogs.tif
102
RTVSPost2010PropOp54
 70
     1
102
RTVSPost2010Prop55
280
     0
102
RTVSPost2010PropOp55
 70
     1
102
RTVSPost2010Prop56
140
1.0
102
RTVSPost2010PropOp56
 70
     1
102
RTVSPost2010Prop57
140
1.0
102
RTVSPost2010PropOp57
 70
     1
102
RTVSPropertyOp0
 70
     1
102
RTVSPropertyOp1
 70
     1
102
RTVSPropertyOp2
 70
     1
102
RTVSPropertyOp3
 70
     1
102
RTVSPropertyOp4
 70
     1
102
RTVSPropertyOp5
 70
     1
102
RTVSPropertyOp6
 70
     1
102
RTVSPropertyOp7
 70
     1
102
RTVSPropertyOp8
 70
     1
102
RTVSPropertyOp9
 70
     1
102
RTVSPropertyOp10
 70
     1
102
RTVSPropertyOp11
 70
     1
102
RTVSPropertyOp12
 70
     1
102
RTVSPropertyOp13
 70
     1
102
RTVSPropertyOp14
 70
     1
102
RTVSPropertyOp15
 70
     1
102
RTVSPropertyOp16
 70
     1
102
RTVSPropertyOp17
 70
     1
102
RTVSPropertyOp18
 70
     1
102
RTVSPropertyOp19
 70
     1
102
RTVSPropertyOp20
 70
     1
102
RTVSPropertyOp21
 70
     1
102
RTVSPropertyOp22
 70
     1
102
RTVSPropertyOp23
 70
     1
102
RTVSPropertyOp24
 70
     1
102
RTVSPropertyOp25
 70
     1
102
RTVSPropertyOp26
 70
     1
102
RTVSPropertyOp27
 70
     1
102
RTVSPropertyOp28
 70
     1
102
RTVSPropertyOp29
 70
     1
102
RTVSPropertyOp30
 70
     1
102
RTVSPropertyOp31
 70
     1
102
RTVSPropertyOp32
 70
     1
102
RTVSPropertyOp33
 70
     1
102
RTVSPropertyOp34
 70
     1
102
RTVSPropertyOp35
 70
     1
102
RTVSPropertyOp36
 70
     1
102
RTVSPropertyOp37
 70
     1
102
RTVSPropertyOp38
 70
     1
102
RTVSPropertyOp39
 70
     1
102
RTVSPropertyOp40
 70
     1
102
RTVSPropertyOp41
 70
     1
102
RTVSPropertyOp42
 70
     1
102
RTVSPropertyOp43
 70
     1
102
RTVSPropertyOp44
 70
     1
102
RTVSPropertyOp45
 70
     1
102
RTVSPropertyOp46
 70
     1
102
RTVSPropertyOp47
 70
     1
102
RTVSPropertyOp48
 70
     1
102
RTVSPropertyOp49
 70
     1
102
RTVSPropertyOp50
 70
     1
102
RTVSPropertyOp51
 70
     0
102
RTVSPropertyOp52
 70
     0
102
RTVSPropertyOp53
 70
     1
102
RTVSPropertyOp54
 70
     1
102
RTVSPropertyOp55
 70
     1
102
RTVSPropertyOp56
 70
     1
102
RTVSPropertyOp57
 70
     1
102
RTVSPropertyOp58
 70
     1
102
RTVSPropertyOp59
 70
     1
102
RTVSPropertyOp60
 70
     1
102
RTVSPropertyOp61
 70
     1
102
RTVSPropertyOp62
 70
     1
  0
XRECORD
  5
2694
102
{ACAD_REACTORS
330
2693
102
}
330
2693
100
AcDbXrecord
280
     1
102
RTVSPost2010Prop28
280
     0
102
RTVSPost2010PropOp28
 70
     1
102
RTVSPost2010Prop29
280
     1
102
RTVSPost2010PropOp29
 70
     1
102
RTVSPost2010Prop30
280
     1
102
RTVSPost2010PropOp30
 70
     1
102
RTVSPost2010Prop31
280
     0
102
RTVSPost2010PropOp31
 70
     1
102
RTVSPost2010Prop32
280
     0
102
RTVSPost2010PropOp32
 70
     1
102
RTVSPost2010Prop33
280
     0
102
RTVSPost2010PropOp33
 70
     1
102
RTVSPost2010Prop34
280
     0
102
RTVSPost2010PropOp34
 70
     1
102
RTVSPost2010Prop35
280
     0
102
RTVSPost2010PropOp35
 70
     1
102
RTVSPost2010Prop36
280
     0
102
RTVSPost2010PropOp36
 70
     1
102
RTVSPost2010Prop37
 90
       50
102
RTVSPost2010PropOp37
 70
     1
102
RTVSPost2010Prop38
140
0.0
102
RTVSPost2010PropOp38
 70
     1
102
RTVSPost2010Prop39
140
1.0
102
RTVSPost2010PropOp39
 70
     1
102
RTVSPost2010Prop40
 90
        0
102
RTVSPost2010PropOp40
 70
     1
102
RTVSPost2010Prop41ColorIndex
 90
       18
102
RTVSPost2010Prop41ColorRGB
 90
        0
102
RTVSPost2010PropOp41
 70
     1
102
RTVSPost2010Prop42
 90
       50
102
RTVSPost2010PropOp42
 70
     1
102
RTVSPost2010Prop43
 90
        3
102
RTVSPost2010PropOp43
 70
     1
102
RTVSPost2010Prop44ColorIndex
 90
        5
102
RTVSPost2010Prop44ColorRGB
 90
      255
102
RTVSPost2010PropOp44
 70
     1
102
RTVSPost2010Prop45
280
     0
102
RTVSPost2010PropOp45
 70
     1
102
RTVSPost2010Prop46
 90
       50
102
RTVSPost2010PropOp46
 70
     1
102
RTVSPost2010Prop47
 90
       50
102
RTVSPost2010PropOp47
 70
     1
102
RTVSPost2010Prop48
 90
       50
102
RTVSPost2010PropOp48
 70
     1
102
RTVSPost2010Prop49
280
     0
102
RTVSPost2010PropOp49
 70
     1
102
RTVSPost2010Prop50
 90
       50
102
RTVSPost2010PropOp50
 70
     1
102
RTVSPost2010Prop51ColorIndex
 90
      256
102
RTVSPost2010Prop51ColorRGB
 90
-16777216
102
RTVSPost2010PropOp51
 70
     0
102
RTVSPost2010Prop52
140
1.0
102
RTVSPost2010PropOp52
 70
     0
102
RTVSPost2010Prop53
 90
        2
102
RTVSPost2010PropOp53
 70
     1
102
RTVSPost2010Prop54
  1
strokes_ogs.tif
102
RTVSPost2010PropOp54
 70
     1
102
RTVSPost2010Prop55
280
     0
102
RTVSPost2010PropOp55
 70
     1
102
RTVSPost2010Prop56
140
1.0
102
RTVSPost2010PropOp56
 70
     1
102
RTVSPost2010Prop57
140
1.0
102
RTVSPost2010PropOp57
 70
     1
102
RTVSPropertyOp0
 70
     1
102
RTVSPropertyOp1
 70
     1
102
RTVSPropertyOp2
 70
     1
102
RTVSPropertyOp3
 70
     1
102
RTVSPropertyOp4
 70
     1
102
RTVSPropertyOp5
 70
     1
102
RTVSPropertyOp6
 70
     1
102
RTVSPropertyOp7
 70
     1
102
RTVSPropertyOp8
 70
     1
102
RTVSPropertyOp9
 70
     1
102
RTVSPropertyOp10
 70
     1
102
RTVSPropertyOp11
 70
     1
102
RTVSPropertyOp12
 70
     1
102
RTVSPropertyOp13
 70
     1
102
RTVSPropertyOp14
 70
     1
102
RTVSPropertyOp15
 70
     1
102
RTVSPropertyOp16
 70
     1
102
RTVSPropertyOp17
 70
     1
102
RTVSPropertyOp18
 70
     1
102
RTVSPropertyOp19
 70
     1
102
RTVSPropertyOp20
 70
     1
102
RTVSPropertyOp21
 70
     1
102
RTVSPropertyOp22
 70
     1
102
RTVSPropertyOp23
 70
     1
102
RTVSPropertyOp24
 70
     1
102
RTVSPropertyOp25
 70
     1
102
RTVSPropertyOp26
 70
     1
102
RTVSPropertyOp27
 70
     1
102
RTVSPropertyOp28
 70
     1
102
RTVSPropertyOp29
 70
     1
102
RTVSPropertyOp30
 70
     1
102
RTVSPropertyOp31
 70
     1
102
RTVSPropertyOp32
 70
     1
102
RTVSPropertyOp33
 70
     1
102
RTVSPropertyOp34
 70
     1
102
RTVSPropertyOp35
 70
     1
102
RTVSPropertyOp36
 70
     1
102
RTVSPropertyOp37
 70
     1
102
RTVSPropertyOp38
 70
     1
102
RTVSPropertyOp39
 70
     1
102
RTVSPropertyOp40
 70
     1
102
RTVSPropertyOp41
 70
     1
102
RTVSPropertyOp42
 70
     1
102
RTVSPropertyOp43
 70
     1
102
RTVSPropertyOp44
 70
     1
102
RTVSPropertyOp45
 70
     1
102
RTVSPropertyOp46
 70
     1
102
RTVSPropertyOp47
 70
     1
102
RTVSPropertyOp48
 70
     1
102
RTVSPropertyOp49
 70
     1
102
RTVSPropertyOp50
 70
     1
102
RTVSPropertyOp51
 70
     0
102
RTVSPropertyOp52
 70
     0
102
RTVSPropertyOp53
 70
     1
102
RTVSPropertyOp54
 70
     1
102
RTVSPropertyOp55
 70
     1
102
RTVSPropertyOp56
 70
     1
102
RTVSPropertyOp57
 70
     1
102
RTVSPropertyOp58
 70
     1
102
RTVSPropertyOp59
 70
     1
102
RTVSPropertyOp60
 70
     1
102
RTVSPropertyOp61
 70
     1
102
RTVSPropertyOp62
 70
     1
  0
XRECORD
  5
26B0
102
{ACAD_REACTORS
330
26AF
102
}
330
26AF
100
AcDbXrecord
280
     1
102
RTVSPost2010Prop28
280
     0
102
RTVSPost2010PropOp28
 70
     1
102
RTVSPost2010Prop29
280
     1
102
RTVSPost2010PropOp29
 70
     1
102
RTVSPost2010Prop30
280
     1
102
RTVSPost2010PropOp30
 70
     1
102
RTVSPost2010Prop31
280
     0
102
RTVSPost2010PropOp31
 70
     1
102
RTVSPost2010Prop32
280
     0
102
RTVSPost2010PropOp32
 70
     1
102
RTVSPost2010Prop33
280
     0
102
RTVSPost2010PropOp33
 70
     1
102
RTVSPost2010Prop34
280
     0
102
RTVSPost2010PropOp34
 70
     1
102
RTVSPost2010Prop35
280
     0
102
RTVSPost2010PropOp35
 70
     1
102
RTVSPost2010Prop36
280
     0
102
RTVSPost2010PropOp36
 70
     1
102
RTVSPost2010Prop37
 90
       50
102
RTVSPost2010PropOp37
 70
     0
102
RTVSPost2010Prop38
140
0.0
102
RTVSPost2010PropOp38
 70
     0
102
RTVSPost2010Prop39
140
1.0
102
RTVSPost2010PropOp39
 70
     0
102
RTVSPost2010Prop40
 90
        0
102
RTVSPost2010PropOp40
 70
     0
102
RTVSPost2010Prop41ColorIndex
 90
       18
102
RTVSPost2010Prop41ColorRGB
 90
        0
102
RTVSPost2010PropOp41
 70
     0
102
RTVSPost2010Prop42
 90
       50
102
RTVSPost2010PropOp42
 70
     0
102
RTVSPost2010Prop43
 90
        3
102
RTVSPost2010PropOp43
 70
     0
102
RTVSPost2010Prop44ColorIndex
 90
        5
102
RTVSPost2010Prop44ColorRGB
 90
      255
102
RTVSPost2010PropOp44
 70
     0
102
RTVSPost2010Prop45
280
     0
102
RTVSPost2010PropOp45
 70
     1
102
RTVSPost2010Prop46
 90
       50
102
RTVSPost2010PropOp46
 70
     0
102
RTVSPost2010Prop47
 90
       50
102
RTVSPost2010PropOp47
 70
     0
102
RTVSPost2010Prop48
 90
       50
102
RTVSPost2010PropOp48
 70
     0
102
RTVSPost2010Prop49
280
     0
102
RTVSPost2010PropOp49
 70
     1
102
RTVSPost2010Prop50
 90
       50
102
RTVSPost2010PropOp50
 70
     0
102
RTVSPost2010Prop51ColorIndex
 90
      256
102
RTVSPost2010Prop51ColorRGB
 90
-16777216
102
RTVSPost2010PropOp51
 70
     0
102
RTVSPost2010Prop52
140
1.0
102
RTVSPost2010PropOp52
 70
     0
102
RTVSPost2010Prop53
 90
        2
102
RTVSPost2010PropOp53
 70
     0
102
RTVSPost2010Prop54
  1
strokes_ogs.tif
102
RTVSPost2010PropOp54
 70
     0
102
RTVSPost2010Prop55
280
     0
102
RTVSPost2010PropOp55
 70
     1
102
RTVSPost2010Prop56
140
1.0
102
RTVSPost2010PropOp56
 70
     0
102
RTVSPost2010Prop57
140
1.0
102
RTVSPost2010PropOp57
 70
     0
102
RTVSPropertyOp0
 70
     0
102
RTVSPropertyOp1
 70
     0
102
RTVSPropertyOp2
 70
     0
102
RTVSPropertyOp3
 70
     0
102
RTVSPropertyOp4
 70
     0
102
RTVSPropertyOp5
 70
     0
102
RTVSPropertyOp6
 70
     0
102
RTVSPropertyOp7
 70
     0
102
RTVSPropertyOp8
 70
     0
102
RTVSPropertyOp9
 70
     0
102
RTVSPropertyOp10
 70
     0
102
RTVSPropertyOp11
 70
     0
102
RTVSPropertyOp12
 70
     0
102
RTVSPropertyOp13
 70
     0
102
RTVSPropertyOp14
 70
     2
102
RTVSPropertyOp15
 70
     0
102
RTVSPropertyOp16
 70
     0
102
RTVSPropertyOp17
 70
     0
102
RTVSPropertyOp18
 70
     0
102
RTVSPropertyOp19
 70
     0
102
RTVSPropertyOp20
 70
     0
102
RTVSPropertyOp21
 70
     0
102
RTVSPropertyOp22
 70
     0
102
RTVSPropertyOp23
 70
     0
102
RTVSPropertyOp24
 70
     0
102
RTVSPropertyOp25
 70
     0
102
RTVSPropertyOp26
 70
     0
102
RTVSPropertyOp27
 70
     0
102
RTVSPropertyOp28
 70
     1
102
RTVSPropertyOp29
 70
     1
102
RTVSPropertyOp30
 70
     1
102
RTVSPropertyOp31
 70
     1
102
RTVSPropertyOp32
 70
     1
102
RTVSPropertyOp33
 70
     1
102
RTVSPropertyOp34
 70
     1
102
RTVSPropertyOp35
 70
     1
102
RTVSPropertyOp36
 70
     1
102
RTVSPropertyOp37
 70
     0
102
RTVSPropertyOp38
 70
     0
102
RTVSPropertyOp39
 70
     0
102
RTVSPropertyOp40
 70
     0
102
RTVSPropertyOp41
 70
     0
102
RTVSPropertyOp42
 70
     0
102
RTVSPropertyOp43
 70
     0
102
RTVSPropertyOp44
 70
     0
102
RTVSPropertyOp45
 70
     1
102
RTVSPropertyOp46
 70
     0
102
RTVSPropertyOp47
 70
     0
102
RTVSPropertyOp48
 70
     0
102
RTVSPropertyOp49
 70
     1
102
RTVSPropertyOp50
 70
     0
102
RTVSPropertyOp51
 70
     0
102
RTVSPropertyOp52
 70
     0
102
RTVSPropertyOp53
 70
     0
102
RTVSPropertyOp54
 70
     0
102
RTVSPropertyOp55
 70
     1
102
RTVSPropertyOp56
 70
     0
102
RTVSPropertyOp57
 70
     0
102
RTVSPropertyOp58
 70
     0
102
RTVSPropertyOp59
 70
     0
102
RTVSPropertyOp60
 70
     0
102
RTVSPropertyOp61
 70
     0
102
RTVSPropertyOp62
 70
     0
  0
XRECORD
  5
26A0
102
{ACAD_REACTORS
330
269F
102
}
330
269F
100
AcDbXrecord
280
     1
102
RTVSPost2010Prop28
280
     0
102
RTVSPost2010PropOp28
 70
     1
102
RTVSPost2010Prop29
280
     1
102
RTVSPost2010PropOp29
 70
     1
102
RTVSPost2010Prop30
280
     1
102
RTVSPost2010PropOp30
 70
     1
102
RTVSPost2010Prop31
280
     0
102
RTVSPost2010PropOp31
 70
     1
102
RTVSPost2010Prop32
280
     0
102
RTVSPost2010PropOp32
 70
     1
102
RTVSPost2010Prop33
280
     0
102
RTVSPost2010PropOp33
 70
     1
102
RTVSPost2010Prop34
280
     0
102
RTVSPost2010PropOp34
 70
     1
102
RTVSPost2010Prop35
280
     0
102
RTVSPost2010PropOp35
 70
     1
102
RTVSPost2010Prop36
280
     0
102
RTVSPost2010PropOp36
 70
     1
102
RTVSPost2010Prop37
 90
       50
102
RTVSPost2010PropOp37
 70
     1
102
RTVSPost2010Prop38
140
0.0
102
RTVSPost2010PropOp38
 70
     1
102
RTVSPost2010Prop39
140
1.0
102
RTVSPost2010PropOp39
 70
     1
102
RTVSPost2010Prop40
 90
        0
102
RTVSPost2010PropOp40
 70
     1
102
RTVSPost2010Prop41ColorIndex
 90
       18
102
RTVSPost2010Prop41ColorRGB
 90
        0
102
RTVSPost2010PropOp41
 70
     1
102
RTVSPost2010Prop42
 90
       50
102
RTVSPost2010PropOp42
 70
     1
102
RTVSPost2010Prop43
 90
        3
102
RTVSPost2010PropOp43
 70
     1
102
RTVSPost2010Prop44ColorIndex
 90
        5
102
RTVSPost2010Prop44ColorRGB
 90
      255
102
RTVSPost2010PropOp44
 70
     1
102
RTVSPost2010Prop45
280
     0
102
RTVSPost2010PropOp45
 70
     1
102
RTVSPost2010Prop46
 90
       50
102
RTVSPost2010PropOp46
 70
     1
102
RTVSPost2010Prop47
 90
       50
102
RTVSPost2010PropOp47
 70
     1
102
RTVSPost2010Prop48
 90
       50
102
RTVSPost2010PropOp48
 70
     1
102
RTVSPost2010Prop49
280
     0
102
RTVSPost2010PropOp49
 70
     1
102
RTVSPost2010Prop50
 90
       50
102
RTVSPost2010PropOp50
 70
     1
102
RTVSPost2010Prop51ColorIndex
 90
      256
102
RTVSPost2010Prop51ColorRGB
 90
-16777216
102
RTVSPost2010PropOp51
 70
     0
102
RTVSPost2010Prop52
140
1.0
102
RTVSPost2010PropOp52
 70
     0
102
RTVSPost2010Prop53
 90
        2
102
RTVSPost2010PropOp53
 70
     1
102
RTVSPost2010Prop54
  1
strokes_ogs.tif
102
RTVSPost2010PropOp54
 70
     1
102
RTVSPost2010Prop55
280
     0
102
RTVSPost2010PropOp55
 70
     1
102
RTVSPost2010Prop56
140
1.0
102
RTVSPost2010PropOp56
 70
     1
102
RTVSPost2010Prop57
140
1.0
102
RTVSPost2010PropOp57
 70
     1
102
RTVSPropertyOp0
 70
     1
102
RTVSPropertyOp1
 70
     1
102
RTVSPropertyOp2
 70
     1
102
RTVSPropertyOp3
 70
     1
102
RTVSPropertyOp4
 70
     1
102
RTVSPropertyOp5
 70
     1
102
RTVSPropertyOp6
 70
     1
102
RTVSPropertyOp7
 70
     1
102
RTVSPropertyOp8
 70
     1
102
RTVSPropertyOp9
 70
     1
102
RTVSPropertyOp10
 70
     1
102
RTVSPropertyOp11
 70
     1
102
RTVSPropertyOp12
 70
     1
102
RTVSPropertyOp13
 70
     1
102
RTVSPropertyOp14
 70
     1
102
RTVSPropertyOp15
 70
     1
102
RTVSPropertyOp16
 70
     1
102
RTVSPropertyOp17
 70
     1
102
RTVSPropertyOp18
 70
     1
102
RTVSPropertyOp19
 70
     1
102
RTVSPropertyOp20
 70
     1
102
RTVSPropertyOp21
 70
     1
102
RTVSPropertyOp22
 70
     1
102
RTVSPropertyOp23
 70
     1
102
RTVSPropertyOp24
 70
     1
102
RTVSPropertyOp25
 70
     1
102
RTVSPropertyOp26
 70
     1
102
RTVSPropertyOp27
 70
     1
102
RTVSPropertyOp28
 70
     1
102
RTVSPropertyOp29
 70
     1
102
RTVSPropertyOp30
 70
     1
102
RTVSPropertyOp31
 70
     1
102
RTVSPropertyOp32
 70
     1
102
RTVSPropertyOp33
 70
     1
102
RTVSPropertyOp34
 70
     1
102
RTVSPropertyOp35
 70
     1
102
RTVSPropertyOp36
 70
     1
102
RTVSPropertyOp37
 70
     1
102
RTVSPropertyOp38
 70
     1
102
RTVSPropertyOp39
 70
     1
102
RTVSPropertyOp40
 70
     1
102
RTVSPropertyOp41
 70
     1
102
RTVSPropertyOp42
 70
     1
102
RTVSPropertyOp43
 70
     1
102
RTVSPropertyOp44
 70
     1
102
RTVSPropertyOp45
 70
     1
102
RTVSPropertyOp46
 70
     1
102
RTVSPropertyOp47
 70
     1
102
RTVSPropertyOp48
 70
     1
102
RTVSPropertyOp49
 70
     1
102
RTVSPropertyOp50
 70
     1
102
RTVSPropertyOp51
 70
     0
102
RTVSPropertyOp52
 70
     0
102
RTVSPropertyOp53
 70
     1
102
RTVSPropertyOp54
 70
     1
102
RTVSPropertyOp55
 70
     1
102
RTVSPropertyOp56
 70
     1
102
RTVSPropertyOp57
 70
     1
102
RTVSPropertyOp58
 70
     1
102
RTVSPropertyOp59
 70
     1
102
RTVSPropertyOp60
 70
     1
102
RTVSPropertyOp61
 70
     1
102
RTVSPropertyOp62
 70
     1
  0
XRECORD
  5
26B2
102
{ACAD_REACTORS
330
26B1
102
}
330
26B1
100
AcDbXrecord
280
     1
102
RTVSPost2010Prop28
280
     0
102
RTVSPost2010PropOp28
 70
     1
102
RTVSPost2010Prop29
280
     1
102
RTVSPost2010PropOp29
 70
     1
102
RTVSPost2010Prop30
280
     1
102
RTVSPost2010PropOp30
 70
     1
102
RTVSPost2010Prop31
280
     0
102
RTVSPost2010PropOp31
 70
     1
102
RTVSPost2010Prop32
280
     0
102
RTVSPost2010PropOp32
 70
     1
102
RTVSPost2010Prop33
280
     0
102
RTVSPost2010PropOp33
 70
     1
102
RTVSPost2010Prop34
280
     0
102
RTVSPost2010PropOp34
 70
     1
102
RTVSPost2010Prop35
280
     0
102
RTVSPost2010PropOp35
 70
     1
102
RTVSPost2010Prop36
280
     0
102
RTVSPost2010PropOp36
 70
     1
102
RTVSPost2010Prop37
 90
       50
102
RTVSPost2010PropOp37
 70
     0
102
RTVSPost2010Prop38
140
0.0
102
RTVSPost2010PropOp38
 70
     0
102
RTVSPost2010Prop39
140
1.0
102
RTVSPost2010PropOp39
 70
     0
102
RTVSPost2010Prop40
 90
        0
102
RTVSPost2010PropOp40
 70
     0
102
RTVSPost2010Prop41ColorIndex
 90
       18
102
RTVSPost2010Prop41ColorRGB
 90
        0
102
RTVSPost2010PropOp41
 70
     0
102
RTVSPost2010Prop42
 90
       50
102
RTVSPost2010PropOp42
 70
     0
102
RTVSPost2010Prop43
 90
        3
102
RTVSPost2010PropOp43
 70
     0
102
RTVSPost2010Prop44ColorIndex
 90
        5
102
RTVSPost2010Prop44ColorRGB
 90
      255
102
RTVSPost2010PropOp44
 70
     0
102
RTVSPost2010Prop45
280
     0
102
RTVSPost2010PropOp45
 70
     1
102
RTVSPost2010Prop46
 90
       50
102
RTVSPost2010PropOp46
 70
     0
102
RTVSPost2010Prop47
 90
       50
102
RTVSPost2010PropOp47
 70
     0
102
RTVSPost2010Prop48
 90
       50
102
RTVSPost2010PropOp48
 70
     0
102
RTVSPost2010Prop49
280
     0
102
RTVSPost2010PropOp49
 70
     1
102
RTVSPost2010Prop50
 90
       50
102
RTVSPost2010PropOp50
 70
     0
102
RTVSPost2010Prop51ColorIndex
 90
      256
102
RTVSPost2010Prop51ColorRGB
 90
-16777216
102
RTVSPost2010PropOp51
 70
     0
102
RTVSPost2010Prop52
140
1.0
102
RTVSPost2010PropOp52
 70
     0
102
RTVSPost2010Prop53
 90
        2
102
RTVSPost2010PropOp53
 70
     0
102
RTVSPost2010Prop54
  1
strokes_ogs.tif
102
RTVSPost2010PropOp54
 70
     0
102
RTVSPost2010Prop55
280
     0
102
RTVSPost2010PropOp55
 70
     1
102
RTVSPost2010Prop56
140
1.0
102
RTVSPost2010PropOp56
 70
     0
102
RTVSPost2010Prop57
140
1.0
102
RTVSPost2010PropOp57
 70
     0
102
RTVSPropertyOp0
 70
     0
102
RTVSPropertyOp1
 70
     0
102
RTVSPropertyOp2
 70
     0
102
RTVSPropertyOp3
 70
     0
102
RTVSPropertyOp4
 70
     0
102
RTVSPropertyOp5
 70
     0
102
RTVSPropertyOp6
 70
     0
102
RTVSPropertyOp7
 70
     0
102
RTVSPropertyOp8
 70
     0
102
RTVSPropertyOp9
 70
     0
102
RTVSPropertyOp10
 70
     0
102
RTVSPropertyOp11
 70
     0
102
RTVSPropertyOp12
 70
     0
102
RTVSPropertyOp13
 70
     0
102
RTVSPropertyOp14
 70
     2
102
RTVSPropertyOp15
 70
     0
102
RTVSPropertyOp16
 70
     0
102
RTVSPropertyOp17
 70
     0
102
RTVSPropertyOp18
 70
     0
102
RTVSPropertyOp19
 70
     0
102
RTVSPropertyOp20
 70
     0
102
RTVSPropertyOp21
 70
     0
102
RTVSPropertyOp22
 70
     0
102
RTVSPropertyOp23
 70
     0
102
RTVSPropertyOp24
 70
     0
102
RTVSPropertyOp25
 70
     0
102
RTVSPropertyOp26
 70
     0
102
RTVSPropertyOp27
 70
     0
102
RTVSPropertyOp28
 70
     1
102
RTVSPropertyOp29
 70
     1
102
RTVSPropertyOp30
 70
     1
102
RTVSPropertyOp31
 70
     1
102
RTVSPropertyOp32
 70
     1
102
RTVSPropertyOp33
 70
     1
102
RTVSPropertyOp34
 70
     1
102
RTVSPropertyOp35
 70
     1
102
RTVSPropertyOp36
 70
     1
102
RTVSPropertyOp37
 70
     0
102
RTVSPropertyOp38
 70
     0
102
RTVSPropertyOp39
 70
     0
102
RTVSPropertyOp40
 70
     0
102
RTVSPropertyOp41
 70
     0
102
RTVSPropertyOp42
 70
     0
102
RTVSPropertyOp43
 70
     0
102
RTVSPropertyOp44
 70
     0
102
RTVSPropertyOp45
 70
     1
102
RTVSPropertyOp46
 70
     0
102
RTVSPropertyOp47
 70
     0
102
RTVSPropertyOp48
 70
     0
102
RTVSPropertyOp49
 70
     1
102
RTVSPropertyOp50
 70
     0
102
RTVSPropertyOp51
 70
     0
102
RTVSPropertyOp52
 70
     0
102
RTVSPropertyOp53
 70
     0
102
RTVSPropertyOp54
 70
     0
102
RTVSPropertyOp55
 70
     1
102
RTVSPropertyOp56
 70
     0
102
RTVSPropertyOp57
 70
     0
102
RTVSPropertyOp58
 70
     0
102
RTVSPropertyOp59
 70
     0
102
RTVSPropertyOp60
 70
     0
102
RTVSPropertyOp61
 70
     0
102
RTVSPropertyOp62
 70
     0
  0
XRECORD
  5
2698
102
{ACAD_REACTORS
330
2697
102
}
330
2697
100
AcDbXrecord
280
     1
102
RTVSPost2010Prop28
280
     0
102
RTVSPost2010PropOp28
 70
     1
102
RTVSPost2010Prop29
280
     1
102
RTVSPost2010PropOp29
 70
     1
102
RTVSPost2010Prop30
280
     1
102
RTVSPost2010PropOp30
 70
     1
102
RTVSPost2010Prop31
280
     0
102
RTVSPost2010PropOp31
 70
     1
102
RTVSPost2010Prop32
280
     0
102
RTVSPost2010PropOp32
 70
     1
102
RTVSPost2010Prop33
280
     0
102
RTVSPost2010PropOp33
 70
     1
102
RTVSPost2010Prop34
280
     0
102
RTVSPost2010PropOp34
 70
     1
102
RTVSPost2010Prop35
280
     0
102
RTVSPost2010PropOp35
 70
     1
102
RTVSPost2010Prop36
280
     0
102
RTVSPost2010PropOp36
 70
     1
102
RTVSPost2010Prop37
 90
       50
102
RTVSPost2010PropOp37
 70
     1
102
RTVSPost2010Prop38
140
0.0
102
RTVSPost2010PropOp38
 70
     1
102
RTVSPost2010Prop39
140
1.0
102
RTVSPost2010PropOp39
 70
     1
102
RTVSPost2010Prop40
 90
        0
102
RTVSPost2010PropOp40
 70
     1
102
RTVSPost2010Prop41ColorIndex
 90
       18
102
RTVSPost2010Prop41ColorRGB
 90
        0
102
RTVSPost2010PropOp41
 70
     1
102
RTVSPost2010Prop42
 90
       50
102
RTVSPost2010PropOp42
 70
     1
102
RTVSPost2010Prop43
 90
        3
102
RTVSPost2010PropOp43
 70
     1
102
RTVSPost2010Prop44ColorIndex
 90
        5
102
RTVSPost2010Prop44ColorRGB
 90
      255
102
RTVSPost2010PropOp44
 70
     1
102
RTVSPost2010Prop45
280
     0
102
RTVSPost2010PropOp45
 70
     1
102
RTVSPost2010Prop46
 90
       50
102
RTVSPost2010PropOp46
 70
     1
102
RTVSPost2010Prop47
 90
       50
102
RTVSPost2010PropOp47
 70
     1
102
RTVSPost2010Prop48
 90
       50
102
RTVSPost2010PropOp48
 70
     1
102
RTVSPost2010Prop49
280
     0
102
RTVSPost2010PropOp49
 70
     1
102
RTVSPost2010Prop50
 90
       50
102
RTVSPost2010PropOp50
 70
     1
102
RTVSPost2010Prop51ColorIndex
 90
      256
102
RTVSPost2010Prop51ColorRGB
 90
-16777216
102
RTVSPost2010PropOp51
 70
     0
102
RTVSPost2010Prop52
140
1.0
102
RTVSPost2010PropOp52
 70
     0
102
RTVSPost2010Prop53
 90
        2
102
RTVSPost2010PropOp53
 70
     1
102
RTVSPost2010Prop54
  1
strokes_ogs.tif
102
RTVSPost2010PropOp54
 70
     1
102
RTVSPost2010Prop55
280
     0
102
RTVSPost2010PropOp55
 70
     1
102
RTVSPost2010Prop56
140
1.0
102
RTVSPost2010PropOp56
 70
     1
102
RTVSPost2010Prop57
140
1.0
102
RTVSPost2010PropOp57
 70
     1
102
RTVSPropertyOp0
 70
     1
102
RTVSPropertyOp1
 70
     1
102
RTVSPropertyOp2
 70
     1
102
RTVSPropertyOp3
 70
     1
102
RTVSPropertyOp4
 70
     1
102
RTVSPropertyOp5
 70
     1
102
RTVSPropertyOp6
 70
     1
102
RTVSPropertyOp7
 70
     1
102
RTVSPropertyOp8
 70
     1
102
RTVSPropertyOp9
 70
     1
102
RTVSPropertyOp10
 70
     1
102
RTVSPropertyOp11
 70
     1
102
RTVSPropertyOp12
 70
     1
102
RTVSPropertyOp13
 70
     1
102
RTVSPropertyOp14
 70
     1
102
RTVSPropertyOp15
 70
     1
102
RTVSPropertyOp16
 70
     1
102
RTVSPropertyOp17
 70
     1
102
RTVSPropertyOp18
 70
     1
102
RTVSPropertyOp19
 70
     1
102
RTVSPropertyOp20
 70
     1
102
RTVSPropertyOp21
 70
     1
102
RTVSPropertyOp22
 70
     1
102
RTVSPropertyOp23
 70
     1
102
RTVSPropertyOp24
 70
     1
102
RTVSPropertyOp25
 70
     1
102
RTVSPropertyOp26
 70
     1
102
RTVSPropertyOp27
 70
     1
102
RTVSPropertyOp28
 70
     1
102
RTVSPropertyOp29
 70
     1
102
RTVSPropertyOp30
 70
     1
102
RTVSPropertyOp31
 70
     1
102
RTVSPropertyOp32
 70
     1
102
RTVSPropertyOp33
 70
     1
102
RTVSPropertyOp34
 70
     1
102
RTVSPropertyOp35
 70
     1
102
RTVSPropertyOp36
 70
     1
102
RTVSPropertyOp37
 70
     1
102
RTVSPropertyOp38
 70
     1
102
RTVSPropertyOp39
 70
     1
102
RTVSPropertyOp40
 70
     1
102
RTVSPropertyOp41
 70
     1
102
RTVSPropertyOp42
 70
     1
102
RTVSPropertyOp43
 70
     1
102
RTVSPropertyOp44
 70
     1
102
RTVSPropertyOp45
 70
     1
102
RTVSPropertyOp46
 70
     1
102
RTVSPropertyOp47
 70
     1
102
RTVSPropertyOp48
 70
     1
102
RTVSPropertyOp49
 70
     1
102
RTVSPropertyOp50
 70
     1
102
RTVSPropertyOp51
 70
     0
102
RTVSPropertyOp52
 70
     0
102
RTVSPropertyOp53
 70
     1
102
RTVSPropertyOp54
 70
     1
102
RTVSPropertyOp55
 70
     1
102
RTVSPropertyOp56
 70
     1
102
RTVSPropertyOp57
 70
     1
102
RTVSPropertyOp58
 70
     1
102
RTVSPropertyOp59
 70
     1
102
RTVSPropertyOp60
 70
     1
102
RTVSPropertyOp61
 70
     1
102
RTVSPropertyOp62
 70
     1
  0
XRECORD
  5
26AE
102
{ACAD_REACTORS
330
26AD
102
}
330
26AD
100
AcDbXrecord
280
     1
102
RTVSPost2010Prop28
280
     0
102
RTVSPost2010PropOp28
 70
     1
102
RTVSPost2010Prop29
280
     1
102
RTVSPost2010PropOp29
 70
     1
102
RTVSPost2010Prop30
280
     1
102
RTVSPost2010PropOp30
 70
     1
102
RTVSPost2010Prop31
280
     0
102
RTVSPost2010PropOp31
 70
     1
102
RTVSPost2010Prop32
280
     0
102
RTVSPost2010PropOp32
 70
     1
102
RTVSPost2010Prop33
280
     0
102
RTVSPost2010PropOp33
 70
     1
102
RTVSPost2010Prop34
280
     0
102
RTVSPost2010PropOp34
 70
     1
102
RTVSPost2010Prop35
280
     0
102
RTVSPost2010PropOp35
 70
     1
102
RTVSPost2010Prop36
280
     0
102
RTVSPost2010PropOp36
 70
     1
102
RTVSPost2010Prop37
 90
       50
102
RTVSPost2010PropOp37
 70
     1
102
RTVSPost2010Prop38
140
0.0
102
RTVSPost2010PropOp38
 70
     1
102
RTVSPost2010Prop39
140
1.0
102
RTVSPost2010PropOp39
 70
     1
102
RTVSPost2010Prop40
 90
        0
102
RTVSPost2010PropOp40
 70
     1
102
RTVSPost2010Prop41ColorIndex
 90
       18
102
RTVSPost2010Prop41ColorRGB
 90
        0
102
RTVSPost2010PropOp41
 70
     1
102
RTVSPost2010Prop42
 90
       50
102
RTVSPost2010PropOp42
 70
     1
102
RTVSPost2010Prop43
 90
        3
102
RTVSPost2010PropOp43
 70
     1
102
RTVSPost2010Prop44ColorIndex
 90
        5
102
RTVSPost2010Prop44ColorRGB
 90
      255
102
RTVSPost2010PropOp44
 70
     1
102
RTVSPost2010Prop45
280
     0
102
RTVSPost2010PropOp45
 70
     1
102
RTVSPost2010Prop46
 90
       50
102
RTVSPost2010PropOp46
 70
     1
102
RTVSPost2010Prop47
 90
       50
102
RTVSPost2010PropOp47
 70
     1
102
RTVSPost2010Prop48
 90
       50
102
RTVSPost2010PropOp48
 70
     1
102
RTVSPost2010Prop49
280
     0
102
RTVSPost2010PropOp49
 70
     1
102
RTVSPost2010Prop50
 90
       50
102
RTVSPost2010PropOp50
 70
     1
102
RTVSPost2010Prop51ColorIndex
 90
      256
102
RTVSPost2010Prop51ColorRGB
 90
-16777216
102
RTVSPost2010PropOp51
 70
     0
102
RTVSPost2010Prop52
140
1.0
102
RTVSPost2010PropOp52
 70
     0
102
RTVSPost2010Prop53
 90
        2
102
RTVSPost2010PropOp53
 70
     1
102
RTVSPost2010Prop54
  1
strokes_ogs.tif
102
RTVSPost2010PropOp54
 70
     1
102
RTVSPost2010Prop55
280
     0
102
RTVSPost2010PropOp55
 70
     1
102
RTVSPost2010Prop56
140
1.0
102
RTVSPost2010PropOp56
 70
     1
102
RTVSPost2010Prop57
140
1.0
102
RTVSPost2010PropOp57
 70
     1
102
RTVSPropertyOp0
 70
     1
102
RTVSPropertyOp1
 70
     1
102
RTVSPropertyOp2
 70
     1
102
RTVSPropertyOp3
 70
     1
102
RTVSPropertyOp4
 70
     1
102
RTVSPropertyOp5
 70
     1
102
RTVSPropertyOp6
 70
     1
102
RTVSPropertyOp7
 70
     1
102
RTVSPropertyOp8
 70
     1
102
RTVSPropertyOp9
 70
     1
102
RTVSPropertyOp10
 70
     1
102
RTVSPropertyOp11
 70
     1
102
RTVSPropertyOp12
 70
     1
102
RTVSPropertyOp13
 70
     1
102
RTVSPropertyOp14
 70
     1
102
RTVSPropertyOp15
 70
     1
102
RTVSPropertyOp16
 70
     1
102
RTVSPropertyOp17
 70
     1
102
RTVSPropertyOp18
 70
     1
102
RTVSPropertyOp19
 70
     1
102
RTVSPropertyOp20
 70
     1
102
RTVSPropertyOp21
 70
     1
102
RTVSPropertyOp22
 70
     1
102
RTVSPropertyOp23
 70
     1
102
RTVSPropertyOp24
 70
     1
102
RTVSPropertyOp25
 70
     1
102
RTVSPropertyOp26
 70
     1
102
RTVSPropertyOp27
 70
     1
102
RTVSPropertyOp28
 70
     1
102
RTVSPropertyOp29
 70
     1
102
RTVSPropertyOp30
 70
     1
102
RTVSPropertyOp31
 70
     1
102
RTVSPropertyOp32
 70
     1
102
RTVSPropertyOp33
 70
     1
102
RTVSPropertyOp34
 70
     1
102
RTVSPropertyOp35
 70
     1
102
RTVSPropertyOp36
 70
     1
102
RTVSPropertyOp37
 70
     1
102
RTVSPropertyOp38
 70
     1
102
RTVSPropertyOp39
 70
     1
102
RTVSPropertyOp40
 70
     1
102
RTVSPropertyOp41
 70
     1
102
RTVSPropertyOp42
 70
     1
102
RTVSPropertyOp43
 70
     1
102
RTVSPropertyOp44
 70
     1
102
RTVSPropertyOp45
 70
     1
102
RTVSPropertyOp46
 70
     1
102
RTVSPropertyOp47
 70
     1
102
RTVSPropertyOp48
 70
     1
102
RTVSPropertyOp49
 70
     1
102
RTVSPropertyOp50
 70
     1
102
RTVSPropertyOp51
 70
     0
102
RTVSPropertyOp52
 70
     0
102
RTVSPropertyOp53
 70
     1
102
RTVSPropertyOp54
 70
     1
102
RTVSPropertyOp55
 70
     1
102
RTVSPropertyOp56
 70
     1
102
RTVSPropertyOp57
 70
     1
102
RTVSPropertyOp58
 70
     1
102
RTVSPropertyOp59
 70
     1
102
RTVSPropertyOp60
 70
     1
102
RTVSPropertyOp61
 70
     1
102
RTVSPropertyOp62
 70
     1
  0
XRECORD
  5
26AC
102
{ACAD_REACTORS
330
26AB
102
}
330
26AB
100
AcDbXrecord
280
     1
102
RTVSPost2010Prop28
280
     0
102
RTVSPost2010PropOp28
 70
     1
102
RTVSPost2010Prop29
280
     1
102
RTVSPost2010PropOp29
 70
     1
102
RTVSPost2010Prop30
280
     1
102
RTVSPost2010PropOp30
 70
     1
102
RTVSPost2010Prop31
280
     0
102
RTVSPost2010PropOp31
 70
     1
102
RTVSPost2010Prop32
280
     0
102
RTVSPost2010PropOp32
 70
     1
102
RTVSPost2010Prop33
280
     0
102
RTVSPost2010PropOp33
 70
     1
102
RTVSPost2010Prop34
280
     0
102
RTVSPost2010PropOp34
 70
     1
102
RTVSPost2010Prop35
280
     0
102
RTVSPost2010PropOp35
 70
     1
102
RTVSPost2010Prop36
280
     0
102
RTVSPost2010PropOp36
 70
     1
102
RTVSPost2010Prop37
 90
       50
102
RTVSPost2010PropOp37
 70
     1
102
RTVSPost2010Prop38
140
0.0
102
RTVSPost2010PropOp38
 70
     1
102
RTVSPost2010Prop39
140
1.0
102
RTVSPost2010PropOp39
 70
     1
102
RTVSPost2010Prop40
 90
        0
102
RTVSPost2010PropOp40
 70
     1
102
RTVSPost2010Prop41ColorIndex
 90
       18
102
RTVSPost2010Prop41ColorRGB
 90
        0
102
RTVSPost2010PropOp41
 70
     1
102
RTVSPost2010Prop42
 90
       50
102
RTVSPost2010PropOp42
 70
     1
102
RTVSPost2010Prop43
 90
        3
102
RTVSPost2010PropOp43
 70
     1
102
RTVSPost2010Prop44ColorIndex
 90
        5
102
RTVSPost2010Prop44ColorRGB
 90
      255
102
RTVSPost2010PropOp44
 70
     1
102
RTVSPost2010Prop45
280
     0
102
RTVSPost2010PropOp45
 70
     1
102
RTVSPost2010Prop46
 90
       50
102
RTVSPost2010PropOp46
 70
     1
102
RTVSPost2010Prop47
 90
       50
102
RTVSPost2010PropOp47
 70
     1
102
RTVSPost2010Prop48
 90
       50
102
RTVSPost2010PropOp48
 70
     1
102
RTVSPost2010Prop49
280
     0
102
RTVSPost2010PropOp49
 70
     1
102
RTVSPost2010Prop50
 90
       50
102
RTVSPost2010PropOp50
 70
     1
102
RTVSPost2010Prop51ColorIndex
 90
      256
102
RTVSPost2010Prop51ColorRGB
 90
-16777216
102
RTVSPost2010PropOp51
 70
     0
102
RTVSPost2010Prop52
140
1.0
102
RTVSPost2010PropOp52
 70
     0
102
RTVSPost2010Prop53
 90
        2
102
RTVSPost2010PropOp53
 70
     1
102
RTVSPost2010Prop54
  1
strokes_ogs.tif
102
RTVSPost2010PropOp54
 70
     1
102
RTVSPost2010Prop55
280
     0
102
RTVSPost2010PropOp55
 70
     1
102
RTVSPost2010Prop56
140
1.0
102
RTVSPost2010PropOp56
 70
     1
102
RTVSPost2010Prop57
140
1.0
102
RTVSPost2010PropOp57
 70
     1
102
RTVSPropertyOp0
 70
     1
102
RTVSPropertyOp1
 70
     1
102
RTVSPropertyOp2
 70
     1
102
RTVSPropertyOp3
 70
     1
102
RTVSPropertyOp4
 70
     1
102
RTVSPropertyOp5
 70
     1
102
RTVSPropertyOp6
 70
     1
102
RTVSPropertyOp7
 70
     1
102
RTVSPropertyOp8
 70
     1
102
RTVSPropertyOp9
 70
     1
102
RTVSPropertyOp10
 70
     1
102
RTVSPropertyOp11
 70
     1
102
RTVSPropertyOp12
 70
     1
102
RTVSPropertyOp13
 70
     1
102
RTVSPropertyOp14
 70
     1
102
RTVSPropertyOp15
 70
     1
102
RTVSPropertyOp16
 70
     1
102
RTVSPropertyOp17
 70
     1
102
RTVSPropertyOp18
 70
     1
102
RTVSPropertyOp19
 70
     1
102
RTVSPropertyOp20
 70
     1
102
RTVSPropertyOp21
 70
     1
102
RTVSPropertyOp22
 70
     1
102
RTVSPropertyOp23
 70
     1
102
RTVSPropertyOp24
 70
     1
102
RTVSPropertyOp25
 70
     1
102
RTVSPropertyOp26
 70
     1
102
RTVSPropertyOp27
 70
     1
102
RTVSPropertyOp28
 70
     1
102
RTVSPropertyOp29
 70
     1
102
RTVSPropertyOp30
 70
     1
102
RTVSPropertyOp31
 70
     1
102
RTVSPropertyOp32
 70
     1
102
RTVSPropertyOp33
 70
     1
102
RTVSPropertyOp34
 70
     1
102
RTVSPropertyOp35
 70
     1
102
RTVSPropertyOp36
 70
     1
102
RTVSPropertyOp37
 70
     1
102
RTVSPropertyOp38
 70
     1
102
RTVSPropertyOp39
 70
     1
102
RTVSPropertyOp40
 70
     1
102
RTVSPropertyOp41
 70
     1
102
RTVSPropertyOp42
 70
     1
102
RTVSPropertyOp43
 70
     1
102
RTVSPropertyOp44
 70
     1
102
RTVSPropertyOp45
 70
     1
102
RTVSPropertyOp46
 70
     1
102
RTVSPropertyOp47
 70
     1
102
RTVSPropertyOp48
 70
     1
102
RTVSPropertyOp49
 70
     1
102
RTVSPropertyOp50
 70
     1
102
RTVSPropertyOp51
 70
     0
102
RTVSPropertyOp52
 70
     0
102
RTVSPropertyOp53
 70
     1
102
RTVSPropertyOp54
 70
     1
102
RTVSPropertyOp55
 70
     1
102
RTVSPropertyOp56
 70
     1
102
RTVSPropertyOp57
 70
     1
102
RTVSPropertyOp58
 70
     1
102
RTVSPropertyOp59
 70
     1
102
RTVSPropertyOp60
 70
     1
102
RTVSPropertyOp61
 70
     1
102
RTVSPropertyOp62
 70
     1
  0
XRECORD
  5
26A6
102
{ACAD_REACTORS
330
26A5
102
}
330
26A5
100
AcDbXrecord
280
     1
102
RTVSPost2010Prop28
280
     0
102
RTVSPost2010PropOp28
 70
     1
102
RTVSPost2010Prop29
280
     1
102
RTVSPost2010PropOp29
 70
     1
102
RTVSPost2010Prop30
280
     1
102
RTVSPost2010PropOp30
 70
     1
102
RTVSPost2010Prop31
280
     0
102
RTVSPost2010PropOp31
 70
     1
102
RTVSPost2010Prop32
280
     0
102
RTVSPost2010PropOp32
 70
     1
102
RTVSPost2010Prop33
280
     0
102
RTVSPost2010PropOp33
 70
     1
102
RTVSPost2010Prop34
280
     0
102
RTVSPost2010PropOp34
 70
     1
102
RTVSPost2010Prop35
280
     0
102
RTVSPost2010PropOp35
 70
     1
102
RTVSPost2010Prop36
280
     0
102
RTVSPost2010PropOp36
 70
     1
102
RTVSPost2010Prop37
 90
       50
102
RTVSPost2010PropOp37
 70
     1
102
RTVSPost2010Prop38
140
0.0
102
RTVSPost2010PropOp38
 70
     1
102
RTVSPost2010Prop39
140
1.0
102
RTVSPost2010PropOp39
 70
     1
102
RTVSPost2010Prop40
 90
        0
102
RTVSPost2010PropOp40
 70
     1
102
RTVSPost2010Prop41ColorIndex
 90
       18
102
RTVSPost2010Prop41ColorRGB
 90
        0
102
RTVSPost2010PropOp41
 70
     1
102
RTVSPost2010Prop42
 90
       50
102
RTVSPost2010PropOp42
 70
     1
102
RTVSPost2010Prop43
 90
        3
102
RTVSPost2010PropOp43
 70
     1
102
RTVSPost2010Prop44ColorIndex
 90
        5
102
RTVSPost2010Prop44ColorRGB
 90
      255
102
RTVSPost2010PropOp44
 70
     1
102
RTVSPost2010Prop45
280
     0
102
RTVSPost2010PropOp45
 70
     1
102
RTVSPost2010Prop46
 90
       50
102
RTVSPost2010PropOp46
 70
     1
102
RTVSPost2010Prop47
 90
       50
102
RTVSPost2010PropOp47
 70
     1
102
RTVSPost2010Prop48
 90
       50
102
RTVSPost2010PropOp48
 70
     1
102
RTVSPost2010Prop49
280
     0
102
RTVSPost2010PropOp49
 70
     1
102
RTVSPost2010Prop50
 90
       50
102
RTVSPost2010PropOp50
 70
     1
102
RTVSPost2010Prop51ColorIndex
 90
      256
102
RTVSPost2010Prop51ColorRGB
 90
-16777216
102
RTVSPost2010PropOp51
 70
     0
102
RTVSPost2010Prop52
140
1.0
102
RTVSPost2010PropOp52
 70
     0
102
RTVSPost2010Prop53
 90
        2
102
RTVSPost2010PropOp53
 70
     1
102
RTVSPost2010Prop54
  1
strokes_ogs.tif
102
RTVSPost2010PropOp54
 70
     1
102
RTVSPost2010Prop55
280
     0
102
RTVSPost2010PropOp55
 70
     1
102
RTVSPost2010Prop56
140
1.0
102
RTVSPost2010PropOp56
 70
     1
102
RTVSPost2010Prop57
140
1.0
102
RTVSPost2010PropOp57
 70
     1
102
RTVSPropertyOp0
 70
     1
102
RTVSPropertyOp1
 70
     1
102
RTVSPropertyOp2
 70
     1
102
RTVSPropertyOp3
 70
     1
102
RTVSPropertyOp4
 70
     1
102
RTVSPropertyOp5
 70
     1
102
RTVSPropertyOp6
 70
     1
102
RTVSPropertyOp7
 70
     1
102
RTVSPropertyOp8
 70
     1
102
RTVSPropertyOp9
 70
     1
102
RTVSPropertyOp10
 70
     1
102
RTVSPropertyOp11
 70
     1
102
RTVSPropertyOp12
 70
     1
102
RTVSPropertyOp13
 70
     1
102
RTVSPropertyOp14
 70
     1
102
RTVSPropertyOp15
 70
     1
102
RTVSPropertyOp16
 70
     1
102
RTVSPropertyOp17
 70
     1
102
RTVSPropertyOp18
 70
     1
102
RTVSPropertyOp19
 70
     1
102
RTVSPropertyOp20
 70
     1
102
RTVSPropertyOp21
 70
     1
102
RTVSPropertyOp22
 70
     1
102
RTVSPropertyOp23
 70
     1
102
RTVSPropertyOp24
 70
     1
102
RTVSPropertyOp25
 70
     1
102
RTVSPropertyOp26
 70
     1
102
RTVSPropertyOp27
 70
     1
102
RTVSPropertyOp28
 70
     1
102
RTVSPropertyOp29
 70
     1
102
RTVSPropertyOp30
 70
     1
102
RTVSPropertyOp31
 70
     1
102
RTVSPropertyOp32
 70
     1
102
RTVSPropertyOp33
 70
     1
102
RTVSPropertyOp34
 70
     1
102
RTVSPropertyOp35
 70
     1
102
RTVSPropertyOp36
 70
     1
102
RTVSPropertyOp37
 70
     1
102
RTVSPropertyOp38
 70
     1
102
RTVSPropertyOp39
 70
     1
102
RTVSPropertyOp40
 70
     1
102
RTVSPropertyOp41
 70
     1
102
RTVSPropertyOp42
 70
     1
102
RTVSPropertyOp43
 70
     1
102
RTVSPropertyOp44
 70
     1
102
RTVSPropertyOp45
 70
     1
102
RTVSPropertyOp46
 70
     1
102
RTVSPropertyOp47
 70
     1
102
RTVSPropertyOp48
 70
     1
102
RTVSPropertyOp49
 70
     1
102
RTVSPropertyOp50
 70
     1
102
RTVSPropertyOp51
 70
     0
102
RTVSPropertyOp52
 70
     0
102
RTVSPropertyOp53
 70
     1
102
RTVSPropertyOp54
 70
     1
102
RTVSPropertyOp55
 70
     1
102
RTVSPropertyOp56
 70
     1
102
RTVSPropertyOp57
 70
     1
102
RTVSPropertyOp58
 70
     1
102
RTVSPropertyOp59
 70
     1
102
RTVSPropertyOp60
 70
     1
102
RTVSPropertyOp61
 70
     1
102
RTVSPropertyOp62
 70
     1
  0
XRECORD
  5
26A8
102
{ACAD_REACTORS
330
26A7
102
}
330
26A7
100
AcDbXrecord
280
     1
102
RTVSPost2010Prop28
280
     0
102
RTVSPost2010PropOp28
 70
     1
102
RTVSPost2010Prop29
280
     1
102
RTVSPost2010PropOp29
 70
     1
102
RTVSPost2010Prop30
280
     1
102
RTVSPost2010PropOp30
 70
     1
102
RTVSPost2010Prop31
280
     0
102
RTVSPost2010PropOp31
 70
     1
102
RTVSPost2010Prop32
280
     0
102
RTVSPost2010PropOp32
 70
     1
102
RTVSPost2010Prop33
280
     0
102
RTVSPost2010PropOp33
 70
     1
102
RTVSPost2010Prop34
280
     0
102
RTVSPost2010PropOp34
 70
     1
102
RTVSPost2010Prop35
280
     0
102
RTVSPost2010PropOp35
 70
     1
102
RTVSPost2010Prop36
280
     0
102
RTVSPost2010PropOp36
 70
     1
102
RTVSPost2010Prop37
 90
       50
102
RTVSPost2010PropOp37
 70
     1
102
RTVSPost2010Prop38
140
0.0
102
RTVSPost2010PropOp38
 70
     1
102
RTVSPost2010Prop39
140
1.0
102
RTVSPost2010PropOp39
 70
     1
102
RTVSPost2010Prop40
 90
        0
102
RTVSPost2010PropOp40
 70
     1
102
RTVSPost2010Prop41ColorIndex
 90
       18
102
RTVSPost2010Prop41ColorRGB
 90
        0
102
RTVSPost2010PropOp41
 70
     1
102
RTVSPost2010Prop42
 90
       50
102
RTVSPost2010PropOp42
 70
     1
102
RTVSPost2010Prop43
 90
        3
102
RTVSPost2010PropOp43
 70
     1
102
RTVSPost2010Prop44ColorIndex
 90
        5
102
RTVSPost2010Prop44ColorRGB
 90
      255
102
RTVSPost2010PropOp44
 70
     1
102
RTVSPost2010Prop45
280
     0
102
RTVSPost2010PropOp45
 70
     1
102
RTVSPost2010Prop46
 90
       50
102
RTVSPost2010PropOp46
 70
     1
102
RTVSPost2010Prop47
 90
       50
102
RTVSPost2010PropOp47
 70
     1
102
RTVSPost2010Prop48
 90
       50
102
RTVSPost2010PropOp48
 70
     1
102
RTVSPost2010Prop49
280
     0
102
RTVSPost2010PropOp49
 70
     1
102
RTVSPost2010Prop50
 90
       50
102
RTVSPost2010PropOp50
 70
     1
102
RTVSPost2010Prop51ColorIndex
 90
      256
102
RTVSPost2010Prop51ColorRGB
 90
-16777216
102
RTVSPost2010PropOp51
 70
     0
102
RTVSPost2010Prop52
140
1.0
102
RTVSPost2010PropOp52
 70
     0
102
RTVSPost2010Prop53
 90
        2
102
RTVSPost2010PropOp53
 70
     1
102
RTVSPost2010Prop54
  1
strokes_ogs.tif
102
RTVSPost2010PropOp54
 70
     1
102
RTVSPost2010Prop55
280
     0
102
RTVSPost2010PropOp55
 70
     1
102
RTVSPost2010Prop56
140
1.0
102
RTVSPost2010PropOp56
 70
     1
102
RTVSPost2010Prop57
140
1.0
102
RTVSPost2010PropOp57
 70
     1
102
RTVSPropertyOp0
 70
     1
102
RTVSPropertyOp1
 70
     1
102
RTVSPropertyOp2
 70
     1
102
RTVSPropertyOp3
 70
     1
102
RTVSPropertyOp4
 70
     1
102
RTVSPropertyOp5
 70
     1
102
RTVSPropertyOp6
 70
     1
102
RTVSPropertyOp7
 70
     1
102
RTVSPropertyOp8
 70
     1
102
RTVSPropertyOp9
 70
     1
102
RTVSPropertyOp10
 70
     1
102
RTVSPropertyOp11
 70
     1
102
RTVSPropertyOp12
 70
     1
102
RTVSPropertyOp13
 70
     1
102
RTVSPropertyOp14
 70
     1
102
RTVSPropertyOp15
 70
     1
102
RTVSPropertyOp16
 70
     1
102
RTVSPropertyOp17
 70
     1
102
RTVSPropertyOp18
 70
     1
102
RTVSPropertyOp19
 70
     1
102
RTVSPropertyOp20
 70
     1
102
RTVSPropertyOp21
 70
     1
102
RTVSPropertyOp22
 70
     1
102
RTVSPropertyOp23
 70
     1
102
RTVSPropertyOp24
 70
     1
102
RTVSPropertyOp25
 70
     1
102
RTVSPropertyOp26
 70
     1
102
RTVSPropertyOp27
 70
     1
102
RTVSPropertyOp28
 70
     1
102
RTVSPropertyOp29
 70
     1
102
RTVSPropertyOp30
 70
     1
102
RTVSPropertyOp31
 70
     1
102
RTVSPropertyOp32
 70
     1
102
RTVSPropertyOp33
 70
     1
102
RTVSPropertyOp34
 70
     1
102
RTVSPropertyOp35
 70
     1
102
RTVSPropertyOp36
 70
     1
102
RTVSPropertyOp37
 70
     1
102
RTVSPropertyOp38
 70
     1
102
RTVSPropertyOp39
 70
     1
102
RTVSPropertyOp40
 70
     1
102
RTVSPropertyOp41
 70
     1
102
RTVSPropertyOp42
 70
     1
102
RTVSPropertyOp43
 70
     1
102
RTVSPropertyOp44
 70
     1
102
RTVSPropertyOp45
 70
     1
102
RTVSPropertyOp46
 70
     1
102
RTVSPropertyOp47
 70
     1
102
RTVSPropertyOp48
 70
     1
102
RTVSPropertyOp49
 70
     1
102
RTVSPropertyOp50
 70
     1
102
RTVSPropertyOp51
 70
     0
102
RTVSPropertyOp52
 70
     0
102
RTVSPropertyOp53
 70
     1
102
RTVSPropertyOp54
 70
     1
102
RTVSPropertyOp55
 70
     1
102
RTVSPropertyOp56
 70
     1
102
RTVSPropertyOp57
 70
     1
102
RTVSPropertyOp58
 70
     1
102
RTVSPropertyOp59
 70
     1
102
RTVSPropertyOp60
 70
     1
102
RTVSPropertyOp61
 70
     1
102
RTVSPropertyOp62
 70
     1
  0
XRECORD
  5
269E
102
{ACAD_REACTORS
330
269D
102
}
330
269D
100
AcDbXrecord
280
     1
102
RTVSPost2010Prop28
280
     0
102
RTVSPost2010PropOp28
 70
     1
102
RTVSPost2010Prop29
280
     1
102
RTVSPost2010PropOp29
 70
     1
102
RTVSPost2010Prop30
280
     1
102
RTVSPost2010PropOp30
 70
     1
102
RTVSPost2010Prop31
280
     0
102
RTVSPost2010PropOp31
 70
     1
102
RTVSPost2010Prop32
280
     0
102
RTVSPost2010PropOp32
 70
     1
102
RTVSPost2010Prop33
280
     0
102
RTVSPost2010PropOp33
 70
     1
102
RTVSPost2010Prop34
280
     0
102
RTVSPost2010PropOp34
 70
     1
102
RTVSPost2010Prop35
280
     0
102
RTVSPost2010PropOp35
 70
     1
102
RTVSPost2010Prop36
280
     0
102
RTVSPost2010PropOp36
 70
     1
102
RTVSPost2010Prop37
 90
       50
102
RTVSPost2010PropOp37
 70
     1
102
RTVSPost2010Prop38
140
0.0
102
RTVSPost2010PropOp38
 70
     1
102
RTVSPost2010Prop39
140
1.0
102
RTVSPost2010PropOp39
 70
     1
102
RTVSPost2010Prop40
 90
        0
102
RTVSPost2010PropOp40
 70
     1
102
RTVSPost2010Prop41ColorIndex
 90
       18
102
RTVSPost2010Prop41ColorRGB
 90
        0
102
RTVSPost2010PropOp41
 70
     1
102
RTVSPost2010Prop42
 90
       50
102
RTVSPost2010PropOp42
 70
     1
102
RTVSPost2010Prop43
 90
        3
102
RTVSPost2010PropOp43
 70
     1
102
RTVSPost2010Prop44ColorIndex
 90
        5
102
RTVSPost2010Prop44ColorRGB
 90
      255
102
RTVSPost2010PropOp44
 70
     1
102
RTVSPost2010Prop45
280
     0
102
RTVSPost2010PropOp45
 70
     1
102
RTVSPost2010Prop46
 90
       50
102
RTVSPost2010PropOp46
 70
     1
102
RTVSPost2010Prop47
 90
       50
102
RTVSPost2010PropOp47
 70
     1
102
RTVSPost2010Prop48
 90
       50
102
RTVSPost2010PropOp48
 70
     1
102
RTVSPost2010Prop49
280
     0
102
RTVSPost2010PropOp49
 70
     1
102
RTVSPost2010Prop50
 90
       50
102
RTVSPost2010PropOp50
 70
     1
102
RTVSPost2010Prop51ColorIndex
 90
      256
102
RTVSPost2010Prop51ColorRGB
 90
-16777216
102
RTVSPost2010PropOp51
 70
     0
102
RTVSPost2010Prop52
140
1.0
102
RTVSPost2010PropOp52
 70
     0
102
RTVSPost2010Prop53
 90
        2
102
RTVSPost2010PropOp53
 70
     1
102
RTVSPost2010Prop54
  1
strokes_ogs.tif
102
RTVSPost2010PropOp54
 70
     1
102
RTVSPost2010Prop55
280
     0
102
RTVSPost2010PropOp55
 70
     1
102
RTVSPost2010Prop56
140
1.0
102
RTVSPost2010PropOp56
 70
     1
102
RTVSPost2010Prop57
140
1.0
102
RTVSPost2010PropOp57
 70
     1
102
RTVSPropertyOp0
 70
     1
102
RTVSPropertyOp1
 70
     1
102
RTVSPropertyOp2
 70
     1
102
RTVSPropertyOp3
 70
     1
102
RTVSPropertyOp4
 70
     1
102
RTVSPropertyOp5
 70
     1
102
RTVSPropertyOp6
 70
     1
102
RTVSPropertyOp7
 70
     1
102
RTVSPropertyOp8
 70
     1
102
RTVSPropertyOp9
 70
     1
102
RTVSPropertyOp10
 70
     1
102
RTVSPropertyOp11
 70
     1
102
RTVSPropertyOp12
 70
     1
102
RTVSPropertyOp13
 70
     1
102
RTVSPropertyOp14
 70
     1
102
RTVSPropertyOp15
 70
     1
102
RTVSPropertyOp16
 70
     1
102
RTVSPropertyOp17
 70
     1
102
RTVSPropertyOp18
 70
     1
102
RTVSPropertyOp19
 70
     1
102
RTVSPropertyOp20
 70
     1
102
RTVSPropertyOp21
 70
     1
102
RTVSPropertyOp22
 70
     1
102
RTVSPropertyOp23
 70
     1
102
RTVSPropertyOp24
 70
     1
102
RTVSPropertyOp25
 70
     1
102
RTVSPropertyOp26
 70
     1
102
RTVSPropertyOp27
 70
     1
102
RTVSPropertyOp28
 70
     1
102
RTVSPropertyOp29
 70
     1
102
RTVSPropertyOp30
 70
     1
102
RTVSPropertyOp31
 70
     1
102
RTVSPropertyOp32
 70
     1
102
RTVSPropertyOp33
 70
     1
102
RTVSPropertyOp34
 70
     1
102
RTVSPropertyOp35
 70
     1
102
RTVSPropertyOp36
 70
     1
102
RTVSPropertyOp37
 70
     1
102
RTVSPropertyOp38
 70
     1
102
RTVSPropertyOp39
 70
     1
102
RTVSPropertyOp40
 70
     1
102
RTVSPropertyOp41
 70
     1
102
RTVSPropertyOp42
 70
     1
102
RTVSPropertyOp43
 70
     1
102
RTVSPropertyOp44
 70
     1
102
RTVSPropertyOp45
 70
     1
102
RTVSPropertyOp46
 70
     1
102
RTVSPropertyOp47
 70
     1
102
RTVSPropertyOp48
 70
     1
102
RTVSPropertyOp49
 70
     1
102
RTVSPropertyOp50
 70
     1
102
RTVSPropertyOp51
 70
     0
102
RTVSPropertyOp52
 70
     0
102
RTVSPropertyOp53
 70
     1
102
RTVSPropertyOp54
 70
     1
102
RTVSPropertyOp55
 70
     1
102
RTVSPropertyOp56
 70
     1
102
RTVSPropertyOp57
 70
     1
102
RTVSPropertyOp58
 70
     1
102
RTVSPropertyOp59
 70
     1
102
RTVSPropertyOp60
 70
     1
102
RTVSPropertyOp61
 70
     1
102
RTVSPropertyOp62
 70
     1
  0
XRECORD
  5
2692
102
{ACAD_REACTORS
330
2691
102
}
330
2691
100
AcDbXrecord
280
     1
102
RTVSPost2010Prop28
280
     0
102
RTVSPost2010PropOp28
 70
     1
102
RTVSPost2010Prop29
280
     1
102
RTVSPost2010PropOp29
 70
     1
102
RTVSPost2010Prop30
280
     1
102
RTVSPost2010PropOp30
 70
     1
102
RTVSPost2010Prop31
280
     0
102
RTVSPost2010PropOp31
 70
     1
102
RTVSPost2010Prop32
280
     0
102
RTVSPost2010PropOp32
 70
     1
102
RTVSPost2010Prop33
280
     0
102
RTVSPost2010PropOp33
 70
     1
102
RTVSPost2010Prop34
280
     0
102
RTVSPost2010PropOp34
 70
     1
102
RTVSPost2010Prop35
280
     0
102
RTVSPost2010PropOp35
 70
     1
102
RTVSPost2010Prop36
280
     0
102
RTVSPost2010PropOp36
 70
     1
102
RTVSPost2010Prop37
 90
       50
102
RTVSPost2010PropOp37
 70
     1
102
RTVSPost2010Prop38
140
0.0
102
RTVSPost2010PropOp38
 70
     1
102
RTVSPost2010Prop39
140
1.0
102
RTVSPost2010PropOp39
 70
     1
102
RTVSPost2010Prop40
 90
        0
102
RTVSPost2010PropOp40
 70
     1
102
RTVSPost2010Prop41ColorIndex
 90
       18
102
RTVSPost2010Prop41ColorRGB
 90
        0
102
RTVSPost2010PropOp41
 70
     1
102
RTVSPost2010Prop42
 90
       50
102
RTVSPost2010PropOp42
 70
     1
102
RTVSPost2010Prop43
 90
        3
102
RTVSPost2010PropOp43
 70
     1
102
RTVSPost2010Prop44ColorIndex
 90
        5
102
RTVSPost2010Prop44ColorRGB
 90
      255
102
RTVSPost2010PropOp44
 70
     1
102
RTVSPost2010Prop45
280
     0
102
RTVSPost2010PropOp45
 70
     1
102
RTVSPost2010Prop46
 90
       50
102
RTVSPost2010PropOp46
 70
     1
102
RTVSPost2010Prop47
 90
       50
102
RTVSPost2010PropOp47
 70
     1
102
RTVSPost2010Prop48
 90
       50
102
RTVSPost2010PropOp48
 70
     1
102
RTVSPost2010Prop49
280
     0
102
RTVSPost2010PropOp49
 70
     1
102
RTVSPost2010Prop50
 90
       50
102
RTVSPost2010PropOp50
 70
     1
102
RTVSPost2010Prop51ColorIndex
 90
      256
102
RTVSPost2010Prop51ColorRGB
 90
-16777216
102
RTVSPost2010PropOp51
 70
     0
102
RTVSPost2010Prop52
140
1.0
102
RTVSPost2010PropOp52
 70
     0
102
RTVSPost2010Prop53
 90
        2
102
RTVSPost2010PropOp53
 70
     1
102
RTVSPost2010Prop54
  1
strokes_ogs.tif
102
RTVSPost2010PropOp54
 70
     1
102
RTVSPost2010Prop55
280
     0
102
RTVSPost2010PropOp55
 70
     1
102
RTVSPost2010Prop56
140
1.0
102
RTVSPost2010PropOp56
 70
     1
102
RTVSPost2010Prop57
140
1.0
102
RTVSPost2010PropOp57
 70
     1
102
RTVSPropertyOp0
 70
     1
102
RTVSPropertyOp1
 70
     1
102
RTVSPropertyOp2
 70
     1
102
RTVSPropertyOp3
 70
     1
102
RTVSPropertyOp4
 70
     1
102
RTVSPropertyOp5
 70
     1
102
RTVSPropertyOp6
 70
     1
102
RTVSPropertyOp7
 70
     1
102
RTVSPropertyOp8
 70
     1
102
RTVSPropertyOp9
 70
     1
102
RTVSPropertyOp10
 70
     1
102
RTVSPropertyOp11
 70
     1
102
RTVSPropertyOp12
 70
     1
102
RTVSPropertyOp13
 70
     1
102
RTVSPropertyOp14
 70
     1
102
RTVSPropertyOp15
 70
     1
102
RTVSPropertyOp16
 70
     1
102
RTVSPropertyOp17
 70
     1
102
RTVSPropertyOp18
 70
     1
102
RTVSPropertyOp19
 70
     1
102
RTVSPropertyOp20
 70
     1
102
RTVSPropertyOp21
 70
     1
102
RTVSPropertyOp22
 70
     1
102
RTVSPropertyOp23
 70
     1
102
RTVSPropertyOp24
 70
     1
102
RTVSPropertyOp25
 70
     1
102
RTVSPropertyOp26
 70
     1
102
RTVSPropertyOp27
 70
     1
102
RTVSPropertyOp28
 70
     1
102
RTVSPropertyOp29
 70
     1
102
RTVSPropertyOp30
 70
     1
102
RTVSPropertyOp31
 70
     1
102
RTVSPropertyOp32
 70
     1
102
RTVSPropertyOp33
 70
     1
102
RTVSPropertyOp34
 70
     1
102
RTVSPropertyOp35
 70
     1
102
RTVSPropertyOp36
 70
     1
102
RTVSPropertyOp37
 70
     1
102
RTVSPropertyOp38
 70
     1
102
RTVSPropertyOp39
 70
     1
102
RTVSPropertyOp40
 70
     1
102
RTVSPropertyOp41
 70
     1
102
RTVSPropertyOp42
 70
     1
102
RTVSPropertyOp43
 70
     1
102
RTVSPropertyOp44
 70
     1
102
RTVSPropertyOp45
 70
     1
102
RTVSPropertyOp46
 70
     1
102
RTVSPropertyOp47
 70
     1
102
RTVSPropertyOp48
 70
     1
102
RTVSPropertyOp49
 70
     1
102
RTVSPropertyOp50
 70
     1
102
RTVSPropertyOp51
 70
     0
102
RTVSPropertyOp52
 70
     0
102
RTVSPropertyOp53
 70
     1
102
RTVSPropertyOp54
 70
     1
102
RTVSPropertyOp55
 70
     1
102
RTVSPropertyOp56
 70
     1
102
RTVSPropertyOp57
 70
     1
102
RTVSPropertyOp58
 70
     1
102
RTVSPropertyOp59
 70
     1
102
RTVSPropertyOp60
 70
     1
102
RTVSPropertyOp61
 70
     1
102
RTVSPropertyOp62
 70
     1
  0
XRECORD
  5
26AA
102
{ACAD_REACTORS
330
26A9
102
}
330
26A9
100
AcDbXrecord
280
     1
102
RTVSPost2010Prop28
280
     0
102
RTVSPost2010PropOp28
 70
     1
102
RTVSPost2010Prop29
280
     1
102
RTVSPost2010PropOp29
 70
     1
102
RTVSPost2010Prop30
280
     1
102
RTVSPost2010PropOp30
 70
     1
102
RTVSPost2010Prop31
280
     0
102
RTVSPost2010PropOp31
 70
     1
102
RTVSPost2010Prop32
280
     0
102
RTVSPost2010PropOp32
 70
     1
102
RTVSPost2010Prop33
280
     0
102
RTVSPost2010PropOp33
 70
     1
102
RTVSPost2010Prop34
280
     0
102
RTVSPost2010PropOp34
 70
     1
102
RTVSPost2010Prop35
280
     0
102
RTVSPost2010PropOp35
 70
     1
102
RTVSPost2010Prop36
280
     0
102
RTVSPost2010PropOp36
 70
     1
102
RTVSPost2010Prop37
 90
       50
102
RTVSPost2010PropOp37
 70
     1
102
RTVSPost2010Prop38
140
0.0
102
RTVSPost2010PropOp38
 70
     1
102
RTVSPost2010Prop39
140
1.0
102
RTVSPost2010PropOp39
 70
     1
102
RTVSPost2010Prop40
 90
        0
102
RTVSPost2010PropOp40
 70
     1
102
RTVSPost2010Prop41ColorIndex
 90
       18
102
RTVSPost2010Prop41ColorRGB
 90
        0
102
RTVSPost2010PropOp41
 70
     1
102
RTVSPost2010Prop42
 90
       50
102
RTVSPost2010PropOp42
 70
     1
102
RTVSPost2010Prop43
 90
        3
102
RTVSPost2010PropOp43
 70
     1
102
RTVSPost2010Prop44ColorIndex
 90
        5
102
RTVSPost2010Prop44ColorRGB
 90
      255
102
RTVSPost2010PropOp44
 70
     1
102
RTVSPost2010Prop45
280
     0
102
RTVSPost2010PropOp45
 70
     1
102
RTVSPost2010Prop46
 90
       50
102
RTVSPost2010PropOp46
 70
     1
102
RTVSPost2010Prop47
 90
       50
102
RTVSPost2010PropOp47
 70
     1
102
RTVSPost2010Prop48
 90
       50
102
RTVSPost2010PropOp48
 70
     1
102
RTVSPost2010Prop49
280
     0
102
RTVSPost2010PropOp49
 70
     1
102
RTVSPost2010Prop50
 90
       50
102
RTVSPost2010PropOp50
 70
     1
102
RTVSPost2010Prop51ColorIndex
 90
      256
102
RTVSPost2010Prop51ColorRGB
 90
-16777216
102
RTVSPost2010PropOp51
 70
     0
102
RTVSPost2010Prop52
140
1.0
102
RTVSPost2010PropOp52
 70
     0
102
RTVSPost2010Prop53
 90
        2
102
RTVSPost2010PropOp53
 70
     1
102
RTVSPost2010Prop54
  1
strokes_ogs.tif
102
RTVSPost2010PropOp54
 70
     1
102
RTVSPost2010Prop55
280
     0
102
RTVSPost2010PropOp55
 70
     1
102
RTVSPost2010Prop56
140
1.0
102
RTVSPost2010PropOp56
 70
     1
102
RTVSPost2010Prop57
140
1.0
102
RTVSPost2010PropOp57
 70
     1
102
RTVSPropertyOp0
 70
     1
102
RTVSPropertyOp1
 70
     1
102
RTVSPropertyOp2
 70
     1
102
RTVSPropertyOp3
 70
     1
102
RTVSPropertyOp4
 70
     1
102
RTVSPropertyOp5
 70
     1
102
RTVSPropertyOp6
 70
     1
102
RTVSPropertyOp7
 70
     1
102
RTVSPropertyOp8
 70
     1
102
RTVSPropertyOp9
 70
     1
102
RTVSPropertyOp10
 70
     1
102
RTVSPropertyOp11
 70
     1
102
RTVSPropertyOp12
 70
     1
102
RTVSPropertyOp13
 70
     1
102
RTVSPropertyOp14
 70
     1
102
RTVSPropertyOp15
 70
     1
102
RTVSPropertyOp16
 70
     1
102
RTVSPropertyOp17
 70
     1
102
RTVSPropertyOp18
 70
     1
102
RTVSPropertyOp19
 70
     1
102
RTVSPropertyOp20
 70
     1
102
RTVSPropertyOp21
 70
     1
102
RTVSPropertyOp22
 70
     1
102
RTVSPropertyOp23
 70
     1
102
RTVSPropertyOp24
 70
     1
102
RTVSPropertyOp25
 70
     1
102
RTVSPropertyOp26
 70
     1
102
RTVSPropertyOp27
 70
     1
102
RTVSPropertyOp28
 70
     1
102
RTVSPropertyOp29
 70
     1
102
RTVSPropertyOp30
 70
     1
102
RTVSPropertyOp31
 70
     1
102
RTVSPropertyOp32
 70
     1
102
RTVSPropertyOp33
 70
     1
102
RTVSPropertyOp34
 70
     1
102
RTVSPropertyOp35
 70
     1
102
RTVSPropertyOp36
 70
     1
102
RTVSPropertyOp37
 70
     1
102
RTVSPropertyOp38
 70
     1
102
RTVSPropertyOp39
 70
     1
102
RTVSPropertyOp40
 70
     1
102
RTVSPropertyOp41
 70
     1
102
RTVSPropertyOp42
 70
     1
102
RTVSPropertyOp43
 70
     1
102
RTVSPropertyOp44
 70
     1
102
RTVSPropertyOp45
 70
     1
102
RTVSPropertyOp46
 70
     1
102
RTVSPropertyOp47
 70
     1
102
RTVSPropertyOp48
 70
     1
102
RTVSPropertyOp49
 70
     1
102
RTVSPropertyOp50
 70
     1
102
RTVSPropertyOp51
 70
     0
102
RTVSPropertyOp52
 70
     0
102
RTVSPropertyOp53
 70
     1
102
RTVSPropertyOp54
 70
     1
102
RTVSPropertyOp55
 70
     1
102
RTVSPropertyOp56
 70
     1
102
RTVSPropertyOp57
 70
     1
102
RTVSPropertyOp58
 70
     1
102
RTVSPropertyOp59
 70
     1
102
RTVSPropertyOp60
 70
     1
102
RTVSPropertyOp61
 70
     1
102
RTVSPropertyOp62
 70
     1
  0
ENDSEC
  0
EOF
