  0
SECTION
  2
HEADER
  9
$ACADVER
  1
AC1015
  9
$ACADMAINTVER
 70
    20
  9
$DWGCODEPAGE
  3
ANSI_932
  9
$INSBASE
 10
0.0
 20
0.0
 30
0.0
  9
$EXTMIN
 10
9.9999975266385
 20
10.0
 30
0.0
  9
$EXTMAX
 10
276.1379565258889
 20
217.5416374639656
 30
0.0
  9
$LIMMIN
 10
0.0000015376081137
 20
-0.0000001931532552
  9
$LIMMAX
 10
396.0000015376081
 20
272.9999998068465
  9
$ORTHOMODE
 70
     1
  9
$REGENMODE
 70
     1
  9
$FILLMODE
 70
     1
  9
$QTEXTMODE
 70
     0
  9
$MIRRTEXT
 70
     1
  9
$LTSCALE
 40
1.0
  9
$ATTMODE
 70
     1
  9
$TEXTSIZE
 40
2.5
  9
$TRACEWID
 40
1.0
  9
$TEXTSTYLE
  7
STANDARD
  9
$CLAYER
  8
0
  9
$CELTYPE
  6
BYLAYER
  9
$CECOLOR
 62
   256
  9
$CELTSCALE
 40
1.0
  9
$DISPSILH
 70
     0
  9
$DIMSCALE
 40
1.0
  9
$DIMASZ
 40
3.0
  9
$DIMEXO
 40
1.0
  9
$DIMDLI
 40
10.0
  9
$DIMRND
 40
0.0
  9
$DIMDLE
 40
0.0
  9
$DIMEXE
 40
1.0
  9
$DIMTP
 40
0.0
  9
$DIMTM
 40
0.0
  9
$DIMTXT
 40
2.5
  9
$DIMCEN
 40
0.0
  9
$DIMTSZ
 40
0.0
  9
$DIMTOL
 70
     0
  9
$DIMLIM
 70
     0
  9
$DIMTIH
 70
     0
  9
$DIMTOH
 70
     0
  9
$DIMSE1
 70
     0
  9
$DIMSE2
 70
     0
  9
$DIMTAD
 70
     3
  9
$DIMZIN
 70
     8
  9
$DIMBLK
  1

  9
$DIMASO
 70
     1
  9
$DIMSHO
 70
     1
  9
$DIMPOST
  1

  9
$DIMAPOST
  1

  9
$DIMALT
 70
     0
  9
$DIMALTD
 70
     2
  9
$DIMALTF
 40
25.4
  9
$DIMLFAC
 40
1.0
  9
$DIMTOFL
 70
     1
  9
$DIMTVP
 40
0.0
  9
$DIMTIX
 70
     0
  9
$DIMSOXD
 70
     0
  9
$DIMSAH
 70
     1
  9
$DIMBLK1
  1
OPEN
  9
$DIMBLK2
  1
OPEN
  9
$DIMSTYLE
  2
STANDARD
  9
$DIMCLRD
 70
     0
  9
$DIMCLRE
 70
     0
  9
$DIMCLRT
 70
     0
  9
$DIMTFAC
 40
1.0
  9
$DIMGAP
 40
1.0
  9
$DIMJUST
 70
     0
  9
$DIMSD1
 70
     0
  9
$DIMSD2
 70
     0
  9
$DIMTOLJ
 70
     1
  9
$DIMTZIN
 70
     0
  9
$DIMALTZ
 70
     0
  9
$DIMALTTZ
 70
     0
  9
$DIMUPT
 70
     0
  9
$DIMDEC
 70
     4
  9
$DIMTDEC
 70
     4
  9
$DIMALTU
 70
     2
  9
$DIMALTTD
 70
     2
  9
$DIMTXSTY
  7
STANDARD
  9
$DIMAUNIT
 70
     0
  9
$DIMADEC
 70
     0
  9
$DIMALTRND
 40
0.0
  9
$DIMAZIN
 70
     0
  9
$DIMDSEP
 70
    46
  9
$DIMATFIT
 70
     3
  9
$DIMFRAC
 70
     0
  9
$DIMLDRBLK
  1
OPEN
  9
$DIMLUNIT
 70
     2
  9
$DIMLWD
 70
    -2
  9
$DIMLWE
 70
    -2
  9
$DIMTMOVE
 70
     0
  9
$LUNITS
 70
     2
  9
$LUPREC
 70
     4
  9
$SKETCHINC
 40
1.0
  9
$FILLETRAD
 40
1.0
  9
$AUNITS
 70
     0
  9
$AUPREC
 70
     0
  9
$MENU
  1
.
  9
$ELEVATION
 40
0.0
  9
$PELEVATION
 40
0.0
  9
$THICKNESS
 40
0.0
  9
$LIMCHECK
 70
     0
  9
$CHAMFERA
 40
10.0
  9
$CHAMFERB
 40
10.0
  9
$CHAMFERC
 40
20.0
  9
$CHAMFERD
 40
0.0
  9
$SKPOLY
 70
     0
  9
$TDCREATE
 40
2454525.396254514
  9
$TDUCREATE
 40
2454525.021254514
  9
$TDUPDATE
 40
2457192.602410185
  9
$TDUUPDATE
 40
2457192.227410185
  9
$TDINDWG
 40
0.1913667361
  9
$TDUSRTIMER
 40
0.1913667361
  9
$USRTIMER
 70
     1
  9
$ANGBASE
 50
0.0
  9
$ANGDIR
 70
     0
  9
$PDMODE
 70
     0
  9
$PDSIZE
 40
0.0
  9
$PLINEWID
 40
0.0
  9
$SPLFRAME
 70
     0
  9
$SPLINETYPE
 70
     6
  9
$SPLINESEGS
 70
     8
  9
$HANDSEED
  5
427B
  9
$SURFTAB1
 70
     6
  9
$SURFTAB2
 70
     6
  9
$SURFTYPE
 70
     6
  9
$SURFU
 70
     6
  9
$SURFV
 70
     6
  9
$UCSBASE
  2

  9
$UCSNAME
  2

  9
$UCSORG
 10
0.0
 20
0.0
 30
0.0
  9
$UCSXDIR
 10
1.0
 20
0.0
 30
0.0
  9
$UCSYDIR
 10
0.0
 20
1.0
 30
0.0
  9
$UCSORTHOREF
  2

  9
$UCSORTHOVIEW
 70
     0
  9
$UCSORGTOP
 10
0.0
 20
0.0
 30
0.0
  9
$UCSORGBOTTOM
 10
0.0
 20
0.0
 30
0.0
  9
$UCSORGLEFT
 10
0.0
 20
0.0
 30
0.0
  9
$UCSORGRIGHT
 10
0.0
 20
0.0
 30
0.0
  9
$UCSORGFRONT
 10
0.0
 20
0.0
 30
0.0
  9
$UCSORGBACK
 10
0.0
 20
0.0
 30
0.0
  9
$PUCSBASE
  2

  9
$PUCSNAME
  2

  9
$PUCSORG
 10
0.0
 20
0.0
 30
0.0
  9
$PUCSXDIR
 10
1.0
 20
0.0
 30
0.0
  9
$PUCSYDIR
 10
0.0
 20
1.0
 30
0.0
  9
$PUCSORTHOREF
  2

  9
$PUCSORTHOVIEW
 70
     0
  9
$PUCSORGTOP
 10
0.0
 20
0.0
 30
0.0
  9
$PUCSORGBOTTOM
 10
0.0
 20
0.0
 30
0.0
  9
$PUCSORGLEFT
 10
0.0
 20
0.0
 30
0.0
  9
$PUCSORGRIGHT
 10
0.0
 20
0.0
 30
0.0
  9
$PUCSORGFRONT
 10
0.0
 20
0.0
 30
0.0
  9
$PUCSORGBACK
 10
0.0
 20
0.0
 30
0.0
  9
$USERI1
 70
     0
  9
$USERI2
 70
     0
  9
$USERI3
 70
     0
  9
$USERI4
 70
     0
  9
$USERI5
 70
     0
  9
$USERR1
 40
0.0
  9
$USERR2
 40
0.0
  9
$USERR3
 40
0.0
  9
$USERR4
 40
0.0
  9
$USERR5
 40
0.0
  9
$WORLDVIEW
 70
     1
  9
$SHADEDGE
 70
     3
  9
$SHADEDIF
 70
    70
  9
$TILEMODE
 70
     1
  9
$MAXACTVP
 70
    48
  9
$PINSBASE
 10
0.0
 20
0.0
 30
0.0
  9
$PLIMCHECK
 70
     0
  9
$PEXTMIN
 10
1.000000000000000E+20
 20
1.000000000000000E+20
 30
1.000000000000000E+20
  9
$PEXTMAX
 10
-1.000000000000000E+20
 20
-1.000000000000000E+20
 30
-1.000000000000000E+20
  9
$PLIMMIN
 10
0.0
 20
0.0
  9
$PLIMMAX
 10
420.0
 20
297.0
  9
$UNITMODE
 70
     0
  9
$VISRETAIN
 70
     1
  9
$PLINEGEN
 70
     0
  9
$PSLTSCALE
 70
     1
  9
$TREEDEPTH
 70
  3020
  9
$CMLSTYLE
  2
STANDARD
  9
$CMLJUST
 70
     0
  9
$CMLSCALE
 40
20.0
  9
$PROXYGRAPHICS
 70
     1
  9
$MEASUREMENT
 70
     0
  9
$CELWEIGHT
370
    -1
  9
$ENDCAPS
280
     0
  9
$JOINSTYLE
280
     0
  9
$LWDISPLAY
290
     0
  9
$INSUNITS
 70
     0
  9
$HYPERLINKBASE
  1

  9
$STYLESHEET
  1

  9
$XEDIT
290
     1
  9
$CEPSNTYPE
380
     0
  9
$PSTYLEMODE
290
     1
  9
$FINGERPRINTGUID
  2
{D0640312-DEBE-4770-AA0E-65C35B9149FF}
  9
$VERSIONGUID
  2
{DB97EBC8-02C5-4CCF-9FA1-60FE144C2092}
  9
$EXTNAMES
290
     1
  9
$PSVPSCALE
 40
0.0
  9
$OLESTARTUP
290
     0
  0
ENDSEC
  0
SECTION
  2
CLASSES
  0
CLASS
  1
ACDBDICTIONARYWDFLT
  2
AcDbDictionaryWithDefault
  3
ObjectDBX Classes
 90
        0
280
     0
281
     0
  0
CLASS
  1
ACDBPLACEHOLDER
  2
AcDbPlaceHolder
  3
ObjectDBX Classes
 90
        0
280
     0
281
     0
  0
CLASS
  1
LAYOUT
  2
AcDbLayout
  3
ObjectDBX Classes
 90
        0
280
     0
281
     0
  0
CLASS
  1
DICTIONARYVAR
  2
AcDbDictionaryVar
  3
ObjectDBX Classes
 90
        0
280
     0
281
     0
  0
CLASS
  1
MATERIAL
  2
AcDbMaterial
  3
ObjectDBX Classes
 90
     1153
280
     0
281
     0
  0
CLASS
  1
VISUALSTYLE
  2
AcDbVisualStyle
  3
ObjectDBX Classes
 90
     4095
280
     0
281
     0
  0
CLASS
  1
TABLESTYLE
  2
AcDbTableStyle
  3
ObjectDBX Classes
 90
     4095
280
     0
281
     0
  0
CLASS
  1
SCALE
  2
AcDbScale
  3
ObjectDBX Classes
 90
     1153
280
     0
281
     0
  0
CLASS
  1
MLEADERSTYLE
  2
AcDbMLeaderStyle
  3
ACDB_MLEADERSTYLE_CLASS
 90
     4095
280
     0
281
     0
  0
CLASS
  1
ACDBSECTIONVIEWSTYLE
  2
AcDbSectionViewStyle
  3
ObjectDBX Classes
 90
     1025
280
     0
281
     0
  0
CLASS
  1
ACDBDETAILVIEWSTYLE
  2
AcDbDetailViewStyle
  3
ObjectDBX Classes
 90
     1025
280
     0
281
     0
  0
CLASS
  1
CELLSTYLEMAP
  2
AcDbCellStyleMap
  3
ObjectDBX Classes
 90
     1152
280
     0
281
     0
  0
ENDSEC
  0
SECTION
  2
TABLES
  0
TABLE
  2
VPORT
  5
8
330
0
100
AcDbSymbolTable
 70
     1
  0
VPORT
  5
41C5
330
8
100
AcDbSymbolTableRecord
100
AcDbViewportTableRecord
  2
*ACTIVE
 70
     0
 10
0.0
 20
0.0
 11
1.0
 21
1.0
 12
222.9609867093988
 22
113.7659687387623
 13
0.0
 23
0.0
 14
10.0
 24
10.0
 15
10.0
 25
10.0
 16
0.0
 26
0.0
 36
1.0
 17
0.0
 27
0.0
 37
0.0
 40
209.2199310558336
 41
1.899603698811096
 42
50.0
 43
0.0
 44
0.0
 50
0.0
 51
0.0
 71
     0
 72
   100
 73
     1
 74
     0
 75
     0
 76
     0
 77
     0
 78
     0
281
     0
 65
     1
110
0.0
120
0.0
130
0.0
111
1.0
121
0.0
131
0.0
112
0.0
122
1.0
132
0.0
 79
     0
146
0.0
1001
ACAD_NAV_VCDISPLAY
1070
     3
  0
ENDTAB
  0
TABLE
  2
LTYPE
  5
5
330
0
100
AcDbSymbolTable
 70
     4
  0
LTYPE
  5
12
330
5
100
AcDbSymbolTableRecord
100
AcDbLinetypeTableRecord
  2
BYBLOCK
 70
     0
  3

 72
    65
 73
     0
 40
0.0
  0
LTYPE
  5
13
330
5
100
AcDbSymbolTableRecord
100
AcDbLinetypeTableRecord
  2
BYLAYER
 70
     0
  3

 72
    65
 73
     0
 40
0.0
  0
LTYPE
  5
14
330
5
100
AcDbSymbolTableRecord
100
AcDbLinetypeTableRecord
  2
CONTINUOUS
 70
     0
  3
Solid line
 72
    65
 73
     0
 40
0.0
  0
LTYPE
  5
4B
330
5
100
AcDbSymbolTableRecord
100
AcDbLinetypeTableRecord
  2
DASHED
 70
     0
  3
Dashed __ __ __ __ __ __ __ __ __ __ __ __ __ _
 72
    65
 73
     2
 40
19.04999999999999
 49
12.7
 74
     0
 49
-6.349999999999998
 74
     0
  0
LTYPE
  5
4C
330
5
100
AcDbSymbolTableRecord
100
AcDbLinetypeTableRecord
  2
CENTER
 70
     0
  3
Center ____ _ ____ _ ____ _ ____ _ ____ _ ____
 72
    65
 73
     4
 40
50.8
 49
31.75
 74
     0
 49
-6.349999999999998
 74
     0
 49
6.349999999999998
 74
     0
 49
-6.349999999999998
 74
     0
  0
LTYPE
  5
4D
330
5
100
AcDbSymbolTableRecord
100
AcDbLinetypeTableRecord
  2
PHANTOM
 70
     0
  3
Phantom ______  __  __  ______  __  __  ______
 72
    65
 73
     6
 40
63.5
 49
31.75
 74
     0
 49
-6.349999999999998
 74
     0
 49
6.349999999999998
 74
     0
 49
-6.349999999999998
 74
     0
 49
6.349999999999998
 74
     0
 49
-6.349999999999998
 74
     0
  0
ENDTAB
  0
TABLE
  2
LAYER
  5
2
330
0
100
AcDbSymbolTable
 70
     8
  0
LAYER
  5
E
102
{ACAD_XDICTIONARY
360
421F
102
}
330
2
100
AcDbSymbolTableRecord
100
AcDbLayerTableRecord
  2
0
 70
     0
 62
     7
  6
CONTINUOUS
370
    -3
390
41CE
  0
LAYER
  5
4E
102
{ACAD_XDICTIONARY
360
4221
102
}
330
2
100
AcDbSymbolTableRecord
100
AcDbLayerTableRecord
  2
4
 70
     0
 62
     1
  6
CENTER
370
    -3
390
41CE
  0
LAYER
  5
4F
102
{ACAD_XDICTIONARY
360
4223
102
}
330
2
100
AcDbSymbolTableRecord
100
AcDbLayerTableRecord
  2
5
 70
     0
 62
     6
  6
PHANTOM
370
    -3
390
41CE
  0
LAYER
  5
50
102
{ACAD_XDICTIONARY
360
4225
102
}
330
2
100
AcDbSymbolTableRecord
100
AcDbLayerTableRecord
  2
1
 70
     0
 62
     7
  6
CONTINUOUS
370
    -3
390
41CE
  0
LAYER
  5
51
102
{ACAD_XDICTIONARY
360
4227
102
}
330
2
100
AcDbSymbolTableRecord
100
AcDbLayerTableRecord
  2
2
 70
     0
 62
     4
  6
CONTINUOUS
370
    -3
390
41CE
  0
LAYER
  5
52
102
{ACAD_XDICTIONARY
360
4229
102
}
330
2
100
AcDbSymbolTableRecord
100
AcDbLayerTableRecord
  2
3
 70
     0
 62
     2
  6
DASHED
370
    -3
390
41CE
  0
LAYER
  5
53
102
{ACAD_XDICTIONARY
360
422B
102
}
330
2
100
AcDbSymbolTableRecord
100
AcDbLayerTableRecord
  2
6
 70
     0
 62
     5
  6
CONTINUOUS
370
    -3
390
41CE
  0
LAYER
  5
54
102
{ACAD_XDICTIONARY
360
422D
102
}
330
2
100
AcDbSymbolTableRecord
100
AcDbLayerTableRecord
  2
7
 70
     0
 62
     3
  6
CONTINUOUS
370
    -3
390
41CE
  0
ENDTAB
  0
TABLE
  2
STYLE
  5
3
330
0
100
AcDbSymbolTable
 70
     1
  0
STYLE
  5
F
330
3
100
AcDbSymbolTableRecord
100
AcDbTextStyleTableRecord
  2
STANDARD
 70
     0
 40
0.0
 41
1.0
 50
0.0
 71
     0
 42
2.5
  3
simplex.shx
  4

  0
ENDTAB
  0
TABLE
  2
VIEW
  5
6
330
0
100
AcDbSymbolTable
 70
     0
  0
ENDTAB
  0
TABLE
  2
UCS
  5
7
330
0
100
AcDbSymbolTable
 70
     0
  0
ENDTAB
  0
TABLE
  2
APPID
  5
9
330
0
100
AcDbSymbolTable
 70
     5
  0
APPID
  5
10
330
9
100
AcDbSymbolTableRecord
100
AcDbRegAppTableRecord
  2
ACAD
 70
     0
  0
APPID
  5
3E
330
9
100
AcDbSymbolTableRecord
100
AcDbRegAppTableRecord
  2
CONTENTTABDATA
 70
     0
  0
APPID
  5
3F
330
9
100
AcDbSymbolTableRecord
100
AcDbRegAppTableRecord
  2
CONTENTCURRENTTAB
 70
     0
  0
APPID
  5
4239
330
9
100
AcDbSymbolTableRecord
100
AcDbRegAppTableRecord
  2
ACAD_NAV_VCDISPLAY
 70
     0
  0
APPID
  5
4272
330
9
100
AcDbSymbolTableRecord
100
AcDbRegAppTableRecord
  2
ACAD_MLEADERVER
 70
     0
  0
ENDTAB
  0
TABLE
  2
DIMSTYLE
  5
A
330
0
100
AcDbSymbolTable
 70
     1
100
AcDbDimStyleTable
 71
     0
  0
DIMSTYLE
105
1D
330
A
100
AcDbSymbolTableRecord
100
AcDbDimStyleTableRecord
  2
STANDARD
 70
     0
 41
3.0
 42
1.0
 43
10.0
 44
1.0
 73
     0
 74
     0
 77
     3
 78
     8
140
2.5
141
0.0
147
1.0
172
     1
173
     1
340
F
341
2E
343
2E
344
2E
  0
ENDTAB
  0
TABLE
  2
BLOCK_RECORD
  5
1
330
0
100
AcDbSymbolTable
 70
     1
  0
BLOCK_RECORD
  5
18
102
{ACAD_XDICTIONARY
360
41C8
102
}
330
1
100
AcDbSymbolTableRecord
100
AcDbBlockTableRecord
  2
*MODEL_SPACE
340
421C
  0
BLOCK_RECORD
  5
15
102
{ACAD_XDICTIONARY
360
41C6
102
}
330
1
100
AcDbSymbolTableRecord
100
AcDbBlockTableRecord
  2
*PAPER_SPACE
340
421D
  0
BLOCK_RECORD
  5
2E
330
1
100
AcDbSymbolTableRecord
100
AcDbBlockTableRecord
  2
_OPEN
340
0
  0
ENDTAB
  0
ENDSEC
  0
SECTION
  2
BLOCKS
  0
BLOCK
  5
19
330
18
100
AcDbEntity
  8
0
100
AcDbBlockBegin
  2
*MODEL_SPACE
 70
     0
 10
0.0
 20
0.0
 30
0.0
  3
*MODEL_SPACE
  1

  0
ENDBLK
  5
1A
330
18
100
AcDbEntity
  8
0
100
AcDbBlockEnd
  0
BLOCK
  5
16
330
15
100
AcDbEntity
 67
     1
  8
0
100
AcDbBlockBegin
  2
*PAPER_SPACE
 70
     0
 10
0.0
 20
0.0
 30
0.0
  3
*PAPER_SPACE
  1

  0
ENDBLK
  5
17
330
15
100
AcDbEntity
 67
     1
  8
0
100
AcDbBlockEnd
  0
BLOCK
  5
2F
330
2E
100
AcDbEntity
  8
0
100
AcDbBlockBegin
  2
_OPEN
 70
     0
 10
0.0
 20
0.0
 30
0.0
  3
_OPEN
  1

  0
LINE
  5
30
330
2E
100
AcDbEntity
  8
0
  6
ByBlock
 62
     0
100
AcDbLine
 10
-1.0
 20
0.1666666666666666
 30
0.0
 11
0.0
 21
0.0
 31
0.0
  0
LINE
  5
31
330
2E
100
AcDbEntity
  8
0
  6
ByBlock
 62
     0
100
AcDbLine
 10
0.0
 20
0.0
 30
0.0
 11
-1.0
 21
-0.1666666666666666
 31
0.0
  0
LINE
  5
32
330
2E
100
AcDbEntity
  8
0
  6
ByBlock
 62
     0
100
AcDbLine
 10
0.0
 20
0.0
 30
0.0
 11
-1.0
 21
0.0
 31
0.0
  0
ENDBLK
  5
33
330
2E
100
AcDbEntity
  8
0
100
AcDbBlockEnd
  0
ENDSEC
  0
SECTION
  2
ENTITIES
  0
TEXT
  5
63
330
18
100
AcDbEntity
  8
4
  6
CENTER
 48
0.25
100
AcDbText
 10
23.97950852663849
 20
10.0
 30
0.0
 40
1.399999999999999
  1
4
100
AcDbText
  0
TEXT
  5
64
330
18
100
AcDbEntity
  8
7
  6
Continuous
 48
0.25
100
AcDbText
 10
9.999997526638502
 20
26.0000007607689
 30
0.0
 40
3.0
  1
CODE No.11035
100
AcDbText
  0
TEXT
  5
65
330
18
100
AcDbEntity
  8
7
  6
Continuous
 48
0.25
100
AcDbText
 10
9.999997526638502
 20
18.00000076076889
 30
0.0
 40
3.0
  1
TYPE No.TL-370
100
AcDbText
  0
TEXT
  5
66
330
18
100
AcDbEntity
  8
1
  6
Continuous
 48
0.25
100
AcDbText
 10
9.999997526638502
 20
10.00000076076889
 30
0.0
 40
1.399999999999999
  1
LAYER
100
AcDbText
  0
TEXT
  5
67
330
18
100
AcDbEntity
  8
2
  6
Continuous
 48
0.25
100
AcDbText
 10
19.9795085266385
 20
10.0
 30
0.0
 40
1.399999999999999
  1
2
100
AcDbText
  0
TEXT
  5
68
330
18
100
AcDbEntity
  8
3
  6
DASHED
 48
0.25
100
AcDbText
 10
21.9795085266385
 20
10.0
 30
0.0
 40
1.399999999999999
  1
3
100
AcDbText
  0
TEXT
  5
69
330
18
100
AcDbEntity
  8
1
  6
Continuous
 48
0.25
100
AcDbText
 10
17.9795085266385
 20
10.0
 30
0.0
 40
1.399999999999999
  1
1
100
AcDbText
  0
TEXT
  5
6A
330
18
100
AcDbEntity
  8
5
  6
PHANTOM
 48
0.25
100
AcDbText
 10
25.9795085266385
 20
10.0
 30
0.0
 40
1.399999999999999
  1
5
100
AcDbText
  0
TEXT
  5
6B
330
18
100
AcDbEntity
  8
6
  6
Continuous
 48
0.25
100
AcDbText
 10
27.9795085266385
 20
10.0
 30
0.0
 40
1.399999999999999
  1
6
100
AcDbText
  0
TEXT
  5
6C
330
18
100
AcDbEntity
  8
7
  6
Continuous
 48
0.25
100
AcDbText
 10
29.9795085266385
 20
10.0
 30
0.0
 40
1.399999999999999
  1
7
100
AcDbText
  0
LINE
  5
4AD
330
18
100
AcDbEntity
  8
2
  6
Continuous
100
AcDbLine
 10
116.9989672394998
 20
116.5831374639456
 30
0.0
 11
106.2574672394998
 21
116.5831374639455
 31
0.0
  0
LINE
  5
4E9
330
18
100
AcDbEntity
  8
2
  6
Continuous
100
AcDbLine
 10
127.6634672395005
 20
128.6356374639451
 30
0.0
 11
121.2574672394998
 21
128.6356374639451
 31
0.0
  0
LINE
  5
4EA
330
18
100
AcDbEntity
  8
2
  6
Continuous
100
AcDbLine
 10
127.6634672394992
 20
122.4476374639451
 30
0.0
 11
121.2574672394998
 21
122.4476374639451
 31
0.0
  0
CIRCLE
  5
504
330
18
100
AcDbEntity
  8
1
  6
Continuous
100
AcDbCircle
 10
187.9477118826944
 20
125.5416374639457
 30
0.0
 40
11.0
  0
LINE
  5
505
330
18
100
AcDbEntity
  8
1
  6
Continuous
100
AcDbLine
 10
187.9477118827044
 20
138.2433433861222
 30
0.0
 11
176.9477118827043
 21
131.8924904250377
 31
0.0
  0
LINE
  5
506
330
18
100
AcDbEntity
  8
1
  6
Continuous
100
AcDbLine
 10
198.9477118827043
 20
131.8924904250272
 30
0.0
 11
187.9477118827044
 21
138.2433433861121
 31
0.0
  0
LINE
  5
50B
330
18
100
AcDbEntity
  8
1
  6
Continuous
100
AcDbLine
 10
187.9477118826843
 20
112.8399315417697
 30
0.0
 11
198.9477118826843
 21
119.1907845028542
 31
0.0
  0
ARC
  5
50D
330
18
100
AcDbEntity
  8
1
  6
Continuous
100
AcDbCircle
 10
187.9477118826944
 20
125.5416374639457
 30
0.0
 40
9.5
100
AcDbArc
 50
213.7387226487371
 51
326.2612773512617
  0
ARC
  5
50E
330
18
100
AcDbEntity
  8
1
  6
Continuous
100
AcDbCircle
 10
187.9477118826944
 20
125.5416374639858
 30
0.0
 40
9.5
100
AcDbArc
 50
33.73872264873821
 51
146.2612773512629
  0
LINE
  5
50F
330
18
100
AcDbEntity
  8
1
  6
Continuous
100
AcDbLine
 10
176.9477118826844
 20
119.1907845028647
 30
0.0
 11
187.9477118826844
 21
112.8399315417798
 31
0.0
  0
ARC
  5
511
330
18
100
AcDbEntity
  8
2
  6
Continuous
100
AcDbCircle
 10
187.9477118826944
 20
125.5416374639258
 30
0.0
 40
3.4999999999999
100
AcDbArc
 50
140.4823472028211
 51
219.5176527968957
  0
CIRCLE
  5
512
330
18
100
AcDbEntity
  8
1
  6
Continuous
100
AcDbCircle
 10
187.9477118826944
 20
125.5416374639457
 30
0.0
 40
5.499999999940895
  0
LINE
  5
513
330
18
100
AcDbEntity
  8
1
  6
Continuous
100
AcDbLine
 10
182.4477118826945
 20
128.7170639445459
 30
0.0
 11
187.9477118825944
 21
131.8924904250259
 31
0.0
  0
ARC
  5
515
330
18
100
AcDbEntity
  8
1
  6
Continuous
100
AcDbCircle
 10
187.9477118826894
 20
125.5416374639457
 30
0.0
 40
3.093999999999998
100
AcDbArc
 50
150.7688548602239
 51
209.2311451397727
  0
LINE
  5
518
330
18
100
AcDbEntity
  8
1
  6
Continuous
100
AcDbLine
 10
182.4477118826943
 20
122.3662109833958
 30
0.0
 11
187.9477118826943
 21
119.1907845028559
 31
0.0
  0
ARC
  5
519
330
18
100
AcDbEntity
  8
2
  6
Continuous
100
AcDbCircle
 10
187.9477118826893
 20
125.5416374639457
 30
0.0
 40
8.9585
100
AcDbArc
 50
208.134382499142
 51
331.8656175009927
  0
ARC
  5
51A
330
18
100
AcDbEntity
  8
1
  6
Continuous
100
AcDbCircle
 10
187.9477118826943
 20
125.5416374639557
 30
0.0
 40
8.799999999877
100
AcDbArc
 50
206.1390829635597
 51
333.8609170365227
  0
CIRCLE
  5
51F
330
18
100
AcDbEntity
  8
1
  6
Continuous
100
AcDbCircle
 10
187.9477118826943
 20
125.5416374639457
 30
0.0
 40
6.5
  0
LINE
  5
520
330
18
100
AcDbEntity
  8
1
  6
Continuous
100
AcDbLine
 10
176.9477118826944
 20
131.8924904250412
 30
0.0
 11
176.9477118826944
 21
119.1907845028712
 31
0.0
  0
ARC
  5
521
330
18
100
AcDbEntity
  8
1
  6
Continuous
100
AcDbCircle
 10
187.9477118826943
 20
125.5416374638958
 30
0.0
 40
7.299999999939498
100
AcDbArc
 50
154.9999999995304
 51
295.0000000001077
  0
LINE
  5
522
330
18
100
AcDbEntity
  8
1
  6
Continuous
100
AcDbLine
 10
184.2286711794464
 20
117.5661289381362
 30
0.0
 11
184.8625985719944
 21
118.9255906185757
 31
0.0
  0
ARC
  5
525
330
18
100
AcDbEntity
  8
1
  6
Continuous
100
AcDbCircle
 10
187.9477118826944
 20
125.5416374639457
 30
0.0
 40
8.9585
100
AcDbArc
 50
151.865617500926
 51
208.1343824990739
  0
ARC
  5
526
330
18
100
AcDbEntity
  8
2
  6
Continuous
100
AcDbCircle
 10
187.9477118826944
 20
125.5416374639457
 30
0.0
 40
9.5
100
AcDbArc
 50
146.2612773512629
 51
213.7387226487371
  0
LINE
  5
527
330
18
100
AcDbEntity
  8
1
  6
Continuous
100
AcDbLine
 10
180.0477118826943
 20
120.2652750806358
 30
0.0
 11
180.0477118826943
 21
130.8179998472948
 31
0.0
  0
LINE
  5
529
330
18
100
AcDbEntity
  8
1
  6
Continuous
100
AcDbLine
 10
182.4477118826944
 20
122.3662109833957
 30
0.0
 11
182.4477118826944
 21
128.7170639445458
 31
0.0
  0
LINE
  5
52F
330
18
100
AcDbEntity
  8
1
  6
Continuous
100
AcDbLine
 10
187.9477118826942
 20
119.1907845028558
 30
0.0
 11
193.4477118826944
 21
122.3662109833958
 31
0.0
  0
LINE
  5
537
330
18
100
AcDbEntity
  8
1
  6
Continuous
100
AcDbLine
 10
187.9477118825943
 20
131.8924904250257
 30
0.0
 11
193.4477118826943
 21
128.7170639444157
 31
0.0
  0
LINE
  5
539
330
18
100
AcDbEntity
  8
1
  6
Continuous
100
AcDbLine
 10
190.6477118826943
 20
123.3145317188158
 30
0.0
 11
190.6477118826942
 21
127.7687432090756
 31
0.0
  0
ARC
  5
545
330
18
100
AcDbEntity
  8
1
  6
Continuous
100
AcDbCircle
 10
187.9477118826944
 20
125.5416374639457
 30
0.0
 40
8.9585
100
AcDbArc
 50
331.8656175009235
 51
28.13438249907639
  0
ARC
  5
546
330
18
100
AcDbEntity
  8
2
  6
Continuous
100
AcDbCircle
 10
187.9477118826944
 20
125.5416374639457
 30
0.0
 40
9.5
100
AcDbArc
 50
326.2612773512617
 51
33.73872264873821
  0
LINE
  5
548
330
18
100
AcDbEntity
  8
1
  6
Continuous
100
AcDbLine
 10
195.8477118826943
 20
120.2652750806358
 30
0.0
 11
195.8477118826943
 21
130.8179998472558
 31
0.0
  0
LINE
  5
549
330
18
100
AcDbEntity
  8
1
  6
Continuous
100
AcDbLine
 10
193.4477118826943
 20
122.3662109833957
 30
0.0
 11
193.4477118826943
 21
128.7170639444157
 31
0.0
  0
LINE
  5
55E
330
18
100
AcDbEntity
  8
1
  6
Continuous
100
AcDbLine
 10
198.9477118826943
 20
119.1907845028507
 30
0.0
 11
198.9477118826943
 21
131.8924904250207
 31
0.0
  0
LINE
  5
6FA
330
18
100
AcDbEntity
  8
1
  6
Continuous
100
AcDbLine
 10
185.2477118826944
 20
123.3145317188158
 30
0.0
 11
185.2477118826945
 21
127.7687432090756
 31
0.0
  0
ARC
  5
6FB
330
18
100
AcDbEntity
  8
2
  6
Continuous
100
AcDbCircle
 10
187.9477118826894
 20
125.5416374639457
 30
0.0
 40
3.093999999999998
100
AcDbArc
 50
209.2311451397373
 51
330.768854860642
  0
ARC
  5
6FC
330
18
100
AcDbEntity
  8
1
  6
Continuous
100
AcDbCircle
 10
187.9477118826944
 20
125.5416374639258
 30
0.0
 40
3.4999999999999
100
AcDbArc
 50
219.5176527968957
 51
320.4823472028259
  0
ARC
  5
6FD
330
18
100
AcDbEntity
  8
2
  6
Continuous
100
AcDbCircle
 10
187.9477118826894
 20
125.5416374639457
 30
0.0
 40
3.093999999999998
100
AcDbArc
 50
29.23114513936132
 51
150.7688548602593
  0
ARC
  5
6FE
330
18
100
AcDbEntity
  8
1
  6
Continuous
100
AcDbCircle
 10
187.9477118826944
 20
125.5416374639258
 30
0.0
 40
3.4999999999999
100
AcDbArc
 50
39.51765279717705
 51
140.4823472028325
  0
ARC
  5
6FF
330
18
100
AcDbEntity
  8
1
  6
Continuous
100
AcDbCircle
 10
187.9477118826994
 20
125.5416374639457
 30
0.0
 40
3.093999999999998
100
AcDbArc
 50
330.7688548602272
 51
29.23114513977605
  0
ARC
  5
700
330
18
100
AcDbEntity
  8
2
  6
Continuous
100
AcDbCircle
 10
187.9477118826944
 20
125.5416374639258
 30
0.0
 40
3.4999999999999
100
AcDbArc
 50
320.4823472031043
 51
39.51765279717885
  0
ARC
  5
FDC
330
18
100
AcDbEntity
  8
2
  6
Continuous
100
AcDbCircle
 10
187.9477118826894
 20
125.5416374639457
 30
0.0
 40
8.9585
100
AcDbArc
 50
28.13438249900841
 51
151.8656175008583
  0
LINE
  5
13EF
330
18
100
AcDbEntity
  8
2
  6
Continuous
100
AcDbLine
 10
116.9989672395002
 20
134.5001374639456
 30
0.0
 11
106.2574672394998
 21
134.5001374639456
 31
0.0
  0
ARC
  5
140E
330
18
100
AcDbEntity
  8
1
  6
Continuous
100
AcDbCircle
 10
187.9477118826943
 20
125.5416374639757
 30
0.0
 40
8.799999999877
100
AcDbArc
 50
26.13908296347801
 51
153.860917036523
  0
LINE
  5
1562
330
18
100
AcDbEntity
  8
1
  6
Continuous
100
AcDbLine
 10
120.9574672394998
 20
49.26067816719355
 30
0.0
 11
119.7574672394999
 21
49.26067816719355
 31
0.0
  0
LINE
  5
1DF1
330
18
100
AcDbEntity
  8
4
  6
CENTER
 48
0.3
100
AcDbLine
 10
64.73948321985415
 20
205.5416374639456
 30
0.0
 11
12.23948321985358
 21
205.5416374639456
 31
0.0
  0
LINE
  5
1DF2
330
18
100
AcDbEntity
  8
1
  6
Continuous
100
AcDbLine
 10
43.03948321985359
 20
211.0416374639457
 30
0.0
 11
34.93948321985362
 21
211.0416374639457
 31
0.0
  0
LINE
  5
1DF3
330
18
100
AcDbEntity
  8
1
  6
Continuous
100
AcDbLine
 10
34.93948321985362
 20
200.0416374639457
 30
0.0
 11
43.03948321985359
 21
200.0416374639457
 31
0.0
  0
LINE
  5
1E03
330
18
100
AcDbEntity
  8
1
  6
Continuous
100
AcDbLine
 10
21.84503449528756
 20
216.5416374639458
 30
0.0
 11
25.23979082693256
 21
216.5416374639458
 31
0.0
  0
LINE
  5
1E04
330
18
100
AcDbEntity
  8
1
  6
Continuous
100
AcDbLine
 10
25.57486216847354
 20
217.5416374639656
 30
0.0
 11
21.30985073676356
 21
217.5416374639656
 31
0.0
  0
LINE
  5
1E07
330
18
100
AcDbEntity
  8
1
  6
Continuous
100
AcDbLine
 10
21.84503449528762
 20
194.5416374639456
 30
0.0
 11
25.23979082693262
 21
194.5416374639456
 31
0.0
  0
LINE
  5
1E0E
330
18
100
AcDbEntity
  8
1
  6
Continuous
100
AcDbLine
 10
21.30985073676362
 20
193.5416374639256
 30
0.0
 11
25.57486216847354
 21
193.5416374639256
 31
0.0
  0
LINE
  5
1E12
330
18
100
AcDbEntity
  8
1
  6
Continuous
100
AcDbLine
 10
15.23948321985364
 20
209.4360861885557
 30
0.0
 11
15.23948321985364
 21
201.6471887393356
 31
0.0
  0
ARC
  5
1E14
330
18
100
AcDbEntity
  8
1
  6
Continuous
100
AcDbCircle
 10
18.23948321985364
 20
201.9499643770966
 30
0.0
 40
2.0
100
AcDbArc
 50
180.0
 51
213.6900675259802
  0
ARC
  5
1E15
330
18
100
AcDbEntity
  8
1
  6
Continuous
100
AcDbCircle
 10
20.73948321984363
 20
202.0416374639556
 30
0.0
 40
0.5
100
AcDbArc
 50
270.0
 51
0.0000000000113991
  0
ARC
  5
1E16
330
18
100
AcDbEntity
  8
1
  6
Continuous
100
AcDbCircle
 10
18.23948321982362
 20
202.0416374639456
 30
0.0
 40
0.5
100
AcDbArc
 50
180.0
 51
270.0000000019069
  0
ARC
  5
1E1A
330
18
100
AcDbEntity
  8
1
  6
Continuous
100
AcDbCircle
 10
18.21387340328999
 20
197.0982418548113
 30
0.0
 40
0.3
100
AcDbArc
 50
197.0520962571131
 51
230.3280387944553
  0
LINE
  5
1E1F
330
18
100
AcDbEntity
  8
1
  6
Continuous
100
AcDbLine
 10
16.57538263117805
 20
200.8405639846466
 30
0.0
 11
20.18093390661209
 21
195.4322370714951
 31
0.0
  0
LINE
  5
1E21
330
18
100
AcDbEntity
  8
1
  6
Continuous
100
AcDbLine
 10
15.57538263117368
 20
200.5377883468955
 30
0.0
 11
19.6457501480836
 21
194.4322370714854
 31
0.0
  0
ARC
  5
1E26
330
18
100
AcDbEntity
  8
1
  6
Continuous
100
AcDbCircle
 10
17.23948321985363
 20
201.6471887393456
 30
0.0
 40
2.0
100
AcDbArc
 50
180.0000000001188
 51
213.6900675259097
  0
ARC
  5
1E27
330
18
100
AcDbEntity
  8
1
  6
Continuous
100
AcDbCircle
 10
21.30985073676362
 20
195.5416374639256
 30
0.0
 40
1.999999999999899
100
AcDbArc
 50
213.6900675257792
 51
270.0000000000096
  0
ARC
  5
1E2A
330
18
100
AcDbEntity
  8
1
  6
Continuous
100
AcDbCircle
 10
21.84503449528762
 20
196.5416374639456
 30
0.0
 40
2.0
100
AcDbArc
 50
213.6900675259802
 51
270.0
  0
LINE
  5
1E2D
330
18
100
AcDbEntity
  8
1
  6
Continuous
100
AcDbLine
 10
18.23948321984363
 20
201.5416374639456
 30
0.0
 11
20.73948321984363
 21
201.5416374639456
 31
0.0
  0
ARC
  5
1E33
330
18
100
AcDbEntity
  8
1
  6
Continuous
100
AcDbCircle
 10
18.23948321984357
 20
209.0416374639256
 30
0.0
 40
0.5
100
AcDbArc
 50
90.0
 51
179.9999999980898
  0
LINE
  5
1E34
330
18
100
AcDbEntity
  8
1
  6
Continuous
100
AcDbLine
 10
20.18093390671447
 20
215.6510378563962
 30
0.0
 11
16.575382631178
 21
210.2427109430917
 31
0.0
  0
LINE
  5
1E37
330
18
100
AcDbEntity
  8
1
  6
Continuous
100
AcDbLine
 10
19.64575014808355
 20
216.6510378564062
 30
0.0
 11
15.57538263117356
 21
210.5454865809957
 31
0.0
  0
ARC
  5
1E38
330
18
100
AcDbEntity
  8
1
  6
Continuous
100
AcDbCircle
 10
18.23948321985358
 20
209.1333105506411
 30
0.0
 40
2.0
100
AcDbArc
 50
146.3099324740197
 51
180.0
  0
ARC
  5
1E39
330
18
100
AcDbEntity
  8
1
  6
Continuous
100
AcDbCircle
 10
17.23948321985358
 20
209.4360861885557
 30
0.0
 40
2.0
100
AcDbArc
 50
146.3099324742501
 51
180.0000000000195
  0
LINE
  5
1E41
330
18
100
AcDbEntity
  8
1
  6
Continuous
100
AcDbLine
 10
16.23948321985364
 20
201.9499643770966
 30
0.0
 11
16.23948321985364
 21
209.1333105506411
 31
0.0
  0
ARC
  5
1E46
330
18
100
AcDbEntity
  8
1
  6
Continuous
100
AcDbCircle
 10
20.73948321985358
 20
209.0416374639456
 30
0.0
 40
0.5
100
AcDbArc
 50
0.0
 51
90.00000000121969
  0
LINE
  5
1E4C
330
18
100
AcDbEntity
  8
1
  6
Continuous
100
AcDbLine
 10
20.73948321984363
 20
209.5416374639457
 30
0.0
 11
18.23948321984357
 21
209.5416374639456
 31
0.0
  0
LINE
  5
1E4D
330
18
100
AcDbEntity
  8
1
  6
Continuous
100
AcDbLine
 10
21.23948321984363
 20
202.0416374639456
 30
0.0
 11
21.23948321984363
 21
209.0416374639457
 31
0.0
  0
ARC
  5
1E4E
330
18
100
AcDbEntity
  8
1
  6
Continuous
100
AcDbCircle
 10
21.30985073675361
 20
215.5416374639556
 30
0.0
 40
1.999999999999899
100
AcDbArc
 50
89.99999999988926
 51
146.3099324740409
  0
ARC
  5
1E4F
330
18
100
AcDbEntity
  8
1
  6
Continuous
100
AcDbCircle
 10
21.84503449539005
 20
214.5416374639456
 30
0.0
 40
2.0
100
AcDbArc
 50
90.0
 51
146.3099324740197
  0
LINE
  5
1E5A
330
18
100
AcDbEntity
  8
1
  6
Continuous
100
AcDbLine
 10
34.9094832198536
 20
201.2914644748857
 30
0.0
 11
34.9094832198536
 21
209.7918104529992
 31
0.0
  0
LINE
  5
1E5F
330
18
100
AcDbEntity
  8
1
  6
Continuous
100
AcDbLine
 10
26.4394954945746
 20
194.9414160072601
 30
0.0
 11
34.90948321985348
 21
201.2914644748855
 31
0.0
  0
LINE
  5
1E60
330
18
100
AcDbEntity
  8
1
  6
Continuous
100
AcDbLine
 10
26.77191354550354
 20
193.9394302361556
 30
0.0
 11
34.93948321985362
 21
200.0416374639456
 31
0.0
  0
ARC
  5
1E61
330
18
100
AcDbEntity
  8
1
  6
Continuous
100
AcDbCircle
 10
25.57486216846354
 20
195.5416374639256
 30
0.0
 40
1.999999999999899
100
AcDbArc
 50
270.0000000000374
 51
306.7643806750883
  0
ARC
  5
1E62
330
18
100
AcDbEntity
  8
1
  6
Continuous
100
AcDbCircle
 10
25.23979082693262
 20
196.5416374639456
 30
0.0
 40
2.0
100
AcDbArc
 50
270.0000000000016
 51
306.8593225666882
  0
LINE
  5
1E71
330
18
100
AcDbEntity
  8
1
  6
Continuous
100
AcDbLine
 10
34.90948321985371
 20
209.7918104529992
 30
0.0
 11
26.43949549456573
 21
216.1418589206317
 31
0.0
  0
LINE
  5
1E74
330
18
100
AcDbEntity
  8
1
  6
Continuous
100
AcDbLine
 10
34.93948321985362
 20
211.0416374639457
 30
0.0
 11
26.77191354550359
 21
217.1438446917357
 31
0.0
  0
ARC
  5
1E76
330
18
100
AcDbEntity
  8
1
  6
Continuous
100
AcDbCircle
 10
25.57486216847354
 20
215.5416374639655
 30
0.0
 40
2.0
100
AcDbArc
 50
53.23561932502923
 51
90.00000000007981
  0
ARC
  5
1E77
330
18
100
AcDbEntity
  8
1
  6
Continuous
100
AcDbCircle
 10
25.23979082692358
 20
214.5416374639456
 30
0.0
 40
2.0
100
AcDbArc
 50
53.1406774333095
 51
90.0
  0
LINE
  5
1E82
330
18
100
AcDbEntity
  8
1
  6
Continuous
100
AcDbLine
 10
61.09288378857458
 20
203.547366567691
 30
0.0
 11
57.41029238367435
 21
202.1561653702757
 31
0.0
  0
LINE
  5
1E83
330
18
100
AcDbEntity
  8
1
  6
Continuous
100
AcDbLine
 10
61.09288378857553
 20
207.5359083601953
 30
0.0
 11
57.410292383674
 21
208.9271095576155
 31
0.0
  0
LINE
  5
1E85
330
18
100
AcDbEntity
  8
1
  6
Continuous
100
AcDbLine
 10
43.03948321985346
 20
208.9916374639458
 30
0.0
 11
57.0568918149541
 21
208.9916374639457
 31
0.0
  0
LINE
  5
1E86
330
18
100
AcDbEntity
  8
1
  6
Continuous
100
AcDbLine
 10
43.03948321985359
 20
202.0916374639456
 30
0.0
 11
57.0568918149541
 21
202.0916374639456
 31
0.0
  0
LINE
  5
1E87
330
18
100
AcDbEntity
  8
1
  6
Continuous
100
AcDbLine
 10
42.83948321985359
 20
201.8916374639457
 30
0.0
 11
42.83948321985359
 21
201.5532838664356
 31
0.0
  0
ARC
  5
1E98
330
18
100
AcDbEntity
  8
1
  6
Continuous
100
AcDbCircle
 10
43.03948321979361
 20
201.5532838664956
 30
0.0
 40
0.20000000000005
100
AcDbArc
 50
180.000000016869
 51
226.8476102906901
  0
ARC
  5
1E99
330
18
100
AcDbEntity
  8
1
  6
Continuous
100
AcDbCircle
 10
43.03948321985359
 20
200.2416374639252
 30
0.0
 40
0.19999999999999
100
AcDbArc
 50
270.0
 51
0.0000000059047379
  0
ARC
  5
1E9A
330
18
100
AcDbEntity
  8
1
  6
Continuous
100
AcDbCircle
 10
43.03948321982415
 20
201.0049910614851
 30
0.0
 40
0.20000000000005
100
AcDbArc
 50
0.0000000001139911
 51
46.84761025285921
  0
LINE
  5
1E9B
330
18
100
AcDbEntity
  8
1
  6
Continuous
100
AcDbLine
 10
42.9026949940735
 20
201.4073764256156
 30
0.0
 11
43.17627144559803
 21
201.1508985023096
 31
0.0
  0
LINE
  5
1E9C
330
18
100
AcDbEntity
  8
1
  6
Continuous
100
AcDbLine
 10
43.23948321985364
 20
200.2416374639456
 30
0.0
 11
43.23948321985364
 21
201.0049910614557
 31
0.0
  0
LINE
  5
1E9E
330
18
100
AcDbEntity
  8
1
  6
Continuous
100
AcDbLine
 10
42.9026949940735
 20
209.6758985022757
 30
0.0
 11
43.17627144563352
 21
209.9323764256157
 31
0.0
  0
ARC
  5
1E9F
330
18
100
AcDbEntity
  8
1
  6
Continuous
100
AcDbCircle
 10
43.03948321985359
 20
201.8916374639857
 30
0.0
 40
0.19999999999999
100
AcDbArc
 50
90.0
 51
180.0000000118502
  0
ARC
  5
1EA0
330
18
100
AcDbEntity
  8
1
  6
Continuous
100
AcDbCircle
 10
43.03948321985409
 20
209.1916374639457
 30
0.0
 40
0.19999999999999
100
AcDbArc
 50
180.0
 51
270.0000000010096
  0
ARC
  5
1EA1
330
18
100
AcDbEntity
  8
1
  6
Continuous
100
AcDbCircle
 10
43.03948321985359
 20
209.5299910614252
 30
0.0
 40
0.19999999999999
100
AcDbArc
 50
133.1523897281094
 51
179.9999999914197
  0
LINE
  5
1EA2
330
18
100
AcDbEntity
  8
1
  6
Continuous
100
AcDbLine
 10
42.83948321985359
 20
209.1916374639457
 30
0.0
 11
42.83948321985359
 21
209.5299910614556
 31
0.0
  0
ARC
  5
1EA3
330
18
100
AcDbEntity
  8
1
  6
Continuous
100
AcDbCircle
 10
43.03948321985359
 20
210.0782838665057
 30
0.0
 40
0.19999999999997
100
AcDbArc
 50
313.152389720205
 51
359.9999999999674
  0
ARC
  5
1EA4
330
18
100
AcDbEntity
  8
1
  6
Continuous
100
AcDbCircle
 10
43.03948321983404
 20
210.8416374639457
 30
0.0
 40
0.20000000000005
100
AcDbArc
 50
0.0
 51
89.99999999408059
  0
LINE
  5
1EA5
330
18
100
AcDbEntity
  8
1
  6
Continuous
100
AcDbLine
 10
43.23948321985364
 20
210.0782838664357
 30
0.0
 11
43.23948321985364
 21
210.8416374639457
 31
0.0
  0
ARC
  5
1EAD
330
18
100
AcDbEntity
  8
1
  6
Continuous
100
AcDbCircle
 10
57.0568918149441
 20
203.0916374639362
 30
0.0
 40
1.0
100
AcDbArc
 50
270.0000000008614
 51
290.6954507349839
  0
ARC
  5
1EAE
330
18
100
AcDbEntity
  8
1
  6
Continuous
100
AcDbCircle
 10
57.0568918149641
 20
207.9916374639457
 30
0.0
 40
1.0
100
AcDbArc
 50
69.30454926629934
 51
90.00000000038919
  0
LINE
  5
1EB1
330
18
100
AcDbEntity
  8
1
  6
Continuous
100
AcDbLine
 10
59.2394832198541
 20
202.8471930195027
 30
0.0
 11
59.2394832198541
 21
208.2360819083857
 31
0.0
  0
LINE
  5
1EBC
330
18
100
AcDbEntity
  8
1
  6
Continuous
100
AcDbLine
 10
61.7394832198541
 20
204.4828386613571
 30
0.0
 11
61.7394832198541
 21
206.6004362665296
 31
0.0
  0
LINE
  5
1FBF
330
18
100
AcDbEntity
  8
1
  6
Continuous
100
AcDbLine
 10
17.73948321984357
 20
202.0416374639422
 30
0.0
 11
17.73948321984357
 21
209.0416374639423
 31
0.0
  0
LINE
  5
25B0
330
18
100
AcDbEntity
  8
1
  6
Continuous
100
AcDbLine
 10
120.9574672394997
 20
41.82259676069768
 30
0.0
 11
119.7574672394999
 21
41.82259676069768
 31
0.0
  0
LINE
  5
25BD
330
18
100
AcDbEntity
  8
1
  6
Continuous
100
AcDbLine
 10
53.06722259630515
 20
119.1907845029054
 30
0.0
 11
53.06722259630494
 21
131.8924904250875
 31
0.0
  0
LINE
  5
25BF
330
18
100
AcDbEntity
  8
1
  6
Continuous
100
AcDbLine
 10
42.06722259631527
 20
138.2433433861769
 30
0.0
 11
31.06722259630528
 21
131.8924904250865
 31
0.0
  0
LINE
  5
25C0
330
18
100
AcDbEntity
  8
1
  6
Continuous
100
AcDbLine
 10
31.06722259630528
 20
131.892490425096
 30
0.0
 11
31.06722259630528
 21
119.1907845029136
 31
0.0
  0
LINE
  5
25C1
330
18
100
AcDbEntity
  8
1
  6
Continuous
100
AcDbLine
 10
31.06722259630528
 20
119.1907845029136
 30
0.0
 11
42.06722259630381
 21
112.8399315418289
 31
0.0
  0
LINE
  5
25C5
330
18
100
AcDbEntity
  8
1
  6
Continuous
100
AcDbLine
 10
53.06722259630494
 20
131.8924904250875
 30
0.0
 11
42.06722259631527
 21
138.2433433861668
 31
0.0
  0
LINE
  5
25C7
330
18
100
AcDbEntity
  8
1
  6
Continuous
100
AcDbLine
 10
42.06722259630381
 20
112.8399315418289
 30
0.0
 11
53.06722259629522
 21
119.1907845029089
 31
0.0
  0
LINE
  5
25CC
330
18
100
AcDbEntity
  8
4
  6
CENTER
 48
0.3
100
AcDbLine
 10
202.4477118826944
 20
125.5416374639457
 30
0.0
 11
173.4477118826944
 21
125.5416374639457
 31
0.0
  0
LINE
  5
25CD
330
18
100
AcDbEntity
  8
4
  6
CENTER
 48
0.3
100
AcDbLine
 10
187.9477118826944
 20
140.0416374639458
 30
0.0
 11
187.9477118826944
 21
111.0416374639457
 31
0.0
  0
LINE
  5
289B
330
18
100
AcDbEntity
  8
4
  6
CENTER
 48
0.3
100
AcDbLine
 10
42.06722259630531
 20
140.0416374639457
 30
0.0
 11
42.06722259630523
 21
111.0416374640157
 31
0.0
  0
CIRCLE
  5
289C
330
18
100
AcDbEntity
  8
1
  6
Continuous
100
AcDbCircle
 10
42.06722259630524
 20
125.5416374639807
 30
0.0
 40
11.0
  0
LINE
  5
289D
330
18
100
AcDbEntity
  8
4
  6
CENTER
 48
0.3
100
AcDbLine
 10
56.56722259627028
 20
125.5416374639807
 30
0.0
 11
27.56722259634034
 21
125.5416374639807
 31
0.0
  0
LINE
  5
289E
330
18
100
AcDbEntity
  8
1
  6
Continuous
100
AcDbLine
 10
41.37779348464525
 20
127.7159908161308
 30
0.0
 11
46.80718393481524
 21
122.2866003659607
 31
0.0
  0
LINE
  5
289F
330
18
100
AcDbEntity
  8
1
  6
Continuous
100
AcDbLine
 10
39.89286924415526
 20
126.2310665756406
 30
0.0
 11
45.32225969432524
 21
120.8016761254706
 31
0.0
  0
LINE
  5
28A0
330
18
100
AcDbEntity
  8
1
  6
Continuous
100
AcDbLine
 10
38.13359924154522
 20
127.7782045438905
 30
0.0
 11
44.30378967621524
 21
121.6080141092205
 31
0.0
  0
LINE
  5
28A1
330
18
100
AcDbEntity
  8
1
  6
Continuous
100
AcDbLine
 10
39.83065551639518
 20
129.4752608187405
 30
0.0
 11
46.00084595106521
 21
123.3050703840705
 31
0.0
  0
LINE
  5
28A2
330
18
100
AcDbEntity
  8
4
  6
CENTER
 48
0.3
100
AcDbLine
 10
31.81417426912506
 20
135.7946857911608
 30
0.0
 11
52.32027092348542
 21
115.2885891368005
 31
0.0
  0
LINE
  5
28A3
330
18
100
AcDbEntity
  8
4
  6
CENTER
 48
0.3
100
AcDbLine
 10
52.32027092348548
 20
135.7946857911609
 30
0.0
 11
31.81417426912514
 21
115.2885891368005
 31
0.0
  0
CIRCLE
  5
28A4
330
18
100
AcDbEntity
  8
1
  6
Continuous
100
AcDbCircle
 10
42.06722259630524
 20
125.5416374639807
 30
0.0
 40
5.9
  0
CIRCLE
  5
28A6
330
18
100
AcDbEntity
  8
1
  6
Continuous
100
AcDbCircle
 10
42.06722259630524
 20
125.5416374639807
 30
0.0
 40
10.0
  0
ARC
  5
28A7
330
18
100
AcDbEntity
  8
1
  6
Continuous
100
AcDbCircle
 10
42.06722259630524
 20
125.5416374639807
 30
0.0
 40
5.75
100
AcDbArc
 50
325.5217459659557
 51
304.4782540340443
  0
ARC
  5
28A8
330
18
100
AcDbEntity
  8
1
  6
Continuous
100
AcDbCircle
 10
42.06722259630524
 20
125.5416374639807
 30
0.0
 40
4.0
100
AcDbArc
 50
332.4576031237603
 51
117.5423968762301
  0
ARC
  5
28A9
330
18
100
AcDbEntity
  8
1
  6
Continuous
100
AcDbCircle
 10
42.06722259630524
 20
125.5416374639807
 30
0.0
 40
4.0000000000001
100
AcDbArc
 50
152.4576031237399
 51
297.5423968762505
  0
ARC
  5
28AB
330
18
100
AcDbEntity
  8
1
  6
Continuous
100
AcDbCircle
 10
42.06722259630524
 20
125.5416374639807
 30
0.0
 40
4.525
100
AcDbArc
 50
119.6215568024498
 51
150.3784431976507
  0
LINE
  5
28AC
330
18
100
AcDbEntity
  8
1
  6
Continuous
100
AcDbLine
 10
39.89286924415526
 20
126.2310665756406
 30
0.0
 11
41.37779348464518
 21
127.7159908161305
 31
0.0
  0
ARC
  5
28AF
330
18
100
AcDbEntity
  8
1
  6
Continuous
100
AcDbCircle
 10
42.06722259630524
 20
125.5416374639807
 30
0.0
 40
5.2
100
AcDbArc
 50
303.3168303260794
 51
326.6714780271494
  0
ARC
  5
28B3
330
18
100
AcDbEntity
  8
1
  6
Continuous
100
AcDbCircle
 10
42.06722259623726
 20
125.5416374639456
 30
0.0
 40
4.525
100
AcDbArc
 50
299.6215568033803
 51
301.5825477875998
  0
ARC
  5
28B4
330
18
100
AcDbEntity
  8
1
  6
Continuous
100
AcDbCircle
 10
42.06722259629375
 20
125.5416374639507
 30
0.0
 40
4.525
100
AcDbArc
 50
328.4174522137994
 51
330.3784431980103
  0
LINE
  5
35AB
330
18
100
AcDbEntity
  8
4
  6
CENTER
 48
0.3
100
AcDbLine
 10
99.75746723949988
 20
125.5416374639456
 30
0.0
 11
130.2574672394998
 21
125.5416374639456
 31
0.0
  0
LINE
  5
35AC
330
18
100
AcDbEntity
  8
1
  6
Continuous
100
AcDbLine
 10
102.7574672394998
 20
115.5416374639456
 30
0.0
 11
104.2574672394998
 21
114.5416374639457
 31
0.0
  0
LINE
  5
35AD
330
18
100
AcDbEntity
  8
1
  6
Continuous
100
AcDbLine
 10
104.2574672394998
 20
136.5416374639456
 30
0.0
 11
102.7574672394998
 21
135.5416374639456
 31
0.0
  0
LINE
  5
35DB
330
18
100
AcDbEntity
  8
1
  6
Continuous
100
AcDbLine
 10
102.7574672394998
 20
115.5416374639456
 30
0.0
 11
102.7574672394998
 21
135.5416374639456
 31
0.0
  0
LINE
  5
35DC
330
18
100
AcDbEntity
  8
1
  6
Continuous
100
AcDbLine
 10
101.7574672394998
 20
121.5416374639456
 30
0.0
 11
101.7574672394998
 21
129.5416374639456
 31
0.0
  0
LINE
  5
35DD
330
18
100
AcDbEntity
  8
1
  6
Continuous
100
AcDbLine
 10
102.0574672394998
 20
121.6080141091855
 30
0.0
 11
101.7574672394998
 21
121.9949618138756
 31
0.0
  0
LINE
  5
35DE
330
18
100
AcDbEntity
  8
1
  6
Continuous
100
AcDbLine
 10
101.7574672394998
 20
123.6920180887256
 30
0.0
 11
102.0574672394998
 21
123.3050703840357
 31
0.0
  0
LINE
  5
35DF
330
18
100
AcDbEntity
  8
1
  6
Continuous
100
AcDbLine
 10
101.7574672394999
 20
121.5416374639457
 30
0.0
 11
102.7574672394999
 21
119.7916374639457
 31
0.0
  0
LINE
  5
35E0
330
18
100
AcDbEntity
  8
1
  6
Continuous
100
AcDbLine
 10
102.0574672394998
 20
123.3050703840356
 30
0.0
 11
102.0574672394998
 21
121.6080141091854
 31
0.0
  0
LINE
  5
35E1
330
18
100
AcDbEntity
  8
1
  6
Continuous
100
AcDbLine
 10
102.4807307507598
 20
121.1505308104856
 30
0.0
 11
102.7574672394998
 21
120.8016761254356
 31
0.0
  0
LINE
  5
35E2
330
18
100
AcDbEntity
  8
1
  6
Continuous
100
AcDbLine
 10
102.0574672394998
 20
121.6868510514655
 30
0.0
 11
102.4807307507598
 21
121.1505308104856
 31
0.0
  0
LINE
  5
35E5
330
18
100
AcDbEntity
  8
1
  6
Continuous
100
AcDbLine
 10
102.4807307507598
 20
122.6354550509756
 30
0.0
 11
102.7574672394998
 21
122.2866003659256
 31
0.0
  0
LINE
  5
35E6
330
18
100
AcDbEntity
  8
1
  6
Continuous
100
AcDbLine
 10
102.0574672394998
 20
123.1717752919656
 30
0.0
 11
102.4807307507598
 21
122.6354550509756
 31
0.0
  0
LINE
  5
35E7
330
18
100
AcDbEntity
  8
1
  6
Continuous
100
AcDbLine
 10
102.7574672394998
 20
131.2916374639456
 30
0.0
 11
101.7574672394998
 21
129.5416374639457
 31
0.0
  0
LINE
  5
35EF
330
18
100
AcDbEntity
  8
1
  6
Continuous
100
AcDbLine
 10
143.2574672394998
 20
114.5416374639462
 30
0.0
 11
143.2574672394998
 21
136.5416374639456
 31
0.0
  0
LINE
  5
35F0
330
18
100
AcDbEntity
  8
1
  6
Continuous
100
AcDbLine
 10
139.2574672394998
 20
138.2433433861067
 30
0.0
 11
139.2574672394998
 21
112.8399315418977
 31
0.0
  0
LINE
  5
35F1
330
18
100
AcDbEntity
  8
1
  6
Continuous
100
AcDbLine
 10
104.2574672394998
 20
114.5416374639456
 30
0.0
 11
104.2574672394998
 21
136.5416374639456
 31
0.0
  0
LINE
  5
35F2
330
18
100
AcDbEntity
  8
1
  6
Continuous
100
AcDbLine
 10
105.2574672394998
 20
136.3416374639457
 30
0.0
 11
105.2574672394998
 21
114.7416374639457
 31
0.0
  0
ARC
  5
35F9
330
18
100
AcDbEntity
  8
1
  6
Continuous
100
AcDbCircle
 10
148.8460622162356
 20
120.7784977431161
 30
0.0
 40
2.811405023276311
100
AcDbArc
 50
334.3842474674091
 51
34.38424746781511
  0
ARC
  5
35FA
330
18
100
AcDbEntity
  8
1
  6
Continuous
100
AcDbCircle
 10
148.8460622162356
 20
130.3047771847763
 30
0.0
 40
2.811405023276311
100
AcDbArc
 50
325.6157525321849
 51
25.61575253259088
  0
LINE
  5
3600
330
18
100
AcDbEntity
  8
1
  6
Continuous
100
AcDbLine
 10
121.2574672394998
 20
127.7687432090757
 30
0.0
 11
127.2574672394999
 21
127.7687432090757
 31
0.0
  0
LINE
  5
3601
330
18
100
AcDbEntity
  8
1
  6
Continuous
100
AcDbLine
 10
121.2574672394998
 20
122.0416374639456
 30
0.0
 11
127.2574672394999
 21
122.0416374639456
 31
0.0
  0
LINE
  5
3602
330
18
100
AcDbEntity
  8
1
  6
Continuous
100
AcDbLine
 10
127.2574672394999
 20
129.0416374639456
 30
0.0
 11
121.2574672394998
 21
129.0416374639456
 31
0.0
  0
LINE
  5
3605
330
18
100
AcDbEntity
  8
1
  6
Continuous
100
AcDbLine
 10
105.2574672394998
 20
116.0416374639456
 30
0.0
 11
116.4574672394999
 21
116.0416374639456
 31
0.0
  0
LINE
  5
3607
330
18
100
AcDbEntity
  8
1
  6
Continuous
100
AcDbLine
 10
105.2574672394998
 20
120.2652750806357
 30
0.0
 11
116.4574672394999
 21
120.2652750806356
 31
0.0
  0
LINE
  5
3608
330
18
100
AcDbEntity
  8
2
  6
Continuous
100
AcDbLine
 10
105.2574672394998
 20
120.2652750806357
 30
0.0
 11
119.7574672394998
 21
129.4184918589456
 31
0.0
  0
LINE
  5
3609
330
18
100
AcDbEntity
  8
2
  6
Continuous
100
AcDbLine
 10
119.7574672394999
 20
121.6647830689456
 30
0.0
 11
105.2574672394998
 21
130.8179998472556
 31
0.0
  0
LINE
  5
360A
330
18
100
AcDbEntity
  8
1
  6
Continuous
100
AcDbLine
 10
116.4574672394999
 20
130.8179998472556
 30
0.0
 11
105.2574672394998
 21
130.8179998472556
 31
0.0
  0
LINE
  5
360F
330
18
100
AcDbEntity
  8
1
  6
Continuous
100
AcDbLine
 10
116.4574672394999
 20
135.0416374639456
 30
0.0
 11
105.2574672394998
 21
135.0416374639456
 31
0.0
  0
ARC
  5
3610
330
18
100
AcDbEntity
  8
1
  6
Continuous
100
AcDbCircle
 10
122.5908005736798
 20
125.5416374640356
 30
0.0
 40
20.66666666581749
100
AcDbArc
 50
342.1034488703798
 51
17.89655112962332
  0
LINE
  5
3611
330
18
100
AcDbEntity
  8
1
  6
Continuous
100
AcDbLine
 10
106.2574672394998
 20
120.2652750806356
 30
0.0
 11
106.2574672394998
 21
116.0416374639456
 31
0.0
  0
LINE
  5
3613
330
18
100
AcDbEntity
  8
1
  6
Continuous
100
AcDbLine
 10
139.2574672394998
 20
112.8399315418977
 30
0.0
 11
142.2574672395649
 21
112.8399315418977
 31
0.0
  0
LINE
  5
3614
330
18
100
AcDbEntity
  8
1
  6
Continuous
100
AcDbLine
 10
139.2574672394999
 20
119.1907845030837
 30
0.0
 11
142.2574672394999
 21
119.1907845029042
 31
0.0
  0
LINE
  5
3617
330
18
100
AcDbEntity
  8
1
  6
Continuous
100
AcDbLine
 10
104.2574672394998
 20
114.5416374639456
 30
0.0
 11
105.0574672394998
 21
114.5416374639456
 31
0.0
  0
LINE
  5
3618
330
18
100
AcDbEntity
  8
1
  6
Continuous
100
AcDbLine
 10
105.0574672394998
 20
114.5416374639456
 30
0.0
 11
105.2574672394998
 21
114.7416374639457
 31
0.0
  0
LINE
  5
3619
330
18
100
AcDbEntity
  8
1
  6
Continuous
100
AcDbLine
 10
142.2574672394999
 20
112.8399315417851
 30
0.0
 11
143.2574672394999
 21
114.5416374639457
 31
0.0
  0
ARC
  5
361A
330
18
100
AcDbEntity
  8
1
  6
Continuous
100
AcDbCircle
 10
127.1541506640048
 20
112.6893008853101
 30
0.0
 40
16.4432192957905
100
AcDbArc
 50
11.67004408717873
 51
23.29029631822757
  0
LINE
  5
361B
330
18
100
AcDbEntity
  8
1
  6
Continuous
100
AcDbLine
 10
139.2574672394998
 20
131.8924904249876
 30
0.0
 11
142.2574672394998
 21
131.8924904249876
 31
0.0
  0
LINE
  5
3627
330
18
100
AcDbEntity
  8
1
  6
Continuous
100
AcDbLine
 10
106.2574672394998
 20
130.8179998472556
 30
0.0
 11
106.2574672394998
 21
135.0416374639405
 31
0.0
  0
ARC
  5
362E
330
18
100
AcDbEntity
  8
1
  6
Continuous
100
AcDbCircle
 10
127.1541506640048
 20
138.3939740425818
 30
0.0
 40
16.4432192957905
100
AcDbArc
 50
336.7097036817694
 51
348.3299559128192
  0
LINE
  5
3630
330
18
100
AcDbEntity
  8
1
  6
Continuous
100
AcDbLine
 10
151.6574672395119
 20
120.0416374639192
 30
0.0
 11
151.1662270533935
 21
119.1907845028491
 31
0.0
  0
LINE
  5
3631
330
18
100
AcDbEntity
  8
1
  6
Continuous
100
AcDbLine
 10
149.6574672394877
 20
120.0416374639191
 30
0.0
 11
150.1487074256061
 21
119.190784502849
 31
0.0
  0
ARC
  5
3632
330
18
100
AcDbEntity
  8
1
  6
Continuous
100
AcDbCircle
 10
152.468872262764
 20
120.7784977431161
 30
0.0
 40
2.811405023276311
100
AcDbArc
 50
145.6157525321848
 51
205.6157525325908
  0
LINE
  5
3633
330
18
100
AcDbEntity
  8
1
  6
Continuous
100
AcDbLine
 10
149.6574672394998
 20
119.0416374639456
 30
0.0
 11
149.6574672394998
 21
132.0416374639456
 31
0.0
  0
LINE
  5
3634
330
18
100
AcDbEntity
  8
1
  6
Continuous
100
AcDbLine
 10
148.8574672394998
 20
119.0416374639456
 30
0.0
 11
148.8574672394998
 21
132.0416374639456
 31
0.0
  0
LINE
  5
3635
330
18
100
AcDbEntity
  8
1
  6
Continuous
100
AcDbLine
 10
121.2574672394998
 20
118.0873061794855
 30
0.0
 11
121.2574672394998
 21
132.8416374639455
 31
0.0
  0
LINE
  5
3636
330
18
100
AcDbEntity
  8
1
  6
Continuous
100
AcDbLine
 10
120.0574672394998
 20
118.9255906186256
 30
0.0
 11
120.0574672394998
 21
132.8416374639455
 31
0.0
  0
LINE
  5
3637
330
18
100
AcDbEntity
  8
1
  6
Continuous
100
AcDbLine
 10
119.7574672394999
 20
117.5661289380256
 30
0.0
 11
119.7574672394999
 21
134.3416374639457
 31
0.0
  0
LINE
  5
3638
330
18
100
AcDbEntity
  8
1
  6
Continuous
100
AcDbLine
 10
117.1574672394998
 20
116.7416374639457
 30
0.0
 11
117.1574672394998
 21
121.6647830689456
 31
0.0
  0
LINE
  5
3639
330
18
100
AcDbEntity
  8
1
  6
Continuous
100
AcDbLine
 10
116.4574672394999
 20
116.0416374639456
 30
0.0
 11
116.4574672394999
 21
120.2652750806356
 31
0.0
  0
LINE
  5
363A
330
18
100
AcDbEntity
  8
1
  6
Continuous
100
AcDbLine
 10
120.7574672394999
 20
117.5661289380256
 30
0.0
 11
120.9574672394999
 21
117.7473904954256
 31
0.0
  0
LINE
  5
363B
330
18
100
AcDbEntity
  8
1
  6
Continuous
100
AcDbLine
 10
120.9574672394999
 20
118.9255906186256
 30
0.0
 11
119.7574672394999
 21
118.9255906186256
 31
0.0
  0
LINE
  5
363C
330
18
100
AcDbEntity
  8
1
  6
Continuous
100
AcDbLine
 10
120.7574672394998
 20
116.7416374639457
 30
0.0
 11
120.9574672394998
 21
116.9416374639456
 31
0.0
  0
LINE
  5
363D
330
18
100
AcDbEntity
  8
1
  6
Continuous
100
AcDbLine
 10
117.1574672394998
 20
116.7416374639457
 30
0.0
 11
120.7574672394999
 21
116.7416374639457
 31
0.0
  0
LINE
  5
363E
330
18
100
AcDbEntity
  8
1
  6
Continuous
100
AcDbLine
 10
116.4574672394998
 20
116.0416374639456
 30
0.0
 11
117.1574672394998
 21
116.7416374639457
 31
0.0
  0
LINE
  5
3640
330
18
100
AcDbEntity
  8
1
  6
Continuous
100
AcDbLine
 10
119.7574672394999
 20
117.5661289380256
 30
0.0
 11
120.7574672394999
 21
117.5661289380256
 31
0.0
  0
LINE
  5
3643
330
18
100
AcDbEntity
  8
1
  6
Continuous
100
AcDbLine
 10
120.9574672394998
 20
116.9416374639455
 30
0.0
 11
120.9574672394998
 21
118.9255906186255
 31
0.0
  0
LINE
  5
3644
330
18
100
AcDbEntity
  8
1
  6
Continuous
100
AcDbLine
 10
120.9574672394999
 20
118.0873061794857
 30
0.0
 11
121.2574672394999
 21
118.0873061794857
 31
0.0
  0
LINE
  5
3645
330
18
100
AcDbEntity
  8
1
  6
Continuous
100
AcDbLine
 10
120.9574672394999
 20
118.5416374639456
 30
0.0
 11
121.2574672394999
 21
118.5416374639456
 31
0.0
  0
LINE
  5
3646
330
18
100
AcDbEntity
  8
1
  6
Continuous
100
AcDbLine
 10
150.1487074256059
 20
119.1907845028492
 30
0.0
 11
151.1662270533919
 21
119.1907845028465
 31
0.0
  0
LINE
  5
3648
330
18
100
AcDbEntity
  8
1
  6
Continuous
100
AcDbLine
 10
148.8574672394998
 20
119.0416374639456
 30
0.0
 11
149.6574672394998
 21
119.0416374639456
 31
0.0
  0
LINE
  5
3649
330
18
100
AcDbEntity
  8
1
  6
Continuous
100
AcDbLine
 10
121.2574672394999
 20
129.0493690364256
 30
0.0
 11
120.0574672394998
 21
129.0493690364256
 31
0.0
  0
LINE
  5
364A
330
18
100
AcDbEntity
  8
1
  6
Continuous
100
AcDbLine
 10
121.2574672394999
 20
128.4999652961206
 30
0.0
 11
120.0574672394998
 21
128.4999652961206
 31
0.0
  0
LINE
  5
364B
330
18
100
AcDbEntity
  8
1
  6
Continuous
100
AcDbLine
 10
121.2574672394999
 20
132.8416374639457
 30
0.0
 11
120.0574672394998
 21
132.8416374639457
 31
0.0
  0
LINE
  5
364D
330
18
100
AcDbEntity
  8
1
  6
Continuous
100
AcDbLine
 10
117.1574672394998
 20
121.6647830689456
 30
0.0
 11
119.7574672394999
 21
121.6647830689456
 31
0.0
  0
LINE
  5
364E
330
18
100
AcDbEntity
  8
1
  6
Continuous
100
AcDbLine
 10
117.1574672394998
 20
121.6647830689456
 30
0.0
 11
116.4574672394998
 21
120.2652750806355
 31
0.0
  0
LINE
  5
3654
330
18
100
AcDbEntity
  8
1
  6
Continuous
100
AcDbLine
 10
119.7574672394999
 20
120.5666374639456
 30
0.0
 11
119.8574672394998
 21
120.5666374639456
 31
0.0
  0
LINE
  5
3655
330
18
100
AcDbEntity
  8
1
  6
Continuous
100
AcDbLine
 10
119.8574672394998
 20
120.5666374639456
 30
0.0
 11
120.0574672394998
 21
120.7666374639456
 31
0.0
  0
LINE
  5
365B
330
18
100
AcDbEntity
  8
1
  6
Continuous
100
AcDbLine
 10
119.7574672394999
 20
129.4184918589457
 30
0.0
 11
117.1574672394998
 21
129.4184918589457
 31
0.0
  0
LINE
  5
365C
330
18
100
AcDbEntity
  8
1
  6
Continuous
100
AcDbLine
 10
119.7574672394999
 20
134.3416374639457
 30
0.0
 11
117.1574672394998
 21
134.3416374639457
 31
0.0
  0
LINE
  5
365D
330
18
100
AcDbEntity
  8
1
  6
Continuous
100
AcDbLine
 10
117.1574672394998
 20
129.4184918589457
 30
0.0
 11
116.4574672394998
 21
130.8179998472556
 31
0.0
  0
LINE
  5
3665
330
18
100
AcDbEntity
  8
1
  6
Continuous
100
AcDbLine
 10
117.1574672395
 20
134.3416374639458
 30
0.0
 11
116.4574672395001
 21
135.0416374639457
 31
0.0
  0
LINE
  5
3666
330
18
100
AcDbEntity
  8
1
  6
Continuous
100
AcDbLine
 10
116.4574672394998
 20
130.8179998472556
 30
0.0
 11
116.4574672394998
 21
135.0416374639456
 31
0.0
  0
LINE
  5
3668
330
18
100
AcDbEntity
  8
1
  6
Continuous
100
AcDbLine
 10
117.1574672394998
 20
129.4184918589457
 30
0.0
 11
117.1574672394998
 21
134.3416374639457
 31
0.0
  0
LINE
  5
366F
330
18
100
AcDbEntity
  8
1
  6
Continuous
100
AcDbLine
 10
119.8574672394998
 20
130.5166374639456
 30
0.0
 11
119.7574672394999
 21
130.5166374639456
 31
0.0
  0
LINE
  5
3670
330
18
100
AcDbEntity
  8
1
  6
Continuous
100
AcDbLine
 10
120.0574672394998
 20
130.3166374639456
 30
0.0
 11
119.8574672394998
 21
130.5166374639456
 31
0.0
  0
ARC
  5
3672
330
18
100
AcDbEntity
  8
1
  6
Continuous
100
AcDbCircle
 10
141.1487074252669
 20
125.5416374639617
 30
0.0
 40
10.50875981423296
100
AcDbArc
 50
342.4120462265724
 51
17.58795377339458
  0
ARC
  5
3673
330
18
100
AcDbEntity
  8
1
  6
Continuous
100
AcDbCircle
 10
160.1662270537327
 20
125.5416374639617
 30
0.0
 40
10.50875981423296
100
AcDbArc
 50
162.4120462266054
 51
197.5879537734275
  0
LINE
  5
3674
330
18
100
AcDbEntity
  8
1
  6
Continuous
100
AcDbLine
 10
151.6574672394999
 20
131.041637463994
 30
0.0
 11
151.6574672394999
 21
120.0416374638984
 31
0.0
  0
LINE
  5
3675
330
18
100
AcDbEntity
  8
2
  6
Continuous
100
AcDbLine
 10
127.2574672395001
 20
123.314531718816
 30
0.0
 11
121.2574672394997
 21
127.7687432090762
 31
0.0
  0
LINE
  5
367C
330
18
100
AcDbEntity
  8
1
  6
Continuous
100
AcDbLine
 10
150.148707425607
 20
122.3662109834116
 30
0.0
 11
151.1662270533926
 21
122.36621098341
 31
0.0
  0
LINE
  5
367F
330
18
100
AcDbEntity
  8
1
  6
Continuous
100
AcDbLine
 10
150.148707425607
 20
128.717063944507
 30
0.0
 11
151.1662270533926
 21
128.7170639445078
 31
0.0
  0
LINE
  5
3680
330
18
100
AcDbEntity
  8
1
  6
Continuous
100
AcDbLine
 10
150.1487074256064
 20
131.8924904250436
 30
0.0
 11
151.1662270533935
 21
131.8924904250432
 31
0.0
  0
ARC
  5
3681
330
18
100
AcDbEntity
  8
1
  6
Continuous
100
AcDbCircle
 10
152.468872262764
 20
130.3047771847763
 30
0.0
 40
2.811405023276311
100
AcDbArc
 50
154.3842474674091
 51
214.3842474678151
  0
LINE
  5
3682
330
18
100
AcDbEntity
  8
1
  6
Continuous
100
AcDbLine
 10
149.6574672394877
 20
131.0416374639731
 30
0.0
 11
150.1487074256061
 21
131.8924904250431
 31
0.0
  0
LINE
  5
3683
330
18
100
AcDbEntity
  8
1
  6
Continuous
100
AcDbLine
 10
151.6574672395118
 20
131.0416374639731
 30
0.0
 11
151.1662270533935
 21
131.892490425043
 31
0.0
  0
LINE
  5
3684
330
18
100
AcDbEntity
  8
1
  6
Continuous
100
AcDbLine
 10
149.6574672394998
 20
132.0416374639456
 30
0.0
 11
148.8574672394998
 21
132.0416374639456
 31
0.0
  0
LINE
  5
3687
330
18
100
AcDbEntity
  8
1
  6
Continuous
100
AcDbLine
 10
128.2574672394999
 20
123.0416374639456
 30
0.0
 11
128.2574672394998
 21
128.0416374639456
 31
0.0
  0
LINE
  5
3688
330
18
100
AcDbEntity
  8
1
  6
Continuous
100
AcDbLine
 10
127.2574672394999
 20
127.7687432090757
 30
0.0
 11
127.2574672394999
 21
129.0416374639456
 31
0.0
  0
LINE
  5
368A
330
18
100
AcDbEntity
  8
1
  6
Continuous
100
AcDbLine
 10
127.2574672394998
 20
122.0416374639456
 30
0.0
 11
128.2574672394998
 21
123.0416374639456
 31
0.0
  0
LINE
  5
368C
330
18
100
AcDbEntity
  8
1
  6
Continuous
100
AcDbLine
 10
127.2574672394999
 20
122.0416374639456
 30
0.0
 11
127.2574672394999
 21
123.3145317188155
 31
0.0
  0
ARC
  5
368D
330
18
100
AcDbEntity
  8
1
  6
Continuous
100
AcDbCircle
 10
124.5082581978514
 20
125.5416374639456
 30
0.0
 40
3.538099822598629
100
AcDbArc
 50
320.9894265484386
 51
39.01057345157012
  0
LINE
  5
368F
330
18
100
AcDbEntity
  8
1
  6
Continuous
100
AcDbLine
 10
128.2574672394999
 20
128.0416374639456
 30
0.0
 11
127.2574672394998
 21
129.0416374639457
 31
0.0
  0
LINE
  5
36A5
330
18
100
AcDbEntity
  8
1
  6
Continuous
100
AcDbLine
 10
191.2203255170944
 20
132.8416374639458
 30
0.0
 11
183.9980283510944
 21
132.8416374639458
 31
0.0
  0
ARC
  5
36A6
330
18
100
AcDbEntity
  8
1
  6
Continuous
100
AcDbCircle
 10
187.9477118826944
 20
125.5416374639457
 30
0.0
 40
7.0
100
AcDbArc
 50
154.9999999999896
 51
295.0000000000102
  0
ARC
  5
36B5
330
18
100
AcDbEntity
  8
1
  6
Continuous
100
AcDbCircle
 10
187.9477118826993
 20
125.5416374639457
 30
0.0
 40
8.3
100
AcDbArc
 50
118.4157166857698
 51
153.5851456058099
  0
LINE
  5
36B7
330
18
100
AcDbEntity
  8
1
  6
Continuous
100
AcDbLine
 10
180.6088569458944
 20
128.9638017230658
 30
0.0
 11
181.6035573733994
 21
128.4999652961258
 31
0.0
  0
ARC
  5
36BB
330
18
100
AcDbEntity
  8
1
  6
Continuous
100
AcDbCircle
 10
180.6933805980994
 20
129.1450632805207
 30
0.0
 40
0.19999999999992
100
AcDbArc
 50
153.5851456050095
 51
245.0000000295106
  0
ARC
  5
36C4
330
18
100
AcDbEntity
  8
1
  6
Continuous
100
AcDbCircle
 10
187.9477118826944
 20
125.5416374639658
 30
0.0
 40
8.3
100
AcDbArc
 50
296.4148543941099
 51
331.5842833141303
  0
ARC
  5
36C6
330
18
100
AcDbEntity
  8
1
  6
Continuous
100
AcDbCircle
 10
191.5511376991944
 20
118.2873061794708
 30
0.0
 40
0.20000000000009
100
AcDbArc
 50
204.9999999998303
 51
296.4148544007706
  0
ARC
  5
36CB
330
18
100
AcDbEntity
  8
1
  6
Continuous
100
AcDbCircle
 10
187.9477118826944
 20
125.5416374639357
 30
0.0
 40
8.0
100
AcDbArc
 50
24.14684799657326
 51
65.85315200359291
  0
LINE
  5
36D2
330
18
100
AcDbEntity
  8
1
  6
Continuous
100
AcDbLine
 10
195.2477118826943
 20
121.5919539323157
 30
0.0
 11
195.2477118826943
 21
128.8142510983357
 31
0.0
  0
LINE
  5
36DA
330
18
100
AcDbEntity
  8
1
  6
Continuous
100
AcDbLine
 10
142.2574672394998
 20
138.2433433861067
 30
0.0
 11
139.2574672394998
 21
138.2433433861067
 31
0.0
  0
LINE
  5
36DB
330
18
100
AcDbEntity
  8
1
  6
Continuous
100
AcDbLine
 10
105.0574672394998
 20
136.5416374639456
 30
0.0
 11
104.2574672394998
 21
136.5416374639456
 31
0.0
  0
LINE
  5
36DC
330
18
100
AcDbEntity
  8
1
  6
Continuous
100
AcDbLine
 10
105.2574672394998
 20
136.3416374639456
 30
0.0
 11
105.0574672394998
 21
136.5416374639456
 31
0.0
  0
LINE
  5
36DD
330
18
100
AcDbEntity
  8
1
  6
Continuous
100
AcDbLine
 10
142.2574672394999
 20
138.2433433861068
 30
0.0
 11
143.2574672394999
 21
136.5416374639457
 31
0.0
  0
LINE
  5
38EB
330
18
100
AcDbEntity
  8
2
  6
Continuous
100
AcDbLine
 10
127.2574672394998
 20
127.7687432090757
 30
0.0
 11
121.2574672394997
 21
123.314531718815
 31
0.0
  0
LINE
  5
38EC
330
18
100
AcDbEntity
  8
1
  6
Continuous
100
AcDbLine
 10
121.2574672394998
 20
123.3145317188155
 30
0.0
 11
127.2574672394999
 21
123.3145317188155
 31
0.0
  0
LINE
  5
3AC0
330
18
100
AcDbEntity
  8
1
  6
Continuous
100
AcDbLine
 10
191.6667525859423
 20
117.5661289381362
 30
0.0
 11
190.906039714874
 21
119.1974829546868
 31
0.0
  0
ARC
  5
3ACD
330
18
100
AcDbEntity
  8
1
  6
Continuous
100
AcDbCircle
 10
127.6324672390246
 20
211.0416374640319
 30
0.0
 40
15.62500000047528
100
AcDbArc
 50
339.390307062785
 51
20.60969293653748
  0
LINE
  5
3ACE
330
18
100
AcDbEntity
  8
1
  6
Continuous
100
AcDbLine
 10
139.2574672394998
 20
216.5416374639456
 30
0.0
 11
139.2574672394998
 21
194.5416374639458
 31
0.0
  0
LINE
  5
3AD4
330
18
100
AcDbEntity
  8
1
  6
Continuous
100
AcDbLine
 10
143.2574672394998
 20
194.541637463946
 30
0.0
 11
143.2574672394998
 21
216.5416374639456
 31
0.0
  0
ARC
  5
3AD8
330
18
100
AcDbEntity
  8
1
  6
Continuous
100
AcDbCircle
 10
127.6324672390246
 20
200.0416374638592
 30
0.0
 40
15.62500000047528
100
AcDbArc
 50
339.3903070634625
 51
20.60969293721502
  0
LINE
  5
3ADD
330
18
100
AcDbEntity
  8
1
  6
Continuous
100
AcDbLine
 10
139.2574672394998
 20
194.5416374639458
 30
0.0
 11
143.2574672394998
 21
194.5416374639458
 31
0.0
  0
LINE
  5
3AE0
330
18
100
AcDbEntity
  8
1
  6
Continuous
100
AcDbLine
 10
139.2574672394999
 20
205.5416374639456
 30
0.0
 11
142.2574672394999
 21
205.5416374639456
 31
0.0
  0
LINE
  5
3AE7
330
18
100
AcDbEntity
  8
1
  6
Continuous
100
AcDbLine
 10
143.2574672394998
 20
216.5416374639456
 30
0.0
 11
139.2574672394998
 21
216.5416374639456
 31
0.0
  0
LINE
  5
3AF3
330
18
100
AcDbEntity
  8
1
  6
Continuous
100
AcDbLine
 10
128.2574672394999
 20
208.0416374639457
 30
0.0
 11
128.0574672394999
 21
208.2416374639457
 31
0.0
  0
LINE
  5
3AF4
330
18
100
AcDbEntity
  8
1
  6
Continuous
100
AcDbLine
 10
128.0574672395001
 20
202.841637463946
 30
0.0
 11
128.2574672394998
 21
203.0416374639457
 31
0.0
  0
LINE
  5
3AFC
330
18
100
AcDbEntity
  8
1
  6
Continuous
100
AcDbLine
 10
128.0574672394999
 20
208.2416374639457
 30
0.0
 11
121.2574672394998
 21
208.2416374639456
 31
0.0
  0
LINE
  5
3AFD
330
18
100
AcDbEntity
  8
1
  6
Continuous
100
AcDbLine
 10
121.2574672394998
 20
202.8416374639461
 30
0.0
 11
128.0574672395001
 21
202.841637463946
 31
0.0
  0
LINE
  5
3B03
330
18
100
AcDbEntity
  8
1
  6
Continuous
100
AcDbLine
 10
127.2574672394998
 20
202.841637463946
 30
0.0
 11
127.2574672394999
 21
208.2416374639457
 31
0.0
  0
LINE
  5
3B04
330
18
100
AcDbEntity
  8
1
  6
Continuous
100
AcDbLine
 10
128.2574672394999
 20
203.0416374639457
 30
0.0
 11
128.2574672394999
 21
208.0416374639457
 31
0.0
  0
LINE
  5
3BF6
330
18
100
AcDbEntity
  8
4
  6
CENTER
 48
0.3
100
AcDbLine
 10
99.75746723949988
 20
205.5416374639456
 30
0.0
 11
130.2574672394998
 21
205.5416374639456
 31
0.0
  0
LINE
  5
3BFC
330
18
100
AcDbEntity
  8
1
  6
Continuous
100
AcDbLine
 10
101.7574672394998
 20
201.5416374639456
 30
0.0
 11
101.7574672394998
 21
209.5416374639456
 31
0.0
  0
LINE
  5
3BFE
330
18
100
AcDbEntity
  8
1
  6
Continuous
100
AcDbLine
 10
102.7574672394998
 20
195.5416374639456
 30
0.0
 11
102.7574672394998
 21
215.5416374639456
 31
0.0
  0
LINE
  5
3BFF
330
18
100
AcDbEntity
  8
1
  6
Continuous
100
AcDbLine
 10
104.2574672394998
 20
194.5416374639456
 30
0.0
 11
104.2574672394998
 21
216.5416374639456
 31
0.0
  0
LINE
  5
3C00
330
18
100
AcDbEntity
  8
1
  6
Continuous
100
AcDbLine
 10
105.2574672394998
 20
216.3416374639457
 30
0.0
 11
105.2574672394998
 21
194.7416374639457
 31
0.0
  0
LINE
  5
3C03
330
18
100
AcDbEntity
  8
1
  6
Continuous
100
AcDbLine
 10
104.2574672394998
 20
194.5416374639456
 30
0.0
 11
105.0574672394998
 21
194.5416374639456
 31
0.0
  0
LINE
  5
3C04
330
18
100
AcDbEntity
  8
1
  6
Continuous
100
AcDbLine
 10
102.0574672394998
 20
209.4752608187057
 30
0.0
 11
101.7574672394998
 21
209.0883131140156
 31
0.0
  0
LINE
  5
3C05
330
18
100
AcDbEntity
  8
1
  6
Continuous
100
AcDbLine
 10
101.7574672394998
 20
207.3912568391655
 30
0.0
 11
102.0574672394998
 21
207.7782045438556
 31
0.0
  0
LINE
  5
3C06
330
18
100
AcDbEntity
  8
1
  6
Continuous
100
AcDbLine
 10
102.0574672394998
 20
207.7782045438556
 30
0.0
 11
102.0574672394998
 21
209.4752608187058
 31
0.0
  0
LINE
  5
3C0D
330
18
100
AcDbEntity
  8
1
  6
Continuous
100
AcDbLine
 10
102.7574672394998
 20
195.5416374639456
 30
0.0
 11
104.2574672394998
 21
194.5416374639457
 31
0.0
  0
LINE
  5
3C0E
330
18
100
AcDbEntity
  8
1
  6
Continuous
100
AcDbLine
 10
101.7574672394999
 20
201.5416374639457
 30
0.0
 11
102.7574672394999
 21
199.7916374639457
 31
0.0
  0
LINE
  5
3C13
330
18
100
AcDbEntity
  8
1
  6
Continuous
100
AcDbLine
 10
105.0574672394998
 20
194.5416374639456
 30
0.0
 11
105.2574672394998
 21
194.7416374639457
 31
0.0
  0
LINE
  5
3C16
330
18
100
AcDbEntity
  8
1
  6
Continuous
100
AcDbLine
 10
106.2574672394998
 20
197.6416374639457
 30
0.0
 11
106.2574672394998
 21
213.4416374639457
 31
0.0
  0
LINE
  5
3C17
330
18
100
AcDbEntity
  8
1
  6
Continuous
100
AcDbLine
 10
102.7574672394998
 20
211.2916374639457
 30
0.0
 11
101.7574672394998
 21
209.5416374639457
 31
0.0
  0
LINE
  5
3C1B
330
18
100
AcDbEntity
  8
1
  6
Continuous
100
AcDbLine
 10
105.0574672394998
 20
216.5416374639456
 30
0.0
 11
104.2574672394998
 21
216.5416374639456
 31
0.0
  0
LINE
  5
3C1C
330
18
100
AcDbEntity
  8
1
  6
Continuous
100
AcDbLine
 10
104.2574672394998
 20
216.5416374639457
 30
0.0
 11
102.7574672394998
 21
215.5416374639457
 31
0.0
  0
LINE
  5
3C20
330
18
100
AcDbEntity
  8
1
  6
Continuous
100
AcDbLine
 10
105.2574672394998
 20
216.3416374639456
 30
0.0
 11
105.0574672394998
 21
216.5416374639456
 31
0.0
  0
LINE
  5
3C28
330
18
100
AcDbEntity
  8
1
  6
Continuous
100
AcDbLine
 10
151.6574672394999
 20
211.041637463951
 30
0.0
 11
151.6574672394999
 21
200.0416374639515
 31
0.0
  0
LINE
  5
3C2A
330
18
100
AcDbEntity
  8
1
  6
Continuous
100
AcDbLine
 10
149.6574672394998
 20
199.0416374639456
 30
0.0
 11
149.6574672394998
 21
212.0416374639456
 31
0.0
  0
LINE
  5
3C2B
330
18
100
AcDbEntity
  8
1
  6
Continuous
100
AcDbLine
 10
148.8574672394998
 20
199.0416374639456
 30
0.0
 11
148.8574672394998
 21
212.0416374639456
 31
0.0
  0
LINE
  5
3C2C
330
18
100
AcDbEntity
  8
1
  6
Continuous
100
AcDbLine
 10
121.2574672394998
 20
198.0873061794855
 30
0.0
 11
121.2574672394998
 21
212.8416374639455
 31
0.0
  0
LINE
  5
3C2D
330
18
100
AcDbEntity
  8
1
  6
Continuous
100
AcDbLine
 10
120.0574672394998
 20
198.0873061794856
 30
0.0
 11
120.0574672394998
 21
212.8416374639455
 31
0.0
  0
LINE
  5
3C2E
330
18
100
AcDbEntity
  8
1
  6
Continuous
100
AcDbLine
 10
119.7574672394999
 20
197.6416374639457
 30
0.0
 11
119.7574672394999
 21
213.4416374639458
 31
0.0
  0
LINE
  5
3C34
330
18
100
AcDbEntity
  8
1
  6
Continuous
100
AcDbLine
 10
119.7574672394999
 20
200.5666374639456
 30
0.0
 11
119.8574672394998
 21
200.5666374639456
 31
0.0
  0
LINE
  5
3C35
330
18
100
AcDbEntity
  8
1
  6
Continuous
100
AcDbLine
 10
119.8574672394998
 20
200.5666374639456
 30
0.0
 11
120.0574672394998
 21
200.7666374639456
 31
0.0
  0
LINE
  5
3C4C
330
18
100
AcDbEntity
  8
1
  6
Continuous
100
AcDbLine
 10
120.0574672394998
 20
198.0873061794856
 30
0.0
 11
121.2574672394999
 21
198.0873061794856
 31
0.0
  0
LINE
  5
3C4F
330
18
100
AcDbEntity
  8
1
  6
Continuous
100
AcDbLine
 10
148.8574672394998
 20
199.0416374639456
 30
0.0
 11
149.6574672394998
 21
199.0416374639456
 31
0.0
  0
LINE
  5
3C54
330
18
100
AcDbEntity
  8
1
  6
Continuous
100
AcDbLine
 10
116.4574672395001
 20
197.6416374639457
 30
0.0
 11
116.4574672394998
 21
213.4416374639457
 31
0.0
  0
LINE
  5
3C55
330
18
100
AcDbEntity
  8
1
  6
Continuous
100
AcDbLine
 10
121.2574672394999
 20
212.8416374639457
 30
0.0
 11
120.0574672394998
 21
212.8416374639457
 31
0.0
  0
LINE
  5
3C5D
330
18
100
AcDbEntity
  8
1
  6
Continuous
100
AcDbLine
 10
119.8574672394998
 20
210.5166374639456
 30
0.0
 11
119.7574672394999
 21
210.5166374639456
 31
0.0
  0
LINE
  5
3C5E
330
18
100
AcDbEntity
  8
1
  6
Continuous
100
AcDbLine
 10
120.0574672394998
 20
210.3166374639456
 30
0.0
 11
119.8574672394998
 21
210.5166374639455
 31
0.0
  0
LINE
  5
3C5F
330
18
100
AcDbEntity
  8
1
  6
Continuous
100
AcDbLine
 10
117.1574672394998
 20
197.6416374639457
 30
0.0
 11
117.1574672394998
 21
213.4416374639457
 31
0.0
  0
LINE
  5
3C61
330
18
100
AcDbEntity
  8
1
  6
Continuous
100
AcDbLine
 10
149.6574672394998
 20
212.0416374639456
 30
0.0
 11
148.8574672394998
 21
212.0416374639456
 31
0.0
  0
LINE
  5
3C6A
330
18
100
AcDbEntity
  8
1
  6
Continuous
100
AcDbLine
 10
150.148707425607
 20
205.5416374639449
 30
0.0
 11
151.1662270533926
 21
205.5416374639457
 31
0.0
  0
LINE
  5
3D86
330
18
100
AcDbEntity
  8
1
  6
Continuous
100
AcDbLine
 10
105.2574672394998
 20
213.4416374639456
 30
0.0
 11
119.7574672394999
 21
213.4416374639458
 31
0.0
  0
LINE
  5
3D87
330
18
100
AcDbEntity
  8
1
  6
Continuous
100
AcDbLine
 10
105.2574672394998
 20
197.6416374639457
 30
0.0
 11
119.7574672394999
 21
197.6416374639457
 31
0.0
  0
LINE
  5
3DD8
330
18
100
AcDbEntity
  8
1
  6
Continuous
100
AcDbLine
 10
149.6574672394998
 20
211.0416374639439
 30
0.0
 11
151.6574672394999
 21
211.041637463951
 31
0.0
  0
LINE
  5
3DD9
330
18
100
AcDbEntity
  8
1
  6
Continuous
100
AcDbLine
 10
149.6574672394998
 20
200.0416374639438
 30
0.0
 11
151.6574672394999
 21
200.0416374639515
 31
0.0
  0
ARC
  5
3DDC
330
18
100
AcDbEntity
  8
1
  6
Continuous
100
AcDbCircle
 10
143.714492355589
 20
202.7916374639477
 30
0.0
 40
7.942974883910919
100
AcDbArc
 50
339.7438420002327
 51
20.25615799976616
  0
ARC
  5
3DDD
330
18
100
AcDbEntity
  8
1
  6
Continuous
100
AcDbCircle
 10
157.6004421234106
 20
202.7916374639477
 30
0.0
 40
7.942974883910919
100
AcDbArc
 50
159.7438420002338
 51
200.2561579997673
  0
ARC
  5
3DDE
330
18
100
AcDbEntity
  8
1
  6
Continuous
100
AcDbCircle
 10
143.714492355589
 20
208.2916374639422
 30
0.0
 40
7.942974883910919
100
AcDbArc
 50
339.7438420002338
 51
20.25615799976728
  0
ARC
  5
3DDF
330
18
100
AcDbEntity
  8
1
  6
Continuous
100
AcDbCircle
 10
157.6004421234106
 20
208.2916374639422
 30
0.0
 40
7.942974883910919
100
AcDbArc
 50
159.7438420002326
 51
200.2561579997661
  0
LINE
  5
3DE3
330
18
100
AcDbEntity
  8
1
  6
Continuous
100
AcDbLine
 10
148.8574672394998
 20
52.04163746394565
 30
0.0
 11
149.6574672394998
 21
52.04163746394565
 31
0.0
  0
LINE
  5
3DE4
330
18
100
AcDbEntity
  8
1
  6
Continuous
100
AcDbLine
 10
149.6574672394998
 20
39.04163746394564
 30
0.0
 11
148.8574672394998
 21
39.04163746394564
 31
0.0
  0
LINE
  5
3DE5
330
18
100
AcDbEntity
  8
4
  6
CENTER
 48
0.3
100
AcDbLine
 10
99.75746723949988
 20
45.54163746394563
 30
0.0
 11
130.2574672394998
 21
45.54163746394563
 31
0.0
  0
LINE
  5
3DEC
330
18
100
AcDbEntity
  8
1
  6
Continuous
100
AcDbLine
 10
119.7574672394999
 20
53.44163746394554
 30
0.0
 11
119.7574672394999
 21
49.26067816719354
 31
0.0
  0
LINE
  5
3DED
330
18
100
AcDbEntity
  8
1
  6
Continuous
100
AcDbLine
 10
120.0574672394998
 20
52.99596874840563
 30
0.0
 11
120.0574672394998
 21
49.26067816719355
 31
0.0
  0
LINE
  5
3DEE
330
18
100
AcDbEntity
  8
1
  6
Continuous
100
AcDbLine
 10
116.4574672395001
 20
53.44163746394554
 30
0.0
 11
116.4574672394998
 21
37.6416374639455
 31
0.0
  0
LINE
  5
3DEF
330
18
100
AcDbEntity
  8
1
  6
Continuous
100
AcDbLine
 10
117.1574672394998
 20
53.44163746394554
 30
0.0
 11
117.1574672394998
 21
37.6416374639455
 31
0.0
  0
LINE
  5
3DF0
330
18
100
AcDbEntity
  8
1
  6
Continuous
100
AcDbLine
 10
143.2574672394998
 20
56.5416374639452
 30
0.0
 11
143.2574672394998
 21
34.54163746394565
 31
0.0
  0
LINE
  5
3DF1
330
18
100
AcDbEntity
  8
1
  6
Continuous
100
AcDbLine
 10
121.2574672394998
 20
52.99596874840571
 30
0.0
 11
121.2574672394998
 21
38.24163746394575
 31
0.0
  0
LINE
  5
3DF2
330
18
100
AcDbEntity
  8
1
  6
Continuous
100
AcDbLine
 10
148.8574672394998
 20
52.04163746394565
 30
0.0
 11
148.8574672394998
 21
39.04163746394564
 31
0.0
  0
LINE
  5
3DF3
330
18
100
AcDbEntity
  8
1
  6
Continuous
100
AcDbLine
 10
106.2574672394998
 20
53.4416374639455
 30
0.0
 11
106.2574672394998
 21
37.64163746394554
 31
0.0
  0
LINE
  5
3DF4
330
18
100
AcDbEntity
  8
1
  6
Continuous
100
AcDbLine
 10
139.2574672394998
 20
34.54163746394565
 30
0.0
 11
139.2574672394998
 21
56.54163746394548
 31
0.0
  0
LINE
  5
3DF6
330
18
100
AcDbEntity
  8
1
  6
Continuous
100
AcDbLine
 10
105.2574672394998
 20
34.74163746394558
 30
0.0
 11
105.2574672394998
 21
56.34163746394559
 31
0.0
  0
LINE
  5
3DF7
330
18
100
AcDbEntity
  8
1
  6
Continuous
100
AcDbLine
 10
104.2574672394998
 20
56.54163746394565
 30
0.0
 11
104.2574672394998
 21
34.54163746394565
 31
0.0
  0
LINE
  5
3DF8
330
18
100
AcDbEntity
  8
1
  6
Continuous
100
AcDbLine
 10
102.7574672394998
 20
55.54163746394563
 30
0.0
 11
102.7574672394998
 21
35.54163746394564
 31
0.0
  0
LINE
  5
3DF9
330
18
100
AcDbEntity
  8
1
  6
Continuous
100
AcDbLine
 10
101.7574672394998
 20
49.54163746394565
 30
0.0
 11
101.7574672394998
 21
41.54163746394565
 31
0.0
  0
ARC
  5
3DFA
330
18
100
AcDbEntity
  8
1
  6
Continuous
100
AcDbCircle
 10
127.6324672390246
 20
40.0416374638593
 30
0.0
 40
15.62500000047528
100
AcDbArc
 50
339.3903070634625
 51
20.60969293721502
  0
LINE
  5
3DFC
330
18
100
AcDbEntity
  8
1
  6
Continuous
100
AcDbLine
 10
101.7574672394999
 20
49.54163746394553
 30
0.0
 11
102.7574672394999
 21
51.29163746394553
 31
0.0
  0
LINE
  5
3DFD
330
18
100
AcDbEntity
  8
1
  6
Continuous
100
AcDbLine
 10
102.0574672394998
 20
47.91149963592564
 30
0.0
 11
102.4807307507598
 21
48.44781987691565
 31
0.0
  0
LINE
  5
3DFE
330
18
100
AcDbEntity
  8
1
  6
Continuous
100
AcDbLine
 10
102.4807307507598
 20
48.44781987691565
 30
0.0
 11
102.7574672394998
 21
48.79667456196566
 31
0.0
  0
LINE
  5
3E01
330
18
100
AcDbEntity
  8
1
  6
Continuous
100
AcDbLine
 10
102.0574672394998
 20
49.39642387642571
 30
0.0
 11
102.4807307507598
 21
49.93274411740563
 31
0.0
  0
LINE
  5
3E02
330
18
100
AcDbEntity
  8
1
  6
Continuous
100
AcDbLine
 10
102.4807307507598
 20
49.93274411740563
 30
0.0
 11
102.7574672394998
 21
50.28159880245564
 31
0.0
  0
LINE
  5
3E03
330
18
100
AcDbEntity
  8
1
  6
Continuous
100
AcDbLine
 10
102.0574672394998
 20
47.77820454385564
 30
0.0
 11
102.0574672394998
 21
49.47526081870584
 31
0.0
  0
LINE
  5
3E04
330
18
100
AcDbEntity
  8
1
  6
Continuous
100
AcDbLine
 10
101.7574672394998
 20
47.39125683916561
 30
0.0
 11
102.0574672394998
 21
47.77820454385559
 31
0.0
  0
LINE
  5
3E05
330
18
100
AcDbEntity
  8
1
  6
Continuous
100
AcDbLine
 10
102.0574672394998
 20
49.47526081870577
 30
0.0
 11
101.7574672394998
 21
49.08831311401567
 31
0.0
  0
LINE
  5
3E06
330
18
100
AcDbEntity
  8
1
  6
Continuous
100
AcDbLine
 10
105.0574672394998
 20
56.54163746394565
 30
0.0
 11
105.2574672394998
 21
56.34163746394559
 31
0.0
  0
LINE
  5
3E07
330
18
100
AcDbEntity
  8
1
  6
Continuous
100
AcDbLine
 10
102.7574672394998
 20
55.54163746394563
 30
0.0
 11
104.2574672394998
 21
56.54163746394559
 31
0.0
  0
LINE
  5
3E08
330
18
100
AcDbEntity
  8
1
  6
Continuous
100
AcDbLine
 10
104.2574672394998
 20
56.54163746394565
 30
0.0
 11
105.0574672394998
 21
56.54163746394565
 31
0.0
  0
LINE
  5
3E09
330
18
100
AcDbEntity
  8
1
  6
Continuous
100
AcDbLine
 10
105.2574672394998
 20
53.44163746394546
 30
0.0
 11
119.7574672394999
 21
53.44163746394554
 31
0.0
  0
LINE
  5
3E0A
330
18
100
AcDbEntity
  8
1
  6
Continuous
100
AcDbLine
 10
139.2574672394999
 20
45.54163746394563
 30
0.0
 11
142.2574672394999
 21
45.54163746394563
 31
0.0
  0
LINE
  5
3E0B
330
18
100
AcDbEntity
  8
1
  6
Continuous
100
AcDbLine
 10
139.2574672394998
 20
56.54163746394548
 30
0.0
 11
143.2574672394998
 21
56.54163746394548
 31
0.0
  0
ARC
  5
3E0C
330
18
100
AcDbEntity
  8
1
  6
Continuous
100
AcDbCircle
 10
127.6324672390246
 20
51.04163746403205
 30
0.0
 40
15.62500000047528
100
AcDbArc
 50
339.390307062785
 51
20.60969293653748
  0
LINE
  5
3E0E
330
18
100
AcDbEntity
  8
1
  6
Continuous
100
AcDbLine
 10
119.8574672394998
 20
50.51663746394567
 30
0.0
 11
120.0574672394998
 21
50.31663746394568
 31
0.0
  0
LINE
  5
3E0F
330
18
100
AcDbEntity
  8
1
  6
Continuous
100
AcDbLine
 10
119.7574672394999
 20
50.5166374639456
 30
0.0
 11
119.8574672394998
 21
50.5166374639456
 31
0.0
  0
LINE
  5
3E10
330
18
100
AcDbEntity
  8
1
  6
Continuous
100
AcDbLine
 10
120.0574672394998
 20
52.99596874840563
 30
0.0
 11
121.2574672394999
 21
52.9959687484056
 31
0.0
  0
LINE
  5
3E12
330
18
100
AcDbEntity
  8
1
  6
Continuous
100
AcDbLine
 10
105.2574672394998
 20
34.74163746394569
 30
0.0
 11
105.0574672394998
 21
34.54163746394565
 31
0.0
  0
LINE
  5
3E13
330
18
100
AcDbEntity
  8
1
  6
Continuous
100
AcDbLine
 10
104.2574672394998
 20
34.54163746394559
 30
0.0
 11
102.7574672394998
 21
35.54163746394559
 31
0.0
  0
LINE
  5
3E14
330
18
100
AcDbEntity
  8
1
  6
Continuous
100
AcDbLine
 10
102.7574672394998
 20
39.79163746394559
 30
0.0
 11
101.7574672394998
 21
41.54163746394553
 31
0.0
  0
LINE
  5
3E15
330
18
100
AcDbEntity
  8
1
  6
Continuous
100
AcDbLine
 10
105.0574672394998
 20
34.54163746394565
 30
0.0
 11
104.2574672394998
 21
34.54163746394565
 31
0.0
  0
LINE
  5
3E16
330
18
100
AcDbEntity
  8
1
  6
Continuous
100
AcDbLine
 10
105.2574672394998
 20
37.64163746394566
 30
0.0
 11
119.7574672394999
 21
37.64163746394547
 31
0.0
  0
LINE
  5
3E17
330
18
100
AcDbEntity
  8
1
  6
Continuous
100
AcDbLine
 10
143.2574672394998
 20
34.54163746394565
 30
0.0
 11
139.2574672394998
 21
34.54163746394565
 31
0.0
  0
LINE
  5
3E18
330
18
100
AcDbEntity
  8
1
  6
Continuous
100
AcDbLine
 10
120.0574672394998
 20
40.76663746394561
 30
0.0
 11
119.8574672394998
 21
40.56663746394568
 31
0.0
  0
LINE
  5
3E19
330
18
100
AcDbEntity
  8
1
  6
Continuous
100
AcDbLine
 10
119.8574672394998
 20
40.56663746394561
 30
0.0
 11
119.7574672394999
 21
40.56663746394561
 31
0.0
  0
LINE
  5
3E1A
330
18
100
AcDbEntity
  8
1
  6
Continuous
100
AcDbLine
 10
121.2574672394999
 20
38.24163746394558
 30
0.0
 11
120.0574672394998
 21
38.24163746394558
 31
0.0
  0
ARC
  5
3E1C
330
18
100
AcDbEntity
  8
1
  6
Continuous
100
AcDbCircle
 10
157.6004421234106
 20
42.79163746394902
 30
0.0
 40
7.942974883910919
100
AcDbArc
 50
159.7438420002338
 51
200.2561579997673
  0
ARC
  5
3E1D
330
18
100
AcDbEntity
  8
1
  6
Continuous
100
AcDbCircle
 10
143.714492355589
 20
42.79163746394902
 30
0.0
 40
7.942974883910919
100
AcDbArc
 50
339.7438420002327
 51
20.25615799976616
  0
LINE
  5
3E1E
330
18
100
AcDbEntity
  8
1
  6
Continuous
100
AcDbLine
 10
149.6574672394998
 20
52.04163746394565
 30
0.0
 11
149.6574672394998
 21
39.04163746394564
 31
0.0
  0
LINE
  5
3E1F
330
18
100
AcDbEntity
  8
1
  6
Continuous
100
AcDbLine
 10
151.6574672394999
 20
40.04163746394022
 30
0.0
 11
151.6574672394999
 21
51.04163746393972
 31
0.0
  0
LINE
  5
3E20
330
18
100
AcDbEntity
  8
1
  6
Continuous
100
AcDbLine
 10
128.2574672394999
 20
48.0416374639455
 30
0.0
 11
128.2574672394999
 21
43.0416374639455
 31
0.0
  0
LINE
  5
3E21
330
18
100
AcDbEntity
  8
1
  6
Continuous
100
AcDbLine
 10
127.2574672394998
 20
48.24163746394527
 30
0.0
 11
127.2574672394999
 21
42.84163746394557
 31
0.0
  0
ARC
  5
3E23
330
18
100
AcDbEntity
  8
1
  6
Continuous
100
AcDbCircle
 10
157.6004421234106
 20
48.29163746394357
 30
0.0
 40
7.942974883910919
100
AcDbArc
 50
159.7438420002326
 51
200.2561579997661
  0
ARC
  5
3E24
330
18
100
AcDbEntity
  8
1
  6
Continuous
100
AcDbCircle
 10
143.714492355589
 20
48.29163746394357
 30
0.0
 40
7.942974883910919
100
AcDbArc
 50
339.7438420002338
 51
20.25615799976728
  0
LINE
  5
3E25
330
18
100
AcDbEntity
  8
1
  6
Continuous
100
AcDbLine
 10
149.6574672394998
 20
51.04163746394741
 30
0.0
 11
151.6574672394999
 21
51.04163746393972
 31
0.0
  0
LINE
  5
3E26
330
18
100
AcDbEntity
  8
1
  6
Continuous
100
AcDbLine
 10
150.148707425607
 20
45.54163746394629
 30
0.0
 11
151.1662270533926
 21
45.5416374639455
 31
0.0
  0
LINE
  5
3E27
330
18
100
AcDbEntity
  8
1
  6
Continuous
100
AcDbLine
 10
121.2574672394998
 20
48.24163746394512
 30
0.0
 11
128.0574672395001
 21
48.24163746394527
 31
0.0
  0
LINE
  5
3E28
330
18
100
AcDbEntity
  8
1
  6
Continuous
100
AcDbLine
 10
128.0574672395001
 20
48.24163746394527
 30
0.0
 11
128.2574672394998
 21
48.0416374639455
 31
0.0
  0
LINE
  5
3E29
330
18
100
AcDbEntity
  8
1
  6
Continuous
100
AcDbLine
 10
149.6574672394998
 20
40.04163746394735
 30
0.0
 11
151.6574672394999
 21
40.04163746394022
 31
0.0
  0
LINE
  5
3E2A
330
18
100
AcDbEntity
  8
1
  6
Continuous
100
AcDbLine
 10
128.0574672394999
 20
42.84163746394557
 30
0.0
 11
121.2574672394998
 21
42.84163746394571
 31
0.0
  0
LINE
  5
3E2B
330
18
100
AcDbEntity
  8
1
  6
Continuous
100
AcDbLine
 10
128.2574672394999
 20
43.0416374639455
 30
0.0
 11
128.0574672394999
 21
42.84163746394557
 31
0.0
  0
LINE
  5
3F10
330
18
100
AcDbEntity
  8
4
  6
CENTER
 48
0.3
100
AcDbLine
 10
276.1379565258889
 20
125.5416374639456
 30
0.0
 11
245.6379565258889
 21
125.5416374639456
 31
0.0
  0
LINE
  5
3F15
330
18
100
AcDbEntity
  8
1
  6
Continuous
100
AcDbLine
 10
258.7379565258889
 20
129.4184918589457
 30
0.0
 11
258.7379565258889
 21
134.3416374639457
 31
0.0
  0
LINE
  5
3F16
330
18
100
AcDbEntity
  8
1
  6
Continuous
100
AcDbLine
 10
259.4379565258889
 20
130.8179998472556
 30
0.0
 11
259.437956525889
 21
135.0416374639456
 31
0.0
  0
LINE
  5
3F19
330
18
100
AcDbEntity
  8
1
  6
Continuous
100
AcDbLine
 10
254.637956525889
 20
118.0873061794855
 30
0.0
 11
254.6379565258889
 21
132.8416374639455
 31
0.0
  0
LINE
  5
3F1A
330
18
100
AcDbEntity
  8
1
  6
Continuous
100
AcDbLine
 10
255.8379565258889
 20
118.0873061794857
 30
0.0
 11
255.8379565258889
 21
132.8416374639455
 31
0.0
  0
LINE
  5
3F1B
330
18
100
AcDbEntity
  8
1
  6
Continuous
100
AcDbLine
 10
256.1379565258889
 20
117.5661289380256
 30
0.0
 11
256.1379565258889
 21
134.3416374639457
 31
0.0
  0
LINE
  5
3F1C
330
18
100
AcDbEntity
  8
1
  6
Continuous
100
AcDbLine
 10
269.637956525889
 20
130.8179998472556
 30
0.0
 11
269.637956525889
 21
135.0416374639405
 31
0.0
  0
LINE
  5
3F1F
330
18
100
AcDbEntity
  8
1
  6
Continuous
100
AcDbLine
 10
273.1379565258889
 20
115.5416374639456
 30
0.0
 11
273.1379565258889
 21
135.5416374639456
 31
0.0
  0
LINE
  5
3F20
330
18
100
AcDbEntity
  8
1
  6
Continuous
100
AcDbLine
 10
271.6379565258889
 20
114.5416374639456
 30
0.0
 11
271.6379565258889
 21
136.5416374639456
 31
0.0
  0
LINE
  5
3F21
330
18
100
AcDbEntity
  8
1
  6
Continuous
100
AcDbLine
 10
270.6379565258889
 20
136.3416374639457
 30
0.0
 11
270.6379565258889
 21
114.7416374639457
 31
0.0
  0
LINE
  5
3F2B
330
18
100
AcDbEntity
  8
1
  6
Continuous
100
AcDbLine
 10
269.6379565258889
 20
120.2652750806356
 30
0.0
 11
269.6379565258889
 21
116.0416374639456
 31
0.0
  0
LINE
  5
3F2C
330
18
100
AcDbEntity
  8
1
  6
Continuous
100
AcDbLine
 10
270.8379565258889
 20
114.5416374639456
 30
0.0
 11
270.637956525889
 21
114.7416374639457
 31
0.0
  0
LINE
  5
3F2D
330
18
100
AcDbEntity
  8
1
  6
Continuous
100
AcDbLine
 10
273.1379565258889
 20
115.5416374639456
 30
0.0
 11
271.6379565258889
 21
114.5416374639457
 31
0.0
  0
LINE
  5
3F2E
330
18
100
AcDbEntity
  8
1
  6
Continuous
100
AcDbLine
 10
271.6379565258889
 20
114.5416374639456
 30
0.0
 11
270.8379565258889
 21
114.5416374639456
 31
0.0
  0
LINE
  5
3F2F
330
18
100
AcDbEntity
  8
1
  6
Continuous
100
AcDbLine
 10
273.1379565258889
 20
131.2916374639456
 30
0.0
 11
274.1379565258889
 21
129.5416374639457
 31
0.0
  0
LINE
  5
3F30
330
18
100
AcDbEntity
  8
1
  6
Continuous
100
AcDbLine
 10
273.837956525889
 20
129.4752608187057
 30
0.0
 11
274.137956525889
 21
129.0883131140156
 31
0.0
  0
LINE
  5
3F31
330
18
100
AcDbEntity
  8
1
  6
Continuous
100
AcDbLine
 10
274.1379565258889
 20
127.3912568391656
 30
0.0
 11
273.837956525889
 21
127.7782045438556
 31
0.0
  0
LINE
  5
3F32
330
18
100
AcDbEntity
  8
1
  6
Continuous
100
AcDbLine
 10
273.8379565258889
 20
127.7782045438556
 30
0.0
 11
273.837956525889
 21
129.4752608187057
 31
0.0
  0
LINE
  5
3F39
330
18
100
AcDbEntity
  8
1
  6
Continuous
100
AcDbLine
 10
274.1379565258888
 20
121.5416374639457
 30
0.0
 11
273.1379565258889
 21
119.7916374639457
 31
0.0
  0
LINE
  5
3F3A
330
18
100
AcDbEntity
  8
1
  6
Continuous
100
AcDbLine
 10
274.1379565258889
 20
121.5416374639456
 30
0.0
 11
274.1379565258889
 21
129.5416374639456
 31
0.0
  0
LINE
  5
3F3B
330
18
100
AcDbEntity
  8
1
  6
Continuous
100
AcDbLine
 10
259.4379565258889
 20
116.0416374639456
 30
0.0
 11
259.4379565258889
 21
120.2652750806356
 31
0.0
  0
LINE
  5
3F3C
330
18
100
AcDbEntity
  8
1
  6
Continuous
100
AcDbLine
 10
258.7379565258889
 20
116.7416374639457
 30
0.0
 11
258.7379565258889
 21
121.6647830689456
 31
0.0
  0
LINE
  5
3F3E
330
18
100
AcDbEntity
  8
2
  6
Continuous
100
AcDbLine
 10
258.896456525889
 20
116.5831374639456
 30
0.0
 11
269.6379565258889
 21
116.5831374639456
 31
0.0
  0
LINE
  5
3F3F
330
18
100
AcDbEntity
  8
1
  6
Continuous
100
AcDbLine
 10
259.437956525889
 20
116.0416374639456
 30
0.0
 11
258.7379565258889
 21
116.7416374639457
 31
0.0
  0
LINE
  5
3F40
330
18
100
AcDbEntity
  8
1
  6
Continuous
100
AcDbLine
 10
270.6379565258889
 20
116.0416374639456
 30
0.0
 11
259.4379565258889
 21
116.0416374639456
 31
0.0
  0
LINE
  5
3F45
330
18
100
AcDbEntity
  8
1
  6
Continuous
100
AcDbLine
 10
255.1379565258889
 20
117.5661289380256
 30
0.0
 11
254.9379565258889
 21
117.7473904954256
 31
0.0
  0
LINE
  5
3F46
330
18
100
AcDbEntity
  8
1
  6
Continuous
100
AcDbLine
 10
255.1379565258889
 20
116.7416374639457
 30
0.0
 11
254.937956525889
 21
116.9416374639456
 31
0.0
  0
LINE
  5
3F48
330
18
100
AcDbEntity
  8
1
  6
Continuous
100
AcDbLine
 10
254.937956525889
 20
116.9416374639455
 30
0.0
 11
254.937956525889
 21
118.0873061794857
 31
0.0
  0
LINE
  5
3F49
330
18
100
AcDbEntity
  8
1
  6
Continuous
100
AcDbLine
 10
255.8379565258889
 20
118.0873061794857
 30
0.0
 11
254.6379565258888
 21
118.0873061794857
 31
0.0
  0
LINE
  5
3F4B
330
18
100
AcDbEntity
  8
1
  6
Continuous
100
AcDbLine
 10
255.8379565258889
 20
118.9255906186256
 30
0.0
 11
256.1379565258889
 21
118.9255906186256
 31
0.0
  0
LINE
  5
3F4C
330
18
100
AcDbEntity
  8
1
  6
Continuous
100
AcDbLine
 10
258.7379565258889
 20
116.7416374639457
 30
0.0
 11
255.1379565258889
 21
116.7416374639457
 31
0.0
  0
LINE
  5
3F4D
330
18
100
AcDbEntity
  8
1
  6
Continuous
100
AcDbLine
 10
256.1379565258889
 20
117.5661289380256
 30
0.0
 11
255.1379565258889
 21
117.5661289380256
 31
0.0
  0
LINE
  5
3F4E
330
18
100
AcDbEntity
  8
2
  6
Continuous
100
AcDbLine
 10
270.6379565258889
 20
120.2652750806357
 30
0.0
 11
256.1379565258889
 21
129.4184918589456
 31
0.0
  0
LINE
  5
3F4F
330
18
100
AcDbEntity
  8
1
  6
Continuous
100
AcDbLine
 10
258.7379565258889
 20
129.4184918589457
 30
0.0
 11
259.4379565258889
 21
130.8179998472556
 31
0.0
  0
LINE
  5
3F50
330
18
100
AcDbEntity
  8
1
  6
Continuous
100
AcDbLine
 10
258.7379565258889
 20
121.6647830689456
 30
0.0
 11
259.4379565258889
 21
120.2652750806355
 31
0.0
  0
LINE
  5
3F51
330
18
100
AcDbEntity
  8
2
  6
Continuous
100
AcDbLine
 10
256.1379565258889
 20
121.6647830689456
 30
0.0
 11
270.6379565258889
 21
130.8179998472556
 31
0.0
  0
LINE
  5
3F52
330
18
100
AcDbEntity
  8
1
  6
Continuous
100
AcDbLine
 10
259.4379565258889
 20
130.8179998472556
 30
0.0
 11
270.6379565258889
 21
130.8179998472556
 31
0.0
  0
LINE
  5
3F53
330
18
100
AcDbEntity
  8
1
  6
Continuous
100
AcDbLine
 10
270.6379565258889
 20
120.2652750806357
 30
0.0
 11
259.4379565258889
 21
120.2652750806356
 31
0.0
  0
LINE
  5
3F55
330
18
100
AcDbEntity
  8
2
  6
Continuous
100
AcDbLine
 10
248.6379565258889
 20
123.3145317188156
 30
0.0
 11
254.6379565258891
 21
127.7687432090762
 31
0.0
  0
LINE
  5
3F56
330
18
100
AcDbEntity
  8
2
  6
Continuous
100
AcDbLine
 10
248.2319565258883
 20
128.635637463945
 30
0.0
 11
254.6379565258889
 21
128.6356374639455
 31
0.0
  0
LINE
  5
3F57
330
18
100
AcDbEntity
  8
1
  6
Continuous
100
AcDbLine
 10
248.6379565258889
 20
127.7687432090756
 30
0.0
 11
254.6379565258891
 21
127.7687432090761
 31
0.0
  0
LINE
  5
3F58
330
18
100
AcDbEntity
  8
1
  6
Continuous
100
AcDbLine
 10
248.6379565258887
 20
129.0416374639455
 30
0.0
 11
254.637956525889
 21
129.0416374639461
 31
0.0
  0
LINE
  5
3F59
330
18
100
AcDbEntity
  8
1
  6
Continuous
100
AcDbLine
 10
256.1379565258889
 20
129.4184918589457
 30
0.0
 11
258.7379565258889
 21
129.4184918589457
 31
0.0
  0
LINE
  5
3F5A
330
18
100
AcDbEntity
  8
1
  6
Continuous
100
AcDbLine
 10
256.037956525889
 20
130.5166374639456
 30
0.0
 11
256.1379565258889
 21
130.5166374639456
 31
0.0
  0
LINE
  5
3F5B
330
18
100
AcDbEntity
  8
1
  6
Continuous
100
AcDbLine
 10
255.837956525889
 20
130.3166374639456
 30
0.0
 11
256.037956525889
 21
130.5166374639456
 31
0.0
  0
LINE
  5
3F5E
330
18
100
AcDbEntity
  8
2
  6
Continuous
100
AcDbLine
 10
248.2319565258896
 20
122.447637463945
 30
0.0
 11
254.637956525889
 21
122.4476374639454
 31
0.0
  0
LINE
  5
3F5F
330
18
100
AcDbEntity
  8
1
  6
Continuous
100
AcDbLine
 10
248.6379565258889
 20
123.3145317188156
 30
0.0
 11
254.6379565258891
 21
123.3145317188151
 31
0.0
  0
LINE
  5
3F60
330
18
100
AcDbEntity
  8
1
  6
Continuous
100
AcDbLine
 10
248.6379565258891
 20
122.0416374639454
 30
0.0
 11
254.637956525889
 21
122.0416374639461
 31
0.0
  0
LINE
  5
3F61
330
18
100
AcDbEntity
  8
1
  6
Continuous
100
AcDbLine
 10
258.7379565258889
 20
121.6647830689456
 30
0.0
 11
256.1379565258889
 21
121.6647830689456
 31
0.0
  0
LINE
  5
3F62
330
18
100
AcDbEntity
  8
1
  6
Continuous
100
AcDbLine
 10
256.1379565258889
 20
120.5666374639456
 30
0.0
 11
256.037956525889
 21
120.5666374639456
 31
0.0
  0
LINE
  5
3F63
330
18
100
AcDbEntity
  8
1
  6
Continuous
100
AcDbLine
 10
256.037956525889
 20
120.5666374639456
 30
0.0
 11
255.837956525889
 21
120.7666374639456
 31
0.0
  0
LINE
  5
3F64
330
18
100
AcDbEntity
  8
2
  6
Continuous
100
AcDbLine
 10
248.6379565258889
 20
127.7687432090756
 30
0.0
 11
254.6379565258891
 21
123.314531718815
 31
0.0
  0
LINE
  5
3F6A
330
18
100
AcDbEntity
  8
1
  6
Continuous
100
AcDbLine
 10
270.637956525889
 20
136.3416374639456
 30
0.0
 11
270.837956525889
 21
136.5416374639456
 31
0.0
  0
LINE
  5
3F6B
330
18
100
AcDbEntity
  8
1
  6
Continuous
100
AcDbLine
 10
271.6379565258889
 20
136.5416374639456
 30
0.0
 11
273.1379565258889
 21
135.5416374639456
 31
0.0
  0
LINE
  5
3F6C
330
18
100
AcDbEntity
  8
1
  6
Continuous
100
AcDbLine
 10
270.8379565258889
 20
136.5416374639456
 30
0.0
 11
271.6379565258889
 21
136.5416374639456
 31
0.0
  0
LINE
  5
3F6D
330
18
100
AcDbEntity
  8
2
  6
Continuous
100
AcDbLine
 10
258.8964565258886
 20
134.5001374639456
 30
0.0
 11
269.637956525889
 21
134.5001374639457
 31
0.0
  0
LINE
  5
3F6E
330
18
100
AcDbEntity
  8
1
  6
Continuous
100
AcDbLine
 10
258.7379565258888
 20
134.3416374639458
 30
0.0
 11
259.4379565258887
 21
135.0416374639457
 31
0.0
  0
LINE
  5
3F6F
330
18
100
AcDbEntity
  8
1
  6
Continuous
100
AcDbLine
 10
259.4379565258889
 20
135.0416374639456
 30
0.0
 11
270.6379565258889
 21
135.0416374639456
 31
0.0
  0
LINE
  5
3F72
330
18
100
AcDbEntity
  8
1
  6
Continuous
100
AcDbLine
 10
256.1379565258889
 20
134.3416374639457
 30
0.0
 11
258.7379565258889
 21
134.3416374639457
 31
0.0
  0
LINE
  5
3F73
330
18
100
AcDbEntity
  8
1
  6
Continuous
100
AcDbLine
 10
254.6379565258888
 20
132.8416374639457
 30
0.0
 11
255.8379565258889
 21
132.8416374639457
 31
0.0
  0
LINE
  5
3F82
330
18
100
AcDbEntity
  8
1
  6
Continuous
100
AcDbLine
 10
248.6379565258889
 20
127.7687432090757
 30
0.0
 11
248.6379565258889
 21
129.0416374639456
 31
0.0
  0
LINE
  5
3F87
330
18
100
AcDbEntity
  8
1
  6
Continuous
100
AcDbLine
 10
247.6379565258889
 20
128.0416374639456
 30
0.0
 11
248.6379565258889
 21
129.0416374639457
 31
0.0
  0
LINE
  5
3F8D
330
18
100
AcDbEntity
  8
1
  6
Continuous
100
AcDbLine
 10
248.6379565258889
 20
122.0416374639456
 30
0.0
 11
248.6379565258889
 21
123.3145317188155
 31
0.0
  0
LINE
  5
3F8E
330
18
100
AcDbEntity
  8
1
  6
Continuous
100
AcDbLine
 10
248.637956525889
 20
122.0416374639456
 30
0.0
 11
247.637956525889
 21
123.0416374639456
 31
0.0
  0
LINE
  5
3F8F
330
18
100
AcDbEntity
  8
1
  6
Continuous
100
AcDbLine
 10
247.6379565258889
 20
123.0416374639456
 30
0.0
 11
247.6379565258889
 21
128.0416374639456
 31
0.0
  0
ARC
  5
3F92
330
18
100
AcDbEntity
  8
1
  6
Continuous
100
AcDbCircle
 10
251.3871655675373
 20
125.5416374639456
 30
0.0
 40
3.538099822598629
100
AcDbArc
 50
140.9894265484298
 51
219.0105734515614
  0
LINE
  5
408F
330
18
100
AcDbEntity
  8
1
  6
Continuous
100
AcDbLine
 10
120.9574672394998
 20
49.26067816719355
 30
0.0
 11
120.9574672394997
 21
41.82259676069768
 31
0.0
  0
LINE
  5
4090
330
18
100
AcDbEntity
  8
1
  6
Continuous
100
AcDbLine
 10
120.0574672394998
 20
41.82259676069768
 30
0.0
 11
120.0574672394998
 21
38.24163746394569
 31
0.0
  0
LINE
  5
4091
330
18
100
AcDbEntity
  8
1
  6
Continuous
100
AcDbLine
 10
119.7574672394999
 20
41.82259676069769
 30
0.0
 11
119.7574672394999
 21
37.64163746394547
 31
0.0
  0
LINE
  5
40B5
330
18
100
AcDbEntity
  8
1
  6
Continuous
100
AcDbLine
 10
255.8379565258889
 20
128.8142510983357
 30
0.0
 11
254.6379565258889
 21
128.8142510983357
 31
0.0
  0
LINE
  5
40B6
330
18
100
AcDbEntity
  8
1
  6
Continuous
100
AcDbLine
 10
254.637956525889
 20
121.5919539323157
 30
0.0
 11
255.8379565258889
 21
121.5919539323157
 31
0.0
  0
LINE
  5
40EC
330
18
100
AcDbEntity
  8
1
  6
Continuous
100
AcDbLine
 10
120.9574672394997
 20
42.58330963175961
 30
0.0
 11
121.2574672394998
 21
42.58330963175961
 31
0.0
  0
LINE
  5
40ED
330
18
100
AcDbEntity
  8
1
  6
Continuous
100
AcDbLine
 10
120.9574672394997
 20
41.93821164744556
 30
0.0
 11
121.2574672394998
 21
41.93821164744556
 31
0.0
  0
LINE
  5
40EE
330
18
100
AcDbEntity
  8
1
  6
Continuous
100
AcDbLine
 10
121.2574672394998
 20
52.0416374639457
 30
0.0
 11
120.0574672394998
 21
52.0416374639457
 31
0.0
  0
LINE
  5
410F
330
18
100
AcDbEntity
  8
1
  6
Continuous
100
AcDbLine
 10
121.2574672394998
 20
208.8142510983357
 30
0.0
 11
120.0574672394998
 21
208.8142510983357
 31
0.0
  0
LINE
  5
4110
330
18
100
AcDbEntity
  8
1
  6
Continuous
100
AcDbLine
 10
120.0574672394999
 20
201.5919539323157
 30
0.0
 11
121.2574672394998
 21
201.5919539323157
 31
0.0
  0
LINE
  5
4194
330
18
100
AcDbEntity
  8
4
  6
CENTER
 48
0.3
100
AcDbLine
 10
136.2574672394998
 20
205.5416374639456
 30
0.0
 11
154.6574672394999
 21
205.5416374639456
 31
0.0
  0
LINE
  5
4195
330
18
100
AcDbEntity
  8
4
  6
CENTER
 48
0.3
100
AcDbLine
 10
136.2574672394998
 20
125.5416374640022
 30
0.0
 11
154.6574672394999
 21
125.5416374640022
 31
0.0
  0
LINE
  5
4196
330
18
100
AcDbEntity
  8
4
  6
CENTER
 48
0.3
100
AcDbLine
 10
136.2574672394998
 20
45.54163746394563
 30
0.0
 11
154.6574672394999
 21
45.54163746394567
 31
0.0
  0
LINE
  5
4197
330
18
100
AcDbEntity
  8
4
  6
CENTER
 48
0.3
100
AcDbLine
 10
239.6379565258889
 20
125.5416374640022
 30
0.0
 11
221.2379565258889
 21
125.5416374640022
 31
0.0
  0
LINE
  5
4198
330
18
100
AcDbEntity
  8
1
  6
Continuous
100
AcDbLine
 10
232.6379565258889
 20
114.5416374639462
 30
0.0
 11
232.6379565258889
 21
136.5416374639456
 31
0.0
  0
LINE
  5
4199
330
18
100
AcDbEntity
  8
1
  6
Continuous
100
AcDbLine
 10
236.6379565258889
 20
138.2433433861067
 30
0.0
 11
236.6379565258889
 21
112.8399315418977
 31
0.0
  0
ARC
  5
419A
330
18
100
AcDbEntity
  8
1
  6
Continuous
100
AcDbCircle
 10
253.3046231917089
 20
125.5416374640356
 30
0.0
 40
20.66666666581749
100
AcDbArc
 50
162.1034488703766
 51
197.8965511296202
  0
LINE
  5
419B
330
18
100
AcDbEntity
  8
1
  6
Continuous
100
AcDbLine
 10
233.6379565258889
 20
112.8399315417851
 30
0.0
 11
232.6379565258888
 21
114.5416374639457
 31
0.0
  0
LINE
  5
419C
330
18
100
AcDbEntity
  8
1
  6
Continuous
100
AcDbLine
 10
236.6379565258889
 20
112.8399315418977
 30
0.0
 11
233.6379565258239
 21
112.8399315418977
 31
0.0
  0
LINE
  5
419D
330
18
100
AcDbEntity
  8
1
  6
Continuous
100
AcDbLine
 10
236.6379565258889
 20
119.1907845030837
 30
0.0
 11
233.6379565258889
 21
119.1907845029042
 31
0.0
  0
ARC
  5
419E
330
18
100
AcDbEntity
  8
1
  6
Continuous
100
AcDbCircle
 10
248.7412731013839
 20
112.6893008853101
 30
0.0
 40
16.4432192957905
100
AcDbArc
 50
156.7097036817724
 51
168.3299559128212
  0
ARC
  5
419F
330
18
100
AcDbEntity
  8
1
  6
Continuous
100
AcDbCircle
 10
248.7412731013839
 20
138.3939740425818
 30
0.0
 40
16.4432192957905
100
AcDbArc
 50
191.6700440871807
 51
203.2902963182305
  0
LINE
  5
41A0
330
18
100
AcDbEntity
  8
1
  6
Continuous
100
AcDbLine
 10
236.6379565258889
 20
131.8924904249876
 30
0.0
 11
233.6379565258889
 21
131.8924904249876
 31
0.0
  0
LINE
  5
41A1
330
18
100
AcDbEntity
  8
1
  6
Continuous
100
AcDbLine
 10
233.6379565258889
 20
138.2433433861067
 30
0.0
 11
236.6379565258889
 21
138.2433433861067
 31
0.0
  0
LINE
  5
41A2
330
18
100
AcDbEntity
  8
1
  6
Continuous
100
AcDbLine
 10
233.6379565258888
 20
138.2433433861068
 30
0.0
 11
232.6379565258888
 21
136.5416374639457
 31
0.0
  0
LINE
  5
41A3
330
18
100
AcDbEntity
  8
1
  6
Continuous
100
AcDbLine
 10
224.2379565258889
 20
131.041637463994
 30
0.0
 11
224.2379565258889
 21
120.0416374638984
 31
0.0
  0
ARC
  5
41A4
330
18
100
AcDbEntity
  8
1
  6
Continuous
100
AcDbCircle
 10
215.729196711656
 20
125.5416374639617
 30
0.0
 40
10.50875981423296
100
AcDbArc
 50
342.4120462265725
 51
17.58795377339459
  0
ARC
  5
41A5
330
18
100
AcDbEntity
  8
1
  6
Continuous
100
AcDbCircle
 10
234.7467163401219
 20
125.5416374639617
 30
0.0
 40
10.50875981423296
100
AcDbArc
 50
162.4120462266054
 51
197.5879537734275
  0
LINE
  5
41A6
330
18
100
AcDbEntity
  8
1
  6
Continuous
100
AcDbLine
 10
227.037956525889
 20
119.0416374639456
 30
0.0
 11
227.037956525889
 21
132.0416374639456
 31
0.0
  0
LINE
  5
41A7
330
18
100
AcDbEntity
  8
1
  6
Continuous
100
AcDbLine
 10
226.237956525889
 20
119.0416374639456
 30
0.0
 11
226.237956525889
 21
132.0416374639456
 31
0.0
  0
LINE
  5
41A8
330
18
100
AcDbEntity
  8
1
  6
Continuous
100
AcDbLine
 10
225.7467163397818
 20
122.3662109834116
 30
0.0
 11
224.7291967119962
 21
122.36621098341
 31
0.0
  0
LINE
  5
41A9
330
18
100
AcDbEntity
  8
1
  6
Continuous
100
AcDbLine
 10
225.7467163397828
 20
119.1907845028492
 30
0.0
 11
224.7291967119969
 21
119.1907845028465
 31
0.0
  0
LINE
  5
41AA
330
18
100
AcDbEntity
  8
1
  6
Continuous
100
AcDbLine
 10
227.037956525889
 20
119.0416374639456
 30
0.0
 11
226.237956525889
 21
119.0416374639456
 31
0.0
  0
ARC
  5
41AB
330
18
100
AcDbEntity
  8
1
  6
Continuous
100
AcDbCircle
 10
223.4265515026248
 20
120.7784977431161
 30
0.0
 40
2.811405023276311
100
AcDbArc
 50
334.3842474674092
 51
34.38424746781511
  0
LINE
  5
41AC
330
18
100
AcDbEntity
  8
1
  6
Continuous
100
AcDbLine
 10
226.237956525901
 20
120.0416374639191
 30
0.0
 11
225.7467163397826
 21
119.190784502849
 31
0.0
  0
LINE
  5
41AD
330
18
100
AcDbEntity
  8
1
  6
Continuous
100
AcDbLine
 10
224.2379565258769
 20
120.0416374639192
 30
0.0
 11
224.7291967119952
 21
119.1907845028491
 31
0.0
  0
ARC
  5
41AE
330
18
100
AcDbEntity
  8
1
  6
Continuous
100
AcDbCircle
 10
227.0493615491531
 20
120.7784977431161
 30
0.0
 40
2.811405023276311
100
AcDbArc
 50
145.6157525321848
 51
205.6157525325908
  0
LINE
  5
41AF
330
18
100
AcDbEntity
  8
1
  6
Continuous
100
AcDbLine
 10
225.7467163397823
 20
131.8924904250436
 30
0.0
 11
224.7291967119952
 21
131.8924904250432
 31
0.0
  0
LINE
  5
41B0
330
18
100
AcDbEntity
  8
1
  6
Continuous
100
AcDbLine
 10
225.7467163397818
 20
128.717063944507
 30
0.0
 11
224.7291967119962
 21
128.7170639445078
 31
0.0
  0
LINE
  5
41B1
330
18
100
AcDbEntity
  8
1
  6
Continuous
100
AcDbLine
 10
226.237956525889
 20
132.0416374639456
 30
0.0
 11
227.037956525889
 21
132.0416374639456
 31
0.0
  0
LINE
  5
41B2
330
18
100
AcDbEntity
  8
1
  6
Continuous
100
AcDbLine
 10
226.237956525901
 20
131.0416374639731
 30
0.0
 11
225.7467163397826
 21
131.8924904250431
 31
0.0
  0
ARC
  5
41B3
330
18
100
AcDbEntity
  8
1
  6
Continuous
100
AcDbCircle
 10
223.4265515026248
 20
130.3047771847763
 30
0.0
 40
2.811405023276311
100
AcDbArc
 50
325.6157525321849
 51
25.61575253259089
  0
LINE
  5
41B4
330
18
100
AcDbEntity
  8
1
  6
Continuous
100
AcDbLine
 10
224.237956525877
 20
131.0416374639731
 30
0.0
 11
224.7291967119952
 21
131.892490425043
 31
0.0
  0
ARC
  5
41B5
330
18
100
AcDbEntity
  8
1
  6
Continuous
100
AcDbCircle
 10
227.0493615491531
 20
130.3047771847763
 30
0.0
 40
2.811405023276311
100
AcDbArc
 50
154.3842474674091
 51
214.3842474678151
  0
ARC
  5
41BE
330
18
100
AcDbEntity
  8
1
  6
Continuous
100
AcDbCircle
 10
60.73948321985408
 20
206.6004362665296
 30
0.0
 40
1.0
100
AcDbArc
 50
0.0000000000002036
 51
69.30454926576036
  0
ARC
  5
41BF
330
18
100
AcDbEntity
  8
1
  6
Continuous
100
AcDbCircle
 10
60.73948321985411
 20
204.4828386613571
 30
0.0
 40
1.0
100
AcDbArc
 50
290.6954507341793
 51
0.0000000000001908
  0
ENDSEC
  0
SECTION
  2
OBJECTS
  0
DICTIONARY
  5
C
330
0
100
AcDbDictionary
281
     1
  3
ACAD_CIP_PREVIOUS_PRODUCT_INFO
350
421E
  3
ACAD_COLOR
350
4201
  3
ACAD_DETAILVIEWSTYLE
350
421A
  3
ACAD_GROUP
350
D
  3
ACAD_LAYOUT
350
94
  3
ACAD_MATERIAL
350
41CF
  3
ACAD_MLEADERSTYLE
350
4216
  3
ACAD_MLINESTYLE
350
1B
  3
ACAD_PLOTSETTINGS
350
95
  3
ACAD_PLOTSTYLENAME
350
41CD
  3
ACAD_SCALELIST
350
4204
  3
ACAD_SECTIONVIEWSTYLE
350
4218
  3
ACAD_TABLESTYLE
350
4202
  3
ACAD_VISUALSTYLE
350
41E8
  3
ACDB_RECOMPOSE_DATA
350
423C
  3
AcDbVariableDictionary
350
422F
  3
CONTENTDICTIONARY
350
3D
  3
DWGPROPS
350
423D
  0
DICTIONARY
  5
421F
330
E
100
AcDbDictionary
280
     1
281
     1
  3
ADSK_XREC_LAYER_RECONCILED
360
4220
  0
DICTIONARY
  5
4221
330
4E
100
AcDbDictionary
280
     1
281
     1
  3
ADSK_XREC_LAYER_RECONCILED
360
4222
  0
DICTIONARY
  5
4223
330
4F
100
AcDbDictionary
280
     1
281
     1
  3
ADSK_XREC_LAYER_RECONCILED
360
4224
  0
DICTIONARY
  5
4225
330
50
100
AcDbDictionary
280
     1
281
     1
  3
ADSK_XREC_LAYER_RECONCILED
360
4226
  0
DICTIONARY
  5
4227
330
51
100
AcDbDictionary
280
     1
281
     1
  3
ADSK_XREC_LAYER_RECONCILED
360
4228
  0
DICTIONARY
  5
4229
330
52
100
AcDbDictionary
280
     1
281
     1
  3
ADSK_XREC_LAYER_RECONCILED
360
422A
  0
DICTIONARY
  5
422B
330
53
100
AcDbDictionary
280
     1
281
     1
  3
ADSK_XREC_LAYER_RECONCILED
360
422C
  0
DICTIONARY
  5
422D
330
54
100
AcDbDictionary
280
     1
281
     1
  3
ADSK_XREC_LAYER_RECONCILED
360
422E
  0
DICTIONARY
  5
41C8
330
18
100
AcDbDictionary
281
     1
  3
ACAD_LAYOUTSELFREF
350
41C9
  0
DICTIONARY
  5
41C6
330
15
100
AcDbDictionary
281
     1
  3
ACAD_LAYOUTSELFREF
350
41C7
  0
XRECORD
  5
421E
102
{ACAD_REACTORS
330
C
102
}
330
C
100
AcDbXrecord
280
     1
300
ACDLT
300
2014
300
ACDLT_F_S
  0
DICTIONARY
  5
4201
102
{ACAD_REACTORS
330
C
102
}
330
C
100
AcDbDictionary
281
     1
  0
DICTIONARY
  5
421A
102
{ACAD_REACTORS
330
C
102
}
330
C
100
AcDbDictionary
281
     1
  3
Imperial24
350
421B
  0
DICTIONARY
  5
D
102
{ACAD_REACTORS
330
C
102
}
330
C
100
AcDbDictionary
281
     1
  0
DICTIONARY
  5
94
102
{ACAD_REACTORS
330
C
102
}
330
C
100
AcDbDictionary
281
     1
  3
Model
350
421C
  3
レイアウト1
350
421D
  0
DICTIONARY
  5
41CF
102
{ACAD_REACTORS
330
C
102
}
330
C
100
AcDbDictionary
281
     1
  3
ByBlock
350
41D8
  3
ByLayer
350
41D0
  3
Global
350
41E0
  0
DICTIONARY
  5
4216
102
{ACAD_REACTORS
330
C
102
}
330
C
100
AcDbDictionary
281
     1
  3
Standard
350
4217
  0
DICTIONARY
  5
1B
102
{ACAD_REACTORS
330
C
102
}
330
C
100
AcDbDictionary
281
     1
  3
STANDARD
350
1C
  0
DICTIONARY
  5
95
102
{ACAD_REACTORS
330
C
102
}
330
C
100
AcDbDictionary
281
     1
  0
ACDBDICTIONARYWDFLT
  5
41CD
102
{ACAD_REACTORS
330
C
102
}
330
C
100
AcDbDictionary
281
     1
  3
Normal
350
41CE
100
AcDbDictionaryWithDefault
340
41CE
  0
DICTIONARY
  5
4204
102
{ACAD_REACTORS
330
C
102
}
330
C
100
AcDbDictionary
281
     1
  3
A0
350
4205
  3
A1
350
4206
  3
A2
350
4207
  3
A3
350
4208
  3
A4
350
4209
  3
A5
350
420A
  3
A6
350
420B
  3
A7
350
420C
  3
A8
350
420D
  3
A9
350
420E
  3
B0
350
420F
  3
B1
350
4210
  3
B2
350
4211
  3
B3
350
4212
  3
B4
350
4213
  3
B5
350
4214
  3
B6
350
4215
  0
DICTIONARY
  5
4218
102
{ACAD_REACTORS
330
C
102
}
330
C
100
AcDbDictionary
281
     1
  3
Imperial24
350
4219
  0
DICTIONARY
  5
4202
102
{ACAD_REACTORS
330
C
102
}
330
C
100
AcDbDictionary
281
     1
  3
Standard
350
4203
  0
DICTIONARY
  5
41E8
102
{ACAD_REACTORS
330
C
102
}
330
C
100
AcDbDictionary
281
     1
  3
2dWireframe
350
41EE
  3
Basic
350
41ED
  3
Brighten
350
41F4
  3
ColorChange
350
41F8
  3
Conceptual
350
41F1
  3
Dim
350
41F3
  3
EdgeColorOff
350
4200
  3
Facepattern
350
41F7
  3
Flat
350
41E9
  3
FlatWithEdges
350
41EA
  3
Gouraud
350
41EB
  3
GouraudWithEdges
350
41EC
  3
Hidden
350
41F0
  3
JitterOff
350
41FE
  3
Linepattern
350
41F6
  3
OverhangOff
350
41FF
  3
Realistic
350
41F2
  3
Shaded
350
41FD
  3
Shaded with edges
350
41FC
  3
Shades of Gray
350
41F9
  3
Sketchy
350
41FA
  3
Thicken
350
41F5
  3
Wireframe
350
41EF
  3
X-Ray
350
41FB
  0
XRECORD
  5
423C
102
{ACAD_REACTORS
330
C
102
}
330
C
100
AcDbXrecord
280
     1
 90
        1
330
4203
  0
DICTIONARY
  5
422F
102
{ACAD_REACTORS
330
C
102
}
330
C
100
AcDbDictionary
281
     1
  3
CANNOSCALE
350
4234
  3
CMLEADERSTYLE
350
4231
  3
CTABLESTYLE
350
4230
  3
CVIEWDETAILSTYLE
350
4232
  3
CVIEWSECTIONSTYLE
350
4233
  3
DIMASSOC
350
4237
  3
INDEXCTL
350
4236
  3
SORTENTS
350
4235
  3
XCLIPFRAME
350
4238
  0
DICTIONARY
  5
3D
102
{ACAD_REACTORS
330
C
102
}
330
C
100
AcDbDictionary
281
     1
  0
XRECORD
  5
423D
102
{ACAD_REACTORS
330
C
102
}
330
C
100
AcDbXrecord
280
     1
  1
DWGPROPS COOKIE
  2

  3

  4

  6

  7

  8
Yoshitsune
  9

300
=
301
=
302
=
303
=
304
=
305
=
306
=
307
=
308
=
309
=
 40
0.1913660185185185
 41
2454525.396254514
 42
2457192.602410185
  1

 90
        0
  0
XRECORD
  5
4220
102
{ACAD_REACTORS
330
421F
102
}
330
421F
100
AcDbXrecord
280
     1
290
     1
  0
XRECORD
  5
4222
102
{ACAD_REACTORS
330
4221
102
}
330
4221
100
AcDbXrecord
280
     1
290
     1
  0
XRECORD
  5
4224
102
{ACAD_REACTORS
330
4223
102
}
330
4223
100
AcDbXrecord
280
     1
290
     1
  0
XRECORD
  5
4226
102
{ACAD_REACTORS
330
4225
102
}
330
4225
100
AcDbXrecord
280
     1
290
     1
  0
XRECORD
  5
4228
102
{ACAD_REACTORS
330
4227
102
}
330
4227
100
AcDbXrecord
280
     1
290
     1
  0
XRECORD
  5
422A
102
{ACAD_REACTORS
330
4229
102
}
330
4229
100
AcDbXrecord
280
     1
290
     1
  0
XRECORD
  5
422C
102
{ACAD_REACTORS
330
422B
102
}
330
422B
100
AcDbXrecord
280
     1
290
     1
  0
XRECORD
  5
422E
102
{ACAD_REACTORS
330
422D
102
}
330
422D
100
AcDbXrecord
280
     1
290
     1
  0
XRECORD
  5
41C9
102
{ACAD_REACTORS
330
41C8
102
}
330
41C8
100
AcDbXrecord
280
     1
340
18
  0
XRECORD
  5
41C7
102
{ACAD_REACTORS
330
41C6
102
}
330
41C6
100
AcDbXrecord
280
     1
340
15
  0
ACDBDETAILVIEWSTYLE
  5
421B
102
{ACAD_XDICTIONARY
360
4275
102
}
102
{ACAD_REACTORS
330
421A
102
}
330
421A
100
AcDbModelDocViewStyle
 70
     0
  3
Imperial24
290
     0
100
AcDbDetailViewStyle
 70
     0
 71
     0
 90
        3
 71
     1
340
F
 40
0.24
340
0
 40
0.24
300

 40
0.36
280
     3
 71
     2
340
14
 90
       25
 71
     3
340
F
 40
0.24
 90
        1
 40
0.75
 90
        1
300
%<\AcVar ViewType \f "%tc1">% %<\AcVar ViewDetailId>%\PSCALE %<\AcVar ViewScale \f "%sn">%
 71
     4
340
14
 90
       25
340
14
 90
       25
280
     0
  0
LAYOUT
  5
421C
102
{ACAD_XDICTIONARY
360
4277
102
}
102
{ACAD_REACTORS
330
94
102
}
330
94
100
AcDbPlotSettings
  1

  2
Canon LBP9100C
  4

  6

 40
0.0
 41
0.0
 42
0.0
 43
0.0
 44
0.0
 45
0.0
 46
0.0
 47
0.0
 48
0.0
 49
0.0
140
0.0
141
0.0
142
1.0
143
1.0
 70
  1712
 72
     0
 73
     0
 74
     0
  7

 75
     0
147
1.0
148
0.0
149
0.0
100
AcDbLayout
  1
Model
 70
     1
 71
     0
 10
0.0
 20
0.0
 11
12.0
 21
9.0
 12
0.0
 22
0.0
 32
0.0
 14
0.0
 24
0.0
 34
0.0
 15
0.0
 25
0.0
 35
0.0
146
0.0
 13
0.0
 23
0.0
 33
0.0
 16
1.0
 26
0.0
 36
0.0
 17
0.0
 27
1.0
 37
0.0
 76
     0
330
18
331
41C5
  0
LAYOUT
  5
421D
102
{ACAD_XDICTIONARY
360
4279
102
}
102
{ACAD_REACTORS
330
94
102
}
330
94
100
AcDbPlotSettings
  1

  2
Canon LBP9100C
  4

  6

 40
0.0
 41
0.0
 42
0.0
 43
0.0
 44
0.0
 45
0.0
 46
0.0
 47
0.0
 48
0.0
 49
0.0
140
0.0
141
0.0
142
1.0
143
1.0
 70
   688
 72
     0
 73
     0
 74
     5
  7

 75
    16
147
1.0
148
0.0
149
0.0
100
AcDbLayout
  1
レイアウト1
 70
     1
 71
     1
 10
0.0
 20
0.0
 11
420.0
 21
297.0
 12
0.0
 22
0.0
 32
0.0
 14
1.000000000000000E+20
 24
1.000000000000000E+20
 34
1.000000000000000E+20
 15
-1.000000000000000E+20
 25
-1.000000000000000E+20
 35
-1.000000000000000E+20
146
0.0
 13
0.0
 23
0.0
 33
0.0
 16
1.0
 26
0.0
 36
0.0
 17
0.0
 27
1.0
 37
0.0
 76
     0
330
15
  0
MATERIAL
  5
41D8
102
{ACAD_XDICTIONARY
360
41D9
102
}
102
{ACAD_REACTORS
330
41CF
102
}
330
41CF
100
AcDbMaterial
  1
ByBlock
 72
     0
 43
0.0208333333333333
 43
0.0
 43
0.0
 43
0.0
 43
0.0
 43
0.0208333333333333
 43
0.0
 43
0.0
 43
0.0
 43
0.0
 43
1.0
 43
0.0
 43
0.0
 43
0.0
 43
0.0
 43
1.0
 77
     0
 47
0.0208333333333333
 47
0.0
 47
0.0
 47
0.0
 47
0.0
 47
0.0208333333333333
 47
0.0
 47
0.0
 47
0.0
 47
0.0
 47
1.0
 47
0.0
 47
0.0
 47
0.0
 47
0.0
 47
1.0
171
     0
 49
0.0208333333333333
 49
0.0
 49
0.0
 49
0.0
 49
0.0
 49
0.0208333333333333
 49
0.0
 49
0.0
 49
0.0
 49
0.0
 49
1.0
 49
0.0
 49
0.0
 49
0.0
 49
0.0
 49
1.0
175
     0
142
0.0208333333333333
142
0.0
142
0.0
142
0.0
142
0.0
142
0.0208333333333333
142
0.0
142
0.0
142
0.0
142
0.0
142
1.0
142
0.0
142
0.0
142
0.0
142
0.0
142
1.0
179
     0
144
0.0208333333333333
144
0.0
144
0.0
144
0.0
144
0.0
144
0.0208333333333333
144
0.0
144
0.0
144
0.0
144
0.0
144
1.0
144
0.0
144
0.0
144
0.0
144
0.0
144
1.0
147
0.0208333333333333
147
0.0
147
0.0
147
0.0
147
0.0
147
0.0208333333333333
147
0.0
147
0.0
147
0.0
147
0.0
147
1.0
147
0.0
147
0.0
147
0.0
147
0.0
147
1.0
  0
MATERIAL
  5
41D0
102
{ACAD_XDICTIONARY
360
41D1
102
}
102
{ACAD_REACTORS
330
41CF
102
}
330
41CF
100
AcDbMaterial
  1
ByLayer
 72
     0
 43
0.0208333333333333
 43
0.0
 43
0.0
 43
0.0
 43
0.0
 43
0.0208333333333333
 43
0.0
 43
0.0
 43
0.0
 43
0.0
 43
1.0
 43
0.0
 43
0.0
 43
0.0
 43
0.0
 43
1.0
 77
     0
 47
0.0208333333333333
 47
0.0
 47
0.0
 47
0.0
 47
0.0
 47
0.0208333333333333
 47
0.0
 47
0.0
 47
0.0
 47
0.0
 47
1.0
 47
0.0
 47
0.0
 47
0.0
 47
0.0
 47
1.0
171
     0
 49
0.0208333333333333
 49
0.0
 49
0.0
 49
0.0
 49
0.0
 49
0.0208333333333333
 49
0.0
 49
0.0
 49
0.0
 49
0.0
 49
1.0
 49
0.0
 49
0.0
 49
0.0
 49
0.0
 49
1.0
175
     0
142
0.0208333333333333
142
0.0
142
0.0
142
0.0
142
0.0
142
0.0208333333333333
142
0.0
142
0.0
142
0.0
142
0.0
142
1.0
142
0.0
142
0.0
142
0.0
142
0.0
142
1.0
179
     0
144
0.0208333333333333
144
0.0
144
0.0
144
0.0
144
0.0
144
0.0208333333333333
144
0.0
144
0.0
144
0.0
144
0.0
144
1.0
144
0.0
144
0.0
144
0.0
144
0.0
144
1.0
147
0.0208333333333333
147
0.0
147
0.0
147
0.0
147
0.0
147
0.0208333333333333
147
0.0
147
0.0
147
0.0
147
0.0
147
1.0
147
0.0
147
0.0
147
0.0
147
0.0
147
1.0
  0
MATERIAL
  5
41E0
102
{ACAD_XDICTIONARY
360
41E1
102
}
102
{ACAD_REACTORS
330
41CF
102
}
330
41CF
100
AcDbMaterial
  1
Global
 72
     0
 43
0.0208333333333333
 43
0.0
 43
0.0
 43
0.0
 43
0.0
 43
0.0208333333333333
 43
0.0
 43
0.0
 43
0.0
 43
0.0
 43
1.0
 43
0.0
 43
0.0
 43
0.0
 43
0.0
 43
1.0
 77
     0
 47
0.0208333333333333
 47
0.0
 47
0.0
 47
0.0
 47
0.0
 47
0.0208333333333333
 47
0.0
 47
0.0
 47
0.0
 47
0.0
 47
1.0
 47
0.0
 47
0.0
 47
0.0
 47
0.0
 47
1.0
171
     0
 49
0.0208333333333333
 49
0.0
 49
0.0
 49
0.0
 49
0.0
 49
0.0208333333333333
 49
0.0
 49
0.0
 49
0.0
 49
0.0
 49
1.0
 49
0.0
 49
0.0
 49
0.0
 49
0.0
 49
1.0
175
     0
142
0.0208333333333333
142
0.0
142
0.0
142
0.0
142
0.0
142
0.0208333333333333
142
0.0
142
0.0
142
0.0
142
0.0
142
1.0
142
0.0
142
0.0
142
0.0
142
0.0
142
1.0
179
     0
144
0.0208333333333333
144
0.0
144
0.0
144
0.0
144
0.0
144
0.0208333333333333
144
0.0
144
0.0
144
0.0
144
0.0
144
1.0
144
0.0
144
0.0
144
0.0
144
0.0
144
1.0
147
0.0208333333333333
147
0.0
147
0.0
147
0.0
147
0.0
147
0.0208333333333333
147
0.0
147
0.0
147
0.0
147
0.0
147
1.0
147
0.0
147
0.0
147
0.0
147
0.0
147
1.0
  0
MLEADERSTYLE
  5
4217
102
{ACAD_REACTORS
330
4216
102
}
330
4216
100
AcDbMLeaderStyle
170
     2
171
     1
172
     0
 90
        2
 40
0.0
 41
0.0
173
     1
 91
-1056964608
340
12
 92
       -2
290
     1
 42
0.09
291
     1
 43
0.36
  3
Standard
 44
0.18
300

342
F
174
     1
178
     6
175
     1
176
     0
 93
-1056964608
 45
0.18
292
     0
297
     0
 46
0.18
 94
-1056964608
 47
1.0
 49
1.0
140
1.0
293
     1
141
0.0
294
     1
177
     0
142
1.0
295
     0
296
     0
143
0.125
1001
ACAD_MLEADERVER
1070
     2
  0
MLINESTYLE
  5
1C
102
{ACAD_REACTORS
330
1B
102
}
330
1B
100
AcDbMlineStyle
  2
STANDARD
 70
     0
  3

 62
   256
 51
90.0
 52
90.0
 71
     2
 49
0.5
 62
   256
  6
BYLAYER
 49
-0.5
 62
   256
  6
BYLAYER
  0
ACDBPLACEHOLDER
  5
41CE
102
{ACAD_REACTORS
330
41CD
102
}
330
41CD
  0
SCALE
  5
4205
102
{ACAD_REACTORS
330
4204
102
}
330
4204
100
AcDbScale
 70
     0
300
1:1
140
1.0
141
1.0
290
     1
  0
SCALE
  5
4206
102
{ACAD_REACTORS
330
4204
102
}
330
4204
100
AcDbScale
 70
     0
300
1/128" = 1'-0"
140
0.0078125
141
12.0
290
     0
  0
SCALE
  5
4207
102
{ACAD_REACTORS
330
4204
102
}
330
4204
100
AcDbScale
 70
     0
300
1/64" = 1'-0"
140
0.015625
141
12.0
290
     0
  0
SCALE
  5
4208
102
{ACAD_REACTORS
330
4204
102
}
330
4204
100
AcDbScale
 70
     0
300
1/32" = 1'-0"
140
0.03125
141
12.0
290
     0
  0
SCALE
  5
4209
102
{ACAD_REACTORS
330
4204
102
}
330
4204
100
AcDbScale
 70
     0
300
1/16" = 1'-0"
140
0.0625
141
12.0
290
     0
  0
SCALE
  5
420A
102
{ACAD_REACTORS
330
4204
102
}
330
4204
100
AcDbScale
 70
     0
300
3/32" = 1'-0"
140
0.09375
141
12.0
290
     0
  0
SCALE
  5
420B
102
{ACAD_REACTORS
330
4204
102
}
330
4204
100
AcDbScale
 70
     0
300
1/8" = 1'-0"
140
0.125
141
12.0
290
     0
  0
SCALE
  5
420C
102
{ACAD_REACTORS
330
4204
102
}
330
4204
100
AcDbScale
 70
     0
300
3/16" = 1'-0"
140
0.1875
141
12.0
290
     0
  0
SCALE
  5
420D
102
{ACAD_REACTORS
330
4204
102
}
330
4204
100
AcDbScale
 70
     0
300
1/4" = 1'-0"
140
0.25
141
12.0
290
     0
  0
SCALE
  5
420E
102
{ACAD_REACTORS
330
4204
102
}
330
4204
100
AcDbScale
 70
     0
300
3/8" = 1'-0"
140
0.375
141
12.0
290
     0
  0
SCALE
  5
420F
102
{ACAD_REACTORS
330
4204
102
}
330
4204
100
AcDbScale
 70
     0
300
1/2" = 1'-0"
140
0.5
141
12.0
290
     0
  0
SCALE
  5
4210
102
{ACAD_REACTORS
330
4204
102
}
330
4204
100
AcDbScale
 70
     0
300
3/4" = 1'-0"
140
0.75
141
12.0
290
     0
  0
SCALE
  5
4211
102
{ACAD_REACTORS
330
4204
102
}
330
4204
100
AcDbScale
 70
     0
300
1" = 1'-0"
140
1.0
141
12.0
290
     0
  0
SCALE
  5
4212
102
{ACAD_REACTORS
330
4204
102
}
330
4204
100
AcDbScale
 70
     0
300
1-1/2" = 1'-0"
140
1.5
141
12.0
290
     0
  0
SCALE
  5
4213
102
{ACAD_REACTORS
330
4204
102
}
330
4204
100
AcDbScale
 70
     0
300
3" = 1'-0"
140
3.0
141
12.0
290
     0
  0
SCALE
  5
4214
102
{ACAD_REACTORS
330
4204
102
}
330
4204
100
AcDbScale
 70
     0
300
6" = 1'-0"
140
6.0
141
12.0
290
     0
  0
SCALE
  5
4215
102
{ACAD_REACTORS
330
4204
102
}
330
4204
100
AcDbScale
 70
     0
300
1'-0" = 1'-0"
140
12.0
141
12.0
290
     0
  0
ACDBSECTIONVIEWSTYLE
  5
4219
102
{ACAD_XDICTIONARY
360
4273
102
}
102
{ACAD_REACTORS
330
4218
102
}
330
4218
100
AcDbModelDocViewStyle
 70
     0
  3
Imperial24
290
     0
100
AcDbSectionViewStyle
 70
     0
 71
     0
 90
       78
 71
     1
340
F
 40
0.24
340
0
340
0
 40
0.24
300
I, O, Q, S, X, Z
 40
0.48
 90
        3
 40
0.18
 90
        1
 71
     2
340
14
 90
       25
340
14
 90
       50
 40
0.24
 40
0.0
 40
0.24
 71
     3
340
F
 40
0.24
 90
        1
 40
0.75
 90
        1
300
%<\AcVar ViewType \f "%tc1">% %<\AcVar ViewSectionStartId>%-%<\AcVar ViewSectionEndId>%\PSCALE %<\AcVar ViewScale \f "%sn">%
 71
     4
300
ANSI31
 40
1.0
 90
        0
290
     0
290
     0
 90
        6
 40
0.0
 40
1.570796326794896
 40
0.2617993877991494
 40
1.308996938995747
 40
-0.2617993877991494
 40
1.832595714594046
  0
TABLESTYLE
  5
4203
102
{ACAD_XDICTIONARY
360
423A
102
}
102
{ACAD_REACTORS
330
4202
102
}
330
4202
100
AcDbTableStyle
  3
Standard
 70
     0
 71
     0
 40
0.06
 41
0.06
280
     0
281
     0
  7
STANDARD
140
0.18
170
     2
 62
     0
 63
     7
283
     0
274
    -2
284
     1
 64
     0
275
    -2
285
     1
 65
     0
276
    -2
286
     1
 66
     0
277
    -2
287
     1
 67
     0
278
    -2
288
     1
 68
     0
279
    -2
289
     1
 69
     0
  7
STANDARD
140
0.25
170
     5
 62
     0
 63
     7
283
     0
274
    -2
284
     1
 64
     0
275
    -2
285
     1
 65
     0
276
    -2
286
     1
 66
     0
277
    -2
287
     1
 67
     0
278
    -2
288
     1
 68
     0
279
    -2
289
     1
 69
     0
  7
STANDARD
140
0.18
170
     5
 62
     0
 63
     7
283
     0
274
    -2
284
     1
 64
     0
275
    -2
285
     1
 65
     0
276
    -2
286
     1
 66
     0
277
    -2
287
     1
 67
     0
278
    -2
288
     1
 68
     0
279
    -2
289
     1
 69
     0
  0
VISUALSTYLE
  5
41EE
102
{ACAD_XDICTIONARY
360
424B
102
}
102
{ACAD_REACTORS
330
41E8
102
}
330
41E8
100
AcDbVisualStyle
  2
2dWireframe
 70
     4
 71
     0
 72
     2
 73
     0
 90
        0
 40
-0.6
 41
-30.0
 62
     5
 63
     7
 74
     1
 91
        4
 64
     7
 65
   257
 75
     1
175
     1
 42
1.0
 92
        0
 66
   257
 43
1.0
 76
     1
 77
     6
 78
     2
 67
     7
 79
     5
170
     0
171
     0
290
     0
174
     0
 93
        1
 44
0.0
173
     0
291
     0
 45
0.0
1001
ACAD
1000
AcDbSavedByObjectVersion
1070
     0
  0
VISUALSTYLE
  5
41ED
102
{ACAD_XDICTIONARY
360
4249
102
}
102
{ACAD_REACTORS
330
41E8
102
}
330
41E8
100
AcDbVisualStyle
  2
Basic
 70
     7
 71
     1
 72
     0
 73
     1
 90
        0
 40
-0.6
 41
-30.0
 62
     5
 63
     7
 74
     0
 91
        4
 64
     7
 65
   257
 75
     1
175
     1
 42
1.0
 92
        8
 66
     7
 43
1.0
 76
     1
 77
     6
 78
     2
 67
     7
 79
     5
170
     0
171
     0
290
     0
174
     0
 93
        1
 44
0.0
173
     0
291
     1
 45
0.0
1001
ACAD
1000
AcDbSavedByObjectVersion
1070
     0
  0
VISUALSTYLE
  5
41F4
102
{ACAD_XDICTIONARY
360
4257
102
}
102
{ACAD_REACTORS
330
41E8
102
}
330
41E8
100
AcDbVisualStyle
  2
Brighten
 70
    12
 71
     2
 72
     2
 73
     0
 90
        0
 40
-0.6
 41
-30.0
 62
     5
 63
     7
 74
     1
 91
        4
 64
     7
 65
   257
 75
     1
175
     1
 42
1.0
 92
        8
 66
     7
 43
1.0
 76
     1
 77
     6
 78
     2
 67
     7
 79
     5
170
     0
171
     0
290
     0
174
     0
 93
        1
 44
50.0
173
     0
291
     1
 45
0.0
1001
ACAD
1000
AcDbSavedByObjectVersion
1070
     0
  0
VISUALSTYLE
  5
41F8
102
{ACAD_XDICTIONARY
360
425F
102
}
102
{ACAD_REACTORS
330
41E8
102
}
330
41E8
100
AcDbVisualStyle
  2
ColorChange
 70
    16
 71
     2
 72
     2
 73
     3
 90
        0
 40
-0.6
 41
-30.0
 62
     5
 63
     8
 74
     1
 91
        4
 64
     7
 65
   257
 75
     1
175
     1
 42
1.0
 92
        8
 66
     8
 43
1.0
 76
     1
 77
     6
 78
     2
 67
     7
 79
     5
170
     0
171
     0
290
     0
174
     0
 93
        1
 44
0.0
173
     0
291
     1
 45
0.0
1001
ACAD
1000
AcDbSavedByObjectVersion
1070
     0
  0
VISUALSTYLE
  5
41F1
102
{ACAD_XDICTIONARY
360
4251
102
}
102
{ACAD_REACTORS
330
41E8
102
}
330
41E8
100
AcDbVisualStyle
  2
Conceptual
 70
     9
 71
     3
 72
     2
 73
     0
 90
        0
 40
-0.6
 41
-30.0
 62
     5
 63
     7
 74
     2
 91
        2
 64
     7
 65
   257
 75
     1
175
     1
 42
179.0
 92
        8
 66
     7
 43
1.0
 76
     1
 77
     6
 78
     2
 67
     7
 79
     3
170
     0
171
     0
290
     0
174
     0
 93
        1
 44
0.0
173
     0
291
     0
 45
0.0
1001
ACAD
1000
AcDbSavedByObjectVersion
1070
     0
  0
VISUALSTYLE
  5
41F3
102
{ACAD_XDICTIONARY
360
4255
102
}
102
{ACAD_REACTORS
330
41E8
102
}
330
41E8
100
AcDbVisualStyle
  2
Dim
 70
    11
 71
     2
 72
     2
 73
     0
 90
        0
 40
-0.6
 41
-30.0
 62
     5
 63
     7
 74
     1
 91
        4
 64
     7
 65
   257
 75
     1
175
     1
 42
1.0
 92
        8
 66
     7
 43
1.0
 76
     1
 77
     6
 78
     2
 67
     7
 79
     5
170
     0
171
     0
290
     0
174
     0
 93
        1
 44
-50.0
173
     0
291
     1
 45
0.0
1001
ACAD
1000
AcDbSavedByObjectVersion
1070
     0
  0
VISUALSTYLE
  5
4200
102
{ACAD_XDICTIONARY
360
426F
102
}
102
{ACAD_REACTORS
330
41E8
102
}
330
41E8
100
AcDbVisualStyle
  2
EdgeColorOff
 70
    22
 71
     2
 72
     2
 73
     0
 90
        0
 40
-0.6
 41
-30.0
 62
     5
 63
     7
 74
     1
 91
        4
 64
     7
 65
   257
 75
     1
175
     1
 42
1.0
 92
        8
 66
     7
 43
1.0
 76
     1
 77
     6
 78
     2
 67
     7
 79
     5
170
     0
171
     0
290
     0
174
     0
 93
        1
 44
0.0
173
     0
291
     1
 45
0.0
1001
ACAD
1000
AcDbSavedByObjectVersion
1070
     0
  0
VISUALSTYLE
  5
41F7
102
{ACAD_XDICTIONARY
360
425D
102
}
102
{ACAD_REACTORS
330
41E8
102
}
330
41E8
100
AcDbVisualStyle
  2
Facepattern
 70
    15
 71
     2
 72
     2
 73
     0
 90
        0
 40
-0.6
 41
-30.0
 62
     5
 63
     7
 74
     1
 91
        4
 64
     7
 65
   257
 75
     1
175
     1
 42
1.0
 92
        8
 66
     7
 43
1.0
 76
     1
 77
     6
 78
     2
 67
     7
 79
     5
170
     0
171
     0
290
     0
174
     0
 93
        1
 44
0.0
173
     0
291
     1
 45
0.0
1001
ACAD
1000
AcDbSavedByObjectVersion
1070
     0
  0
VISUALSTYLE
  5
41E9
102
{ACAD_XDICTIONARY
360
4241
102
}
102
{ACAD_REACTORS
330
41E8
102
}
330
41E8
100
AcDbVisualStyle
  2
Flat
 70
     0
 71
     2
 72
     1
 73
     1
 90
        2
 40
-0.6
 41
30.0
 62
     5
 63
     7
 74
     0
 91
        0
 64
     7
 65
   257
 75
     1
175
     1
 42
1.0
 92
        8
 66
     7
 43
1.0
 76
     1
 77
     6
 78
     2
 67
     7
 79
     5
170
     0
171
     0
290
     0
174
     0
 93
       13
 44
0.0
173
     0
291
     1
 45
0.0
1001
ACAD
1000
AcDbSavedByObjectVersion
1070
     0
  0
VISUALSTYLE
  5
41EA
102
{ACAD_XDICTIONARY
360
4243
102
}
102
{ACAD_REACTORS
330
41E8
102
}
330
41E8
100
AcDbVisualStyle
  2
FlatWithEdges
 70
     1
 71
     2
 72
     1
 73
     1
 90
        2
 40
-0.6
 41
30.0
 62
     5
 63
     7
 74
     1
 91
        0
 64
     7
 65
   257
 75
     1
175
     1
 42
1.0
 92
        0
 66
   257
 43
1.0
 76
     1
 77
     6
 78
     2
 67
     7
 79
     5
170
     0
171
     0
290
     0
174
     0
 93
       13
 44
0.0
173
     0
291
     1
 45
0.0
1001
ACAD
1000
AcDbSavedByObjectVersion
1070
     0
  0
VISUALSTYLE
  5
41EB
102
{ACAD_XDICTIONARY
360
4245
102
}
102
{ACAD_REACTORS
330
41E8
102
}
330
41E8
100
AcDbVisualStyle
  2
Gouraud
 70
     2
 71
     2
 72
     2
 73
     1
 90
        2
 40
-0.6
 41
30.0
 62
     5
 63
     7
 74
     0
 91
        0
 64
     7
 65
   257
 75
     1
175
     1
 42
1.0
 92
        0
 66
     7
 43
1.0
 76
     1
 77
     6
 78
     2
 67
     7
 79
     5
170
     0
171
     0
290
     0
174
     0
 93
       13
 44
0.0
173
     0
291
     1
 45
0.0
1001
ACAD
1000
AcDbSavedByObjectVersion
1070
     0
  0
VISUALSTYLE
  5
41EC
102
{ACAD_XDICTIONARY
360
4247
102
}
102
{ACAD_REACTORS
330
41E8
102
}
330
41E8
100
AcDbVisualStyle
  2
GouraudWithEdges
 70
     3
 71
     2
 72
     2
 73
     1
 90
        2
 40
-0.6
 41
30.0
 62
     5
 63
     7
 74
     1
 91
        0
 64
     7
 65
   257
 75
     1
175
     1
 42
1.0
 92
        0
 66
   257
 43
1.0
 76
     1
 77
     6
 78
     2
 67
     7
 79
     5
170
     0
171
     0
290
     0
174
     0
 93
       13
 44
0.0
173
     0
291
     1
 45
0.0
1001
ACAD
1000
AcDbSavedByObjectVersion
1070
     0
  0
VISUALSTYLE
  5
41F0
102
{ACAD_XDICTIONARY
360
424F
102
}
102
{ACAD_REACTORS
330
41E8
102
}
330
41E8
100
AcDbVisualStyle
  2
Hidden
 70
     6
 71
     1
 72
     2
 73
     2
 90
        0
 40
-0.6
 41
-30.0
 62
     5
 63
     7
 74
     2
 91
        2
 64
     7
 65
   257
 75
     2
175
     1
 42
40.0
 92
        0
 66
   257
 43
1.0
 76
     1
 77
     6
 78
     2
 67
     7
 79
     3
170
     0
171
     0
290
     0
174
     0
 93
        1
 44
0.0
173
     0
291
     0
 45
0.0
1001
ACAD
1000
AcDbSavedByObjectVersion
1070
     0
  0
VISUALSTYLE
  5
41FE
102
{ACAD_XDICTIONARY
360
426B
102
}
102
{ACAD_REACTORS
330
41E8
102
}
330
41E8
100
AcDbVisualStyle
  2
JitterOff
 70
    20
 71
     2
 72
     2
 73
     0
 90
        0
 40
-0.6
 41
-30.0
 62
     5
 63
     7
 74
     1
 91
        4
 64
     7
 65
   257
 75
     1
175
     1
 42
1.0
 92
       10
 66
     7
 43
1.0
 76
     1
 77
     6
 78
     2
 67
     7
 79
     5
170
     0
171
     0
290
     0
174
     0
 93
        1
 44
0.0
173
     0
291
     1
 45
0.0
1001
ACAD
1000
AcDbSavedByObjectVersion
1070
     0
  0
VISUALSTYLE
  5
41F6
102
{ACAD_XDICTIONARY
360
425B
102
}
102
{ACAD_REACTORS
330
41E8
102
}
330
41E8
100
AcDbVisualStyle
  2
Linepattern
 70
    14
 71
     2
 72
     2
 73
     0
 90
        0
 40
-0.6
 41
-30.0
 62
     5
 63
     7
 74
     1
 91
        4
 64
     7
 65
   257
 75
     7
175
     7
 42
1.0
 92
        8
 66
     7
 43
1.0
 76
     1
 77
     6
 78
     2
 67
     7
 79
     5
170
     0
171
     0
290
     0
174
     0
 93
        1
 44
0.0
173
     0
291
     1
 45
0.0
1001
ACAD
1000
AcDbSavedByObjectVersion
1070
     0
  0
VISUALSTYLE
  5
41FF
102
{ACAD_XDICTIONARY
360
426D
102
}
102
{ACAD_REACTORS
330
41E8
102
}
330
41E8
100
AcDbVisualStyle
  2
OverhangOff
 70
    21
 71
     2
 72
     2
 73
     0
 90
        0
 40
-0.6
 41
-30.0
 62
     5
 63
     7
 74
     1
 91
        4
 64
     7
 65
   257
 75
     1
175
     1
 42
1.0
 92
        9
 66
     7
 43
1.0
 76
     1
 77
     6
 78
     2
 67
     7
 79
     5
170
     0
171
     0
290
     0
174
     0
 93
        1
 44
0.0
173
     0
291
     1
 45
0.0
1001
ACAD
1000
AcDbSavedByObjectVersion
1070
     0
  0
VISUALSTYLE
  5
41F2
102
{ACAD_XDICTIONARY
360
4253
102
}
102
{ACAD_REACTORS
330
41E8
102
}
330
41E8
100
AcDbVisualStyle
  2
Realistic
 70
     8
 71
     2
 72
     3
 73
     0
 90
        2
 40
-0.6
 41
30.0
 62
     5
 63
     7
 74
     0
 91
        0
 64
     7
 65
   257
 75
     1
175
     1
 42
1.0
 92
        8
 66
   257
 43
1.0
 76
     1
 77
     6
 78
     2
 67
     7
 79
     3
170
     0
171
     0
290
     0
174
     0
 93
       13
 44
0.0
173
     0
291
     0
 45
0.0
1001
ACAD
1000
AcDbSavedByObjectVersion
1070
     0
  0
VISUALSTYLE
  5
41FD
102
{ACAD_XDICTIONARY
360
4269
102
}
102
{ACAD_REACTORS
330
41E8
102
}
330
41E8
100
AcDbVisualStyle
  2
Shaded
 70
    27
 71
     2
 72
     2
 73
     1
 90
        2
 40
-0.6
 41
30.0
 62
     5
 63
     7
 74
     0
 91
        4
 64
     7
 65
   257
 75
     1
175
     1
 42
1.0
 92
        8
 66
   257
 43
1.0
 76
     1
 77
     6
 78
     2
 67
     8
 79
     3
170
     0
171
     0
290
     0
174
     0
 93
        5
 44
0.0
173
     0
291
     0
 45
0.0
1001
ACAD
1000
AcDbSavedByObjectVersion
1070
     0
  0
VISUALSTYLE
  5
41FC
102
{ACAD_XDICTIONARY
360
4267
102
}
102
{ACAD_REACTORS
330
41E8
102
}
330
41E8
100
AcDbVisualStyle
  2
Shaded with edges
 70
    26
 71
     2
 72
     2
 73
     1
 90
        2
 40
-0.6
 41
30.0
 62
     5
 63
     7
 74
     1
 91
       10
 64
     7
 65
   257
 75
     2
175
     1
 42
1.0
 92
        8
 66
   257
 43
1.0
 76
     1
 77
     6
 78
     2
 67
     7
 79
     3
170
     0
171
     0
290
     0
174
     0
 93
        5
 44
0.0
173
     0
291
     0
 45
0.0
1001
ACAD
1000
AcDbSavedByObjectVersion
1070
     0
  0
VISUALSTYLE
  5
41F9
102
{ACAD_XDICTIONARY
360
4261
102
}
102
{ACAD_REACTORS
330
41E8
102
}
330
41E8
100
AcDbVisualStyle
  2
Shades of Gray
 70
    23
 71
     2
 72
     2
 73
     3
 90
        0
 40
-0.6
 41
-30.0
 62
     5
 63
     7
 74
     2
 91
        2
 64
     7
 65
     7
 75
     1
175
     1
 42
40.0
 92
        8
 66
     7
 43
1.0
 76
     1
 77
     6
 78
     2
 67
     7
 79
     3
170
     0
171
     0
290
     0
174
     0
 93
        1
 44
0.0
173
     0
291
     0
 45
0.0
1001
ACAD
1000
AcDbSavedByObjectVersion
1070
     0
  0
VISUALSTYLE
  5
41FA
102
{ACAD_XDICTIONARY
360
4263
102
}
102
{ACAD_REACTORS
330
41E8
102
}
330
41E8
100
AcDbVisualStyle
  2
Sketchy
 70
    24
 71
     1
 72
     2
 73
     2
 90
        0
 40
-0.6
 41
-30.0
 62
     5
 63
     7
 74
     2
 91
        2
 64
     7
 65
     7
 75
     1
175
     1
 42
40.0
 92
       11
 66
     7
 43
1.0
 76
     1
 77
     6
 78
     2
 67
     7
 79
     6
170
     0
171
     0
290
     0
174
     0
 93
        1
 44
0.0
173
     0
291
     0
 45
0.0
1001
ACAD
1000
AcDbSavedByObjectVersion
1070
     0
  0
VISUALSTYLE
  5
41F5
102
{ACAD_XDICTIONARY
360
4259
102
}
102
{ACAD_REACTORS
330
41E8
102
}
330
41E8
100
AcDbVisualStyle
  2
Thicken
 70
    13
 71
     2
 72
     2
 73
     0
 90
        0
 40
-0.6
 41
-30.0
 62
     5
 63
     7
 74
     1
 91
        4
 64
     7
 65
   257
 75
     1
175
     1
 42
1.0
 92
       12
 66
     7
 43
1.0
 76
     1
 77
     6
 78
     2
 67
     7
 79
     5
170
     0
171
     0
290
     0
174
     0
 93
        1
 44
0.0
173
     0
291
     1
 45
0.0
1001
ACAD
1000
AcDbSavedByObjectVersion
1070
     0
  0
VISUALSTYLE
  5
41EF
102
{ACAD_XDICTIONARY
360
424D
102
}
102
{ACAD_REACTORS
330
41E8
102
}
330
41E8
100
AcDbVisualStyle
  2
Wireframe
 70
     5
 71
     0
 72
     2
 73
     0
 90
        0
 40
-0.6
 41
-30.0
 62
     5
 63
     7
 74
     1
 91
        4
 64
     7
 65
   257
 75
     1
175
     1
 42
1.0
 92
        0
 66
   257
 43
1.0
 76
     1
 77
     6
 78
     2
 67
     7
 79
     3
170
     0
171
     0
290
     0
174
     0
 93
        1
 44
0.0
173
     0
291
     0
 45
0.0
1001
ACAD
1000
AcDbSavedByObjectVersion
1070
     0
  0
VISUALSTYLE
  5
41FB
102
{ACAD_XDICTIONARY
360
4265
102
}
102
{ACAD_REACTORS
330
41E8
102
}
330
41E8
100
AcDbVisualStyle
  2
X-Ray
 70
    25
 71
     2
 72
     2
 73
     1
 90
        1
 40
0.5
 41
-30.0
 62
     5
 63
     7
 74
     1
 91
        0
 64
     7
 65
   257
 75
     1
175
     1
 42
1.0
 92
        8
 66
     7
 43
1.0
 76
     1
 77
     6
 78
     2
 67
     7
 79
     3
170
     0
171
     0
290
     0
174
     0
 93
       13
 44
0.0
173
     0
291
     0
 45
0.0
1001
ACAD
1000
AcDbSavedByObjectVersion
1070
     0
  0
DICTIONARYVAR
  5
4234
102
{ACAD_REACTORS
330
422F
102
}
330
422F
100
DictionaryVariables
280
     0
  1
1:1
  0
DICTIONARYVAR
  5
4231
102
{ACAD_REACTORS
330
422F
102
}
330
422F
100
DictionaryVariables
280
     0
  1
STANDARD
  0
DICTIONARYVAR
  5
4230
102
{ACAD_REACTORS
330
422F
102
}
330
422F
100
DictionaryVariables
280
     0
  1
STANDARD
  0
DICTIONARYVAR
  5
4232
102
{ACAD_REACTORS
330
422F
102
}
330
422F
100
DictionaryVariables
280
     0
  1
Imperial24
  0
DICTIONARYVAR
  5
4233
102
{ACAD_REACTORS
330
422F
102
}
330
422F
100
DictionaryVariables
280
     0
  1
Imperial24
  0
DICTIONARYVAR
  5
4237
102
{ACAD_REACTORS
330
422F
102
}
330
422F
100
DictionaryVariables
280
     0
  1
1
  0
DICTIONARYVAR
  5
4236
102
{ACAD_REACTORS
330
422F
102
}
330
422F
100
DictionaryVariables
280
     0
  1
0
  0
DICTIONARYVAR
  5
4235
102
{ACAD_REACTORS
330
422F
102
}
330
422F
100
DictionaryVariables
280
     0
  1
127
  0
DICTIONARYVAR
  5
4238
102
{ACAD_REACTORS
330
422F
102
}
330
422F
100
DictionaryVariables
280
     0
  1
2
  0
DICTIONARY
  5
4275
330
421B
100
AcDbDictionary
280
     1
281
     1
  3
ACAD_XREC_ROUNDTRIP
360
4276
  0
DICTIONARY
  5
4277
330
421C
100
AcDbDictionary
280
     1
281
     1
  3
ACAD_XREC_ROUNDTRIP
360
4278
  0
DICTIONARY
  5
4279
330
421D
100
AcDbDictionary
280
     1
281
     1
  3
ACAD_XREC_ROUNDTRIP
360
427A
  0
DICTIONARY
  5
41D9
330
41D8
100
AcDbDictionary
280
     1
281
     1
  3
ACAD_XREC_ROUNDTRIP
360
423F
  3
BUMPTILE
360
41DB
  3
DIFFUSETILE
360
41DA
  3
OPACITYTILE
360
41DE
  3
REFLECTIONTILE
360
41DD
  3
REFRACTIONTILE
360
41DF
  3
SPECULARTILE
360
41DC
  0
DICTIONARY
  5
41D1
330
41D0
100
AcDbDictionary
280
     1
281
     1
  3
ACAD_XREC_ROUNDTRIP
360
423E
  3
BUMPTILE
360
41D3
  3
DIFFUSETILE
360
41D2
  3
OPACITYTILE
360
41D6
  3
REFLECTIONTILE
360
41D5
  3
REFRACTIONTILE
360
41D7
  3
SPECULARTILE
360
41D4
  0
DICTIONARY
  5
41E1
330
41E0
100
AcDbDictionary
280
     1
281
     1
  3
ACAD_XREC_ROUNDTRIP
360
4240
  3
BUMPTILE
360
41E3
  3
DIFFUSETILE
360
41E2
  3
OPACITYTILE
360
41E6
  3
REFLECTIONTILE
360
41E5
  3
REFRACTIONTILE
360
41E7
  3
SPECULARTILE
360
41E4
  0
DICTIONARY
  5
4273
330
4219
100
AcDbDictionary
280
     1
281
     1
  3
ACAD_XREC_ROUNDTRIP
360
4274
  0
DICTIONARY
  5
423A
330
4203
100
AcDbDictionary
280
     1
281
     1
  3
ACAD_ROUNDTRIP_2008_TABLESTYLE_CELLSTYLEMAP
360
423B
  3
ACAD_XREC_ROUNDTRIP
360
4271
  0
DICTIONARY
  5
424B
330
41EE
100
AcDbDictionary
280
     1
281
     1
  3
ACAD_XREC_ROUNDTRIP
360
424C
  0
DICTIONARY
  5
4249
330
41ED
100
AcDbDictionary
280
     1
281
     1
  3
ACAD_XREC_ROUNDTRIP
360
424A
  0
DICTIONARY
  5
4257
330
41F4
100
AcDbDictionary
280
     1
281
     1
  3
ACAD_XREC_ROUNDTRIP
360
4258
  0
DICTIONARY
  5
425F
330
41F8
100
AcDbDictionary
280
     1
281
     1
  3
ACAD_XREC_ROUNDTRIP
360
4260
  0
DICTIONARY
  5
4251
330
41F1
100
AcDbDictionary
280
     1
281
     1
  3
ACAD_XREC_ROUNDTRIP
360
4252
  0
DICTIONARY
  5
4255
330
41F3
100
AcDbDictionary
280
     1
281
     1
  3
ACAD_XREC_ROUNDTRIP
360
4256
  0
DICTIONARY
  5
426F
330
4200
100
AcDbDictionary
280
     1
281
     1
  3
ACAD_XREC_ROUNDTRIP
360
4270
  0
DICTIONARY
  5
425D
330
41F7
100
AcDbDictionary
280
     1
281
     1
  3
ACAD_XREC_ROUNDTRIP
360
425E
  0
DICTIONARY
  5
4241
330
41E9
100
AcDbDictionary
280
     1
281
     1
  3
ACAD_XREC_ROUNDTRIP
360
4242
  0
DICTIONARY
  5
4243
330
41EA
100
AcDbDictionary
280
     1
281
     1
  3
ACAD_XREC_ROUNDTRIP
360
4244
  0
DICTIONARY
  5
4245
330
41EB
100
AcDbDictionary
280
     1
281
     1
  3
ACAD_XREC_ROUNDTRIP
360
4246
  0
DICTIONARY
  5
4247
330
41EC
100
AcDbDictionary
280
     1
281
     1
  3
ACAD_XREC_ROUNDTRIP
360
4248
  0
DICTIONARY
  5
424F
330
41F0
100
AcDbDictionary
280
     1
281
     1
  3
ACAD_XREC_ROUNDTRIP
360
4250
  0
DICTIONARY
  5
426B
330
41FE
100
AcDbDictionary
280
     1
281
     1
  3
ACAD_XREC_ROUNDTRIP
360
426C
  0
DICTIONARY
  5
425B
330
41F6
100
AcDbDictionary
280
     1
281
     1
  3
ACAD_XREC_ROUNDTRIP
360
425C
  0
DICTIONARY
  5
426D
330
41FF
100
AcDbDictionary
280
     1
281
     1
  3
ACAD_XREC_ROUNDTRIP
360
426E
  0
DICTIONARY
  5
4253
330
41F2
100
AcDbDictionary
280
     1
281
     1
  3
ACAD_XREC_ROUNDTRIP
360
4254
  0
DICTIONARY
  5
4269
330
41FD
100
AcDbDictionary
280
     1
281
     1
  3
ACAD_XREC_ROUNDTRIP
360
426A
  0
DICTIONARY
  5
4267
330
41FC
100
AcDbDictionary
280
     1
281
     1
  3
ACAD_XREC_ROUNDTRIP
360
4268
  0
DICTIONARY
  5
4261
330
41F9
100
AcDbDictionary
280
     1
281
     1
  3
ACAD_XREC_ROUNDTRIP
360
4262
  0
DICTIONARY
  5
4263
330
41FA
100
AcDbDictionary
280
     1
281
     1
  3
ACAD_XREC_ROUNDTRIP
360
4264
  0
DICTIONARY
  5
4259
330
41F5
100
AcDbDictionary
280
     1
281
     1
  3
ACAD_XREC_ROUNDTRIP
360
425A
  0
DICTIONARY
  5
424D
330
41EF
100
AcDbDictionary
280
     1
281
     1
  3
ACAD_XREC_ROUNDTRIP
360
424E
  0
DICTIONARY
  5
4265
330
41FB
100
AcDbDictionary
280
     1
281
     1
  3
ACAD_XREC_ROUNDTRIP
360
4266
  0
XRECORD
  5
4276
102
{ACAD_REACTORS
330
4275
102
}
330
4275
100
AcDbXrecord
280
     1
102
DISPLAYNAME
  1
Imperial24
102
FLAGS
 90
        0
  0
XRECORD
  5
4278
102
{ACAD_REACTORS
330
4277
102
}
330
4277
100
AcDbXrecord
280
     1
102
SHADEPLOT
 70
     0
102
SHADEPLOTRESLEVEL
 70
     2
102
SHADEPLOTCUSTOMDPI
 70
   300
  0
XRECORD
  5
427A
102
{ACAD_REACTORS
330
4279
102
}
330
4279
100
AcDbXrecord
280
     1
102
SHADEPLOT
 70
     0
102
SHADEPLOTRESLEVEL
 70
     2
102
SHADEPLOTCUSTOMDPI
 70
   300
  0
XRECORD
  5
423F
102
{ACAD_REACTORS
330
41D9
102
}
330
41D9
100
AcDbXrecord
280
     1
102
MATERIAL
148
0.0
149
0.0
149
0.0
 93
        0
 94
      127
282
     0
 72
     0
 77
     0
171
     0
175
     0
179
     0
273
     0
  0
XRECORD
  5
41DB
102
{ACAD_REACTORS
330
41D9
102
}
330
41D9
100
AcDbXrecord
280
     1
270
     1
271
     1
  0
XRECORD
  5
41DA
102
{ACAD_REACTORS
330
41D9
102
}
330
41D9
100
AcDbXrecord
280
     1
270
     1
271
     1
  0
XRECORD
  5
41DE
102
{ACAD_REACTORS
330
41D9
102
}
330
41D9
100
AcDbXrecord
280
     1
270
     1
271
     1
  0
XRECORD
  5
41DD
102
{ACAD_REACTORS
330
41D9
102
}
330
41D9
100
AcDbXrecord
280
     1
270
     1
271
     1
  0
XRECORD
  5
41DF
102
{ACAD_REACTORS
330
41D9
102
}
330
41D9
100
AcDbXrecord
280
     1
270
     1
271
     1
  0
XRECORD
  5
41DC
102
{ACAD_REACTORS
330
41D9
102
}
330
41D9
100
AcDbXrecord
280
     1
270
     1
271
     1
  0
XRECORD
  5
423E
102
{ACAD_REACTORS
330
41D1
102
}
330
41D1
100
AcDbXrecord
280
     1
102
MATERIAL
148
0.0
149
0.0
149
0.0
 93
        0
 94
      127
282
     0
 72
     0
 77
     0
171
     0
175
     0
179
     0
273
     0
  0
XRECORD
  5
41D3
102
{ACAD_REACTORS
330
41D1
102
}
330
41D1
100
AcDbXrecord
280
     1
270
     1
271
     1
  0
XRECORD
  5
41D2
102
{ACAD_REACTORS
330
41D1
102
}
330
41D1
100
AcDbXrecord
280
     1
270
     1
271
     1
  0
XRECORD
  5
41D6
102
{ACAD_REACTORS
330
41D1
102
}
330
41D1
100
AcDbXrecord
280
     1
270
     1
271
     1
  0
XRECORD
  5
41D5
102
{ACAD_REACTORS
330
41D1
102
}
330
41D1
100
AcDbXrecord
280
     1
270
     1
271
     1
  0
XRECORD
  5
41D7
102
{ACAD_REACTORS
330
41D1
102
}
330
41D1
100
AcDbXrecord
280
     1
270
     1
271
     1
  0
XRECORD
  5
41D4
102
{ACAD_REACTORS
330
41D1
102
}
330
41D1
100
AcDbXrecord
280
     1
270
     1
271
     1
  0
XRECORD
  5
4240
102
{ACAD_REACTORS
330
41E1
102
}
330
41E1
100
AcDbXrecord
280
     1
102
MATERIAL
148
0.0
149
0.0
149
0.0
 93
        0
 94
      127
282
     0
 72
     0
 77
     0
171
     0
175
     0
179
     0
273
     0
  0
XRECORD
  5
41E3
102
{ACAD_REACTORS
330
41E1
102
}
330
41E1
100
AcDbXrecord
280
     1
270
     1
271
     1
  0
XRECORD
  5
41E2
102
{ACAD_REACTORS
330
41E1
102
}
330
41E1
100
AcDbXrecord
280
     1
270
     1
271
     1
  0
XRECORD
  5
41E6
102
{ACAD_REACTORS
330
41E1
102
}
330
41E1
100
AcDbXrecord
280
     1
270
     1
271
     1
  0
XRECORD
  5
41E5
102
{ACAD_REACTORS
330
41E1
102
}
330
41E1
100
AcDbXrecord
280
     1
270
     1
271
     1
  0
XRECORD
  5
41E7
102
{ACAD_REACTORS
330
41E1
102
}
330
41E1
100
AcDbXrecord
280
     1
270
     1
271
     1
  0
XRECORD
  5
41E4
102
{ACAD_REACTORS
330
41E1
102
}
330
41E1
100
AcDbXrecord
280
     1
270
     1
271
     1
  0
XRECORD
  5
4274
102
{ACAD_REACTORS
330
4273
102
}
330
4273
100
AcDbXrecord
280
     1
102
DISPLAYNAME
  1
Imperial24
102
FLAGS
 90
        0
  0
CELLSTYLEMAP
  5
423B
102
{ACAD_REACTORS
330
423A
102
}
330
423A
100
AcDbCellStyleMap
 90
        3
300
CELLSTYLE
  1
TABLEFORMAT_BEGIN
 90
        5
170
     1
 91
        0
 92
    32768
 62
   257
 93
        1
300
CONTENTFORMAT
  1
CONTENTFORMAT_BEGIN
 90
        0
 91
        0
 92
      512
 93
        0
300

 40
0.0
140
1.0
 94
        5
 62
     0
340
F
144
0.25
309
CONTENTFORMAT_END
171
     0
 94
        0
309
TABLEFORMAT_END
  1
CELLSTYLE_BEGIN
 90
        1
 91
        1
300
_TITLE
309
CELLSTYLE_END
300
CELLSTYLE
  1
TABLEFORMAT_BEGIN
 90
        5
170
     1
 91
        0
 92
        0
 62
   257
 93
        1
300
CONTENTFORMAT
  1
CONTENTFORMAT_BEGIN
 90
        0
 91
        0
 92
      512
 93
        0
300

 40
0.0
140
1.0
 94
        5
 62
     0
340
F
144
0.18
309
CONTENTFORMAT_END
171
     0
 94
        0
309
TABLEFORMAT_END
  1
CELLSTYLE_BEGIN
 90
        2
 91
        1
300
_HEADER
309
CELLSTYLE_END
300
CELLSTYLE
  1
TABLEFORMAT_BEGIN
 90
        5
170
     1
 91
        0
 92
        0
 62
   257
 93
        1
300
CONTENTFORMAT
  1
CONTENTFORMAT_BEGIN
 90
        0
 91
        0
 92
      512
 93
        0
300

 40
0.0
140
1.0
 94
        2
 62
     0
340
F
144
0.18
309
CONTENTFORMAT_END
171
     0
 94
        0
309
TABLEFORMAT_END
  1
CELLSTYLE_BEGIN
 90
        3
 91
        2
300
_DATA
309
CELLSTYLE_END
  0
XRECORD
  5
4271
102
{ACAD_REACTORS
330
423A
102
}
330
423A
100
AcDbXrecord
280
     1
102
ACAD_ROUNDTRIP_PRE2007_TABLESTYLE
 90
      512
 91
        0
  1

 92
      512
 93
        0
  2

 94
      512
 95
        0
  3

  0
XRECORD
  5
424C
102
{ACAD_REACTORS
330
424B
102
}
330
424B
100
AcDbXrecord
280
     1
102
RTVSPost2010Prop28
280
     1
102
RTVSPost2010PropOp28
 70
     1
102
RTVSPost2010Prop29
280
     1
102
RTVSPost2010PropOp29
 70
     1
102
RTVSPost2010Prop30
280
     0
102
RTVSPost2010PropOp30
 70
     1
102
RTVSPost2010Prop31
280
     0
102
RTVSPost2010PropOp31
 70
     1
102
RTVSPost2010Prop32
280
     0
102
RTVSPost2010PropOp32
 70
     1
102
RTVSPost2010Prop33
280
     0
102
RTVSPost2010PropOp33
 70
     1
102
RTVSPost2010Prop34
280
     0
102
RTVSPost2010PropOp34
 70
     1
102
RTVSPost2010Prop35
280
     0
102
RTVSPost2010PropOp35
 70
     1
102
RTVSPost2010Prop36
280
     0
102
RTVSPost2010PropOp36
 70
     1
102
RTVSPost2010Prop37
 90
       50
102
RTVSPost2010PropOp37
 70
     1
102
RTVSPost2010Prop38
140
0.0
102
RTVSPost2010PropOp38
 70
     1
102
RTVSPost2010Prop39
140
1.0
102
RTVSPost2010PropOp39
 70
     1
102
RTVSPost2010Prop40
 90
        0
102
RTVSPost2010PropOp40
 70
     1
102
RTVSPost2010Prop41ColorIndex
 90
       18
102
RTVSPost2010Prop41ColorRGB
 90
        0
102
RTVSPost2010PropOp41
 70
     1
102
RTVSPost2010Prop42
 90
       50
102
RTVSPost2010PropOp42
 70
     1
102
RTVSPost2010Prop43
 90
        3
102
RTVSPost2010PropOp43
 70
     1
102
RTVSPost2010Prop44ColorIndex
 90
        5
102
RTVSPost2010Prop44ColorRGB
 90
      255
102
RTVSPost2010PropOp44
 70
     1
102
RTVSPost2010Prop45
280
     0
102
RTVSPost2010PropOp45
 70
     1
102
RTVSPost2010Prop46
 90
       50
102
RTVSPost2010PropOp46
 70
     1
102
RTVSPost2010Prop47
 90
       50
102
RTVSPost2010PropOp47
 70
     1
102
RTVSPost2010Prop48
 90
       50
102
RTVSPost2010PropOp48
 70
     1
102
RTVSPost2010Prop49
280
     0
102
RTVSPost2010PropOp49
 70
     1
102
RTVSPost2010Prop50
 90
       50
102
RTVSPost2010PropOp50
 70
     1
102
RTVSPost2010Prop51ColorIndex
 90
      256
102
RTVSPost2010Prop51ColorRGB
 90
-16777216
102
RTVSPost2010PropOp51
 70
     0
102
RTVSPost2010Prop52
140
1.0
102
RTVSPost2010PropOp52
 70
     0
102
RTVSPost2010Prop53
 90
        2
102
RTVSPost2010PropOp53
 70
     1
102
RTVSPost2010Prop54
  1
strokes_ogs.tif
102
RTVSPost2010PropOp54
 70
     1
102
RTVSPost2010Prop55
280
     0
102
RTVSPost2010PropOp55
 70
     1
102
RTVSPost2010Prop56
140
1.0
102
RTVSPost2010PropOp56
 70
     1
102
RTVSPost2010Prop57
140
1.0
102
RTVSPost2010PropOp57
 70
     1
102
RTVSPropertyOp0
 70
     1
102
RTVSPropertyOp1
 70
     1
102
RTVSPropertyOp2
 70
     1
102
RTVSPropertyOp3
 70
     1
102
RTVSPropertyOp4
 70
     1
102
RTVSPropertyOp5
 70
     1
102
RTVSPropertyOp6
 70
     1
102
RTVSPropertyOp7
 70
     1
102
RTVSPropertyOp8
 70
     1
102
RTVSPropertyOp9
 70
     1
102
RTVSPropertyOp10
 70
     1
102
RTVSPropertyOp11
 70
     1
102
RTVSPropertyOp12
 70
     1
102
RTVSPropertyOp13
 70
     1
102
RTVSPropertyOp14
 70
     1
102
RTVSPropertyOp15
 70
     1
102
RTVSPropertyOp16
 70
     1
102
RTVSPropertyOp17
 70
     1
102
RTVSPropertyOp18
 70
     1
102
RTVSPropertyOp19
 70
     1
102
RTVSPropertyOp20
 70
     1
102
RTVSPropertyOp21
 70
     1
102
RTVSPropertyOp22
 70
     1
102
RTVSPropertyOp23
 70
     1
102
RTVSPropertyOp24
 70
     1
102
RTVSPropertyOp25
 70
     1
102
RTVSPropertyOp26
 70
     1
102
RTVSPropertyOp27
 70
     1
102
RTVSPropertyOp28
 70
     1
102
RTVSPropertyOp29
 70
     1
102
RTVSPropertyOp30
 70
     1
102
RTVSPropertyOp31
 70
     1
102
RTVSPropertyOp32
 70
     1
102
RTVSPropertyOp33
 70
     1
102
RTVSPropertyOp34
 70
     1
102
RTVSPropertyOp35
 70
     1
102
RTVSPropertyOp36
 70
     1
102
RTVSPropertyOp37
 70
     1
102
RTVSPropertyOp38
 70
     1
102
RTVSPropertyOp39
 70
     1
102
RTVSPropertyOp40
 70
     1
102
RTVSPropertyOp41
 70
     1
102
RTVSPropertyOp42
 70
     1
102
RTVSPropertyOp43
 70
     1
102
RTVSPropertyOp44
 70
     1
102
RTVSPropertyOp45
 70
     1
102
RTVSPropertyOp46
 70
     1
102
RTVSPropertyOp47
 70
     1
102
RTVSPropertyOp48
 70
     1
102
RTVSPropertyOp49
 70
     1
102
RTVSPropertyOp50
 70
     1
102
RTVSPropertyOp51
 70
     0
102
RTVSPropertyOp52
 70
     0
102
RTVSPropertyOp53
 70
     1
102
RTVSPropertyOp54
 70
     1
102
RTVSPropertyOp55
 70
     1
102
RTVSPropertyOp56
 70
     1
102
RTVSPropertyOp57
 70
     1
102
RTVSPropertyOp58
 70
     1
102
RTVSPropertyOp59
 70
     1
102
RTVSPropertyOp60
 70
     1
102
RTVSPropertyOp61
 70
     1
102
RTVSPropertyOp62
 70
     1
  0
XRECORD
  5
424A
102
{ACAD_REACTORS
330
4249
102
}
330
4249
100
AcDbXrecord
280
     1
102
RTVSPost2010Prop28
280
     0
102
RTVSPost2010PropOp28
 70
     1
102
RTVSPost2010Prop29
280
     1
102
RTVSPost2010PropOp29
 70
     1
102
RTVSPost2010Prop30
280
     1
102
RTVSPost2010PropOp30
 70
     1
102
RTVSPost2010Prop31
280
     0
102
RTVSPost2010PropOp31
 70
     1
102
RTVSPost2010Prop32
280
     0
102
RTVSPost2010PropOp32
 70
     1
102
RTVSPost2010Prop33
280
     0
102
RTVSPost2010PropOp33
 70
     1
102
RTVSPost2010Prop34
280
     0
102
RTVSPost2010PropOp34
 70
     1
102
RTVSPost2010Prop35
280
     0
102
RTVSPost2010PropOp35
 70
     1
102
RTVSPost2010Prop36
280
     0
102
RTVSPost2010PropOp36
 70
     1
102
RTVSPost2010Prop37
 90
       50
102
RTVSPost2010PropOp37
 70
     1
102
RTVSPost2010Prop38
140
0.0
102
RTVSPost2010PropOp38
 70
     1
102
RTVSPost2010Prop39
140
1.0
102
RTVSPost2010PropOp39
 70
     1
102
RTVSPost2010Prop40
 90
        0
102
RTVSPost2010PropOp40
 70
     1
102
RTVSPost2010Prop41ColorIndex
 90
       18
102
RTVSPost2010Prop41ColorRGB
 90
        0
102
RTVSPost2010PropOp41
 70
     1
102
RTVSPost2010Prop42
 90
       50
102
RTVSPost2010PropOp42
 70
     1
102
RTVSPost2010Prop43
 90
        3
102
RTVSPost2010PropOp43
 70
     1
102
RTVSPost2010Prop44ColorIndex
 90
        5
102
RTVSPost2010Prop44ColorRGB
 90
      255
102
RTVSPost2010PropOp44
 70
     1
102
RTVSPost2010Prop45
280
     0
102
RTVSPost2010PropOp45
 70
     1
102
RTVSPost2010Prop46
 90
       50
102
RTVSPost2010PropOp46
 70
     1
102
RTVSPost2010Prop47
 90
       50
102
RTVSPost2010PropOp47
 70
     1
102
RTVSPost2010Prop48
 90
       50
102
RTVSPost2010PropOp48
 70
     1
102
RTVSPost2010Prop49
280
     0
102
RTVSPost2010PropOp49
 70
     1
102
RTVSPost2010Prop50
 90
       50
102
RTVSPost2010PropOp50
 70
     1
102
RTVSPost2010Prop51ColorIndex
 90
      256
102
RTVSPost2010Prop51ColorRGB
 90
-16777216
102
RTVSPost2010PropOp51
 70
     0
102
RTVSPost2010Prop52
140
1.0
102
RTVSPost2010PropOp52
 70
     0
102
RTVSPost2010Prop53
 90
        2
102
RTVSPost2010PropOp53
 70
     1
102
RTVSPost2010Prop54
  1
strokes_ogs.tif
102
RTVSPost2010PropOp54
 70
     1
102
RTVSPost2010Prop55
280
     0
102
RTVSPost2010PropOp55
 70
     1
102
RTVSPost2010Prop56
140
1.0
102
RTVSPost2010PropOp56
 70
     1
102
RTVSPost2010Prop57
140
1.0
102
RTVSPost2010PropOp57
 70
     1
102
RTVSPropertyOp0
 70
     1
102
RTVSPropertyOp1
 70
     1
102
RTVSPropertyOp2
 70
     1
102
RTVSPropertyOp3
 70
     1
102
RTVSPropertyOp4
 70
     1
102
RTVSPropertyOp5
 70
     1
102
RTVSPropertyOp6
 70
     1
102
RTVSPropertyOp7
 70
     1
102
RTVSPropertyOp8
 70
     1
102
RTVSPropertyOp9
 70
     1
102
RTVSPropertyOp10
 70
     1
102
RTVSPropertyOp11
 70
     1
102
RTVSPropertyOp12
 70
     1
102
RTVSPropertyOp13
 70
     1
102
RTVSPropertyOp14
 70
     1
102
RTVSPropertyOp15
 70
     1
102
RTVSPropertyOp16
 70
     1
102
RTVSPropertyOp17
 70
     1
102
RTVSPropertyOp18
 70
     1
102
RTVSPropertyOp19
 70
     1
102
RTVSPropertyOp20
 70
     1
102
RTVSPropertyOp21
 70
     1
102
RTVSPropertyOp22
 70
     1
102
RTVSPropertyOp23
 70
     1
102
RTVSPropertyOp24
 70
     1
102
RTVSPropertyOp25
 70
     1
102
RTVSPropertyOp26
 70
     1
102
RTVSPropertyOp27
 70
     1
102
RTVSPropertyOp28
 70
     1
102
RTVSPropertyOp29
 70
     1
102
RTVSPropertyOp30
 70
     1
102
RTVSPropertyOp31
 70
     1
102
RTVSPropertyOp32
 70
     1
102
RTVSPropertyOp33
 70
     1
102
RTVSPropertyOp34
 70
     1
102
RTVSPropertyOp35
 70
     1
102
RTVSPropertyOp36
 70
     1
102
RTVSPropertyOp37
 70
     1
102
RTVSPropertyOp38
 70
     1
102
RTVSPropertyOp39
 70
     1
102
RTVSPropertyOp40
 70
     1
102
RTVSPropertyOp41
 70
     1
102
RTVSPropertyOp42
 70
     1
102
RTVSPropertyOp43
 70
     1
102
RTVSPropertyOp44
 70
     1
102
RTVSPropertyOp45
 70
     1
102
RTVSPropertyOp46
 70
     1
102
RTVSPropertyOp47
 70
     1
102
RTVSPropertyOp48
 70
     1
102
RTVSPropertyOp49
 70
     1
102
RTVSPropertyOp50
 70
     1
102
RTVSPropertyOp51
 70
     0
102
RTVSPropertyOp52
 70
     0
102
RTVSPropertyOp53
 70
     1
102
RTVSPropertyOp54
 70
     1
102
RTVSPropertyOp55
 70
     1
102
RTVSPropertyOp56
 70
     1
102
RTVSPropertyOp57
 70
     1
102
RTVSPropertyOp58
 70
     1
102
RTVSPropertyOp59
 70
     1
102
RTVSPropertyOp60
 70
     1
102
RTVSPropertyOp61
 70
     1
102
RTVSPropertyOp62
 70
     1
  0
XRECORD
  5
4258
102
{ACAD_REACTORS
330
4257
102
}
330
4257
100
AcDbXrecord
280
     1
102
RTVSPost2010Prop28
280
     0
102
RTVSPost2010PropOp28
 70
     1
102
RTVSPost2010Prop29
280
     1
102
RTVSPost2010PropOp29
 70
     1
102
RTVSPost2010Prop30
280
     1
102
RTVSPost2010PropOp30
 70
     1
102
RTVSPost2010Prop31
280
     0
102
RTVSPost2010PropOp31
 70
     1
102
RTVSPost2010Prop32
280
     0
102
RTVSPost2010PropOp32
 70
     1
102
RTVSPost2010Prop33
280
     0
102
RTVSPost2010PropOp33
 70
     1
102
RTVSPost2010Prop34
280
     0
102
RTVSPost2010PropOp34
 70
     1
102
RTVSPost2010Prop35
280
     0
102
RTVSPost2010PropOp35
 70
     1
102
RTVSPost2010Prop36
280
     0
102
RTVSPost2010PropOp36
 70
     1
102
RTVSPost2010Prop37
 90
       50
102
RTVSPost2010PropOp37
 70
     1
102
RTVSPost2010Prop38
140
0.0
102
RTVSPost2010PropOp38
 70
     1
102
RTVSPost2010Prop39
140
1.0
102
RTVSPost2010PropOp39
 70
     1
102
RTVSPost2010Prop40
 90
        0
102
RTVSPost2010PropOp40
 70
     1
102
RTVSPost2010Prop41ColorIndex
 90
       18
102
RTVSPost2010Prop41ColorRGB
 90
        0
102
RTVSPost2010PropOp41
 70
     1
102
RTVSPost2010Prop42
 90
       50
102
RTVSPost2010PropOp42
 70
     1
102
RTVSPost2010Prop43
 90
        3
102
RTVSPost2010PropOp43
 70
     1
102
RTVSPost2010Prop44ColorIndex
 90
        5
102
RTVSPost2010Prop44ColorRGB
 90
      255
102
RTVSPost2010PropOp44
 70
     1
102
RTVSPost2010Prop45
280
     0
102
RTVSPost2010PropOp45
 70
     1
102
RTVSPost2010Prop46
 90
       50
102
RTVSPost2010PropOp46
 70
     1
102
RTVSPost2010Prop47
 90
       50
102
RTVSPost2010PropOp47
 70
     1
102
RTVSPost2010Prop48
 90
       50
102
RTVSPost2010PropOp48
 70
     1
102
RTVSPost2010Prop49
280
     0
102
RTVSPost2010PropOp49
 70
     1
102
RTVSPost2010Prop50
 90
       50
102
RTVSPost2010PropOp50
 70
     1
102
RTVSPost2010Prop51ColorIndex
 90
      256
102
RTVSPost2010Prop51ColorRGB
 90
-16777216
102
RTVSPost2010PropOp51
 70
     0
102
RTVSPost2010Prop52
140
1.0
102
RTVSPost2010PropOp52
 70
     0
102
RTVSPost2010Prop53
 90
        2
102
RTVSPost2010PropOp53
 70
     1
102
RTVSPost2010Prop54
  1
strokes_ogs.tif
102
RTVSPost2010PropOp54
 70
     1
102
RTVSPost2010Prop55
280
     0
102
RTVSPost2010PropOp55
 70
     1
102
RTVSPost2010Prop56
140
1.0
102
RTVSPost2010PropOp56
 70
     1
102
RTVSPost2010Prop57
140
1.0
102
RTVSPost2010PropOp57
 70
     1
102
RTVSPropertyOp0
 70
     1
102
RTVSPropertyOp1
 70
     1
102
RTVSPropertyOp2
 70
     1
102
RTVSPropertyOp3
 70
     1
102
RTVSPropertyOp4
 70
     1
102
RTVSPropertyOp5
 70
     1
102
RTVSPropertyOp6
 70
     1
102
RTVSPropertyOp7
 70
     1
102
RTVSPropertyOp8
 70
     1
102
RTVSPropertyOp9
 70
     1
102
RTVSPropertyOp10
 70
     1
102
RTVSPropertyOp11
 70
     1
102
RTVSPropertyOp12
 70
     1
102
RTVSPropertyOp13
 70
     1
102
RTVSPropertyOp14
 70
     1
102
RTVSPropertyOp15
 70
     1
102
RTVSPropertyOp16
 70
     1
102
RTVSPropertyOp17
 70
     1
102
RTVSPropertyOp18
 70
     1
102
RTVSPropertyOp19
 70
     1
102
RTVSPropertyOp20
 70
     1
102
RTVSPropertyOp21
 70
     1
102
RTVSPropertyOp22
 70
     1
102
RTVSPropertyOp23
 70
     1
102
RTVSPropertyOp24
 70
     1
102
RTVSPropertyOp25
 70
     1
102
RTVSPropertyOp26
 70
     1
102
RTVSPropertyOp27
 70
     1
102
RTVSPropertyOp28
 70
     1
102
RTVSPropertyOp29
 70
     1
102
RTVSPropertyOp30
 70
     1
102
RTVSPropertyOp31
 70
     1
102
RTVSPropertyOp32
 70
     1
102
RTVSPropertyOp33
 70
     1
102
RTVSPropertyOp34
 70
     1
102
RTVSPropertyOp35
 70
     1
102
RTVSPropertyOp36
 70
     1
102
RTVSPropertyOp37
 70
     1
102
RTVSPropertyOp38
 70
     1
102
RTVSPropertyOp39
 70
     1
102
RTVSPropertyOp40
 70
     1
102
RTVSPropertyOp41
 70
     1
102
RTVSPropertyOp42
 70
     1
102
RTVSPropertyOp43
 70
     1
102
RTVSPropertyOp44
 70
     1
102
RTVSPropertyOp45
 70
     1
102
RTVSPropertyOp46
 70
     1
102
RTVSPropertyOp47
 70
     1
102
RTVSPropertyOp48
 70
     1
102
RTVSPropertyOp49
 70
     1
102
RTVSPropertyOp50
 70
     1
102
RTVSPropertyOp51
 70
     0
102
RTVSPropertyOp52
 70
     0
102
RTVSPropertyOp53
 70
     1
102
RTVSPropertyOp54
 70
     1
102
RTVSPropertyOp55
 70
     1
102
RTVSPropertyOp56
 70
     1
102
RTVSPropertyOp57
 70
     1
102
RTVSPropertyOp58
 70
     1
102
RTVSPropertyOp59
 70
     1
102
RTVSPropertyOp60
 70
     1
102
RTVSPropertyOp61
 70
     1
102
RTVSPropertyOp62
 70
     1
  0
XRECORD
  5
4260
102
{ACAD_REACTORS
330
425F
102
}
330
425F
100
AcDbXrecord
280
     1
102
RTVSPost2010Prop28
280
     0
102
RTVSPost2010PropOp28
 70
     1
102
RTVSPost2010Prop29
280
     1
102
RTVSPost2010PropOp29
 70
     1
102
RTVSPost2010Prop30
280
     1
102
RTVSPost2010PropOp30
 70
     1
102
RTVSPost2010Prop31
280
     0
102
RTVSPost2010PropOp31
 70
     1
102
RTVSPost2010Prop32
280
     0
102
RTVSPost2010PropOp32
 70
     1
102
RTVSPost2010Prop33
280
     0
102
RTVSPost2010PropOp33
 70
     1
102
RTVSPost2010Prop34
280
     0
102
RTVSPost2010PropOp34
 70
     1
102
RTVSPost2010Prop35
280
     0
102
RTVSPost2010PropOp35
 70
     1
102
RTVSPost2010Prop36
280
     0
102
RTVSPost2010PropOp36
 70
     1
102
RTVSPost2010Prop37
 90
       50
102
RTVSPost2010PropOp37
 70
     1
102
RTVSPost2010Prop38
140
0.0
102
RTVSPost2010PropOp38
 70
     1
102
RTVSPost2010Prop39
140
1.0
102
RTVSPost2010PropOp39
 70
     1
102
RTVSPost2010Prop40
 90
        0
102
RTVSPost2010PropOp40
 70
     1
102
RTVSPost2010Prop41ColorIndex
 90
       18
102
RTVSPost2010Prop41ColorRGB
 90
        0
102
RTVSPost2010PropOp41
 70
     1
102
RTVSPost2010Prop42
 90
       50
102
RTVSPost2010PropOp42
 70
     1
102
RTVSPost2010Prop43
 90
        3
102
RTVSPost2010PropOp43
 70
     1
102
RTVSPost2010Prop44ColorIndex
 90
        5
102
RTVSPost2010Prop44ColorRGB
 90
      255
102
RTVSPost2010PropOp44
 70
     1
102
RTVSPost2010Prop45
280
     0
102
RTVSPost2010PropOp45
 70
     1
102
RTVSPost2010Prop46
 90
       50
102
RTVSPost2010PropOp46
 70
     1
102
RTVSPost2010Prop47
 90
       50
102
RTVSPost2010PropOp47
 70
     1
102
RTVSPost2010Prop48
 90
       50
102
RTVSPost2010PropOp48
 70
     1
102
RTVSPost2010Prop49
280
     0
102
RTVSPost2010PropOp49
 70
     1
102
RTVSPost2010Prop50
 90
       50
102
RTVSPost2010PropOp50
 70
     1
102
RTVSPost2010Prop51ColorIndex
 90
      256
102
RTVSPost2010Prop51ColorRGB
 90
-16777216
102
RTVSPost2010PropOp51
 70
     0
102
RTVSPost2010Prop52
140
1.0
102
RTVSPost2010PropOp52
 70
     0
102
RTVSPost2010Prop53
 90
        2
102
RTVSPost2010PropOp53
 70
     1
102
RTVSPost2010Prop54
  1
strokes_ogs.tif
102
RTVSPost2010PropOp54
 70
     1
102
RTVSPost2010Prop55
280
     0
102
RTVSPost2010PropOp55
 70
     1
102
RTVSPost2010Prop56
140
1.0
102
RTVSPost2010PropOp56
 70
     1
102
RTVSPost2010Prop57
140
1.0
102
RTVSPost2010PropOp57
 70
     1
102
RTVSPropertyOp0
 70
     1
102
RTVSPropertyOp1
 70
     1
102
RTVSPropertyOp2
 70
     1
102
RTVSPropertyOp3
 70
     1
102
RTVSPropertyOp4
 70
     1
102
RTVSPropertyOp5
 70
     1
102
RTVSPropertyOp6
 70
     1
102
RTVSPropertyOp7
 70
     1
102
RTVSPropertyOp8
 70
     1
102
RTVSPropertyOp9
 70
     1
102
RTVSPropertyOp10
 70
     1
102
RTVSPropertyOp11
 70
     1
102
RTVSPropertyOp12
 70
     1
102
RTVSPropertyOp13
 70
     1
102
RTVSPropertyOp14
 70
     1
102
RTVSPropertyOp15
 70
     1
102
RTVSPropertyOp16
 70
     1
102
RTVSPropertyOp17
 70
     1
102
RTVSPropertyOp18
 70
     1
102
RTVSPropertyOp19
 70
     1
102
RTVSPropertyOp20
 70
     1
102
RTVSPropertyOp21
 70
     1
102
RTVSPropertyOp22
 70
     1
102
RTVSPropertyOp23
 70
     1
102
RTVSPropertyOp24
 70
     1
102
RTVSPropertyOp25
 70
     1
102
RTVSPropertyOp26
 70
     1
102
RTVSPropertyOp27
 70
     1
102
RTVSPropertyOp28
 70
     1
102
RTVSPropertyOp29
 70
     1
102
RTVSPropertyOp30
 70
     1
102
RTVSPropertyOp31
 70
     1
102
RTVSPropertyOp32
 70
     1
102
RTVSPropertyOp33
 70
     1
102
RTVSPropertyOp34
 70
     1
102
RTVSPropertyOp35
 70
     1
102
RTVSPropertyOp36
 70
     1
102
RTVSPropertyOp37
 70
     1
102
RTVSPropertyOp38
 70
     1
102
RTVSPropertyOp39
 70
     1
102
RTVSPropertyOp40
 70
     1
102
RTVSPropertyOp41
 70
     1
102
RTVSPropertyOp42
 70
     1
102
RTVSPropertyOp43
 70
     1
102
RTVSPropertyOp44
 70
     1
102
RTVSPropertyOp45
 70
     1
102
RTVSPropertyOp46
 70
     1
102
RTVSPropertyOp47
 70
     1
102
RTVSPropertyOp48
 70
     1
102
RTVSPropertyOp49
 70
     1
102
RTVSPropertyOp50
 70
     1
102
RTVSPropertyOp51
 70
     0
102
RTVSPropertyOp52
 70
     0
102
RTVSPropertyOp53
 70
     1
102
RTVSPropertyOp54
 70
     1
102
RTVSPropertyOp55
 70
     1
102
RTVSPropertyOp56
 70
     1
102
RTVSPropertyOp57
 70
     1
102
RTVSPropertyOp58
 70
     1
102
RTVSPropertyOp59
 70
     1
102
RTVSPropertyOp60
 70
     1
102
RTVSPropertyOp61
 70
     1
102
RTVSPropertyOp62
 70
     1
  0
XRECORD
  5
4252
102
{ACAD_REACTORS
330
4251
102
}
330
4251
100
AcDbXrecord
280
     1
102
RTVSPost2010Prop28
280
     0
102
RTVSPost2010PropOp28
 70
     1
102
RTVSPost2010Prop29
280
     1
102
RTVSPost2010PropOp29
 70
     1
102
RTVSPost2010Prop30
280
     1
102
RTVSPost2010PropOp30
 70
     1
102
RTVSPost2010Prop31
280
     0
102
RTVSPost2010PropOp31
 70
     1
102
RTVSPost2010Prop32
280
     0
102
RTVSPost2010PropOp32
 70
     1
102
RTVSPost2010Prop33
280
     0
102
RTVSPost2010PropOp33
 70
     1
102
RTVSPost2010Prop34
280
     0
102
RTVSPost2010PropOp34
 70
     1
102
RTVSPost2010Prop35
280
     0
102
RTVSPost2010PropOp35
 70
     1
102
RTVSPost2010Prop36
280
     0
102
RTVSPost2010PropOp36
 70
     1
102
RTVSPost2010Prop37
 90
       50
102
RTVSPost2010PropOp37
 70
     1
102
RTVSPost2010Prop38
140
0.0
102
RTVSPost2010PropOp38
 70
     1
102
RTVSPost2010Prop39
140
1.0
102
RTVSPost2010PropOp39
 70
     1
102
RTVSPost2010Prop40
 90
        0
102
RTVSPost2010PropOp40
 70
     1
102
RTVSPost2010Prop41ColorIndex
 90
       18
102
RTVSPost2010Prop41ColorRGB
 90
        0
102
RTVSPost2010PropOp41
 70
     1
102
RTVSPost2010Prop42
 90
       50
102
RTVSPost2010PropOp42
 70
     1
102
RTVSPost2010Prop43
 90
        3
102
RTVSPost2010PropOp43
 70
     1
102
RTVSPost2010Prop44ColorIndex
 90
        5
102
RTVSPost2010Prop44ColorRGB
 90
      255
102
RTVSPost2010PropOp44
 70
     1
102
RTVSPost2010Prop45
280
     0
102
RTVSPost2010PropOp45
 70
     1
102
RTVSPost2010Prop46
 90
       50
102
RTVSPost2010PropOp46
 70
     1
102
RTVSPost2010Prop47
 90
       50
102
RTVSPost2010PropOp47
 70
     1
102
RTVSPost2010Prop48
 90
       50
102
RTVSPost2010PropOp48
 70
     1
102
RTVSPost2010Prop49
280
     0
102
RTVSPost2010PropOp49
 70
     1
102
RTVSPost2010Prop50
 90
       50
102
RTVSPost2010PropOp50
 70
     1
102
RTVSPost2010Prop51ColorIndex
 90
      256
102
RTVSPost2010Prop51ColorRGB
 90
-16777216
102
RTVSPost2010PropOp51
 70
     0
102
RTVSPost2010Prop52
140
1.0
102
RTVSPost2010PropOp52
 70
     0
102
RTVSPost2010Prop53
 90
        2
102
RTVSPost2010PropOp53
 70
     1
102
RTVSPost2010Prop54
  1
strokes_ogs.tif
102
RTVSPost2010PropOp54
 70
     1
102
RTVSPost2010Prop55
280
     0
102
RTVSPost2010PropOp55
 70
     1
102
RTVSPost2010Prop56
140
1.0
102
RTVSPost2010PropOp56
 70
     1
102
RTVSPost2010Prop57
140
1.0
102
RTVSPost2010PropOp57
 70
     1
102
RTVSPropertyOp0
 70
     1
102
RTVSPropertyOp1
 70
     1
102
RTVSPropertyOp2
 70
     1
102
RTVSPropertyOp3
 70
     1
102
RTVSPropertyOp4
 70
     1
102
RTVSPropertyOp5
 70
     1
102
RTVSPropertyOp6
 70
     1
102
RTVSPropertyOp7
 70
     1
102
RTVSPropertyOp8
 70
     1
102
RTVSPropertyOp9
 70
     1
102
RTVSPropertyOp10
 70
     1
102
RTVSPropertyOp11
 70
     1
102
RTVSPropertyOp12
 70
     1
102
RTVSPropertyOp13
 70
     1
102
RTVSPropertyOp14
 70
     1
102
RTVSPropertyOp15
 70
     1
102
RTVSPropertyOp16
 70
     1
102
RTVSPropertyOp17
 70
     1
102
RTVSPropertyOp18
 70
     1
102
RTVSPropertyOp19
 70
     1
102
RTVSPropertyOp20
 70
     1
102
RTVSPropertyOp21
 70
     1
102
RTVSPropertyOp22
 70
     1
102
RTVSPropertyOp23
 70
     1
102
RTVSPropertyOp24
 70
     1
102
RTVSPropertyOp25
 70
     1
102
RTVSPropertyOp26
 70
     1
102
RTVSPropertyOp27
 70
     1
102
RTVSPropertyOp28
 70
     1
102
RTVSPropertyOp29
 70
     1
102
RTVSPropertyOp30
 70
     1
102
RTVSPropertyOp31
 70
     1
102
RTVSPropertyOp32
 70
     1
102
RTVSPropertyOp33
 70
     1
102
RTVSPropertyOp34
 70
     1
102
RTVSPropertyOp35
 70
     1
102
RTVSPropertyOp36
 70
     1
102
RTVSPropertyOp37
 70
     1
102
RTVSPropertyOp38
 70
     1
102
RTVSPropertyOp39
 70
     1
102
RTVSPropertyOp40
 70
     1
102
RTVSPropertyOp41
 70
     1
102
RTVSPropertyOp42
 70
     1
102
RTVSPropertyOp43
 70
     1
102
RTVSPropertyOp44
 70
     1
102
RTVSPropertyOp45
 70
     1
102
RTVSPropertyOp46
 70
     1
102
RTVSPropertyOp47
 70
     1
102
RTVSPropertyOp48
 70
     1
102
RTVSPropertyOp49
 70
     1
102
RTVSPropertyOp50
 70
     1
102
RTVSPropertyOp51
 70
     0
102
RTVSPropertyOp52
 70
     0
102
RTVSPropertyOp53
 70
     1
102
RTVSPropertyOp54
 70
     1
102
RTVSPropertyOp55
 70
     1
102
RTVSPropertyOp56
 70
     1
102
RTVSPropertyOp57
 70
     1
102
RTVSPropertyOp58
 70
     1
102
RTVSPropertyOp59
 70
     1
102
RTVSPropertyOp60
 70
     1
102
RTVSPropertyOp61
 70
     1
102
RTVSPropertyOp62
 70
     1
  0
XRECORD
  5
4256
102
{ACAD_REACTORS
330
4255
102
}
330
4255
100
AcDbXrecord
280
     1
102
RTVSPost2010Prop28
280
     0
102
RTVSPost2010PropOp28
 70
     1
102
RTVSPost2010Prop29
280
     1
102
RTVSPost2010PropOp29
 70
     1
102
RTVSPost2010Prop30
280
     1
102
RTVSPost2010PropOp30
 70
     1
102
RTVSPost2010Prop31
280
     0
102
RTVSPost2010PropOp31
 70
     1
102
RTVSPost2010Prop32
280
     0
102
RTVSPost2010PropOp32
 70
     1
102
RTVSPost2010Prop33
280
     0
102
RTVSPost2010PropOp33
 70
     1
102
RTVSPost2010Prop34
280
     0
102
RTVSPost2010PropOp34
 70
     1
102
RTVSPost2010Prop35
280
     0
102
RTVSPost2010PropOp35
 70
     1
102
RTVSPost2010Prop36
280
     0
102
RTVSPost2010PropOp36
 70
     1
102
RTVSPost2010Prop37
 90
       50
102
RTVSPost2010PropOp37
 70
     1
102
RTVSPost2010Prop38
140
0.0
102
RTVSPost2010PropOp38
 70
     1
102
RTVSPost2010Prop39
140
1.0
102
RTVSPost2010PropOp39
 70
     1
102
RTVSPost2010Prop40
 90
        0
102
RTVSPost2010PropOp40
 70
     1
102
RTVSPost2010Prop41ColorIndex
 90
       18
102
RTVSPost2010Prop41ColorRGB
 90
        0
102
RTVSPost2010PropOp41
 70
     1
102
RTVSPost2010Prop42
 90
       50
102
RTVSPost2010PropOp42
 70
     1
102
RTVSPost2010Prop43
 90
        3
102
RTVSPost2010PropOp43
 70
     1
102
RTVSPost2010Prop44ColorIndex
 90
        5
102
RTVSPost2010Prop44ColorRGB
 90
      255
102
RTVSPost2010PropOp44
 70
     1
102
RTVSPost2010Prop45
280
     0
102
RTVSPost2010PropOp45
 70
     1
102
RTVSPost2010Prop46
 90
       50
102
RTVSPost2010PropOp46
 70
     1
102
RTVSPost2010Prop47
 90
       50
102
RTVSPost2010PropOp47
 70
     1
102
RTVSPost2010Prop48
 90
       50
102
RTVSPost2010PropOp48
 70
     1
102
RTVSPost2010Prop49
280
     0
102
RTVSPost2010PropOp49
 70
     1
102
RTVSPost2010Prop50
 90
       50
102
RTVSPost2010PropOp50
 70
     1
102
RTVSPost2010Prop51ColorIndex
 90
      256
102
RTVSPost2010Prop51ColorRGB
 90
-16777216
102
RTVSPost2010PropOp51
 70
     0
102
RTVSPost2010Prop52
140
1.0
102
RTVSPost2010PropOp52
 70
     0
102
RTVSPost2010Prop53
 90
        2
102
RTVSPost2010PropOp53
 70
     1
102
RTVSPost2010Prop54
  1
strokes_ogs.tif
102
RTVSPost2010PropOp54
 70
     1
102
RTVSPost2010Prop55
280
     0
102
RTVSPost2010PropOp55
 70
     1
102
RTVSPost2010Prop56
140
1.0
102
RTVSPost2010PropOp56
 70
     1
102
RTVSPost2010Prop57
140
1.0
102
RTVSPost2010PropOp57
 70
     1
102
RTVSPropertyOp0
 70
     1
102
RTVSPropertyOp1
 70
     1
102
RTVSPropertyOp2
 70
     1
102
RTVSPropertyOp3
 70
     1
102
RTVSPropertyOp4
 70
     1
102
RTVSPropertyOp5
 70
     1
102
RTVSPropertyOp6
 70
     1
102
RTVSPropertyOp7
 70
     1
102
RTVSPropertyOp8
 70
     1
102
RTVSPropertyOp9
 70
     1
102
RTVSPropertyOp10
 70
     1
102
RTVSPropertyOp11
 70
     1
102
RTVSPropertyOp12
 70
     1
102
RTVSPropertyOp13
 70
     1
102
RTVSPropertyOp14
 70
     1
102
RTVSPropertyOp15
 70
     1
102
RTVSPropertyOp16
 70
     1
102
RTVSPropertyOp17
 70
     1
102
RTVSPropertyOp18
 70
     1
102
RTVSPropertyOp19
 70
     1
102
RTVSPropertyOp20
 70
     1
102
RTVSPropertyOp21
 70
     1
102
RTVSPropertyOp22
 70
     1
102
RTVSPropertyOp23
 70
     1
102
RTVSPropertyOp24
 70
     1
102
RTVSPropertyOp25
 70
     1
102
RTVSPropertyOp26
 70
     1
102
RTVSPropertyOp27
 70
     1
102
RTVSPropertyOp28
 70
     1
102
RTVSPropertyOp29
 70
     1
102
RTVSPropertyOp30
 70
     1
102
RTVSPropertyOp31
 70
     1
102
RTVSPropertyOp32
 70
     1
102
RTVSPropertyOp33
 70
     1
102
RTVSPropertyOp34
 70
     1
102
RTVSPropertyOp35
 70
     1
102
RTVSPropertyOp36
 70
     1
102
RTVSPropertyOp37
 70
     1
102
RTVSPropertyOp38
 70
     1
102
RTVSPropertyOp39
 70
     1
102
RTVSPropertyOp40
 70
     1
102
RTVSPropertyOp41
 70
     1
102
RTVSPropertyOp42
 70
     1
102
RTVSPropertyOp43
 70
     1
102
RTVSPropertyOp44
 70
     1
102
RTVSPropertyOp45
 70
     1
102
RTVSPropertyOp46
 70
     1
102
RTVSPropertyOp47
 70
     1
102
RTVSPropertyOp48
 70
     1
102
RTVSPropertyOp49
 70
     1
102
RTVSPropertyOp50
 70
     1
102
RTVSPropertyOp51
 70
     0
102
RTVSPropertyOp52
 70
     0
102
RTVSPropertyOp53
 70
     1
102
RTVSPropertyOp54
 70
     1
102
RTVSPropertyOp55
 70
     1
102
RTVSPropertyOp56
 70
     1
102
RTVSPropertyOp57
 70
     1
102
RTVSPropertyOp58
 70
     1
102
RTVSPropertyOp59
 70
     1
102
RTVSPropertyOp60
 70
     1
102
RTVSPropertyOp61
 70
     1
102
RTVSPropertyOp62
 70
     1
  0
XRECORD
  5
4270
102
{ACAD_REACTORS
330
426F
102
}
330
426F
100
AcDbXrecord
280
     1
102
RTVSPost2010Prop28
280
     0
102
RTVSPost2010PropOp28
 70
     1
102
RTVSPost2010Prop29
280
     1
102
RTVSPost2010PropOp29
 70
     1
102
RTVSPost2010Prop30
280
     1
102
RTVSPost2010PropOp30
 70
     1
102
RTVSPost2010Prop31
280
     0
102
RTVSPost2010PropOp31
 70
     1
102
RTVSPost2010Prop32
280
     0
102
RTVSPost2010PropOp32
 70
     1
102
RTVSPost2010Prop33
280
     0
102
RTVSPost2010PropOp33
 70
     1
102
RTVSPost2010Prop34
280
     0
102
RTVSPost2010PropOp34
 70
     1
102
RTVSPost2010Prop35
280
     0
102
RTVSPost2010PropOp35
 70
     1
102
RTVSPost2010Prop36
280
     0
102
RTVSPost2010PropOp36
 70
     1
102
RTVSPost2010Prop37
 90
       50
102
RTVSPost2010PropOp37
 70
     0
102
RTVSPost2010Prop38
140
0.0
102
RTVSPost2010PropOp38
 70
     0
102
RTVSPost2010Prop39
140
1.0
102
RTVSPost2010PropOp39
 70
     0
102
RTVSPost2010Prop40
 90
        0
102
RTVSPost2010PropOp40
 70
     0
102
RTVSPost2010Prop41ColorIndex
 90
       18
102
RTVSPost2010Prop41ColorRGB
 90
        0
102
RTVSPost2010PropOp41
 70
     0
102
RTVSPost2010Prop42
 90
       50
102
RTVSPost2010PropOp42
 70
     0
102
RTVSPost2010Prop43
 90
        3
102
RTVSPost2010PropOp43
 70
     0
102
RTVSPost2010Prop44ColorIndex
 90
        5
102
RTVSPost2010Prop44ColorRGB
 90
      255
102
RTVSPost2010PropOp44
 70
     0
102
RTVSPost2010Prop45
280
     0
102
RTVSPost2010PropOp45
 70
     1
102
RTVSPost2010Prop46
 90
       50
102
RTVSPost2010PropOp46
 70
     0
102
RTVSPost2010Prop47
 90
       50
102
RTVSPost2010PropOp47
 70
     0
102
RTVSPost2010Prop48
 90
       50
102
RTVSPost2010PropOp48
 70
     0
102
RTVSPost2010Prop49
280
     0
102
RTVSPost2010PropOp49
 70
     1
102
RTVSPost2010Prop50
 90
       50
102
RTVSPost2010PropOp50
 70
     0
102
RTVSPost2010Prop51ColorIndex
 90
      256
102
RTVSPost2010Prop51ColorRGB
 90
-16777216
102
RTVSPost2010PropOp51
 70
     0
102
RTVSPost2010Prop52
140
1.0
102
RTVSPost2010PropOp52
 70
     0
102
RTVSPost2010Prop53
 90
        2
102
RTVSPost2010PropOp53
 70
     0
102
RTVSPost2010Prop54
  1
strokes_ogs.tif
102
RTVSPost2010PropOp54
 70
     0
102
RTVSPost2010Prop55
280
     0
102
RTVSPost2010PropOp55
 70
     1
102
RTVSPost2010Prop56
140
1.0
102
RTVSPost2010PropOp56
 70
     0
102
RTVSPost2010Prop57
140
1.0
102
RTVSPost2010PropOp57
 70
     0
102
RTVSPropertyOp0
 70
     0
102
RTVSPropertyOp1
 70
     0
102
RTVSPropertyOp2
 70
     0
102
RTVSPropertyOp3
 70
     0
102
RTVSPropertyOp4
 70
     0
102
RTVSPropertyOp5
 70
     0
102
RTVSPropertyOp6
 70
     0
102
RTVSPropertyOp7
 70
     0
102
RTVSPropertyOp8
 70
     0
102
RTVSPropertyOp9
 70
     0
102
RTVSPropertyOp10
 70
     0
102
RTVSPropertyOp11
 70
     0
102
RTVSPropertyOp12
 70
     0
102
RTVSPropertyOp13
 70
     0
102
RTVSPropertyOp14
 70
     2
102
RTVSPropertyOp15
 70
     0
102
RTVSPropertyOp16
 70
     0
102
RTVSPropertyOp17
 70
     0
102
RTVSPropertyOp18
 70
     0
102
RTVSPropertyOp19
 70
     0
102
RTVSPropertyOp20
 70
     0
102
RTVSPropertyOp21
 70
     0
102
RTVSPropertyOp22
 70
     0
102
RTVSPropertyOp23
 70
     0
102
RTVSPropertyOp24
 70
     0
102
RTVSPropertyOp25
 70
     0
102
RTVSPropertyOp26
 70
     0
102
RTVSPropertyOp27
 70
     0
102
RTVSPropertyOp28
 70
     1
102
RTVSPropertyOp29
 70
     1
102
RTVSPropertyOp30
 70
     1
102
RTVSPropertyOp31
 70
     1
102
RTVSPropertyOp32
 70
     1
102
RTVSPropertyOp33
 70
     1
102
RTVSPropertyOp34
 70
     1
102
RTVSPropertyOp35
 70
     1
102
RTVSPropertyOp36
 70
     1
102
RTVSPropertyOp37
 70
     0
102
RTVSPropertyOp38
 70
     0
102
RTVSPropertyOp39
 70
     0
102
RTVSPropertyOp40
 70
     0
102
RTVSPropertyOp41
 70
     0
102
RTVSPropertyOp42
 70
     0
102
RTVSPropertyOp43
 70
     0
102
RTVSPropertyOp44
 70
     0
102
RTVSPropertyOp45
 70
     1
102
RTVSPropertyOp46
 70
     0
102
RTVSPropertyOp47
 70
     0
102
RTVSPropertyOp48
 70
     0
102
RTVSPropertyOp49
 70
     1
102
RTVSPropertyOp50
 70
     0
102
RTVSPropertyOp51
 70
     0
102
RTVSPropertyOp52
 70
     0
102
RTVSPropertyOp53
 70
     0
102
RTVSPropertyOp54
 70
     0
102
RTVSPropertyOp55
 70
     1
102
RTVSPropertyOp56
 70
     0
102
RTVSPropertyOp57
 70
     0
102
RTVSPropertyOp58
 70
     0
102
RTVSPropertyOp59
 70
     0
102
RTVSPropertyOp60
 70
     0
102
RTVSPropertyOp61
 70
     0
102
RTVSPropertyOp62
 70
     0
  0
XRECORD
  5
425E
102
{ACAD_REACTORS
330
425D
102
}
330
425D
100
AcDbXrecord
280
     1
102
RTVSPost2010Prop28
280
     0
102
RTVSPost2010PropOp28
 70
     1
102
RTVSPost2010Prop29
280
     1
102
RTVSPost2010PropOp29
 70
     1
102
RTVSPost2010Prop30
280
     1
102
RTVSPost2010PropOp30
 70
     1
102
RTVSPost2010Prop31
280
     0
102
RTVSPost2010PropOp31
 70
     1
102
RTVSPost2010Prop32
280
     0
102
RTVSPost2010PropOp32
 70
     1
102
RTVSPost2010Prop33
280
     0
102
RTVSPost2010PropOp33
 70
     1
102
RTVSPost2010Prop34
280
     0
102
RTVSPost2010PropOp34
 70
     1
102
RTVSPost2010Prop35
280
     0
102
RTVSPost2010PropOp35
 70
     1
102
RTVSPost2010Prop36
280
     0
102
RTVSPost2010PropOp36
 70
     1
102
RTVSPost2010Prop37
 90
       50
102
RTVSPost2010PropOp37
 70
     1
102
RTVSPost2010Prop38
140
0.0
102
RTVSPost2010PropOp38
 70
     1
102
RTVSPost2010Prop39
140
1.0
102
RTVSPost2010PropOp39
 70
     1
102
RTVSPost2010Prop40
 90
        0
102
RTVSPost2010PropOp40
 70
     1
102
RTVSPost2010Prop41ColorIndex
 90
       18
102
RTVSPost2010Prop41ColorRGB
 90
        0
102
RTVSPost2010PropOp41
 70
     1
102
RTVSPost2010Prop42
 90
       50
102
RTVSPost2010PropOp42
 70
     1
102
RTVSPost2010Prop43
 90
        3
102
RTVSPost2010PropOp43
 70
     1
102
RTVSPost2010Prop44ColorIndex
 90
        5
102
RTVSPost2010Prop44ColorRGB
 90
      255
102
RTVSPost2010PropOp44
 70
     1
102
RTVSPost2010Prop45
280
     0
102
RTVSPost2010PropOp45
 70
     1
102
RTVSPost2010Prop46
 90
       50
102
RTVSPost2010PropOp46
 70
     1
102
RTVSPost2010Prop47
 90
       50
102
RTVSPost2010PropOp47
 70
     1
102
RTVSPost2010Prop48
 90
       50
102
RTVSPost2010PropOp48
 70
     1
102
RTVSPost2010Prop49
280
     0
102
RTVSPost2010PropOp49
 70
     1
102
RTVSPost2010Prop50
 90
       50
102
RTVSPost2010PropOp50
 70
     1
102
RTVSPost2010Prop51ColorIndex
 90
      256
102
RTVSPost2010Prop51ColorRGB
 90
-16777216
102
RTVSPost2010PropOp51
 70
     0
102
RTVSPost2010Prop52
140
1.0
102
RTVSPost2010PropOp52
 70
     0
102
RTVSPost2010Prop53
 90
        2
102
RTVSPost2010PropOp53
 70
     1
102
RTVSPost2010Prop54
  1
strokes_ogs.tif
102
RTVSPost2010PropOp54
 70
     1
102
RTVSPost2010Prop55
280
     0
102
RTVSPost2010PropOp55
 70
     1
102
RTVSPost2010Prop56
140
1.0
102
RTVSPost2010PropOp56
 70
     1
102
RTVSPost2010Prop57
140
1.0
102
RTVSPost2010PropOp57
 70
     1
102
RTVSPropertyOp0
 70
     1
102
RTVSPropertyOp1
 70
     1
102
RTVSPropertyOp2
 70
     1
102
RTVSPropertyOp3
 70
     1
102
RTVSPropertyOp4
 70
     1
102
RTVSPropertyOp5
 70
     1
102
RTVSPropertyOp6
 70
     1
102
RTVSPropertyOp7
 70
     1
102
RTVSPropertyOp8
 70
     1
102
RTVSPropertyOp9
 70
     1
102
RTVSPropertyOp10
 70
     1
102
RTVSPropertyOp11
 70
     1
102
RTVSPropertyOp12
 70
     1
102
RTVSPropertyOp13
 70
     1
102
RTVSPropertyOp14
 70
     1
102
RTVSPropertyOp15
 70
     1
102
RTVSPropertyOp16
 70
     1
102
RTVSPropertyOp17
 70
     1
102
RTVSPropertyOp18
 70
     1
102
RTVSPropertyOp19
 70
     1
102
RTVSPropertyOp20
 70
     1
102
RTVSPropertyOp21
 70
     1
102
RTVSPropertyOp22
 70
     1
102
RTVSPropertyOp23
 70
     1
102
RTVSPropertyOp24
 70
     1
102
RTVSPropertyOp25
 70
     1
102
RTVSPropertyOp26
 70
     1
102
RTVSPropertyOp27
 70
     1
102
RTVSPropertyOp28
 70
     1
102
RTVSPropertyOp29
 70
     1
102
RTVSPropertyOp30
 70
     1
102
RTVSPropertyOp31
 70
     1
102
RTVSPropertyOp32
 70
     1
102
RTVSPropertyOp33
 70
     1
102
RTVSPropertyOp34
 70
     1
102
RTVSPropertyOp35
 70
     1
102
RTVSPropertyOp36
 70
     1
102
RTVSPropertyOp37
 70
     1
102
RTVSPropertyOp38
 70
     1
102
RTVSPropertyOp39
 70
     1
102
RTVSPropertyOp40
 70
     1
102
RTVSPropertyOp41
 70
     1
102
RTVSPropertyOp42
 70
     1
102
RTVSPropertyOp43
 70
     1
102
RTVSPropertyOp44
 70
     1
102
RTVSPropertyOp45
 70
     1
102
RTVSPropertyOp46
 70
     1
102
RTVSPropertyOp47
 70
     1
102
RTVSPropertyOp48
 70
     1
102
RTVSPropertyOp49
 70
     1
102
RTVSPropertyOp50
 70
     1
102
RTVSPropertyOp51
 70
     0
102
RTVSPropertyOp52
 70
     0
102
RTVSPropertyOp53
 70
     1
102
RTVSPropertyOp54
 70
     1
102
RTVSPropertyOp55
 70
     1
102
RTVSPropertyOp56
 70
     1
102
RTVSPropertyOp57
 70
     1
102
RTVSPropertyOp58
 70
     1
102
RTVSPropertyOp59
 70
     1
102
RTVSPropertyOp60
 70
     1
102
RTVSPropertyOp61
 70
     1
102
RTVSPropertyOp62
 70
     1
  0
XRECORD
  5
4242
102
{ACAD_REACTORS
330
4241
102
}
330
4241
100
AcDbXrecord
280
     1
102
RTVSPost2010Prop28
280
     0
102
RTVSPost2010PropOp28
 70
     1
102
RTVSPost2010Prop29
280
     1
102
RTVSPost2010PropOp29
 70
     1
102
RTVSPost2010Prop30
280
     1
102
RTVSPost2010PropOp30
 70
     1
102
RTVSPost2010Prop31
280
     0
102
RTVSPost2010PropOp31
 70
     1
102
RTVSPost2010Prop32
280
     0
102
RTVSPost2010PropOp32
 70
     1
102
RTVSPost2010Prop33
280
     0
102
RTVSPost2010PropOp33
 70
     1
102
RTVSPost2010Prop34
280
     0
102
RTVSPost2010PropOp34
 70
     1
102
RTVSPost2010Prop35
280
     0
102
RTVSPost2010PropOp35
 70
     1
102
RTVSPost2010Prop36
280
     0
102
RTVSPost2010PropOp36
 70
     1
102
RTVSPost2010Prop37
 90
       50
102
RTVSPost2010PropOp37
 70
     1
102
RTVSPost2010Prop38
140
0.0
102
RTVSPost2010PropOp38
 70
     1
102
RTVSPost2010Prop39
140
1.0
102
RTVSPost2010PropOp39
 70
     1
102
RTVSPost2010Prop40
 90
        0
102
RTVSPost2010PropOp40
 70
     1
102
RTVSPost2010Prop41ColorIndex
 90
       18
102
RTVSPost2010Prop41ColorRGB
 90
        0
102
RTVSPost2010PropOp41
 70
     1
102
RTVSPost2010Prop42
 90
       50
102
RTVSPost2010PropOp42
 70
     1
102
RTVSPost2010Prop43
 90
        3
102
RTVSPost2010PropOp43
 70
     1
102
RTVSPost2010Prop44ColorIndex
 90
        5
102
RTVSPost2010Prop44ColorRGB
 90
      255
102
RTVSPost2010PropOp44
 70
     1
102
RTVSPost2010Prop45
280
     0
102
RTVSPost2010PropOp45
 70
     1
102
RTVSPost2010Prop46
 90
       50
102
RTVSPost2010PropOp46
 70
     1
102
RTVSPost2010Prop47
 90
       50
102
RTVSPost2010PropOp47
 70
     1
102
RTVSPost2010Prop48
 90
       50
102
RTVSPost2010PropOp48
 70
     1
102
RTVSPost2010Prop49
280
     0
102
RTVSPost2010PropOp49
 70
     1
102
RTVSPost2010Prop50
 90
       50
102
RTVSPost2010PropOp50
 70
     1
102
RTVSPost2010Prop51ColorIndex
 90
      256
102
RTVSPost2010Prop51ColorRGB
 90
-16777216
102
RTVSPost2010PropOp51
 70
     0
102
RTVSPost2010Prop52
140
1.0
102
RTVSPost2010PropOp52
 70
     0
102
RTVSPost2010Prop53
 90
        2
102
RTVSPost2010PropOp53
 70
     1
102
RTVSPost2010Prop54
  1
strokes_ogs.tif
102
RTVSPost2010PropOp54
 70
     1
102
RTVSPost2010Prop55
280
     0
102
RTVSPost2010PropOp55
 70
     1
102
RTVSPost2010Prop56
140
1.0
102
RTVSPost2010PropOp56
 70
     1
102
RTVSPost2010Prop57
140
1.0
102
RTVSPost2010PropOp57
 70
     1
102
RTVSPropertyOp0
 70
     1
102
RTVSPropertyOp1
 70
     1
102
RTVSPropertyOp2
 70
     1
102
RTVSPropertyOp3
 70
     1
102
RTVSPropertyOp4
 70
     1
102
RTVSPropertyOp5
 70
     1
102
RTVSPropertyOp6
 70
     1
102
RTVSPropertyOp7
 70
     1
102
RTVSPropertyOp8
 70
     1
102
RTVSPropertyOp9
 70
     1
102
RTVSPropertyOp10
 70
     1
102
RTVSPropertyOp11
 70
     1
102
RTVSPropertyOp12
 70
     1
102
RTVSPropertyOp13
 70
     1
102
RTVSPropertyOp14
 70
     1
102
RTVSPropertyOp15
 70
     1
102
RTVSPropertyOp16
 70
     1
102
RTVSPropertyOp17
 70
     1
102
RTVSPropertyOp18
 70
     1
102
RTVSPropertyOp19
 70
     1
102
RTVSPropertyOp20
 70
     1
102
RTVSPropertyOp21
 70
     1
102
RTVSPropertyOp22
 70
     1
102
RTVSPropertyOp23
 70
     1
102
RTVSPropertyOp24
 70
     1
102
RTVSPropertyOp25
 70
     1
102
RTVSPropertyOp26
 70
     1
102
RTVSPropertyOp27
 70
     1
102
RTVSPropertyOp28
 70
     1
102
RTVSPropertyOp29
 70
     1
102
RTVSPropertyOp30
 70
     1
102
RTVSPropertyOp31
 70
     1
102
RTVSPropertyOp32
 70
     1
102
RTVSPropertyOp33
 70
     1
102
RTVSPropertyOp34
 70
     1
102
RTVSPropertyOp35
 70
     1
102
RTVSPropertyOp36
 70
     1
102
RTVSPropertyOp37
 70
     1
102
RTVSPropertyOp38
 70
     1
102
RTVSPropertyOp39
 70
     1
102
RTVSPropertyOp40
 70
     1
102
RTVSPropertyOp41
 70
     1
102
RTVSPropertyOp42
 70
     1
102
RTVSPropertyOp43
 70
     1
102
RTVSPropertyOp44
 70
     1
102
RTVSPropertyOp45
 70
     1
102
RTVSPropertyOp46
 70
     1
102
RTVSPropertyOp47
 70
     1
102
RTVSPropertyOp48
 70
     1
102
RTVSPropertyOp49
 70
     1
102
RTVSPropertyOp50
 70
     1
102
RTVSPropertyOp51
 70
     0
102
RTVSPropertyOp52
 70
     0
102
RTVSPropertyOp53
 70
     1
102
RTVSPropertyOp54
 70
     1
102
RTVSPropertyOp55
 70
     1
102
RTVSPropertyOp56
 70
     1
102
RTVSPropertyOp57
 70
     1
102
RTVSPropertyOp58
 70
     1
102
RTVSPropertyOp59
 70
     1
102
RTVSPropertyOp60
 70
     1
102
RTVSPropertyOp61
 70
     1
102
RTVSPropertyOp62
 70
     1
  0
XRECORD
  5
4244
102
{ACAD_REACTORS
330
4243
102
}
330
4243
100
AcDbXrecord
280
     1
102
RTVSPost2010Prop28
280
     0
102
RTVSPost2010PropOp28
 70
     1
102
RTVSPost2010Prop29
280
     1
102
RTVSPost2010PropOp29
 70
     1
102
RTVSPost2010Prop30
280
     1
102
RTVSPost2010PropOp30
 70
     1
102
RTVSPost2010Prop31
280
     0
102
RTVSPost2010PropOp31
 70
     1
102
RTVSPost2010Prop32
280
     0
102
RTVSPost2010PropOp32
 70
     1
102
RTVSPost2010Prop33
280
     0
102
RTVSPost2010PropOp33
 70
     1
102
RTVSPost2010Prop34
280
     0
102
RTVSPost2010PropOp34
 70
     1
102
RTVSPost2010Prop35
280
     0
102
RTVSPost2010PropOp35
 70
     1
102
RTVSPost2010Prop36
280
     0
102
RTVSPost2010PropOp36
 70
     1
102
RTVSPost2010Prop37
 90
       50
102
RTVSPost2010PropOp37
 70
     1
102
RTVSPost2010Prop38
140
0.0
102
RTVSPost2010PropOp38
 70
     1
102
RTVSPost2010Prop39
140
1.0
102
RTVSPost2010PropOp39
 70
     1
102
RTVSPost2010Prop40
 90
        0
102
RTVSPost2010PropOp40
 70
     1
102
RTVSPost2010Prop41ColorIndex
 90
       18
102
RTVSPost2010Prop41ColorRGB
 90
        0
102
RTVSPost2010PropOp41
 70
     1
102
RTVSPost2010Prop42
 90
       50
102
RTVSPost2010PropOp42
 70
     1
102
RTVSPost2010Prop43
 90
        3
102
RTVSPost2010PropOp43
 70
     1
102
RTVSPost2010Prop44ColorIndex
 90
        5
102
RTVSPost2010Prop44ColorRGB
 90
      255
102
RTVSPost2010PropOp44
 70
     1
102
RTVSPost2010Prop45
280
     0
102
RTVSPost2010PropOp45
 70
     1
102
RTVSPost2010Prop46
 90
       50
102
RTVSPost2010PropOp46
 70
     1
102
RTVSPost2010Prop47
 90
       50
102
RTVSPost2010PropOp47
 70
     1
102
RTVSPost2010Prop48
 90
       50
102
RTVSPost2010PropOp48
 70
     1
102
RTVSPost2010Prop49
280
     0
102
RTVSPost2010PropOp49
 70
     1
102
RTVSPost2010Prop50
 90
       50
102
RTVSPost2010PropOp50
 70
     1
102
RTVSPost2010Prop51ColorIndex
 90
      256
102
RTVSPost2010Prop51ColorRGB
 90
-16777216
102
RTVSPost2010PropOp51
 70
     0
102
RTVSPost2010Prop52
140
1.0
102
RTVSPost2010PropOp52
 70
     0
102
RTVSPost2010Prop53
 90
        2
102
RTVSPost2010PropOp53
 70
     1
102
RTVSPost2010Prop54
  1
strokes_ogs.tif
102
RTVSPost2010PropOp54
 70
     1
102
RTVSPost2010Prop55
280
     0
102
RTVSPost2010PropOp55
 70
     1
102
RTVSPost2010Prop56
140
1.0
102
RTVSPost2010PropOp56
 70
     1
102
RTVSPost2010Prop57
140
1.0
102
RTVSPost2010PropOp57
 70
     1
102
RTVSPropertyOp0
 70
     1
102
RTVSPropertyOp1
 70
     1
102
RTVSPropertyOp2
 70
     1
102
RTVSPropertyOp3
 70
     1
102
RTVSPropertyOp4
 70
     1
102
RTVSPropertyOp5
 70
     1
102
RTVSPropertyOp6
 70
     1
102
RTVSPropertyOp7
 70
     1
102
RTVSPropertyOp8
 70
     1
102
RTVSPropertyOp9
 70
     1
102
RTVSPropertyOp10
 70
     1
102
RTVSPropertyOp11
 70
     1
102
RTVSPropertyOp12
 70
     1
102
RTVSPropertyOp13
 70
     1
102
RTVSPropertyOp14
 70
     1
102
RTVSPropertyOp15
 70
     1
102
RTVSPropertyOp16
 70
     1
102
RTVSPropertyOp17
 70
     1
102
RTVSPropertyOp18
 70
     1
102
RTVSPropertyOp19
 70
     1
102
RTVSPropertyOp20
 70
     1
102
RTVSPropertyOp21
 70
     1
102
RTVSPropertyOp22
 70
     1
102
RTVSPropertyOp23
 70
     1
102
RTVSPropertyOp24
 70
     1
102
RTVSPropertyOp25
 70
     1
102
RTVSPropertyOp26
 70
     1
102
RTVSPropertyOp27
 70
     1
102
RTVSPropertyOp28
 70
     1
102
RTVSPropertyOp29
 70
     1
102
RTVSPropertyOp30
 70
     1
102
RTVSPropertyOp31
 70
     1
102
RTVSPropertyOp32
 70
     1
102
RTVSPropertyOp33
 70
     1
102
RTVSPropertyOp34
 70
     1
102
RTVSPropertyOp35
 70
     1
102
RTVSPropertyOp36
 70
     1
102
RTVSPropertyOp37
 70
     1
102
RTVSPropertyOp38
 70
     1
102
RTVSPropertyOp39
 70
     1
102
RTVSPropertyOp40
 70
     1
102
RTVSPropertyOp41
 70
     1
102
RTVSPropertyOp42
 70
     1
102
RTVSPropertyOp43
 70
     1
102
RTVSPropertyOp44
 70
     1
102
RTVSPropertyOp45
 70
     1
102
RTVSPropertyOp46
 70
     1
102
RTVSPropertyOp47
 70
     1
102
RTVSPropertyOp48
 70
     1
102
RTVSPropertyOp49
 70
     1
102
RTVSPropertyOp50
 70
     1
102
RTVSPropertyOp51
 70
     0
102
RTVSPropertyOp52
 70
     0
102
RTVSPropertyOp53
 70
     1
102
RTVSPropertyOp54
 70
     1
102
RTVSPropertyOp55
 70
     1
102
RTVSPropertyOp56
 70
     1
102
RTVSPropertyOp57
 70
     1
102
RTVSPropertyOp58
 70
     1
102
RTVSPropertyOp59
 70
     1
102
RTVSPropertyOp60
 70
     1
102
RTVSPropertyOp61
 70
     1
102
RTVSPropertyOp62
 70
     1
  0
XRECORD
  5
4246
102
{ACAD_REACTORS
330
4245
102
}
330
4245
100
AcDbXrecord
280
     1
102
RTVSPost2010Prop28
280
     0
102
RTVSPost2010PropOp28
 70
     1
102
RTVSPost2010Prop29
280
     1
102
RTVSPost2010PropOp29
 70
     1
102
RTVSPost2010Prop30
280
     1
102
RTVSPost2010PropOp30
 70
     1
102
RTVSPost2010Prop31
280
     0
102
RTVSPost2010PropOp31
 70
     1
102
RTVSPost2010Prop32
280
     0
102
RTVSPost2010PropOp32
 70
     1
102
RTVSPost2010Prop33
280
     0
102
RTVSPost2010PropOp33
 70
     1
102
RTVSPost2010Prop34
280
     0
102
RTVSPost2010PropOp34
 70
     1
102
RTVSPost2010Prop35
280
     0
102
RTVSPost2010PropOp35
 70
     1
102
RTVSPost2010Prop36
280
     0
102
RTVSPost2010PropOp36
 70
     1
102
RTVSPost2010Prop37
 90
       50
102
RTVSPost2010PropOp37
 70
     1
102
RTVSPost2010Prop38
140
0.0
102
RTVSPost2010PropOp38
 70
     1
102
RTVSPost2010Prop39
140
1.0
102
RTVSPost2010PropOp39
 70
     1
102
RTVSPost2010Prop40
 90
        0
102
RTVSPost2010PropOp40
 70
     1
102
RTVSPost2010Prop41ColorIndex
 90
       18
102
RTVSPost2010Prop41ColorRGB
 90
        0
102
RTVSPost2010PropOp41
 70
     1
102
RTVSPost2010Prop42
 90
       50
102
RTVSPost2010PropOp42
 70
     1
102
RTVSPost2010Prop43
 90
        3
102
RTVSPost2010PropOp43
 70
     1
102
RTVSPost2010Prop44ColorIndex
 90
        5
102
RTVSPost2010Prop44ColorRGB
 90
      255
102
RTVSPost2010PropOp44
 70
     1
102
RTVSPost2010Prop45
280
     0
102
RTVSPost2010PropOp45
 70
     1
102
RTVSPost2010Prop46
 90
       50
102
RTVSPost2010PropOp46
 70
     1
102
RTVSPost2010Prop47
 90
       50
102
RTVSPost2010PropOp47
 70
     1
102
RTVSPost2010Prop48
 90
       50
102
RTVSPost2010PropOp48
 70
     1
102
RTVSPost2010Prop49
280
     0
102
RTVSPost2010PropOp49
 70
     1
102
RTVSPost2010Prop50
 90
       50
102
RTVSPost2010PropOp50
 70
     1
102
RTVSPost2010Prop51ColorIndex
 90
      256
102
RTVSPost2010Prop51ColorRGB
 90
-16777216
102
RTVSPost2010PropOp51
 70
     0
102
RTVSPost2010Prop52
140
1.0
102
RTVSPost2010PropOp52
 70
     0
102
RTVSPost2010Prop53
 90
        2
102
RTVSPost2010PropOp53
 70
     1
102
RTVSPost2010Prop54
  1
strokes_ogs.tif
102
RTVSPost2010PropOp54
 70
     1
102
RTVSPost2010Prop55
280
     0
102
RTVSPost2010PropOp55
 70
     1
102
RTVSPost2010Prop56
140
1.0
102
RTVSPost2010PropOp56
 70
     1
102
RTVSPost2010Prop57
140
1.0
102
RTVSPost2010PropOp57
 70
     1
102
RTVSPropertyOp0
 70
     1
102
RTVSPropertyOp1
 70
     1
102
RTVSPropertyOp2
 70
     1
102
RTVSPropertyOp3
 70
     1
102
RTVSPropertyOp4
 70
     1
102
RTVSPropertyOp5
 70
     1
102
RTVSPropertyOp6
 70
     1
102
RTVSPropertyOp7
 70
     1
102
RTVSPropertyOp8
 70
     1
102
RTVSPropertyOp9
 70
     1
102
RTVSPropertyOp10
 70
     1
102
RTVSPropertyOp11
 70
     1
102
RTVSPropertyOp12
 70
     1
102
RTVSPropertyOp13
 70
     1
102
RTVSPropertyOp14
 70
     1
102
RTVSPropertyOp15
 70
     1
102
RTVSPropertyOp16
 70
     1
102
RTVSPropertyOp17
 70
     1
102
RTVSPropertyOp18
 70
     1
102
RTVSPropertyOp19
 70
     1
102
RTVSPropertyOp20
 70
     1
102
RTVSPropertyOp21
 70
     1
102
RTVSPropertyOp22
 70
     1
102
RTVSPropertyOp23
 70
     1
102
RTVSPropertyOp24
 70
     1
102
RTVSPropertyOp25
 70
     1
102
RTVSPropertyOp26
 70
     1
102
RTVSPropertyOp27
 70
     1
102
RTVSPropertyOp28
 70
     1
102
RTVSPropertyOp29
 70
     1
102
RTVSPropertyOp30
 70
     1
102
RTVSPropertyOp31
 70
     1
102
RTVSPropertyOp32
 70
     1
102
RTVSPropertyOp33
 70
     1
102
RTVSPropertyOp34
 70
     1
102
RTVSPropertyOp35
 70
     1
102
RTVSPropertyOp36
 70
     1
102
RTVSPropertyOp37
 70
     1
102
RTVSPropertyOp38
 70
     1
102
RTVSPropertyOp39
 70
     1
102
RTVSPropertyOp40
 70
     1
102
RTVSPropertyOp41
 70
     1
102
RTVSPropertyOp42
 70
     1
102
RTVSPropertyOp43
 70
     1
102
RTVSPropertyOp44
 70
     1
102
RTVSPropertyOp45
 70
     1
102
RTVSPropertyOp46
 70
     1
102
RTVSPropertyOp47
 70
     1
102
RTVSPropertyOp48
 70
     1
102
RTVSPropertyOp49
 70
     1
102
RTVSPropertyOp50
 70
     1
102
RTVSPropertyOp51
 70
     0
102
RTVSPropertyOp52
 70
     0
102
RTVSPropertyOp53
 70
     1
102
RTVSPropertyOp54
 70
     1
102
RTVSPropertyOp55
 70
     1
102
RTVSPropertyOp56
 70
     1
102
RTVSPropertyOp57
 70
     1
102
RTVSPropertyOp58
 70
     1
102
RTVSPropertyOp59
 70
     1
102
RTVSPropertyOp60
 70
     1
102
RTVSPropertyOp61
 70
     1
102
RTVSPropertyOp62
 70
     1
  0
XRECORD
  5
4248
102
{ACAD_REACTORS
330
4247
102
}
330
4247
100
AcDbXrecord
280
     1
102
RTVSPost2010Prop28
280
     0
102
RTVSPost2010PropOp28
 70
     1
102
RTVSPost2010Prop29
280
     1
102
RTVSPost2010PropOp29
 70
     1
102
RTVSPost2010Prop30
280
     1
102
RTVSPost2010PropOp30
 70
     1
102
RTVSPost2010Prop31
280
     0
102
RTVSPost2010PropOp31
 70
     1
102
RTVSPost2010Prop32
280
     0
102
RTVSPost2010PropOp32
 70
     1
102
RTVSPost2010Prop33
280
     0
102
RTVSPost2010PropOp33
 70
     1
102
RTVSPost2010Prop34
280
     0
102
RTVSPost2010PropOp34
 70
     1
102
RTVSPost2010Prop35
280
     0
102
RTVSPost2010PropOp35
 70
     1
102
RTVSPost2010Prop36
280
     0
102
RTVSPost2010PropOp36
 70
     1
102
RTVSPost2010Prop37
 90
       50
102
RTVSPost2010PropOp37
 70
     1
102
RTVSPost2010Prop38
140
0.0
102
RTVSPost2010PropOp38
 70
     1
102
RTVSPost2010Prop39
140
1.0
102
RTVSPost2010PropOp39
 70
     1
102
RTVSPost2010Prop40
 90
        0
102
RTVSPost2010PropOp40
 70
     1
102
RTVSPost2010Prop41ColorIndex
 90
       18
102
RTVSPost2010Prop41ColorRGB
 90
        0
102
RTVSPost2010PropOp41
 70
     1
102
RTVSPost2010Prop42
 90
       50
102
RTVSPost2010PropOp42
 70
     1
102
RTVSPost2010Prop43
 90
        3
102
RTVSPost2010PropOp43
 70
     1
102
RTVSPost2010Prop44ColorIndex
 90
        5
102
RTVSPost2010Prop44ColorRGB
 90
      255
102
RTVSPost2010PropOp44
 70
     1
102
RTVSPost2010Prop45
280
     0
102
RTVSPost2010PropOp45
 70
     1
102
RTVSPost2010Prop46
 90
       50
102
RTVSPost2010PropOp46
 70
     1
102
RTVSPost2010Prop47
 90
       50
102
RTVSPost2010PropOp47
 70
     1
102
RTVSPost2010Prop48
 90
       50
102
RTVSPost2010PropOp48
 70
     1
102
RTVSPost2010Prop49
280
     0
102
RTVSPost2010PropOp49
 70
     1
102
RTVSPost2010Prop50
 90
       50
102
RTVSPost2010PropOp50
 70
     1
102
RTVSPost2010Prop51ColorIndex
 90
      256
102
RTVSPost2010Prop51ColorRGB
 90
-16777216
102
RTVSPost2010PropOp51
 70
     0
102
RTVSPost2010Prop52
140
1.0
102
RTVSPost2010PropOp52
 70
     0
102
RTVSPost2010Prop53
 90
        2
102
RTVSPost2010PropOp53
 70
     1
102
RTVSPost2010Prop54
  1
strokes_ogs.tif
102
RTVSPost2010PropOp54
 70
     1
102
RTVSPost2010Prop55
280
     0
102
RTVSPost2010PropOp55
 70
     1
102
RTVSPost2010Prop56
140
1.0
102
RTVSPost2010PropOp56
 70
     1
102
RTVSPost2010Prop57
140
1.0
102
RTVSPost2010PropOp57
 70
     1
102
RTVSPropertyOp0
 70
     1
102
RTVSPropertyOp1
 70
     1
102
RTVSPropertyOp2
 70
     1
102
RTVSPropertyOp3
 70
     1
102
RTVSPropertyOp4
 70
     1
102
RTVSPropertyOp5
 70
     1
102
RTVSPropertyOp6
 70
     1
102
RTVSPropertyOp7
 70
     1
102
RTVSPropertyOp8
 70
     1
102
RTVSPropertyOp9
 70
     1
102
RTVSPropertyOp10
 70
     1
102
RTVSPropertyOp11
 70
     1
102
RTVSPropertyOp12
 70
     1
102
RTVSPropertyOp13
 70
     1
102
RTVSPropertyOp14
 70
     1
102
RTVSPropertyOp15
 70
     1
102
RTVSPropertyOp16
 70
     1
102
RTVSPropertyOp17
 70
     1
102
RTVSPropertyOp18
 70
     1
102
RTVSPropertyOp19
 70
     1
102
RTVSPropertyOp20
 70
     1
102
RTVSPropertyOp21
 70
     1
102
RTVSPropertyOp22
 70
     1
102
RTVSPropertyOp23
 70
     1
102
RTVSPropertyOp24
 70
     1
102
RTVSPropertyOp25
 70
     1
102
RTVSPropertyOp26
 70
     1
102
RTVSPropertyOp27
 70
     1
102
RTVSPropertyOp28
 70
     1
102
RTVSPropertyOp29
 70
     1
102
RTVSPropertyOp30
 70
     1
102
RTVSPropertyOp31
 70
     1
102
RTVSPropertyOp32
 70
     1
102
RTVSPropertyOp33
 70
     1
102
RTVSPropertyOp34
 70
     1
102
RTVSPropertyOp35
 70
     1
102
RTVSPropertyOp36
 70
     1
102
RTVSPropertyOp37
 70
     1
102
RTVSPropertyOp38
 70
     1
102
RTVSPropertyOp39
 70
     1
102
RTVSPropertyOp40
 70
     1
102
RTVSPropertyOp41
 70
     1
102
RTVSPropertyOp42
 70
     1
102
RTVSPropertyOp43
 70
     1
102
RTVSPropertyOp44
 70
     1
102
RTVSPropertyOp45
 70
     1
102
RTVSPropertyOp46
 70
     1
102
RTVSPropertyOp47
 70
     1
102
RTVSPropertyOp48
 70
     1
102
RTVSPropertyOp49
 70
     1
102
RTVSPropertyOp50
 70
     1
102
RTVSPropertyOp51
 70
     0
102
RTVSPropertyOp52
 70
     0
102
RTVSPropertyOp53
 70
     1
102
RTVSPropertyOp54
 70
     1
102
RTVSPropertyOp55
 70
     1
102
RTVSPropertyOp56
 70
     1
102
RTVSPropertyOp57
 70
     1
102
RTVSPropertyOp58
 70
     1
102
RTVSPropertyOp59
 70
     1
102
RTVSPropertyOp60
 70
     1
102
RTVSPropertyOp61
 70
     1
102
RTVSPropertyOp62
 70
     1
  0
XRECORD
  5
4250
102
{ACAD_REACTORS
330
424F
102
}
330
424F
100
AcDbXrecord
280
     1
102
RTVSPost2010Prop28
280
     0
102
RTVSPost2010PropOp28
 70
     1
102
RTVSPost2010Prop29
280
     1
102
RTVSPost2010PropOp29
 70
     1
102
RTVSPost2010Prop30
280
     1
102
RTVSPost2010PropOp30
 70
     1
102
RTVSPost2010Prop31
280
     0
102
RTVSPost2010PropOp31
 70
     1
102
RTVSPost2010Prop32
280
     0
102
RTVSPost2010PropOp32
 70
     1
102
RTVSPost2010Prop33
280
     0
102
RTVSPost2010PropOp33
 70
     1
102
RTVSPost2010Prop34
280
     0
102
RTVSPost2010PropOp34
 70
     1
102
RTVSPost2010Prop35
280
     0
102
RTVSPost2010PropOp35
 70
     1
102
RTVSPost2010Prop36
280
     0
102
RTVSPost2010PropOp36
 70
     1
102
RTVSPost2010Prop37
 90
       50
102
RTVSPost2010PropOp37
 70
     1
102
RTVSPost2010Prop38
140
0.0
102
RTVSPost2010PropOp38
 70
     1
102
RTVSPost2010Prop39
140
1.0
102
RTVSPost2010PropOp39
 70
     1
102
RTVSPost2010Prop40
 90
        0
102
RTVSPost2010PropOp40
 70
     1
102
RTVSPost2010Prop41ColorIndex
 90
       18
102
RTVSPost2010Prop41ColorRGB
 90
        0
102
RTVSPost2010PropOp41
 70
     1
102
RTVSPost2010Prop42
 90
       50
102
RTVSPost2010PropOp42
 70
     1
102
RTVSPost2010Prop43
 90
        3
102
RTVSPost2010PropOp43
 70
     1
102
RTVSPost2010Prop44ColorIndex
 90
        5
102
RTVSPost2010Prop44ColorRGB
 90
      255
102
RTVSPost2010PropOp44
 70
     1
102
RTVSPost2010Prop45
280
     0
102
RTVSPost2010PropOp45
 70
     1
102
RTVSPost2010Prop46
 90
       50
102
RTVSPost2010PropOp46
 70
     1
102
RTVSPost2010Prop47
 90
       50
102
RTVSPost2010PropOp47
 70
     1
102
RTVSPost2010Prop48
 90
       50
102
RTVSPost2010PropOp48
 70
     1
102
RTVSPost2010Prop49
280
     0
102
RTVSPost2010PropOp49
 70
     1
102
RTVSPost2010Prop50
 90
       50
102
RTVSPost2010PropOp50
 70
     1
102
RTVSPost2010Prop51ColorIndex
 90
      256
102
RTVSPost2010Prop51ColorRGB
 90
-16777216
102
RTVSPost2010PropOp51
 70
     0
102
RTVSPost2010Prop52
140
1.0
102
RTVSPost2010PropOp52
 70
     0
102
RTVSPost2010Prop53
 90
        2
102
RTVSPost2010PropOp53
 70
     1
102
RTVSPost2010Prop54
  1
strokes_ogs.tif
102
RTVSPost2010PropOp54
 70
     1
102
RTVSPost2010Prop55
280
     0
102
RTVSPost2010PropOp55
 70
     1
102
RTVSPost2010Prop56
140
1.0
102
RTVSPost2010PropOp56
 70
     1
102
RTVSPost2010Prop57
140
1.0
102
RTVSPost2010PropOp57
 70
     1
102
RTVSPropertyOp0
 70
     1
102
RTVSPropertyOp1
 70
     1
102
RTVSPropertyOp2
 70
     1
102
RTVSPropertyOp3
 70
     1
102
RTVSPropertyOp4
 70
     1
102
RTVSPropertyOp5
 70
     1
102
RTVSPropertyOp6
 70
     1
102
RTVSPropertyOp7
 70
     1
102
RTVSPropertyOp8
 70
     1
102
RTVSPropertyOp9
 70
     1
102
RTVSPropertyOp10
 70
     1
102
RTVSPropertyOp11
 70
     1
102
RTVSPropertyOp12
 70
     1
102
RTVSPropertyOp13
 70
     1
102
RTVSPropertyOp14
 70
     1
102
RTVSPropertyOp15
 70
     1
102
RTVSPropertyOp16
 70
     1
102
RTVSPropertyOp17
 70
     1
102
RTVSPropertyOp18
 70
     1
102
RTVSPropertyOp19
 70
     1
102
RTVSPropertyOp20
 70
     1
102
RTVSPropertyOp21
 70
     1
102
RTVSPropertyOp22
 70
     1
102
RTVSPropertyOp23
 70
     1
102
RTVSPropertyOp24
 70
     1
102
RTVSPropertyOp25
 70
     1
102
RTVSPropertyOp26
 70
     1
102
RTVSPropertyOp27
 70
     1
102
RTVSPropertyOp28
 70
     1
102
RTVSPropertyOp29
 70
     1
102
RTVSPropertyOp30
 70
     1
102
RTVSPropertyOp31
 70
     1
102
RTVSPropertyOp32
 70
     1
102
RTVSPropertyOp33
 70
     1
102
RTVSPropertyOp34
 70
     1
102
RTVSPropertyOp35
 70
     1
102
RTVSPropertyOp36
 70
     1
102
RTVSPropertyOp37
 70
     1
102
RTVSPropertyOp38
 70
     1
102
RTVSPropertyOp39
 70
     1
102
RTVSPropertyOp40
 70
     1
102
RTVSPropertyOp41
 70
     1
102
RTVSPropertyOp42
 70
     1
102
RTVSPropertyOp43
 70
     1
102
RTVSPropertyOp44
 70
     1
102
RTVSPropertyOp45
 70
     1
102
RTVSPropertyOp46
 70
     1
102
RTVSPropertyOp47
 70
     1
102
RTVSPropertyOp48
 70
     1
102
RTVSPropertyOp49
 70
     1
102
RTVSPropertyOp50
 70
     1
102
RTVSPropertyOp51
 70
     0
102
RTVSPropertyOp52
 70
     0
102
RTVSPropertyOp53
 70
     1
102
RTVSPropertyOp54
 70
     1
102
RTVSPropertyOp55
 70
     1
102
RTVSPropertyOp56
 70
     1
102
RTVSPropertyOp57
 70
     1
102
RTVSPropertyOp58
 70
     1
102
RTVSPropertyOp59
 70
     1
102
RTVSPropertyOp60
 70
     1
102
RTVSPropertyOp61
 70
     1
102
RTVSPropertyOp62
 70
     1
  0
XRECORD
  5
426C
102
{ACAD_REACTORS
330
426B
102
}
330
426B
100
AcDbXrecord
280
     1
102
RTVSPost2010Prop28
280
     0
102
RTVSPost2010PropOp28
 70
     1
102
RTVSPost2010Prop29
280
     1
102
RTVSPost2010PropOp29
 70
     1
102
RTVSPost2010Prop30
280
     1
102
RTVSPost2010PropOp30
 70
     1
102
RTVSPost2010Prop31
280
     0
102
RTVSPost2010PropOp31
 70
     1
102
RTVSPost2010Prop32
280
     0
102
RTVSPost2010PropOp32
 70
     1
102
RTVSPost2010Prop33
280
     0
102
RTVSPost2010PropOp33
 70
     1
102
RTVSPost2010Prop34
280
     0
102
RTVSPost2010PropOp34
 70
     1
102
RTVSPost2010Prop35
280
     0
102
RTVSPost2010PropOp35
 70
     1
102
RTVSPost2010Prop36
280
     0
102
RTVSPost2010PropOp36
 70
     1
102
RTVSPost2010Prop37
 90
       50
102
RTVSPost2010PropOp37
 70
     0
102
RTVSPost2010Prop38
140
0.0
102
RTVSPost2010PropOp38
 70
     0
102
RTVSPost2010Prop39
140
1.0
102
RTVSPost2010PropOp39
 70
     0
102
RTVSPost2010Prop40
 90
        0
102
RTVSPost2010PropOp40
 70
     0
102
RTVSPost2010Prop41ColorIndex
 90
       18
102
RTVSPost2010Prop41ColorRGB
 90
        0
102
RTVSPost2010PropOp41
 70
     0
102
RTVSPost2010Prop42
 90
       50
102
RTVSPost2010PropOp42
 70
     0
102
RTVSPost2010Prop43
 90
        3
102
RTVSPost2010PropOp43
 70
     0
102
RTVSPost2010Prop44ColorIndex
 90
        5
102
RTVSPost2010Prop44ColorRGB
 90
      255
102
RTVSPost2010PropOp44
 70
     0
102
RTVSPost2010Prop45
280
     0
102
RTVSPost2010PropOp45
 70
     1
102
RTVSPost2010Prop46
 90
       50
102
RTVSPost2010PropOp46
 70
     0
102
RTVSPost2010Prop47
 90
       50
102
RTVSPost2010PropOp47
 70
     0
102
RTVSPost2010Prop48
 90
       50
102
RTVSPost2010PropOp48
 70
     0
102
RTVSPost2010Prop49
280
     0
102
RTVSPost2010PropOp49
 70
     1
102
RTVSPost2010Prop50
 90
       50
102
RTVSPost2010PropOp50
 70
     0
102
RTVSPost2010Prop51ColorIndex
 90
      256
102
RTVSPost2010Prop51ColorRGB
 90
-16777216
102
RTVSPost2010PropOp51
 70
     0
102
RTVSPost2010Prop52
140
1.0
102
RTVSPost2010PropOp52
 70
     0
102
RTVSPost2010Prop53
 90
        2
102
RTVSPost2010PropOp53
 70
     0
102
RTVSPost2010Prop54
  1
strokes_ogs.tif
102
RTVSPost2010PropOp54
 70
     0
102
RTVSPost2010Prop55
280
     0
102
RTVSPost2010PropOp55
 70
     1
102
RTVSPost2010Prop56
140
1.0
102
RTVSPost2010PropOp56
 70
     0
102
RTVSPost2010Prop57
140
1.0
102
RTVSPost2010PropOp57
 70
     0
102
RTVSPropertyOp0
 70
     0
102
RTVSPropertyOp1
 70
     0
102
RTVSPropertyOp2
 70
     0
102
RTVSPropertyOp3
 70
     0
102
RTVSPropertyOp4
 70
     0
102
RTVSPropertyOp5
 70
     0
102
RTVSPropertyOp6
 70
     0
102
RTVSPropertyOp7
 70
     0
102
RTVSPropertyOp8
 70
     0
102
RTVSPropertyOp9
 70
     0
102
RTVSPropertyOp10
 70
     0
102
RTVSPropertyOp11
 70
     0
102
RTVSPropertyOp12
 70
     0
102
RTVSPropertyOp13
 70
     0
102
RTVSPropertyOp14
 70
     2
102
RTVSPropertyOp15
 70
     0
102
RTVSPropertyOp16
 70
     0
102
RTVSPropertyOp17
 70
     0
102
RTVSPropertyOp18
 70
     0
102
RTVSPropertyOp19
 70
     0
102
RTVSPropertyOp20
 70
     0
102
RTVSPropertyOp21
 70
     0
102
RTVSPropertyOp22
 70
     0
102
RTVSPropertyOp23
 70
     0
102
RTVSPropertyOp24
 70
     0
102
RTVSPropertyOp25
 70
     0
102
RTVSPropertyOp26
 70
     0
102
RTVSPropertyOp27
 70
     0
102
RTVSPropertyOp28
 70
     1
102
RTVSPropertyOp29
 70
     1
102
RTVSPropertyOp30
 70
     1
102
RTVSPropertyOp31
 70
     1
102
RTVSPropertyOp32
 70
     1
102
RTVSPropertyOp33
 70
     1
102
RTVSPropertyOp34
 70
     1
102
RTVSPropertyOp35
 70
     1
102
RTVSPropertyOp36
 70
     1
102
RTVSPropertyOp37
 70
     0
102
RTVSPropertyOp38
 70
     0
102
RTVSPropertyOp39
 70
     0
102
RTVSPropertyOp40
 70
     0
102
RTVSPropertyOp41
 70
     0
102
RTVSPropertyOp42
 70
     0
102
RTVSPropertyOp43
 70
     0
102
RTVSPropertyOp44
 70
     0
102
RTVSPropertyOp45
 70
     1
102
RTVSPropertyOp46
 70
     0
102
RTVSPropertyOp47
 70
     0
102
RTVSPropertyOp48
 70
     0
102
RTVSPropertyOp49
 70
     1
102
RTVSPropertyOp50
 70
     0
102
RTVSPropertyOp51
 70
     0
102
RTVSPropertyOp52
 70
     0
102
RTVSPropertyOp53
 70
     0
102
RTVSPropertyOp54
 70
     0
102
RTVSPropertyOp55
 70
     1
102
RTVSPropertyOp56
 70
     0
102
RTVSPropertyOp57
 70
     0
102
RTVSPropertyOp58
 70
     0
102
RTVSPropertyOp59
 70
     0
102
RTVSPropertyOp60
 70
     0
102
RTVSPropertyOp61
 70
     0
102
RTVSPropertyOp62
 70
     0
  0
XRECORD
  5
425C
102
{ACAD_REACTORS
330
425B
102
}
330
425B
100
AcDbXrecord
280
     1
102
RTVSPost2010Prop28
280
     0
102
RTVSPost2010PropOp28
 70
     1
102
RTVSPost2010Prop29
280
     1
102
RTVSPost2010PropOp29
 70
     1
102
RTVSPost2010Prop30
280
     1
102
RTVSPost2010PropOp30
 70
     1
102
RTVSPost2010Prop31
280
     0
102
RTVSPost2010PropOp31
 70
     1
102
RTVSPost2010Prop32
280
     0
102
RTVSPost2010PropOp32
 70
     1
102
RTVSPost2010Prop33
280
     0
102
RTVSPost2010PropOp33
 70
     1
102
RTVSPost2010Prop34
280
     0
102
RTVSPost2010PropOp34
 70
     1
102
RTVSPost2010Prop35
280
     0
102
RTVSPost2010PropOp35
 70
     1
102
RTVSPost2010Prop36
280
     0
102
RTVSPost2010PropOp36
 70
     1
102
RTVSPost2010Prop37
 90
       50
102
RTVSPost2010PropOp37
 70
     1
102
RTVSPost2010Prop38
140
0.0
102
RTVSPost2010PropOp38
 70
     1
102
RTVSPost2010Prop39
140
1.0
102
RTVSPost2010PropOp39
 70
     1
102
RTVSPost2010Prop40
 90
        0
102
RTVSPost2010PropOp40
 70
     1
102
RTVSPost2010Prop41ColorIndex
 90
       18
102
RTVSPost2010Prop41ColorRGB
 90
        0
102
RTVSPost2010PropOp41
 70
     1
102
RTVSPost2010Prop42
 90
       50
102
RTVSPost2010PropOp42
 70
     1
102
RTVSPost2010Prop43
 90
        3
102
RTVSPost2010PropOp43
 70
     1
102
RTVSPost2010Prop44ColorIndex
 90
        5
102
RTVSPost2010Prop44ColorRGB
 90
      255
102
RTVSPost2010PropOp44
 70
     1
102
RTVSPost2010Prop45
280
     0
102
RTVSPost2010PropOp45
 70
     1
102
RTVSPost2010Prop46
 90
       50
102
RTVSPost2010PropOp46
 70
     1
102
RTVSPost2010Prop47
 90
       50
102
RTVSPost2010PropOp47
 70
     1
102
RTVSPost2010Prop48
 90
       50
102
RTVSPost2010PropOp48
 70
     1
102
RTVSPost2010Prop49
280
     0
102
RTVSPost2010PropOp49
 70
     1
102
RTVSPost2010Prop50
 90
       50
102
RTVSPost2010PropOp50
 70
     1
102
RTVSPost2010Prop51ColorIndex
 90
      256
102
RTVSPost2010Prop51ColorRGB
 90
-16777216
102
RTVSPost2010PropOp51
 70
     0
102
RTVSPost2010Prop52
140
1.0
102
RTVSPost2010PropOp52
 70
     0
102
RTVSPost2010Prop53
 90
        2
102
RTVSPost2010PropOp53
 70
     1
102
RTVSPost2010Prop54
  1
strokes_ogs.tif
102
RTVSPost2010PropOp54
 70
     1
102
RTVSPost2010Prop55
280
     0
102
RTVSPost2010PropOp55
 70
     1
102
RTVSPost2010Prop56
140
1.0
102
RTVSPost2010PropOp56
 70
     1
102
RTVSPost2010Prop57
140
1.0
102
RTVSPost2010PropOp57
 70
     1
102
RTVSPropertyOp0
 70
     1
102
RTVSPropertyOp1
 70
     1
102
RTVSPropertyOp2
 70
     1
102
RTVSPropertyOp3
 70
     1
102
RTVSPropertyOp4
 70
     1
102
RTVSPropertyOp5
 70
     1
102
RTVSPropertyOp6
 70
     1
102
RTVSPropertyOp7
 70
     1
102
RTVSPropertyOp8
 70
     1
102
RTVSPropertyOp9
 70
     1
102
RTVSPropertyOp10
 70
     1
102
RTVSPropertyOp11
 70
     1
102
RTVSPropertyOp12
 70
     1
102
RTVSPropertyOp13
 70
     1
102
RTVSPropertyOp14
 70
     1
102
RTVSPropertyOp15
 70
     1
102
RTVSPropertyOp16
 70
     1
102
RTVSPropertyOp17
 70
     1
102
RTVSPropertyOp18
 70
     1
102
RTVSPropertyOp19
 70
     1
102
RTVSPropertyOp20
 70
     1
102
RTVSPropertyOp21
 70
     1
102
RTVSPropertyOp22
 70
     1
102
RTVSPropertyOp23
 70
     1
102
RTVSPropertyOp24
 70
     1
102
RTVSPropertyOp25
 70
     1
102
RTVSPropertyOp26
 70
     1
102
RTVSPropertyOp27
 70
     1
102
RTVSPropertyOp28
 70
     1
102
RTVSPropertyOp29
 70
     1
102
RTVSPropertyOp30
 70
     1
102
RTVSPropertyOp31
 70
     1
102
RTVSPropertyOp32
 70
     1
102
RTVSPropertyOp33
 70
     1
102
RTVSPropertyOp34
 70
     1
102
RTVSPropertyOp35
 70
     1
102
RTVSPropertyOp36
 70
     1
102
RTVSPropertyOp37
 70
     1
102
RTVSPropertyOp38
 70
     1
102
RTVSPropertyOp39
 70
     1
102
RTVSPropertyOp40
 70
     1
102
RTVSPropertyOp41
 70
     1
102
RTVSPropertyOp42
 70
     1
102
RTVSPropertyOp43
 70
     1
102
RTVSPropertyOp44
 70
     1
102
RTVSPropertyOp45
 70
     1
102
RTVSPropertyOp46
 70
     1
102
RTVSPropertyOp47
 70
     1
102
RTVSPropertyOp48
 70
     1
102
RTVSPropertyOp49
 70
     1
102
RTVSPropertyOp50
 70
     1
102
RTVSPropertyOp51
 70
     0
102
RTVSPropertyOp52
 70
     0
102
RTVSPropertyOp53
 70
     1
102
RTVSPropertyOp54
 70
     1
102
RTVSPropertyOp55
 70
     1
102
RTVSPropertyOp56
 70
     1
102
RTVSPropertyOp57
 70
     1
102
RTVSPropertyOp58
 70
     1
102
RTVSPropertyOp59
 70
     1
102
RTVSPropertyOp60
 70
     1
102
RTVSPropertyOp61
 70
     1
102
RTVSPropertyOp62
 70
     1
  0
XRECORD
  5
426E
102
{ACAD_REACTORS
330
426D
102
}
330
426D
100
AcDbXrecord
280
     1
102
RTVSPost2010Prop28
280
     0
102
RTVSPost2010PropOp28
 70
     1
102
RTVSPost2010Prop29
280
     1
102
RTVSPost2010PropOp29
 70
     1
102
RTVSPost2010Prop30
280
     1
102
RTVSPost2010PropOp30
 70
     1
102
RTVSPost2010Prop31
280
     0
102
RTVSPost2010PropOp31
 70
     1
102
RTVSPost2010Prop32
280
     0
102
RTVSPost2010PropOp32
 70
     1
102
RTVSPost2010Prop33
280
     0
102
RTVSPost2010PropOp33
 70
     1
102
RTVSPost2010Prop34
280
     0
102
RTVSPost2010PropOp34
 70
     1
102
RTVSPost2010Prop35
280
     0
102
RTVSPost2010PropOp35
 70
     1
102
RTVSPost2010Prop36
280
     0
102
RTVSPost2010PropOp36
 70
     1
102
RTVSPost2010Prop37
 90
       50
102
RTVSPost2010PropOp37
 70
     0
102
RTVSPost2010Prop38
140
0.0
102
RTVSPost2010PropOp38
 70
     0
102
RTVSPost2010Prop39
140
1.0
102
RTVSPost2010PropOp39
 70
     0
102
RTVSPost2010Prop40
 90
        0
102
RTVSPost2010PropOp40
 70
     0
102
RTVSPost2010Prop41ColorIndex
 90
       18
102
RTVSPost2010Prop41ColorRGB
 90
        0
102
RTVSPost2010PropOp41
 70
     0
102
RTVSPost2010Prop42
 90
       50
102
RTVSPost2010PropOp42
 70
     0
102
RTVSPost2010Prop43
 90
        3
102
RTVSPost2010PropOp43
 70
     0
102
RTVSPost2010Prop44ColorIndex
 90
        5
102
RTVSPost2010Prop44ColorRGB
 90
      255
102
RTVSPost2010PropOp44
 70
     0
102
RTVSPost2010Prop45
280
     0
102
RTVSPost2010PropOp45
 70
     1
102
RTVSPost2010Prop46
 90
       50
102
RTVSPost2010PropOp46
 70
     0
102
RTVSPost2010Prop47
 90
       50
102
RTVSPost2010PropOp47
 70
     0
102
RTVSPost2010Prop48
 90
       50
102
RTVSPost2010PropOp48
 70
     0
102
RTVSPost2010Prop49
280
     0
102
RTVSPost2010PropOp49
 70
     1
102
RTVSPost2010Prop50
 90
       50
102
RTVSPost2010PropOp50
 70
     0
102
RTVSPost2010Prop51ColorIndex
 90
      256
102
RTVSPost2010Prop51ColorRGB
 90
-16777216
102
RTVSPost2010PropOp51
 70
     0
102
RTVSPost2010Prop52
140
1.0
102
RTVSPost2010PropOp52
 70
     0
102
RTVSPost2010Prop53
 90
        2
102
RTVSPost2010PropOp53
 70
     0
102
RTVSPost2010Prop54
  1
strokes_ogs.tif
102
RTVSPost2010PropOp54
 70
     0
102
RTVSPost2010Prop55
280
     0
102
RTVSPost2010PropOp55
 70
     1
102
RTVSPost2010Prop56
140
1.0
102
RTVSPost2010PropOp56
 70
     0
102
RTVSPost2010Prop57
140
1.0
102
RTVSPost2010PropOp57
 70
     0
102
RTVSPropertyOp0
 70
     0
102
RTVSPropertyOp1
 70
     0
102
RTVSPropertyOp2
 70
     0
102
RTVSPropertyOp3
 70
     0
102
RTVSPropertyOp4
 70
     0
102
RTVSPropertyOp5
 70
     0
102
RTVSPropertyOp6
 70
     0
102
RTVSPropertyOp7
 70
     0
102
RTVSPropertyOp8
 70
     0
102
RTVSPropertyOp9
 70
     0
102
RTVSPropertyOp10
 70
     0
102
RTVSPropertyOp11
 70
     0
102
RTVSPropertyOp12
 70
     0
102
RTVSPropertyOp13
 70
     0
102
RTVSPropertyOp14
 70
     2
102
RTVSPropertyOp15
 70
     0
102
RTVSPropertyOp16
 70
     0
102
RTVSPropertyOp17
 70
     0
102
RTVSPropertyOp18
 70
     0
102
RTVSPropertyOp19
 70
     0
102
RTVSPropertyOp20
 70
     0
102
RTVSPropertyOp21
 70
     0
102
RTVSPropertyOp22
 70
     0
102
RTVSPropertyOp23
 70
     0
102
RTVSPropertyOp24
 70
     0
102
RTVSPropertyOp25
 70
     0
102
RTVSPropertyOp26
 70
     0
102
RTVSPropertyOp27
 70
     0
102
RTVSPropertyOp28
 70
     1
102
RTVSPropertyOp29
 70
     1
102
RTVSPropertyOp30
 70
     1
102
RTVSPropertyOp31
 70
     1
102
RTVSPropertyOp32
 70
     1
102
RTVSPropertyOp33
 70
     1
102
RTVSPropertyOp34
 70
     1
102
RTVSPropertyOp35
 70
     1
102
RTVSPropertyOp36
 70
     1
102
RTVSPropertyOp37
 70
     0
102
RTVSPropertyOp38
 70
     0
102
RTVSPropertyOp39
 70
     0
102
RTVSPropertyOp40
 70
     0
102
RTVSPropertyOp41
 70
     0
102
RTVSPropertyOp42
 70
     0
102
RTVSPropertyOp43
 70
     0
102
RTVSPropertyOp44
 70
     0
102
RTVSPropertyOp45
 70
     1
102
RTVSPropertyOp46
 70
     0
102
RTVSPropertyOp47
 70
     0
102
RTVSPropertyOp48
 70
     0
102
RTVSPropertyOp49
 70
     1
102
RTVSPropertyOp50
 70
     0
102
RTVSPropertyOp51
 70
     0
102
RTVSPropertyOp52
 70
     0
102
RTVSPropertyOp53
 70
     0
102
RTVSPropertyOp54
 70
     0
102
RTVSPropertyOp55
 70
     1
102
RTVSPropertyOp56
 70
     0
102
RTVSPropertyOp57
 70
     0
102
RTVSPropertyOp58
 70
     0
102
RTVSPropertyOp59
 70
     0
102
RTVSPropertyOp60
 70
     0
102
RTVSPropertyOp61
 70
     0
102
RTVSPropertyOp62
 70
     0
  0
XRECORD
  5
4254
102
{ACAD_REACTORS
330
4253
102
}
330
4253
100
AcDbXrecord
280
     1
102
RTVSPost2010Prop28
280
     0
102
RTVSPost2010PropOp28
 70
     1
102
RTVSPost2010Prop29
280
     1
102
RTVSPost2010PropOp29
 70
     1
102
RTVSPost2010Prop30
280
     1
102
RTVSPost2010PropOp30
 70
     1
102
RTVSPost2010Prop31
280
     0
102
RTVSPost2010PropOp31
 70
     1
102
RTVSPost2010Prop32
280
     0
102
RTVSPost2010PropOp32
 70
     1
102
RTVSPost2010Prop33
280
     0
102
RTVSPost2010PropOp33
 70
     1
102
RTVSPost2010Prop34
280
     0
102
RTVSPost2010PropOp34
 70
     1
102
RTVSPost2010Prop35
280
     0
102
RTVSPost2010PropOp35
 70
     1
102
RTVSPost2010Prop36
280
     0
102
RTVSPost2010PropOp36
 70
     1
102
RTVSPost2010Prop37
 90
       50
102
RTVSPost2010PropOp37
 70
     1
102
RTVSPost2010Prop38
140
0.0
102
RTVSPost2010PropOp38
 70
     1
102
RTVSPost2010Prop39
140
1.0
102
RTVSPost2010PropOp39
 70
     1
102
RTVSPost2010Prop40
 90
        0
102
RTVSPost2010PropOp40
 70
     1
102
RTVSPost2010Prop41ColorIndex
 90
       18
102
RTVSPost2010Prop41ColorRGB
 90
        0
102
RTVSPost2010PropOp41
 70
     1
102
RTVSPost2010Prop42
 90
       50
102
RTVSPost2010PropOp42
 70
     1
102
RTVSPost2010Prop43
 90
        3
102
RTVSPost2010PropOp43
 70
     1
102
RTVSPost2010Prop44ColorIndex
 90
        5
102
RTVSPost2010Prop44ColorRGB
 90
      255
102
RTVSPost2010PropOp44
 70
     1
102
RTVSPost2010Prop45
280
     0
102
RTVSPost2010PropOp45
 70
     1
102
RTVSPost2010Prop46
 90
       50
102
RTVSPost2010PropOp46
 70
     1
102
RTVSPost2010Prop47
 90
       50
102
RTVSPost2010PropOp47
 70
     1
102
RTVSPost2010Prop48
 90
       50
102
RTVSPost2010PropOp48
 70
     1
102
RTVSPost2010Prop49
280
     0
102
RTVSPost2010PropOp49
 70
     1
102
RTVSPost2010Prop50
 90
       50
102
RTVSPost2010PropOp50
 70
     1
102
RTVSPost2010Prop51ColorIndex
 90
      256
102
RTVSPost2010Prop51ColorRGB
 90
-16777216
102
RTVSPost2010PropOp51
 70
     0
102
RTVSPost2010Prop52
140
1.0
102
RTVSPost2010PropOp52
 70
     0
102
RTVSPost2010Prop53
 90
        2
102
RTVSPost2010PropOp53
 70
     1
102
RTVSPost2010Prop54
  1
strokes_ogs.tif
102
RTVSPost2010PropOp54
 70
     1
102
RTVSPost2010Prop55
280
     0
102
RTVSPost2010PropOp55
 70
     1
102
RTVSPost2010Prop56
140
1.0
102
RTVSPost2010PropOp56
 70
     1
102
RTVSPost2010Prop57
140
1.0
102
RTVSPost2010PropOp57
 70
     1
102
RTVSPropertyOp0
 70
     1
102
RTVSPropertyOp1
 70
     1
102
RTVSPropertyOp2
 70
     1
102
RTVSPropertyOp3
 70
     1
102
RTVSPropertyOp4
 70
     1
102
RTVSPropertyOp5
 70
     1
102
RTVSPropertyOp6
 70
     1
102
RTVSPropertyOp7
 70
     1
102
RTVSPropertyOp8
 70
     1
102
RTVSPropertyOp9
 70
     1
102
RTVSPropertyOp10
 70
     1
102
RTVSPropertyOp11
 70
     1
102
RTVSPropertyOp12
 70
     1
102
RTVSPropertyOp13
 70
     1
102
RTVSPropertyOp14
 70
     1
102
RTVSPropertyOp15
 70
     1
102
RTVSPropertyOp16
 70
     1
102
RTVSPropertyOp17
 70
     1
102
RTVSPropertyOp18
 70
     1
102
RTVSPropertyOp19
 70
     1
102
RTVSPropertyOp20
 70
     1
102
RTVSPropertyOp21
 70
     1
102
RTVSPropertyOp22
 70
     1
102
RTVSPropertyOp23
 70
     1
102
RTVSPropertyOp24
 70
     1
102
RTVSPropertyOp25
 70
     1
102
RTVSPropertyOp26
 70
     1
102
RTVSPropertyOp27
 70
     1
102
RTVSPropertyOp28
 70
     1
102
RTVSPropertyOp29
 70
     1
102
RTVSPropertyOp30
 70
     1
102
RTVSPropertyOp31
 70
     1
102
RTVSPropertyOp32
 70
     1
102
RTVSPropertyOp33
 70
     1
102
RTVSPropertyOp34
 70
     1
102
RTVSPropertyOp35
 70
     1
102
RTVSPropertyOp36
 70
     1
102
RTVSPropertyOp37
 70
     1
102
RTVSPropertyOp38
 70
     1
102
RTVSPropertyOp39
 70
     1
102
RTVSPropertyOp40
 70
     1
102
RTVSPropertyOp41
 70
     1
102
RTVSPropertyOp42
 70
     1
102
RTVSPropertyOp43
 70
     1
102
RTVSPropertyOp44
 70
     1
102
RTVSPropertyOp45
 70
     1
102
RTVSPropertyOp46
 70
     1
102
RTVSPropertyOp47
 70
     1
102
RTVSPropertyOp48
 70
     1
102
RTVSPropertyOp49
 70
     1
102
RTVSPropertyOp50
 70
     1
102
RTVSPropertyOp51
 70
     0
102
RTVSPropertyOp52
 70
     0
102
RTVSPropertyOp53
 70
     1
102
RTVSPropertyOp54
 70
     1
102
RTVSPropertyOp55
 70
     1
102
RTVSPropertyOp56
 70
     1
102
RTVSPropertyOp57
 70
     1
102
RTVSPropertyOp58
 70
     1
102
RTVSPropertyOp59
 70
     1
102
RTVSPropertyOp60
 70
     1
102
RTVSPropertyOp61
 70
     1
102
RTVSPropertyOp62
 70
     1
  0
XRECORD
  5
426A
102
{ACAD_REACTORS
330
4269
102
}
330
4269
100
AcDbXrecord
280
     1
102
RTVSPost2010Prop28
280
     0
102
RTVSPost2010PropOp28
 70
     1
102
RTVSPost2010Prop29
280
     1
102
RTVSPost2010PropOp29
 70
     1
102
RTVSPost2010Prop30
280
     1
102
RTVSPost2010PropOp30
 70
     1
102
RTVSPost2010Prop31
280
     0
102
RTVSPost2010PropOp31
 70
     1
102
RTVSPost2010Prop32
280
     0
102
RTVSPost2010PropOp32
 70
     1
102
RTVSPost2010Prop33
280
     0
102
RTVSPost2010PropOp33
 70
     1
102
RTVSPost2010Prop34
280
     0
102
RTVSPost2010PropOp34
 70
     1
102
RTVSPost2010Prop35
280
     0
102
RTVSPost2010PropOp35
 70
     1
102
RTVSPost2010Prop36
280
     0
102
RTVSPost2010PropOp36
 70
     1
102
RTVSPost2010Prop37
 90
       50
102
RTVSPost2010PropOp37
 70
     1
102
RTVSPost2010Prop38
140
0.0
102
RTVSPost2010PropOp38
 70
     1
102
RTVSPost2010Prop39
140
1.0
102
RTVSPost2010PropOp39
 70
     1
102
RTVSPost2010Prop40
 90
        0
102
RTVSPost2010PropOp40
 70
     1
102
RTVSPost2010Prop41ColorIndex
 90
       18
102
RTVSPost2010Prop41ColorRGB
 90
        0
102
RTVSPost2010PropOp41
 70
     1
102
RTVSPost2010Prop42
 90
       50
102
RTVSPost2010PropOp42
 70
     1
102
RTVSPost2010Prop43
 90
        3
102
RTVSPost2010PropOp43
 70
     1
102
RTVSPost2010Prop44ColorIndex
 90
        5
102
RTVSPost2010Prop44ColorRGB
 90
      255
102
RTVSPost2010PropOp44
 70
     1
102
RTVSPost2010Prop45
280
     0
102
RTVSPost2010PropOp45
 70
     1
102
RTVSPost2010Prop46
 90
       50
102
RTVSPost2010PropOp46
 70
     1
102
RTVSPost2010Prop47
 90
       50
102
RTVSPost2010PropOp47
 70
     1
102
RTVSPost2010Prop48
 90
       50
102
RTVSPost2010PropOp48
 70
     1
102
RTVSPost2010Prop49
280
     0
102
RTVSPost2010PropOp49
 70
     1
102
RTVSPost2010Prop50
 90
       50
102
RTVSPost2010PropOp50
 70
     1
102
RTVSPost2010Prop51ColorIndex
 90
      256
102
RTVSPost2010Prop51ColorRGB
 90
-16777216
102
RTVSPost2010PropOp51
 70
     0
102
RTVSPost2010Prop52
140
1.0
102
RTVSPost2010PropOp52
 70
     0
102
RTVSPost2010Prop53
 90
        2
102
RTVSPost2010PropOp53
 70
     1
102
RTVSPost2010Prop54
  1
strokes_ogs.tif
102
RTVSPost2010PropOp54
 70
     1
102
RTVSPost2010Prop55
280
     0
102
RTVSPost2010PropOp55
 70
     1
102
RTVSPost2010Prop56
140
1.0
102
RTVSPost2010PropOp56
 70
     1
102
RTVSPost2010Prop57
140
1.0
102
RTVSPost2010PropOp57
 70
     1
102
RTVSPropertyOp0
 70
     1
102
RTVSPropertyOp1
 70
     1
102
RTVSPropertyOp2
 70
     1
102
RTVSPropertyOp3
 70
     1
102
RTVSPropertyOp4
 70
     1
102
RTVSPropertyOp5
 70
     1
102
RTVSPropertyOp6
 70
     1
102
RTVSPropertyOp7
 70
     1
102
RTVSPropertyOp8
 70
     1
102
RTVSPropertyOp9
 70
     1
102
RTVSPropertyOp10
 70
     1
102
RTVSPropertyOp11
 70
     1
102
RTVSPropertyOp12
 70
     1
102
RTVSPropertyOp13
 70
     1
102
RTVSPropertyOp14
 70
     1
102
RTVSPropertyOp15
 70
     1
102
RTVSPropertyOp16
 70
     1
102
RTVSPropertyOp17
 70
     1
102
RTVSPropertyOp18
 70
     1
102
RTVSPropertyOp19
 70
     1
102
RTVSPropertyOp20
 70
     1
102
RTVSPropertyOp21
 70
     1
102
RTVSPropertyOp22
 70
     1
102
RTVSPropertyOp23
 70
     1
102
RTVSPropertyOp24
 70
     1
102
RTVSPropertyOp25
 70
     1
102
RTVSPropertyOp26
 70
     1
102
RTVSPropertyOp27
 70
     1
102
RTVSPropertyOp28
 70
     1
102
RTVSPropertyOp29
 70
     1
102
RTVSPropertyOp30
 70
     1
102
RTVSPropertyOp31
 70
     1
102
RTVSPropertyOp32
 70
     1
102
RTVSPropertyOp33
 70
     1
102
RTVSPropertyOp34
 70
     1
102
RTVSPropertyOp35
 70
     1
102
RTVSPropertyOp36
 70
     1
102
RTVSPropertyOp37
 70
     1
102
RTVSPropertyOp38
 70
     1
102
RTVSPropertyOp39
 70
     1
102
RTVSPropertyOp40
 70
     1
102
RTVSPropertyOp41
 70
     1
102
RTVSPropertyOp42
 70
     1
102
RTVSPropertyOp43
 70
     1
102
RTVSPropertyOp44
 70
     1
102
RTVSPropertyOp45
 70
     1
102
RTVSPropertyOp46
 70
     1
102
RTVSPropertyOp47
 70
     1
102
RTVSPropertyOp48
 70
     1
102
RTVSPropertyOp49
 70
     1
102
RTVSPropertyOp50
 70
     1
102
RTVSPropertyOp51
 70
     0
102
RTVSPropertyOp52
 70
     0
102
RTVSPropertyOp53
 70
     1
102
RTVSPropertyOp54
 70
     1
102
RTVSPropertyOp55
 70
     1
102
RTVSPropertyOp56
 70
     1
102
RTVSPropertyOp57
 70
     1
102
RTVSPropertyOp58
 70
     1
102
RTVSPropertyOp59
 70
     1
102
RTVSPropertyOp60
 70
     1
102
RTVSPropertyOp61
 70
     1
102
RTVSPropertyOp62
 70
     1
  0
XRECORD
  5
4268
102
{ACAD_REACTORS
330
4267
102
}
330
4267
100
AcDbXrecord
280
     1
102
RTVSPost2010Prop28
280
     0
102
RTVSPost2010PropOp28
 70
     1
102
RTVSPost2010Prop29
280
     1
102
RTVSPost2010PropOp29
 70
     1
102
RTVSPost2010Prop30
280
     1
102
RTVSPost2010PropOp30
 70
     1
102
RTVSPost2010Prop31
280
     0
102
RTVSPost2010PropOp31
 70
     1
102
RTVSPost2010Prop32
280
     0
102
RTVSPost2010PropOp32
 70
     1
102
RTVSPost2010Prop33
280
     0
102
RTVSPost2010PropOp33
 70
     1
102
RTVSPost2010Prop34
280
     0
102
RTVSPost2010PropOp34
 70
     1
102
RTVSPost2010Prop35
280
     0
102
RTVSPost2010PropOp35
 70
     1
102
RTVSPost2010Prop36
280
     0
102
RTVSPost2010PropOp36
 70
     1
102
RTVSPost2010Prop37
 90
       50
102
RTVSPost2010PropOp37
 70
     1
102
RTVSPost2010Prop38
140
0.0
102
RTVSPost2010PropOp38
 70
     1
102
RTVSPost2010Prop39
140
1.0
102
RTVSPost2010PropOp39
 70
     1
102
RTVSPost2010Prop40
 90
        0
102
RTVSPost2010PropOp40
 70
     1
102
RTVSPost2010Prop41ColorIndex
 90
       18
102
RTVSPost2010Prop41ColorRGB
 90
        0
102
RTVSPost2010PropOp41
 70
     1
102
RTVSPost2010Prop42
 90
       50
102
RTVSPost2010PropOp42
 70
     1
102
RTVSPost2010Prop43
 90
        3
102
RTVSPost2010PropOp43
 70
     1
102
RTVSPost2010Prop44ColorIndex
 90
        5
102
RTVSPost2010Prop44ColorRGB
 90
      255
102
RTVSPost2010PropOp44
 70
     1
102
RTVSPost2010Prop45
280
     0
102
RTVSPost2010PropOp45
 70
     1
102
RTVSPost2010Prop46
 90
       50
102
RTVSPost2010PropOp46
 70
     1
102
RTVSPost2010Prop47
 90
       50
102
RTVSPost2010PropOp47
 70
     1
102
RTVSPost2010Prop48
 90
       50
102
RTVSPost2010PropOp48
 70
     1
102
RTVSPost2010Prop49
280
     0
102
RTVSPost2010PropOp49
 70
     1
102
RTVSPost2010Prop50
 90
       50
102
RTVSPost2010PropOp50
 70
     1
102
RTVSPost2010Prop51ColorIndex
 90
      256
102
RTVSPost2010Prop51ColorRGB
 90
-16777216
102
RTVSPost2010PropOp51
 70
     0
102
RTVSPost2010Prop52
140
1.0
102
RTVSPost2010PropOp52
 70
     0
102
RTVSPost2010Prop53
 90
        2
102
RTVSPost2010PropOp53
 70
     1
102
RTVSPost2010Prop54
  1
strokes_ogs.tif
102
RTVSPost2010PropOp54
 70
     1
102
RTVSPost2010Prop55
280
     0
102
RTVSPost2010PropOp55
 70
     1
102
RTVSPost2010Prop56
140
1.0
102
RTVSPost2010PropOp56
 70
     1
102
RTVSPost2010Prop57
140
1.0
102
RTVSPost2010PropOp57
 70
     1
102
RTVSPropertyOp0
 70
     1
102
RTVSPropertyOp1
 70
     1
102
RTVSPropertyOp2
 70
     1
102
RTVSPropertyOp3
 70
     1
102
RTVSPropertyOp4
 70
     1
102
RTVSPropertyOp5
 70
     1
102
RTVSPropertyOp6
 70
     1
102
RTVSPropertyOp7
 70
     1
102
RTVSPropertyOp8
 70
     1
102
RTVSPropertyOp9
 70
     1
102
RTVSPropertyOp10
 70
     1
102
RTVSPropertyOp11
 70
     1
102
RTVSPropertyOp12
 70
     1
102
RTVSPropertyOp13
 70
     1
102
RTVSPropertyOp14
 70
     1
102
RTVSPropertyOp15
 70
     1
102
RTVSPropertyOp16
 70
     1
102
RTVSPropertyOp17
 70
     1
102
RTVSPropertyOp18
 70
     1
102
RTVSPropertyOp19
 70
     1
102
RTVSPropertyOp20
 70
     1
102
RTVSPropertyOp21
 70
     1
102
RTVSPropertyOp22
 70
     1
102
RTVSPropertyOp23
 70
     1
102
RTVSPropertyOp24
 70
     1
102
RTVSPropertyOp25
 70
     1
102
RTVSPropertyOp26
 70
     1
102
RTVSPropertyOp27
 70
     1
102
RTVSPropertyOp28
 70
     1
102
RTVSPropertyOp29
 70
     1
102
RTVSPropertyOp30
 70
     1
102
RTVSPropertyOp31
 70
     1
102
RTVSPropertyOp32
 70
     1
102
RTVSPropertyOp33
 70
     1
102
RTVSPropertyOp34
 70
     1
102
RTVSPropertyOp35
 70
     1
102
RTVSPropertyOp36
 70
     1
102
RTVSPropertyOp37
 70
     1
102
RTVSPropertyOp38
 70
     1
102
RTVSPropertyOp39
 70
     1
102
RTVSPropertyOp40
 70
     1
102
RTVSPropertyOp41
 70
     1
102
RTVSPropertyOp42
 70
     1
102
RTVSPropertyOp43
 70
     1
102
RTVSPropertyOp44
 70
     1
102
RTVSPropertyOp45
 70
     1
102
RTVSPropertyOp46
 70
     1
102
RTVSPropertyOp47
 70
     1
102
RTVSPropertyOp48
 70
     1
102
RTVSPropertyOp49
 70
     1
102
RTVSPropertyOp50
 70
     1
102
RTVSPropertyOp51
 70
     0
102
RTVSPropertyOp52
 70
     0
102
RTVSPropertyOp53
 70
     1
102
RTVSPropertyOp54
 70
     1
102
RTVSPropertyOp55
 70
     1
102
RTVSPropertyOp56
 70
     1
102
RTVSPropertyOp57
 70
     1
102
RTVSPropertyOp58
 70
     1
102
RTVSPropertyOp59
 70
     1
102
RTVSPropertyOp60
 70
     1
102
RTVSPropertyOp61
 70
     1
102
RTVSPropertyOp62
 70
     1
  0
XRECORD
  5
4262
102
{ACAD_REACTORS
330
4261
102
}
330
4261
100
AcDbXrecord
280
     1
102
RTVSPost2010Prop28
280
     0
102
RTVSPost2010PropOp28
 70
     1
102
RTVSPost2010Prop29
280
     1
102
RTVSPost2010PropOp29
 70
     1
102
RTVSPost2010Prop30
280
     1
102
RTVSPost2010PropOp30
 70
     1
102
RTVSPost2010Prop31
280
     0
102
RTVSPost2010PropOp31
 70
     1
102
RTVSPost2010Prop32
280
     0
102
RTVSPost2010PropOp32
 70
     1
102
RTVSPost2010Prop33
280
     0
102
RTVSPost2010PropOp33
 70
     1
102
RTVSPost2010Prop34
280
     0
102
RTVSPost2010PropOp34
 70
     1
102
RTVSPost2010Prop35
280
     0
102
RTVSPost2010PropOp35
 70
     1
102
RTVSPost2010Prop36
280
     0
102
RTVSPost2010PropOp36
 70
     1
102
RTVSPost2010Prop37
 90
       50
102
RTVSPost2010PropOp37
 70
     1
102
RTVSPost2010Prop38
140
0.0
102
RTVSPost2010PropOp38
 70
     1
102
RTVSPost2010Prop39
140
1.0
102
RTVSPost2010PropOp39
 70
     1
102
RTVSPost2010Prop40
 90
        0
102
RTVSPost2010PropOp40
 70
     1
102
RTVSPost2010Prop41ColorIndex
 90
       18
102
RTVSPost2010Prop41ColorRGB
 90
        0
102
RTVSPost2010PropOp41
 70
     1
102
RTVSPost2010Prop42
 90
       50
102
RTVSPost2010PropOp42
 70
     1
102
RTVSPost2010Prop43
 90
        3
102
RTVSPost2010PropOp43
 70
     1
102
RTVSPost2010Prop44ColorIndex
 90
        5
102
RTVSPost2010Prop44ColorRGB
 90
      255
102
RTVSPost2010PropOp44
 70
     1
102
RTVSPost2010Prop45
280
     0
102
RTVSPost2010PropOp45
 70
     1
102
RTVSPost2010Prop46
 90
       50
102
RTVSPost2010PropOp46
 70
     1
102
RTVSPost2010Prop47
 90
       50
102
RTVSPost2010PropOp47
 70
     1
102
RTVSPost2010Prop48
 90
       50
102
RTVSPost2010PropOp48
 70
     1
102
RTVSPost2010Prop49
280
     0
102
RTVSPost2010PropOp49
 70
     1
102
RTVSPost2010Prop50
 90
       50
102
RTVSPost2010PropOp50
 70
     1
102
RTVSPost2010Prop51ColorIndex
 90
      256
102
RTVSPost2010Prop51ColorRGB
 90
-16777216
102
RTVSPost2010PropOp51
 70
     0
102
RTVSPost2010Prop52
140
1.0
102
RTVSPost2010PropOp52
 70
     0
102
RTVSPost2010Prop53
 90
        2
102
RTVSPost2010PropOp53
 70
     1
102
RTVSPost2010Prop54
  1
strokes_ogs.tif
102
RTVSPost2010PropOp54
 70
     1
102
RTVSPost2010Prop55
280
     0
102
RTVSPost2010PropOp55
 70
     1
102
RTVSPost2010Prop56
140
1.0
102
RTVSPost2010PropOp56
 70
     1
102
RTVSPost2010Prop57
140
1.0
102
RTVSPost2010PropOp57
 70
     1
102
RTVSPropertyOp0
 70
     1
102
RTVSPropertyOp1
 70
     1
102
RTVSPropertyOp2
 70
     1
102
RTVSPropertyOp3
 70
     1
102
RTVSPropertyOp4
 70
     1
102
RTVSPropertyOp5
 70
     1
102
RTVSPropertyOp6
 70
     1
102
RTVSPropertyOp7
 70
     1
102
RTVSPropertyOp8
 70
     1
102
RTVSPropertyOp9
 70
     1
102
RTVSPropertyOp10
 70
     1
102
RTVSPropertyOp11
 70
     1
102
RTVSPropertyOp12
 70
     1
102
RTVSPropertyOp13
 70
     1
102
RTVSPropertyOp14
 70
     1
102
RTVSPropertyOp15
 70
     1
102
RTVSPropertyOp16
 70
     1
102
RTVSPropertyOp17
 70
     1
102
RTVSPropertyOp18
 70
     1
102
RTVSPropertyOp19
 70
     1
102
RTVSPropertyOp20
 70
     1
102
RTVSPropertyOp21
 70
     1
102
RTVSPropertyOp22
 70
     1
102
RTVSPropertyOp23
 70
     1
102
RTVSPropertyOp24
 70
     1
102
RTVSPropertyOp25
 70
     1
102
RTVSPropertyOp26
 70
     1
102
RTVSPropertyOp27
 70
     1
102
RTVSPropertyOp28
 70
     1
102
RTVSPropertyOp29
 70
     1
102
RTVSPropertyOp30
 70
     1
102
RTVSPropertyOp31
 70
     1
102
RTVSPropertyOp32
 70
     1
102
RTVSPropertyOp33
 70
     1
102
RTVSPropertyOp34
 70
     1
102
RTVSPropertyOp35
 70
     1
102
RTVSPropertyOp36
 70
     1
102
RTVSPropertyOp37
 70
     1
102
RTVSPropertyOp38
 70
     1
102
RTVSPropertyOp39
 70
     1
102
RTVSPropertyOp40
 70
     1
102
RTVSPropertyOp41
 70
     1
102
RTVSPropertyOp42
 70
     1
102
RTVSPropertyOp43
 70
     1
102
RTVSPropertyOp44
 70
     1
102
RTVSPropertyOp45
 70
     1
102
RTVSPropertyOp46
 70
     1
102
RTVSPropertyOp47
 70
     1
102
RTVSPropertyOp48
 70
     1
102
RTVSPropertyOp49
 70
     1
102
RTVSPropertyOp50
 70
     1
102
RTVSPropertyOp51
 70
     0
102
RTVSPropertyOp52
 70
     0
102
RTVSPropertyOp53
 70
     1
102
RTVSPropertyOp54
 70
     1
102
RTVSPropertyOp55
 70
     1
102
RTVSPropertyOp56
 70
     1
102
RTVSPropertyOp57
 70
     1
102
RTVSPropertyOp58
 70
     1
102
RTVSPropertyOp59
 70
     1
102
RTVSPropertyOp60
 70
     1
102
RTVSPropertyOp61
 70
     1
102
RTVSPropertyOp62
 70
     1
  0
XRECORD
  5
4264
102
{ACAD_REACTORS
330
4263
102
}
330
4263
100
AcDbXrecord
280
     1
102
RTVSPost2010Prop28
280
     0
102
RTVSPost2010PropOp28
 70
     1
102
RTVSPost2010Prop29
280
     1
102
RTVSPost2010PropOp29
 70
     1
102
RTVSPost2010Prop30
280
     1
102
RTVSPost2010PropOp30
 70
     1
102
RTVSPost2010Prop31
280
     0
102
RTVSPost2010PropOp31
 70
     1
102
RTVSPost2010Prop32
280
     0
102
RTVSPost2010PropOp32
 70
     1
102
RTVSPost2010Prop33
280
     0
102
RTVSPost2010PropOp33
 70
     1
102
RTVSPost2010Prop34
280
     0
102
RTVSPost2010PropOp34
 70
     1
102
RTVSPost2010Prop35
280
     0
102
RTVSPost2010PropOp35
 70
     1
102
RTVSPost2010Prop36
280
     0
102
RTVSPost2010PropOp36
 70
     1
102
RTVSPost2010Prop37
 90
       50
102
RTVSPost2010PropOp37
 70
     1
102
RTVSPost2010Prop38
140
0.0
102
RTVSPost2010PropOp38
 70
     1
102
RTVSPost2010Prop39
140
1.0
102
RTVSPost2010PropOp39
 70
     1
102
RTVSPost2010Prop40
 90
        0
102
RTVSPost2010PropOp40
 70
     1
102
RTVSPost2010Prop41ColorIndex
 90
       18
102
RTVSPost2010Prop41ColorRGB
 90
        0
102
RTVSPost2010PropOp41
 70
     1
102
RTVSPost2010Prop42
 90
       50
102
RTVSPost2010PropOp42
 70
     1
102
RTVSPost2010Prop43
 90
        3
102
RTVSPost2010PropOp43
 70
     1
102
RTVSPost2010Prop44ColorIndex
 90
        5
102
RTVSPost2010Prop44ColorRGB
 90
      255
102
RTVSPost2010PropOp44
 70
     1
102
RTVSPost2010Prop45
280
     0
102
RTVSPost2010PropOp45
 70
     1
102
RTVSPost2010Prop46
 90
       50
102
RTVSPost2010PropOp46
 70
     1
102
RTVSPost2010Prop47
 90
       50
102
RTVSPost2010PropOp47
 70
     1
102
RTVSPost2010Prop48
 90
       50
102
RTVSPost2010PropOp48
 70
     1
102
RTVSPost2010Prop49
280
     0
102
RTVSPost2010PropOp49
 70
     1
102
RTVSPost2010Prop50
 90
       50
102
RTVSPost2010PropOp50
 70
     1
102
RTVSPost2010Prop51ColorIndex
 90
      256
102
RTVSPost2010Prop51ColorRGB
 90
-16777216
102
RTVSPost2010PropOp51
 70
     0
102
RTVSPost2010Prop52
140
1.0
102
RTVSPost2010PropOp52
 70
     0
102
RTVSPost2010Prop53
 90
        2
102
RTVSPost2010PropOp53
 70
     1
102
RTVSPost2010Prop54
  1
strokes_ogs.tif
102
RTVSPost2010PropOp54
 70
     1
102
RTVSPost2010Prop55
280
     0
102
RTVSPost2010PropOp55
 70
     1
102
RTVSPost2010Prop56
140
1.0
102
RTVSPost2010PropOp56
 70
     1
102
RTVSPost2010Prop57
140
1.0
102
RTVSPost2010PropOp57
 70
     1
102
RTVSPropertyOp0
 70
     1
102
RTVSPropertyOp1
 70
     1
102
RTVSPropertyOp2
 70
     1
102
RTVSPropertyOp3
 70
     1
102
RTVSPropertyOp4
 70
     1
102
RTVSPropertyOp5
 70
     1
102
RTVSPropertyOp6
 70
     1
102
RTVSPropertyOp7
 70
     1
102
RTVSPropertyOp8
 70
     1
102
RTVSPropertyOp9
 70
     1
102
RTVSPropertyOp10
 70
     1
102
RTVSPropertyOp11
 70
     1
102
RTVSPropertyOp12
 70
     1
102
RTVSPropertyOp13
 70
     1
102
RTVSPropertyOp14
 70
     1
102
RTVSPropertyOp15
 70
     1
102
RTVSPropertyOp16
 70
     1
102
RTVSPropertyOp17
 70
     1
102
RTVSPropertyOp18
 70
     1
102
RTVSPropertyOp19
 70
     1
102
RTVSPropertyOp20
 70
     1
102
RTVSPropertyOp21
 70
     1
102
RTVSPropertyOp22
 70
     1
102
RTVSPropertyOp23
 70
     1
102
RTVSPropertyOp24
 70
     1
102
RTVSPropertyOp25
 70
     1
102
RTVSPropertyOp26
 70
     1
102
RTVSPropertyOp27
 70
     1
102
RTVSPropertyOp28
 70
     1
102
RTVSPropertyOp29
 70
     1
102
RTVSPropertyOp30
 70
     1
102
RTVSPropertyOp31
 70
     1
102
RTVSPropertyOp32
 70
     1
102
RTVSPropertyOp33
 70
     1
102
RTVSPropertyOp34
 70
     1
102
RTVSPropertyOp35
 70
     1
102
RTVSPropertyOp36
 70
     1
102
RTVSPropertyOp37
 70
     1
102
RTVSPropertyOp38
 70
     1
102
RTVSPropertyOp39
 70
     1
102
RTVSPropertyOp40
 70
     1
102
RTVSPropertyOp41
 70
     1
102
RTVSPropertyOp42
 70
     1
102
RTVSPropertyOp43
 70
     1
102
RTVSPropertyOp44
 70
     1
102
RTVSPropertyOp45
 70
     1
102
RTVSPropertyOp46
 70
     1
102
RTVSPropertyOp47
 70
     1
102
RTVSPropertyOp48
 70
     1
102
RTVSPropertyOp49
 70
     1
102
RTVSPropertyOp50
 70
     1
102
RTVSPropertyOp51
 70
     0
102
RTVSPropertyOp52
 70
     0
102
RTVSPropertyOp53
 70
     1
102
RTVSPropertyOp54
 70
     1
102
RTVSPropertyOp55
 70
     1
102
RTVSPropertyOp56
 70
     1
102
RTVSPropertyOp57
 70
     1
102
RTVSPropertyOp58
 70
     1
102
RTVSPropertyOp59
 70
     1
102
RTVSPropertyOp60
 70
     1
102
RTVSPropertyOp61
 70
     1
102
RTVSPropertyOp62
 70
     1
  0
XRECORD
  5
425A
102
{ACAD_REACTORS
330
4259
102
}
330
4259
100
AcDbXrecord
280
     1
102
RTVSPost2010Prop28
280
     0
102
RTVSPost2010PropOp28
 70
     1
102
RTVSPost2010Prop29
280
     1
102
RTVSPost2010PropOp29
 70
     1
102
RTVSPost2010Prop30
280
     1
102
RTVSPost2010PropOp30
 70
     1
102
RTVSPost2010Prop31
280
     0
102
RTVSPost2010PropOp31
 70
     1
102
RTVSPost2010Prop32
280
     0
102
RTVSPost2010PropOp32
 70
     1
102
RTVSPost2010Prop33
280
     0
102
RTVSPost2010PropOp33
 70
     1
102
RTVSPost2010Prop34
280
     0
102
RTVSPost2010PropOp34
 70
     1
102
RTVSPost2010Prop35
280
     0
102
RTVSPost2010PropOp35
 70
     1
102
RTVSPost2010Prop36
280
     0
102
RTVSPost2010PropOp36
 70
     1
102
RTVSPost2010Prop37
 90
       50
102
RTVSPost2010PropOp37
 70
     1
102
RTVSPost2010Prop38
140
0.0
102
RTVSPost2010PropOp38
 70
     1
102
RTVSPost2010Prop39
140
1.0
102
RTVSPost2010PropOp39
 70
     1
102
RTVSPost2010Prop40
 90
        0
102
RTVSPost2010PropOp40
 70
     1
102
RTVSPost2010Prop41ColorIndex
 90
       18
102
RTVSPost2010Prop41ColorRGB
 90
        0
102
RTVSPost2010PropOp41
 70
     1
102
RTVSPost2010Prop42
 90
       50
102
RTVSPost2010PropOp42
 70
     1
102
RTVSPost2010Prop43
 90
        3
102
RTVSPost2010PropOp43
 70
     1
102
RTVSPost2010Prop44ColorIndex
 90
        5
102
RTVSPost2010Prop44ColorRGB
 90
      255
102
RTVSPost2010PropOp44
 70
     1
102
RTVSPost2010Prop45
280
     0
102
RTVSPost2010PropOp45
 70
     1
102
RTVSPost2010Prop46
 90
       50
102
RTVSPost2010PropOp46
 70
     1
102
RTVSPost2010Prop47
 90
       50
102
RTVSPost2010PropOp47
 70
     1
102
RTVSPost2010Prop48
 90
       50
102
RTVSPost2010PropOp48
 70
     1
102
RTVSPost2010Prop49
280
     0
102
RTVSPost2010PropOp49
 70
     1
102
RTVSPost2010Prop50
 90
       50
102
RTVSPost2010PropOp50
 70
     1
102
RTVSPost2010Prop51ColorIndex
 90
      256
102
RTVSPost2010Prop51ColorRGB
 90
-16777216
102
RTVSPost2010PropOp51
 70
     0
102
RTVSPost2010Prop52
140
1.0
102
RTVSPost2010PropOp52
 70
     0
102
RTVSPost2010Prop53
 90
        2
102
RTVSPost2010PropOp53
 70
     1
102
RTVSPost2010Prop54
  1
strokes_ogs.tif
102
RTVSPost2010PropOp54
 70
     1
102
RTVSPost2010Prop55
280
     0
102
RTVSPost2010PropOp55
 70
     1
102
RTVSPost2010Prop56
140
1.0
102
RTVSPost2010PropOp56
 70
     1
102
RTVSPost2010Prop57
140
1.0
102
RTVSPost2010PropOp57
 70
     1
102
RTVSPropertyOp0
 70
     1
102
RTVSPropertyOp1
 70
     1
102
RTVSPropertyOp2
 70
     1
102
RTVSPropertyOp3
 70
     1
102
RTVSPropertyOp4
 70
     1
102
RTVSPropertyOp5
 70
     1
102
RTVSPropertyOp6
 70
     1
102
RTVSPropertyOp7
 70
     1
102
RTVSPropertyOp8
 70
     1
102
RTVSPropertyOp9
 70
     1
102
RTVSPropertyOp10
 70
     1
102
RTVSPropertyOp11
 70
     1
102
RTVSPropertyOp12
 70
     1
102
RTVSPropertyOp13
 70
     1
102
RTVSPropertyOp14
 70
     1
102
RTVSPropertyOp15
 70
     1
102
RTVSPropertyOp16
 70
     1
102
RTVSPropertyOp17
 70
     1
102
RTVSPropertyOp18
 70
     1
102
RTVSPropertyOp19
 70
     1
102
RTVSPropertyOp20
 70
     1
102
RTVSPropertyOp21
 70
     1
102
RTVSPropertyOp22
 70
     1
102
RTVSPropertyOp23
 70
     1
102
RTVSPropertyOp24
 70
     1
102
RTVSPropertyOp25
 70
     1
102
RTVSPropertyOp26
 70
     1
102
RTVSPropertyOp27
 70
     1
102
RTVSPropertyOp28
 70
     1
102
RTVSPropertyOp29
 70
     1
102
RTVSPropertyOp30
 70
     1
102
RTVSPropertyOp31
 70
     1
102
RTVSPropertyOp32
 70
     1
102
RTVSPropertyOp33
 70
     1
102
RTVSPropertyOp34
 70
     1
102
RTVSPropertyOp35
 70
     1
102
RTVSPropertyOp36
 70
     1
102
RTVSPropertyOp37
 70
     1
102
RTVSPropertyOp38
 70
     1
102
RTVSPropertyOp39
 70
     1
102
RTVSPropertyOp40
 70
     1
102
RTVSPropertyOp41
 70
     1
102
RTVSPropertyOp42
 70
     1
102
RTVSPropertyOp43
 70
     1
102
RTVSPropertyOp44
 70
     1
102
RTVSPropertyOp45
 70
     1
102
RTVSPropertyOp46
 70
     1
102
RTVSPropertyOp47
 70
     1
102
RTVSPropertyOp48
 70
     1
102
RTVSPropertyOp49
 70
     1
102
RTVSPropertyOp50
 70
     1
102
RTVSPropertyOp51
 70
     0
102
RTVSPropertyOp52
 70
     0
102
RTVSPropertyOp53
 70
     1
102
RTVSPropertyOp54
 70
     1
102
RTVSPropertyOp55
 70
     1
102
RTVSPropertyOp56
 70
     1
102
RTVSPropertyOp57
 70
     1
102
RTVSPropertyOp58
 70
     1
102
RTVSPropertyOp59
 70
     1
102
RTVSPropertyOp60
 70
     1
102
RTVSPropertyOp61
 70
     1
102
RTVSPropertyOp62
 70
     1
  0
XRECORD
  5
424E
102
{ACAD_REACTORS
330
424D
102
}
330
424D
100
AcDbXrecord
280
     1
102
RTVSPost2010Prop28
280
     0
102
RTVSPost2010PropOp28
 70
     1
102
RTVSPost2010Prop29
280
     1
102
RTVSPost2010PropOp29
 70
     1
102
RTVSPost2010Prop30
280
     1
102
RTVSPost2010PropOp30
 70
     1
102
RTVSPost2010Prop31
280
     0
102
RTVSPost2010PropOp31
 70
     1
102
RTVSPost2010Prop32
280
     0
102
RTVSPost2010PropOp32
 70
     1
102
RTVSPost2010Prop33
280
     0
102
RTVSPost2010PropOp33
 70
     1
102
RTVSPost2010Prop34
280
     0
102
RTVSPost2010PropOp34
 70
     1
102
RTVSPost2010Prop35
280
     0
102
RTVSPost2010PropOp35
 70
     1
102
RTVSPost2010Prop36
280
     0
102
RTVSPost2010PropOp36
 70
     1
102
RTVSPost2010Prop37
 90
       50
102
RTVSPost2010PropOp37
 70
     1
102
RTVSPost2010Prop38
140
0.0
102
RTVSPost2010PropOp38
 70
     1
102
RTVSPost2010Prop39
140
1.0
102
RTVSPost2010PropOp39
 70
     1
102
RTVSPost2010Prop40
 90
        0
102
RTVSPost2010PropOp40
 70
     1
102
RTVSPost2010Prop41ColorIndex
 90
       18
102
RTVSPost2010Prop41ColorRGB
 90
        0
102
RTVSPost2010PropOp41
 70
     1
102
RTVSPost2010Prop42
 90
       50
102
RTVSPost2010PropOp42
 70
     1
102
RTVSPost2010Prop43
 90
        3
102
RTVSPost2010PropOp43
 70
     1
102
RTVSPost2010Prop44ColorIndex
 90
        5
102
RTVSPost2010Prop44ColorRGB
 90
      255
102
RTVSPost2010PropOp44
 70
     1
102
RTVSPost2010Prop45
280
     0
102
RTVSPost2010PropOp45
 70
     1
102
RTVSPost2010Prop46
 90
       50
102
RTVSPost2010PropOp46
 70
     1
102
RTVSPost2010Prop47
 90
       50
102
RTVSPost2010PropOp47
 70
     1
102
RTVSPost2010Prop48
 90
       50
102
RTVSPost2010PropOp48
 70
     1
102
RTVSPost2010Prop49
280
     0
102
RTVSPost2010PropOp49
 70
     1
102
RTVSPost2010Prop50
 90
       50
102
RTVSPost2010PropOp50
 70
     1
102
RTVSPost2010Prop51ColorIndex
 90
      256
102
RTVSPost2010Prop51ColorRGB
 90
-16777216
102
RTVSPost2010PropOp51
 70
     0
102
RTVSPost2010Prop52
140
1.0
102
RTVSPost2010PropOp52
 70
     0
102
RTVSPost2010Prop53
 90
        2
102
RTVSPost2010PropOp53
 70
     1
102
RTVSPost2010Prop54
  1
strokes_ogs.tif
102
RTVSPost2010PropOp54
 70
     1
102
RTVSPost2010Prop55
280
     0
102
RTVSPost2010PropOp55
 70
     1
102
RTVSPost2010Prop56
140
1.0
102
RTVSPost2010PropOp56
 70
     1
102
RTVSPost2010Prop57
140
1.0
102
RTVSPost2010PropOp57
 70
     1
102
RTVSPropertyOp0
 70
     1
102
RTVSPropertyOp1
 70
     1
102
RTVSPropertyOp2
 70
     1
102
RTVSPropertyOp3
 70
     1
102
RTVSPropertyOp4
 70
     1
102
RTVSPropertyOp5
 70
     1
102
RTVSPropertyOp6
 70
     1
102
RTVSPropertyOp7
 70
     1
102
RTVSPropertyOp8
 70
     1
102
RTVSPropertyOp9
 70
     1
102
RTVSPropertyOp10
 70
     1
102
RTVSPropertyOp11
 70
     1
102
RTVSPropertyOp12
 70
     1
102
RTVSPropertyOp13
 70
     1
102
RTVSPropertyOp14
 70
     1
102
RTVSPropertyOp15
 70
     1
102
RTVSPropertyOp16
 70
     1
102
RTVSPropertyOp17
 70
     1
102
RTVSPropertyOp18
 70
     1
102
RTVSPropertyOp19
 70
     1
102
RTVSPropertyOp20
 70
     1
102
RTVSPropertyOp21
 70
     1
102
RTVSPropertyOp22
 70
     1
102
RTVSPropertyOp23
 70
     1
102
RTVSPropertyOp24
 70
     1
102
RTVSPropertyOp25
 70
     1
102
RTVSPropertyOp26
 70
     1
102
RTVSPropertyOp27
 70
     1
102
RTVSPropertyOp28
 70
     1
102
RTVSPropertyOp29
 70
     1
102
RTVSPropertyOp30
 70
     1
102
RTVSPropertyOp31
 70
     1
102
RTVSPropertyOp32
 70
     1
102
RTVSPropertyOp33
 70
     1
102
RTVSPropertyOp34
 70
     1
102
RTVSPropertyOp35
 70
     1
102
RTVSPropertyOp36
 70
     1
102
RTVSPropertyOp37
 70
     1
102
RTVSPropertyOp38
 70
     1
102
RTVSPropertyOp39
 70
     1
102
RTVSPropertyOp40
 70
     1
102
RTVSPropertyOp41
 70
     1
102
RTVSPropertyOp42
 70
     1
102
RTVSPropertyOp43
 70
     1
102
RTVSPropertyOp44
 70
     1
102
RTVSPropertyOp45
 70
     1
102
RTVSPropertyOp46
 70
     1
102
RTVSPropertyOp47
 70
     1
102
RTVSPropertyOp48
 70
     1
102
RTVSPropertyOp49
 70
     1
102
RTVSPropertyOp50
 70
     1
102
RTVSPropertyOp51
 70
     0
102
RTVSPropertyOp52
 70
     0
102
RTVSPropertyOp53
 70
     1
102
RTVSPropertyOp54
 70
     1
102
RTVSPropertyOp55
 70
     1
102
RTVSPropertyOp56
 70
     1
102
RTVSPropertyOp57
 70
     1
102
RTVSPropertyOp58
 70
     1
102
RTVSPropertyOp59
 70
     1
102
RTVSPropertyOp60
 70
     1
102
RTVSPropertyOp61
 70
     1
102
RTVSPropertyOp62
 70
     1
  0
XRECORD
  5
4266
102
{ACAD_REACTORS
330
4265
102
}
330
4265
100
AcDbXrecord
280
     1
102
RTVSPost2010Prop28
280
     0
102
RTVSPost2010PropOp28
 70
     1
102
RTVSPost2010Prop29
280
     1
102
RTVSPost2010PropOp29
 70
     1
102
RTVSPost2010Prop30
280
     1
102
RTVSPost2010PropOp30
 70
     1
102
RTVSPost2010Prop31
280
     0
102
RTVSPost2010PropOp31
 70
     1
102
RTVSPost2010Prop32
280
     0
102
RTVSPost2010PropOp32
 70
     1
102
RTVSPost2010Prop33
280
     0
102
RTVSPost2010PropOp33
 70
     1
102
RTVSPost2010Prop34
280
     0
102
RTVSPost2010PropOp34
 70
     1
102
RTVSPost2010Prop35
280
     0
102
RTVSPost2010PropOp35
 70
     1
102
RTVSPost2010Prop36
280
     0
102
RTVSPost2010PropOp36
 70
     1
102
RTVSPost2010Prop37
 90
       50
102
RTVSPost2010PropOp37
 70
     1
102
RTVSPost2010Prop38
140
0.0
102
RTVSPost2010PropOp38
 70
     1
102
RTVSPost2010Prop39
140
1.0
102
RTVSPost2010PropOp39
 70
     1
102
RTVSPost2010Prop40
 90
        0
102
RTVSPost2010PropOp40
 70
     1
102
RTVSPost2010Prop41ColorIndex
 90
       18
102
RTVSPost2010Prop41ColorRGB
 90
        0
102
RTVSPost2010PropOp41
 70
     1
102
RTVSPost2010Prop42
 90
       50
102
RTVSPost2010PropOp42
 70
     1
102
RTVSPost2010Prop43
 90
        3
102
RTVSPost2010PropOp43
 70
     1
102
RTVSPost2010Prop44ColorIndex
 90
        5
102
RTVSPost2010Prop44ColorRGB
 90
      255
102
RTVSPost2010PropOp44
 70
     1
102
RTVSPost2010Prop45
280
     0
102
RTVSPost2010PropOp45
 70
     1
102
RTVSPost2010Prop46
 90
       50
102
RTVSPost2010PropOp46
 70
     1
102
RTVSPost2010Prop47
 90
       50
102
RTVSPost2010PropOp47
 70
     1
102
RTVSPost2010Prop48
 90
       50
102
RTVSPost2010PropOp48
 70
     1
102
RTVSPost2010Prop49
280
     0
102
RTVSPost2010PropOp49
 70
     1
102
RTVSPost2010Prop50
 90
       50
102
RTVSPost2010PropOp50
 70
     1
102
RTVSPost2010Prop51ColorIndex
 90
      256
102
RTVSPost2010Prop51ColorRGB
 90
-16777216
102
RTVSPost2010PropOp51
 70
     0
102
RTVSPost2010Prop52
140
1.0
102
RTVSPost2010PropOp52
 70
     0
102
RTVSPost2010Prop53
 90
        2
102
RTVSPost2010PropOp53
 70
     1
102
RTVSPost2010Prop54
  1
strokes_ogs.tif
102
RTVSPost2010PropOp54
 70
     1
102
RTVSPost2010Prop55
280
     0
102
RTVSPost2010PropOp55
 70
     1
102
RTVSPost2010Prop56
140
1.0
102
RTVSPost2010PropOp56
 70
     1
102
RTVSPost2010Prop57
140
1.0
102
RTVSPost2010PropOp57
 70
     1
102
RTVSPropertyOp0
 70
     1
102
RTVSPropertyOp1
 70
     1
102
RTVSPropertyOp2
 70
     1
102
RTVSPropertyOp3
 70
     1
102
RTVSPropertyOp4
 70
     1
102
RTVSPropertyOp5
 70
     1
102
RTVSPropertyOp6
 70
     1
102
RTVSPropertyOp7
 70
     1
102
RTVSPropertyOp8
 70
     1
102
RTVSPropertyOp9
 70
     1
102
RTVSPropertyOp10
 70
     1
102
RTVSPropertyOp11
 70
     1
102
RTVSPropertyOp12
 70
     1
102
RTVSPropertyOp13
 70
     1
102
RTVSPropertyOp14
 70
     1
102
RTVSPropertyOp15
 70
     1
102
RTVSPropertyOp16
 70
     1
102
RTVSPropertyOp17
 70
     1
102
RTVSPropertyOp18
 70
     1
102
RTVSPropertyOp19
 70
     1
102
RTVSPropertyOp20
 70
     1
102
RTVSPropertyOp21
 70
     1
102
RTVSPropertyOp22
 70
     1
102
RTVSPropertyOp23
 70
     1
102
RTVSPropertyOp24
 70
     1
102
RTVSPropertyOp25
 70
     1
102
RTVSPropertyOp26
 70
     1
102
RTVSPropertyOp27
 70
     1
102
RTVSPropertyOp28
 70
     1
102
RTVSPropertyOp29
 70
     1
102
RTVSPropertyOp30
 70
     1
102
RTVSPropertyOp31
 70
     1
102
RTVSPropertyOp32
 70
     1
102
RTVSPropertyOp33
 70
     1
102
RTVSPropertyOp34
 70
     1
102
RTVSPropertyOp35
 70
     1
102
RTVSPropertyOp36
 70
     1
102
RTVSPropertyOp37
 70
     1
102
RTVSPropertyOp38
 70
     1
102
RTVSPropertyOp39
 70
     1
102
RTVSPropertyOp40
 70
     1
102
RTVSPropertyOp41
 70
     1
102
RTVSPropertyOp42
 70
     1
102
RTVSPropertyOp43
 70
     1
102
RTVSPropertyOp44
 70
     1
102
RTVSPropertyOp45
 70
     1
102
RTVSPropertyOp46
 70
     1
102
RTVSPropertyOp47
 70
     1
102
RTVSPropertyOp48
 70
     1
102
RTVSPropertyOp49
 70
     1
102
RTVSPropertyOp50
 70
     1
102
RTVSPropertyOp51
 70
     0
102
RTVSPropertyOp52
 70
     0
102
RTVSPropertyOp53
 70
     1
102
RTVSPropertyOp54
 70
     1
102
RTVSPropertyOp55
 70
     1
102
RTVSPropertyOp56
 70
     1
102
RTVSPropertyOp57
 70
     1
102
RTVSPropertyOp58
 70
     1
102
RTVSPropertyOp59
 70
     1
102
RTVSPropertyOp60
 70
     1
102
RTVSPropertyOp61
 70
     1
102
RTVSPropertyOp62
 70
     1
  0
ENDSEC
  0
EOF
