  0
SECTION
  2
HEADER
  9
$ACADVER
  1
AC1015
  9
$ACADMAINTVER
 70
    20
  9
$DWGCODEPAGE
  3
ANSI_932
  9
$INSBASE
 10
0.0
 20
0.0
 30
0.0
  9
$EXTMIN
 10
9.999999064246615
 20
9.999999806846744
 30
0.0
  9
$EXTMAX
 10
460.5845192684048
 20
272.3145653562773
 30
0.0
  9
$LIMMIN
 10
0.0000015376081137
 20
-0.0000001931532552
  9
$LIMMAX
 10
495.0000015376081
 20
341.2499998068465
  9
$ORTHOMODE
 70
     0
  9
$REGENMODE
 70
     1
  9
$FILLMODE
 70
     1
  9
$QTEXTMODE
 70
     0
  9
$MIRRTEXT
 70
     1
  9
$LTSCALE
 40
1.0
  9
$ATTMODE
 70
     1
  9
$TEXTSIZE
 40
2.5
  9
$TRACEWID
 40
1.0
  9
$TEXTSTYLE
  7
STANDARD
  9
$CLAYER
  8
0
  9
$CELTYPE
  6
ByLayer
  9
$CECOLOR
 62
   256
  9
$CELTSCALE
 40
1.0
  9
$DISPSILH
 70
     0
  9
$DIMSCALE
 40
1.0
  9
$DIMASZ
 40
3.0
  9
$DIMEXO
 40
1.0
  9
$DIMDLI
 40
10.0
  9
$DIMRND
 40
0.0
  9
$DIMDLE
 40
0.0
  9
$DIMEXE
 40
1.0
  9
$DIMTP
 40
0.0
  9
$DIMTM
 40
0.0
  9
$DIMTXT
 40
3.2
  9
$DIMCEN
 40
0.0
  9
$DIMTSZ
 40
0.0
  9
$DIMTOL
 70
     0
  9
$DIMLIM
 70
     0
  9
$DIMTIH
 70
     0
  9
$DIMTOH
 70
     0
  9
$DIMSE1
 70
     0
  9
$DIMSE2
 70
     0
  9
$DIMTAD
 70
     3
  9
$DIMZIN
 70
     8
  9
$DIMBLK
  1

  9
$DIMASO
 70
     1
  9
$DIMSHO
 70
     1
  9
$DIMPOST
  1

  9
$DIMAPOST
  1

  9
$DIMALT
 70
     0
  9
$DIMALTD
 70
     2
  9
$DIMALTF
 40
25.4
  9
$DIMLFAC
 40
1.0
  9
$DIMTOFL
 70
     1
  9
$DIMTVP
 40
0.0
  9
$DIMTIX
 70
     0
  9
$DIMSOXD
 70
     0
  9
$DIMSAH
 70
     1
  9
$DIMBLK1
  1
OPEN
  9
$DIMBLK2
  1
OPEN
  9
$DIMSTYLE
  2
STANDARD
  9
$DIMCLRD
 70
     0
  9
$DIMCLRE
 70
     0
  9
$DIMCLRT
 70
     0
  9
$DIMTFAC
 40
1.0
  9
$DIMGAP
 40
1.0
  9
$DIMJUST
 70
     0
  9
$DIMSD1
 70
     0
  9
$DIMSD2
 70
     0
  9
$DIMTOLJ
 70
     1
  9
$DIMTZIN
 70
     0
  9
$DIMALTZ
 70
     0
  9
$DIMALTTZ
 70
     0
  9
$DIMUPT
 70
     0
  9
$DIMDEC
 70
     4
  9
$DIMTDEC
 70
     4
  9
$DIMALTU
 70
     2
  9
$DIMALTTD
 70
     2
  9
$DIMTXSTY
  7
STANDARD
  9
$DIMAUNIT
 70
     0
  9
$DIMADEC
 70
     0
  9
$DIMALTRND
 40
0.0
  9
$DIMAZIN
 70
     0
  9
$DIMDSEP
 70
    46
  9
$DIMATFIT
 70
     3
  9
$DIMFRAC
 70
     0
  9
$DIMLDRBLK
  1
OPEN
  9
$DIMLUNIT
 70
     2
  9
$DIMLWD
 70
    -2
  9
$DIMLWE
 70
    -2
  9
$DIMTMOVE
 70
     0
  9
$LUNITS
 70
     2
  9
$LUPREC
 70
     4
  9
$SKETCHINC
 40
1.0
  9
$FILLETRAD
 40
10.0
  9
$AUNITS
 70
     0
  9
$AUPREC
 70
     0
  9
$MENU
  1
.
  9
$ELEVATION
 40
0.0
  9
$PELEVATION
 40
0.0
  9
$THICKNESS
 40
0.0
  9
$LIMCHECK
 70
     0
  9
$CHAMFERA
 40
10.0
  9
$CHAMFERB
 40
10.0
  9
$CHAMFERC
 40
0.0
  9
$CHAMFERD
 40
0.0
  9
$SKPOLY
 70
     0
  9
$TDCREATE
 40
2456276.552597801
  9
$TDUCREATE
 40
2456276.177597801
  9
$TDUPDATE
 40
2457192.602570799
  9
$TDUUPDATE
 40
2457192.227570799
  9
$TDINDWG
 40
0.0010453241
  9
$TDUSRTIMER
 40
0.0010453009
  9
$USRTIMER
 70
     1
  9
$ANGBASE
 50
0.0
  9
$ANGDIR
 70
     0
  9
$PDMODE
 70
     0
  9
$PDSIZE
 40
0.0
  9
$PLINEWID
 40
0.0
  9
$SPLFRAME
 70
     0
  9
$SPLINETYPE
 70
     6
  9
$SPLINESEGS
 70
     8
  9
$HANDSEED
  5
741
  9
$SURFTAB1
 70
     6
  9
$SURFTAB2
 70
     6
  9
$SURFTYPE
 70
     6
  9
$SURFU
 70
     6
  9
$SURFV
 70
     6
  9
$UCSBASE
  2

  9
$UCSNAME
  2

  9
$UCSORG
 10
0.0
 20
0.0
 30
0.0
  9
$UCSXDIR
 10
1.0
 20
0.0
 30
0.0
  9
$UCSYDIR
 10
0.0
 20
1.0
 30
0.0
  9
$UCSORTHOREF
  2

  9
$UCSORTHOVIEW
 70
     0
  9
$UCSORGTOP
 10
0.0
 20
0.0
 30
0.0
  9
$UCSORGBOTTOM
 10
0.0
 20
0.0
 30
0.0
  9
$UCSORGLEFT
 10
0.0
 20
0.0
 30
0.0
  9
$UCSORGRIGHT
 10
0.0
 20
0.0
 30
0.0
  9
$UCSORGFRONT
 10
0.0
 20
0.0
 30
0.0
  9
$UCSORGBACK
 10
0.0
 20
0.0
 30
0.0
  9
$PUCSBASE
  2

  9
$PUCSNAME
  2

  9
$PUCSORG
 10
0.0
 20
0.0
 30
0.0
  9
$PUCSXDIR
 10
1.0
 20
0.0
 30
0.0
  9
$PUCSYDIR
 10
0.0
 20
1.0
 30
0.0
  9
$PUCSORTHOREF
  2

  9
$PUCSORTHOVIEW
 70
     0
  9
$PUCSORGTOP
 10
0.0
 20
0.0
 30
0.0
  9
$PUCSORGBOTTOM
 10
0.0
 20
0.0
 30
0.0
  9
$PUCSORGLEFT
 10
0.0
 20
0.0
 30
0.0
  9
$PUCSORGRIGHT
 10
0.0
 20
0.0
 30
0.0
  9
$PUCSORGFRONT
 10
0.0
 20
0.0
 30
0.0
  9
$PUCSORGBACK
 10
0.0
 20
0.0
 30
0.0
  9
$USERI1
 70
     0
  9
$USERI2
 70
     0
  9
$USERI3
 70
     0
  9
$USERI4
 70
     0
  9
$USERI5
 70
     0
  9
$USERR1
 40
0.0
  9
$USERR2
 40
0.0
  9
$USERR3
 40
0.0
  9
$USERR4
 40
0.0
  9
$USERR5
 40
0.0
  9
$WORLDVIEW
 70
     1
  9
$SHADEDGE
 70
     3
  9
$SHADEDIF
 70
    70
  9
$TILEMODE
 70
     1
  9
$MAXACTVP
 70
    48
  9
$PINSBASE
 10
0.0
 20
0.0
 30
0.0
  9
$PLIMCHECK
 70
     0
  9
$PEXTMIN
 10
1.000000000000000E+20
 20
1.000000000000000E+20
 30
1.000000000000000E+20
  9
$PEXTMAX
 10
-1.000000000000000E+20
 20
-1.000000000000000E+20
 30
-1.000000000000000E+20
  9
$PLIMMIN
 10
0.0
 20
0.0
  9
$PLIMMAX
 10
420.0
 20
297.0
  9
$UNITMODE
 70
     0
  9
$VISRETAIN
 70
     1
  9
$PLINEGEN
 70
     0
  9
$PSLTSCALE
 70
     1
  9
$TREEDEPTH
 70
  3020
  9
$CMLSTYLE
  2
Standard
  9
$CMLJUST
 70
     0
  9
$CMLSCALE
 40
1.0
  9
$PROXYGRAPHICS
 70
     1
  9
$MEASUREMENT
 70
     0
  9
$CELWEIGHT
370
    -1
  9
$ENDCAPS
280
     0
  9
$JOINSTYLE
280
     0
  9
$LWDISPLAY
290
     0
  9
$INSUNITS
 70
     0
  9
$HYPERLINKBASE
  1

  9
$STYLESHEET
  1

  9
$XEDIT
290
     1
  9
$CEPSNTYPE
380
     0
  9
$PSTYLEMODE
290
     1
  9
$FINGERPRINTGUID
  2
{199EA589-879D-4A76-A850-F91946AC67C2}
  9
$VERSIONGUID
  2
{D85FA0D2-4A60-4021-B594-0151946528AD}
  9
$EXTNAMES
290
     1
  9
$PSVPSCALE
 40
0.0
  9
$OLESTARTUP
290
     0
  0
ENDSEC
  0
SECTION
  2
CLASSES
  0
CLASS
  1
ACDBDICTIONARYWDFLT
  2
AcDbDictionaryWithDefault
  3
ObjectDBX Classes
 90
        0
280
     0
281
     0
  0
CLASS
  1
MATERIAL
  2
AcDbMaterial
  3
ObjectDBX Classes
 90
     1153
280
     0
281
     0
  0
CLASS
  1
VISUALSTYLE
  2
AcDbVisualStyle
  3
ObjectDBX Classes
 90
     4095
280
     0
281
     0
  0
CLASS
  1
SCALE
  2
AcDbScale
  3
ObjectDBX Classes
 90
     1153
280
     0
281
     0
  0
CLASS
  1
TABLESTYLE
  2
AcDbTableStyle
  3
ObjectDBX Classes
 90
     4095
280
     0
281
     0
  0
CLASS
  1
MLEADERSTYLE
  2
AcDbMLeaderStyle
  3
ACDB_MLEADERSTYLE_CLASS
 90
     4095
280
     0
281
     0
  0
CLASS
  1
ACDBSECTIONVIEWSTYLE
  2
AcDbSectionViewStyle
  3
ObjectDBX Classes
 90
     1025
280
     0
281
     0
  0
CLASS
  1
ACDBDETAILVIEWSTYLE
  2
AcDbDetailViewStyle
  3
ObjectDBX Classes
 90
     1025
280
     0
281
     0
  0
CLASS
  1
DICTIONARYVAR
  2
AcDbDictionaryVar
  3
ObjectDBX Classes
 90
        0
280
     0
281
     0
  0
CLASS
  1
CELLSTYLEMAP
  2
AcDbCellStyleMap
  3
ObjectDBX Classes
 90
     1152
280
     0
281
     0
  0
CLASS
  1
ACDBPLACEHOLDER
  2
AcDbPlaceHolder
  3
ObjectDBX Classes
 90
        0
280
     0
281
     0
  0
CLASS
  1
LAYOUT
  2
AcDbLayout
  3
ObjectDBX Classes
 90
        0
280
     0
281
     0
  0
ENDSEC
  0
SECTION
  2
TABLES
  0
TABLE
  2
VPORT
  5
664
330
0
100
AcDbSymbolTable
 70
     1
  0
VPORT
  5
6CF
330
664
100
AcDbSymbolTableRecord
100
AcDbViewportTableRecord
  2
*ACTIVE
 70
     0
 10
0.0
 20
0.0
 11
1.0
 21
1.0
 12
357.1400995598043
 22
141.1530309625791
 13
0.0
 23
0.0
 14
10.0
 24
10.0
 15
10.0
 25
10.0
 16
0.0
 26
0.0
 36
1.0
 17
0.0
 27
0.0
 37
0.0
 40
296.430069247104
 41
1.899603698811096
 42
50.0
 43
0.0
 44
0.0
 50
0.0
 51
0.0
 71
     0
 72
   100
 73
     1
 74
     0
 75
     0
 76
     0
 77
     0
 78
     0
281
     0
 65
     1
110
0.0
120
0.0
130
0.0
111
1.0
121
0.0
131
0.0
112
0.0
122
1.0
132
0.0
 79
     0
146
0.0
1001
ACAD_NAV_VCDISPLAY
1070
     3
  0
ENDTAB
  0
TABLE
  2
LTYPE
  5
661
330
0
100
AcDbSymbolTable
 70
     4
  0
LTYPE
  5
6B6
330
661
100
AcDbSymbolTableRecord
100
AcDbLinetypeTableRecord
  2
ByBlock
 70
     0
  3

 72
    65
 73
     0
 40
0.0
  0
LTYPE
  5
6B7
330
661
100
AcDbSymbolTableRecord
100
AcDbLinetypeTableRecord
  2
ByLayer
 70
     0
  3

 72
    65
 73
     0
 40
0.0
  0
LTYPE
  5
6B8
330
661
100
AcDbSymbolTableRecord
100
AcDbLinetypeTableRecord
  2
CONTINUOUS
 70
     0
  3
Solid line
 72
    65
 73
     0
 40
0.0
  0
LTYPE
  5
6D0
330
661
100
AcDbSymbolTableRecord
100
AcDbLinetypeTableRecord
  2
DASHED
 70
     0
  3
Dashed __ __ __ __ __ __ __ __ __ __ __ __ __ _
 72
    65
 73
     2
 40
19.04999999999999
 49
12.7
 74
     0
 49
-6.349999999999998
 74
     0
  0
LTYPE
  5
6D1
330
661
100
AcDbSymbolTableRecord
100
AcDbLinetypeTableRecord
  2
CENTER
 70
     0
  3
Center ____ _ ____ _ ____ _ ____ _ ____ _ ____
 72
    65
 73
     4
 40
50.8
 49
31.75
 74
     0
 49
-6.349999999999998
 74
     0
 49
6.349999999999998
 74
     0
 49
-6.349999999999998
 74
     0
  0
LTYPE
  5
6D2
330
661
100
AcDbSymbolTableRecord
100
AcDbLinetypeTableRecord
  2
PHANTOM
 70
     0
  3
Phantom ______  __  __  ______  __  __  ______
 72
    65
 73
     6
 40
63.5
 49
31.75
 74
     0
 49
-6.349999999999998
 74
     0
 49
6.349999999999998
 74
     0
 49
-6.349999999999998
 74
     0
 49
6.349999999999998
 74
     0
 49
-6.349999999999998
 74
     0
  0
ENDTAB
  0
TABLE
  2
LAYER
  5
65E
330
0
100
AcDbSymbolTable
 70
     8
  0
LAYER
  5
6B0
102
{ACAD_XDICTIONARY
360
6E5
102
}
330
65E
100
AcDbSymbolTableRecord
100
AcDbLayerTableRecord
  2
0
 70
     0
 62
     7
  6
CONTINUOUS
370
    -3
390
66B
  0
LAYER
  5
6D3
102
{ACAD_XDICTIONARY
360
6E7
102
}
330
65E
100
AcDbSymbolTableRecord
100
AcDbLayerTableRecord
  2
4
 70
     0
 62
     1
  6
CENTER
370
    -3
390
66B
  0
LAYER
  5
6D4
102
{ACAD_XDICTIONARY
360
6E9
102
}
330
65E
100
AcDbSymbolTableRecord
100
AcDbLayerTableRecord
  2
5
 70
     0
 62
     6
  6
PHANTOM
370
    -3
390
66B
  0
LAYER
  5
6D5
102
{ACAD_XDICTIONARY
360
6EB
102
}
330
65E
100
AcDbSymbolTableRecord
100
AcDbLayerTableRecord
  2
1
 70
     0
 62
     7
  6
CONTINUOUS
370
    -3
390
66B
  0
LAYER
  5
6D6
102
{ACAD_XDICTIONARY
360
6ED
102
}
330
65E
100
AcDbSymbolTableRecord
100
AcDbLayerTableRecord
  2
2
 70
     0
 62
     4
  6
CONTINUOUS
370
    -3
390
66B
  0
LAYER
  5
6D7
102
{ACAD_XDICTIONARY
360
6EF
102
}
330
65E
100
AcDbSymbolTableRecord
100
AcDbLayerTableRecord
  2
3
 70
     0
 62
     2
  6
DASHED
370
    -3
390
66B
  0
LAYER
  5
6D8
102
{ACAD_XDICTIONARY
360
6F1
102
}
330
65E
100
AcDbSymbolTableRecord
100
AcDbLayerTableRecord
  2
6
 70
     0
 62
     5
  6
CONTINUOUS
370
    -3
390
66B
  0
LAYER
  5
6D9
102
{ACAD_XDICTIONARY
360
6F3
102
}
330
65E
100
AcDbSymbolTableRecord
100
AcDbLayerTableRecord
  2
7
 70
     0
 62
     3
  6
CONTINUOUS
370
    -3
390
66B
  0
ENDTAB
  0
TABLE
  2
STYLE
  5
65F
330
0
100
AcDbSymbolTable
 70
     2
  0
STYLE
  5
6B1
330
65F
100
AcDbSymbolTableRecord
100
AcDbTextStyleTableRecord
  2
STANDARD
 70
     0
 40
0.0
 41
1.0
 50
0.0
 71
     0
 42
2.5
  3
simplex.shx
  4

  0
STYLE
  5
6B5
330
65F
100
AcDbSymbolTableRecord
100
AcDbTextStyleTableRecord
  2
Annotative
 70
     0
 40
0.0
 41
1.0
 50
0.0
 71
     0
 42
0.2
  3
txt
  4

1001
AcadAnnotative
1000
AnnotativeData
1002
{
1070
     1
1070
     1
1002
}
  0
ENDTAB
  0
TABLE
  2
VIEW
  5
662
330
0
100
AcDbSymbolTable
 70
     0
  0
ENDTAB
  0
TABLE
  2
UCS
  5
663
330
0
100
AcDbSymbolTable
 70
     0
  0
ENDTAB
  0
TABLE
  2
APPID
  5
665
330
0
100
AcDbSymbolTable
 70
     6
  0
APPID
  5
6B2
330
665
100
AcDbSymbolTableRecord
100
AcDbRegAppTableRecord
  2
ACAD
 70
     0
  0
APPID
  5
6B9
330
665
100
AcDbSymbolTableRecord
100
AcDbRegAppTableRecord
  2
AcadAnnotative
 70
     0
  0
APPID
  5
6DA
330
665
100
AcDbSymbolTableRecord
100
AcDbRegAppTableRecord
  2
CONTENTTABDATA
 70
     0
  0
APPID
  5
6DB
330
665
100
AcDbSymbolTableRecord
100
AcDbRegAppTableRecord
  2
CONTENTCURRENTTAB
 70
     0
  0
APPID
  5
6FF
330
665
100
AcDbSymbolTableRecord
100
AcDbRegAppTableRecord
  2
ACAD_NAV_VCDISPLAY
 70
     0
  0
APPID
  5
738
330
665
100
AcDbSymbolTableRecord
100
AcDbRegAppTableRecord
  2
ACAD_MLEADERVER
 70
     0
  0
ENDTAB
  0
TABLE
  2
DIMSTYLE
  5
666
330
0
100
AcDbSymbolTable
 70
     2
100
AcDbDimStyleTable
 71
     0
  0
DIMSTYLE
105
6B3
330
666
100
AcDbSymbolTableRecord
100
AcDbDimStyleTableRecord
  2
STANDARD
 70
     0
 41
3.0
 42
1.0
 43
10.0
 44
1.0
 73
     0
 74
     0
 77
     3
 78
     8
140
3.2
141
0.0
147
1.0
172
     1
173
     1
279
     2
284
     8
285
     8
286
     8
340
6B1
  0
DIMSTYLE
105
6B4
330
666
100
AcDbSymbolTableRecord
100
AcDbDimStyleTableRecord
  2
Annotative
 70
     0
340
6B1
1001
AcadAnnotative
1000
AnnotativeData
1002
{
1070
     1
1070
     1
1002
}
  0
ENDTAB
  0
TABLE
  2
BLOCK_RECORD
  5
65D
330
0
100
AcDbSymbolTable
 70
     3
  0
BLOCK_RECORD
  5
6CB
330
65D
100
AcDbSymbolTableRecord
100
AcDbBlockTableRecord
  2
*Model_Space
340
6CE
  0
BLOCK_RECORD
  5
6C7
330
65D
100
AcDbSymbolTableRecord
100
AcDbBlockTableRecord
  2
*Paper_Space
340
6CA
  0
BLOCK_RECORD
  5
6DE
330
65D
100
AcDbSymbolTableRecord
100
AcDbBlockTableRecord
  2
$MODEL_SPACE
340
0
  0
BLOCK_RECORD
  5
6E0
330
65D
100
AcDbSymbolTableRecord
100
AcDbBlockTableRecord
  2
$PAPER_SPACE
340
0
  0
BLOCK_RECORD
  5
6E2
330
65D
100
AcDbSymbolTableRecord
100
AcDbBlockTableRecord
  2
_OPEN
340
0
  0
ENDTAB
  0
ENDSEC
  0
SECTION
  2
BLOCKS
  0
BLOCK
  5
6CC
330
6CB
100
AcDbEntity
  8
0
100
AcDbBlockBegin
  2
*Model_Space
 70
     0
 10
0.0
 20
0.0
 30
0.0
  3
*Model_Space
  1

  0
ENDBLK
  5
6CD
330
6CB
100
AcDbEntity
  8
0
100
AcDbBlockEnd
  0
BLOCK
  5
6C8
330
6C7
100
AcDbEntity
 67
     1
  8
0
100
AcDbBlockBegin
  2
*Paper_Space
 70
     0
 10
0.0
 20
0.0
 30
0.0
  3
*Paper_Space
  1

  0
ENDBLK
  5
6C9
330
6C7
100
AcDbEntity
 67
     1
  8
0
100
AcDbBlockEnd
  0
BLOCK
  5
6DF
330
6DE
100
AcDbEntity
  8
0
100
AcDbBlockBegin
  2
$MODEL_SPACE
 70
     0
 10
0.0
 20
0.0
 30
0.0
  3
$MODEL_SPACE
  1

  0
ENDBLK
  5
1A
330
6DE
100
AcDbEntity
  8
0
100
AcDbBlockEnd
  0
BLOCK
  5
6E1
330
6E0
100
AcDbEntity
  8
0
100
AcDbBlockBegin
  2
$PAPER_SPACE
 70
     0
 10
0.0
 20
0.0
 30
0.0
  3
$PAPER_SPACE
  1

  0
ENDBLK
  5
17
330
6E0
100
AcDbEntity
  8
0
100
AcDbBlockEnd
  0
BLOCK
  5
6E3
330
6E2
100
AcDbEntity
  8
0
100
AcDbBlockBegin
  2
_OPEN
 70
     0
 10
0.0
 20
0.0
 30
0.0
  3
_OPEN
  1

  0
LINE
  5
30
330
6E2
100
AcDbEntity
  8
0
  6
ByBlock
 62
     0
100
AcDbLine
 10
-1.0
 20
0.1666666666666666
 30
0.0
 11
0.0
 21
0.0
 31
0.0
  0
LINE
  5
31
330
6E2
100
AcDbEntity
  8
0
  6
ByBlock
 62
     0
100
AcDbLine
 10
0.0
 20
0.0
 30
0.0
 11
-1.0
 21
-0.1666666666666666
 31
0.0
  0
LINE
  5
32
330
6E2
100
AcDbEntity
  8
0
  6
ByBlock
 62
     0
100
AcDbLine
 10
0.0
 20
0.0
 30
0.0
 11
-1.0
 21
0.0
 31
0.0
  0
ENDBLK
  5
33
330
6E2
100
AcDbEntity
  8
0
100
AcDbBlockEnd
  0
ENDSEC
  0
SECTION
  2
ENTITIES
  0
LINE
  5
37A
330
6CB
100
AcDbEntity
  8
4
  6
CENTER
100
AcDbLine
 10
140.2833761095878
 20
96.33034487235425
 30
0.0
 11
140.2833761095878
 21
210.830344872182
 31
0.0
  0
LINE
  5
37B
330
6CB
100
AcDbEntity
  8
1
  6
Continuous
100
AcDbLine
 10
50.59946235135818
 20
158.830344872362
 30
0.0
 11
50.59946235135811
 21
181.8303448724371
 31
0.0
  0
LINE
  5
37C
330
6CB
100
AcDbEntity
  8
1
  6
Continuous
100
AcDbLine
 10
128.3833761095584
 20
122.8303448725151
 30
0.0
 11
128.3833761095976
 21
172.8303448724715
 31
0.0
  0
LINE
  5
37D
330
6CB
100
AcDbEntity
  8
1
  6
Continuous
100
AcDbLine
 10
154.1833761095584
 20
122.8303448725434
 30
0.0
 11
154.1833761095976
 21
172.8303448724302
 31
0.0
  0
LINE
  5
37E
330
6CB
100
AcDbEntity
  8
1
  6
Continuous
100
AcDbLine
 10
152.1833761095976
 20
172.8303448724743
 30
0.0
 11
152.1833761095584
 21
122.830344872542
 31
0.0
  0
LINE
  5
37F
330
6CB
100
AcDbEntity
  8
1
  6
Continuous
100
AcDbLine
 10
126.3833761095974
 20
172.8303448724559
 30
0.0
 11
126.3833761095581
 21
122.8303448725129
 31
0.0
  0
LINE
  5
380
330
6CB
100
AcDbEntity
  8
1
  6
Continuous
100
AcDbLine
 10
65.59946235135753
 20
181.8303448724371
 30
0.0
 11
65.59946235135753
 21
128.8303448725013
 31
0.0
  0
TEXT
  5
381
330
6CB
100
AcDbEntity
  8
1
  6
Continuous
100
AcDbText
 10
9.999999064246617
 20
10.00000056761563
 30
0.0
 40
1.399999999999999
  1
LAYER
100
AcDbText
  0
TEXT
  5
382
330
6CB
100
AcDbEntity
  8
7
  6
Continuous
100
AcDbText
 10
9.999999064246617
 20
18.00000056761563
 30
0.0
 40
3.0
  1
TYPE No.TL-380-1
100
AcDbText
  0
TEXT
  5
383
330
6CB
100
AcDbEntity
  8
7
  6
Continuous
100
AcDbText
 10
9.999999064246617
 20
26.00000056761564
 30
0.0
 40
3.0
  1
CODE No.11051
100
AcDbText
  0
TEXT
  5
384
330
6CB
100
AcDbEntity
  8
7
  6
Continuous
100
AcDbText
 10
29.97951006424661
 20
9.999999806846744
 30
0.0
 40
1.399999999999999
  1
7
100
AcDbText
  0
TEXT
  5
385
330
6CB
100
AcDbEntity
  8
6
  6
Continuous
100
AcDbText
 10
27.97951006424661
 20
9.999999806846744
 30
0.0
 40
1.399999999999999
  1
6
100
AcDbText
  0
TEXT
  5
386
330
6CB
100
AcDbEntity
  8
5
  6
PHANTOM
100
AcDbText
 10
25.97951006424661
 20
9.999999806846744
 30
0.0
 40
1.399999999999999
  1
5
100
AcDbText
  0
TEXT
  5
387
330
6CB
100
AcDbEntity
  8
1
  6
Continuous
100
AcDbText
 10
17.97951006424661
 20
9.999999806846744
 30
0.0
 40
1.399999999999999
  1
1
100
AcDbText
  0
TEXT
  5
388
330
6CB
100
AcDbEntity
  8
3
  6
DASHED
100
AcDbText
 10
21.97951006424661
 20
9.999999806846744
 30
0.0
 40
1.399999999999999
  1
3
100
AcDbText
  0
TEXT
  5
389
330
6CB
100
AcDbEntity
  8
2
  6
Continuous
100
AcDbText
 10
19.97951006424661
 20
9.999999806846744
 30
0.0
 40
1.399999999999999
  1
2
100
AcDbText
  0
TEXT
  5
38A
330
6CB
100
AcDbEntity
  8
4
  6
CENTER
100
AcDbText
 10
23.9795100642466
 20
9.999999806846744
 30
0.0
 40
1.399999999999999
  1
4
100
AcDbText
  0
ARC
  5
38B
330
6CB
100
AcDbEntity
  8
1
  6
Continuous
100
AcDbCircle
 10
59.59946235131315
 20
117.3303448723015
 30
0.0
 40
5.0
100
AcDbArc
 50
270.0
 51
0.0
  0
ARC
  5
38C
330
6CB
100
AcDbEntity
  8
1
  6
Continuous
100
AcDbCircle
 10
57.59946235131319
 20
117.3303448723015
 30
0.0
 40
5.0
100
AcDbArc
 50
180.0
 51
270.0
  0
LINE
  5
38D
330
6CB
100
AcDbEntity
  8
1
  6
Continuous
100
AcDbLine
 10
65.09946235128878
 20
101.3303448723443
 30
0.0
 11
65.09946235128871
 21
112.3303448723429
 31
0.0
  0
LINE
  5
38E
330
6CB
100
AcDbEntity
  8
1
  6
Continuous
100
AcDbLine
 10
66.59946235128877
 20
161.3303448723612
 30
0.0
 11
66.59946235128877
 21
101.3303448723443
 31
0.0
  0
LINE
  5
38F
330
6CB
100
AcDbEntity
  8
1
  6
Continuous
100
AcDbLine
 10
66.59946235128877
 20
101.3303448723443
 30
0.0
 11
65.09946235128878
 21
101.3303448723443
 31
0.0
  0
LINE
  5
390
330
6CB
100
AcDbEntity
  8
4
  6
CENTER
100
AcDbLine
 10
57.59946235128444
 20
123.8303448723562
 30
0.0
 11
57.59946235128444
 21
139.830344872356
 31
0.0
  0
LINE
  5
391
330
6CB
100
AcDbEntity
  8
1
  6
Continuous
100
AcDbLine
 10
50.59946235135818
 20
140.5789521403865
 30
0.0
 11
50.59946235135818
 21
126.8303448725013
 31
0.0
  0
LINE
  5
392
330
6CB
100
AcDbEntity
  8
1
  6
Continuous
100
AcDbLine
 10
48.59946235128443
 20
123.3303448723534
 30
0.0
 11
48.59946235128443
 21
164.3303448723392
 31
0.0
  0
LINE
  5
393
330
6CB
100
AcDbEntity
  8
4
  6
CENTER
100
AcDbLine
 10
53.59946235128443
 20
135.830344872356
 30
0.0
 11
61.59946235128444
 21
135.830344872356
 31
0.0
  0
LINE
  5
394
330
6CB
100
AcDbEntity
  8
4
  6
CENTER
100
AcDbLine
 10
53.59946235128443
 20
127.8303448723562
 30
0.0
 11
61.59946235128444
 21
127.8303448723562
 31
0.0
  0
LINE
  5
395
330
6CB
100
AcDbEntity
  8
4
  6
CENTER
100
AcDbLine
 10
53.99946235128777
 20
118.8303448721923
 30
0.0
 11
63.1994623512877
 21
118.8303448721923
 31
0.0
  0
CIRCLE
  5
396
330
6CB
100
AcDbEntity
  8
1
  6
Continuous
100
AcDbCircle
 10
58.59946235128791
 20
118.8303448721923
 30
0.0
 40
3.75
  0
CIRCLE
  5
397
330
6CB
100
AcDbEntity
  8
1
  6
Continuous
100
AcDbCircle
 10
57.59946235128444
 20
135.8303448723408
 30
0.0
 40
2.499999999999915
  0
LINE
  5
398
330
6CB
100
AcDbEntity
  8
1
  6
Continuous
100
AcDbLine
 10
66.59946235128877
 20
112.3303448723015
 30
0.0
 11
57.59946235131319
 21
112.3303448723015
 31
0.0
  0
ARC
  5
399
330
6CB
100
AcDbEntity
  8
1
  6
Continuous
100
AcDbCircle
 10
59.59946235135753
 20
128.8303448725013
 30
0.0
 40
6.0
100
AcDbArc
 50
270.0
 51
0.0
  0
CIRCLE
  5
39A
330
6CB
100
AcDbEntity
  8
1
  6
Continuous
100
AcDbCircle
 10
57.59946235128444
 20
127.8303448723408
 30
0.0
 40
2.499999999999915
  0
ARC
  5
39B
330
6CB
100
AcDbEntity
  8
1
  6
Continuous
100
AcDbCircle
 10
54.59946235135817
 20
126.8303448725013
 30
0.0
 40
4.0
100
AcDbArc
 50
180.0
 51
270.0
  0
LINE
  5
39C
330
6CB
100
AcDbEntity
  8
1
  6
Continuous
100
AcDbLine
 10
48.69946235129436
 20
123.0303448723539
 30
0.0
 11
50.09946235129439
 21
123.0303448723539
 31
0.0
  0
LINE
  5
39D
330
6CB
100
AcDbEntity
  8
1
  6
Continuous
100
AcDbLine
 10
51.59946235131321
 20
123.3303448723534
 30
0.0
 11
48.59946235128443
 21
123.3303448723534
 31
0.0
  0
LINE
  5
39E
330
6CB
100
AcDbEntity
  8
1
  6
Continuous
100
AcDbLine
 10
48.6994623512943
 20
123.030344872354
 30
0.0
 11
48.69946235129436
 21
123.3303448723539
 31
0.0
  0
LINE
  5
39F
330
6CB
100
AcDbEntity
  8
4
  6
CENTER
100
AcDbLine
 10
58.59946235128791
 20
123.4303448721923
 30
0.0
 11
58.59946235128791
 21
114.2303448721923
 31
0.0
  0
LINE
  5
3A0
330
6CB
100
AcDbEntity
  8
1
  6
Continuous
100
AcDbLine
 10
52.59946235131319
 20
117.3303448723015
 30
0.0
 11
52.59946235131319
 21
122.3303448723533
 31
0.0
  0
LINE
  5
3A1
330
6CB
100
AcDbEntity
  8
1
  6
Continuous
100
AcDbLine
 10
54.59946235135817
 20
122.8303448725013
 30
0.0
 11
59.59946235135753
 21
122.8303448725013
 31
0.0
  0
ARC
  5
3A2
330
6CB
100
AcDbEntity
  8
1
  6
Continuous
100
AcDbCircle
 10
51.59946235131321
 20
122.3303448723533
 30
0.0
 40
1.0
100
AcDbArc
 50
0.0
 51
90.0
  0
ARC
  5
3A3
330
6CB
100
AcDbEntity
  8
1
  6
Continuous
100
AcDbCircle
 10
50.09946235129439
 20
123.3303448723539
 30
0.0
 40
0.3
100
AcDbArc
 50
270.0
 51
0.0
  0
LINE
  5
3A4
330
6CB
100
AcDbEntity
  8
4
  6
CENTER
100
AcDbLine
 10
45.59946235137039
 20
129.3303448734243
 30
0.0
 11
53.09946235137015
 21
129.3303448734336
 31
0.0
  0
LINE
  5
3A5
330
6CB
100
AcDbEntity
  8
1
  6
Continuous
100
AcDbLine
 10
64.59946235131315
 20
125.513720082079
 30
0.0
 11
64.59946235131315
 21
117.3303448723015
 31
0.0
  0
LINE
  5
3A6
330
6CB
100
AcDbEntity
  8
4
  6
CENTER
100
AcDbLine
 10
53.09946235137811
 20
159.3303448723728
 30
0.0
 11
62.09946235137811
 21
159.3303448723728
 31
0.0
  0
LINE
  5
3A7
330
6CB
100
AcDbEntity
  8
4
  6
CENTER
100
AcDbLine
 10
52.19946235137825
 20
151.6303448723729
 30
0.0
 11
60.19946235137815
 21
151.6303448723729
 31
0.0
  0
ARC
  5
3A8
330
6CB
100
AcDbEntity
  8
1
  6
Continuous
100
AcDbCircle
 10
57.59946235132936
 20
160.230344872352
 30
0.0
 40
3.1
100
AcDbArc
 50
0.0
 51
180.0
  0
ARC
  5
3A9
330
6CB
100
AcDbEntity
  8
1
  6
Continuous
100
AcDbCircle
 10
57.59946235128444
 20
159.3303448723408
 30
0.0
 40
5.0
100
AcDbArc
 50
270.0
 51
308.3161344743218
  0
LINE
  5
3AA
330
6CB
100
AcDbEntity
  8
1
  6
Continuous
100
AcDbLine
 10
51.48872196257793
 20
142.7107999330704
 30
0.0
 11
59.81020274010956
 21
150.9498898117527
 31
0.0
  0
CIRCLE
  5
3AB
330
6CB
100
AcDbEntity
  8
1
  6
Continuous
100
AcDbCircle
 10
57.59946235128444
 20
159.3303448723408
 30
0.0
 40
2.49999999999945
  0
CIRCLE
  5
3AC
330
6CB
100
AcDbEntity
  8
1
  6
Continuous
100
AcDbCircle
 10
57.59946235128444
 20
159.3303448723408
 30
0.0
 40
3.0
  0
LINE
  5
3AD
330
6CB
100
AcDbEntity
  8
4
  6
CENTER
100
AcDbLine
 10
56.19946235137826
 20
155.6303448723729
 30
0.0
 11
56.19946235137826
 21
147.6303448723729
 31
0.0
  0
LINE
  5
3AE
330
6CB
100
AcDbEntity
  8
1
  6
Continuous
100
AcDbLine
 10
53.59946235131321
 20
152.3303448723417
 30
0.0
 11
53.59946235131321
 21
150.7303448723409
 31
0.0
  0
CIRCLE
  5
3AF
330
6CB
100
AcDbEntity
  8
1
  6
Continuous
100
AcDbCircle
 10
56.19946235128447
 20
151.6303448723408
 30
0.0
 40
2.049999999999998
  0
CIRCLE
  5
3B0
330
6CB
100
AcDbEntity
  8
1
  6
Continuous
100
AcDbCircle
 10
56.19946235128447
 20
151.6303448723408
 30
0.0
 40
2.0
  0
LINE
  5
3B1
330
6CB
100
AcDbEntity
  8
4
  6
CENTER
100
AcDbLine
 10
45.59946235137039
 20
151.330344873358
 30
0.0
 11
53.09946235137028
 21
151.3303448733507
 31
0.0
  0
ARC
  5
3B2
330
6CB
100
AcDbEntity
  8
1
  6
Continuous
100
AcDbCircle
 10
53.59946235135818
 20
140.5789521403865
 30
0.0
 40
3.0
100
AcDbArc
 50
134.7149487222004
 51
180.0
  0
ARC
  5
3B3
330
6CB
100
AcDbEntity
  8
1
  6
Continuous
100
AcDbCircle
 10
55.5994623513132
 20
150.7303448723409
 30
0.0
 40
2.0
100
AcDbArc
 50
180.0
 51
270.0
  0
LINE
  5
3B4
330
6CB
100
AcDbEntity
  8
1
  6
Continuous
100
AcDbLine
 10
55.5994623513132
 20
148.7303448723408
 30
0.0
 11
57.56846235128666
 21
148.7303448723408
 31
0.0
  0
LINE
  5
3B5
330
6CB
100
AcDbEntity
  8
1
  6
Continuous
100
AcDbLine
 10
48.59946235128443
 20
164.3303448723314
 30
0.0
 11
50.59946235128443
 21
164.3303448723314
 31
0.0
  0
LINE
  5
3B6
330
6CB
100
AcDbEntity
  8
4
  6
CENTER
100
AcDbLine
 10
57.59946235137811
 20
163.8303448723729
 30
0.0
 11
57.59946235137811
 21
154.8303448723729
 31
0.0
  0
LINE
  5
3B7
330
6CB
100
AcDbEntity
  8
1
  6
Continuous
100
AcDbLine
 10
54.49946235132933
 20
160.230344872352
 30
0.0
 11
54.49946235132921
 21
158.830344872364
 31
0.0
  0
ARC
  5
3B8
330
6CB
100
AcDbEntity
  8
1
  6
Continuous
100
AcDbCircle
 10
55.5994623513132
 20
152.3303448723417
 30
0.0
 40
2.0
100
AcDbArc
 50
90.0
 51
180.0
  0
LINE
  5
3B9
330
6CB
100
AcDbEntity
  8
1
  6
Continuous
100
AcDbLine
 10
52.99946235133274
 20
157.3303448723641
 30
0.0
 11
52.09946235136164
 21
157.330344872362
 31
0.0
  0
ARC
  5
3BA
330
6CB
100
AcDbEntity
  8
1
  6
Continuous
100
AcDbCircle
 10
52.09946235135817
 20
158.830344872362
 30
0.0
 40
1.5
100
AcDbArc
 50
180.0
 51
270.0000000001335
  0
ARC
  5
3BB
330
6CB
100
AcDbEntity
  8
1
  6
Continuous
100
AcDbCircle
 10
52.99946235132921
 20
158.830344872364
 30
0.0
 40
1.5
100
AcDbArc
 50
270.0000000001335
 51
0.0
  0
LINE
  5
3BC
330
6CB
100
AcDbEntity
  8
1
  6
Continuous
100
AcDbLine
 10
57.59946235128444
 20
154.3303448723408
 30
0.0
 11
55.5994623513132
 21
154.3303448723417
 31
0.0
  0
ARC
  5
3BD
330
6CB
100
AcDbEntity
  8
1
  6
Continuous
100
AcDbCircle
 10
57.69946235132938
 20
153.0817376044368
 30
0.0
 40
3.0
100
AcDbArc
 50
314.7149487222004
 51
0.0
  0
LINE
  5
3BE
330
6CB
100
AcDbEntity
  8
1
  6
Continuous
100
AcDbLine
 10
60.69946235132936
 20
153.0817376044368
 30
0.0
 11
60.69946235132936
 21
160.230344872352
 31
0.0
  0
LINE
  5
3BF
330
6CB
100
AcDbEntity
  8
1
  6
Continuous
100
AcDbLine
 10
65.59946235135753
 20
161.3303448723612
 30
0.0
 11
66.59946235128877
 21
161.3303448723612
 31
0.0
  0
LINE
  5
3C0
330
6CB
100
AcDbEntity
  8
4
  6
CENTER
100
AcDbLine
 10
140.2833761095924
 20
35.72727746384241
 30
0.0
 11
140.2833761095924
 21
59.72727746384673
 31
0.0
  0
LINE
  5
3C1
330
6CB
100
AcDbEntity
  8
4
  6
CENTER
100
AcDbLine
 10
121.2833761096007
 20
45.72727746384241
 30
0.0
 11
159.2833761096055
 21
45.72727746384244
 31
0.0
  0
LINE
  5
3C2
330
6CB
100
AcDbEntity
  8
1
  6
Continuous
100
AcDbLine
 10
132.7833761095301
 20
55.22727746384674
 30
0.0
 11
147.7833761095931
 21
55.22727746384674
 31
0.0
  0
LINE
  5
3C3
330
6CB
100
AcDbEntity
  8
1
  6
Continuous
100
AcDbLine
 10
132.7833761094728
 20
56.72727746384674
 30
0.0
 11
147.7833761095892
 21
56.72727746384674
 31
0.0
  0
LINE
  5
3C4
330
6CB
100
AcDbEntity
  8
1
  6
Continuous
100
AcDbLine
 10
131.9833761095882
 20
52.52727746374861
 30
0.0
 11
148.5833761096278
 21
52.52727746374861
 31
0.0
  0
LINE
  5
3C5
330
6CB
100
AcDbEntity
  8
1
  6
Continuous
100
AcDbLine
 10
147.0833761096278
 20
54.02727746374871
 30
0.0
 11
133.4833761095916
 21
54.02727746374871
 31
0.0
  0
LINE
  5
3C6
330
6CB
100
AcDbEntity
  8
1
  6
Continuous
100
AcDbLine
 10
148.7726189561641
 20
49.72727746384236
 30
0.0
 11
131.7941332629752
 21
49.72727746384236
 31
0.0
  0
LINE
  5
3C7
330
6CB
100
AcDbEntity
  8
1
  6
Continuous
100
AcDbLine
 10
132.0758234038439
 20
45.72727746384253
 30
0.0
 11
148.4909288152932
 21
45.72727746384253
 31
0.0
  0
ARC
  5
3C8
330
6CB
100
AcDbEntity
  8
1
  6
Continuous
100
AcDbCircle
 10
138.1833761095984
 20
38.92227746385631
 30
0.0
 40
2.305
100
AcDbArc
 50
90.0
 51
135.8681118395842
  0
LINE
  5
3C9
330
6CB
100
AcDbEntity
  8
1
  6
Continuous
100
AcDbLine
 10
134.2833761095914
 20
40.52727746385238
 30
0.0
 11
146.2833761095915
 21
40.52727746385238
 31
0.0
  0
LINE
  5
3CA
330
6CB
100
AcDbEntity
  8
1
  6
Continuous
100
AcDbLine
 10
134.7833761095915
 20
38.82727746385231
 30
0.0
 11
145.7833761095915
 21
38.82727746385231
 31
0.0
  0
LINE
  5
3CB
330
6CB
100
AcDbEntity
  8
1
  6
Continuous
100
AcDbLine
 10
130.5833761095838
 20
38.72727746384246
 30
0.0
 11
149.9833761096011
 21
38.72727746384246
 31
0.0
  0
LINE
  5
3CC
330
6CB
100
AcDbEntity
  8
1
  6
Continuous
100
AcDbLine
 10
126.0833761095846
 20
45.58601615334903
 30
0.0
 11
126.0833761095846
 21
44.72727746384244
 31
0.0
  0
ARC
  5
3CD
330
6CB
100
AcDbEntity
  8
1
  6
Continuous
100
AcDbCircle
 10
128.70837610958
 20
47.72727746384244
 30
0.0
 40
3.624999999996103
100
AcDbArc
 50
136.3971810272505
 51
223.6028189727493
  0
ARC
  5
3CE
330
6CB
100
AcDbEntity
  8
1
  6
Continuous
100
AcDbCircle
 10
129.0083761095687
 20
47.72727746384244
 30
0.0
 40
3.624999999999783
100
AcDbArc
 50
180.0
 51
223.602818972705
  0
LINE
  5
3CF
330
6CB
100
AcDbEntity
  8
1
  6
Continuous
100
AcDbLine
 10
130.0833761095837
 20
54.72727746387113
 30
0.0
 11
130.0833761095837
 21
40.72727746384245
 31
0.0
  0
LINE
  5
3D0
330
6CB
100
AcDbEntity
  8
1
  6
Continuous
100
AcDbLine
 10
126.3833761095974
 20
40.72727746391617
 30
0.0
 11
126.3833761095974
 21
55.72727746391556
 31
0.0
  0
LINE
  5
3D1
330
6CB
100
AcDbEntity
  8
1
  6
Continuous
100
AcDbLine
 10
128.3833761095976
 20
55.72727746391556
 30
0.0
 11
128.3833761095976
 21
40.72727746391619
 31
0.0
  0
LINE
  5
3D2
330
6CB
100
AcDbEntity
  8
1
  6
Continuous
100
AcDbLine
 10
134.2833761095915
 20
39.3272774638523
 30
0.0
 11
134.283376109591
 21
45.72727746384252
 31
0.0
  0
LINE
  5
3D3
330
6CB
100
AcDbEntity
  8
1
  6
Continuous
100
AcDbLine
 10
130.2833761095148
 20
41.32727746384242
 30
0.0
 11
130.2833761095148
 21
45.72727746384253
 31
0.0
  0
LINE
  5
3D4
330
6CB
100
AcDbEntity
  8
1
  6
Continuous
100
AcDbLine
 10
133.4833761096206
 20
41.52727746384341
 30
0.0
 11
133.4833761096206
 21
45.72727746384253
 31
0.0
  0
LINE
  5
3D5
330
6CB
100
AcDbEntity
  8
1
  6
Continuous
100
AcDbLine
 10
128.5833761095837
 20
54.72727746387113
 30
0.0
 11
128.5833761095838
 21
40.72727746384245
 31
0.0
  0
LINE
  5
3D6
330
6CB
100
AcDbEntity
  8
1
  6
Continuous
100
AcDbLine
 10
131.9271923582747
 20
47.83783831158978
 30
0.0
 11
132.2784351464805
 21
42.85019071941417
 31
0.0
  0
LINE
  5
3D7
330
6CB
100
AcDbEntity
  8
1
  6
Continuous
100
AcDbLine
 10
130.7821408688062
 20
42.74481788295241
 30
0.0
 11
130.4308980806096
 21
47.7324654751287
 31
0.0
  0
LINE
  5
3D8
330
6CB
100
AcDbEntity
  8
1
  6
Continuous
100
AcDbLine
 10
124.2833761096327
 20
41.72727746415113
 30
0.0
 11
124.2833761096327
 21
49.72727746353378
 31
0.0
  0
LINE
  5
3D9
330
6CB
100
AcDbEntity
  8
1
  6
Continuous
100
AcDbLine
 10
125.2833761096327
 20
46.53984325499825
 30
0.0
 11
125.2833761096327
 21
40.72727746415114
 31
0.0
  0
LINE
  5
3DA
330
6CB
100
AcDbEntity
  8
1
  6
Continuous
100
AcDbLine
 10
128.5833761095838
 20
40.72727746391619
 30
0.0
 11
125.2833761098677
 21
40.72727746391617
 31
0.0
  0
LINE
  5
3DB
330
6CB
100
AcDbEntity
  8
1
  6
Continuous
100
AcDbLine
 10
126.3833761095791
 20
44.72727746384244
 30
0.0
 11
126.0833761095846
 21
44.72727746384244
 31
0.0
  0
LINE
  5
3DC
330
6CB
100
AcDbEntity
  8
1
  6
Continuous
100
AcDbLine
 10
124.2833761096327
 20
41.72727746415113
 30
0.0
 11
125.2833761096327
 21
40.72727746415114
 31
0.0
  0
ARC
  5
3DD
330
6CB
100
AcDbEntity
  8
1
  6
Continuous
100
AcDbCircle
 10
134.7833761095915
 20
39.3272774638523
 30
0.0
 40
0.5
100
AcDbArc
 50
180.0
 51
270.0000000000065
  0
ARC
  5
3DE
330
6CB
100
AcDbEntity
  8
1
  6
Continuous
100
AcDbCircle
 10
130.5833761095838
 20
40.72727746384245
 30
0.0
 40
2.0
100
AcDbArc
 50
180.0
 51
270.0
  0
LINE
  5
3DF
330
6CB
100
AcDbEntity
  8
1
  6
Continuous
100
AcDbLine
 10
132.2784351464805
 20
42.85019071941409
 30
0.0
 11
130.7821408688063
 21
42.74481788295241
 31
0.0
  0
LINE
  5
3E0
330
6CB
100
AcDbEntity
  8
1
  6
Continuous
100
AcDbLine
 10
131.9833761095878
 20
41.52727746384341
 30
0.0
 11
133.4833761096206
 21
41.52727746384341
 31
0.0
  0
LINE
  5
3E1
330
6CB
100
AcDbEntity
  8
1
  6
Continuous
100
AcDbLine
 10
130.5833761095837
 20
40.22727746384245
 30
0.0
 11
134.2833761095914
 21
40.22727746384245
 31
0.0
  0
LINE
  5
3E2
330
6CB
100
AcDbEntity
  8
1
  6
Continuous
100
AcDbLine
 10
130.0833761095837
 20
40.72727746391613
 30
0.0
 11
134.2833761095914
 21
40.72727746391613
 31
0.0
  0
LINE
  5
3E3
330
6CB
100
AcDbEntity
  8
1
  6
Continuous
100
AcDbLine
 10
130.2833761095148
 20
41.32727746384242
 30
0.0
 11
131.7833761095301
 21
41.32727746384242
 31
0.0
  0
LINE
  5
3E4
330
6CB
100
AcDbEntity
  8
1
  6
Continuous
100
AcDbLine
 10
131.7833761095301
 20
41.32727746384242
 30
0.0
 11
131.7833761095301
 21
42.81532740695094
 31
0.0
  0
LINE
  5
3E5
330
6CB
100
AcDbEntity
  8
1
  6
Continuous
100
AcDbLine
 10
131.9833761095878
 20
41.52727746384341
 30
0.0
 11
131.9833761095878
 21
42.82941191399799
 31
0.0
  0
ARC
  5
3E6
330
6CB
100
AcDbEntity
  8
1
  6
Continuous
100
AcDbCircle
 10
131.7833761095877
 20
46.32727746384246
 30
0.0
 40
2.5
100
AcDbArc
 50
227.1563569562785
 51
233.1301023541948
  0
LINE
  5
3E7
330
6CB
100
AcDbEntity
  8
1
  6
Continuous
100
AcDbLine
 10
130.0833761095838
 20
42.72727746387125
 30
0.0
 11
128.5833761095838
 21
42.72727746387125
 31
0.0
  0
ARC
  5
3E8
330
6CB
100
AcDbEntity
  8
1
  6
Continuous
100
AcDbCircle
 10
130.5833761095837
 20
40.72727746384245
 30
0.0
 40
0.5
100
AcDbArc
 50
180.0
 51
270.0
  0
LINE
  5
3E9
330
6CB
100
AcDbEntity
  8
1
  6
Continuous
100
AcDbLine
 10
133.4833761096206
 20
42.51551275789417
 30
0.0
 11
133.4833761096206
 21
42.92727746374865
 31
0.0
  0
LINE
  5
3EA
330
6CB
100
AcDbEntity
  8
1
  6
Continuous
100
AcDbLine
 10
133.4833761096206
 20
42.92727746374861
 30
0.0
 11
132.273006502513
 21
42.92727746374861
 31
0.0
  0
LINE
  5
3EB
330
6CB
100
AcDbEntity
  8
1
  6
Continuous
100
AcDbLine
 10
133.4833761096205
 20
44.32727746384244
 30
0.0
 11
134.2833761095915
 21
44.32727746384244
 31
0.0
  0
LINE
  5
3EC
330
6CB
100
AcDbEntity
  8
1
  6
Continuous
100
AcDbLine
 10
126.3833761095734
 20
55.72727746391556
 30
0.0
 11
130.7833761095244
 21
55.72727746391556
 31
0.0
  0
LINE
  5
3ED
330
6CB
100
AcDbEntity
  8
1
  6
Continuous
100
AcDbLine
 10
126.0833761095846
 20
50.72727746384245
 30
0.0
 11
126.0833761095846
 21
49.86853877433588
 31
0.0
  0
LINE
  5
3EE
330
6CB
100
AcDbEntity
  8
1
  6
Continuous
100
AcDbLine
 10
125.2833761096327
 20
50.72727746353375
 30
0.0
 11
125.2833761096327
 21
48.91471167268663
 31
0.0
  0
LINE
  5
3EF
330
6CB
100
AcDbEntity
  8
1
  6
Continuous
100
AcDbLine
 10
126.383376109615
 20
50.72727746384245
 30
0.0
 11
125.2833761096328
 21
50.72727746384245
 31
0.0
  0
ARC
  5
3F0
330
6CB
100
AcDbEntity
  8
1
  6
Continuous
100
AcDbCircle
 10
129.0083761095687
 20
47.72727746384244
 30
0.0
 40
3.624999999999783
100
AcDbArc
 50
136.3971810272949
 51
180.0
  0
LINE
  5
3F1
330
6CB
100
AcDbEntity
  8
1
  6
Continuous
100
AcDbLine
 10
125.2833761096327
 20
50.72727746353375
 30
0.0
 11
124.2833761096327
 21
49.72727746353378
 31
0.0
  0
LINE
  5
3F2
330
6CB
100
AcDbEntity
  8
1
  6
Continuous
100
AcDbLine
 10
133.4833761096206
 20
52.52727746374861
 30
0.0
 11
133.4833761096206
 21
49.72727746384236
 31
0.0
  0
LINE
  5
3F3
330
6CB
100
AcDbEntity
  8
1
  6
Continuous
100
AcDbLine
 10
131.9833761095872
 20
49.72727746384236
 30
0.0
 11
131.9833761095872
 21
52.52727746374861
 31
0.0
  0
LINE
  5
3F4
330
6CB
100
AcDbEntity
  8
1
  6
Continuous
100
AcDbLine
 10
131.7833761095301
 20
49.88002904362057
 30
0.0
 11
131.7833761095301
 21
54.22727746384674
 31
0.0
  0
LINE
  5
3F5
330
6CB
100
AcDbEntity
  8
1
  6
Continuous
100
AcDbLine
 10
130.2833761095672
 20
49.82727746384043
 30
0.0
 11
130.2833761094728
 21
54.22727746384674
 31
0.0
  0
LINE
  5
3F6
330
6CB
100
AcDbEntity
  8
1
  6
Continuous
100
AcDbLine
 10
130.2904183630268
 20
49.72727746384236
 30
0.0
 11
130.0833761095837
 21
49.72727746384236
 31
0.0
  0
LINE
  5
3F7
330
6CB
100
AcDbEntity
  8
1
  6
Continuous
100
AcDbLine
 10
128.5833761095838
 20
49.72727746384236
 30
0.0
 11
128.3833761096032
 21
49.72727746384236
 31
0.0
  0
LINE
  5
3F8
330
6CB
100
AcDbEntity
  8
1
  6
Continuous
100
AcDbLine
 10
130.0833761095838
 20
45.72727746384253
 30
0.0
 11
130.5721085038882
 21
45.72727746384253
 31
0.0
  0
LINE
  5
3F9
330
6CB
100
AcDbEntity
  8
1
  6
Continuous
100
AcDbLine
 10
128.3833761096032
 20
45.72727746384253
 30
0.0
 11
128.5833761095838
 21
45.72727746385688
 31
0.0
  0
LINE
  5
3FA
330
6CB
100
AcDbEntity
  8
1
  6
Continuous
100
AcDbLine
 10
131.9271923582747
 20
47.83783831158978
 30
0.0
 11
131.7833761095301
 21
49.88002904362057
 31
0.0
  0
LINE
  5
3FB
330
6CB
100
AcDbEntity
  8
1
  6
Continuous
100
AcDbLine
 10
130.2833761095672
 20
49.82727746384043
 30
0.0
 11
130.4308980806096
 21
47.7324654751287
 31
0.0
  0
ARC
  5
3FC
330
6CB
100
AcDbEntity
  8
1
  6
Continuous
100
AcDbCircle
 10
132.7833761095301
 20
54.22727746384674
 30
0.0
 40
1.0
100
AcDbArc
 50
90.0
 51
180.0
  0
ARC
  5
3FD
330
6CB
100
AcDbEntity
  8
1
  6
Continuous
100
AcDbCircle
 10
132.7833761094728
 20
54.22727746384674
 30
0.0
 40
2.5
100
AcDbArc
 50
90.0
 51
180.0
  0
ARC
  5
3FE
330
6CB
100
AcDbEntity
  8
1
  6
Continuous
100
AcDbCircle
 10
133.4833761095916
 20
52.52727746374871
 30
0.0
 40
1.5
100
AcDbArc
 50
90.0
 51
180.0000000000028
  0
LINE
  5
3FF
330
6CB
100
AcDbEntity
  8
1
  6
Continuous
100
AcDbLine
 10
128.5833761095838
 20
54.72727746387113
 30
0.0
 11
130.0833761095838
 21
54.72727746387113
 31
0.0
  0
LINE
  5
400
330
6CB
100
AcDbEntity
  8
1
  6
Continuous
100
AcDbLine
 10
134.2833761095148
 20
55.22727746384674
 30
0.0
 11
134.2833761095148
 21
56.72727746384674
 31
0.0
  0
ARC
  5
401
330
6CB
100
AcDbEntity
  8
1
  6
Continuous
100
AcDbCircle
 10
151.8583761096049
 20
47.72727746384244
 30
0.0
 40
3.624999999996103
100
AcDbArc
 50
316.3971810272506
 51
43.6028189727494
  0
ARC
  5
402
330
6CB
100
AcDbEntity
  8
1
  6
Continuous
100
AcDbCircle
 10
151.5583761095692
 20
47.72727746384244
 30
0.0
 40
3.624999999999788
100
AcDbArc
 50
316.3971810272955
 51
43.60281897270446
  0
LINE
  5
403
330
6CB
100
AcDbEntity
  8
1
  6
Continuous
100
AcDbLine
 10
151.9833761096573
 20
54.72727746387113
 30
0.0
 11
151.9833761096573
 21
40.72727746384245
 31
0.0
  0
LINE
  5
404
330
6CB
100
AcDbEntity
  8
1
  6
Continuous
100
AcDbLine
 10
154.1833761095976
 20
55.72727746391556
 30
0.0
 11
154.1833761095976
 21
40.72727746391617
 31
0.0
  0
LINE
  5
405
330
6CB
100
AcDbEntity
  8
1
  6
Continuous
100
AcDbLine
 10
150.283376109682
 20
41.32727746384242
 30
0.0
 11
150.2833761096821
 21
45.72727746385102
 31
0.0
  0
LINE
  5
406
330
6CB
100
AcDbEntity
  8
1
  6
Continuous
100
AcDbLine
 10
147.0833761096579
 20
41.52727746384341
 30
0.0
 11
147.0833761096579
 21
45.72727746384253
 31
0.0
  0
LINE
  5
407
330
6CB
100
AcDbEntity
  8
1
  6
Continuous
100
AcDbLine
 10
146.2833761095915
 20
39.3272774638523
 30
0.0
 11
146.2833761095914
 21
45.72727746384252
 31
0.0
  0
LINE
  5
408
330
6CB
100
AcDbEntity
  8
1
  6
Continuous
100
AcDbLine
 10
150.4833761096131
 20
54.72727746387113
 30
0.0
 11
150.4833761096131
 21
40.72727746384245
 31
0.0
  0
LINE
  5
409
330
6CB
100
AcDbEntity
  8
1
  6
Continuous
100
AcDbLine
 10
150.2833761096084
 20
49.82727746347728
 30
0.0
 11
149.7846113503829
 21
42.7448178829375
 31
0.0
  0
LINE
  5
40A
330
6CB
100
AcDbEntity
  8
1
  6
Continuous
100
AcDbLine
 10
148.2883170727085
 20
42.85019071940157
 30
0.0
 11
148.7833761095668
 21
49.88002904214356
 31
0.0
  0
LINE
  5
40B
330
6CB
100
AcDbEntity
  8
1
  6
Continuous
100
AcDbLine
 10
152.1833761095689
 20
44.72727746391616
 30
0.0
 11
152.1833761095689
 21
49.72727746391552
 31
0.0
  0
LINE
  5
40C
330
6CB
100
AcDbEntity
  8
1
  6
Continuous
100
AcDbLine
 10
156.2833761096376
 20
49.72727746353371
 30
0.0
 11
156.2833761096376
 21
41.72727746415113
 31
0.0
  0
LINE
  5
40D
330
6CB
100
AcDbEntity
  8
1
  6
Continuous
100
AcDbLine
 10
155.2833761096376
 20
40.72727746415114
 30
0.0
 11
155.2833761096376
 21
46.53984325524445
 31
0.0
  0
LINE
  5
40E
330
6CB
100
AcDbEntity
  8
1
  6
Continuous
100
AcDbLine
 10
154.4833761096003
 20
45.58601615334903
 30
0.0
 11
154.4833761096003
 21
44.72727746384244
 31
0.0
  0
LINE
  5
40F
330
6CB
100
AcDbEntity
  8
1
  6
Continuous
100
AcDbLine
 10
146.2833761095915
 20
44.32727746384244
 30
0.0
 11
147.0833761096579
 21
44.32727746384244
 31
0.0
  0
LINE
  5
410
330
6CB
100
AcDbEntity
  8
1
  6
Continuous
100
AcDbLine
 10
146.2833761095915
 20
40.22727746384245
 30
0.0
 11
149.9833761096131
 21
40.22727746384245
 31
0.0
  0
LINE
  5
411
330
6CB
100
AcDbEntity
  8
1
  6
Continuous
100
AcDbLine
 10
146.2833761095915
 20
40.72727746391613
 30
0.0
 11
150.4833761096131
 21
40.72727746391613
 31
0.0
  0
ARC
  5
412
330
6CB
100
AcDbEntity
  8
1
  6
Continuous
100
AcDbCircle
 10
145.7833761095915
 20
39.3272774638523
 30
0.0
 40
0.5
100
AcDbArc
 50
270.0
 51
0.0
  0
LINE
  5
413
330
6CB
100
AcDbEntity
  8
1
  6
Continuous
100
AcDbLine
 10
140.2833761095984
 20
41.2272774638563
 30
0.0
 11
142.3833761095984
 21
41.2272774638563
 31
0.0
  0
LINE
  5
414
330
6CB
100
AcDbEntity
  8
1
  6
Continuous
100
AcDbLine
 10
138.1833761095984
 20
41.2272774638563
 30
0.0
 11
140.2833761095984
 21
41.2272774638563
 31
0.0
  0
ARC
  5
415
330
6CB
100
AcDbEntity
  8
1
  6
Continuous
100
AcDbCircle
 10
142.3833761095984
 20
38.92227746385631
 30
0.0
 40
2.305
100
AcDbArc
 50
44.13188816041562
 51
90.0
  0
ARC
  5
416
330
6CB
100
AcDbEntity
  8
1
  6
Continuous
100
AcDbCircle
 10
149.9833761096011
 20
40.72727746384245
 30
0.0
 40
2.0
100
AcDbArc
 50
270.0
 51
0.0
  0
LINE
  5
417
330
6CB
100
AcDbEntity
  8
1
  6
Continuous
100
AcDbLine
 10
151.9833761096131
 20
42.72727746387125
 30
0.0
 11
150.4833761096131
 21
42.72727746387125
 31
0.0
  0
LINE
  5
418
330
6CB
100
AcDbEntity
  8
1
  6
Continuous
100
AcDbLine
 10
148.7833761096547
 20
41.32727746384242
 30
0.0
 11
150.28337610967
 21
41.32727746384242
 31
0.0
  0
LINE
  5
419
330
6CB
100
AcDbEntity
  8
1
  6
Continuous
100
AcDbLine
 10
148.7833761096668
 20
41.32727746384242
 30
0.0
 11
148.7833761096668
 21
42.81532740693831
 31
0.0
  0
LINE
  5
41A
330
6CB
100
AcDbEntity
  8
1
  6
Continuous
100
AcDbLine
 10
149.7846113503828
 20
42.7448178829375
 30
0.0
 11
148.2883170727086
 21
42.85019071940157
 31
0.0
  0
LINE
  5
41B
330
6CB
100
AcDbEntity
  8
1
  6
Continuous
100
AcDbLine
 10
147.0833761096579
 20
41.52727746384341
 30
0.0
 11
148.5833761096908
 21
41.52727746384341
 31
0.0
  0
LINE
  5
41C
330
6CB
100
AcDbEntity
  8
1
  6
Continuous
100
AcDbLine
 10
148.5833761096908
 20
41.52727746384341
 30
0.0
 11
148.5833761096908
 21
42.82941191397866
 31
0.0
  0
LINE
  5
41D
330
6CB
100
AcDbEntity
  8
1
  6
Continuous
100
AcDbLine
 10
148.2937457166771
 20
42.92727746374861
 30
0.0
 11
147.083376109658
 21
42.92727746374861
 31
0.0
  0
ARC
  5
41E
330
6CB
100
AcDbEntity
  8
1
  6
Continuous
100
AcDbCircle
 10
148.783376109591
 20
46.32727746384246
 30
0.0
 40
2.5
100
AcDbArc
 50
306.8698976458049
 51
312.84364304429
  0
ARC
  5
41F
330
6CB
100
AcDbEntity
  8
1
  6
Continuous
100
AcDbCircle
 10
149.9833761096131
 20
40.72727746384245
 30
0.0
 40
0.5
100
AcDbArc
 50
270.0
 51
0.0
  0
LINE
  5
420
330
6CB
100
AcDbEntity
  8
1
  6
Continuous
100
AcDbLine
 10
154.1833761096058
 20
44.72727746384244
 30
0.0
 11
154.4833761096003
 21
44.72727746384244
 31
0.0
  0
LINE
  5
421
330
6CB
100
AcDbEntity
  8
1
  6
Continuous
100
AcDbLine
 10
151.9833761096003
 20
44.72727746384244
 30
0.0
 11
152.1833761095962
 21
44.72727746384244
 31
0.0
  0
LINE
  5
422
330
6CB
100
AcDbEntity
  8
1
  6
Continuous
100
AcDbLine
 10
151.9833761096011
 20
40.72727746379865
 30
0.0
 11
155.2833761096376
 21
40.72727746415114
 31
0.0
  0
LINE
  5
423
330
6CB
100
AcDbEntity
  8
1
  6
Continuous
100
AcDbLine
 10
152.1833761095976
 20
40.72727746391617
 30
0.0
 11
152.1833761095976
 21
44.72727746391615
 31
0.0
  0
LINE
  5
424
330
6CB
100
AcDbEntity
  8
1
  6
Continuous
100
AcDbLine
 10
155.2833761096376
 20
40.72727746415114
 30
0.0
 11
156.2833761096376
 21
41.72727746415113
 31
0.0
  0
LINE
  5
425
330
6CB
100
AcDbEntity
  8
1
  6
Continuous
100
AcDbLine
 10
146.2833761095095
 20
56.72727746384674
 30
0.0
 11
146.2833761095095
 21
55.22727746384674
 31
0.0
  0
LINE
  5
426
330
6CB
100
AcDbEntity
  8
1
  6
Continuous
100
AcDbLine
 10
152.1833761095976
 20
49.72727746391549
 30
0.0
 11
152.1833761095976
 21
55.72727746391556
 31
0.0
  0
LINE
  5
427
330
6CB
100
AcDbEntity
  8
1
  6
Continuous
100
AcDbLine
 10
148.5833761096293
 20
52.52727746374861
 30
0.0
 11
148.5833761096293
 21
49.72727746384236
 31
0.0
  0
LINE
  5
428
330
6CB
100
AcDbEntity
  8
1
  6
Continuous
100
AcDbLine
 10
147.0833761096579
 20
49.72727746384236
 30
0.0
 11
147.0833761096579
 21
52.52727746374861
 31
0.0
  0
LINE
  5
429
330
6CB
100
AcDbEntity
  8
1
  6
Continuous
100
AcDbLine
 10
150.2833761096084
 20
49.82727746387125
 30
0.0
 11
150.2833761095892
 21
54.22727746384674
 31
0.0
  0
LINE
  5
42A
330
6CB
100
AcDbEntity
  8
1
  6
Continuous
100
AcDbLine
 10
148.7833761095669
 20
49.88002904214346
 30
0.0
 11
148.7833761095931
 21
54.22727746384674
 31
0.0
  0
LINE
  5
42B
330
6CB
100
AcDbEntity
  8
1
  6
Continuous
100
AcDbLine
 10
150.4833761096
 20
49.72727746384236
 30
0.0
 11
150.2763338561125
 21
49.72727746384236
 31
0.0
  0
LINE
  5
42C
330
6CB
100
AcDbEntity
  8
1
  6
Continuous
100
AcDbLine
 10
149.994643715249
 20
45.72727746384253
 30
0.0
 11
150.4833761096131
 21
45.72727746385688
 31
0.0
  0
LINE
  5
42D
330
6CB
100
AcDbEntity
  8
1
  6
Continuous
100
AcDbLine
 10
155.2833761096376
 20
50.72727746353375
 30
0.0
 11
154.1833761095976
 21
50.72727746353375
 31
0.0
  0
LINE
  5
42E
330
6CB
100
AcDbEntity
  8
1
  6
Continuous
100
AcDbLine
 10
152.1833761095962
 20
50.72727746384245
 30
0.0
 11
151.9833761096003
 21
50.72727746384245
 31
0.0
  0
LINE
  5
42F
330
6CB
100
AcDbEntity
  8
1
  6
Continuous
100
AcDbLine
 10
154.4833761096003
 20
50.72727746384245
 30
0.0
 11
154.4833761096003
 21
49.86853877433588
 31
0.0
  0
LINE
  5
430
330
6CB
100
AcDbEntity
  8
1
  6
Continuous
100
AcDbLine
 10
152.1833761095974
 20
49.72727746384236
 30
0.0
 11
151.9833761096003
 21
49.72727746384236
 31
0.0
  0
LINE
  5
431
330
6CB
100
AcDbEntity
  8
1
  6
Continuous
100
AcDbLine
 10
156.2833761096376
 20
49.72727746353378
 30
0.0
 11
155.2833761096376
 21
50.72727746353375
 31
0.0
  0
LINE
  5
432
330
6CB
100
AcDbEntity
  8
1
  6
Continuous
100
AcDbLine
 10
151.9833761096003
 20
45.72727746384253
 30
0.0
 11
152.1833761095974
 21
45.72727746384253
 31
0.0
  0
LINE
  5
433
330
6CB
100
AcDbEntity
  8
1
  6
Continuous
100
AcDbLine
 10
155.2833761096376
 20
48.91471167244029
 30
0.0
 11
155.2833761096376
 21
50.72727746353375
 31
0.0
  0
LINE
  5
434
330
6CB
100
AcDbEntity
  8
1
  6
Continuous
100
AcDbLine
 10
149.7833761095376
 20
55.72727746391556
 30
0.0
 11
154.1833761095736
 21
55.72727746391556
 31
0.0
  0
LINE
  5
435
330
6CB
100
AcDbEntity
  8
1
  6
Continuous
100
AcDbLine
 10
150.4833761096131
 20
54.72727746387113
 30
0.0
 11
151.9833761096131
 21
54.72727746387113
 31
0.0
  0
ARC
  5
436
330
6CB
100
AcDbEntity
  8
1
  6
Continuous
100
AcDbCircle
 10
147.7833761095931
 20
54.22727746384674
 30
0.0
 40
1.0
100
AcDbArc
 50
0.0
 51
90.0
  0
ARC
  5
437
330
6CB
100
AcDbEntity
  8
1
  6
Continuous
100
AcDbCircle
 10
147.7833761095892
 20
54.22727746384674
 30
0.0
 40
2.5
100
AcDbArc
 50
359.9999999999996
 51
90.0
  0
ARC
  5
438
330
6CB
100
AcDbEntity
  8
1
  6
Continuous
100
AcDbCircle
 10
147.0833761096278
 20
52.52727746374871
 30
0.0
 40
1.5
100
AcDbArc
 50
359.9999999999967
 51
90.0
  0
LINE
  5
439
330
6CB
100
AcDbEntity
  8
1
  6
Continuous
100
AcDbLine
 10
198.9330624841518
 20
51.13000644374827
 30
0.0
 11
192.2833761098057
 21
51.13000644374825
 31
0.0
  0
LINE
  5
43A
330
6CB
100
AcDbEntity
  8
1
  6
Continuous
100
AcDbLine
 10
190.2833761098058
 20
38.72727746384246
 30
0.0
 11
230.2833761093328
 21
38.72727746384246
 31
0.0
  0
LINE
  5
43B
330
6CB
100
AcDbEntity
  8
1
  6
Continuous
100
AcDbLine
 10
190.2833761098056
 20
49.13000644374823
 30
0.0
 11
190.2833761098058
 21
38.72727746384246
 31
0.0
  0
ARC
  5
43C
330
6CB
100
AcDbEntity
  8
1
  6
Continuous
100
AcDbCircle
 10
192.2833761098057
 20
49.13000644374823
 30
0.0
 40
2.0
100
AcDbArc
 50
90.0
 51
180.0
  0
ARC
  5
43D
330
6CB
100
AcDbEntity
  8
1
  6
Continuous
100
AcDbCircle
 10
215.2833761096055
 20
50.72727746384281
 30
0.0
 40
2.0
100
AcDbArc
 50
90.0
 51
179.9999999999996
  0
LINE
  5
43E
330
6CB
100
AcDbEntity
  8
4
  6
CENTER
100
AcDbLine
 10
210.2833761095998
 20
53.98139659461834
 30
0.0
 11
210.2833761095853
 21
35.48139659479078
 31
0.0
  0
LINE
  5
43F
330
6CB
100
AcDbEntity
  8
1
  6
Continuous
100
AcDbLine
 10
207.2833761095332
 20
44.22727746362882
 30
0.0
 11
207.2833761095332
 21
50.72727746384281
 31
0.0
  0
LINE
  5
440
330
6CB
100
AcDbEntity
  8
1
  6
Continuous
100
AcDbLine
 10
213.2833761096055
 20
50.72727746384281
 30
0.0
 11
213.2833761096054
 21
44.22727746362882
 31
0.0
  0
LINE
  5
441
330
6CB
100
AcDbEntity
  8
4
  6
CENTER
100
AcDbLine
 10
195.283376109775
 20
36.43448668857536
 30
0.0
 11
195.283376109775
 21
43.03448668857536
 31
0.0
  0
LINE
  5
442
330
6CB
100
AcDbEntity
  8
1
  6
Continuous
100
AcDbLine
 10
208.2833761095332
 20
43.22727746362882
 30
0.0
 11
212.2833761096054
 21
43.22727746362882
 31
0.0
  0
ARC
  5
443
330
6CB
100
AcDbEntity
  8
1
  6
Continuous
100
AcDbCircle
 10
208.2833761095332
 20
44.22727746362882
 30
0.0
 40
1.0
100
AcDbArc
 50
180.0000000000002
 51
270.0
  0
ARC
  5
444
330
6CB
100
AcDbEntity
  8
1
  6
Continuous
100
AcDbCircle
 10
212.2833761096054
 20
44.22727746362882
 30
0.0
 40
1.0
100
AcDbArc
 50
270.0
 51
359.9999999999996
  0
LINE
  5
445
330
6CB
100
AcDbEntity
  8
1
  6
Continuous
100
AcDbLine
 10
201.6336897349869
 20
52.72727746384279
 30
0.0
 11
205.2833761095332
 21
52.72727746384279
 31
0.0
  0
LINE
  5
446
330
6CB
100
AcDbEntity
  8
1
  6
Continuous
100
AcDbLine
 10
201.0096450240245
 20
52.50866609872284
 30
0.0
 11
199.5571071951143
 21
51.34861780886822
 31
0.0
  0
ARC
  5
447
330
6CB
100
AcDbEntity
  8
1
  6
Continuous
100
AcDbCircle
 10
198.9330624841518
 20
52.13000644374827
 30
0.0
 40
1.0
100
AcDbArc
 50
270.0000000000001
 51
308.6121060780348
  0
ARC
  5
448
330
6CB
100
AcDbEntity
  8
1
  6
Continuous
100
AcDbCircle
 10
201.6336897349869
 20
51.72727746384278
 30
0.0
 40
1.0
100
AcDbArc
 50
90.0
 51
128.6121060780354
  0
ARC
  5
449
330
6CB
100
AcDbEntity
  8
1
  6
Continuous
100
AcDbCircle
 10
205.2833761095332
 20
50.72727746384281
 30
0.0
 40
2.0
100
AcDbArc
 50
0.0000000000005598
 51
90.0
  0
LINE
  5
44A
330
6CB
100
AcDbEntity
  8
1
  6
Continuous
100
AcDbLine
 10
230.2833761093328
 20
49.13000644374827
 30
0.0
 11
230.2833761093328
 21
38.72727746384246
 31
0.0
  0
LINE
  5
44B
330
6CB
100
AcDbEntity
  8
4
  6
CENTER
100
AcDbLine
 10
225.2833761094513
 20
36.43448668857561
 30
0.0
 11
225.2833761094513
 21
43.03448668857564
 31
0.0
  0
LINE
  5
44C
330
6CB
100
AcDbEntity
  8
1
  6
Continuous
100
AcDbLine
 10
221.6336897349869
 20
51.13000644374827
 30
0.0
 11
228.2833761093328
 21
51.13000644374827
 31
0.0
  0
LINE
  5
44D
330
6CB
100
AcDbEntity
  8
1
  6
Continuous
100
AcDbLine
 10
219.5571071951141
 20
52.50866609872281
 30
0.0
 11
221.0096450240243
 21
51.34861780886822
 31
0.0
  0
ARC
  5
44E
330
6CB
100
AcDbEntity
  8
1
  6
Continuous
100
AcDbCircle
 10
221.6336897349869
 20
52.13000644374827
 30
0.0
 40
1.0
100
AcDbArc
 50
231.3878939219645
 51
270.0
  0
ARC
  5
44F
330
6CB
100
AcDbEntity
  8
1
  6
Continuous
100
AcDbCircle
 10
218.9330624841517
 20
51.72727746384278
 30
0.0
 40
1.0
100
AcDbArc
 50
51.38789392196468
 51
90.0
  0
LINE
  5
450
330
6CB
100
AcDbEntity
  8
1
  6
Continuous
100
AcDbLine
 10
215.2833761096055
 20
52.72727746384279
 30
0.0
 11
218.9330624841517
 21
52.72727746384279
 31
0.0
  0
ARC
  5
451
330
6CB
100
AcDbEntity
  8
1
  6
Continuous
100
AcDbCircle
 10
228.2833761093328
 20
49.13000644374827
 30
0.0
 40
2.0
100
AcDbArc
 50
359.9999999999998
 51
90.0
  0
LINE
  5
452
330
6CB
100
AcDbEntity
  8
4
  6
CENTER
100
AcDbLine
 10
158.8833761095987
 20
127.8303448725334
 30
0.0
 11
122.3833761095975
 21
127.8303448725334
 31
0.0
  0
LINE
  5
453
330
6CB
100
AcDbEntity
  8
4
  6
CENTER
100
AcDbLine
 10
158.8833761095625
 20
135.8303448725332
 30
0.0
 11
122.3833761095615
 21
135.8303448725332
 31
0.0
  0
LINE
  5
454
330
6CB
100
AcDbEntity
  8
4
  6
CENTER
100
AcDbLine
 10
158.1833761095201
 20
159.3303448725514
 30
0.0
 11
122.0833761095197
 21
159.3303448725514
 31
0.0
  0
ARC
  5
455
330
6CB
100
AcDbEntity
  8
1
  6
Continuous
100
AcDbCircle
 10
133.2833761095043
 20
111.3303448723582
 30
0.0
 40
1.0
100
AcDbArc
 50
0.0
 51
89.99999999996971
  0
ARC
  5
456
330
6CB
100
AcDbEntity
  8
1
  6
Continuous
100
AcDbCircle
 10
147.2833761095099
 20
111.3303448723506
 30
0.0
 40
1.0
100
AcDbArc
 50
89.99999999996743
 51
179.9999999999096
  0
ARC
  5
457
330
6CB
100
AcDbEntity
  8
1
  6
Continuous
100
AcDbCircle
 10
137.2833761095043
 20
104.3303448723559
 30
0.0
 40
3.0
100
AcDbArc
 50
180.0
 51
269.9999999999688
  0
LINE
  5
458
330
6CB
100
AcDbEntity
  8
1
  6
Continuous
100
AcDbLine
 10
134.2833761095043
 20
111.3303448723582
 30
0.0
 11
134.2833761095043
 21
104.3303448723559
 31
0.0
  0
ARC
  5
459
330
6CB
100
AcDbEntity
  8
1
  6
Continuous
100
AcDbCircle
 10
143.2833761094989
 20
104.3303448723524
 30
0.0
 40
3.0
100
AcDbArc
 50
269.9999999999688
 51
359.9999999999157
  0
LINE
  5
45A
330
6CB
100
AcDbEntity
  8
1
  6
Continuous
100
AcDbLine
 10
146.2833761094989
 20
104.330344872348
 30
0.0
 11
146.28337610951
 21
111.3303448723522
 31
0.0
  0
LINE
  5
45B
330
6CB
100
AcDbEntity
  8
1
  6
Continuous
100
AcDbLine
 10
137.2833761095026
 20
101.3303448723559
 30
0.0
 11
143.2833761094973
 21
101.3303448723524
 31
0.0
  0
LINE
  5
45C
330
6CB
100
AcDbEntity
  8
1
  6
Continuous
100
AcDbLine
 10
151.9833761096024
 20
164.3303448723182
 30
0.0
 11
151.9833761096024
 21
112.3303448723131
 31
0.0
  0
LINE
  5
45D
330
6CB
100
AcDbEntity
  8
1
  6
Continuous
100
AcDbLine
 10
150.4833761096026
 20
149.7973145943894
 30
0.0
 11
150.4833761096026
 21
112.3303448723131
 31
0.0
  0
LINE
  5
45E
330
6CB
100
AcDbEntity
  8
1
  6
Continuous
100
AcDbLine
 10
130.0833761095732
 20
149.7973145943726
 30
0.0
 11
130.0833761095732
 21
117.3303448723131
 31
0.0
  0
LINE
  5
45F
330
6CB
100
AcDbEntity
  8
1
  6
Continuous
100
AcDbLine
 10
128.5833761095732
 20
164.3303448723182
 30
0.0
 11
128.5833761095732
 21
117.3303448723131
 31
0.0
  0
LINE
  5
460
330
6CB
100
AcDbEntity
  8
1
  6
Continuous
100
AcDbLine
 10
130.2833761094622
 20
112.3303448724113
 30
0.0
 11
130.2833761095043
 21
164.3303448723524
 31
0.0
  0
LINE
  5
461
330
6CB
100
AcDbEntity
  8
1
  6
Continuous
100
AcDbLine
 10
150.2833761095853
 20
164.3303448723366
 30
0.0
 11
150.2833761095786
 21
112.3303448723489
 31
0.0
  0
LINE
  5
462
330
6CB
100
AcDbEntity
  8
4
  6
CENTER
100
AcDbLine
 10
136.6833761096765
 20
129.3303448687818
 30
0.0
 11
143.8833761095161
 21
129.3303448688343
 31
0.0
  0
LINE
  5
463
330
6CB
100
AcDbEntity
  8
4
  6
CENTER
100
AcDbLine
 10
154.9833761095083
 20
118.8303448724052
 30
0.0
 11
125.5833761095042
 21
118.8303448724052
 31
0.0
  0
ARC
  5
464
330
6CB
100
AcDbEntity
  8
1
  6
Continuous
100
AcDbCircle
 10
129.0083761095581
 20
127.8303448723524
 30
0.0
 40
3.624999999999783
100
AcDbArc
 50
136.3971810272949
 51
223.602818972705
  0
LINE
  5
465
330
6CB
100
AcDbEntity
  8
1
  6
Continuous
100
AcDbLine
 10
128.3833761095583
 20
122.8303448725151
 30
0.0
 11
126.3833761095582
 21
122.8303448725129
 31
0.0
  0
LINE
  5
466
330
6CB
100
AcDbEntity
  8
1
  6
Continuous
100
AcDbLine
 10
133.2833761095048
 20
112.3303448723582
 30
0.0
 11
130.2833761094622
 21
112.3303448723598
 31
0.0
  0
LINE
  5
467
330
6CB
100
AcDbEntity
  8
1
  6
Continuous
100
AcDbLine
 10
130.0833761095732
 20
112.3303448723131
 30
0.0
 11
128.5833761095732
 21
112.3303448723131
 31
0.0
  0
LINE
  5
468
330
6CB
100
AcDbEntity
  8
1
  6
Continuous
100
AcDbLine
 10
130.0833761095731
 20
117.3303448723131
 30
0.0
 11
130.0833761095731
 21
112.3303448723131
 31
0.0
  0
LINE
  5
469
330
6CB
100
AcDbEntity
  8
1
  6
Continuous
100
AcDbLine
 10
128.583376109573
 20
112.3303448723131
 30
0.0
 11
128.583376109573
 21
117.3303448723131
 31
0.0
  0
LINE
  5
46A
330
6CB
100
AcDbEntity
  8
1
  6
Continuous
100
AcDbLine
 10
130.0833761095731
 20
123.3303448723649
 30
0.0
 11
130.2833761094711
 21
123.3303448723649
 31
0.0
  0
ARC
  5
46B
330
6CB
100
AcDbEntity
  8
1
  6
Continuous
100
AcDbCircle
 10
129.0083761095581
 20
135.8303448723524
 30
0.0
 40
3.624999999999783
100
AcDbArc
 50
136.3971810272949
 51
223.602818972705
  0
LINE
  5
46C
330
6CB
100
AcDbEntity
  8
1
  6
Continuous
100
AcDbLine
 10
128.5833761095732
 20
129.8303448723523
 30
0.0
 11
128.3833761095639
 21
129.8303448723523
 31
0.0
  0
LINE
  5
46D
330
6CB
100
AcDbEntity
  8
1
  6
Continuous
100
AcDbLine
 10
130.2833761094764
 20
129.8303448723523
 30
0.0
 11
130.0833761095732
 21
129.8303448723523
 31
0.0
  0
LINE
  5
46E
330
6CB
100
AcDbEntity
  8
1
  6
Continuous
100
AcDbLine
 10
130.0833761095732
 20
125.8303448723524
 30
0.0
 11
130.2833761094731
 21
125.8303448723524
 31
0.0
  0
LINE
  5
46F
330
6CB
100
AcDbEntity
  8
1
  6
Continuous
100
AcDbLine
 10
128.3833761095607
 20
125.8303448723524
 30
0.0
 11
128.5833761095732
 21
125.8303448723524
 31
0.0
  0
LINE
  5
470
330
6CB
100
AcDbEntity
  8
1
  6
Continuous
100
AcDbLine
 10
128.5833761095732
 20
137.8303448723524
 30
0.0
 11
128.3833761095701
 21
137.8303448723524
 31
0.0
  0
LINE
  5
471
330
6CB
100
AcDbEntity
  8
1
  6
Continuous
100
AcDbLine
 10
130.2833761094828
 20
137.8303448723524
 30
0.0
 11
130.0833761095732
 21
137.8303448723524
 31
0.0
  0
LINE
  5
472
330
6CB
100
AcDbEntity
  8
1
  6
Continuous
100
AcDbLine
 10
130.0833761095732
 20
133.8303448723525
 30
0.0
 11
130.2833761094796
 21
133.8303448723525
 31
0.0
  0
LINE
  5
473
330
6CB
100
AcDbEntity
  8
1
  6
Continuous
100
AcDbLine
 10
128.383376109567
 20
133.8303448723525
 30
0.0
 11
128.5833761095732
 21
133.8303448723525
 31
0.0
  0
ARC
  5
474
330
6CB
100
AcDbEntity
  8
1
  6
Continuous
100
AcDbCircle
 10
151.5583761095586
 20
127.8303448723524
 30
0.0
 40
3.624999999999788
100
AcDbArc
 50
316.3971810272955
 51
43.60281897270446
  0
LINE
  5
475
330
6CB
100
AcDbEntity
  8
1
  6
Continuous
100
AcDbLine
 10
151.9833761096024
 20
112.3303448723131
 30
0.0
 11
150.4833761096026
 21
112.3303448723131
 31
0.0
  0
LINE
  5
476
330
6CB
100
AcDbEntity
  8
1
  6
Continuous
100
AcDbLine
 10
150.2833761095786
 20
112.3303448723489
 30
0.0
 11
147.2833761095105
 21
112.3303448723506
 31
0.0
  0
LINE
  5
477
330
6CB
100
AcDbEntity
  8
1
  6
Continuous
100
AcDbLine
 10
150.28337610958
 20
123.3303448723649
 30
0.0
 11
150.4833761096026
 21
123.3303448723649
 31
0.0
  0
LINE
  5
478
330
6CB
100
AcDbEntity
  8
1
  6
Continuous
100
AcDbLine
 10
154.1833761095584
 20
122.8303448725434
 30
0.0
 11
152.1833761095584
 21
122.830344872542
 31
0.0
  0
LINE
  5
479
330
6CB
100
AcDbEntity
  8
1
  6
Continuous
100
AcDbLine
 10
150.4833761096026
 20
129.8303448723523
 30
0.0
 11
150.2833761095809
 21
129.8303448723523
 31
0.0
  0
LINE
  5
47A
330
6CB
100
AcDbEntity
  8
1
  6
Continuous
100
AcDbLine
 10
150.2833761095803
 20
125.8303448723524
 30
0.0
 11
150.4833761096026
 21
125.8303448723524
 31
0.0
  0
LINE
  5
47B
330
6CB
100
AcDbEntity
  8
1
  6
Continuous
100
AcDbLine
 10
152.1833761095639
 20
129.8303448723523
 30
0.0
 11
151.9833761096024
 21
129.8303448723523
 31
0.0
  0
LINE
  5
47C
330
6CB
100
AcDbEntity
  8
1
  6
Continuous
100
AcDbLine
 10
151.9833761096024
 20
125.8303448723524
 30
0.0
 11
152.1833761095606
 21
125.8303448723524
 31
0.0
  0
LINE
  5
47D
330
6CB
100
AcDbEntity
  8
1
  6
Continuous
100
AcDbLine
 10
150.4833761096026
 20
137.8303448723524
 30
0.0
 11
150.2833761095818
 21
137.8303448723524
 31
0.0
  0
LINE
  5
47E
330
6CB
100
AcDbEntity
  8
1
  6
Continuous
100
AcDbLine
 10
150.2833761095814
 20
133.8303448723525
 30
0.0
 11
150.4833761096026
 21
133.8303448723525
 31
0.0
  0
LINE
  5
47F
330
6CB
100
AcDbEntity
  8
1
  6
Continuous
100
AcDbLine
 10
152.1833761095702
 20
137.8303448723524
 30
0.0
 11
151.9833761096024
 21
137.8303448723524
 31
0.0
  0
LINE
  5
480
330
6CB
100
AcDbEntity
  8
1
  6
Continuous
100
AcDbLine
 10
151.9833761096024
 20
133.8303448723525
 30
0.0
 11
152.183376109567
 21
133.8303448723525
 31
0.0
  0
ARC
  5
481
330
6CB
100
AcDbEntity
  8
1
  6
Continuous
100
AcDbCircle
 10
151.5583761095586
 20
135.8303448723524
 30
0.0
 40
3.624999999999788
100
AcDbArc
 50
316.3971810272955
 51
43.60281897270446
  0
LINE
  5
482
330
6CB
100
AcDbEntity
  8
4
  6
CENTER
100
AcDbLine
 10
136.6833761096765
 20
151.3303448687818
 30
0.0
 11
143.8833761095161
 21
151.3303448688343
 31
0.0
  0
LINE
  5
483
330
6CB
100
AcDbEntity
  8
4
  6
CENTER
100
AcDbLine
 10
152.7833761096626
 20
151.63034487255
 30
0.0
 11
127.783376109513
 21
151.63034487255
 31
0.0
  0
LINE
  5
484
330
6CB
100
AcDbEntity
  8
1
  6
Continuous
100
AcDbLine
 10
151.9833761096024
 20
164.3303448723353
 30
0.0
 11
128.583376109573
 21
164.3303448723537
 31
0.0
  0
LINE
  5
485
330
6CB
100
AcDbEntity
  8
1
  6
Continuous
100
AcDbLine
 10
150.4833761096026
 20
161.3303448723728
 30
0.0
 11
130.0833761095731
 21
161.3303448723728
 31
0.0
  0
ARC
  5
486
330
6CB
100
AcDbEntity
  8
1
  6
Continuous
100
AcDbCircle
 10
131.7833761095771
 20
151.6303448723512
 30
0.0
 40
2.5
100
AcDbArc
 50
126.869897645797
 51
233.1301023541847
  0
LINE
  5
487
330
6CB
100
AcDbEntity
  8
1
  6
Continuous
100
AcDbLine
 10
128.5833761095732
 20
148.7303448723524
 30
0.0
 11
130.0833761095732
 21
148.7303448723524
 31
0.0
  0
LINE
  5
488
330
6CB
100
AcDbEntity
  8
1
  6
Continuous
100
AcDbLine
 10
126.0833761095859
 20
162.3303448723524
 30
0.0
 11
126.0833761095859
 21
156.3303448723524
 31
0.0
  0
ARC
  5
489
330
6CB
100
AcDbEntity
  8
1
  6
Continuous
100
AcDbCircle
 10
128.7083761095813
 20
159.3303448723524
 30
0.0
 40
3.624999999996103
100
AcDbArc
 50
136.3971810272505
 51
223.6028189727493
  0
LINE
  5
48A
330
6CB
100
AcDbEntity
  8
1
  6
Continuous
100
AcDbLine
 10
126.383376109591
 20
156.3303448723524
 30
0.0
 11
126.0833761095859
 21
156.3303448723524
 31
0.0
  0
LINE
  5
48B
330
6CB
100
AcDbEntity
  8
1
  6
Continuous
100
AcDbLine
 10
126.0833761095859
 20
162.3303448723524
 30
0.0
 11
126.3833761095794
 21
162.3303448723524
 31
0.0
  0
LINE
  5
48C
330
6CB
100
AcDbEntity
  8
1
  6
Continuous
100
AcDbLine
 10
130.0833761095731
 20
153.4633751503298
 30
0.0
 11
130.0833761095731
 21
164.3303448723524
 31
0.0
  0
LINE
  5
48D
330
6CB
100
AcDbEntity
  8
1
  6
Continuous
100
AcDbLine
 10
128.5833761095859
 20
156.3303448723524
 30
0.0
 11
128.383376109591
 21
156.3303448723524
 31
0.0
  0
LINE
  5
48E
330
6CB
100
AcDbEntity
  8
1
  6
Continuous
100
AcDbLine
 10
130.0833761095731
 20
157.3303448723524
 30
0.0
 11
130.2833761094986
 21
157.3303448723524
 31
0.0
  0
LINE
  5
48F
330
6CB
100
AcDbEntity
  8
1
  6
Continuous
100
AcDbLine
 10
130.0833761095731
 20
154.3303448723524
 30
0.0
 11
128.5833761095732
 21
154.3303448723524
 31
0.0
  0
LINE
  5
490
330
6CB
100
AcDbEntity
  8
1
  6
Continuous
100
AcDbLine
 10
128.383376109589
 20
162.3303448723524
 30
0.0
 11
128.5833761095859
 21
162.3303448723524
 31
0.0
  0
LINE
  5
491
330
6CB
100
AcDbEntity
  8
1
  6
Continuous
100
AcDbLine
 10
131.7833761095196
 20
161.3303448723728
 30
0.0
 11
131.7833761095196
 21
164.3303448723524
 31
0.0
  0
ARC
  5
492
330
6CB
100
AcDbEntity
  8
1
  6
Continuous
100
AcDbCircle
 10
148.7833761095804
 20
151.6303448723512
 30
0.0
 40
2.5
100
AcDbArc
 50
306.8698976458151
 51
53.13010235420295
  0
LINE
  5
493
330
6CB
100
AcDbEntity
  8
1
  6
Continuous
100
AcDbLine
 10
150.4833761096026
 20
148.7303448723524
 30
0.0
 11
151.9833761096024
 21
148.7303448723524
 31
0.0
  0
ARC
  5
494
330
6CB
100
AcDbEntity
  8
1
  6
Continuous
100
AcDbCircle
 10
151.8583761095944
 20
159.3303448723524
 30
0.0
 40
3.624999999996103
100
AcDbArc
 50
316.3971810272506
 51
43.6028189727494
  0
LINE
  5
495
330
6CB
100
AcDbEntity
  8
1
  6
Continuous
100
AcDbLine
 10
150.4833761096026
 20
153.463375150313
 30
0.0
 11
150.4833761096026
 21
164.3303448723524
 31
0.0
  0
LINE
  5
496
330
6CB
100
AcDbEntity
  8
1
  6
Continuous
100
AcDbLine
 10
154.4833761095898
 20
162.3303448723524
 30
0.0
 11
154.4833761095898
 21
156.3303448723524
 31
0.0
  0
LINE
  5
497
330
6CB
100
AcDbEntity
  8
1
  6
Continuous
100
AcDbLine
 10
150.4833761096026
 20
154.3303448723524
 30
0.0
 11
151.9833761096024
 21
154.3303448723524
 31
0.0
  0
LINE
  5
498
330
6CB
100
AcDbEntity
  8
1
  6
Continuous
100
AcDbLine
 10
150.2833761095844
 20
157.3303448723524
 30
0.0
 11
150.4833761095895
 21
157.3303448723524
 31
0.0
  0
LINE
  5
499
330
6CB
100
AcDbEntity
  8
1
  6
Continuous
100
AcDbLine
 10
154.1833761095846
 20
156.3303448723524
 30
0.0
 11
154.4833761095898
 21
156.3303448723524
 31
0.0
  0
LINE
  5
49A
330
6CB
100
AcDbEntity
  8
1
  6
Continuous
100
AcDbLine
 10
151.9833761095898
 20
156.3303448723524
 30
0.0
 11
152.1833761095846
 21
156.3303448723524
 31
0.0
  0
LINE
  5
49B
330
6CB
100
AcDbEntity
  8
1
  6
Continuous
100
AcDbLine
 10
148.7833761096593
 20
161.3303448723728
 30
0.0
 11
148.7833761096641
 21
164.3303448723391
 31
0.0
  0
LINE
  5
49C
330
6CB
100
AcDbEntity
  8
1
  6
Continuous
100
AcDbLine
 10
152.1833761095867
 20
162.3303448723524
 30
0.0
 11
151.9833761095898
 21
162.3303448723524
 31
0.0
  0
LINE
  5
49D
330
6CB
100
AcDbEntity
  8
1
  6
Continuous
100
AcDbLine
 10
154.4833761095898
 20
162.3303448723524
 30
0.0
 11
154.1833761095962
 21
162.3303448723524
 31
0.0
  0
LINE
  5
49E
330
6CB
100
AcDbEntity
  8
1
  6
Continuous
100
AcDbLine
 10
21.98784999247095
 20
206.3303448735193
 30
0.0
 11
19.98784999247095
 21
206.3303448735168
 31
0.0
  0
ARC
  5
49F
330
6CB
100
AcDbEntity
  8
1
  6
Continuous
100
AcDbCircle
 10
23.98784999247459
 20
197.8303448736892
 30
0.0
 40
4.0
100
AcDbArc
 50
180.0000000000244
 51
270.0000000001399
  0
LINE
  5
4A0
330
6CB
100
AcDbEntity
  8
4
  6
CENTER
100
AcDbLine
 10
24.95270291676138
 20
201.3303448733524
 30
0.0
 11
16.95270291676342
 21
201.3303448733524
 31
0.0
  0
LINE
  5
4A1
330
6CB
100
AcDbEntity
  8
1
  6
Continuous
100
AcDbLine
 10
19.98784999247084
 20
206.3303448735168
 30
0.0
 11
19.98784999247459
 21
197.8303448736874
 31
0.0
  0
LINE
  5
4A2
330
6CB
100
AcDbEntity
  8
1
  6
Continuous
100
AcDbLine
 10
21.98784999247095
 20
197.8303448736892
 30
0.0
 11
21.98784999247095
 21
206.3303448735193
 31
0.0
  0
LINE
  5
4A3
330
6CB
100
AcDbEntity
  8
1
  6
Continuous
100
AcDbLine
 10
32.78421994616461
 20
198.9375446374099
 30
0.0
 11
29.99692510823888
 21
196.8371673234603
 31
0.0
  0
ARC
  5
4A4
330
6CB
100
AcDbEntity
  8
1
  6
Continuous
100
AcDbCircle
 10
26.98784999247845
 20
200.8303448736965
 30
0.0
 40
7.0
100
AcDbArc
 50
270.0000000001399
 51
307.0000000000051
  0
LINE
  5
4A5
330
6CB
100
AcDbEntity
  8
1
  6
Continuous
100
AcDbLine
 10
23.98784999248437
 20
193.8303448736892
 30
0.0
 11
26.98784999249561
 21
193.8303448736965
 31
0.0
  0
LINE
  5
4A6
330
6CB
100
AcDbEntity
  8
1
  6
Continuous
100
AcDbLine
 10
26.98784999249085
 20
195.8303448736966
 30
0.0
 11
23.98784999247584
 21
195.8303448736892
 31
0.0
  0
ARC
  5
4A7
330
6CB
100
AcDbEntity
  8
1
  6
Continuous
100
AcDbCircle
 10
23.98784999247095
 20
197.8303448736892
 30
0.0
 40
2.0
100
AcDbArc
 50
180.0
 51
270.0000000001399
  0
ARC
  5
4A8
330
6CB
100
AcDbEntity
  8
1
  6
Continuous
100
AcDbCircle
 10
26.98784999247868
 20
200.8303448736965
 30
0.0
 40
5.0
100
AcDbArc
 50
270.0000000001399
 51
307.0000000000013
  0
LINE
  5
4A9
330
6CB
100
AcDbEntity
  8
1
  6
Continuous
100
AcDbLine
 10
33.98784999247482
 20
197.3402736173202
 30
0.0
 11
32.78421994616303
 21
198.9375446374121
 31
0.0
  0
LINE
  5
4AA
330
6CB
100
AcDbEntity
  8
1
  6
Continuous
100
AcDbLine
 10
31.20055515454339
 20
195.2398963033659
 30
0.0
 11
33.98784999247482
 21
197.3402736173202
 31
0.0
  0
LINE
  5
4AB
330
6CB
100
AcDbEntity
  8
1
  6
Continuous
100
AcDbLine
 10
32.39057897238036
 20
196.1366435710159
 30
0.0
 11
31.18694892607618
 21
197.7339145911101
 31
0.0
  0
LINE
  5
4AC
330
6CB
100
AcDbEntity
  8
4
  6
CENTER
100
AcDbLine
 10
55.59946235128443
 20
210.830344872182
 30
0.0
 11
55.59946235128443
 21
175.654015913587
 31
0.0
  0
LINE
  5
4AD
330
6CB
100
AcDbEntity
  8
1
  6
Continuous
100
AcDbLine
 10
53.09946235124566
 20
196.5002178539357
 30
0.0
 11
53.09946235124566
 21
183.4303448724281
 31
0.0
  0
LINE
  5
4AE
330
6CB
100
AcDbEntity
  8
1
  6
Continuous
100
AcDbLine
 10
58.09946235132321
 20
183.4303448724281
 30
0.0
 11
58.09946235132321
 21
196.5002178539357
 31
0.0
  0
LINE
  5
4AF
330
6CB
100
AcDbEntity
  8
1
  6
Continuous
100
AcDbLine
 10
50.59946235135818
 20
181.8303448724371
 30
0.0
 11
65.59946235135753
 21
181.8303448724371
 31
0.0
  0
LINE
  5
4B0
330
6CB
100
AcDbEntity
  8
2
  6
Continuous
100
AcDbLine
 10
53.53246235130467
 20
184.8303448724
 30
0.0
 11
53.09946235126568
 21
185.5803228721436
 31
0.0
  0
LINE
  5
4B1
330
6CB
100
AcDbEntity
  8
2
  6
Continuous
100
AcDbLine
 10
57.66646235130468
 20
184.8303448724
 30
0.0
 11
58.09946235134378
 21
185.5803228721436
 31
0.0
  0
LINE
  5
4B2
330
6CB
100
AcDbEntity
  8
1
  6
Continuous
100
AcDbLine
 10
53.09946235126592
 20
184.8303448724
 30
0.0
 11
58.09946235134344
 21
184.8303448724
 31
0.0
  0
LINE
  5
4B3
330
6CB
100
AcDbEntity
  8
1
  6
Continuous
100
AcDbLine
 10
52.65946235128552
 20
183.4303448724281
 30
0.0
 11
58.53946235128336
 21
183.4303448724281
 31
0.0
  0
LINE
  5
4B4
330
6CB
100
AcDbEntity
  8
2
  6
Continuous
100
AcDbLine
 10
53.53246235130455
 20
184.8303448724
 30
0.0
 11
53.53246235130455
 21
183.430344872428
 31
0.0
  0
LINE
  5
4B5
330
6CB
100
AcDbEntity
  8
1
  6
Continuous
100
AcDbLine
 10
52.65946235128552
 20
183.4303448724281
 30
0.0
 11
52.49946235128597
 21
181.8303448724314
 31
0.0
  0
LINE
  5
4B6
330
6CB
100
AcDbEntity
  8
2
  6
Continuous
100
AcDbLine
 10
57.66646235130468
 20
184.8303448724
 30
0.0
 11
57.66646235130468
 21
183.430344872428
 31
0.0
  0
LINE
  5
4B7
330
6CB
100
AcDbEntity
  8
1
  6
Continuous
100
AcDbLine
 10
58.69946235128293
 20
181.8303448724314
 30
0.0
 11
58.53946235128336
 21
183.4303448724281
 31
0.0
  0
LINE
  5
4B8
330
6CB
100
AcDbEntity
  8
4
  6
CENTER
100
AcDbLine
 10
47.5994623515931
 20
200.830344872479
 30
0.0
 11
63.59946235097577
 21
200.830344872479
 31
0.0
  0
CIRCLE
  5
4B9
330
6CB
100
AcDbEntity
  8
1
  6
Continuous
100
AcDbCircle
 10
55.59946235128443
 20
200.830344872479
 30
0.0
 40
4.999999999691309
  0
CIRCLE
  5
4BA
330
6CB
100
AcDbEntity
  8
1
  6
Continuous
100
AcDbCircle
 10
55.59946235128443
 20
200.830344872479
 30
0.0
 40
3.999999999691313
  0
LINE
  5
4BB
330
6CB
100
AcDbEntity
  8
4
  6
CENTER
100
AcDbLine
 10
210.2833761095998
 20
253.8145653564497
 30
0.0
 11
210.2833761095853
 21
272.3145653562773
 31
0.0
  0
LINE
  5
4BC
330
6CB
100
AcDbEntity
  8
4
  6
CENTER
100
AcDbLine
 10
121.2833761096222
 20
262.0686844872256
 30
0.0
 11
159.2833761096269
 21
262.0686844872256
 31
0.0
  0
LINE
  5
4BD
330
6CB
100
AcDbEntity
  8
1
  6
Continuous
100
AcDbLine
 10
137.7833761095103
 20
195.8303448727994
 30
0.0
 11
137.7833761095103
 21
183.4303448724396
 31
0.0
  0
LINE
  5
4BE
330
6CB
100
AcDbEntity
  8
1
  6
Continuous
100
AcDbLine
 10
142.7833761095878
 20
183.4303448724396
 30
0.0
 11
142.7833761095878
 21
195.8303448727889
 31
0.0
  0
LINE
  5
4BF
330
6CB
100
AcDbEntity
  8
1
  6
Continuous
100
AcDbLine
 10
145.1833761096082
 20
181.8303448724371
 30
0.0
 11
135.383376109608
 21
181.8303448724488
 31
0.0
  0
LINE
  5
4C0
330
6CB
100
AcDbEntity
  8
1
  6
Continuous
100
AcDbLine
 10
135.3833761095878
 20
179.830344872466
 30
0.0
 11
145.1833761095877
 21
179.8303448724799
 31
0.0
  0
ARC
  5
4C1
330
6CB
100
AcDbEntity
  8
1
  6
Continuous
100
AcDbCircle
 10
135.3833761095976
 20
172.830344872466
 30
0.0
 40
7.0
100
AcDbArc
 50
90.00000000008137
 51
179.9999999999548
  0
ARC
  5
4C2
330
6CB
100
AcDbEntity
  8
1
  6
Continuous
100
AcDbCircle
 10
135.3833761095973
 20
172.8303448724488
 30
0.0
 40
9.0
100
AcDbArc
 50
89.99999999993161
 51
179.9999999999548
  0
LINE
  5
4C3
330
6CB
100
AcDbEntity
  8
2
  6
Continuous
100
AcDbLine
 10
138.2163761095877
 20
179.8303448724699
 30
0.0
 11
138.2163761095877
 21
169.8303448724114
 31
0.0
  0
LINE
  5
4C4
330
6CB
100
AcDbEntity
  8
2
  6
Continuous
100
AcDbLine
 10
142.3503761095878
 20
179.8303448724757
 30
0.0
 11
142.3503761095878
 21
169.8303448724116
 31
0.0
  0
ARC
  5
4C5
330
6CB
100
AcDbEntity
  8
1
  6
Continuous
100
AcDbCircle
 10
145.1833761095976
 20
172.8303448724799
 30
0.0
 40
7.0
100
AcDbArc
 50
359.9999999999548
 51
90.00000000008137
  0
LINE
  5
4C6
330
6CB
100
AcDbEntity
  8
1
  6
Continuous
100
AcDbLine
 10
137.7833761095103
 20
179.8303448724695
 30
0.0
 11
137.7833761095103
 21
169.8303448722741
 31
0.0
  0
LINE
  5
4C7
330
6CB
100
AcDbEntity
  8
1
  6
Continuous
100
AcDbLine
 10
142.7833761095878
 20
169.8303448722741
 30
0.0
 11
142.7833761095878
 21
179.8303448724765
 31
0.0
  0
ARC
  5
4C8
330
6CB
100
AcDbEntity
  8
1
  6
Continuous
100
AcDbCircle
 10
145.1833761095976
 20
172.8303448724371
 30
0.0
 40
9.0
100
AcDbArc
 50
359.9999999999548
 51
89.99999999993161
  0
ARC
  5
4C9
330
6CB
100
AcDbEntity
  8
1
  6
Continuous
100
AcDbCircle
 10
141.0900065171352
 20
168.5803448722741
 30
0.0
 40
1.429426945238509
100
AcDbArc
 50
299.016942484794
 51
60.98305751520537
  0
LINE
  5
4CA
330
6CB
100
AcDbEntity
  8
1
  6
Continuous
100
AcDbLine
 10
142.7833761095878
 20
169.8303448722741
 30
0.0
 11
137.7833761095103
 21
169.8303448722741
 31
0.0
  0
LINE
  5
4CB
330
6CB
100
AcDbEntity
  8
1
  6
Continuous
100
AcDbLine
 10
142.7833761095878
 20
167.3303448722741
 30
0.0
 11
137.7833761095103
 21
167.3303448722741
 31
0.0
  0
LINE
  5
4CC
330
6CB
100
AcDbEntity
  8
1
  6
Continuous
100
AcDbLine
 10
141.7833761096138
 20
169.8303448722741
 30
0.0
 11
138.7833761095619
 21
167.3303448722741
 31
0.0
  0
LINE
  5
4CD
330
6CB
100
AcDbEntity
  8
1
  6
Continuous
100
AcDbLine
 10
138.7833761095619
 20
169.8303448722741
 30
0.0
 11
141.7833761096138
 21
167.3303448722741
 31
0.0
  0
ARC
  5
4CE
330
6CB
100
AcDbEntity
  8
1
  6
Continuous
100
AcDbCircle
 10
139.4767457020404
 20
168.5803448722741
 30
0.0
 40
1.429426945238509
100
AcDbArc
 50
119.0169424847945
 51
240.9830575152059
  0
ARC
  5
4CF
330
6CB
100
AcDbEntity
  8
1
  6
Continuous
100
AcDbCircle
 10
139.0958761095103
 20
168.5803448722741
 30
0.0
 40
1.812500000000048
100
AcDbArc
 50
136.397181027298
 51
223.6028189727039
  0
ARC
  5
4D0
330
6CB
100
AcDbEntity
  8
1
  6
Continuous
100
AcDbCircle
 10
141.4708761095878
 20
168.5803448722741
 30
0.0
 40
1.812500000000048
100
AcDbArc
 50
316.3971810272961
 51
43.60281897270185
  0
LINE
  5
4D1
330
6CB
100
AcDbEntity
  8
2
  6
Continuous
100
AcDbLine
 10
142.3503761096081
 20
184.8303448724116
 30
0.0
 11
142.7833761096471
 21
185.5803228721552
 31
0.0
  0
LINE
  5
4D2
330
6CB
100
AcDbEntity
  8
2
  6
Continuous
100
AcDbLine
 10
138.2163761096081
 20
184.8303448724116
 30
0.0
 11
137.7833761095691
 21
185.5803228721552
 31
0.0
  0
LINE
  5
4D3
330
6CB
100
AcDbEntity
  8
1
  6
Continuous
100
AcDbLine
 10
137.7833761095693
 20
184.8303448724116
 30
0.0
 11
142.7833761096468
 21
184.8303448724116
 31
0.0
  0
LINE
  5
4D4
330
6CB
100
AcDbEntity
  8
1
  6
Continuous
100
AcDbLine
 10
137.343376109589
 20
183.4303448724396
 30
0.0
 11
143.2233761095867
 21
183.4303448724396
 31
0.0
  0
LINE
  5
4D5
330
6CB
100
AcDbEntity
  8
2
  6
Continuous
100
AcDbLine
 10
138.216376109608
 20
184.8303448724116
 30
0.0
 11
138.216376109608
 21
183.4303448724396
 31
0.0
  0
LINE
  5
4D6
330
6CB
100
AcDbEntity
  8
1
  6
Continuous
100
AcDbLine
 10
137.343376109589
 20
183.4303448724396
 30
0.0
 11
137.1833761095898
 21
181.8303448724466
 31
0.0
  0
LINE
  5
4D7
330
6CB
100
AcDbEntity
  8
2
  6
Continuous
100
AcDbLine
 10
142.3503761096081
 20
184.8303448724116
 30
0.0
 11
142.3503761096081
 21
183.4303448724396
 31
0.0
  0
LINE
  5
4D8
330
6CB
100
AcDbEntity
  8
1
  6
Continuous
100
AcDbLine
 10
143.3833761095867
 20
181.8303448724393
 30
0.0
 11
143.2233761095867
 21
183.4303448724396
 31
0.0
  0
ARC
  5
4D9
330
6CB
100
AcDbEntity
  8
1
  6
Continuous
100
AcDbCircle
 10
140.2833761095878
 20
213.137971242236
 30
0.0
 40
8.102555348037821
100
AcDbArc
 50
244.4078305676041
 51
295.5921694323956
  0
LINE
  5
4DA
330
6CB
100
AcDbEntity
  8
1
  6
Continuous
100
AcDbLine
 10
125.2833761096222
 20
195.8303448727994
 30
0.0
 11
137.7833761095103
 21
195.8303448727994
 31
0.0
  0
LINE
  5
4DB
330
6CB
100
AcDbEntity
  8
1
  6
Continuous
100
AcDbLine
 10
155.2833761096269
 20
205.830344872182
 30
0.0
 11
125.2833761096222
 21
205.830344872182
 31
0.0
  0
LINE
  5
4DC
330
6CB
100
AcDbEntity
  8
1
  6
Continuous
100
AcDbLine
 10
125.2833761096222
 20
205.830344872182
 30
0.0
 11
124.2833761096222
 21
204.830344872182
 31
0.0
  0
LINE
  5
4DD
330
6CB
100
AcDbEntity
  8
1
  6
Continuous
100
AcDbLine
 10
125.2833761096222
 20
205.830344872182
 30
0.0
 11
125.2833761096222
 21
195.8303448727994
 31
0.0
  0
LINE
  5
4DE
330
6CB
100
AcDbEntity
  8
1
  6
Continuous
100
AcDbLine
 10
124.2833761096222
 20
196.8303448727994
 30
0.0
 11
124.2833761096222
 21
204.830344872182
 31
0.0
  0
LINE
  5
4DF
330
6CB
100
AcDbEntity
  8
1
  6
Continuous
100
AcDbLine
 10
124.2833761096222
 20
196.8303448727994
 30
0.0
 11
125.2833761096222
 21
195.8303448727994
 31
0.0
  0
LINE
  5
4E0
330
6CB
100
AcDbEntity
  8
1
  6
Continuous
100
AcDbLine
 10
156.2833761096269
 20
204.830344872182
 30
0.0
 11
155.2833761096269
 21
205.830344872182
 31
0.0
  0
LINE
  5
4E1
330
6CB
100
AcDbEntity
  8
1
  6
Continuous
100
AcDbLine
 10
155.2833761096269
 20
195.8303448727994
 30
0.0
 11
155.2833761096269
 21
205.830344872182
 31
0.0
  0
LINE
  5
4E2
330
6CB
100
AcDbEntity
  8
1
  6
Continuous
100
AcDbLine
 10
142.7833761095893
 20
195.8303448727994
 30
0.0
 11
155.2833761096269
 21
195.8303448727994
 31
0.0
  0
ARC
  5
4E3
330
6CB
100
AcDbEntity
  8
1
  6
Continuous
100
AcDbCircle
 10
140.28337610954
 20
191.5000140889687
 30
0.0
 40
5.000176466639945
100
AcDbArc
 50
60.0011674451887
 51
119.9988325545705
  0
LINE
  5
4E4
330
6CB
100
AcDbEntity
  8
1
  6
Continuous
100
AcDbLine
 10
156.2833761096269
 20
204.830344872182
 30
0.0
 11
156.2833761096269
 21
196.8303448727994
 31
0.0
  0
LINE
  5
4E5
330
6CB
100
AcDbEntity
  8
1
  6
Continuous
100
AcDbLine
 10
155.2833761096269
 20
195.8303448727994
 30
0.0
 11
156.2833761096269
 21
196.8303448727994
 31
0.0
  0
ARC
  5
4E6
330
6CB
100
AcDbEntity
  8
1
  6
Continuous
100
AcDbCircle
 10
139.0763934175146
 20
262.0686844872256
 30
0.0
 40
2.293005294881877
100
AcDbArc
 50
127.6996889092787
 51
232.3003110907198
  0
LINE
  5
4E7
330
6CB
100
AcDbEntity
  8
1
  6
Continuous
100
AcDbLine
 10
149.9833761096548
 20
269.0686844872256
 30
0.0
 11
130.583376109573
 21
269.0686844872256
 31
0.0
  0
LINE
  5
4E8
330
6CB
100
AcDbEntity
  8
1
  6
Continuous
100
AcDbLine
 10
149.9833761096025
 20
267.5686844872255
 30
0.0
 11
130.583376109573
 21
267.5686844872255
 31
0.0
  0
LINE
  5
4E9
330
6CB
100
AcDbEntity
  8
1
  6
Continuous
100
AcDbLine
 10
155.2833761096269
 20
267.0686844869169
 30
0.0
 11
125.2833761096222
 21
267.0686844869169
 31
0.0
  0
LINE
  5
4EA
330
6CB
100
AcDbEntity
  8
1
  6
Continuous
100
AcDbLine
 10
154.1833761095976
 20
252.0686844871526
 30
0.0
 11
126.3833761095974
 21
252.0686844871526
 31
0.0
  0
LINE
  5
4EB
330
6CB
100
AcDbEntity
  8
1
  6
Continuous
100
AcDbLine
 10
147.7833761095849
 20
251.0686844872213
 30
0.0
 11
132.7833761095018
 21
251.0686844872213
 31
0.0
  0
LINE
  5
4EC
330
6CB
100
AcDbEntity
  8
1
  6
Continuous
100
AcDbLine
 10
125.2833761096222
 20
257.0686844875343
 30
0.0
 11
155.2833761096269
 21
257.0686844875343
 31
0.0
  0
LINE
  5
4ED
330
6CB
100
AcDbEntity
  8
1
  6
Continuous
100
AcDbLine
 10
124.2833761096222
 20
258.0686844875343
 30
0.0
 11
124.2833761096222
 21
266.0686844869169
 31
0.0
  0
LINE
  5
4EE
330
6CB
100
AcDbEntity
  8
1
  6
Continuous
100
AcDbLine
 10
125.2833761096222
 20
267.0686844869169
 30
0.0
 11
125.2833761096222
 21
257.0686844875343
 31
0.0
  0
LINE
  5
4EF
330
6CB
100
AcDbEntity
  8
1
  6
Continuous
100
AcDbLine
 10
126.3833761095974
 20
252.0686844871526
 30
0.0
 11
126.3833761095974
 21
257.0686844875341
 31
0.0
  0
LINE
  5
4F0
330
6CB
100
AcDbEntity
  8
1
  6
Continuous
100
AcDbLine
 10
126.383376109586
 20
257.0686844872255
 30
0.0
 11
126.383376109586
 21
256.9686844871807
 31
0.0
  0
LINE
  5
4F1
330
6CB
100
AcDbEntity
  8
1
  6
Continuous
100
AcDbLine
 10
124.2833761096222
 20
258.0686844875343
 30
0.0
 11
125.2833761096222
 21
257.0686844875343
 31
0.0
  0
ARC
  5
4F2
330
6CB
100
AcDbEntity
  8
1
  6
Continuous
100
AcDbCircle
 10
132.7833761095018
 20
253.5686844872213
 30
0.0
 40
2.5
100
AcDbArc
 50
216.8698976478137
 51
270.0
  0
LINE
  5
4F3
330
6CB
100
AcDbEntity
  8
1
  6
Continuous
100
AcDbLine
 10
125.2833761096222
 20
267.0686844869169
 30
0.0
 11
124.2833761096222
 21
266.0686844869169
 31
0.0
  0
ARC
  5
4F4
330
6CB
100
AcDbEntity
  8
1
  6
Continuous
100
AcDbCircle
 10
130.583376109573
 20
267.0686844872256
 30
0.0
 40
2.0
100
AcDbArc
 50
90.0
 51
180.0
  0
ARC
  5
4F5
330
6CB
100
AcDbEntity
  8
1
  6
Continuous
100
AcDbCircle
 10
130.583376109573
 20
267.0686844872256
 30
0.0
 40
0.5
100
AcDbArc
 50
90.0
 51
180.0
  0
LINE
  5
4F6
330
6CB
100
AcDbEntity
  8
1
  6
Continuous
100
AcDbLine
 10
134.2833761095808
 20
267.5686844872156
 30
0.0
 11
134.2833761095808
 21
267.0686844869169
 31
0.0
  0
LINE
  5
4F7
330
6CB
100
AcDbEntity
  8
4
  6
CENTER
100
AcDbLine
 10
140.2833761096139
 20
272.0686844872255
 30
0.0
 11
140.2833761096139
 21
248.0686844872213
 31
0.0
  0
LINE
  5
4F8
330
6CB
100
AcDbEntity
  8
1
  6
Continuous
100
AcDbLine
 10
156.2833761096269
 20
266.0686844869169
 30
0.0
 11
156.2833761096269
 21
258.0686844875343
 31
0.0
  0
LINE
  5
4F9
330
6CB
100
AcDbEntity
  8
1
  6
Continuous
100
AcDbLine
 10
155.2833761096269
 20
257.0686844875343
 30
0.0
 11
155.2833761096269
 21
267.0686844869169
 31
0.0
  0
LINE
  5
4FA
330
6CB
100
AcDbEntity
  8
1
  6
Continuous
100
AcDbLine
 10
154.1833761095976
 20
257.0686844875341
 30
0.0
 11
154.1833761095976
 21
252.0686844871526
 31
0.0
  0
ARC
  5
4FB
330
6CB
100
AcDbEntity
  8
1
  6
Continuous
100
AcDbCircle
 10
147.7833761095849
 20
253.5686844872213
 30
0.0
 40
2.5
100
AcDbArc
 50
270.0
 51
323.1301023521861
  0
LINE
  5
4FC
330
6CB
100
AcDbEntity
  8
1
  6
Continuous
100
AcDbLine
 10
155.2833761096269
 20
257.0686844875343
 30
0.0
 11
156.2833761096269
 21
258.0686844875343
 31
0.0
  0
LINE
  5
4FD
330
6CB
100
AcDbEntity
  8
1
  6
Continuous
100
AcDbLine
 10
154.1833761095994
 20
256.9686844871807
 30
0.0
 11
154.1833761095994
 21
257.0686844872255
 31
0.0
  0
ARC
  5
4FE
330
6CB
100
AcDbEntity
  8
1
  6
Continuous
100
AcDbCircle
 10
140.2833761096139
 20
260.507013843716
 30
0.0
 40
4.266738412055302
100
AcDbArc
 50
52.30031109071823
 51
127.6996889092789
  0
ARC
  5
4FF
330
6CB
100
AcDbEntity
  8
1
  6
Continuous
100
AcDbCircle
 10
140.2833761096139
 20
263.6303551307352
 30
0.0
 40
4.266738412055302
100
AcDbArc
 50
232.3003110907198
 51
307.6996889092828
  0
ARC
  5
500
330
6CB
100
AcDbEntity
  8
1
  6
Continuous
100
AcDbCircle
 10
141.4903588017131
 20
262.0686844872256
 30
0.0
 40
2.293005294881877
100
AcDbArc
 50
307.6996889092832
 51
52.30031109071815
  0
LINE
  5
501
330
6CB
100
AcDbEntity
  8
1
  6
Continuous
100
AcDbLine
 10
146.2833761095809
 20
267.5686844872156
 30
0.0
 11
146.2833761095809
 21
267.0686844869169
 31
0.0
  0
ARC
  5
502
330
6CB
100
AcDbEntity
  8
1
  6
Continuous
100
AcDbCircle
 10
149.9833761096548
 20
267.0686844872256
 30
0.0
 40
2.0
100
AcDbArc
 50
0.0
 51
90.0
  0
ARC
  5
503
330
6CB
100
AcDbEntity
  8
1
  6
Continuous
100
AcDbCircle
 10
149.9833761096025
 20
267.0686844872256
 30
0.0
 40
0.5
100
AcDbArc
 50
0.0
 51
90.0
  0
LINE
  5
504
330
6CB
100
AcDbEntity
  8
1
  6
Continuous
100
AcDbLine
 10
156.2833761096269
 20
266.0686844869169
 30
0.0
 11
155.2833761096269
 21
267.0686844869169
 31
0.0
  0
LINE
  5
505
330
6CB
100
AcDbEntity
  8
4
  6
CENTER
100
AcDbLine
 10
199.5833761097751
 20
201.330344873354
 30
0.0
 11
190.9833761097751
 21
201.330344873354
 31
0.0
  0
LINE
  5
506
330
6CB
100
AcDbEntity
  8
1
  6
Continuous
100
AcDbLine
 10
199.0056741048625
 20
197.7339145911101
 30
0.0
 11
192.2833761098058
 21
197.7339145911101
 31
0.0
  0
LINE
  5
507
330
6CB
100
AcDbEntity
  8
1
  6
Continuous
100
AcDbLine
 10
199.0056741048626
 20
196.1366435710159
 30
0.0
 11
192.2833761098058
 21
196.1366435710159
 31
0.0
  0
CIRCLE
  5
508
330
6CB
100
AcDbEntity
  8
1
  6
Continuous
100
AcDbCircle
 10
195.283376109775
 20
201.330344873354
 30
0.0
 40
1.8
  0
CIRCLE
  5
509
330
6CB
100
AcDbEntity
  8
1
  6
Continuous
100
AcDbCircle
 10
195.283376109775
 20
201.330344873354
 30
0.0
 40
3.24999999998832
  0
ARC
  5
50A
330
6CB
100
AcDbEntity
  8
1
  6
Continuous
100
AcDbCircle
 10
195.2833761096876
 20
201.3303448736349
 30
0.0
 40
4.999999999881717
100
AcDbArc
 50
90.0
 51
180.0
  0
LINE
  5
50B
330
6CB
100
AcDbEntity
  8
1
  6
Continuous
100
AcDbLine
 10
190.2833761098058
 20
193.8303448736965
 30
0.0
 11
230.2833761093328
 21
193.8303448736967
 31
0.0
  0
LINE
  5
50C
330
6CB
100
AcDbEntity
  8
1
  6
Continuous
100
AcDbLine
 10
190.2833761098058
 20
201.3303448736349
 30
0.0
 11
190.2833761098058
 21
193.8303448736967
 31
0.0
  0
ARC
  5
50D
330
6CB
100
AcDbEntity
  8
1
  6
Continuous
100
AcDbCircle
 10
191.1648205220272
 20
194.9478666170898
 30
0.0
 40
0.8814444122214695
100
AcDbArc
 50
120.7267619044967
 51
180.0
  0
ARC
  5
50E
330
6CB
100
AcDbEntity
  8
1
  6
Continuous
100
AcDbCircle
 10
191.1648205220272
 20
196.5451376371841
 30
0.0
 40
0.8814444122214695
100
AcDbArc
 50
120.7267619044967
 51
180.0
  0
ARC
  5
50F
330
6CB
100
AcDbEntity
  8
1
  6
Continuous
100
AcDbCircle
 10
192.2833761098056
 20
193.066007141123
 30
0.0
 40
3.070636429892998
100
AcDbArc
 50
89.99999999999788
 51
120.7267619044972
  0
ARC
  5
510
330
6CB
100
AcDbEntity
  8
1
  6
Continuous
100
AcDbCircle
 10
192.2833761098056
 20
194.6632781612172
 30
0.0
 40
3.070636429892998
100
AcDbArc
 50
89.99999999999788
 51
120.7267619044972
  0
LINE
  5
511
330
6CB
100
AcDbEntity
  8
4
  6
CENTER
100
AcDbLine
 10
210.2833761095998
 20
190.8303448736895
 30
0.0
 11
210.2833761095853
 21
209.330344873517
 31
0.0
  0
ARC
  5
512
330
6CB
100
AcDbEntity
  8
1
  6
Continuous
100
AcDbCircle
 10
215.2833761096055
 20
195.8669082075191
 30
0.0
 40
3.070636429892998
100
AcDbArc
 50
90.00000000000211
 51
120.7267619045024
  0
ARC
  5
513
330
6CB
100
AcDbEntity
  8
1
  6
Continuous
100
AcDbCircle
 10
215.2833761096055
 20
194.2696371874271
 30
0.0
 40
3.070636429892998
100
AcDbArc
 50
90.00000000000211
 51
120.7267619045024
  0
LINE
  5
514
330
6CB
100
AcDbEntity
  8
1
  6
Continuous
100
AcDbLine
 10
195.2833761096876
 20
206.3303448735193
 30
0.0
 11
225.2833761094511
 21
206.3303448735193
 31
0.0
  0
LINE
  5
515
330
6CB
100
AcDbEntity
  8
4
  6
CENTER
100
AcDbLine
 10
195.283376109775
 20
205.6303448733544
 30
0.0
 11
195.283376109775
 21
197.0303448733544
 31
0.0
  0
LINE
  5
516
330
6CB
100
AcDbEntity
  8
1
  6
Continuous
100
AcDbLine
 10
201.5610781142724
 20
198.9375446374121
 30
0.0
 11
205.2833761095332
 21
198.9375446374121
 31
0.0
  0
LINE
  5
517
330
6CB
100
AcDbEntity
  8
1
  6
Continuous
100
AcDbLine
 10
201.5610781142761
 20
197.34027361732
 30
0.0
 11
205.2833761095332
 21
197.3402736173202
 31
0.0
  0
ARC
  5
518
330
6CB
100
AcDbEntity
  8
1
  6
Continuous
100
AcDbCircle
 10
201.5610781142724
 20
197.9375446374121
 30
0.0
 40
1.0
100
AcDbArc
 50
90.0
 51
121.0401608697966
  0
LINE
  5
519
330
6CB
100
AcDbEntity
  8
1
  6
Continuous
100
AcDbLine
 10
201.045439343594
 20
198.7943507170902
 30
0.0
 11
199.5213128755408
 21
197.8771085114321
 31
0.0
  0
LINE
  5
51A
330
6CB
100
AcDbEntity
  8
1
  6
Continuous
100
AcDbLine
 10
201.0454393435977
 20
197.1970796969982
 30
0.0
 11
199.5213128755409
 21
196.2798374913377
 31
0.0
  0
ARC
  5
51B
330
6CB
100
AcDbEntity
  8
1
  6
Continuous
100
AcDbCircle
 10
199.0056741048625
 20
198.7339145911101
 30
0.0
 40
1.0
100
AcDbArc
 50
269.9999999999997
 51
301.0401608697956
  0
ARC
  5
51C
330
6CB
100
AcDbEntity
  8
1
  6
Continuous
100
AcDbCircle
 10
199.0056741048626
 20
197.1366435710159
 30
0.0
 40
1.0
100
AcDbArc
 50
270.0
 51
301.0401608697998
  0
ARC
  5
51D
330
6CB
100
AcDbEntity
  8
1
  6
Continuous
100
AcDbCircle
 10
201.5610781142761
 20
196.34027361732
 30
0.0
 40
1.0
100
AcDbArc
 50
90.0
 51
121.0401608698
  0
ARC
  5
51E
330
6CB
100
AcDbEntity
  8
1
  6
Continuous
100
AcDbCircle
 10
205.2833761095331
 20
195.8669082075191
 30
0.0
 40
3.070636429892998
100
AcDbArc
 50
59.27323809549752
 51
89.99999999999788
  0
LINE
  5
51F
330
6CB
100
AcDbEntity
  8
1
  6
Continuous
100
AcDbLine
 10
213.2833761096054
 20
195.8303448736915
 30
0.0
 11
207.2833761095332
 21
195.8303448736915
 31
0.0
  0
ARC
  5
520
330
6CB
100
AcDbEntity
  8
1
  6
Continuous
100
AcDbCircle
 10
206.4019316973118
 20
197.748767683486
 30
0.0
 40
0.8814444122214695
100
AcDbArc
 50
0.000000000000007
 51
59.27323809550324
  0
ARC
  5
521
330
6CB
100
AcDbEntity
  8
1
  6
Continuous
100
AcDbCircle
 10
206.4019316973118
 20
196.151496663394
 30
0.0
 40
0.8814444122214695
100
AcDbArc
 50
0.000000000000007
 51
59.27323809550324
  0
ARC
  5
522
330
6CB
100
AcDbEntity
  8
1
  6
Continuous
100
AcDbCircle
 10
205.2833761095331
 20
194.2696371874271
 30
0.0
 40
3.070636429892998
100
AcDbArc
 50
59.27323809549752
 51
89.99999999999788
  0
LINE
  5
523
330
6CB
100
AcDbEntity
  8
1
  6
Continuous
100
AcDbLine
 10
207.2833761095332
 20
193.8303448736967
 30
0.0
 11
207.2833761095332
 21
197.748767683486
 31
0.0
  0
ARC
  5
524
330
6CB
100
AcDbEntity
  8
1
  6
Continuous
100
AcDbCircle
 10
214.1648205218268
 20
196.151496663394
 30
0.0
 40
0.8814444122214695
100
AcDbArc
 50
120.7267619044967
 51
180.0
  0
LINE
  5
525
330
6CB
100
AcDbEntity
  8
1
  6
Continuous
100
AcDbLine
 10
213.2833761096054
 20
193.8303448736967
 30
0.0
 11
213.2833761096054
 21
197.748767683486
 31
0.0
  0
ARC
  5
526
330
6CB
100
AcDbEntity
  8
1
  6
Continuous
100
AcDbCircle
 10
214.1648205218268
 20
197.748767683486
 30
0.0
 40
0.8814444122214695
100
AcDbArc
 50
120.7267619044967
 51
180.0
  0
LINE
  5
527
330
6CB
100
AcDbEntity
  8
4
  6
CENTER
100
AcDbLine
 10
225.2833761094513
 20
205.6303448733542
 30
0.0
 11
225.2833761094513
 21
197.0303448733542
 31
0.0
  0
ARC
  5
528
330
6CB
100
AcDbEntity
  8
1
  6
Continuous
100
AcDbCircle
 10
225.2833761094511
 20
201.3303448736349
 30
0.0
 40
4.999999999881717
100
AcDbArc
 50
0.0
 51
90.0
  0
LINE
  5
529
330
6CB
100
AcDbEntity
  8
4
  6
CENTER
100
AcDbLine
 10
229.5833761094512
 20
201.3303448733541
 30
0.0
 11
220.9833761094511
 21
201.3303448733541
 31
0.0
  0
CIRCLE
  5
52A
330
6CB
100
AcDbEntity
  8
1
  6
Continuous
100
AcDbCircle
 10
225.2833761094513
 20
201.3303448733541
 30
0.0
 40
1.8
  0
LINE
  5
52B
330
6CB
100
AcDbEntity
  8
1
  6
Continuous
100
AcDbLine
 10
221.5610781142762
 20
197.7339145911101
 30
0.0
 11
228.2833761093328
 21
197.7339145911101
 31
0.0
  0
LINE
  5
52C
330
6CB
100
AcDbEntity
  8
1
  6
Continuous
100
AcDbLine
 10
221.561078114276
 20
196.1366435710159
 30
0.0
 11
228.2833761093328
 21
196.1366435710159
 31
0.0
  0
CIRCLE
  5
52D
330
6CB
100
AcDbEntity
  8
1
  6
Continuous
100
AcDbCircle
 10
225.2833761094513
 20
201.3303448733541
 30
0.0
 40
3.24999999998832
  0
ARC
  5
52E
330
6CB
100
AcDbEntity
  8
1
  6
Continuous
100
AcDbCircle
 10
219.0056741048664
 20
197.9375446374121
 30
0.0
 40
1.0
100
AcDbArc
 50
58.95983913020371
 51
90.0
  0
ARC
  5
52F
330
6CB
100
AcDbEntity
  8
1
  6
Continuous
100
AcDbCircle
 10
219.0056741048624
 20
196.3402736173202
 30
0.0
 40
1.0
100
AcDbArc
 50
58.9598391302005
 51
90.0
  0
LINE
  5
530
330
6CB
100
AcDbEntity
  8
1
  6
Continuous
100
AcDbLine
 10
215.2833761096054
 20
197.3402736173202
 30
0.0
 11
219.0056741048624
 21
197.3402736173202
 31
0.0
  0
ARC
  5
531
330
6CB
100
AcDbEntity
  8
1
  6
Continuous
100
AcDbCircle
 10
221.5610781142762
 20
198.7339145911101
 30
0.0
 40
1.0
100
AcDbArc
 50
238.9598391302032
 51
270.0000000000001
  0
ARC
  5
532
330
6CB
100
AcDbEntity
  8
1
  6
Continuous
100
AcDbCircle
 10
221.561078114276
 20
197.1366435710159
 30
0.0
 40
1.0
100
AcDbArc
 50
238.9598391302002
 51
270.0
  0
LINE
  5
533
330
6CB
100
AcDbEntity
  8
1
  6
Continuous
100
AcDbLine
 10
219.5213128755447
 20
198.7943507170902
 30
0.0
 11
221.0454393435979
 21
197.8771085114321
 31
0.0
  0
LINE
  5
534
330
6CB
100
AcDbEntity
  8
1
  6
Continuous
100
AcDbLine
 10
219.5213128755407
 20
197.1970796969983
 30
0.0
 11
221.0454393435977
 21
196.2798374913377
 31
0.0
  0
LINE
  5
535
330
6CB
100
AcDbEntity
  8
1
  6
Continuous
100
AcDbLine
 10
215.2833761096054
 20
198.9375446374121
 30
0.0
 11
219.0056741048664
 21
198.9375446374121
 31
0.0
  0
LINE
  5
536
330
6CB
100
AcDbEntity
  8
1
  6
Continuous
100
AcDbLine
 10
230.2833761093328
 20
201.3303448736349
 30
0.0
 11
230.2833761093328
 21
193.8303448736967
 31
0.0
  0
ARC
  5
537
330
6CB
100
AcDbEntity
  8
1
  6
Continuous
100
AcDbCircle
 10
228.2833761093332
 20
193.066007141123
 30
0.0
 40
3.070636429892998
100
AcDbArc
 50
59.2732380955028
 51
90.00000000000211
  0
ARC
  5
538
330
6CB
100
AcDbEntity
  8
1
  6
Continuous
100
AcDbCircle
 10
228.2833761093332
 20
194.6632781612172
 30
0.0
 40
3.070636429892998
100
AcDbArc
 50
59.2732380955028
 51
90.00000000000211
  0
ARC
  5
539
330
6CB
100
AcDbEntity
  8
1
  6
Continuous
100
AcDbCircle
 10
229.4019316971116
 20
194.9478666170898
 30
0.0
 40
0.8814444122214695
100
AcDbArc
 50
0.000000000000007
 51
59.27323809550324
  0
ARC
  5
53A
330
6CB
100
AcDbEntity
  8
1
  6
Continuous
100
AcDbCircle
 10
229.4019316971116
 20
196.5451376371841
 30
0.0
 40
0.8814444122214695
100
AcDbArc
 50
0.000000000000007
 51
59.27323809550324
  0
LINE
  5
53B
330
6CB
100
AcDbEntity
  8
1
  6
Continuous
100
AcDbLine
 10
230.2833761093328
 20
267.0686844872454
 30
0.0
 11
190.2833761098058
 21
267.0686844872454
 31
0.0
  0
LINE
  5
53C
330
6CB
100
AcDbEntity
  8
1
  6
Continuous
100
AcDbLine
 10
190.2833761098058
 20
269.0686844872256
 30
0.0
 11
230.2833761093328
 21
269.0686844872256
 31
0.0
  0
LINE
  5
53D
330
6CB
100
AcDbEntity
  8
1
  6
Continuous
100
AcDbLine
 10
198.9330624841518
 20
256.6659555073359
 30
0.0
 11
192.2833761098058
 21
256.6659555073359
 31
0.0
  0
LINE
  5
53E
330
6CB
100
AcDbEntity
  8
1
  6
Continuous
100
AcDbLine
 10
198.9330624841518
 20
257.8695855536401
 30
0.0
 11
192.2833761098058
 21
257.8695855536401
 31
0.0
  0
ARC
  5
53F
330
6CB
100
AcDbEntity
  8
1
  6
Continuous
100
AcDbCircle
 10
192.2833761098058
 20
259.8695855536401
 30
0.0
 40
2.0
100
AcDbArc
 50
180.0
 51
270.0000000000001
  0
LINE
  5
540
330
6CB
100
AcDbEntity
  8
1
  6
Continuous
100
AcDbLine
 10
190.2833761098058
 20
258.6659555073359
 30
0.0
 11
190.2833761098058
 21
269.0686844872433
 31
0.0
  0
ARC
  5
541
330
6CB
100
AcDbEntity
  8
1
  6
Continuous
100
AcDbCircle
 10
192.2833761098058
 20
258.6659555073359
 30
0.0
 40
2.0
100
AcDbArc
 50
180.0
 51
269.9999999999997
  0
ARC
  5
542
330
6CB
100
AcDbEntity
  8
1
  6
Continuous
100
AcDbCircle
 10
215.2833761096055
 20
257.0686844872415
 30
0.0
 40
2.0
100
AcDbArc
 50
180.0000000000009
 51
270.0
  0
ARC
  5
543
330
6CB
100
AcDbEntity
  8
1
  6
Continuous
100
AcDbCircle
 10
215.2833761096055
 20
258.2723145335532
 30
0.0
 40
2.0
100
AcDbArc
 50
180.0000000000011
 51
269.9999999999994
  0
LINE
  5
544
330
6CB
100
AcDbEntity
  8
1
  6
Continuous
100
AcDbLine
 10
213.2833761096055
 20
257.0686844872415
 30
0.0
 11
213.2833761096054
 21
263.5686844874554
 31
0.0
  0
LINE
  5
545
330
6CB
100
AcDbEntity
  8
1
  6
Continuous
100
AcDbLine
 10
207.2833761095332
 20
263.5686844874554
 30
0.0
 11
207.2833761095331
 21
257.0686844872415
 31
0.0
  0
LINE
  5
546
330
6CB
100
AcDbEntity
  8
1
  6
Continuous
100
AcDbLine
 10
201.6336897349869
 20
255.0686844872414
 30
0.0
 11
205.2833761095331
 21
255.0686844872414
 31
0.0
  0
LINE
  5
547
330
6CB
100
AcDbEntity
  8
1
  6
Continuous
100
AcDbLine
 10
201.6336897349773
 20
256.2723145335532
 30
0.0
 11
205.2833761095332
 21
256.2723145335533
 31
0.0
  0
LINE
  5
548
330
6CB
100
AcDbEntity
  8
1
  6
Continuous
100
AcDbLine
 10
201.0096450240245
 20
255.2872958523614
 30
0.0
 11
199.5571071951143
 21
256.447344142216
 31
0.0
  0
LINE
  5
549
330
6CB
100
AcDbEntity
  8
1
  6
Continuous
100
AcDbLine
 10
201.0096450240148
 20
256.4909258986732
 30
0.0
 11
199.5571071951144
 21
257.65097418852
 31
0.0
  0
ARC
  5
54A
330
6CB
100
AcDbEntity
  8
1
  6
Continuous
100
AcDbCircle
 10
198.9330624841518
 20
255.6659555073359
 30
0.0
 40
1.0
100
AcDbArc
 50
51.38789392196486
 51
90.0
  0
ARC
  5
54B
330
6CB
100
AcDbEntity
  8
1
  6
Continuous
100
AcDbCircle
 10
198.9330624841518
 20
256.86958555364
 30
0.0
 40
1.0
100
AcDbArc
 50
51.38789392196175
 51
90.00000000000026
  0
ARC
  5
54C
330
6CB
100
AcDbEntity
  8
1
  6
Continuous
100
AcDbCircle
 10
201.6336897349869
 20
256.0686844872413
 30
0.0
 40
1.0
100
AcDbArc
 50
231.3878939219661
 51
270.0
  0
ARC
  5
54D
330
6CB
100
AcDbEntity
  8
1
  6
Continuous
100
AcDbCircle
 10
201.6336897349773
 20
257.2723145335532
 30
0.0
 40
1.0
100
AcDbArc
 50
231.3878939219609
 51
270.0
  0
ARC
  5
54E
330
6CB
100
AcDbEntity
  8
1
  6
Continuous
100
AcDbCircle
 10
205.2833761095331
 20
257.0686844872415
 30
0.0
 40
2.0
100
AcDbArc
 50
269.9999999999994
 51
359.9999999999989
  0
ARC
  5
54F
330
6CB
100
AcDbEntity
  8
1
  6
Continuous
100
AcDbCircle
 10
205.2833761095332
 20
258.2723145335533
 30
0.0
 40
2.0
100
AcDbArc
 50
270.0000000000009
 51
359.9999999999988
  0
LINE
  5
550
330
6CB
100
AcDbEntity
  8
4
  6
CENTER
100
AcDbLine
 10
195.283376109775
 20
271.3614752624927
 30
0.0
 11
195.283376109775
 21
264.7614752624927
 31
0.0
  0
LINE
  5
551
330
6CB
100
AcDbEntity
  8
1
  6
Continuous
100
AcDbLine
 10
212.2833761096054
 20
264.5686844874554
 30
0.0
 11
208.2833761095332
 21
264.5686844874554
 31
0.0
  0
ARC
  5
552
330
6CB
100
AcDbEntity
  8
1
  6
Continuous
100
AcDbCircle
 10
208.2833761095332
 20
263.5686844874554
 30
0.0
 40
1.0
100
AcDbArc
 50
90.0
 51
180.0
  0
ARC
  5
553
330
6CB
100
AcDbEntity
  8
1
  6
Continuous
100
AcDbCircle
 10
212.2833761096054
 20
263.5686844874554
 30
0.0
 40
1.0
100
AcDbArc
 50
0.0000000000008142
 51
90.0
  0
ARC
  5
554
330
6CB
100
AcDbEntity
  8
1
  6
Continuous
100
AcDbCircle
 10
228.2833761093328
 20
259.8695855536401
 30
0.0
 40
2.0
100
AcDbArc
 50
269.9999999999992
 51
0.0
  0
LINE
  5
555
330
6CB
100
AcDbEntity
  8
1
  6
Continuous
100
AcDbLine
 10
230.2833761093328
 20
269.0686844872433
 30
0.0
 11
230.2833761093328
 21
258.665955507336
 31
0.0
  0
LINE
  5
556
330
6CB
100
AcDbEntity
  8
1
  6
Continuous
100
AcDbLine
 10
221.6336897349869
 20
256.665955507336
 30
0.0
 11
228.2833761093328
 21
256.665955507336
 31
0.0
  0
LINE
  5
557
330
6CB
100
AcDbEntity
  8
1
  6
Continuous
100
AcDbLine
 10
221.6336897349871
 20
257.8695855536401
 30
0.0
 11
228.2833761093328
 21
257.8695855536401
 31
0.0
  0
ARC
  5
558
330
6CB
100
AcDbEntity
  8
1
  6
Continuous
100
AcDbCircle
 10
218.9330624841517
 20
256.0686844872413
 30
0.0
 40
1.0
100
AcDbArc
 50
270.0
 51
308.6121060780348
  0
ARC
  5
559
330
6CB
100
AcDbEntity
  8
1
  6
Continuous
100
AcDbCircle
 10
218.9330624841613
 20
257.2723145335532
 30
0.0
 40
1.0
100
AcDbArc
 50
270.0
 51
308.612106078036
  0
LINE
  5
55A
330
6CB
100
AcDbEntity
  8
1
  6
Continuous
100
AcDbLine
 10
215.2833761096055
 20
255.0686844872414
 30
0.0
 11
218.9330624841517
 21
255.0686844872414
 31
0.0
  0
LINE
  5
55B
330
6CB
100
AcDbEntity
  8
1
  6
Continuous
100
AcDbLine
 10
215.2833761096055
 20
256.2723145335532
 30
0.0
 11
218.9330624841613
 21
256.2723145335532
 31
0.0
  0
ARC
  5
55C
330
6CB
100
AcDbEntity
  8
1
  6
Continuous
100
AcDbCircle
 10
221.6336897349869
 20
255.665955507336
 30
0.0
 40
1.0
100
AcDbArc
 50
90.0
 51
128.6121060780354
  0
ARC
  5
55D
330
6CB
100
AcDbEntity
  8
1
  6
Continuous
100
AcDbCircle
 10
221.6336897349871
 20
256.86958555364
 30
0.0
 40
1.0
100
AcDbArc
 50
89.99999999999973
 51
128.6121060780355
  0
LINE
  5
55E
330
6CB
100
AcDbEntity
  8
1
  6
Continuous
100
AcDbLine
 10
219.5571071951141
 20
255.2872958523614
 30
0.0
 11
221.0096450240245
 21
256.447344142216
 31
0.0
  0
LINE
  5
55F
330
6CB
100
AcDbEntity
  8
1
  6
Continuous
100
AcDbLine
 10
219.5571071951239
 20
256.4909258986732
 30
0.0
 11
221.0096450240245
 21
257.6509741885201
 31
0.0
  0
ARC
  5
560
330
6CB
100
AcDbEntity
  8
1
  6
Continuous
100
AcDbCircle
 10
228.2833761093328
 20
258.665955507336
 30
0.0
 40
2.0
100
AcDbArc
 50
269.9999999999997
 51
0.0
  0
LINE
  5
561
330
6CB
100
AcDbEntity
  8
4
  6
CENTER
100
AcDbLine
 10
225.2833761094513
 20
271.3614752624924
 30
0.0
 11
225.2833761094513
 21
264.7614752624924
 31
0.0
  0
LINE
  5
562
330
6CB
100
AcDbEntity
  8
1
  6
Continuous
100
AcDbLine
 10
382.4845192686574
 20
157.3303448723736
 30
0.0
 11
382.4845192686451
 21
172.8303448724715
 31
0.0
  0
LINE
  5
563
330
6CB
100
AcDbEntity
  8
4
  6
CENTER
100
AcDbLine
 10
370.5845192685816
 20
95.94740049236172
 30
0.0
 11
370.5845192685818
 21
210.830344872182
 31
0.0
  0
LINE
  5
564
330
6CB
100
AcDbEntity
  8
1
  6
Continuous
100
AcDbLine
 10
279.696613556842
 20
158.8303448723736
 30
0.0
 11
279.696613556842
 21
181.8303448724371
 31
0.0
  0
LINE
  5
565
330
6CB
100
AcDbEntity
  8
1
  6
Continuous
100
AcDbLine
 10
264.6966135568427
 20
128.8303448725434
 30
0.0
 11
264.6966135568427
 21
181.8303448724371
 31
0.0
  0
LINE
  5
566
330
6CB
100
AcDbEntity
  8
1
  6
Continuous
100
AcDbLine
 10
358.6845192686451
 20
172.8303448724743
 30
0.0
 11
358.6845192686576
 21
157.3303448723736
 31
0.0
  0
LINE
  5
567
330
6CB
100
AcDbEntity
  8
1
  6
Continuous
100
AcDbLine
 10
356.6845192686575
 20
157.3303448723736
 30
0.0
 11
356.6845192686451
 21
172.8303448724302
 31
0.0
  0
LINE
  5
568
330
6CB
100
AcDbEntity
  8
1
  6
Continuous
100
AcDbLine
 10
384.4845192686456
 20
172.8303448724559
 30
0.0
 11
384.4845192686577
 21
157.3303448723736
 31
0.0
  0
LINE
  5
569
330
6CB
100
AcDbEntity
  8
4
  6
CENTER
100
AcDbLine
 10
351.9845192686752
 20
127.8303448760829
 30
0.0
 11
388.4845192686762
 21
127.8303448760829
 31
0.0
  0
LINE
  5
56A
330
6CB
100
AcDbEntity
  8
4
  6
CENTER
100
AcDbLine
 10
351.9845192687112
 20
135.8303448760827
 30
0.0
 11
388.4845192687123
 21
135.8303448760827
 31
0.0
  0
LINE
  5
56B
330
6CB
100
AcDbEntity
  8
4
  6
CENTER
100
AcDbLine
 10
352.6845192687539
 20
159.3303448761008
 30
0.0
 11
388.784519268754
 21
159.3303448761008
 31
0.0
  0
ARC
  5
56C
330
6CB
100
AcDbEntity
  8
1
  6
Continuous
100
AcDbCircle
 10
272.696613556887
 20
117.3303448723131
 30
0.0
 40
5.0
100
AcDbArc
 50
270.0
 51
0.0
  0
LINE
  5
56D
330
6CB
100
AcDbEntity
  8
1
  6
Continuous
100
AcDbLine
 10
265.1966135569114
 20
112.3303448723546
 30
0.0
 11
265.1966135569114
 21
101.3303448723524
 31
0.0
  0
ARC
  5
56E
330
6CB
100
AcDbEntity
  8
1
  6
Continuous
100
AcDbCircle
 10
270.696613556887
 20
117.3303448723131
 30
0.0
 40
5.0
100
AcDbArc
 50
180.0
 51
270.0
  0
LINE
  5
56F
330
6CB
100
AcDbEntity
  8
1
  6
Continuous
100
AcDbLine
 10
263.6966135569113
 20
101.3303448723524
 30
0.0
 11
263.6966135569114
 21
161.3303448723728
 31
0.0
  0
LINE
  5
570
330
6CB
100
AcDbEntity
  8
1
  6
Continuous
100
AcDbLine
 10
265.1966135569114
 20
101.3303448723524
 30
0.0
 11
263.6966135569114
 21
101.3303448723524
 31
0.0
  0
LINE
  5
571
330
6CB
100
AcDbEntity
  8
4
  6
CENTER
100
AcDbLine
 10
277.1966135568221
 20
159.330344872369
 30
0.0
 11
268.1966135568221
 21
159.330344872369
 31
0.0
  0
LINE
  5
572
330
6CB
100
AcDbEntity
  8
4
  6
CENTER
100
AcDbLine
 10
278.096613556822
 20
151.6303448723691
 30
0.0
 11
270.0966135568221
 21
151.6303448723691
 31
0.0
  0
LINE
  5
573
330
6CB
100
AcDbEntity
  8
4
  6
CENTER
100
AcDbLine
 10
276.6966135569157
 20
135.8303448723522
 30
0.0
 11
268.6966135569157
 21
135.8303448723522
 31
0.0
  0
LINE
  5
574
330
6CB
100
AcDbEntity
  8
4
  6
CENTER
100
AcDbLine
 10
276.6966135569157
 20
127.8303448723524
 30
0.0
 11
268.6966135569157
 21
127.8303448723524
 31
0.0
  0
LINE
  5
575
330
6CB
100
AcDbEntity
  8
4
  6
CENTER
100
AcDbLine
 10
276.2966135569124
 20
118.8303448722004
 30
0.0
 11
267.0966135569124
 21
118.8303448722004
 31
0.0
  0
CIRCLE
  5
576
330
6CB
100
AcDbEntity
  8
1
  6
Continuous
100
AcDbCircle
 10
272.6966135569157
 20
159.3303448723524
 30
0.0
 40
2.49999999999945
  0
ARC
  5
577
330
6CB
100
AcDbEntity
  8
1
  6
Continuous
100
AcDbCircle
 10
272.6966135568708
 20
160.2303448723636
 30
0.0
 40
3.1
100
AcDbArc
 50
0.0
 51
180.0
  0
ARC
  5
578
330
6CB
100
AcDbEntity
  8
1
  6
Continuous
100
AcDbCircle
 10
272.6966135569157
 20
159.3303448723524
 30
0.0
 40
5.0
100
AcDbArc
 50
231.6838655256781
 51
270.0
  0
CIRCLE
  5
579
330
6CB
100
AcDbEntity
  8
1
  6
Continuous
100
AcDbCircle
 10
274.0966135569157
 20
151.6303448723524
 30
0.0
 40
2.049999999999998
  0
CIRCLE
  5
57A
330
6CB
100
AcDbEntity
  8
1
  6
Continuous
100
AcDbCircle
 10
274.0966135569157
 20
151.6303448723524
 30
0.0
 40
2.0
  0
LINE
  5
57B
330
6CB
100
AcDbEntity
  8
1
  6
Continuous
100
AcDbLine
 10
270.4858731680906
 20
150.9498898117643
 30
0.0
 11
278.8073539456223
 21
142.7107999330821
 31
0.0
  0
CIRCLE
  5
57C
330
6CB
100
AcDbEntity
  8
1
  6
Continuous
100
AcDbCircle
 10
272.6966135569157
 20
135.8303448723524
 30
0.0
 40
2.499999999999915
  0
CIRCLE
  5
57D
330
6CB
100
AcDbEntity
  8
1
  6
Continuous
100
AcDbCircle
 10
272.6966135569157
 20
127.8303448723524
 30
0.0
 40
2.499999999999915
  0
LINE
  5
57E
330
6CB
100
AcDbEntity
  8
1
  6
Continuous
100
AcDbLine
 10
275.6966135568419
 20
122.8303448725434
 30
0.0
 11
270.6966135568426
 21
122.8303448725434
 31
0.0
  0
CIRCLE
  5
57F
330
6CB
100
AcDbEntity
  8
1
  6
Continuous
100
AcDbCircle
 10
271.6966135569122
 20
118.8303448722004
 30
0.0
 40
3.75
  0
LINE
  5
580
330
6CB
100
AcDbEntity
  8
1
  6
Continuous
100
AcDbLine
 10
272.696613556887
 20
112.3303448723546
 30
0.0
 11
263.6966135569114
 21
112.3303448723546
 31
0.0
  0
CIRCLE
  5
581
330
6CB
100
AcDbEntity
  8
1
  6
Continuous
100
AcDbCircle
 10
272.6966135569157
 20
159.3303448723524
 30
0.0
 40
3.0
  0
ARC
  5
582
330
6CB
100
AcDbEntity
  8
1
  6
Continuous
100
AcDbCircle
 10
270.6966135568426
 20
128.8303448725434
 30
0.0
 40
6.0
100
AcDbArc
 50
180.0
 51
270.0
  0
LINE
  5
583
330
6CB
100
AcDbEntity
  8
4
  6
CENTER
100
AcDbLine
 10
271.6966135569122
 20
123.4303448722004
 30
0.0
 11
271.6966135569122
 21
114.2303448722004
 31
0.0
  0
LINE
  5
584
330
6CB
100
AcDbEntity
  8
1
  6
Continuous
100
AcDbLine
 10
265.696613556887
 20
125.5137200821211
 30
0.0
 11
265.696613556887
 21
117.3303448723131
 31
0.0
  0
ARC
  5
585
330
6CB
100
AcDbEntity
  8
1
  6
Continuous
100
AcDbCircle
 10
272.5966135568709
 20
153.0817376044484
 30
0.0
 40
3.0
100
AcDbArc
 50
180.0
 51
225.2850512777997
  0
LINE
  5
586
330
6CB
100
AcDbEntity
  8
1
  6
Continuous
100
AcDbLine
 10
269.5966135568709
 20
160.2303448723636
 30
0.0
 11
269.5966135568708
 21
153.0817376044484
 31
0.0
  0
LINE
  5
587
330
6CB
100
AcDbEntity
  8
1
  6
Continuous
100
AcDbLine
 10
263.6966135569114
 20
161.3303448723728
 30
0.0
 11
264.6966135568427
 21
161.3303448723728
 31
0.0
  0
LINE
  5
588
330
6CB
100
AcDbEntity
  8
4
  6
CENTER
100
AcDbLine
 10
272.6966135569157
 20
123.8303448723524
 30
0.0
 11
272.6966135569157
 21
139.8303448723522
 31
0.0
  0
LINE
  5
589
330
6CB
100
AcDbEntity
  8
1
  6
Continuous
100
AcDbLine
 10
279.696613556842
 20
126.8303448725434
 30
0.0
 11
279.696613556842
 21
140.5789521403981
 31
0.0
  0
LINE
  5
58A
330
6CB
100
AcDbEntity
  8
1
  6
Continuous
100
AcDbLine
 10
281.6966135569158
 20
164.3303448723355
 30
0.0
 11
281.6966135569158
 21
123.3303448723649
 31
0.0
  0
ARC
  5
58B
330
6CB
100
AcDbEntity
  8
1
  6
Continuous
100
AcDbCircle
 10
275.6966135568419
 20
126.8303448725434
 30
0.0
 40
4.0
100
AcDbArc
 50
270.0
 51
0.0
  0
LINE
  5
58C
330
6CB
100
AcDbEntity
  8
1
  6
Continuous
100
AcDbLine
 10
277.6966135568871
 20
117.3303448723131
 30
0.0
 11
277.6966135568871
 21
122.3303448723649
 31
0.0
  0
LINE
  5
58D
330
6CB
100
AcDbEntity
  8
1
  6
Continuous
100
AcDbLine
 10
281.5966135569056
 20
123.0303448723655
 30
0.0
 11
280.1966135569059
 21
123.0303448723655
 31
0.0
  0
LINE
  5
58E
330
6CB
100
AcDbEntity
  8
1
  6
Continuous
100
AcDbLine
 10
281.5966135569059
 20
123.3303448723655
 30
0.0
 11
281.5966135569059
 21
123.0303448723656
 31
0.0
  0
ARC
  5
58F
330
6CB
100
AcDbEntity
  8
1
  6
Continuous
100
AcDbCircle
 10
278.696613556887
 20
122.3303448723649
 30
0.0
 40
1.0
100
AcDbArc
 50
89.99999999999838
 51
180.0
  0
LINE
  5
590
330
6CB
100
AcDbEntity
  8
1
  6
Continuous
100
AcDbLine
 10
278.696613556887
 20
123.3303448723649
 30
0.0
 11
281.6966135569156
 21
123.3303448723649
 31
0.0
  0
ARC
  5
591
330
6CB
100
AcDbEntity
  8
1
  6
Continuous
100
AcDbCircle
 10
280.1966135569059
 20
123.3303448723655
 30
0.0
 40
0.3
100
AcDbArc
 50
180.0
 51
270.0
  0
LINE
  5
592
330
6CB
100
AcDbEntity
  8
4
  6
CENTER
100
AcDbLine
 10
284.6966135568298
 20
129.3303448734205
 30
0.0
 11
277.19661355683
 21
129.3303448734298
 31
0.0
  0
LINE
  5
593
330
6CB
100
AcDbEntity
  8
4
  6
CENTER
100
AcDbLine
 10
274.0966135568219
 20
155.6303448723691
 30
0.0
 11
274.0966135568219
 21
147.630344872369
 31
0.0
  0
LINE
  5
594
330
6CB
100
AcDbEntity
  8
1
  6
Continuous
100
AcDbLine
 10
276.696613556887
 20
152.3303448723533
 30
0.0
 11
276.696613556887
 21
150.7303448723524
 31
0.0
  0
LINE
  5
595
330
6CB
100
AcDbEntity
  8
4
  6
CENTER
100
AcDbLine
 10
284.6966135568298
 20
151.3303448733542
 30
0.0
 11
277.1966135568299
 21
151.330344873347
 31
0.0
  0
ARC
  5
596
330
6CB
100
AcDbEntity
  8
1
  6
Continuous
100
AcDbCircle
 10
276.696613556842
 20
140.5789521403981
 30
0.0
 40
3.0
100
AcDbArc
 50
0.0
 51
45.28505127779953
  0
LINE
  5
597
330
6CB
100
AcDbEntity
  8
1
  6
Continuous
100
AcDbLine
 10
274.696613556887
 20
148.7303448723524
 30
0.0
 11
272.7276135569133
 21
148.7303448723524
 31
0.0
  0
ARC
  5
598
330
6CB
100
AcDbEntity
  8
1
  6
Continuous
100
AcDbCircle
 10
274.696613556887
 20
150.7303448723524
 30
0.0
 40
2.0
100
AcDbArc
 50
270.0
 51
0.0
  0
LINE
  5
599
330
6CB
100
AcDbEntity
  8
4
  6
CENTER
100
AcDbLine
 10
272.6966135568221
 20
163.830344872369
 30
0.0
 11
272.6966135568221
 21
154.8303448723691
 31
0.0
  0
LINE
  5
59A
330
6CB
100
AcDbEntity
  8
1
  6
Continuous
100
AcDbLine
 10
275.7966135568711
 20
158.8303448723757
 30
0.0
 11
275.7966135568708
 21
160.2303448723636
 31
0.0
  0
ARC
  5
59B
330
6CB
100
AcDbEntity
  8
1
  6
Continuous
100
AcDbCircle
 10
277.296613556871
 20
158.8303448723757
 30
0.0
 40
1.5
100
AcDbArc
 50
180.0
 51
269.9999999998631
  0
LINE
  5
59C
330
6CB
100
AcDbEntity
  8
1
  6
Continuous
100
AcDbLine
 10
272.6966135569157
 20
154.3303448723524
 30
0.0
 11
274.696613556887
 21
154.3303448723533
 31
0.0
  0
ARC
  5
59D
330
6CB
100
AcDbEntity
  8
1
  6
Continuous
100
AcDbCircle
 10
274.696613556887
 20
152.3303448723533
 30
0.0
 40
2.0
100
AcDbArc
 50
0.0
 51
90.0
  0
LINE
  5
59E
330
6CB
100
AcDbEntity
  8
1
  6
Continuous
100
AcDbLine
 10
278.1966135568386
 20
157.3303448723736
 30
0.0
 11
277.2966135568672
 21
157.3303448723757
 31
0.0
  0
ARC
  5
59F
330
6CB
100
AcDbEntity
  8
1
  6
Continuous
100
AcDbCircle
 10
278.1966135568419
 20
158.8303448723736
 30
0.0
 40
1.5
100
AcDbArc
 50
269.9999999998664
 51
0.0
  0
LINE
  5
5A0
330
6CB
100
AcDbEntity
  8
1
  6
Continuous
100
AcDbLine
 10
279.6966135569157
 20
164.3303448723432
 30
0.0
 11
281.6966135569158
 21
164.3303448723432
 31
0.0
  0
ARC
  5
5A1
330
6CB
100
AcDbEntity
  8
1
  6
Continuous
100
AcDbCircle
 10
377.5845192687385
 20
111.3303448723582
 30
0.0
 40
1.0
100
AcDbArc
 50
90.00000000003094
 51
180.0
  0
ARC
  5
5A2
330
6CB
100
AcDbEntity
  8
1
  6
Continuous
100
AcDbCircle
 10
363.5845192687329
 20
111.3303448723506
 30
0.0
 40
1.0
100
AcDbArc
 50
0.0000000001029991
 51
90.00000000003252
  0
LINE
  5
5A3
330
6CB
100
AcDbEntity
  8
1
  6
Continuous
100
AcDbLine
 10
373.5845192687404
 20
101.3303448723559
 30
0.0
 11
367.5845192687456
 21
101.3303448723524
 31
0.0
  0
LINE
  5
5A4
330
6CB
100
AcDbEntity
  8
1
  6
Continuous
100
AcDbLine
 10
364.584519268744
 20
104.330344872348
 30
0.0
 11
364.5845192687329
 21
111.3303448723524
 31
0.0
  0
ARC
  5
5A5
330
6CB
100
AcDbEntity
  8
1
  6
Continuous
100
AcDbCircle
 10
367.584519268744
 20
104.3303448723524
 30
0.0
 40
3.0
100
AcDbArc
 50
180.0000000000838
 51
270.0000000000309
  0
LINE
  5
5A6
330
6CB
100
AcDbEntity
  8
1
  6
Continuous
100
AcDbLine
 10
376.5845192687385
 20
111.3303448723582
 30
0.0
 11
376.5845192687385
 21
104.3303448723559
 31
0.0
  0
ARC
  5
5A7
330
6CB
100
AcDbEntity
  8
1
  6
Continuous
100
AcDbCircle
 10
373.5845192687385
 20
104.3303448723559
 30
0.0
 40
3.0
100
AcDbArc
 50
270.0000000000309
 51
0.0
  0
LINE
  5
5A8
330
6CB
100
AcDbEntity
  8
1
  6
Continuous
100
AcDbLine
 10
384.484519268658
 20
156.3303448723524
 30
0.0
 11
384.4845192686848
 21
122.8303448725129
 31
0.0
  0
LINE
  5
5A9
330
6CB
100
AcDbEntity
  8
1
  6
Continuous
100
AcDbLine
 10
382.4845192686844
 20
122.8303448725151
 30
0.0
 11
382.4845192686581
 21
156.3303448723524
 31
0.0
  0
LINE
  5
5AA
330
6CB
100
AcDbEntity
  8
1
  6
Continuous
100
AcDbLine
 10
382.2845192686697
 20
164.3303448723524
 30
0.0
 11
382.2845192686699
 21
112.3303448723131
 31
0.0
  0
LINE
  5
5AB
330
6CB
100
AcDbEntity
  8
1
  6
Continuous
100
AcDbLine
 10
358.6845192686845
 20
122.830344872542
 30
0.0
 11
358.6845192686582
 21
156.3303448723524
 31
0.0
  0
LINE
  5
5AC
330
6CB
100
AcDbEntity
  8
1
  6
Continuous
100
AcDbLine
 10
356.6845192686582
 20
156.3303448723524
 30
0.0
 11
356.6845192686845
 21
122.8303448725434
 31
0.0
  0
LINE
  5
5AD
330
6CB
100
AcDbEntity
  8
1
  6
Continuous
100
AcDbLine
 10
358.8845192686694
 20
112.3303448723131
 30
0.0
 11
358.8845192685884
 21
164.3303448723339
 31
0.0
  0
LINE
  5
5AE
330
6CB
100
AcDbEntity
  8
4
  6
CENTER
100
AcDbLine
 10
385.2845192686063
 20
118.8303448721719
 30
0.0
 11
355.8845192686022
 21
118.8303448721719
 31
0.0
  0
LINE
  5
5AF
330
6CB
100
AcDbEntity
  8
4
  6
CENTER
100
AcDbLine
 10
374.1845192686704
 20
129.3303448723313
 30
0.0
 11
366.9845192686703
 21
129.3303448723313
 31
0.0
  0
ARC
  5
5B0
330
6CB
100
AcDbEntity
  8
1
  6
Continuous
100
AcDbCircle
 10
370.5845192686551
 20
129.3303448723576
 30
0.0
 40
2.1
100
AcDbArc
 50
90.0
 51
270.0
  0
LINE
  5
5B1
330
6CB
100
AcDbEntity
  8
1
  6
Continuous
100
AcDbLine
 10
382.2845192686697
 20
123.3303448723649
 30
0.0
 11
358.8845192686524
 21
123.3303448723649
 31
0.0
  0
LINE
  5
5B2
330
6CB
100
AcDbEntity
  8
1
  6
Continuous
100
AcDbLine
 10
376.584519268662
 20
123.0303448723656
 30
0.0
 11
364.5845192686618
 21
123.0303448723656
 31
0.0
  0
ARC
  5
5B3
330
6CB
100
AcDbEntity
  8
1
  6
Continuous
100
AcDbCircle
 10
359.3095192686845
 20
127.8303448723524
 30
0.0
 40
3.624999999999788
100
AcDbArc
 50
136.3971810272954
 51
223.6028189727044
  0
LINE
  5
5B4
330
6CB
100
AcDbEntity
  8
1
  6
Continuous
100
AcDbLine
 10
360.3845192686403
 20
112.3303448723131
 30
0.0
 11
358.8845192686406
 21
112.3303448723131
 31
0.0
  0
LINE
  5
5B5
330
6CB
100
AcDbEntity
  8
1
  6
Continuous
100
AcDbLine
 10
358.6845192686845
 20
122.830344872542
 30
0.0
 11
356.6845192686845
 21
122.8303448725434
 31
0.0
  0
ARC
  5
5B6
330
6CB
100
AcDbEntity
  8
1
  6
Continuous
100
AcDbCircle
 10
325.1720295597208
 20
118.8303448727788
 30
0.0
 40
35.76373249710389
100
AcDbArc
 50
353.9998446085033
 51
6.000155389628663
  0
LINE
  5
5B7
330
6CB
100
AcDbEntity
  8
1
  6
Continuous
100
AcDbLine
 10
362.5795783055447
 20
120.8014358908548
 30
0.0
 11
362.5795783055447
 21
117.3303448723498
 31
0.0
  0
LINE
  5
5B8
330
6CB
100
AcDbEntity
  8
1
  6
Continuous
100
AcDbLine
 10
361.0832840278707
 20
120.8014358908545
 30
0.0
 11
361.0832840278707
 21
117.3303448723491
 31
0.0
  0
LINE
  5
5B9
330
6CB
100
AcDbEntity
  8
1
  6
Continuous
100
AcDbLine
 10
360.3845192686403
 20
123.3303448723649
 30
0.0
 11
360.3845192686403
 21
112.3303448723131
 31
0.0
  0
LINE
  5
5BA
330
6CB
100
AcDbEntity
  8
1
  6
Continuous
100
AcDbLine
 10
360.5845192688093
 20
123.3303448723649
 30
0.0
 11
360.5845192686451
 21
112.3303448723007
 31
0.0
  0
LINE
  5
5BB
330
6CB
100
AcDbEntity
  8
1
  6
Continuous
100
AcDbLine
 10
360.7398344495504
 20
115.0919204108876
 30
0.0
 11
360.5845192686862
 21
115.0886874852911
 31
0.0
  0
ARC
  5
5BC
330
6CB
100
AcDbEntity
  8
1
  6
Continuous
100
AcDbCircle
 10
361.1030721651964
 20
115.195395767573
 30
0.0
 40
0.5294183260773356
100
AcDbArc
 50
191.6280574913005
 51
208.1485575447043
  0
ARC
  5
5BD
330
6CB
100
AcDbEntity
  8
1
  6
Continuous
100
AcDbCircle
 10
360.215353289631
 20
115.1976296296373
 30
0.0
 40
0.5350279675296436
100
AcDbArc
 50
331.9044000848959
 51
348.6046959861002
  0
ARC
  5
5BE
330
6CB
100
AcDbEntity
  8
1
  6
Continuous
100
AcDbCircle
 10
360.6617960543078
 20
114.9592954513654
 30
0.0
 40
0.0289505795100414
100
AcDbArc
 50
208.1485575446897
 51
331.9044000849089
  0
ARC
  5
5BF
330
6CB
100
AcDbEntity
  8
1
  6
Continuous
100
AcDbCircle
 10
336.6639766316466
 20
116.5334288459214
 30
0.0
 40
24.43230748137523
100
AcDbArc
 50
350.0941454368088
 51
1.869165449595318
  0
ARC
  5
5C0
330
6CB
100
AcDbEntity
  8
1
  6
Continuous
100
AcDbCircle
 10
338.1602709093206
 20
116.5334288459208
 30
0.0
 40
24.43230748137523
100
AcDbArc
 50
350.0941454368088
 51
1.869165449595318
  0
LINE
  5
5C1
330
6CB
100
AcDbEntity
  8
1
  6
Continuous
100
AcDbLine
 10
363.5845192687323
 20
112.3303448723506
 30
0.0
 11
360.5845192686451
 21
112.3303448723007
 31
0.0
  0
ARC
  5
5C2
330
6CB
100
AcDbEntity
  8
1
  6
Continuous
100
AcDbCircle
 10
360.6617960542389
 20
122.7013942929962
 30
0.0
 40
0.0289505795100414
100
AcDbArc
 50
28.09559991509098
 51
151.8514424553103
  0
ARC
  5
5C3
330
6CB
100
AcDbEntity
  8
1
  6
Continuous
100
AcDbCircle
 10
360.2153532895621
 20
122.4630601147243
 30
0.0
 40
0.5350279675296436
100
AcDbArc
 50
11.39530401389986
 51
28.09559991510397
  0
ARC
  5
5C4
330
6CB
100
AcDbEntity
  8
1
  6
Continuous
100
AcDbCircle
 10
361.1030721651272
 20
122.4652939767887
 30
0.0
 40
0.5294183260773356
100
AcDbArc
 50
151.8514424552956
 51
168.3719425086994
  0
LINE
  5
5C5
330
6CB
100
AcDbEntity
  8
1
  6
Continuous
100
AcDbLine
 10
360.7398344494813
 20
122.5687693334741
 30
0.0
 11
360.5845192686171
 21
122.5720022590705
 31
0.0
  0
ARC
  5
5C6
330
6CB
100
AcDbEntity
  8
1
  6
Continuous
100
AcDbCircle
 10
338.1602709093206
 20
121.5983519172838
 30
0.0
 40
24.43230748137523
100
AcDbArc
 50
358.1308345504046
 51
4.065076142722977
  0
ARC
  5
5C7
330
6CB
100
AcDbEntity
  8
1
  6
Continuous
100
AcDbCircle
 10
336.6639766316466
 20
121.5983519172832
 30
0.0
 40
24.43230748137523
100
AcDbArc
 50
358.1308345504046
 51
4.06507614272444
  0
LINE
  5
5C8
330
6CB
100
AcDbEntity
  8
1
  6
Continuous
100
AcDbLine
 10
364.5845192686618
 20
123.0303448723655
 30
0.0
 11
364.5845192686618
 21
123.3303448723655
 31
0.0
  0
LINE
  5
5C9
330
6CB
100
AcDbEntity
  8
1
  6
Continuous
100
AcDbLine
 10
358.8845192686423
 20
129.8303448723523
 30
0.0
 11
358.684519268679
 21
129.8303448723523
 31
0.0
  0
LINE
  5
5CA
330
6CB
100
AcDbEntity
  8
1
  6
Continuous
100
AcDbLine
 10
358.6845192686821
 20
125.8303448723524
 30
0.0
 11
358.8845192686485
 21
125.8303448723524
 31
0.0
  0
LINE
  5
5CB
330
6CB
100
AcDbEntity
  8
1
  6
Continuous
100
AcDbLine
 10
358.8845192686298
 20
137.8303448723524
 30
0.0
 11
358.6845192686727
 21
137.8303448723524
 31
0.0
  0
LINE
  5
5CC
330
6CB
100
AcDbEntity
  8
1
  6
Continuous
100
AcDbLine
 10
358.6845192686758
 20
133.8303448723525
 30
0.0
 11
358.8845192686359
 21
133.8303448723525
 31
0.0
  0
ARC
  5
5CD
330
6CB
100
AcDbEntity
  8
1
  6
Continuous
100
AcDbCircle
 10
359.3095192686845
 20
135.8303448723524
 30
0.0
 40
3.624999999999788
100
AcDbArc
 50
136.3971810272954
 51
223.6028189727044
  0
ARC
  5
5CE
330
6CB
100
AcDbEntity
  8
1
  6
Continuous
100
AcDbCircle
 10
381.8595192686848
 20
127.8303448723524
 30
0.0
 40
3.624999999999783
100
AcDbArc
 50
316.3971810272948
 51
43.60281897270446
  0
ARC
  5
5CF
330
6CB
100
AcDbEntity
  8
1
  6
Continuous
100
AcDbCircle
 10
403.0087676280031
 20
116.5334288459208
 30
0.0
 40
24.43230748137523
100
AcDbArc
 50
178.1308345504045
 51
189.9058545631909
  0
LINE
  5
5D0
330
6CB
100
AcDbEntity
  8
1
  6
Continuous
100
AcDbLine
 10
377.5845192687381
 20
112.3303448723582
 30
0.0
 11
380.5845192686862
 21
112.3303448723599
 31
0.0
  0
LINE
  5
5D1
330
6CB
100
AcDbEntity
  8
1
  6
Continuous
100
AcDbLine
 10
378.5894602317791
 20
120.8014358908548
 30
0.0
 11
378.5894602317791
 21
117.3303448723498
 31
0.0
  0
ARC
  5
5D2
330
6CB
100
AcDbEntity
  8
1
  6
Continuous
100
AcDbCircle
 10
403.0087676280031
 20
121.5983519172838
 30
0.0
 40
24.43230748137523
100
AcDbArc
 50
175.9349238572769
 51
181.8691654495953
  0
LINE
  5
5D3
330
6CB
100
AcDbEntity
  8
1
  6
Continuous
100
AcDbLine
 10
376.584519268662
 20
123.3303448723655
 30
0.0
 11
376.584519268662
 21
123.0303448723655
 31
0.0
  0
LINE
  5
5D4
330
6CB
100
AcDbEntity
  8
1
  6
Continuous
100
AcDbLine
 10
380.085754509453
 20
120.8014358908545
 30
0.0
 11
380.085754509453
 21
117.3303448723491
 31
0.0
  0
LINE
  5
5D5
330
6CB
100
AcDbEntity
  8
1
  6
Continuous
100
AcDbLine
 10
380.7845192686837
 20
123.3303448723649
 30
0.0
 11
380.7845192686837
 21
112.3303448723131
 31
0.0
  0
LINE
  5
5D6
330
6CB
100
AcDbEntity
  8
1
  6
Continuous
100
AcDbLine
 10
380.5845192685146
 20
123.3303448723649
 30
0.0
 11
380.5845192686788
 21
112.3303448723007
 31
0.0
  0
ARC
  5
5D7
330
6CB
100
AcDbEntity
  8
1
  6
Continuous
100
AcDbCircle
 10
415.9970089776031
 20
118.8303448727788
 30
0.0
 40
35.76373249710389
100
AcDbArc
 50
173.9998446103713
 51
186.0001553914965
  0
ARC
  5
5D8
330
6CB
100
AcDbEntity
  8
1
  6
Continuous
100
AcDbCircle
 10
380.0659663721274
 20
115.195395767573
 30
0.0
 40
0.5294183260773356
100
AcDbArc
 50
331.8514424552956
 51
348.3719425086992
  0
ARC
  5
5D9
330
6CB
100
AcDbEntity
  8
1
  6
Continuous
100
AcDbCircle
 10
380.9536852476926
 20
115.1976296296373
 30
0.0
 40
0.5350279675296436
100
AcDbArc
 50
191.3953040138997
 51
208.0955999151039
  0
ARC
  5
5DA
330
6CB
100
AcDbEntity
  8
1
  6
Continuous
100
AcDbCircle
 10
380.507242483016
 20
114.9592954513654
 30
0.0
 40
0.0289505795100414
100
AcDbArc
 50
208.0955999150909
 51
331.8514424553101
  0
LINE
  5
5DB
330
6CB
100
AcDbEntity
  8
1
  6
Continuous
100
AcDbLine
 10
380.4292040877734
 20
115.0919204108876
 30
0.0
 11
380.5845192686375
 21
115.0886874852911
 31
0.0
  0
ARC
  5
5DC
330
6CB
100
AcDbEntity
  8
1
  6
Continuous
100
AcDbCircle
 10
404.5050619056771
 20
116.5334288459214
 30
0.0
 40
24.43230748137523
100
AcDbArc
 50
178.1308345504045
 51
189.9058545631909
  0
LINE
  5
5DD
330
6CB
100
AcDbEntity
  8
1
  6
Continuous
100
AcDbLine
 10
382.2845192686697
 20
112.3303448723131
 30
0.0
 11
380.7845192686697
 21
112.3303448723131
 31
0.0
  0
LINE
  5
5DE
330
6CB
100
AcDbEntity
  8
1
  6
Continuous
100
AcDbLine
 10
384.4845192686848
 20
122.8303448725129
 30
0.0
 11
382.4845192686844
 21
122.8303448725151
 31
0.0
  0
ARC
  5
5DF
330
6CB
100
AcDbEntity
  8
1
  6
Continuous
100
AcDbCircle
 10
404.5050619056771
 20
121.5983519172832
 30
0.0
 40
24.43230748137523
100
AcDbArc
 50
175.9349238572754
 51
181.8691654495953
  0
LINE
  5
5E0
330
6CB
100
AcDbEntity
  8
1
  6
Continuous
100
AcDbLine
 10
380.4292040878424
 20
122.5687693334741
 30
0.0
 11
380.5845192687066
 21
122.5720022590705
 31
0.0
  0
ARC
  5
5E1
330
6CB
100
AcDbEntity
  8
1
  6
Continuous
100
AcDbCircle
 10
380.0659663721967
 20
122.4652939767887
 30
0.0
 40
0.5294183260773356
100
AcDbArc
 50
11.6280574913006
 51
28.14855754470436
  0
ARC
  5
5E2
330
6CB
100
AcDbEntity
  8
1
  6
Continuous
100
AcDbCircle
 10
380.9536852477617
 20
122.4630601147243
 30
0.0
 40
0.5350279675296436
100
AcDbArc
 50
151.904400084896
 51
168.6046959861001
  0
ARC
  5
5E3
330
6CB
100
AcDbEntity
  8
1
  6
Continuous
100
AcDbCircle
 10
380.507242483085
 20
122.7013942929962
 30
0.0
 40
0.0289505795100414
100
AcDbArc
 50
28.14855754468968
 51
151.904400084909
  0
ARC
  5
5E4
330
6CB
100
AcDbEntity
  8
1
  6
Continuous
100
AcDbCircle
 10
370.5845192686551
 20
129.3303448723576
 30
0.0
 40
2.1
100
AcDbArc
 50
270.0
 51
90.0
  0
LINE
  5
5E5
330
6CB
100
AcDbEntity
  8
1
  6
Continuous
100
AcDbLine
 10
382.484519268679
 20
129.8303448723523
 30
0.0
 11
382.2845192686697
 21
129.8303448723523
 31
0.0
  0
LINE
  5
5E6
330
6CB
100
AcDbEntity
  8
1
  6
Continuous
100
AcDbLine
 10
382.2845192686697
 20
125.8303448723524
 30
0.0
 11
382.4845192686823
 21
125.8303448723524
 31
0.0
  0
LINE
  5
5E7
330
6CB
100
AcDbEntity
  8
1
  6
Continuous
100
AcDbLine
 10
382.4845192686727
 20
137.8303448723524
 30
0.0
 11
382.2845192686697
 21
137.8303448723524
 31
0.0
  0
LINE
  5
5E8
330
6CB
100
AcDbEntity
  8
1
  6
Continuous
100
AcDbLine
 10
382.2845192686697
 20
133.8303448723525
 30
0.0
 11
382.4845192686759
 21
133.8303448723525
 31
0.0
  0
ARC
  5
5E9
330
6CB
100
AcDbEntity
  8
1
  6
Continuous
100
AcDbCircle
 10
381.8595192686848
 20
135.8303448723524
 30
0.0
 40
3.624999999999783
100
AcDbArc
 50
316.3971810272948
 51
43.60281897270446
  0
LINE
  5
5EA
330
6CB
100
AcDbEntity
  8
4
  6
CENTER
100
AcDbLine
 10
366.9845192686703
 20
151.3303448723313
 30
0.0
 11
374.18451926851
 21
151.3303448723838
 31
0.0
  0
LINE
  5
5EB
330
6CB
100
AcDbEntity
  8
1
  6
Continuous
100
AcDbLine
 10
358.8845192685882
 20
164.3303448723339
 30
0.0
 11
382.2845192686697
 21
164.3303448723522
 31
0.0
  0
CIRCLE
  5
5EC
330
6CB
100
AcDbEntity
  8
1
  6
Continuous
100
AcDbCircle
 10
370.5845192686551
 20
151.3303448723575
 30
0.0
 40
2.1
  0
ARC
  5
5ED
330
6CB
100
AcDbEntity
  8
1
  6
Continuous
100
AcDbCircle
 10
359.0095192686484
 20
159.3303448723524
 30
0.0
 40
3.624999999996103
100
AcDbArc
 50
136.3971810272505
 51
223.6028189727493
  0
LINE
  5
5EE
330
6CB
100
AcDbEntity
  8
1
  6
Continuous
100
AcDbLine
 10
356.3845192686532
 20
156.3303448723524
 30
0.0
 11
356.3845192686532
 21
162.3303448723524
 31
0.0
  0
LINE
  5
5EF
330
6CB
100
AcDbEntity
  8
1
  6
Continuous
100
AcDbLine
 10
358.6845192686575
 20
157.3303448723736
 30
0.0
 11
356.6845192686575
 21
157.3303448723736
 31
0.0
  0
LINE
  5
5F0
330
6CB
100
AcDbEntity
  8
1
  6
Continuous
100
AcDbLine
 10
356.3845192686532
 20
156.3303448723524
 30
0.0
 11
358.8845192686532
 21
156.3303448723524
 31
0.0
  0
LINE
  5
5F1
330
6CB
100
AcDbEntity
  8
1
  6
Continuous
100
AcDbLine
 10
356.6845192686466
 20
162.3303448723524
 30
0.0
 11
356.3845192686532
 21
162.3303448723524
 31
0.0
  0
LINE
  5
5F2
330
6CB
100
AcDbEntity
  8
1
  6
Continuous
100
AcDbLine
 10
358.8845192686532
 20
162.3303448723524
 30
0.0
 11
358.6845192686561
 21
162.3303448723524
 31
0.0
  0
LINE
  5
5F3
330
6CB
100
AcDbEntity
  8
1
  6
Continuous
100
AcDbLine
 10
384.7845192685103
 20
156.3303448723524
 30
0.0
 11
384.7845192685103
 21
162.3303448723524
 31
0.0
  0
ARC
  5
5F4
330
6CB
100
AcDbEntity
  8
1
  6
Continuous
100
AcDbCircle
 10
382.1595192685151
 20
159.3303448723524
 30
0.0
 40
3.624999999996103
100
AcDbArc
 50
316.3971810272506
 51
43.6028189727494
  0
LINE
  5
5F5
330
6CB
100
AcDbEntity
  8
1
  6
Continuous
100
AcDbLine
 10
384.7845192685103
 20
156.3303448723524
 30
0.0
 11
382.2845192685103
 21
156.3303448723524
 31
0.0
  0
LINE
  5
5F6
330
6CB
100
AcDbEntity
  8
1
  6
Continuous
100
AcDbLine
 10
382.4845192685058
 20
157.3303448723736
 30
0.0
 11
384.4845192685058
 21
157.3303448723736
 31
0.0
  0
LINE
  5
5F7
330
6CB
100
AcDbEntity
  8
1
  6
Continuous
100
AcDbLine
 10
382.2845192685103
 20
162.3303448723524
 30
0.0
 11
382.4845192685074
 21
162.3303448723524
 31
0.0
  0
LINE
  5
5F8
330
6CB
100
AcDbEntity
  8
1
  6
Continuous
100
AcDbLine
 10
384.4845192685168
 20
162.3303448723524
 30
0.0
 11
384.7845192685103
 21
162.3303448723524
 31
0.0
  0
LINE
  5
5F9
330
6CB
100
AcDbEntity
  8
4
  6
CENTER
100
AcDbLine
 10
305.6318304806697
 20
201.3303448733524
 30
0.0
 11
313.6318304806677
 21
201.3303448733524
 31
0.0
  0
ARC
  5
5FA
330
6CB
100
AcDbEntity
  8
1
  6
Continuous
100
AcDbCircle
 10
306.5966834049565
 20
197.8303448736892
 30
0.0
 40
4.0
100
AcDbArc
 50
269.9999999998599
 51
359.9999999999753
  0
LINE
  5
5FB
330
6CB
100
AcDbEntity
  8
1
  6
Continuous
100
AcDbLine
 10
272.196613556897
 20
184.8303448724116
 30
0.0
 11
277.1966135569745
 21
184.8303448724116
 31
0.0
  0
LINE
  5
5FC
330
6CB
100
AcDbEntity
  8
2
  6
Continuous
100
AcDbLine
 10
272.6296135569359
 20
184.8303448724116
 30
0.0
 11
272.1966135568967
 21
185.5803228721552
 31
0.0
  0
LINE
  5
5FD
330
6CB
100
AcDbEntity
  8
4
  6
CENTER
100
AcDbLine
 10
266.6966135572244
 20
200.8303448724908
 30
0.0
 11
282.6966135566071
 21
200.8303448724908
 31
0.0
  0
CIRCLE
  5
5FE
330
6CB
100
AcDbEntity
  8
1
  6
Continuous
100
AcDbCircle
 10
274.6966135569157
 20
200.8303448724908
 30
0.0
 40
4.999999999691309
  0
CIRCLE
  5
5FF
330
6CB
100
AcDbEntity
  8
1
  6
Continuous
100
AcDbCircle
 10
274.6966135569157
 20
200.8303448724908
 30
0.0
 40
3.999999999691313
  0
LINE
  5
600
330
6CB
100
AcDbEntity
  8
1
  6
Continuous
100
AcDbLine
 10
271.7566135569169
 20
183.4303448724396
 30
0.0
 11
277.6366135569146
 21
183.4303448724396
 31
0.0
  0
LINE
  5
601
330
6CB
100
AcDbEntity
  8
1
  6
Continuous
100
AcDbLine
 10
264.6966135568427
 20
181.8303448724371
 30
0.0
 11
279.696613556842
 21
181.8303448724371
 31
0.0
  0
LINE
  5
602
330
6CB
100
AcDbEntity
  8
1
  6
Continuous
100
AcDbLine
 10
272.196613556877
 20
196.5002178539473
 30
0.0
 11
272.196613556877
 21
183.4303448724396
 31
0.0
  0
LINE
  5
603
330
6CB
100
AcDbEntity
  8
1
  6
Continuous
100
AcDbLine
 10
271.7566135569169
 20
183.4303448724396
 30
0.0
 11
271.5966135569172
 21
181.8303448724429
 31
0.0
  0
LINE
  5
604
330
6CB
100
AcDbEntity
  8
4
  6
CENTER
100
AcDbLine
 10
274.6966135569157
 20
210.830344872182
 30
0.0
 11
274.6966135569157
 21
175.6540159135985
 31
0.0
  0
LINE
  5
605
330
6CB
100
AcDbEntity
  8
1
  6
Continuous
100
AcDbLine
 10
277.1966135569546
 20
183.4303448724396
 30
0.0
 11
277.1966135569546
 21
196.5002178539473
 31
0.0
  0
LINE
  5
606
330
6CB
100
AcDbEntity
  8
2
  6
Continuous
100
AcDbLine
 10
276.7636135569359
 20
184.8303448724116
 30
0.0
 11
277.1966135569749
 21
185.5803228721552
 31
0.0
  0
LINE
  5
607
330
6CB
100
AcDbEntity
  8
2
  6
Continuous
100
AcDbLine
 10
276.7636135569359
 20
184.8303448724116
 30
0.0
 11
276.7636135569359
 21
183.4303448724396
 31
0.0
  0
LINE
  5
608
330
6CB
100
AcDbEntity
  8
2
  6
Continuous
100
AcDbLine
 10
272.6296135569356
 20
184.8303448724116
 30
0.0
 11
272.6296135569356
 21
183.4303448724396
 31
0.0
  0
LINE
  5
609
330
6CB
100
AcDbEntity
  8
1
  6
Continuous
100
AcDbLine
 10
277.7966135569143
 20
181.8303448724429
 30
0.0
 11
277.6366135569146
 21
183.4303448724396
 31
0.0
  0
LINE
  5
60A
330
6CB
100
AcDbEntity
  8
1
  6
Continuous
100
AcDbLine
 10
310.5966834049602
 20
206.3303448735168
 30
0.0
 11
310.5966834049565
 21
197.8303448736874
 31
0.0
  0
LINE
  5
60B
330
6CB
100
AcDbEntity
  8
1
  6
Continuous
100
AcDbLine
 10
308.59668340496
 20
197.8303448736892
 30
0.0
 11
308.59668340496
 21
206.3303448735193
 31
0.0
  0
ARC
  5
60C
330
6CB
100
AcDbEntity
  8
1
  6
Continuous
100
AcDbCircle
 10
303.5966834049526
 20
200.8303448736965
 30
0.0
 40
7.0
100
AcDbArc
 50
232.9999999999946
 51
269.9999999998599
  0
ARC
  5
60D
330
6CB
100
AcDbEntity
  8
1
  6
Continuous
100
AcDbCircle
 10
303.5966834049524
 20
200.8303448736965
 30
0.0
 40
5.0
100
AcDbArc
 50
232.9999999999985
 51
269.9999999998599
  0
LINE
  5
60E
330
6CB
100
AcDbEntity
  8
1
  6
Continuous
100
AcDbLine
 10
297.8003134512664
 20
198.9375446374099
 30
0.0
 11
300.5876082891922
 21
196.8371673234603
 31
0.0
  0
LINE
  5
60F
330
6CB
100
AcDbEntity
  8
1
  6
Continuous
100
AcDbLine
 10
296.5966834049563
 20
197.3402736173202
 30
0.0
 11
297.800313451268
 21
198.9375446374121
 31
0.0
  0
LINE
  5
610
330
6CB
100
AcDbEntity
  8
1
  6
Continuous
100
AcDbLine
 10
298.1939544250507
 20
196.1366435710159
 30
0.0
 11
299.3975844713549
 21
197.7339145911101
 31
0.0
  0
LINE
  5
611
330
6CB
100
AcDbEntity
  8
1
  6
Continuous
100
AcDbLine
 10
299.3839782428878
 20
195.2398963033659
 30
0.0
 11
296.5966834049563
 21
197.3402736173202
 31
0.0
  0
LINE
  5
612
330
6CB
100
AcDbEntity
  8
1
  6
Continuous
100
AcDbLine
 10
306.5966834049466
 20
193.8303448736892
 30
0.0
 11
303.5966834049356
 21
193.8303448736965
 31
0.0
  0
LINE
  5
613
330
6CB
100
AcDbEntity
  8
1
  6
Continuous
100
AcDbLine
 10
303.5966834049403
 20
195.8303448736966
 30
0.0
 11
306.5966834049553
 21
195.8303448736892
 31
0.0
  0
ARC
  5
614
330
6CB
100
AcDbEntity
  8
1
  6
Continuous
100
AcDbCircle
 10
306.59668340496
 20
197.8303448736892
 30
0.0
 40
2.0
100
AcDbArc
 50
269.9999999998599
 51
0.0
  0
LINE
  5
615
330
6CB
100
AcDbEntity
  8
1
  6
Continuous
100
AcDbLine
 10
308.59668340496
 20
206.3303448735193
 30
0.0
 11
310.59668340496
 21
206.3303448735168
 31
0.0
  0
LINE
  5
616
330
6CB
100
AcDbEntity
  8
1
  6
Continuous
100
AcDbLine
 10
368.0845192685041
 20
195.8303448727994
 30
0.0
 11
368.0845192685041
 21
183.4303448724396
 31
0.0
  0
LINE
  5
617
330
6CB
100
AcDbEntity
  8
1
  6
Continuous
100
AcDbLine
 10
373.0845192685816
 20
183.4303448724396
 30
0.0
 11
373.0845192685816
 21
195.8303448727889
 31
0.0
  0
LINE
  5
618
330
6CB
100
AcDbEntity
  8
1
  6
Continuous
100
AcDbLine
 10
367.6445192685828
 20
183.4303448724396
 30
0.0
 11
373.5245192685806
 21
183.4303448724396
 31
0.0
  0
LINE
  5
619
330
6CB
100
AcDbEntity
  8
1
  6
Continuous
100
AcDbLine
 10
368.0845192685632
 20
184.8303448724116
 30
0.0
 11
373.0845192686406
 21
184.8303448724116
 31
0.0
  0
LINE
  5
61A
330
6CB
100
AcDbEntity
  8
1
  6
Continuous
100
AcDbLine
 10
373.0845192685816
 20
169.8303448722741
 30
0.0
 11
368.0845192685041
 21
169.8303448722741
 31
0.0
  0
LINE
  5
61B
330
6CB
100
AcDbEntity
  8
1
  6
Continuous
100
AcDbLine
 10
373.0845192685816
 20
167.3303448722741
 30
0.0
 11
368.0845192685041
 21
167.3303448722741
 31
0.0
  0
ARC
  5
61C
330
6CB
100
AcDbEntity
  8
1
  6
Continuous
100
AcDbCircle
 10
369.7778888610343
 20
168.5803448722741
 30
0.0
 40
1.429426945238509
100
AcDbArc
 50
119.0169424847945
 51
240.9830575152059
  0
LINE
  5
61D
330
6CB
100
AcDbEntity
  8
1
  6
Continuous
100
AcDbLine
 10
375.4845192686552
 20
179.830344872466
 30
0.0
 11
365.6845192686552
 21
179.8303448724799
 31
0.0
  0
LINE
  5
61E
330
6CB
100
AcDbEntity
  8
1
  6
Continuous
100
AcDbLine
 10
365.6845192686347
 20
181.8303448724371
 30
0.0
 11
375.4845192686349
 21
181.8303448724488
 31
0.0
  0
LINE
  5
61F
330
6CB
100
AcDbEntity
  8
1
  6
Continuous
100
AcDbLine
 10
368.0845192685041
 20
179.8303448724695
 30
0.0
 11
368.0845192685041
 21
169.8303448722741
 31
0.0
  0
LINE
  5
620
330
6CB
100
AcDbEntity
  8
2
  6
Continuous
100
AcDbLine
 10
368.5175192685814
 20
179.8303448724699
 30
0.0
 11
368.5175192685814
 21
169.8303448724114
 31
0.0
  0
ARC
  5
621
330
6CB
100
AcDbEntity
  8
1
  6
Continuous
100
AcDbCircle
 10
365.6845192686451
 20
172.8303448724799
 30
0.0
 40
7.0
100
AcDbArc
 50
89.99999999991855
 51
180.0000000000446
  0
ARC
  5
622
330
6CB
100
AcDbEntity
  8
1
  6
Continuous
100
AcDbCircle
 10
365.6845192686451
 20
172.8303448724371
 30
0.0
 40
9.0
100
AcDbArc
 50
90.00000000006833
 51
180.0000000000446
  0
ARC
  5
623
330
6CB
100
AcDbEntity
  8
1
  6
Continuous
100
AcDbCircle
 10
369.3970192685041
 20
168.5803448722741
 30
0.0
 40
1.812500000000048
100
AcDbArc
 50
136.397181027298
 51
223.6028189727039
  0
LINE
  5
624
330
6CB
100
AcDbEntity
  8
2
  6
Continuous
100
AcDbLine
 10
368.5175192686019
 20
184.8303448724116
 30
0.0
 11
368.0845192685629
 21
185.5803228721552
 31
0.0
  0
LINE
  5
625
330
6CB
100
AcDbEntity
  8
1
  6
Continuous
100
AcDbLine
 10
367.6445192685828
 20
183.4303448724396
 30
0.0
 11
367.4845192685834
 21
181.8303448724466
 31
0.0
  0
LINE
  5
626
330
6CB
100
AcDbEntity
  8
2
  6
Continuous
100
AcDbLine
 10
368.5175192686017
 20
184.8303448724116
 30
0.0
 11
368.5175192686017
 21
183.4303448724396
 31
0.0
  0
LINE
  5
627
330
6CB
100
AcDbEntity
  8
1
  6
Continuous
100
AcDbLine
 10
373.0845192685816
 20
169.8303448722741
 30
0.0
 11
373.0845192685816
 21
179.8303448724765
 31
0.0
  0
LINE
  5
628
330
6CB
100
AcDbEntity
  8
2
  6
Continuous
100
AcDbLine
 10
372.6515192685817
 20
179.8303448724757
 30
0.0
 11
372.6515192685817
 21
169.8303448724116
 31
0.0
  0
ARC
  5
629
330
6CB
100
AcDbEntity
  8
1
  6
Continuous
100
AcDbCircle
 10
375.4845192686453
 20
172.830344872466
 30
0.0
 40
7.0
100
AcDbArc
 50
0.0000000000447822
 51
89.99999999991855
  0
ARC
  5
62A
330
6CB
100
AcDbEntity
  8
1
  6
Continuous
100
AcDbCircle
 10
375.4845192686456
 20
172.8303448724488
 30
0.0
 40
9.0
100
AcDbArc
 50
0.0000000000447822
 51
90.00000000006833
  0
LINE
  5
62B
330
6CB
100
AcDbEntity
  8
1
  6
Continuous
100
AcDbLine
 10
372.0845192686076
 20
169.8303448722741
 30
0.0
 11
369.0845192685557
 21
167.3303448722741
 31
0.0
  0
LINE
  5
62C
330
6CB
100
AcDbEntity
  8
1
  6
Continuous
100
AcDbLine
 10
369.0845192685557
 20
169.8303448722741
 30
0.0
 11
372.0845192686076
 21
167.3303448722741
 31
0.0
  0
ARC
  5
62D
330
6CB
100
AcDbEntity
  8
1
  6
Continuous
100
AcDbCircle
 10
371.3911496761291
 20
168.5803448722741
 30
0.0
 40
1.429426945238509
100
AcDbArc
 50
299.016942484794
 51
60.98305751520537
  0
ARC
  5
62E
330
6CB
100
AcDbEntity
  8
1
  6
Continuous
100
AcDbCircle
 10
371.7720192685816
 20
168.5803448722741
 30
0.0
 40
1.812500000000048
100
AcDbArc
 50
316.3971810272961
 51
43.60281897270185
  0
LINE
  5
62F
330
6CB
100
AcDbEntity
  8
2
  6
Continuous
100
AcDbLine
 10
372.6515192686018
 20
184.8303448724116
 30
0.0
 11
373.0845192686409
 21
185.5803228721552
 31
0.0
  0
LINE
  5
630
330
6CB
100
AcDbEntity
  8
1
  6
Continuous
100
AcDbLine
 10
373.6845192685805
 20
181.8303448724393
 30
0.0
 11
373.5245192685806
 21
183.4303448724396
 31
0.0
  0
LINE
  5
631
330
6CB
100
AcDbEntity
  8
2
  6
Continuous
100
AcDbLine
 10
372.6515192686018
 20
184.8303448724116
 30
0.0
 11
372.6515192686018
 21
183.4303448724396
 31
0.0
  0
ARC
  5
632
330
6CB
100
AcDbEntity
  8
1
  6
Continuous
100
AcDbCircle
 10
370.5845192685816
 20
213.137971242236
 30
0.0
 40
8.102555348037821
100
AcDbArc
 50
244.4078305676041
 51
295.5921694323956
  0
ARC
  5
633
330
6CB
100
AcDbEntity
  8
1
  6
Continuous
100
AcDbCircle
 10
370.5845192685338
 20
191.5000140889687
 30
0.0
 40
5.000176466639945
100
AcDbArc
 50
60.0011674451887
 51
119.9988325545705
  0
LINE
  5
634
330
6CB
100
AcDbEntity
  8
1
  6
Continuous
100
AcDbLine
 10
385.5845192686207
 20
205.830344872182
 30
0.0
 11
355.584519268616
 21
205.830344872182
 31
0.0
  0
LINE
  5
635
330
6CB
100
AcDbEntity
  8
1
  6
Continuous
100
AcDbLine
 10
355.584519268616
 20
205.830344872182
 30
0.0
 11
354.584519268616
 21
204.830344872182
 31
0.0
  0
LINE
  5
636
330
6CB
100
AcDbEntity
  8
1
  6
Continuous
100
AcDbLine
 10
355.584519268616
 20
205.830344872182
 30
0.0
 11
355.584519268616
 21
195.8303448727994
 31
0.0
  0
LINE
  5
637
330
6CB
100
AcDbEntity
  8
1
  6
Continuous
100
AcDbLine
 10
355.584519268616
 20
195.8303448727994
 30
0.0
 11
368.0845192685041
 21
195.8303448727994
 31
0.0
  0
LINE
  5
638
330
6CB
100
AcDbEntity
  8
1
  6
Continuous
100
AcDbLine
 10
354.584519268616
 20
196.8303448727994
 30
0.0
 11
354.584519268616
 21
204.830344872182
 31
0.0
  0
LINE
  5
639
330
6CB
100
AcDbEntity
  8
1
  6
Continuous
100
AcDbLine
 10
354.584519268616
 20
196.8303448727994
 30
0.0
 11
355.584519268616
 21
195.8303448727994
 31
0.0
  0
LINE
  5
63A
330
6CB
100
AcDbEntity
  8
1
  6
Continuous
100
AcDbLine
 10
386.5845192686208
 20
204.830344872182
 30
0.0
 11
385.5845192686207
 21
205.830344872182
 31
0.0
  0
LINE
  5
63B
330
6CB
100
AcDbEntity
  8
1
  6
Continuous
100
AcDbLine
 10
385.5845192686207
 20
195.8303448727994
 30
0.0
 11
385.5845192686207
 21
205.830344872182
 31
0.0
  0
LINE
  5
63C
330
6CB
100
AcDbEntity
  8
1
  6
Continuous
100
AcDbLine
 10
373.0845192685832
 20
195.8303448727994
 30
0.0
 11
385.5845192686207
 21
195.8303448727994
 31
0.0
  0
LINE
  5
63D
330
6CB
100
AcDbEntity
  8
1
  6
Continuous
100
AcDbLine
 10
386.5845192686208
 20
204.830344872182
 30
0.0
 11
386.5845192686208
 21
196.8303448727994
 31
0.0
  0
LINE
  5
63E
330
6CB
100
AcDbEntity
  8
1
  6
Continuous
100
AcDbLine
 10
385.5845192686207
 20
195.8303448727994
 30
0.0
 11
386.5845192686208
 21
196.8303448727994
 31
0.0
  0
LINE
  5
63F
330
6CB
100
AcDbEntity
  8
4
  6
CENTER
100
AcDbLine
 10
429.3845192687594
 20
201.3303448733611
 30
0.0
 11
421.7845192687593
 21
201.3303448733611
 31
0.0
  0
CIRCLE
  5
640
330
6CB
100
AcDbEntity
  8
1
  6
Continuous
100
AcDbCircle
 10
425.5845192687591
 20
201.3303448733615
 30
0.0
 40
1.8
  0
LINE
  5
641
330
6CB
100
AcDbEntity
  8
1
  6
Continuous
100
AcDbLine
 10
455.584519268523
 20
206.3303448735242
 30
0.0
 11
425.5845192687594
 21
206.3303448735242
 31
0.0
  0
LINE
  5
642
330
6CB
100
AcDbEntity
  8
1
  6
Continuous
100
AcDbLine
 10
460.5845192684048
 20
193.8303448736967
 30
0.0
 11
420.5845192688776
 21
193.8303448736967
 31
0.0
  0
ARC
  5
643
330
6CB
100
AcDbEntity
  8
1
  6
Continuous
100
AcDbCircle
 10
425.5845192687594
 20
201.3303448736424
 30
0.0
 40
4.999999999881717
100
AcDbArc
 50
90.0
 51
180.0
  0
LINE
  5
644
330
6CB
100
AcDbEntity
  8
4
  6
CENTER
100
AcDbLine
 10
425.5845192687591
 20
205.1303448733615
 30
0.0
 11
425.5845192687591
 21
197.5303448733616
 31
0.0
  0
LINE
  5
645
330
6CB
100
AcDbEntity
  8
1
  6
Continuous
100
AcDbLine
 10
420.5845192688776
 20
193.8303448736967
 30
0.0
 11
420.5845192688776
 21
201.3303448736424
 31
0.0
  0
LINE
  5
646
330
6CB
100
AcDbEntity
  8
4
  6
CENTER
100
AcDbLine
 10
440.5845192685841
 20
190.8303448736966
 30
0.0
 11
440.5845192685694
 21
209.3303448735242
 31
0.0
  0
ARC
  5
647
330
6CB
100
AcDbEntity
  8
1
  6
Continuous
100
AcDbCircle
 10
455.584519268523
 20
201.3303448736424
 30
0.0
 40
4.999999999881717
100
AcDbArc
 50
0.0
 51
90.0
  0
LINE
  5
648
330
6CB
100
AcDbEntity
  8
4
  6
CENTER
100
AcDbLine
 10
459.3845192684356
 20
201.3303448733613
 30
0.0
 11
451.7845192684354
 21
201.3303448733613
 31
0.0
  0
CIRCLE
  5
649
330
6CB
100
AcDbEntity
  8
1
  6
Continuous
100
AcDbCircle
 10
455.5845192684354
 20
201.3303448733613
 30
0.0
 40
1.8
  0
LINE
  5
64A
330
6CB
100
AcDbEntity
  8
4
  6
CENTER
100
AcDbLine
 10
455.5845192684354
 20
205.1303448733614
 30
0.0
 11
455.5845192684354
 21
197.5303448733613
 31
0.0
  0
LINE
  5
64B
330
6CB
100
AcDbEntity
  8
1
  6
Continuous
100
AcDbLine
 10
460.5845192684048
 20
193.8303448736967
 30
0.0
 11
460.5845192684048
 21
201.3303448736424
 31
0.0
  0
ENDSEC
  0
SECTION
  2
OBJECTS
  0
DICTIONARY
  5
668
330
0
100
AcDbDictionary
281
     1
  3
ACAD_CIP_PREVIOUS_PRODUCT_INFO
350
6E4
  3
ACAD_COLOR
350
6BE
  3
ACAD_DETAILVIEWSTYLE
350
6C5
  3
ACAD_GROUP
350
669
  3
ACAD_LAYOUT
350
6BD
  3
ACAD_MATERIAL
350
66C
  3
ACAD_MLEADERSTYLE
350
6C1
  3
ACAD_MLINESTYLE
350
6BA
  3
ACAD_PLOTSETTINGS
350
6BC
  3
ACAD_PLOTSTYLENAME
350
66A
  3
ACAD_SCALELIST
350
69E
  3
ACAD_SECTIONVIEWSTYLE
350
6C3
  3
ACAD_TABLESTYLE
350
6BF
  3
ACAD_VISUALSTYLE
350
685
  3
ACDB_RECOMPOSE_DATA
350
702
  3
AcDbVariableDictionary
350
6F5
  3
DWGPROPS
350
703
  0
DICTIONARY
  5
6E5
330
6B0
100
AcDbDictionary
280
     1
281
     1
  3
ADSK_XREC_LAYER_RECONCILED
360
6E6
  0
DICTIONARY
  5
6E7
330
6D3
100
AcDbDictionary
280
     1
281
     1
  3
ADSK_XREC_LAYER_RECONCILED
360
6E8
  0
DICTIONARY
  5
6E9
330
6D4
100
AcDbDictionary
280
     1
281
     1
  3
ADSK_XREC_LAYER_RECONCILED
360
6EA
  0
DICTIONARY
  5
6EB
330
6D5
100
AcDbDictionary
280
     1
281
     1
  3
ADSK_XREC_LAYER_RECONCILED
360
6EC
  0
DICTIONARY
  5
6ED
330
6D6
100
AcDbDictionary
280
     1
281
     1
  3
ADSK_XREC_LAYER_RECONCILED
360
6EE
  0
DICTIONARY
  5
6EF
330
6D7
100
AcDbDictionary
280
     1
281
     1
  3
ADSK_XREC_LAYER_RECONCILED
360
6F0
  0
DICTIONARY
  5
6F1
330
6D8
100
AcDbDictionary
280
     1
281
     1
  3
ADSK_XREC_LAYER_RECONCILED
360
6F2
  0
DICTIONARY
  5
6F3
330
6D9
100
AcDbDictionary
280
     1
281
     1
  3
ADSK_XREC_LAYER_RECONCILED
360
6F4
  0
XRECORD
  5
6E4
102
{ACAD_REACTORS
330
668
102
}
330
668
100
AcDbXrecord
280
     1
300
ACDLT
300
2014
300
ACDLT_F_S
  0
DICTIONARY
  5
6BE
102
{ACAD_REACTORS
330
668
102
}
330
668
100
AcDbDictionary
281
     1
  0
DICTIONARY
  5
6C5
102
{ACAD_REACTORS
330
668
102
}
330
668
100
AcDbDictionary
281
     1
  3
Imperial24
350
6C6
  0
DICTIONARY
  5
669
102
{ACAD_REACTORS
330
668
102
}
330
668
100
AcDbDictionary
281
     1
  0
DICTIONARY
  5
6BD
102
{ACAD_REACTORS
330
668
102
}
330
668
100
AcDbDictionary
281
     1
  3
Model
350
6CE
  3
レイアウト1
350
6CA
  0
DICTIONARY
  5
66C
102
{ACAD_REACTORS
330
668
102
}
330
668
100
AcDbDictionary
281
     1
  3
ByBlock
350
675
  3
ByLayer
350
66D
  3
Global
350
67D
  0
DICTIONARY
  5
6C1
102
{ACAD_REACTORS
330
668
102
}
330
668
100
AcDbDictionary
281
     1
  3
Standard
350
6C2
  0
DICTIONARY
  5
6BA
102
{ACAD_REACTORS
330
668
102
}
330
668
100
AcDbDictionary
281
     1
  3
Standard
350
6BB
  0
DICTIONARY
  5
6BC
102
{ACAD_REACTORS
330
668
102
}
330
668
100
AcDbDictionary
281
     1
  0
ACDBDICTIONARYWDFLT
  5
66A
102
{ACAD_REACTORS
330
668
102
}
330
668
100
AcDbDictionary
281
     1
  3
Normal
350
66B
100
AcDbDictionaryWithDefault
340
66B
  0
DICTIONARY
  5
69E
102
{ACAD_REACTORS
330
668
102
}
330
668
100
AcDbDictionary
281
     1
  3
A0
350
69F
  3
A1
350
6A0
  3
A2
350
6A1
  3
A3
350
6A2
  3
A4
350
6A3
  3
A5
350
6A4
  3
A6
350
6A5
  3
A7
350
6A6
  3
A8
350
6A7
  3
A9
350
6A8
  3
B0
350
6A9
  3
B1
350
6AA
  3
B2
350
6AB
  3
B3
350
6AC
  3
B4
350
6AD
  3
B5
350
6AE
  3
B6
350
6AF
  0
DICTIONARY
  5
6C3
102
{ACAD_REACTORS
330
668
102
}
330
668
100
AcDbDictionary
281
     1
  3
Imperial24
350
6C4
  0
DICTIONARY
  5
6BF
102
{ACAD_REACTORS
330
668
102
}
330
668
100
AcDbDictionary
281
     1
  3
Standard
350
6C0
  0
DICTIONARY
  5
685
102
{ACAD_REACTORS
330
668
102
}
330
668
100
AcDbDictionary
281
     1
  3
2dWireframe
350
68B
  3
Basic
350
68A
  3
Brighten
350
691
  3
ColorChange
350
695
  3
Conceptual
350
68E
  3
Dim
350
690
  3
EdgeColorOff
350
69D
  3
Facepattern
350
694
  3
Flat
350
686
  3
FlatWithEdges
350
687
  3
Gouraud
350
688
  3
GouraudWithEdges
350
689
  3
Hidden
350
68D
  3
JitterOff
350
69B
  3
Linepattern
350
693
  3
OverhangOff
350
69C
  3
Realistic
350
68F
  3
Shaded
350
69A
  3
Shaded with edges
350
699
  3
Shades of Gray
350
696
  3
Sketchy
350
697
  3
Thicken
350
692
  3
Wireframe
350
68C
  3
X-Ray
350
698
  0
XRECORD
  5
702
102
{ACAD_REACTORS
330
668
102
}
330
668
100
AcDbXrecord
280
     1
 90
        1
330
6C0
  0
DICTIONARY
  5
6F5
102
{ACAD_REACTORS
330
668
102
}
330
668
100
AcDbDictionary
281
     1
  3
CANNOSCALE
350
6FA
  3
CMLEADERSTYLE
350
6F7
  3
CTABLESTYLE
350
6F6
  3
CVIEWDETAILSTYLE
350
6F8
  3
CVIEWSECTIONSTYLE
350
6F9
  3
DIMASSOC
350
6FD
  3
INDEXCTL
350
6FC
  3
SORTENTS
350
6FB
  3
XCLIPFRAME
350
6FE
  0
XRECORD
  5
703
102
{ACAD_REACTORS
330
668
102
}
330
668
100
AcDbXrecord
280
     1
  1
DWGPROPS COOKIE
  2

  3

  4

  6

  7

  8
Yoshitsune
  9

300
=
301
=
302
=
303
=
304
=
305
=
306
=
307
=
308
=
309
=
 40
0.0010446296296296
 41
2456276.552597801
 42
2457192.602570799
  1

 90
        0
  0
XRECORD
  5
6E6
102
{ACAD_REACTORS
330
6E5
102
}
330
6E5
100
AcDbXrecord
280
     1
290
     1
  0
XRECORD
  5
6E8
102
{ACAD_REACTORS
330
6E7
102
}
330
6E7
100
AcDbXrecord
280
     1
290
     1
  0
XRECORD
  5
6EA
102
{ACAD_REACTORS
330
6E9
102
}
330
6E9
100
AcDbXrecord
280
     1
290
     1
  0
XRECORD
  5
6EC
102
{ACAD_REACTORS
330
6EB
102
}
330
6EB
100
AcDbXrecord
280
     1
290
     1
  0
XRECORD
  5
6EE
102
{ACAD_REACTORS
330
6ED
102
}
330
6ED
100
AcDbXrecord
280
     1
290
     1
  0
XRECORD
  5
6F0
102
{ACAD_REACTORS
330
6EF
102
}
330
6EF
100
AcDbXrecord
280
     1
290
     1
  0
XRECORD
  5
6F2
102
{ACAD_REACTORS
330
6F1
102
}
330
6F1
100
AcDbXrecord
280
     1
290
     1
  0
XRECORD
  5
6F4
102
{ACAD_REACTORS
330
6F3
102
}
330
6F3
100
AcDbXrecord
280
     1
290
     1
  0
ACDBDETAILVIEWSTYLE
  5
6C6
102
{ACAD_XDICTIONARY
360
73B
102
}
102
{ACAD_REACTORS
330
6C5
102
}
330
6C5
100
AcDbModelDocViewStyle
 70
     0
  3
Imperial24
290
     0
100
AcDbDetailViewStyle
 70
     0
 71
     0
 90
        3
 71
     1
340
6B1
 40
0.24
340
0
 40
0.24
300

 40
0.36
280
     3
 71
     2
340
6B8
 90
       25
 71
     3
340
6B1
 40
0.24
 90
        1
 40
0.75
 90
        1
300
%<\AcVar ViewType \f "%tc1">% %<\AcVar ViewDetailId>%\PSCALE %<\AcVar ViewScale \f "%sn">%
 71
     4
340
6B8
 90
       25
340
6B8
 90
       25
280
     0
  0
LAYOUT
  5
6CE
102
{ACAD_XDICTIONARY
360
73F
102
}
102
{ACAD_REACTORS
330
6BD
102
}
330
6BD
100
AcDbPlotSettings
  1

  2
Canon LBP9100C
  4

  6

 40
0.0
 41
0.0
 42
0.0
 43
0.0
 44
0.0
 45
0.0
 46
0.0
 47
0.0
 48
0.0
 49
0.0
140
0.0
141
0.0
142
1.0
143
1.0
 70
  1712
 72
     0
 73
     0
 74
     0
  7

 75
     0
147
1.0
148
0.0
149
0.0
100
AcDbLayout
  1
Model
 70
     1
 71
     0
 10
0.0
 20
0.0
 11
12.0
 21
9.0
 12
0.0
 22
0.0
 32
0.0
 14
0.0
 24
0.0
 34
0.0
 15
0.0
 25
0.0
 35
0.0
146
0.0
 13
0.0
 23
0.0
 33
0.0
 16
1.0
 26
0.0
 36
0.0
 17
0.0
 27
1.0
 37
0.0
 76
     0
330
6CB
331
6CF
  0
LAYOUT
  5
6CA
102
{ACAD_XDICTIONARY
360
73D
102
}
102
{ACAD_REACTORS
330
6BD
102
}
330
6BD
100
AcDbPlotSettings
  1

  2
Canon LBP9100C
  4

  6

 40
0.0
 41
0.0
 42
0.0
 43
0.0
 44
0.0
 45
0.0
 46
0.0
 47
0.0
 48
0.0
 49
0.0
140
0.0
141
0.0
142
1.0
143
1.0
 70
   688
 72
     0
 73
     0
 74
     5
  7

 75
    16
147
1.0
148
0.0
149
0.0
100
AcDbLayout
  1
レイアウト1
 70
     1
 71
     1
 10
0.0
 20
0.0
 11
420.0
 21
297.0
 12
0.0
 22
0.0
 32
0.0
 14
1.000000000000000E+20
 24
1.000000000000000E+20
 34
1.000000000000000E+20
 15
-1.000000000000000E+20
 25
-1.000000000000000E+20
 35
-1.000000000000000E+20
146
0.0
 13
0.0
 23
0.0
 33
0.0
 16
1.0
 26
0.0
 36
0.0
 17
0.0
 27
1.0
 37
0.0
 76
     0
330
6C7
  0
MATERIAL
  5
675
102
{ACAD_XDICTIONARY
360
676
102
}
102
{ACAD_REACTORS
330
66C
102
}
330
66C
100
AcDbMaterial
  1
ByBlock
 72
     0
 43
0.0208333333333333
 43
0.0
 43
0.0
 43
0.0
 43
0.0
 43
0.0208333333333333
 43
0.0
 43
0.0
 43
0.0
 43
0.0
 43
1.0
 43
0.0
 43
0.0
 43
0.0
 43
0.0
 43
1.0
 77
     0
 47
0.0208333333333333
 47
0.0
 47
0.0
 47
0.0
 47
0.0
 47
0.0208333333333333
 47
0.0
 47
0.0
 47
0.0
 47
0.0
 47
1.0
 47
0.0
 47
0.0
 47
0.0
 47
0.0
 47
1.0
171
     0
 49
0.0208333333333333
 49
0.0
 49
0.0
 49
0.0
 49
0.0
 49
0.0208333333333333
 49
0.0
 49
0.0
 49
0.0
 49
0.0
 49
1.0
 49
0.0
 49
0.0
 49
0.0
 49
0.0
 49
1.0
175
     0
142
0.0208333333333333
142
0.0
142
0.0
142
0.0
142
0.0
142
0.0208333333333333
142
0.0
142
0.0
142
0.0
142
0.0
142
1.0
142
0.0
142
0.0
142
0.0
142
0.0
142
1.0
179
     0
144
0.0208333333333333
144
0.0
144
0.0
144
0.0
144
0.0
144
0.0208333333333333
144
0.0
144
0.0
144
0.0
144
0.0
144
1.0
144
0.0
144
0.0
144
0.0
144
0.0
144
1.0
147
0.0208333333333333
147
0.0
147
0.0
147
0.0
147
0.0
147
0.0208333333333333
147
0.0
147
0.0
147
0.0
147
0.0
147
1.0
147
0.0
147
0.0
147
0.0
147
0.0
147
1.0
  0
MATERIAL
  5
66D
102
{ACAD_XDICTIONARY
360
66E
102
}
102
{ACAD_REACTORS
330
66C
102
}
330
66C
100
AcDbMaterial
  1
ByLayer
 72
     0
 43
0.0208333333333333
 43
0.0
 43
0.0
 43
0.0
 43
0.0
 43
0.0208333333333333
 43
0.0
 43
0.0
 43
0.0
 43
0.0
 43
1.0
 43
0.0
 43
0.0
 43
0.0
 43
0.0
 43
1.0
 77
     0
 47
0.0208333333333333
 47
0.0
 47
0.0
 47
0.0
 47
0.0
 47
0.0208333333333333
 47
0.0
 47
0.0
 47
0.0
 47
0.0
 47
1.0
 47
0.0
 47
0.0
 47
0.0
 47
0.0
 47
1.0
171
     0
 49
0.0208333333333333
 49
0.0
 49
0.0
 49
0.0
 49
0.0
 49
0.0208333333333333
 49
0.0
 49
0.0
 49
0.0
 49
0.0
 49
1.0
 49
0.0
 49
0.0
 49
0.0
 49
0.0
 49
1.0
175
     0
142
0.0208333333333333
142
0.0
142
0.0
142
0.0
142
0.0
142
0.0208333333333333
142
0.0
142
0.0
142
0.0
142
0.0
142
1.0
142
0.0
142
0.0
142
0.0
142
0.0
142
1.0
179
     0
144
0.0208333333333333
144
0.0
144
0.0
144
0.0
144
0.0
144
0.0208333333333333
144
0.0
144
0.0
144
0.0
144
0.0
144
1.0
144
0.0
144
0.0
144
0.0
144
0.0
144
1.0
147
0.0208333333333333
147
0.0
147
0.0
147
0.0
147
0.0
147
0.0208333333333333
147
0.0
147
0.0
147
0.0
147
0.0
147
1.0
147
0.0
147
0.0
147
0.0
147
0.0
147
1.0
  0
MATERIAL
  5
67D
102
{ACAD_XDICTIONARY
360
67E
102
}
102
{ACAD_REACTORS
330
66C
102
}
330
66C
100
AcDbMaterial
  1
Global
 72
     0
 43
0.0208333333333333
 43
0.0
 43
0.0
 43
0.0
 43
0.0
 43
0.0208333333333333
 43
0.0
 43
0.0
 43
0.0
 43
0.0
 43
1.0
 43
0.0
 43
0.0
 43
0.0
 43
0.0
 43
1.0
 77
     0
 47
0.0208333333333333
 47
0.0
 47
0.0
 47
0.0
 47
0.0
 47
0.0208333333333333
 47
0.0
 47
0.0
 47
0.0
 47
0.0
 47
1.0
 47
0.0
 47
0.0
 47
0.0
 47
0.0
 47
1.0
171
     0
 49
0.0208333333333333
 49
0.0
 49
0.0
 49
0.0
 49
0.0
 49
0.0208333333333333
 49
0.0
 49
0.0
 49
0.0
 49
0.0
 49
1.0
 49
0.0
 49
0.0
 49
0.0
 49
0.0
 49
1.0
175
     0
142
0.0208333333333333
142
0.0
142
0.0
142
0.0
142
0.0
142
0.0208333333333333
142
0.0
142
0.0
142
0.0
142
0.0
142
1.0
142
0.0
142
0.0
142
0.0
142
0.0
142
1.0
179
     0
144
0.0208333333333333
144
0.0
144
0.0
144
0.0
144
0.0
144
0.0208333333333333
144
0.0
144
0.0
144
0.0
144
0.0
144
1.0
144
0.0
144
0.0
144
0.0
144
0.0
144
1.0
147
0.0208333333333333
147
0.0
147
0.0
147
0.0
147
0.0
147
0.0208333333333333
147
0.0
147
0.0
147
0.0
147
0.0
147
1.0
147
0.0
147
0.0
147
0.0
147
0.0
147
1.0
  0
MLEADERSTYLE
  5
6C2
102
{ACAD_REACTORS
330
6C1
102
}
330
6C1
100
AcDbMLeaderStyle
170
     2
171
     1
172
     0
 90
        2
 40
0.0
 41
0.0
173
     1
 91
-1056964608
340
6B6
 92
       -2
290
     1
 42
0.09
291
     1
 43
0.36
  3
Standard
 44
0.18
300

342
6B1
174
     1
178
     6
175
     1
176
     0
 93
-1056964608
 45
0.18
292
     0
297
     0
 46
0.18
 94
-1056964608
 47
1.0
 49
1.0
140
1.0
293
     1
141
0.0
294
     1
177
     0
142
1.0
295
     0
296
     0
143
0.125
1001
ACAD_MLEADERVER
1070
     2
  0
MLINESTYLE
  5
6BB
102
{ACAD_REACTORS
330
6BA
102
}
330
6BA
100
AcDbMlineStyle
  2
STANDARD
 70
     0
  3

 62
   256
 51
90.0
 52
90.0
 71
     2
 49
0.5
 62
   256
  6
BYLAYER
 49
-0.5
 62
   256
  6
BYLAYER
  0
ACDBPLACEHOLDER
  5
66B
102
{ACAD_REACTORS
330
66A
102
}
330
66A
  0
SCALE
  5
69F
102
{ACAD_REACTORS
330
69E
102
}
330
69E
100
AcDbScale
 70
     0
300
1:1
140
1.0
141
1.0
290
     1
  0
SCALE
  5
6A0
102
{ACAD_REACTORS
330
69E
102
}
330
69E
100
AcDbScale
 70
     0
300
1/128" = 1'-0"
140
0.0078125
141
12.0
290
     0
  0
SCALE
  5
6A1
102
{ACAD_REACTORS
330
69E
102
}
330
69E
100
AcDbScale
 70
     0
300
1/64" = 1'-0"
140
0.015625
141
12.0
290
     0
  0
SCALE
  5
6A2
102
{ACAD_REACTORS
330
69E
102
}
330
69E
100
AcDbScale
 70
     0
300
1/32" = 1'-0"
140
0.03125
141
12.0
290
     0
  0
SCALE
  5
6A3
102
{ACAD_REACTORS
330
69E
102
}
330
69E
100
AcDbScale
 70
     0
300
1/16" = 1'-0"
140
0.0625
141
12.0
290
     0
  0
SCALE
  5
6A4
102
{ACAD_REACTORS
330
69E
102
}
330
69E
100
AcDbScale
 70
     0
300
3/32" = 1'-0"
140
0.09375
141
12.0
290
     0
  0
SCALE
  5
6A5
102
{ACAD_REACTORS
330
69E
102
}
330
69E
100
AcDbScale
 70
     0
300
1/8" = 1'-0"
140
0.125
141
12.0
290
     0
  0
SCALE
  5
6A6
102
{ACAD_REACTORS
330
69E
102
}
330
69E
100
AcDbScale
 70
     0
300
3/16" = 1'-0"
140
0.1875
141
12.0
290
     0
  0
SCALE
  5
6A7
102
{ACAD_REACTORS
330
69E
102
}
330
69E
100
AcDbScale
 70
     0
300
1/4" = 1'-0"
140
0.25
141
12.0
290
     0
  0
SCALE
  5
6A8
102
{ACAD_REACTORS
330
69E
102
}
330
69E
100
AcDbScale
 70
     0
300
3/8" = 1'-0"
140
0.375
141
12.0
290
     0
  0
SCALE
  5
6A9
102
{ACAD_REACTORS
330
69E
102
}
330
69E
100
AcDbScale
 70
     0
300
1/2" = 1'-0"
140
0.5
141
12.0
290
     0
  0
SCALE
  5
6AA
102
{ACAD_REACTORS
330
69E
102
}
330
69E
100
AcDbScale
 70
     0
300
3/4" = 1'-0"
140
0.75
141
12.0
290
     0
  0
SCALE
  5
6AB
102
{ACAD_REACTORS
330
69E
102
}
330
69E
100
AcDbScale
 70
     0
300
1" = 1'-0"
140
1.0
141
12.0
290
     0
  0
SCALE
  5
6AC
102
{ACAD_REACTORS
330
69E
102
}
330
69E
100
AcDbScale
 70
     0
300
1-1/2" = 1'-0"
140
1.5
141
12.0
290
     0
  0
SCALE
  5
6AD
102
{ACAD_REACTORS
330
69E
102
}
330
69E
100
AcDbScale
 70
     0
300
3" = 1'-0"
140
3.0
141
12.0
290
     0
  0
SCALE
  5
6AE
102
{ACAD_REACTORS
330
69E
102
}
330
69E
100
AcDbScale
 70
     0
300
6" = 1'-0"
140
6.0
141
12.0
290
     0
  0
SCALE
  5
6AF
102
{ACAD_REACTORS
330
69E
102
}
330
69E
100
AcDbScale
 70
     0
300
1'-0" = 1'-0"
140
12.0
141
12.0
290
     0
  0
ACDBSECTIONVIEWSTYLE
  5
6C4
102
{ACAD_XDICTIONARY
360
739
102
}
102
{ACAD_REACTORS
330
6C3
102
}
330
6C3
100
AcDbModelDocViewStyle
 70
     0
  3
Imperial24
290
     0
100
AcDbSectionViewStyle
 70
     0
 71
     0
 90
       78
 71
     1
340
6B1
 40
0.24
340
0
340
0
 40
0.24
300
I, O, Q, S, X, Z
 40
0.48
 90
        3
 40
0.18
 90
        1
 71
     2
340
6B8
 90
       25
340
6B8
 90
       50
 40
0.24
 40
0.0
 40
0.24
 71
     3
340
6B1
 40
0.24
 90
        1
 40
0.75
 90
        1
300
%<\AcVar ViewType \f "%tc1">% %<\AcVar ViewSectionStartId>%-%<\AcVar ViewSectionEndId>%\PSCALE %<\AcVar ViewScale \f "%sn">%
 71
     4
300
ANSI31
 40
1.0
 90
        0
290
     0
290
     0
 90
        6
 40
0.0
 40
1.570796326794896
 40
0.2617993877991494
 40
1.308996938995747
 40
-0.2617993877991494
 40
1.832595714594046
  0
TABLESTYLE
  5
6C0
102
{ACAD_XDICTIONARY
360
700
102
}
102
{ACAD_REACTORS
330
6BF
102
}
330
6BF
100
AcDbTableStyle
  3
Standard
 70
     0
 71
     0
 40
0.06
 41
0.06
280
     0
281
     0
  7
STANDARD
140
0.18
170
     2
 62
     0
 63
     7
283
     0
274
    -2
284
     1
 64
     0
275
    -2
285
     1
 65
     0
276
    -2
286
     1
 66
     0
277
    -2
287
     1
 67
     0
278
    -2
288
     1
 68
     0
279
    -2
289
     1
 69
     0
  7
STANDARD
140
0.25
170
     5
 62
     0
 63
     7
283
     0
274
    -2
284
     1
 64
     0
275
    -2
285
     1
 65
     0
276
    -2
286
     1
 66
     0
277
    -2
287
     1
 67
     0
278
    -2
288
     1
 68
     0
279
    -2
289
     1
 69
     0
  7
STANDARD
140
0.18
170
     5
 62
     0
 63
     7
283
     0
274
    -2
284
     1
 64
     0
275
    -2
285
     1
 65
     0
276
    -2
286
     1
 66
     0
277
    -2
287
     1
 67
     0
278
    -2
288
     1
 68
     0
279
    -2
289
     1
 69
     0
  0
VISUALSTYLE
  5
68B
102
{ACAD_XDICTIONARY
360
711
102
}
102
{ACAD_REACTORS
330
685
102
}
330
685
100
AcDbVisualStyle
  2
2dWireframe
 70
     4
 71
     0
 72
     2
 73
     0
 90
        0
 40
-0.6
 41
-30.0
 62
     5
 63
     7
 74
     1
 91
        4
 64
     7
 65
   257
 75
     1
175
     1
 42
1.0
 92
        0
 66
   257
 43
1.0
 76
     1
 77
     6
 78
     2
 67
     7
 79
     5
170
     0
171
     0
290
     0
174
     0
 93
        1
 44
0.0
173
     0
291
     0
 45
0.0
1001
ACAD
1000
AcDbSavedByObjectVersion
1070
     0
  0
VISUALSTYLE
  5
68A
102
{ACAD_XDICTIONARY
360
70F
102
}
102
{ACAD_REACTORS
330
685
102
}
330
685
100
AcDbVisualStyle
  2
Basic
 70
     7
 71
     1
 72
     0
 73
     1
 90
        0
 40
-0.6
 41
-30.0
 62
     5
 63
     7
 74
     0
 91
        4
 64
     7
 65
   257
 75
     1
175
     1
 42
1.0
 92
        8
 66
     7
 43
1.0
 76
     1
 77
     6
 78
     2
 67
     7
 79
     5
170
     0
171
     0
290
     0
174
     0
 93
        1
 44
0.0
173
     0
291
     1
 45
0.0
1001
ACAD
1000
AcDbSavedByObjectVersion
1070
     0
  0
VISUALSTYLE
  5
691
102
{ACAD_XDICTIONARY
360
71D
102
}
102
{ACAD_REACTORS
330
685
102
}
330
685
100
AcDbVisualStyle
  2
Brighten
 70
    12
 71
     2
 72
     2
 73
     0
 90
        0
 40
-0.6
 41
-30.0
 62
     5
 63
     7
 74
     1
 91
        4
 64
     7
 65
   257
 75
     1
175
     1
 42
1.0
 92
        8
 66
     7
 43
1.0
 76
     1
 77
     6
 78
     2
 67
     7
 79
     5
170
     0
171
     0
290
     0
174
     0
 93
        1
 44
50.0
173
     0
291
     1
 45
0.0
1001
ACAD
1000
AcDbSavedByObjectVersion
1070
     0
  0
VISUALSTYLE
  5
695
102
{ACAD_XDICTIONARY
360
725
102
}
102
{ACAD_REACTORS
330
685
102
}
330
685
100
AcDbVisualStyle
  2
ColorChange
 70
    16
 71
     2
 72
     2
 73
     3
 90
        0
 40
-0.6
 41
-30.0
 62
     5
 63
     8
 74
     1
 91
        4
 64
     7
 65
   257
 75
     1
175
     1
 42
1.0
 92
        8
 66
     8
 43
1.0
 76
     1
 77
     6
 78
     2
 67
     7
 79
     5
170
     0
171
     0
290
     0
174
     0
 93
        1
 44
0.0
173
     0
291
     1
 45
0.0
1001
ACAD
1000
AcDbSavedByObjectVersion
1070
     0
  0
VISUALSTYLE
  5
68E
102
{ACAD_XDICTIONARY
360
717
102
}
102
{ACAD_REACTORS
330
685
102
}
330
685
100
AcDbVisualStyle
  2
Conceptual
 70
     9
 71
     3
 72
     2
 73
     0
 90
        0
 40
-0.6
 41
-30.0
 62
     5
 63
     7
 74
     2
 91
        2
 64
     7
 65
   257
 75
     1
175
     1
 42
179.0
 92
        8
 66
     7
 43
1.0
 76
     1
 77
     6
 78
     2
 67
     7
 79
     3
170
     0
171
     0
290
     0
174
     0
 93
        1
 44
0.0
173
     0
291
     0
 45
0.0
1001
ACAD
1000
AcDbSavedByObjectVersion
1070
     0
  0
VISUALSTYLE
  5
690
102
{ACAD_XDICTIONARY
360
71B
102
}
102
{ACAD_REACTORS
330
685
102
}
330
685
100
AcDbVisualStyle
  2
Dim
 70
    11
 71
     2
 72
     2
 73
     0
 90
        0
 40
-0.6
 41
-30.0
 62
     5
 63
     7
 74
     1
 91
        4
 64
     7
 65
   257
 75
     1
175
     1
 42
1.0
 92
        8
 66
     7
 43
1.0
 76
     1
 77
     6
 78
     2
 67
     7
 79
     5
170
     0
171
     0
290
     0
174
     0
 93
        1
 44
-50.0
173
     0
291
     1
 45
0.0
1001
ACAD
1000
AcDbSavedByObjectVersion
1070
     0
  0
VISUALSTYLE
  5
69D
102
{ACAD_XDICTIONARY
360
735
102
}
102
{ACAD_REACTORS
330
685
102
}
330
685
100
AcDbVisualStyle
  2
EdgeColorOff
 70
    22
 71
     2
 72
     2
 73
     0
 90
        0
 40
-0.6
 41
-30.0
 62
     5
 63
     7
 74
     1
 91
        4
 64
     7
 65
   257
 75
     1
175
     1
 42
1.0
 92
        8
 66
     7
 43
1.0
 76
     1
 77
     6
 78
     2
 67
     7
 79
     5
170
     0
171
     0
290
     0
174
     0
 93
        1
 44
0.0
173
     0
291
     1
 45
0.0
1001
ACAD
1000
AcDbSavedByObjectVersion
1070
     0
  0
VISUALSTYLE
  5
694
102
{ACAD_XDICTIONARY
360
723
102
}
102
{ACAD_REACTORS
330
685
102
}
330
685
100
AcDbVisualStyle
  2
Facepattern
 70
    15
 71
     2
 72
     2
 73
     0
 90
        0
 40
-0.6
 41
-30.0
 62
     5
 63
     7
 74
     1
 91
        4
 64
     7
 65
   257
 75
     1
175
     1
 42
1.0
 92
        8
 66
     7
 43
1.0
 76
     1
 77
     6
 78
     2
 67
     7
 79
     5
170
     0
171
     0
290
     0
174
     0
 93
        1
 44
0.0
173
     0
291
     1
 45
0.0
1001
ACAD
1000
AcDbSavedByObjectVersion
1070
     0
  0
VISUALSTYLE
  5
686
102
{ACAD_XDICTIONARY
360
707
102
}
102
{ACAD_REACTORS
330
685
102
}
330
685
100
AcDbVisualStyle
  2
Flat
 70
     0
 71
     2
 72
     1
 73
     1
 90
        2
 40
-0.6
 41
30.0
 62
     5
 63
     7
 74
     0
 91
        0
 64
     7
 65
   257
 75
     1
175
     1
 42
1.0
 92
        8
 66
     7
 43
1.0
 76
     1
 77
     6
 78
     2
 67
     7
 79
     5
170
     0
171
     0
290
     0
174
     0
 93
       13
 44
0.0
173
     0
291
     1
 45
0.0
1001
ACAD
1000
AcDbSavedByObjectVersion
1070
     0
  0
VISUALSTYLE
  5
687
102
{ACAD_XDICTIONARY
360
709
102
}
102
{ACAD_REACTORS
330
685
102
}
330
685
100
AcDbVisualStyle
  2
FlatWithEdges
 70
     1
 71
     2
 72
     1
 73
     1
 90
        2
 40
-0.6
 41
30.0
 62
     5
 63
     7
 74
     1
 91
        0
 64
     7
 65
   257
 75
     1
175
     1
 42
1.0
 92
        0
 66
   257
 43
1.0
 76
     1
 77
     6
 78
     2
 67
     7
 79
     5
170
     0
171
     0
290
     0
174
     0
 93
       13
 44
0.0
173
     0
291
     1
 45
0.0
1001
ACAD
1000
AcDbSavedByObjectVersion
1070
     0
  0
VISUALSTYLE
  5
688
102
{ACAD_XDICTIONARY
360
70B
102
}
102
{ACAD_REACTORS
330
685
102
}
330
685
100
AcDbVisualStyle
  2
Gouraud
 70
     2
 71
     2
 72
     2
 73
     1
 90
        2
 40
-0.6
 41
30.0
 62
     5
 63
     7
 74
     0
 91
        0
 64
     7
 65
   257
 75
     1
175
     1
 42
1.0
 92
        0
 66
     7
 43
1.0
 76
     1
 77
     6
 78
     2
 67
     7
 79
     5
170
     0
171
     0
290
     0
174
     0
 93
       13
 44
0.0
173
     0
291
     1
 45
0.0
1001
ACAD
1000
AcDbSavedByObjectVersion
1070
     0
  0
VISUALSTYLE
  5
689
102
{ACAD_XDICTIONARY
360
70D
102
}
102
{ACAD_REACTORS
330
685
102
}
330
685
100
AcDbVisualStyle
  2
GouraudWithEdges
 70
     3
 71
     2
 72
     2
 73
     1
 90
        2
 40
-0.6
 41
30.0
 62
     5
 63
     7
 74
     1
 91
        0
 64
     7
 65
   257
 75
     1
175
     1
 42
1.0
 92
        0
 66
   257
 43
1.0
 76
     1
 77
     6
 78
     2
 67
     7
 79
     5
170
     0
171
     0
290
     0
174
     0
 93
       13
 44
0.0
173
     0
291
     1
 45
0.0
1001
ACAD
1000
AcDbSavedByObjectVersion
1070
     0
  0
VISUALSTYLE
  5
68D
102
{ACAD_XDICTIONARY
360
715
102
}
102
{ACAD_REACTORS
330
685
102
}
330
685
100
AcDbVisualStyle
  2
Hidden
 70
     6
 71
     1
 72
     2
 73
     2
 90
        0
 40
-0.6
 41
-30.0
 62
     5
 63
     7
 74
     2
 91
        2
 64
     7
 65
   257
 75
     2
175
     1
 42
40.0
 92
        0
 66
   257
 43
1.0
 76
     1
 77
     6
 78
     2
 67
     7
 79
     3
170
     0
171
     0
290
     0
174
     0
 93
        1
 44
0.0
173
     0
291
     0
 45
0.0
1001
ACAD
1000
AcDbSavedByObjectVersion
1070
     0
  0
VISUALSTYLE
  5
69B
102
{ACAD_XDICTIONARY
360
731
102
}
102
{ACAD_REACTORS
330
685
102
}
330
685
100
AcDbVisualStyle
  2
JitterOff
 70
    20
 71
     2
 72
     2
 73
     0
 90
        0
 40
-0.6
 41
-30.0
 62
     5
 63
     7
 74
     1
 91
        4
 64
     7
 65
   257
 75
     1
175
     1
 42
1.0
 92
       10
 66
     7
 43
1.0
 76
     1
 77
     6
 78
     2
 67
     7
 79
     5
170
     0
171
     0
290
     0
174
     0
 93
        1
 44
0.0
173
     0
291
     1
 45
0.0
1001
ACAD
1000
AcDbSavedByObjectVersion
1070
     0
  0
VISUALSTYLE
  5
693
102
{ACAD_XDICTIONARY
360
721
102
}
102
{ACAD_REACTORS
330
685
102
}
330
685
100
AcDbVisualStyle
  2
Linepattern
 70
    14
 71
     2
 72
     2
 73
     0
 90
        0
 40
-0.6
 41
-30.0
 62
     5
 63
     7
 74
     1
 91
        4
 64
     7
 65
   257
 75
     7
175
     7
 42
1.0
 92
        8
 66
     7
 43
1.0
 76
     1
 77
     6
 78
     2
 67
     7
 79
     5
170
     0
171
     0
290
     0
174
     0
 93
        1
 44
0.0
173
     0
291
     1
 45
0.0
1001
ACAD
1000
AcDbSavedByObjectVersion
1070
     0
  0
VISUALSTYLE
  5
69C
102
{ACAD_XDICTIONARY
360
733
102
}
102
{ACAD_REACTORS
330
685
102
}
330
685
100
AcDbVisualStyle
  2
OverhangOff
 70
    21
 71
     2
 72
     2
 73
     0
 90
        0
 40
-0.6
 41
-30.0
 62
     5
 63
     7
 74
     1
 91
        4
 64
     7
 65
   257
 75
     1
175
     1
 42
1.0
 92
        9
 66
     7
 43
1.0
 76
     1
 77
     6
 78
     2
 67
     7
 79
     5
170
     0
171
     0
290
     0
174
     0
 93
        1
 44
0.0
173
     0
291
     1
 45
0.0
1001
ACAD
1000
AcDbSavedByObjectVersion
1070
     0
  0
VISUALSTYLE
  5
68F
102
{ACAD_XDICTIONARY
360
719
102
}
102
{ACAD_REACTORS
330
685
102
}
330
685
100
AcDbVisualStyle
  2
Realistic
 70
     8
 71
     2
 72
     3
 73
     0
 90
        2
 40
-0.6
 41
30.0
 62
     5
 63
     7
 74
     0
 91
        0
 64
     7
 65
   257
 75
     1
175
     1
 42
1.0
 92
        8
 66
   257
 43
1.0
 76
     1
 77
     6
 78
     2
 67
     7
 79
     3
170
     0
171
     0
290
     0
174
     0
 93
       13
 44
0.0
173
     0
291
     0
 45
0.0
1001
ACAD
1000
AcDbSavedByObjectVersion
1070
     0
  0
VISUALSTYLE
  5
69A
102
{ACAD_XDICTIONARY
360
72F
102
}
102
{ACAD_REACTORS
330
685
102
}
330
685
100
AcDbVisualStyle
  2
Shaded
 70
    27
 71
     2
 72
     2
 73
     1
 90
        2
 40
-0.6
 41
30.0
 62
     5
 63
     7
 74
     0
 91
        4
 64
     7
 65
   257
 75
     1
175
     1
 42
1.0
 92
        8
 66
   257
 43
1.0
 76
     1
 77
     6
 78
     2
 67
     8
 79
     3
170
     0
171
     0
290
     0
174
     0
 93
        5
 44
0.0
173
     0
291
     0
 45
0.0
1001
ACAD
1000
AcDbSavedByObjectVersion
1070
     0
  0
VISUALSTYLE
  5
699
102
{ACAD_XDICTIONARY
360
72D
102
}
102
{ACAD_REACTORS
330
685
102
}
330
685
100
AcDbVisualStyle
  2
Shaded with edges
 70
    26
 71
     2
 72
     2
 73
     1
 90
        2
 40
-0.6
 41
30.0
 62
     5
 63
     7
 74
     1
 91
       10
 64
     7
 65
   257
 75
     2
175
     1
 42
1.0
 92
        8
 66
   257
 43
1.0
 76
     1
 77
     6
 78
     2
 67
     7
 79
     3
170
     0
171
     0
290
     0
174
     0
 93
        5
 44
0.0
173
     0
291
     0
 45
0.0
1001
ACAD
1000
AcDbSavedByObjectVersion
1070
     0
  0
VISUALSTYLE
  5
696
102
{ACAD_XDICTIONARY
360
727
102
}
102
{ACAD_REACTORS
330
685
102
}
330
685
100
AcDbVisualStyle
  2
Shades of Gray
 70
    23
 71
     2
 72
     2
 73
     3
 90
        0
 40
-0.6
 41
-30.0
 62
     5
 63
     7
 74
     2
 91
        2
 64
     7
 65
     7
 75
     1
175
     1
 42
40.0
 92
        8
 66
     7
 43
1.0
 76
     1
 77
     6
 78
     2
 67
     7
 79
     3
170
     0
171
     0
290
     0
174
     0
 93
        1
 44
0.0
173
     0
291
     0
 45
0.0
1001
ACAD
1000
AcDbSavedByObjectVersion
1070
     0
  0
VISUALSTYLE
  5
697
102
{ACAD_XDICTIONARY
360
729
102
}
102
{ACAD_REACTORS
330
685
102
}
330
685
100
AcDbVisualStyle
  2
Sketchy
 70
    24
 71
     1
 72
     2
 73
     2
 90
        0
 40
-0.6
 41
-30.0
 62
     5
 63
     7
 74
     2
 91
        2
 64
     7
 65
     7
 75
     1
175
     1
 42
40.0
 92
       11
 66
     7
 43
1.0
 76
     1
 77
     6
 78
     2
 67
     7
 79
     6
170
     0
171
     0
290
     0
174
     0
 93
        1
 44
0.0
173
     0
291
     0
 45
0.0
1001
ACAD
1000
AcDbSavedByObjectVersion
1070
     0
  0
VISUALSTYLE
  5
692
102
{ACAD_XDICTIONARY
360
71F
102
}
102
{ACAD_REACTORS
330
685
102
}
330
685
100
AcDbVisualStyle
  2
Thicken
 70
    13
 71
     2
 72
     2
 73
     0
 90
        0
 40
-0.6
 41
-30.0
 62
     5
 63
     7
 74
     1
 91
        4
 64
     7
 65
   257
 75
     1
175
     1
 42
1.0
 92
       12
 66
     7
 43
1.0
 76
     1
 77
     6
 78
     2
 67
     7
 79
     5
170
     0
171
     0
290
     0
174
     0
 93
        1
 44
0.0
173
     0
291
     1
 45
0.0
1001
ACAD
1000
AcDbSavedByObjectVersion
1070
     0
  0
VISUALSTYLE
  5
68C
102
{ACAD_XDICTIONARY
360
713
102
}
102
{ACAD_REACTORS
330
685
102
}
330
685
100
AcDbVisualStyle
  2
Wireframe
 70
     5
 71
     0
 72
     2
 73
     0
 90
        0
 40
-0.6
 41
-30.0
 62
     5
 63
     7
 74
     1
 91
        4
 64
     7
 65
   257
 75
     1
175
     1
 42
1.0
 92
        0
 66
   257
 43
1.0
 76
     1
 77
     6
 78
     2
 67
     7
 79
     3
170
     0
171
     0
290
     0
174
     0
 93
        1
 44
0.0
173
     0
291
     0
 45
0.0
1001
ACAD
1000
AcDbSavedByObjectVersion
1070
     0
  0
VISUALSTYLE
  5
698
102
{ACAD_XDICTIONARY
360
72B
102
}
102
{ACAD_REACTORS
330
685
102
}
330
685
100
AcDbVisualStyle
  2
X-Ray
 70
    25
 71
     2
 72
     2
 73
     1
 90
        1
 40
0.5
 41
-30.0
 62
     5
 63
     7
 74
     1
 91
        0
 64
     7
 65
   257
 75
     1
175
     1
 42
1.0
 92
        8
 66
     7
 43
1.0
 76
     1
 77
     6
 78
     2
 67
     7
 79
     3
170
     0
171
     0
290
     0
174
     0
 93
       13
 44
0.0
173
     0
291
     0
 45
0.0
1001
ACAD
1000
AcDbSavedByObjectVersion
1070
     0
  0
DICTIONARYVAR
  5
6FA
102
{ACAD_REACTORS
330
6F5
102
}
330
6F5
100
DictionaryVariables
280
     0
  1
1:1
  0
DICTIONARYVAR
  5
6F7
102
{ACAD_REACTORS
330
6F5
102
}
330
6F5
100
DictionaryVariables
280
     0
  1
STANDARD
  0
DICTIONARYVAR
  5
6F6
102
{ACAD_REACTORS
330
6F5
102
}
330
6F5
100
DictionaryVariables
280
     0
  1
STANDARD
  0
DICTIONARYVAR
  5
6F8
102
{ACAD_REACTORS
330
6F5
102
}
330
6F5
100
DictionaryVariables
280
     0
  1
Imperial24
  0
DICTIONARYVAR
  5
6F9
102
{ACAD_REACTORS
330
6F5
102
}
330
6F5
100
DictionaryVariables
280
     0
  1
Imperial24
  0
DICTIONARYVAR
  5
6FD
102
{ACAD_REACTORS
330
6F5
102
}
330
6F5
100
DictionaryVariables
280
     0
  1
1
  0
DICTIONARYVAR
  5
6FC
102
{ACAD_REACTORS
330
6F5
102
}
330
6F5
100
DictionaryVariables
280
     0
  1
0
  0
DICTIONARYVAR
  5
6FB
102
{ACAD_REACTORS
330
6F5
102
}
330
6F5
100
DictionaryVariables
280
     0
  1
127
  0
DICTIONARYVAR
  5
6FE
102
{ACAD_REACTORS
330
6F5
102
}
330
6F5
100
DictionaryVariables
280
     0
  1
2
  0
DICTIONARY
  5
73B
330
6C6
100
AcDbDictionary
280
     1
281
     1
  3
ACAD_XREC_ROUNDTRIP
360
73C
  0
DICTIONARY
  5
73F
330
6CE
100
AcDbDictionary
280
     1
281
     1
  3
ACAD_XREC_ROUNDTRIP
360
740
  0
DICTIONARY
  5
73D
330
6CA
100
AcDbDictionary
280
     1
281
     1
  3
ACAD_XREC_ROUNDTRIP
360
73E
  0
DICTIONARY
  5
676
330
675
100
AcDbDictionary
280
     1
281
     1
  3
ACAD_XREC_ROUNDTRIP
360
705
  3
BUMPTILE
360
678
  3
DIFFUSETILE
360
677
  3
OPACITYTILE
360
67B
  3
REFLECTIONTILE
360
67A
  3
REFRACTIONTILE
360
67C
  3
SPECULARTILE
360
679
  0
DICTIONARY
  5
66E
330
66D
100
AcDbDictionary
280
     1
281
     1
  3
ACAD_XREC_ROUNDTRIP
360
704
  3
BUMPTILE
360
670
  3
DIFFUSETILE
360
66F
  3
OPACITYTILE
360
673
  3
REFLECTIONTILE
360
672
  3
REFRACTIONTILE
360
674
  3
SPECULARTILE
360
671
  0
DICTIONARY
  5
67E
330
67D
100
AcDbDictionary
280
     1
281
     1
  3
ACAD_XREC_ROUNDTRIP
360
706
  3
BUMPTILE
360
680
  3
DIFFUSETILE
360
67F
  3
OPACITYTILE
360
683
  3
REFLECTIONTILE
360
682
  3
REFRACTIONTILE
360
684
  3
SPECULARTILE
360
681
  0
DICTIONARY
  5
739
330
6C4
100
AcDbDictionary
280
     1
281
     1
  3
ACAD_XREC_ROUNDTRIP
360
73A
  0
DICTIONARY
  5
700
330
6C0
100
AcDbDictionary
280
     1
281
     1
  3
ACAD_ROUNDTRIP_2008_TABLESTYLE_CELLSTYLEMAP
360
701
  3
ACAD_XREC_ROUNDTRIP
360
737
  0
DICTIONARY
  5
711
330
68B
100
AcDbDictionary
280
     1
281
     1
  3
ACAD_XREC_ROUNDTRIP
360
712
  0
DICTIONARY
  5
70F
330
68A
100
AcDbDictionary
280
     1
281
     1
  3
ACAD_XREC_ROUNDTRIP
360
710
  0
DICTIONARY
  5
71D
330
691
100
AcDbDictionary
280
     1
281
     1
  3
ACAD_XREC_ROUNDTRIP
360
71E
  0
DICTIONARY
  5
725
330
695
100
AcDbDictionary
280
     1
281
     1
  3
ACAD_XREC_ROUNDTRIP
360
726
  0
DICTIONARY
  5
717
330
68E
100
AcDbDictionary
280
     1
281
     1
  3
ACAD_XREC_ROUNDTRIP
360
718
  0
DICTIONARY
  5
71B
330
690
100
AcDbDictionary
280
     1
281
     1
  3
ACAD_XREC_ROUNDTRIP
360
71C
  0
DICTIONARY
  5
735
330
69D
100
AcDbDictionary
280
     1
281
     1
  3
ACAD_XREC_ROUNDTRIP
360
736
  0
DICTIONARY
  5
723
330
694
100
AcDbDictionary
280
     1
281
     1
  3
ACAD_XREC_ROUNDTRIP
360
724
  0
DICTIONARY
  5
707
330
686
100
AcDbDictionary
280
     1
281
     1
  3
ACAD_XREC_ROUNDTRIP
360
708
  0
DICTIONARY
  5
709
330
687
100
AcDbDictionary
280
     1
281
     1
  3
ACAD_XREC_ROUNDTRIP
360
70A
  0
DICTIONARY
  5
70B
330
688
100
AcDbDictionary
280
     1
281
     1
  3
ACAD_XREC_ROUNDTRIP
360
70C
  0
DICTIONARY
  5
70D
330
689
100
AcDbDictionary
280
     1
281
     1
  3
ACAD_XREC_ROUNDTRIP
360
70E
  0
DICTIONARY
  5
715
330
68D
100
AcDbDictionary
280
     1
281
     1
  3
ACAD_XREC_ROUNDTRIP
360
716
  0
DICTIONARY
  5
731
330
69B
100
AcDbDictionary
280
     1
281
     1
  3
ACAD_XREC_ROUNDTRIP
360
732
  0
DICTIONARY
  5
721
330
693
100
AcDbDictionary
280
     1
281
     1
  3
ACAD_XREC_ROUNDTRIP
360
722
  0
DICTIONARY
  5
733
330
69C
100
AcDbDictionary
280
     1
281
     1
  3
ACAD_XREC_ROUNDTRIP
360
734
  0
DICTIONARY
  5
719
330
68F
100
AcDbDictionary
280
     1
281
     1
  3
ACAD_XREC_ROUNDTRIP
360
71A
  0
DICTIONARY
  5
72F
330
69A
100
AcDbDictionary
280
     1
281
     1
  3
ACAD_XREC_ROUNDTRIP
360
730
  0
DICTIONARY
  5
72D
330
699
100
AcDbDictionary
280
     1
281
     1
  3
ACAD_XREC_ROUNDTRIP
360
72E
  0
DICTIONARY
  5
727
330
696
100
AcDbDictionary
280
     1
281
     1
  3
ACAD_XREC_ROUNDTRIP
360
728
  0
DICTIONARY
  5
729
330
697
100
AcDbDictionary
280
     1
281
     1
  3
ACAD_XREC_ROUNDTRIP
360
72A
  0
DICTIONARY
  5
71F
330
692
100
AcDbDictionary
280
     1
281
     1
  3
ACAD_XREC_ROUNDTRIP
360
720
  0
DICTIONARY
  5
713
330
68C
100
AcDbDictionary
280
     1
281
     1
  3
ACAD_XREC_ROUNDTRIP
360
714
  0
DICTIONARY
  5
72B
330
698
100
AcDbDictionary
280
     1
281
     1
  3
ACAD_XREC_ROUNDTRIP
360
72C
  0
XRECORD
  5
73C
102
{ACAD_REACTORS
330
73B
102
}
330
73B
100
AcDbXrecord
280
     1
102
DISPLAYNAME
  1
Imperial24
102
FLAGS
 90
        0
  0
XRECORD
  5
740
102
{ACAD_REACTORS
330
73F
102
}
330
73F
100
AcDbXrecord
280
     1
102
SHADEPLOT
 70
     0
102
SHADEPLOTRESLEVEL
 70
     2
102
SHADEPLOTCUSTOMDPI
 70
   300
  0
XRECORD
  5
73E
102
{ACAD_REACTORS
330
73D
102
}
330
73D
100
AcDbXrecord
280
     1
102
SHADEPLOT
 70
     0
102
SHADEPLOTRESLEVEL
 70
     2
102
SHADEPLOTCUSTOMDPI
 70
   300
  0
XRECORD
  5
705
102
{ACAD_REACTORS
330
676
102
}
330
676
100
AcDbXrecord
280
     1
102
MATERIAL
148
0.0
149
0.0
149
0.0
 93
        0
 94
      127
282
     0
 72
     0
 77
     0
171
     0
175
     0
179
     0
273
     0
  0
XRECORD
  5
678
102
{ACAD_REACTORS
330
676
102
}
330
676
100
AcDbXrecord
280
     1
270
     1
271
     1
  0
XRECORD
  5
677
102
{ACAD_REACTORS
330
676
102
}
330
676
100
AcDbXrecord
280
     1
270
     1
271
     1
  0
XRECORD
  5
67B
102
{ACAD_REACTORS
330
676
102
}
330
676
100
AcDbXrecord
280
     1
270
     1
271
     1
  0
XRECORD
  5
67A
102
{ACAD_REACTORS
330
676
102
}
330
676
100
AcDbXrecord
280
     1
270
     1
271
     1
  0
XRECORD
  5
67C
102
{ACAD_REACTORS
330
676
102
}
330
676
100
AcDbXrecord
280
     1
270
     1
271
     1
  0
XRECORD
  5
679
102
{ACAD_REACTORS
330
676
102
}
330
676
100
AcDbXrecord
280
     1
270
     1
271
     1
  0
XRECORD
  5
704
102
{ACAD_REACTORS
330
66E
102
}
330
66E
100
AcDbXrecord
280
     1
102
MATERIAL
148
0.0
149
0.0
149
0.0
 93
        0
 94
      127
282
     0
 72
     0
 77
     0
171
     0
175
     0
179
     0
273
     0
  0
XRECORD
  5
670
102
{ACAD_REACTORS
330
66E
102
}
330
66E
100
AcDbXrecord
280
     1
270
     1
271
     1
  0
XRECORD
  5
66F
102
{ACAD_REACTORS
330
66E
102
}
330
66E
100
AcDbXrecord
280
     1
270
     1
271
     1
  0
XRECORD
  5
673
102
{ACAD_REACTORS
330
66E
102
}
330
66E
100
AcDbXrecord
280
     1
270
     1
271
     1
  0
XRECORD
  5
672
102
{ACAD_REACTORS
330
66E
102
}
330
66E
100
AcDbXrecord
280
     1
270
     1
271
     1
  0
XRECORD
  5
674
102
{ACAD_REACTORS
330
66E
102
}
330
66E
100
AcDbXrecord
280
     1
270
     1
271
     1
  0
XRECORD
  5
671
102
{ACAD_REACTORS
330
66E
102
}
330
66E
100
AcDbXrecord
280
     1
270
     1
271
     1
  0
XRECORD
  5
706
102
{ACAD_REACTORS
330
67E
102
}
330
67E
100
AcDbXrecord
280
     1
102
MATERIAL
148
0.0
149
0.0
149
0.0
 93
        0
 94
      127
282
     0
 72
     0
 77
     0
171
     0
175
     0
179
     0
273
     0
  0
XRECORD
  5
680
102
{ACAD_REACTORS
330
67E
102
}
330
67E
100
AcDbXrecord
280
     1
270
     1
271
     1
  0
XRECORD
  5
67F
102
{ACAD_REACTORS
330
67E
102
}
330
67E
100
AcDbXrecord
280
     1
270
     1
271
     1
  0
XRECORD
  5
683
102
{ACAD_REACTORS
330
67E
102
}
330
67E
100
AcDbXrecord
280
     1
270
     1
271
     1
  0
XRECORD
  5
682
102
{ACAD_REACTORS
330
67E
102
}
330
67E
100
AcDbXrecord
280
     1
270
     1
271
     1
  0
XRECORD
  5
684
102
{ACAD_REACTORS
330
67E
102
}
330
67E
100
AcDbXrecord
280
     1
270
     1
271
     1
  0
XRECORD
  5
681
102
{ACAD_REACTORS
330
67E
102
}
330
67E
100
AcDbXrecord
280
     1
270
     1
271
     1
  0
XRECORD
  5
73A
102
{ACAD_REACTORS
330
739
102
}
330
739
100
AcDbXrecord
280
     1
102
DISPLAYNAME
  1
Imperial24
102
FLAGS
 90
        0
  0
CELLSTYLEMAP
  5
701
102
{ACAD_REACTORS
330
700
102
}
330
700
100
AcDbCellStyleMap
 90
        3
300
CELLSTYLE
  1
TABLEFORMAT_BEGIN
 90
        5
170
     1
 91
        0
 92
    32768
 62
   257
 93
        1
300
CONTENTFORMAT
  1
CONTENTFORMAT_BEGIN
 90
        0
 91
        0
 92
      512
 93
        0
300

 40
0.0
140
1.0
 94
        5
 62
     0
340
6B1
144
0.25
309
CONTENTFORMAT_END
171
     0
 94
        0
309
TABLEFORMAT_END
  1
CELLSTYLE_BEGIN
 90
        1
 91
        1
300
_TITLE
309
CELLSTYLE_END
300
CELLSTYLE
  1
TABLEFORMAT_BEGIN
 90
        5
170
     1
 91
        0
 92
        0
 62
   257
 93
        1
300
CONTENTFORMAT
  1
CONTENTFORMAT_BEGIN
 90
        0
 91
        0
 92
      512
 93
        0
300

 40
0.0
140
1.0
 94
        5
 62
     0
340
6B1
144
0.18
309
CONTENTFORMAT_END
171
     0
 94
        0
309
TABLEFORMAT_END
  1
CELLSTYLE_BEGIN
 90
        2
 91
        1
300
_HEADER
309
CELLSTYLE_END
300
CELLSTYLE
  1
TABLEFORMAT_BEGIN
 90
        5
170
     1
 91
        0
 92
        0
 62
   257
 93
        1
300
CONTENTFORMAT
  1
CONTENTFORMAT_BEGIN
 90
        0
 91
        0
 92
      512
 93
        0
300

 40
0.0
140
1.0
 94
        2
 62
     0
340
6B1
144
0.18
309
CONTENTFORMAT_END
171
     0
 94
        0
309
TABLEFORMAT_END
  1
CELLSTYLE_BEGIN
 90
        3
 91
        2
300
_DATA
309
CELLSTYLE_END
  0
XRECORD
  5
737
102
{ACAD_REACTORS
330
700
102
}
330
700
100
AcDbXrecord
280
     1
102
ACAD_ROUNDTRIP_PRE2007_TABLESTYLE
 90
      512
 91
        0
  1

 92
      512
 93
        0
  2

 94
      512
 95
        0
  3

  0
XRECORD
  5
712
102
{ACAD_REACTORS
330
711
102
}
330
711
100
AcDbXrecord
280
     1
102
RTVSPost2010Prop28
280
     1
102
RTVSPost2010PropOp28
 70
     1
102
RTVSPost2010Prop29
280
     1
102
RTVSPost2010PropOp29
 70
     1
102
RTVSPost2010Prop30
280
     0
102
RTVSPost2010PropOp30
 70
     1
102
RTVSPost2010Prop31
280
     0
102
RTVSPost2010PropOp31
 70
     1
102
RTVSPost2010Prop32
280
     0
102
RTVSPost2010PropOp32
 70
     1
102
RTVSPost2010Prop33
280
     0
102
RTVSPost2010PropOp33
 70
     1
102
RTVSPost2010Prop34
280
     0
102
RTVSPost2010PropOp34
 70
     1
102
RTVSPost2010Prop35
280
     0
102
RTVSPost2010PropOp35
 70
     1
102
RTVSPost2010Prop36
280
     0
102
RTVSPost2010PropOp36
 70
     1
102
RTVSPost2010Prop37
 90
       50
102
RTVSPost2010PropOp37
 70
     1
102
RTVSPost2010Prop38
140
0.0
102
RTVSPost2010PropOp38
 70
     1
102
RTVSPost2010Prop39
140
1.0
102
RTVSPost2010PropOp39
 70
     1
102
RTVSPost2010Prop40
 90
        0
102
RTVSPost2010PropOp40
 70
     1
102
RTVSPost2010Prop41ColorIndex
 90
       18
102
RTVSPost2010Prop41ColorRGB
 90
        0
102
RTVSPost2010PropOp41
 70
     1
102
RTVSPost2010Prop42
 90
       50
102
RTVSPost2010PropOp42
 70
     1
102
RTVSPost2010Prop43
 90
        3
102
RTVSPost2010PropOp43
 70
     1
102
RTVSPost2010Prop44ColorIndex
 90
        5
102
RTVSPost2010Prop44ColorRGB
 90
      255
102
RTVSPost2010PropOp44
 70
     1
102
RTVSPost2010Prop45
280
     0
102
RTVSPost2010PropOp45
 70
     1
102
RTVSPost2010Prop46
 90
       50
102
RTVSPost2010PropOp46
 70
     1
102
RTVSPost2010Prop47
 90
       50
102
RTVSPost2010PropOp47
 70
     1
102
RTVSPost2010Prop48
 90
       50
102
RTVSPost2010PropOp48
 70
     1
102
RTVSPost2010Prop49
280
     0
102
RTVSPost2010PropOp49
 70
     1
102
RTVSPost2010Prop50
 90
       50
102
RTVSPost2010PropOp50
 70
     1
102
RTVSPost2010Prop51ColorIndex
 90
      256
102
RTVSPost2010Prop51ColorRGB
 90
-16777216
102
RTVSPost2010PropOp51
 70
     0
102
RTVSPost2010Prop52
140
1.0
102
RTVSPost2010PropOp52
 70
     0
102
RTVSPost2010Prop53
 90
        2
102
RTVSPost2010PropOp53
 70
     1
102
RTVSPost2010Prop54
  1
strokes_ogs.tif
102
RTVSPost2010PropOp54
 70
     1
102
RTVSPost2010Prop55
280
     0
102
RTVSPost2010PropOp55
 70
     1
102
RTVSPost2010Prop56
140
1.0
102
RTVSPost2010PropOp56
 70
     1
102
RTVSPost2010Prop57
140
1.0
102
RTVSPost2010PropOp57
 70
     1
102
RTVSPropertyOp0
 70
     1
102
RTVSPropertyOp1
 70
     1
102
RTVSPropertyOp2
 70
     1
102
RTVSPropertyOp3
 70
     1
102
RTVSPropertyOp4
 70
     1
102
RTVSPropertyOp5
 70
     1
102
RTVSPropertyOp6
 70
     1
102
RTVSPropertyOp7
 70
     1
102
RTVSPropertyOp8
 70
     1
102
RTVSPropertyOp9
 70
     1
102
RTVSPropertyOp10
 70
     1
102
RTVSPropertyOp11
 70
     1
102
RTVSPropertyOp12
 70
     1
102
RTVSPropertyOp13
 70
     1
102
RTVSPropertyOp14
 70
     1
102
RTVSPropertyOp15
 70
     1
102
RTVSPropertyOp16
 70
     1
102
RTVSPropertyOp17
 70
     1
102
RTVSPropertyOp18
 70
     1
102
RTVSPropertyOp19
 70
     1
102
RTVSPropertyOp20
 70
     1
102
RTVSPropertyOp21
 70
     1
102
RTVSPropertyOp22
 70
     1
102
RTVSPropertyOp23
 70
     1
102
RTVSPropertyOp24
 70
     1
102
RTVSPropertyOp25
 70
     1
102
RTVSPropertyOp26
 70
     1
102
RTVSPropertyOp27
 70
     1
102
RTVSPropertyOp28
 70
     1
102
RTVSPropertyOp29
 70
     1
102
RTVSPropertyOp30
 70
     1
102
RTVSPropertyOp31
 70
     1
102
RTVSPropertyOp32
 70
     1
102
RTVSPropertyOp33
 70
     1
102
RTVSPropertyOp34
 70
     1
102
RTVSPropertyOp35
 70
     1
102
RTVSPropertyOp36
 70
     1
102
RTVSPropertyOp37
 70
     1
102
RTVSPropertyOp38
 70
     1
102
RTVSPropertyOp39
 70
     1
102
RTVSPropertyOp40
 70
     1
102
RTVSPropertyOp41
 70
     1
102
RTVSPropertyOp42
 70
     1
102
RTVSPropertyOp43
 70
     1
102
RTVSPropertyOp44
 70
     1
102
RTVSPropertyOp45
 70
     1
102
RTVSPropertyOp46
 70
     1
102
RTVSPropertyOp47
 70
     1
102
RTVSPropertyOp48
 70
     1
102
RTVSPropertyOp49
 70
     1
102
RTVSPropertyOp50
 70
     1
102
RTVSPropertyOp51
 70
     0
102
RTVSPropertyOp52
 70
     0
102
RTVSPropertyOp53
 70
     1
102
RTVSPropertyOp54
 70
     1
102
RTVSPropertyOp55
 70
     1
102
RTVSPropertyOp56
 70
     1
102
RTVSPropertyOp57
 70
     1
102
RTVSPropertyOp58
 70
     1
102
RTVSPropertyOp59
 70
     1
102
RTVSPropertyOp60
 70
     1
102
RTVSPropertyOp61
 70
     1
102
RTVSPropertyOp62
 70
     1
  0
XRECORD
  5
710
102
{ACAD_REACTORS
330
70F
102
}
330
70F
100
AcDbXrecord
280
     1
102
RTVSPost2010Prop28
280
     0
102
RTVSPost2010PropOp28
 70
     1
102
RTVSPost2010Prop29
280
     1
102
RTVSPost2010PropOp29
 70
     1
102
RTVSPost2010Prop30
280
     1
102
RTVSPost2010PropOp30
 70
     1
102
RTVSPost2010Prop31
280
     0
102
RTVSPost2010PropOp31
 70
     1
102
RTVSPost2010Prop32
280
     0
102
RTVSPost2010PropOp32
 70
     1
102
RTVSPost2010Prop33
280
     0
102
RTVSPost2010PropOp33
 70
     1
102
RTVSPost2010Prop34
280
     0
102
RTVSPost2010PropOp34
 70
     1
102
RTVSPost2010Prop35
280
     0
102
RTVSPost2010PropOp35
 70
     1
102
RTVSPost2010Prop36
280
     0
102
RTVSPost2010PropOp36
 70
     1
102
RTVSPost2010Prop37
 90
       50
102
RTVSPost2010PropOp37
 70
     1
102
RTVSPost2010Prop38
140
0.0
102
RTVSPost2010PropOp38
 70
     1
102
RTVSPost2010Prop39
140
1.0
102
RTVSPost2010PropOp39
 70
     1
102
RTVSPost2010Prop40
 90
        0
102
RTVSPost2010PropOp40
 70
     1
102
RTVSPost2010Prop41ColorIndex
 90
       18
102
RTVSPost2010Prop41ColorRGB
 90
        0
102
RTVSPost2010PropOp41
 70
     1
102
RTVSPost2010Prop42
 90
       50
102
RTVSPost2010PropOp42
 70
     1
102
RTVSPost2010Prop43
 90
        3
102
RTVSPost2010PropOp43
 70
     1
102
RTVSPost2010Prop44ColorIndex
 90
        5
102
RTVSPost2010Prop44ColorRGB
 90
      255
102
RTVSPost2010PropOp44
 70
     1
102
RTVSPost2010Prop45
280
     0
102
RTVSPost2010PropOp45
 70
     1
102
RTVSPost2010Prop46
 90
       50
102
RTVSPost2010PropOp46
 70
     1
102
RTVSPost2010Prop47
 90
       50
102
RTVSPost2010PropOp47
 70
     1
102
RTVSPost2010Prop48
 90
       50
102
RTVSPost2010PropOp48
 70
     1
102
RTVSPost2010Prop49
280
     0
102
RTVSPost2010PropOp49
 70
     1
102
RTVSPost2010Prop50
 90
       50
102
RTVSPost2010PropOp50
 70
     1
102
RTVSPost2010Prop51ColorIndex
 90
      256
102
RTVSPost2010Prop51ColorRGB
 90
-16777216
102
RTVSPost2010PropOp51
 70
     0
102
RTVSPost2010Prop52
140
1.0
102
RTVSPost2010PropOp52
 70
     0
102
RTVSPost2010Prop53
 90
        2
102
RTVSPost2010PropOp53
 70
     1
102
RTVSPost2010Prop54
  1
strokes_ogs.tif
102
RTVSPost2010PropOp54
 70
     1
102
RTVSPost2010Prop55
280
     0
102
RTVSPost2010PropOp55
 70
     1
102
RTVSPost2010Prop56
140
1.0
102
RTVSPost2010PropOp56
 70
     1
102
RTVSPost2010Prop57
140
1.0
102
RTVSPost2010PropOp57
 70
     1
102
RTVSPropertyOp0
 70
     1
102
RTVSPropertyOp1
 70
     1
102
RTVSPropertyOp2
 70
     1
102
RTVSPropertyOp3
 70
     1
102
RTVSPropertyOp4
 70
     1
102
RTVSPropertyOp5
 70
     1
102
RTVSPropertyOp6
 70
     1
102
RTVSPropertyOp7
 70
     1
102
RTVSPropertyOp8
 70
     1
102
RTVSPropertyOp9
 70
     1
102
RTVSPropertyOp10
 70
     1
102
RTVSPropertyOp11
 70
     1
102
RTVSPropertyOp12
 70
     1
102
RTVSPropertyOp13
 70
     1
102
RTVSPropertyOp14
 70
     1
102
RTVSPropertyOp15
 70
     1
102
RTVSPropertyOp16
 70
     1
102
RTVSPropertyOp17
 70
     1
102
RTVSPropertyOp18
 70
     1
102
RTVSPropertyOp19
 70
     1
102
RTVSPropertyOp20
 70
     1
102
RTVSPropertyOp21
 70
     1
102
RTVSPropertyOp22
 70
     1
102
RTVSPropertyOp23
 70
     1
102
RTVSPropertyOp24
 70
     1
102
RTVSPropertyOp25
 70
     1
102
RTVSPropertyOp26
 70
     1
102
RTVSPropertyOp27
 70
     1
102
RTVSPropertyOp28
 70
     1
102
RTVSPropertyOp29
 70
     1
102
RTVSPropertyOp30
 70
     1
102
RTVSPropertyOp31
 70
     1
102
RTVSPropertyOp32
 70
     1
102
RTVSPropertyOp33
 70
     1
102
RTVSPropertyOp34
 70
     1
102
RTVSPropertyOp35
 70
     1
102
RTVSPropertyOp36
 70
     1
102
RTVSPropertyOp37
 70
     1
102
RTVSPropertyOp38
 70
     1
102
RTVSPropertyOp39
 70
     1
102
RTVSPropertyOp40
 70
     1
102
RTVSPropertyOp41
 70
     1
102
RTVSPropertyOp42
 70
     1
102
RTVSPropertyOp43
 70
     1
102
RTVSPropertyOp44
 70
     1
102
RTVSPropertyOp45
 70
     1
102
RTVSPropertyOp46
 70
     1
102
RTVSPropertyOp47
 70
     1
102
RTVSPropertyOp48
 70
     1
102
RTVSPropertyOp49
 70
     1
102
RTVSPropertyOp50
 70
     1
102
RTVSPropertyOp51
 70
     0
102
RTVSPropertyOp52
 70
     0
102
RTVSPropertyOp53
 70
     1
102
RTVSPropertyOp54
 70
     1
102
RTVSPropertyOp55
 70
     1
102
RTVSPropertyOp56
 70
     1
102
RTVSPropertyOp57
 70
     1
102
RTVSPropertyOp58
 70
     1
102
RTVSPropertyOp59
 70
     1
102
RTVSPropertyOp60
 70
     1
102
RTVSPropertyOp61
 70
     1
102
RTVSPropertyOp62
 70
     1
  0
XRECORD
  5
71E
102
{ACAD_REACTORS
330
71D
102
}
330
71D
100
AcDbXrecord
280
     1
102
RTVSPost2010Prop28
280
     0
102
RTVSPost2010PropOp28
 70
     1
102
RTVSPost2010Prop29
280
     1
102
RTVSPost2010PropOp29
 70
     1
102
RTVSPost2010Prop30
280
     1
102
RTVSPost2010PropOp30
 70
     1
102
RTVSPost2010Prop31
280
     0
102
RTVSPost2010PropOp31
 70
     1
102
RTVSPost2010Prop32
280
     0
102
RTVSPost2010PropOp32
 70
     1
102
RTVSPost2010Prop33
280
     0
102
RTVSPost2010PropOp33
 70
     1
102
RTVSPost2010Prop34
280
     0
102
RTVSPost2010PropOp34
 70
     1
102
RTVSPost2010Prop35
280
     0
102
RTVSPost2010PropOp35
 70
     1
102
RTVSPost2010Prop36
280
     0
102
RTVSPost2010PropOp36
 70
     1
102
RTVSPost2010Prop37
 90
       50
102
RTVSPost2010PropOp37
 70
     1
102
RTVSPost2010Prop38
140
0.0
102
RTVSPost2010PropOp38
 70
     1
102
RTVSPost2010Prop39
140
1.0
102
RTVSPost2010PropOp39
 70
     1
102
RTVSPost2010Prop40
 90
        0
102
RTVSPost2010PropOp40
 70
     1
102
RTVSPost2010Prop41ColorIndex
 90
       18
102
RTVSPost2010Prop41ColorRGB
 90
        0
102
RTVSPost2010PropOp41
 70
     1
102
RTVSPost2010Prop42
 90
       50
102
RTVSPost2010PropOp42
 70
     1
102
RTVSPost2010Prop43
 90
        3
102
RTVSPost2010PropOp43
 70
     1
102
RTVSPost2010Prop44ColorIndex
 90
        5
102
RTVSPost2010Prop44ColorRGB
 90
      255
102
RTVSPost2010PropOp44
 70
     1
102
RTVSPost2010Prop45
280
     0
102
RTVSPost2010PropOp45
 70
     1
102
RTVSPost2010Prop46
 90
       50
102
RTVSPost2010PropOp46
 70
     1
102
RTVSPost2010Prop47
 90
       50
102
RTVSPost2010PropOp47
 70
     1
102
RTVSPost2010Prop48
 90
       50
102
RTVSPost2010PropOp48
 70
     1
102
RTVSPost2010Prop49
280
     0
102
RTVSPost2010PropOp49
 70
     1
102
RTVSPost2010Prop50
 90
       50
102
RTVSPost2010PropOp50
 70
     1
102
RTVSPost2010Prop51ColorIndex
 90
      256
102
RTVSPost2010Prop51ColorRGB
 90
-16777216
102
RTVSPost2010PropOp51
 70
     0
102
RTVSPost2010Prop52
140
1.0
102
RTVSPost2010PropOp52
 70
     0
102
RTVSPost2010Prop53
 90
        2
102
RTVSPost2010PropOp53
 70
     1
102
RTVSPost2010Prop54
  1
strokes_ogs.tif
102
RTVSPost2010PropOp54
 70
     1
102
RTVSPost2010Prop55
280
     0
102
RTVSPost2010PropOp55
 70
     1
102
RTVSPost2010Prop56
140
1.0
102
RTVSPost2010PropOp56
 70
     1
102
RTVSPost2010Prop57
140
1.0
102
RTVSPost2010PropOp57
 70
     1
102
RTVSPropertyOp0
 70
     1
102
RTVSPropertyOp1
 70
     1
102
RTVSPropertyOp2
 70
     1
102
RTVSPropertyOp3
 70
     1
102
RTVSPropertyOp4
 70
     1
102
RTVSPropertyOp5
 70
     1
102
RTVSPropertyOp6
 70
     1
102
RTVSPropertyOp7
 70
     1
102
RTVSPropertyOp8
 70
     1
102
RTVSPropertyOp9
 70
     1
102
RTVSPropertyOp10
 70
     1
102
RTVSPropertyOp11
 70
     1
102
RTVSPropertyOp12
 70
     1
102
RTVSPropertyOp13
 70
     1
102
RTVSPropertyOp14
 70
     1
102
RTVSPropertyOp15
 70
     1
102
RTVSPropertyOp16
 70
     1
102
RTVSPropertyOp17
 70
     1
102
RTVSPropertyOp18
 70
     1
102
RTVSPropertyOp19
 70
     1
102
RTVSPropertyOp20
 70
     1
102
RTVSPropertyOp21
 70
     1
102
RTVSPropertyOp22
 70
     1
102
RTVSPropertyOp23
 70
     1
102
RTVSPropertyOp24
 70
     1
102
RTVSPropertyOp25
 70
     1
102
RTVSPropertyOp26
 70
     1
102
RTVSPropertyOp27
 70
     1
102
RTVSPropertyOp28
 70
     1
102
RTVSPropertyOp29
 70
     1
102
RTVSPropertyOp30
 70
     1
102
RTVSPropertyOp31
 70
     1
102
RTVSPropertyOp32
 70
     1
102
RTVSPropertyOp33
 70
     1
102
RTVSPropertyOp34
 70
     1
102
RTVSPropertyOp35
 70
     1
102
RTVSPropertyOp36
 70
     1
102
RTVSPropertyOp37
 70
     1
102
RTVSPropertyOp38
 70
     1
102
RTVSPropertyOp39
 70
     1
102
RTVSPropertyOp40
 70
     1
102
RTVSPropertyOp41
 70
     1
102
RTVSPropertyOp42
 70
     1
102
RTVSPropertyOp43
 70
     1
102
RTVSPropertyOp44
 70
     1
102
RTVSPropertyOp45
 70
     1
102
RTVSPropertyOp46
 70
     1
102
RTVSPropertyOp47
 70
     1
102
RTVSPropertyOp48
 70
     1
102
RTVSPropertyOp49
 70
     1
102
RTVSPropertyOp50
 70
     1
102
RTVSPropertyOp51
 70
     0
102
RTVSPropertyOp52
 70
     0
102
RTVSPropertyOp53
 70
     1
102
RTVSPropertyOp54
 70
     1
102
RTVSPropertyOp55
 70
     1
102
RTVSPropertyOp56
 70
     1
102
RTVSPropertyOp57
 70
     1
102
RTVSPropertyOp58
 70
     1
102
RTVSPropertyOp59
 70
     1
102
RTVSPropertyOp60
 70
     1
102
RTVSPropertyOp61
 70
     1
102
RTVSPropertyOp62
 70
     1
  0
XRECORD
  5
726
102
{ACAD_REACTORS
330
725
102
}
330
725
100
AcDbXrecord
280
     1
102
RTVSPost2010Prop28
280
     0
102
RTVSPost2010PropOp28
 70
     1
102
RTVSPost2010Prop29
280
     1
102
RTVSPost2010PropOp29
 70
     1
102
RTVSPost2010Prop30
280
     1
102
RTVSPost2010PropOp30
 70
     1
102
RTVSPost2010Prop31
280
     0
102
RTVSPost2010PropOp31
 70
     1
102
RTVSPost2010Prop32
280
     0
102
RTVSPost2010PropOp32
 70
     1
102
RTVSPost2010Prop33
280
     0
102
RTVSPost2010PropOp33
 70
     1
102
RTVSPost2010Prop34
280
     0
102
RTVSPost2010PropOp34
 70
     1
102
RTVSPost2010Prop35
280
     0
102
RTVSPost2010PropOp35
 70
     1
102
RTVSPost2010Prop36
280
     0
102
RTVSPost2010PropOp36
 70
     1
102
RTVSPost2010Prop37
 90
       50
102
RTVSPost2010PropOp37
 70
     1
102
RTVSPost2010Prop38
140
0.0
102
RTVSPost2010PropOp38
 70
     1
102
RTVSPost2010Prop39
140
1.0
102
RTVSPost2010PropOp39
 70
     1
102
RTVSPost2010Prop40
 90
        0
102
RTVSPost2010PropOp40
 70
     1
102
RTVSPost2010Prop41ColorIndex
 90
       18
102
RTVSPost2010Prop41ColorRGB
 90
        0
102
RTVSPost2010PropOp41
 70
     1
102
RTVSPost2010Prop42
 90
       50
102
RTVSPost2010PropOp42
 70
     1
102
RTVSPost2010Prop43
 90
        3
102
RTVSPost2010PropOp43
 70
     1
102
RTVSPost2010Prop44ColorIndex
 90
        5
102
RTVSPost2010Prop44ColorRGB
 90
      255
102
RTVSPost2010PropOp44
 70
     1
102
RTVSPost2010Prop45
280
     0
102
RTVSPost2010PropOp45
 70
     1
102
RTVSPost2010Prop46
 90
       50
102
RTVSPost2010PropOp46
 70
     1
102
RTVSPost2010Prop47
 90
       50
102
RTVSPost2010PropOp47
 70
     1
102
RTVSPost2010Prop48
 90
       50
102
RTVSPost2010PropOp48
 70
     1
102
RTVSPost2010Prop49
280
     0
102
RTVSPost2010PropOp49
 70
     1
102
RTVSPost2010Prop50
 90
       50
102
RTVSPost2010PropOp50
 70
     1
102
RTVSPost2010Prop51ColorIndex
 90
      256
102
RTVSPost2010Prop51ColorRGB
 90
-16777216
102
RTVSPost2010PropOp51
 70
     0
102
RTVSPost2010Prop52
140
1.0
102
RTVSPost2010PropOp52
 70
     0
102
RTVSPost2010Prop53
 90
        2
102
RTVSPost2010PropOp53
 70
     1
102
RTVSPost2010Prop54
  1
strokes_ogs.tif
102
RTVSPost2010PropOp54
 70
     1
102
RTVSPost2010Prop55
280
     0
102
RTVSPost2010PropOp55
 70
     1
102
RTVSPost2010Prop56
140
1.0
102
RTVSPost2010PropOp56
 70
     1
102
RTVSPost2010Prop57
140
1.0
102
RTVSPost2010PropOp57
 70
     1
102
RTVSPropertyOp0
 70
     1
102
RTVSPropertyOp1
 70
     1
102
RTVSPropertyOp2
 70
     1
102
RTVSPropertyOp3
 70
     1
102
RTVSPropertyOp4
 70
     1
102
RTVSPropertyOp5
 70
     1
102
RTVSPropertyOp6
 70
     1
102
RTVSPropertyOp7
 70
     1
102
RTVSPropertyOp8
 70
     1
102
RTVSPropertyOp9
 70
     1
102
RTVSPropertyOp10
 70
     1
102
RTVSPropertyOp11
 70
     1
102
RTVSPropertyOp12
 70
     1
102
RTVSPropertyOp13
 70
     1
102
RTVSPropertyOp14
 70
     1
102
RTVSPropertyOp15
 70
     1
102
RTVSPropertyOp16
 70
     1
102
RTVSPropertyOp17
 70
     1
102
RTVSPropertyOp18
 70
     1
102
RTVSPropertyOp19
 70
     1
102
RTVSPropertyOp20
 70
     1
102
RTVSPropertyOp21
 70
     1
102
RTVSPropertyOp22
 70
     1
102
RTVSPropertyOp23
 70
     1
102
RTVSPropertyOp24
 70
     1
102
RTVSPropertyOp25
 70
     1
102
RTVSPropertyOp26
 70
     1
102
RTVSPropertyOp27
 70
     1
102
RTVSPropertyOp28
 70
     1
102
RTVSPropertyOp29
 70
     1
102
RTVSPropertyOp30
 70
     1
102
RTVSPropertyOp31
 70
     1
102
RTVSPropertyOp32
 70
     1
102
RTVSPropertyOp33
 70
     1
102
RTVSPropertyOp34
 70
     1
102
RTVSPropertyOp35
 70
     1
102
RTVSPropertyOp36
 70
     1
102
RTVSPropertyOp37
 70
     1
102
RTVSPropertyOp38
 70
     1
102
RTVSPropertyOp39
 70
     1
102
RTVSPropertyOp40
 70
     1
102
RTVSPropertyOp41
 70
     1
102
RTVSPropertyOp42
 70
     1
102
RTVSPropertyOp43
 70
     1
102
RTVSPropertyOp44
 70
     1
102
RTVSPropertyOp45
 70
     1
102
RTVSPropertyOp46
 70
     1
102
RTVSPropertyOp47
 70
     1
102
RTVSPropertyOp48
 70
     1
102
RTVSPropertyOp49
 70
     1
102
RTVSPropertyOp50
 70
     1
102
RTVSPropertyOp51
 70
     0
102
RTVSPropertyOp52
 70
     0
102
RTVSPropertyOp53
 70
     1
102
RTVSPropertyOp54
 70
     1
102
RTVSPropertyOp55
 70
     1
102
RTVSPropertyOp56
 70
     1
102
RTVSPropertyOp57
 70
     1
102
RTVSPropertyOp58
 70
     1
102
RTVSPropertyOp59
 70
     1
102
RTVSPropertyOp60
 70
     1
102
RTVSPropertyOp61
 70
     1
102
RTVSPropertyOp62
 70
     1
  0
XRECORD
  5
718
102
{ACAD_REACTORS
330
717
102
}
330
717
100
AcDbXrecord
280
     1
102
RTVSPost2010Prop28
280
     0
102
RTVSPost2010PropOp28
 70
     1
102
RTVSPost2010Prop29
280
     1
102
RTVSPost2010PropOp29
 70
     1
102
RTVSPost2010Prop30
280
     1
102
RTVSPost2010PropOp30
 70
     1
102
RTVSPost2010Prop31
280
     0
102
RTVSPost2010PropOp31
 70
     1
102
RTVSPost2010Prop32
280
     0
102
RTVSPost2010PropOp32
 70
     1
102
RTVSPost2010Prop33
280
     0
102
RTVSPost2010PropOp33
 70
     1
102
RTVSPost2010Prop34
280
     0
102
RTVSPost2010PropOp34
 70
     1
102
RTVSPost2010Prop35
280
     0
102
RTVSPost2010PropOp35
 70
     1
102
RTVSPost2010Prop36
280
     0
102
RTVSPost2010PropOp36
 70
     1
102
RTVSPost2010Prop37
 90
       50
102
RTVSPost2010PropOp37
 70
     1
102
RTVSPost2010Prop38
140
0.0
102
RTVSPost2010PropOp38
 70
     1
102
RTVSPost2010Prop39
140
1.0
102
RTVSPost2010PropOp39
 70
     1
102
RTVSPost2010Prop40
 90
        0
102
RTVSPost2010PropOp40
 70
     1
102
RTVSPost2010Prop41ColorIndex
 90
       18
102
RTVSPost2010Prop41ColorRGB
 90
        0
102
RTVSPost2010PropOp41
 70
     1
102
RTVSPost2010Prop42
 90
       50
102
RTVSPost2010PropOp42
 70
     1
102
RTVSPost2010Prop43
 90
        3
102
RTVSPost2010PropOp43
 70
     1
102
RTVSPost2010Prop44ColorIndex
 90
        5
102
RTVSPost2010Prop44ColorRGB
 90
      255
102
RTVSPost2010PropOp44
 70
     1
102
RTVSPost2010Prop45
280
     0
102
RTVSPost2010PropOp45
 70
     1
102
RTVSPost2010Prop46
 90
       50
102
RTVSPost2010PropOp46
 70
     1
102
RTVSPost2010Prop47
 90
       50
102
RTVSPost2010PropOp47
 70
     1
102
RTVSPost2010Prop48
 90
       50
102
RTVSPost2010PropOp48
 70
     1
102
RTVSPost2010Prop49
280
     0
102
RTVSPost2010PropOp49
 70
     1
102
RTVSPost2010Prop50
 90
       50
102
RTVSPost2010PropOp50
 70
     1
102
RTVSPost2010Prop51ColorIndex
 90
      256
102
RTVSPost2010Prop51ColorRGB
 90
-16777216
102
RTVSPost2010PropOp51
 70
     0
102
RTVSPost2010Prop52
140
1.0
102
RTVSPost2010PropOp52
 70
     0
102
RTVSPost2010Prop53
 90
        2
102
RTVSPost2010PropOp53
 70
     1
102
RTVSPost2010Prop54
  1
strokes_ogs.tif
102
RTVSPost2010PropOp54
 70
     1
102
RTVSPost2010Prop55
280
     0
102
RTVSPost2010PropOp55
 70
     1
102
RTVSPost2010Prop56
140
1.0
102
RTVSPost2010PropOp56
 70
     1
102
RTVSPost2010Prop57
140
1.0
102
RTVSPost2010PropOp57
 70
     1
102
RTVSPropertyOp0
 70
     1
102
RTVSPropertyOp1
 70
     1
102
RTVSPropertyOp2
 70
     1
102
RTVSPropertyOp3
 70
     1
102
RTVSPropertyOp4
 70
     1
102
RTVSPropertyOp5
 70
     1
102
RTVSPropertyOp6
 70
     1
102
RTVSPropertyOp7
 70
     1
102
RTVSPropertyOp8
 70
     1
102
RTVSPropertyOp9
 70
     1
102
RTVSPropertyOp10
 70
     1
102
RTVSPropertyOp11
 70
     1
102
RTVSPropertyOp12
 70
     1
102
RTVSPropertyOp13
 70
     1
102
RTVSPropertyOp14
 70
     1
102
RTVSPropertyOp15
 70
     1
102
RTVSPropertyOp16
 70
     1
102
RTVSPropertyOp17
 70
     1
102
RTVSPropertyOp18
 70
     1
102
RTVSPropertyOp19
 70
     1
102
RTVSPropertyOp20
 70
     1
102
RTVSPropertyOp21
 70
     1
102
RTVSPropertyOp22
 70
     1
102
RTVSPropertyOp23
 70
     1
102
RTVSPropertyOp24
 70
     1
102
RTVSPropertyOp25
 70
     1
102
RTVSPropertyOp26
 70
     1
102
RTVSPropertyOp27
 70
     1
102
RTVSPropertyOp28
 70
     1
102
RTVSPropertyOp29
 70
     1
102
RTVSPropertyOp30
 70
     1
102
RTVSPropertyOp31
 70
     1
102
RTVSPropertyOp32
 70
     1
102
RTVSPropertyOp33
 70
     1
102
RTVSPropertyOp34
 70
     1
102
RTVSPropertyOp35
 70
     1
102
RTVSPropertyOp36
 70
     1
102
RTVSPropertyOp37
 70
     1
102
RTVSPropertyOp38
 70
     1
102
RTVSPropertyOp39
 70
     1
102
RTVSPropertyOp40
 70
     1
102
RTVSPropertyOp41
 70
     1
102
RTVSPropertyOp42
 70
     1
102
RTVSPropertyOp43
 70
     1
102
RTVSPropertyOp44
 70
     1
102
RTVSPropertyOp45
 70
     1
102
RTVSPropertyOp46
 70
     1
102
RTVSPropertyOp47
 70
     1
102
RTVSPropertyOp48
 70
     1
102
RTVSPropertyOp49
 70
     1
102
RTVSPropertyOp50
 70
     1
102
RTVSPropertyOp51
 70
     0
102
RTVSPropertyOp52
 70
     0
102
RTVSPropertyOp53
 70
     1
102
RTVSPropertyOp54
 70
     1
102
RTVSPropertyOp55
 70
     1
102
RTVSPropertyOp56
 70
     1
102
RTVSPropertyOp57
 70
     1
102
RTVSPropertyOp58
 70
     1
102
RTVSPropertyOp59
 70
     1
102
RTVSPropertyOp60
 70
     1
102
RTVSPropertyOp61
 70
     1
102
RTVSPropertyOp62
 70
     1
  0
XRECORD
  5
71C
102
{ACAD_REACTORS
330
71B
102
}
330
71B
100
AcDbXrecord
280
     1
102
RTVSPost2010Prop28
280
     0
102
RTVSPost2010PropOp28
 70
     1
102
RTVSPost2010Prop29
280
     1
102
RTVSPost2010PropOp29
 70
     1
102
RTVSPost2010Prop30
280
     1
102
RTVSPost2010PropOp30
 70
     1
102
RTVSPost2010Prop31
280
     0
102
RTVSPost2010PropOp31
 70
     1
102
RTVSPost2010Prop32
280
     0
102
RTVSPost2010PropOp32
 70
     1
102
RTVSPost2010Prop33
280
     0
102
RTVSPost2010PropOp33
 70
     1
102
RTVSPost2010Prop34
280
     0
102
RTVSPost2010PropOp34
 70
     1
102
RTVSPost2010Prop35
280
     0
102
RTVSPost2010PropOp35
 70
     1
102
RTVSPost2010Prop36
280
     0
102
RTVSPost2010PropOp36
 70
     1
102
RTVSPost2010Prop37
 90
       50
102
RTVSPost2010PropOp37
 70
     1
102
RTVSPost2010Prop38
140
0.0
102
RTVSPost2010PropOp38
 70
     1
102
RTVSPost2010Prop39
140
1.0
102
RTVSPost2010PropOp39
 70
     1
102
RTVSPost2010Prop40
 90
        0
102
RTVSPost2010PropOp40
 70
     1
102
RTVSPost2010Prop41ColorIndex
 90
       18
102
RTVSPost2010Prop41ColorRGB
 90
        0
102
RTVSPost2010PropOp41
 70
     1
102
RTVSPost2010Prop42
 90
       50
102
RTVSPost2010PropOp42
 70
     1
102
RTVSPost2010Prop43
 90
        3
102
RTVSPost2010PropOp43
 70
     1
102
RTVSPost2010Prop44ColorIndex
 90
        5
102
RTVSPost2010Prop44ColorRGB
 90
      255
102
RTVSPost2010PropOp44
 70
     1
102
RTVSPost2010Prop45
280
     0
102
RTVSPost2010PropOp45
 70
     1
102
RTVSPost2010Prop46
 90
       50
102
RTVSPost2010PropOp46
 70
     1
102
RTVSPost2010Prop47
 90
       50
102
RTVSPost2010PropOp47
 70
     1
102
RTVSPost2010Prop48
 90
       50
102
RTVSPost2010PropOp48
 70
     1
102
RTVSPost2010Prop49
280
     0
102
RTVSPost2010PropOp49
 70
     1
102
RTVSPost2010Prop50
 90
       50
102
RTVSPost2010PropOp50
 70
     1
102
RTVSPost2010Prop51ColorIndex
 90
      256
102
RTVSPost2010Prop51ColorRGB
 90
-16777216
102
RTVSPost2010PropOp51
 70
     0
102
RTVSPost2010Prop52
140
1.0
102
RTVSPost2010PropOp52
 70
     0
102
RTVSPost2010Prop53
 90
        2
102
RTVSPost2010PropOp53
 70
     1
102
RTVSPost2010Prop54
  1
strokes_ogs.tif
102
RTVSPost2010PropOp54
 70
     1
102
RTVSPost2010Prop55
280
     0
102
RTVSPost2010PropOp55
 70
     1
102
RTVSPost2010Prop56
140
1.0
102
RTVSPost2010PropOp56
 70
     1
102
RTVSPost2010Prop57
140
1.0
102
RTVSPost2010PropOp57
 70
     1
102
RTVSPropertyOp0
 70
     1
102
RTVSPropertyOp1
 70
     1
102
RTVSPropertyOp2
 70
     1
102
RTVSPropertyOp3
 70
     1
102
RTVSPropertyOp4
 70
     1
102
RTVSPropertyOp5
 70
     1
102
RTVSPropertyOp6
 70
     1
102
RTVSPropertyOp7
 70
     1
102
RTVSPropertyOp8
 70
     1
102
RTVSPropertyOp9
 70
     1
102
RTVSPropertyOp10
 70
     1
102
RTVSPropertyOp11
 70
     1
102
RTVSPropertyOp12
 70
     1
102
RTVSPropertyOp13
 70
     1
102
RTVSPropertyOp14
 70
     1
102
RTVSPropertyOp15
 70
     1
102
RTVSPropertyOp16
 70
     1
102
RTVSPropertyOp17
 70
     1
102
RTVSPropertyOp18
 70
     1
102
RTVSPropertyOp19
 70
     1
102
RTVSPropertyOp20
 70
     1
102
RTVSPropertyOp21
 70
     1
102
RTVSPropertyOp22
 70
     1
102
RTVSPropertyOp23
 70
     1
102
RTVSPropertyOp24
 70
     1
102
RTVSPropertyOp25
 70
     1
102
RTVSPropertyOp26
 70
     1
102
RTVSPropertyOp27
 70
     1
102
RTVSPropertyOp28
 70
     1
102
RTVSPropertyOp29
 70
     1
102
RTVSPropertyOp30
 70
     1
102
RTVSPropertyOp31
 70
     1
102
RTVSPropertyOp32
 70
     1
102
RTVSPropertyOp33
 70
     1
102
RTVSPropertyOp34
 70
     1
102
RTVSPropertyOp35
 70
     1
102
RTVSPropertyOp36
 70
     1
102
RTVSPropertyOp37
 70
     1
102
RTVSPropertyOp38
 70
     1
102
RTVSPropertyOp39
 70
     1
102
RTVSPropertyOp40
 70
     1
102
RTVSPropertyOp41
 70
     1
102
RTVSPropertyOp42
 70
     1
102
RTVSPropertyOp43
 70
     1
102
RTVSPropertyOp44
 70
     1
102
RTVSPropertyOp45
 70
     1
102
RTVSPropertyOp46
 70
     1
102
RTVSPropertyOp47
 70
     1
102
RTVSPropertyOp48
 70
     1
102
RTVSPropertyOp49
 70
     1
102
RTVSPropertyOp50
 70
     1
102
RTVSPropertyOp51
 70
     0
102
RTVSPropertyOp52
 70
     0
102
RTVSPropertyOp53
 70
     1
102
RTVSPropertyOp54
 70
     1
102
RTVSPropertyOp55
 70
     1
102
RTVSPropertyOp56
 70
     1
102
RTVSPropertyOp57
 70
     1
102
RTVSPropertyOp58
 70
     1
102
RTVSPropertyOp59
 70
     1
102
RTVSPropertyOp60
 70
     1
102
RTVSPropertyOp61
 70
     1
102
RTVSPropertyOp62
 70
     1
  0
XRECORD
  5
736
102
{ACAD_REACTORS
330
735
102
}
330
735
100
AcDbXrecord
280
     1
102
RTVSPost2010Prop28
280
     0
102
RTVSPost2010PropOp28
 70
     1
102
RTVSPost2010Prop29
280
     1
102
RTVSPost2010PropOp29
 70
     1
102
RTVSPost2010Prop30
280
     1
102
RTVSPost2010PropOp30
 70
     1
102
RTVSPost2010Prop31
280
     0
102
RTVSPost2010PropOp31
 70
     1
102
RTVSPost2010Prop32
280
     0
102
RTVSPost2010PropOp32
 70
     1
102
RTVSPost2010Prop33
280
     0
102
RTVSPost2010PropOp33
 70
     1
102
RTVSPost2010Prop34
280
     0
102
RTVSPost2010PropOp34
 70
     1
102
RTVSPost2010Prop35
280
     0
102
RTVSPost2010PropOp35
 70
     1
102
RTVSPost2010Prop36
280
     0
102
RTVSPost2010PropOp36
 70
     1
102
RTVSPost2010Prop37
 90
       50
102
RTVSPost2010PropOp37
 70
     0
102
RTVSPost2010Prop38
140
0.0
102
RTVSPost2010PropOp38
 70
     0
102
RTVSPost2010Prop39
140
1.0
102
RTVSPost2010PropOp39
 70
     0
102
RTVSPost2010Prop40
 90
        0
102
RTVSPost2010PropOp40
 70
     0
102
RTVSPost2010Prop41ColorIndex
 90
       18
102
RTVSPost2010Prop41ColorRGB
 90
        0
102
RTVSPost2010PropOp41
 70
     0
102
RTVSPost2010Prop42
 90
       50
102
RTVSPost2010PropOp42
 70
     0
102
RTVSPost2010Prop43
 90
        3
102
RTVSPost2010PropOp43
 70
     0
102
RTVSPost2010Prop44ColorIndex
 90
        5
102
RTVSPost2010Prop44ColorRGB
 90
      255
102
RTVSPost2010PropOp44
 70
     0
102
RTVSPost2010Prop45
280
     0
102
RTVSPost2010PropOp45
 70
     1
102
RTVSPost2010Prop46
 90
       50
102
RTVSPost2010PropOp46
 70
     0
102
RTVSPost2010Prop47
 90
       50
102
RTVSPost2010PropOp47
 70
     0
102
RTVSPost2010Prop48
 90
       50
102
RTVSPost2010PropOp48
 70
     0
102
RTVSPost2010Prop49
280
     0
102
RTVSPost2010PropOp49
 70
     1
102
RTVSPost2010Prop50
 90
       50
102
RTVSPost2010PropOp50
 70
     0
102
RTVSPost2010Prop51ColorIndex
 90
      256
102
RTVSPost2010Prop51ColorRGB
 90
-16777216
102
RTVSPost2010PropOp51
 70
     0
102
RTVSPost2010Prop52
140
1.0
102
RTVSPost2010PropOp52
 70
     0
102
RTVSPost2010Prop53
 90
        2
102
RTVSPost2010PropOp53
 70
     0
102
RTVSPost2010Prop54
  1
strokes_ogs.tif
102
RTVSPost2010PropOp54
 70
     0
102
RTVSPost2010Prop55
280
     0
102
RTVSPost2010PropOp55
 70
     1
102
RTVSPost2010Prop56
140
1.0
102
RTVSPost2010PropOp56
 70
     0
102
RTVSPost2010Prop57
140
1.0
102
RTVSPost2010PropOp57
 70
     0
102
RTVSPropertyOp0
 70
     0
102
RTVSPropertyOp1
 70
     0
102
RTVSPropertyOp2
 70
     0
102
RTVSPropertyOp3
 70
     0
102
RTVSPropertyOp4
 70
     0
102
RTVSPropertyOp5
 70
     0
102
RTVSPropertyOp6
 70
     0
102
RTVSPropertyOp7
 70
     0
102
RTVSPropertyOp8
 70
     0
102
RTVSPropertyOp9
 70
     0
102
RTVSPropertyOp10
 70
     0
102
RTVSPropertyOp11
 70
     0
102
RTVSPropertyOp12
 70
     0
102
RTVSPropertyOp13
 70
     0
102
RTVSPropertyOp14
 70
     2
102
RTVSPropertyOp15
 70
     0
102
RTVSPropertyOp16
 70
     0
102
RTVSPropertyOp17
 70
     0
102
RTVSPropertyOp18
 70
     0
102
RTVSPropertyOp19
 70
     0
102
RTVSPropertyOp20
 70
     0
102
RTVSPropertyOp21
 70
     0
102
RTVSPropertyOp22
 70
     0
102
RTVSPropertyOp23
 70
     0
102
RTVSPropertyOp24
 70
     0
102
RTVSPropertyOp25
 70
     0
102
RTVSPropertyOp26
 70
     0
102
RTVSPropertyOp27
 70
     0
102
RTVSPropertyOp28
 70
     1
102
RTVSPropertyOp29
 70
     1
102
RTVSPropertyOp30
 70
     1
102
RTVSPropertyOp31
 70
     1
102
RTVSPropertyOp32
 70
     1
102
RTVSPropertyOp33
 70
     1
102
RTVSPropertyOp34
 70
     1
102
RTVSPropertyOp35
 70
     1
102
RTVSPropertyOp36
 70
     1
102
RTVSPropertyOp37
 70
     0
102
RTVSPropertyOp38
 70
     0
102
RTVSPropertyOp39
 70
     0
102
RTVSPropertyOp40
 70
     0
102
RTVSPropertyOp41
 70
     0
102
RTVSPropertyOp42
 70
     0
102
RTVSPropertyOp43
 70
     0
102
RTVSPropertyOp44
 70
     0
102
RTVSPropertyOp45
 70
     1
102
RTVSPropertyOp46
 70
     0
102
RTVSPropertyOp47
 70
     0
102
RTVSPropertyOp48
 70
     0
102
RTVSPropertyOp49
 70
     1
102
RTVSPropertyOp50
 70
     0
102
RTVSPropertyOp51
 70
     0
102
RTVSPropertyOp52
 70
     0
102
RTVSPropertyOp53
 70
     0
102
RTVSPropertyOp54
 70
     0
102
RTVSPropertyOp55
 70
     1
102
RTVSPropertyOp56
 70
     0
102
RTVSPropertyOp57
 70
     0
102
RTVSPropertyOp58
 70
     0
102
RTVSPropertyOp59
 70
     0
102
RTVSPropertyOp60
 70
     0
102
RTVSPropertyOp61
 70
     0
102
RTVSPropertyOp62
 70
     0
  0
XRECORD
  5
724
102
{ACAD_REACTORS
330
723
102
}
330
723
100
AcDbXrecord
280
     1
102
RTVSPost2010Prop28
280
     0
102
RTVSPost2010PropOp28
 70
     1
102
RTVSPost2010Prop29
280
     1
102
RTVSPost2010PropOp29
 70
     1
102
RTVSPost2010Prop30
280
     1
102
RTVSPost2010PropOp30
 70
     1
102
RTVSPost2010Prop31
280
     0
102
RTVSPost2010PropOp31
 70
     1
102
RTVSPost2010Prop32
280
     0
102
RTVSPost2010PropOp32
 70
     1
102
RTVSPost2010Prop33
280
     0
102
RTVSPost2010PropOp33
 70
     1
102
RTVSPost2010Prop34
280
     0
102
RTVSPost2010PropOp34
 70
     1
102
RTVSPost2010Prop35
280
     0
102
RTVSPost2010PropOp35
 70
     1
102
RTVSPost2010Prop36
280
     0
102
RTVSPost2010PropOp36
 70
     1
102
RTVSPost2010Prop37
 90
       50
102
RTVSPost2010PropOp37
 70
     1
102
RTVSPost2010Prop38
140
0.0
102
RTVSPost2010PropOp38
 70
     1
102
RTVSPost2010Prop39
140
1.0
102
RTVSPost2010PropOp39
 70
     1
102
RTVSPost2010Prop40
 90
        0
102
RTVSPost2010PropOp40
 70
     1
102
RTVSPost2010Prop41ColorIndex
 90
       18
102
RTVSPost2010Prop41ColorRGB
 90
        0
102
RTVSPost2010PropOp41
 70
     1
102
RTVSPost2010Prop42
 90
       50
102
RTVSPost2010PropOp42
 70
     1
102
RTVSPost2010Prop43
 90
        3
102
RTVSPost2010PropOp43
 70
     1
102
RTVSPost2010Prop44ColorIndex
 90
        5
102
RTVSPost2010Prop44ColorRGB
 90
      255
102
RTVSPost2010PropOp44
 70
     1
102
RTVSPost2010Prop45
280
     0
102
RTVSPost2010PropOp45
 70
     1
102
RTVSPost2010Prop46
 90
       50
102
RTVSPost2010PropOp46
 70
     1
102
RTVSPost2010Prop47
 90
       50
102
RTVSPost2010PropOp47
 70
     1
102
RTVSPost2010Prop48
 90
       50
102
RTVSPost2010PropOp48
 70
     1
102
RTVSPost2010Prop49
280
     0
102
RTVSPost2010PropOp49
 70
     1
102
RTVSPost2010Prop50
 90
       50
102
RTVSPost2010PropOp50
 70
     1
102
RTVSPost2010Prop51ColorIndex
 90
      256
102
RTVSPost2010Prop51ColorRGB
 90
-16777216
102
RTVSPost2010PropOp51
 70
     0
102
RTVSPost2010Prop52
140
1.0
102
RTVSPost2010PropOp52
 70
     0
102
RTVSPost2010Prop53
 90
        2
102
RTVSPost2010PropOp53
 70
     1
102
RTVSPost2010Prop54
  1
strokes_ogs.tif
102
RTVSPost2010PropOp54
 70
     1
102
RTVSPost2010Prop55
280
     0
102
RTVSPost2010PropOp55
 70
     1
102
RTVSPost2010Prop56
140
1.0
102
RTVSPost2010PropOp56
 70
     1
102
RTVSPost2010Prop57
140
1.0
102
RTVSPost2010PropOp57
 70
     1
102
RTVSPropertyOp0
 70
     1
102
RTVSPropertyOp1
 70
     1
102
RTVSPropertyOp2
 70
     1
102
RTVSPropertyOp3
 70
     1
102
RTVSPropertyOp4
 70
     1
102
RTVSPropertyOp5
 70
     1
102
RTVSPropertyOp6
 70
     1
102
RTVSPropertyOp7
 70
     1
102
RTVSPropertyOp8
 70
     1
102
RTVSPropertyOp9
 70
     1
102
RTVSPropertyOp10
 70
     1
102
RTVSPropertyOp11
 70
     1
102
RTVSPropertyOp12
 70
     1
102
RTVSPropertyOp13
 70
     1
102
RTVSPropertyOp14
 70
     1
102
RTVSPropertyOp15
 70
     1
102
RTVSPropertyOp16
 70
     1
102
RTVSPropertyOp17
 70
     1
102
RTVSPropertyOp18
 70
     1
102
RTVSPropertyOp19
 70
     1
102
RTVSPropertyOp20
 70
     1
102
RTVSPropertyOp21
 70
     1
102
RTVSPropertyOp22
 70
     1
102
RTVSPropertyOp23
 70
     1
102
RTVSPropertyOp24
 70
     1
102
RTVSPropertyOp25
 70
     1
102
RTVSPropertyOp26
 70
     1
102
RTVSPropertyOp27
 70
     1
102
RTVSPropertyOp28
 70
     1
102
RTVSPropertyOp29
 70
     1
102
RTVSPropertyOp30
 70
     1
102
RTVSPropertyOp31
 70
     1
102
RTVSPropertyOp32
 70
     1
102
RTVSPropertyOp33
 70
     1
102
RTVSPropertyOp34
 70
     1
102
RTVSPropertyOp35
 70
     1
102
RTVSPropertyOp36
 70
     1
102
RTVSPropertyOp37
 70
     1
102
RTVSPropertyOp38
 70
     1
102
RTVSPropertyOp39
 70
     1
102
RTVSPropertyOp40
 70
     1
102
RTVSPropertyOp41
 70
     1
102
RTVSPropertyOp42
 70
     1
102
RTVSPropertyOp43
 70
     1
102
RTVSPropertyOp44
 70
     1
102
RTVSPropertyOp45
 70
     1
102
RTVSPropertyOp46
 70
     1
102
RTVSPropertyOp47
 70
     1
102
RTVSPropertyOp48
 70
     1
102
RTVSPropertyOp49
 70
     1
102
RTVSPropertyOp50
 70
     1
102
RTVSPropertyOp51
 70
     0
102
RTVSPropertyOp52
 70
     0
102
RTVSPropertyOp53
 70
     1
102
RTVSPropertyOp54
 70
     1
102
RTVSPropertyOp55
 70
     1
102
RTVSPropertyOp56
 70
     1
102
RTVSPropertyOp57
 70
     1
102
RTVSPropertyOp58
 70
     1
102
RTVSPropertyOp59
 70
     1
102
RTVSPropertyOp60
 70
     1
102
RTVSPropertyOp61
 70
     1
102
RTVSPropertyOp62
 70
     1
  0
XRECORD
  5
708
102
{ACAD_REACTORS
330
707
102
}
330
707
100
AcDbXrecord
280
     1
102
RTVSPost2010Prop28
280
     0
102
RTVSPost2010PropOp28
 70
     1
102
RTVSPost2010Prop29
280
     1
102
RTVSPost2010PropOp29
 70
     1
102
RTVSPost2010Prop30
280
     1
102
RTVSPost2010PropOp30
 70
     1
102
RTVSPost2010Prop31
280
     0
102
RTVSPost2010PropOp31
 70
     1
102
RTVSPost2010Prop32
280
     0
102
RTVSPost2010PropOp32
 70
     1
102
RTVSPost2010Prop33
280
     0
102
RTVSPost2010PropOp33
 70
     1
102
RTVSPost2010Prop34
280
     0
102
RTVSPost2010PropOp34
 70
     1
102
RTVSPost2010Prop35
280
     0
102
RTVSPost2010PropOp35
 70
     1
102
RTVSPost2010Prop36
280
     0
102
RTVSPost2010PropOp36
 70
     1
102
RTVSPost2010Prop37
 90
       50
102
RTVSPost2010PropOp37
 70
     1
102
RTVSPost2010Prop38
140
0.0
102
RTVSPost2010PropOp38
 70
     1
102
RTVSPost2010Prop39
140
1.0
102
RTVSPost2010PropOp39
 70
     1
102
RTVSPost2010Prop40
 90
        0
102
RTVSPost2010PropOp40
 70
     1
102
RTVSPost2010Prop41ColorIndex
 90
       18
102
RTVSPost2010Prop41ColorRGB
 90
        0
102
RTVSPost2010PropOp41
 70
     1
102
RTVSPost2010Prop42
 90
       50
102
RTVSPost2010PropOp42
 70
     1
102
RTVSPost2010Prop43
 90
        3
102
RTVSPost2010PropOp43
 70
     1
102
RTVSPost2010Prop44ColorIndex
 90
        5
102
RTVSPost2010Prop44ColorRGB
 90
      255
102
RTVSPost2010PropOp44
 70
     1
102
RTVSPost2010Prop45
280
     0
102
RTVSPost2010PropOp45
 70
     1
102
RTVSPost2010Prop46
 90
       50
102
RTVSPost2010PropOp46
 70
     1
102
RTVSPost2010Prop47
 90
       50
102
RTVSPost2010PropOp47
 70
     1
102
RTVSPost2010Prop48
 90
       50
102
RTVSPost2010PropOp48
 70
     1
102
RTVSPost2010Prop49
280
     0
102
RTVSPost2010PropOp49
 70
     1
102
RTVSPost2010Prop50
 90
       50
102
RTVSPost2010PropOp50
 70
     1
102
RTVSPost2010Prop51ColorIndex
 90
      256
102
RTVSPost2010Prop51ColorRGB
 90
-16777216
102
RTVSPost2010PropOp51
 70
     0
102
RTVSPost2010Prop52
140
1.0
102
RTVSPost2010PropOp52
 70
     0
102
RTVSPost2010Prop53
 90
        2
102
RTVSPost2010PropOp53
 70
     1
102
RTVSPost2010Prop54
  1
strokes_ogs.tif
102
RTVSPost2010PropOp54
 70
     1
102
RTVSPost2010Prop55
280
     0
102
RTVSPost2010PropOp55
 70
     1
102
RTVSPost2010Prop56
140
1.0
102
RTVSPost2010PropOp56
 70
     1
102
RTVSPost2010Prop57
140
1.0
102
RTVSPost2010PropOp57
 70
     1
102
RTVSPropertyOp0
 70
     1
102
RTVSPropertyOp1
 70
     1
102
RTVSPropertyOp2
 70
     1
102
RTVSPropertyOp3
 70
     1
102
RTVSPropertyOp4
 70
     1
102
RTVSPropertyOp5
 70
     1
102
RTVSPropertyOp6
 70
     1
102
RTVSPropertyOp7
 70
     1
102
RTVSPropertyOp8
 70
     1
102
RTVSPropertyOp9
 70
     1
102
RTVSPropertyOp10
 70
     1
102
RTVSPropertyOp11
 70
     1
102
RTVSPropertyOp12
 70
     1
102
RTVSPropertyOp13
 70
     1
102
RTVSPropertyOp14
 70
     1
102
RTVSPropertyOp15
 70
     1
102
RTVSPropertyOp16
 70
     1
102
RTVSPropertyOp17
 70
     1
102
RTVSPropertyOp18
 70
     1
102
RTVSPropertyOp19
 70
     1
102
RTVSPropertyOp20
 70
     1
102
RTVSPropertyOp21
 70
     1
102
RTVSPropertyOp22
 70
     1
102
RTVSPropertyOp23
 70
     1
102
RTVSPropertyOp24
 70
     1
102
RTVSPropertyOp25
 70
     1
102
RTVSPropertyOp26
 70
     1
102
RTVSPropertyOp27
 70
     1
102
RTVSPropertyOp28
 70
     1
102
RTVSPropertyOp29
 70
     1
102
RTVSPropertyOp30
 70
     1
102
RTVSPropertyOp31
 70
     1
102
RTVSPropertyOp32
 70
     1
102
RTVSPropertyOp33
 70
     1
102
RTVSPropertyOp34
 70
     1
102
RTVSPropertyOp35
 70
     1
102
RTVSPropertyOp36
 70
     1
102
RTVSPropertyOp37
 70
     1
102
RTVSPropertyOp38
 70
     1
102
RTVSPropertyOp39
 70
     1
102
RTVSPropertyOp40
 70
     1
102
RTVSPropertyOp41
 70
     1
102
RTVSPropertyOp42
 70
     1
102
RTVSPropertyOp43
 70
     1
102
RTVSPropertyOp44
 70
     1
102
RTVSPropertyOp45
 70
     1
102
RTVSPropertyOp46
 70
     1
102
RTVSPropertyOp47
 70
     1
102
RTVSPropertyOp48
 70
     1
102
RTVSPropertyOp49
 70
     1
102
RTVSPropertyOp50
 70
     1
102
RTVSPropertyOp51
 70
     0
102
RTVSPropertyOp52
 70
     0
102
RTVSPropertyOp53
 70
     1
102
RTVSPropertyOp54
 70
     1
102
RTVSPropertyOp55
 70
     1
102
RTVSPropertyOp56
 70
     1
102
RTVSPropertyOp57
 70
     1
102
RTVSPropertyOp58
 70
     1
102
RTVSPropertyOp59
 70
     1
102
RTVSPropertyOp60
 70
     1
102
RTVSPropertyOp61
 70
     1
102
RTVSPropertyOp62
 70
     1
  0
XRECORD
  5
70A
102
{ACAD_REACTORS
330
709
102
}
330
709
100
AcDbXrecord
280
     1
102
RTVSPost2010Prop28
280
     0
102
RTVSPost2010PropOp28
 70
     1
102
RTVSPost2010Prop29
280
     1
102
RTVSPost2010PropOp29
 70
     1
102
RTVSPost2010Prop30
280
     1
102
RTVSPost2010PropOp30
 70
     1
102
RTVSPost2010Prop31
280
     0
102
RTVSPost2010PropOp31
 70
     1
102
RTVSPost2010Prop32
280
     0
102
RTVSPost2010PropOp32
 70
     1
102
RTVSPost2010Prop33
280
     0
102
RTVSPost2010PropOp33
 70
     1
102
RTVSPost2010Prop34
280
     0
102
RTVSPost2010PropOp34
 70
     1
102
RTVSPost2010Prop35
280
     0
102
RTVSPost2010PropOp35
 70
     1
102
RTVSPost2010Prop36
280
     0
102
RTVSPost2010PropOp36
 70
     1
102
RTVSPost2010Prop37
 90
       50
102
RTVSPost2010PropOp37
 70
     1
102
RTVSPost2010Prop38
140
0.0
102
RTVSPost2010PropOp38
 70
     1
102
RTVSPost2010Prop39
140
1.0
102
RTVSPost2010PropOp39
 70
     1
102
RTVSPost2010Prop40
 90
        0
102
RTVSPost2010PropOp40
 70
     1
102
RTVSPost2010Prop41ColorIndex
 90
       18
102
RTVSPost2010Prop41ColorRGB
 90
        0
102
RTVSPost2010PropOp41
 70
     1
102
RTVSPost2010Prop42
 90
       50
102
RTVSPost2010PropOp42
 70
     1
102
RTVSPost2010Prop43
 90
        3
102
RTVSPost2010PropOp43
 70
     1
102
RTVSPost2010Prop44ColorIndex
 90
        5
102
RTVSPost2010Prop44ColorRGB
 90
      255
102
RTVSPost2010PropOp44
 70
     1
102
RTVSPost2010Prop45
280
     0
102
RTVSPost2010PropOp45
 70
     1
102
RTVSPost2010Prop46
 90
       50
102
RTVSPost2010PropOp46
 70
     1
102
RTVSPost2010Prop47
 90
       50
102
RTVSPost2010PropOp47
 70
     1
102
RTVSPost2010Prop48
 90
       50
102
RTVSPost2010PropOp48
 70
     1
102
RTVSPost2010Prop49
280
     0
102
RTVSPost2010PropOp49
 70
     1
102
RTVSPost2010Prop50
 90
       50
102
RTVSPost2010PropOp50
 70
     1
102
RTVSPost2010Prop51ColorIndex
 90
      256
102
RTVSPost2010Prop51ColorRGB
 90
-16777216
102
RTVSPost2010PropOp51
 70
     0
102
RTVSPost2010Prop52
140
1.0
102
RTVSPost2010PropOp52
 70
     0
102
RTVSPost2010Prop53
 90
        2
102
RTVSPost2010PropOp53
 70
     1
102
RTVSPost2010Prop54
  1
strokes_ogs.tif
102
RTVSPost2010PropOp54
 70
     1
102
RTVSPost2010Prop55
280
     0
102
RTVSPost2010PropOp55
 70
     1
102
RTVSPost2010Prop56
140
1.0
102
RTVSPost2010PropOp56
 70
     1
102
RTVSPost2010Prop57
140
1.0
102
RTVSPost2010PropOp57
 70
     1
102
RTVSPropertyOp0
 70
     1
102
RTVSPropertyOp1
 70
     1
102
RTVSPropertyOp2
 70
     1
102
RTVSPropertyOp3
 70
     1
102
RTVSPropertyOp4
 70
     1
102
RTVSPropertyOp5
 70
     1
102
RTVSPropertyOp6
 70
     1
102
RTVSPropertyOp7
 70
     1
102
RTVSPropertyOp8
 70
     1
102
RTVSPropertyOp9
 70
     1
102
RTVSPropertyOp10
 70
     1
102
RTVSPropertyOp11
 70
     1
102
RTVSPropertyOp12
 70
     1
102
RTVSPropertyOp13
 70
     1
102
RTVSPropertyOp14
 70
     1
102
RTVSPropertyOp15
 70
     1
102
RTVSPropertyOp16
 70
     1
102
RTVSPropertyOp17
 70
     1
102
RTVSPropertyOp18
 70
     1
102
RTVSPropertyOp19
 70
     1
102
RTVSPropertyOp20
 70
     1
102
RTVSPropertyOp21
 70
     1
102
RTVSPropertyOp22
 70
     1
102
RTVSPropertyOp23
 70
     1
102
RTVSPropertyOp24
 70
     1
102
RTVSPropertyOp25
 70
     1
102
RTVSPropertyOp26
 70
     1
102
RTVSPropertyOp27
 70
     1
102
RTVSPropertyOp28
 70
     1
102
RTVSPropertyOp29
 70
     1
102
RTVSPropertyOp30
 70
     1
102
RTVSPropertyOp31
 70
     1
102
RTVSPropertyOp32
 70
     1
102
RTVSPropertyOp33
 70
     1
102
RTVSPropertyOp34
 70
     1
102
RTVSPropertyOp35
 70
     1
102
RTVSPropertyOp36
 70
     1
102
RTVSPropertyOp37
 70
     1
102
RTVSPropertyOp38
 70
     1
102
RTVSPropertyOp39
 70
     1
102
RTVSPropertyOp40
 70
     1
102
RTVSPropertyOp41
 70
     1
102
RTVSPropertyOp42
 70
     1
102
RTVSPropertyOp43
 70
     1
102
RTVSPropertyOp44
 70
     1
102
RTVSPropertyOp45
 70
     1
102
RTVSPropertyOp46
 70
     1
102
RTVSPropertyOp47
 70
     1
102
RTVSPropertyOp48
 70
     1
102
RTVSPropertyOp49
 70
     1
102
RTVSPropertyOp50
 70
     1
102
RTVSPropertyOp51
 70
     0
102
RTVSPropertyOp52
 70
     0
102
RTVSPropertyOp53
 70
     1
102
RTVSPropertyOp54
 70
     1
102
RTVSPropertyOp55
 70
     1
102
RTVSPropertyOp56
 70
     1
102
RTVSPropertyOp57
 70
     1
102
RTVSPropertyOp58
 70
     1
102
RTVSPropertyOp59
 70
     1
102
RTVSPropertyOp60
 70
     1
102
RTVSPropertyOp61
 70
     1
102
RTVSPropertyOp62
 70
     1
  0
XRECORD
  5
70C
102
{ACAD_REACTORS
330
70B
102
}
330
70B
100
AcDbXrecord
280
     1
102
RTVSPost2010Prop28
280
     0
102
RTVSPost2010PropOp28
 70
     1
102
RTVSPost2010Prop29
280
     1
102
RTVSPost2010PropOp29
 70
     1
102
RTVSPost2010Prop30
280
     1
102
RTVSPost2010PropOp30
 70
     1
102
RTVSPost2010Prop31
280
     0
102
RTVSPost2010PropOp31
 70
     1
102
RTVSPost2010Prop32
280
     0
102
RTVSPost2010PropOp32
 70
     1
102
RTVSPost2010Prop33
280
     0
102
RTVSPost2010PropOp33
 70
     1
102
RTVSPost2010Prop34
280
     0
102
RTVSPost2010PropOp34
 70
     1
102
RTVSPost2010Prop35
280
     0
102
RTVSPost2010PropOp35
 70
     1
102
RTVSPost2010Prop36
280
     0
102
RTVSPost2010PropOp36
 70
     1
102
RTVSPost2010Prop37
 90
       50
102
RTVSPost2010PropOp37
 70
     1
102
RTVSPost2010Prop38
140
0.0
102
RTVSPost2010PropOp38
 70
     1
102
RTVSPost2010Prop39
140
1.0
102
RTVSPost2010PropOp39
 70
     1
102
RTVSPost2010Prop40
 90
        0
102
RTVSPost2010PropOp40
 70
     1
102
RTVSPost2010Prop41ColorIndex
 90
       18
102
RTVSPost2010Prop41ColorRGB
 90
        0
102
RTVSPost2010PropOp41
 70
     1
102
RTVSPost2010Prop42
 90
       50
102
RTVSPost2010PropOp42
 70
     1
102
RTVSPost2010Prop43
 90
        3
102
RTVSPost2010PropOp43
 70
     1
102
RTVSPost2010Prop44ColorIndex
 90
        5
102
RTVSPost2010Prop44ColorRGB
 90
      255
102
RTVSPost2010PropOp44
 70
     1
102
RTVSPost2010Prop45
280
     0
102
RTVSPost2010PropOp45
 70
     1
102
RTVSPost2010Prop46
 90
       50
102
RTVSPost2010PropOp46
 70
     1
102
RTVSPost2010Prop47
 90
       50
102
RTVSPost2010PropOp47
 70
     1
102
RTVSPost2010Prop48
 90
       50
102
RTVSPost2010PropOp48
 70
     1
102
RTVSPost2010Prop49
280
     0
102
RTVSPost2010PropOp49
 70
     1
102
RTVSPost2010Prop50
 90
       50
102
RTVSPost2010PropOp50
 70
     1
102
RTVSPost2010Prop51ColorIndex
 90
      256
102
RTVSPost2010Prop51ColorRGB
 90
-16777216
102
RTVSPost2010PropOp51
 70
     0
102
RTVSPost2010Prop52
140
1.0
102
RTVSPost2010PropOp52
 70
     0
102
RTVSPost2010Prop53
 90
        2
102
RTVSPost2010PropOp53
 70
     1
102
RTVSPost2010Prop54
  1
strokes_ogs.tif
102
RTVSPost2010PropOp54
 70
     1
102
RTVSPost2010Prop55
280
     0
102
RTVSPost2010PropOp55
 70
     1
102
RTVSPost2010Prop56
140
1.0
102
RTVSPost2010PropOp56
 70
     1
102
RTVSPost2010Prop57
140
1.0
102
RTVSPost2010PropOp57
 70
     1
102
RTVSPropertyOp0
 70
     1
102
RTVSPropertyOp1
 70
     1
102
RTVSPropertyOp2
 70
     1
102
RTVSPropertyOp3
 70
     1
102
RTVSPropertyOp4
 70
     1
102
RTVSPropertyOp5
 70
     1
102
RTVSPropertyOp6
 70
     1
102
RTVSPropertyOp7
 70
     1
102
RTVSPropertyOp8
 70
     1
102
RTVSPropertyOp9
 70
     1
102
RTVSPropertyOp10
 70
     1
102
RTVSPropertyOp11
 70
     1
102
RTVSPropertyOp12
 70
     1
102
RTVSPropertyOp13
 70
     1
102
RTVSPropertyOp14
 70
     1
102
RTVSPropertyOp15
 70
     1
102
RTVSPropertyOp16
 70
     1
102
RTVSPropertyOp17
 70
     1
102
RTVSPropertyOp18
 70
     1
102
RTVSPropertyOp19
 70
     1
102
RTVSPropertyOp20
 70
     1
102
RTVSPropertyOp21
 70
     1
102
RTVSPropertyOp22
 70
     1
102
RTVSPropertyOp23
 70
     1
102
RTVSPropertyOp24
 70
     1
102
RTVSPropertyOp25
 70
     1
102
RTVSPropertyOp26
 70
     1
102
RTVSPropertyOp27
 70
     1
102
RTVSPropertyOp28
 70
     1
102
RTVSPropertyOp29
 70
     1
102
RTVSPropertyOp30
 70
     1
102
RTVSPropertyOp31
 70
     1
102
RTVSPropertyOp32
 70
     1
102
RTVSPropertyOp33
 70
     1
102
RTVSPropertyOp34
 70
     1
102
RTVSPropertyOp35
 70
     1
102
RTVSPropertyOp36
 70
     1
102
RTVSPropertyOp37
 70
     1
102
RTVSPropertyOp38
 70
     1
102
RTVSPropertyOp39
 70
     1
102
RTVSPropertyOp40
 70
     1
102
RTVSPropertyOp41
 70
     1
102
RTVSPropertyOp42
 70
     1
102
RTVSPropertyOp43
 70
     1
102
RTVSPropertyOp44
 70
     1
102
RTVSPropertyOp45
 70
     1
102
RTVSPropertyOp46
 70
     1
102
RTVSPropertyOp47
 70
     1
102
RTVSPropertyOp48
 70
     1
102
RTVSPropertyOp49
 70
     1
102
RTVSPropertyOp50
 70
     1
102
RTVSPropertyOp51
 70
     0
102
RTVSPropertyOp52
 70
     0
102
RTVSPropertyOp53
 70
     1
102
RTVSPropertyOp54
 70
     1
102
RTVSPropertyOp55
 70
     1
102
RTVSPropertyOp56
 70
     1
102
RTVSPropertyOp57
 70
     1
102
RTVSPropertyOp58
 70
     1
102
RTVSPropertyOp59
 70
     1
102
RTVSPropertyOp60
 70
     1
102
RTVSPropertyOp61
 70
     1
102
RTVSPropertyOp62
 70
     1
  0
XRECORD
  5
70E
102
{ACAD_REACTORS
330
70D
102
}
330
70D
100
AcDbXrecord
280
     1
102
RTVSPost2010Prop28
280
     0
102
RTVSPost2010PropOp28
 70
     1
102
RTVSPost2010Prop29
280
     1
102
RTVSPost2010PropOp29
 70
     1
102
RTVSPost2010Prop30
280
     1
102
RTVSPost2010PropOp30
 70
     1
102
RTVSPost2010Prop31
280
     0
102
RTVSPost2010PropOp31
 70
     1
102
RTVSPost2010Prop32
280
     0
102
RTVSPost2010PropOp32
 70
     1
102
RTVSPost2010Prop33
280
     0
102
RTVSPost2010PropOp33
 70
     1
102
RTVSPost2010Prop34
280
     0
102
RTVSPost2010PropOp34
 70
     1
102
RTVSPost2010Prop35
280
     0
102
RTVSPost2010PropOp35
 70
     1
102
RTVSPost2010Prop36
280
     0
102
RTVSPost2010PropOp36
 70
     1
102
RTVSPost2010Prop37
 90
       50
102
RTVSPost2010PropOp37
 70
     1
102
RTVSPost2010Prop38
140
0.0
102
RTVSPost2010PropOp38
 70
     1
102
RTVSPost2010Prop39
140
1.0
102
RTVSPost2010PropOp39
 70
     1
102
RTVSPost2010Prop40
 90
        0
102
RTVSPost2010PropOp40
 70
     1
102
RTVSPost2010Prop41ColorIndex
 90
       18
102
RTVSPost2010Prop41ColorRGB
 90
        0
102
RTVSPost2010PropOp41
 70
     1
102
RTVSPost2010Prop42
 90
       50
102
RTVSPost2010PropOp42
 70
     1
102
RTVSPost2010Prop43
 90
        3
102
RTVSPost2010PropOp43
 70
     1
102
RTVSPost2010Prop44ColorIndex
 90
        5
102
RTVSPost2010Prop44ColorRGB
 90
      255
102
RTVSPost2010PropOp44
 70
     1
102
RTVSPost2010Prop45
280
     0
102
RTVSPost2010PropOp45
 70
     1
102
RTVSPost2010Prop46
 90
       50
102
RTVSPost2010PropOp46
 70
     1
102
RTVSPost2010Prop47
 90
       50
102
RTVSPost2010PropOp47
 70
     1
102
RTVSPost2010Prop48
 90
       50
102
RTVSPost2010PropOp48
 70
     1
102
RTVSPost2010Prop49
280
     0
102
RTVSPost2010PropOp49
 70
     1
102
RTVSPost2010Prop50
 90
       50
102
RTVSPost2010PropOp50
 70
     1
102
RTVSPost2010Prop51ColorIndex
 90
      256
102
RTVSPost2010Prop51ColorRGB
 90
-16777216
102
RTVSPost2010PropOp51
 70
     0
102
RTVSPost2010Prop52
140
1.0
102
RTVSPost2010PropOp52
 70
     0
102
RTVSPost2010Prop53
 90
        2
102
RTVSPost2010PropOp53
 70
     1
102
RTVSPost2010Prop54
  1
strokes_ogs.tif
102
RTVSPost2010PropOp54
 70
     1
102
RTVSPost2010Prop55
280
     0
102
RTVSPost2010PropOp55
 70
     1
102
RTVSPost2010Prop56
140
1.0
102
RTVSPost2010PropOp56
 70
     1
102
RTVSPost2010Prop57
140
1.0
102
RTVSPost2010PropOp57
 70
     1
102
RTVSPropertyOp0
 70
     1
102
RTVSPropertyOp1
 70
     1
102
RTVSPropertyOp2
 70
     1
102
RTVSPropertyOp3
 70
     1
102
RTVSPropertyOp4
 70
     1
102
RTVSPropertyOp5
 70
     1
102
RTVSPropertyOp6
 70
     1
102
RTVSPropertyOp7
 70
     1
102
RTVSPropertyOp8
 70
     1
102
RTVSPropertyOp9
 70
     1
102
RTVSPropertyOp10
 70
     1
102
RTVSPropertyOp11
 70
     1
102
RTVSPropertyOp12
 70
     1
102
RTVSPropertyOp13
 70
     1
102
RTVSPropertyOp14
 70
     1
102
RTVSPropertyOp15
 70
     1
102
RTVSPropertyOp16
 70
     1
102
RTVSPropertyOp17
 70
     1
102
RTVSPropertyOp18
 70
     1
102
RTVSPropertyOp19
 70
     1
102
RTVSPropertyOp20
 70
     1
102
RTVSPropertyOp21
 70
     1
102
RTVSPropertyOp22
 70
     1
102
RTVSPropertyOp23
 70
     1
102
RTVSPropertyOp24
 70
     1
102
RTVSPropertyOp25
 70
     1
102
RTVSPropertyOp26
 70
     1
102
RTVSPropertyOp27
 70
     1
102
RTVSPropertyOp28
 70
     1
102
RTVSPropertyOp29
 70
     1
102
RTVSPropertyOp30
 70
     1
102
RTVSPropertyOp31
 70
     1
102
RTVSPropertyOp32
 70
     1
102
RTVSPropertyOp33
 70
     1
102
RTVSPropertyOp34
 70
     1
102
RTVSPropertyOp35
 70
     1
102
RTVSPropertyOp36
 70
     1
102
RTVSPropertyOp37
 70
     1
102
RTVSPropertyOp38
 70
     1
102
RTVSPropertyOp39
 70
     1
102
RTVSPropertyOp40
 70
     1
102
RTVSPropertyOp41
 70
     1
102
RTVSPropertyOp42
 70
     1
102
RTVSPropertyOp43
 70
     1
102
RTVSPropertyOp44
 70
     1
102
RTVSPropertyOp45
 70
     1
102
RTVSPropertyOp46
 70
     1
102
RTVSPropertyOp47
 70
     1
102
RTVSPropertyOp48
 70
     1
102
RTVSPropertyOp49
 70
     1
102
RTVSPropertyOp50
 70
     1
102
RTVSPropertyOp51
 70
     0
102
RTVSPropertyOp52
 70
     0
102
RTVSPropertyOp53
 70
     1
102
RTVSPropertyOp54
 70
     1
102
RTVSPropertyOp55
 70
     1
102
RTVSPropertyOp56
 70
     1
102
RTVSPropertyOp57
 70
     1
102
RTVSPropertyOp58
 70
     1
102
RTVSPropertyOp59
 70
     1
102
RTVSPropertyOp60
 70
     1
102
RTVSPropertyOp61
 70
     1
102
RTVSPropertyOp62
 70
     1
  0
XRECORD
  5
716
102
{ACAD_REACTORS
330
715
102
}
330
715
100
AcDbXrecord
280
     1
102
RTVSPost2010Prop28
280
     0
102
RTVSPost2010PropOp28
 70
     1
102
RTVSPost2010Prop29
280
     1
102
RTVSPost2010PropOp29
 70
     1
102
RTVSPost2010Prop30
280
     1
102
RTVSPost2010PropOp30
 70
     1
102
RTVSPost2010Prop31
280
     0
102
RTVSPost2010PropOp31
 70
     1
102
RTVSPost2010Prop32
280
     0
102
RTVSPost2010PropOp32
 70
     1
102
RTVSPost2010Prop33
280
     0
102
RTVSPost2010PropOp33
 70
     1
102
RTVSPost2010Prop34
280
     0
102
RTVSPost2010PropOp34
 70
     1
102
RTVSPost2010Prop35
280
     0
102
RTVSPost2010PropOp35
 70
     1
102
RTVSPost2010Prop36
280
     0
102
RTVSPost2010PropOp36
 70
     1
102
RTVSPost2010Prop37
 90
       50
102
RTVSPost2010PropOp37
 70
     1
102
RTVSPost2010Prop38
140
0.0
102
RTVSPost2010PropOp38
 70
     1
102
RTVSPost2010Prop39
140
1.0
102
RTVSPost2010PropOp39
 70
     1
102
RTVSPost2010Prop40
 90
        0
102
RTVSPost2010PropOp40
 70
     1
102
RTVSPost2010Prop41ColorIndex
 90
       18
102
RTVSPost2010Prop41ColorRGB
 90
        0
102
RTVSPost2010PropOp41
 70
     1
102
RTVSPost2010Prop42
 90
       50
102
RTVSPost2010PropOp42
 70
     1
102
RTVSPost2010Prop43
 90
        3
102
RTVSPost2010PropOp43
 70
     1
102
RTVSPost2010Prop44ColorIndex
 90
        5
102
RTVSPost2010Prop44ColorRGB
 90
      255
102
RTVSPost2010PropOp44
 70
     1
102
RTVSPost2010Prop45
280
     0
102
RTVSPost2010PropOp45
 70
     1
102
RTVSPost2010Prop46
 90
       50
102
RTVSPost2010PropOp46
 70
     1
102
RTVSPost2010Prop47
 90
       50
102
RTVSPost2010PropOp47
 70
     1
102
RTVSPost2010Prop48
 90
       50
102
RTVSPost2010PropOp48
 70
     1
102
RTVSPost2010Prop49
280
     0
102
RTVSPost2010PropOp49
 70
     1
102
RTVSPost2010Prop50
 90
       50
102
RTVSPost2010PropOp50
 70
     1
102
RTVSPost2010Prop51ColorIndex
 90
      256
102
RTVSPost2010Prop51ColorRGB
 90
-16777216
102
RTVSPost2010PropOp51
 70
     0
102
RTVSPost2010Prop52
140
1.0
102
RTVSPost2010PropOp52
 70
     0
102
RTVSPost2010Prop53
 90
        2
102
RTVSPost2010PropOp53
 70
     1
102
RTVSPost2010Prop54
  1
strokes_ogs.tif
102
RTVSPost2010PropOp54
 70
     1
102
RTVSPost2010Prop55
280
     0
102
RTVSPost2010PropOp55
 70
     1
102
RTVSPost2010Prop56
140
1.0
102
RTVSPost2010PropOp56
 70
     1
102
RTVSPost2010Prop57
140
1.0
102
RTVSPost2010PropOp57
 70
     1
102
RTVSPropertyOp0
 70
     1
102
RTVSPropertyOp1
 70
     1
102
RTVSPropertyOp2
 70
     1
102
RTVSPropertyOp3
 70
     1
102
RTVSPropertyOp4
 70
     1
102
RTVSPropertyOp5
 70
     1
102
RTVSPropertyOp6
 70
     1
102
RTVSPropertyOp7
 70
     1
102
RTVSPropertyOp8
 70
     1
102
RTVSPropertyOp9
 70
     1
102
RTVSPropertyOp10
 70
     1
102
RTVSPropertyOp11
 70
     1
102
RTVSPropertyOp12
 70
     1
102
RTVSPropertyOp13
 70
     1
102
RTVSPropertyOp14
 70
     1
102
RTVSPropertyOp15
 70
     1
102
RTVSPropertyOp16
 70
     1
102
RTVSPropertyOp17
 70
     1
102
RTVSPropertyOp18
 70
     1
102
RTVSPropertyOp19
 70
     1
102
RTVSPropertyOp20
 70
     1
102
RTVSPropertyOp21
 70
     1
102
RTVSPropertyOp22
 70
     1
102
RTVSPropertyOp23
 70
     1
102
RTVSPropertyOp24
 70
     1
102
RTVSPropertyOp25
 70
     1
102
RTVSPropertyOp26
 70
     1
102
RTVSPropertyOp27
 70
     1
102
RTVSPropertyOp28
 70
     1
102
RTVSPropertyOp29
 70
     1
102
RTVSPropertyOp30
 70
     1
102
RTVSPropertyOp31
 70
     1
102
RTVSPropertyOp32
 70
     1
102
RTVSPropertyOp33
 70
     1
102
RTVSPropertyOp34
 70
     1
102
RTVSPropertyOp35
 70
     1
102
RTVSPropertyOp36
 70
     1
102
RTVSPropertyOp37
 70
     1
102
RTVSPropertyOp38
 70
     1
102
RTVSPropertyOp39
 70
     1
102
RTVSPropertyOp40
 70
     1
102
RTVSPropertyOp41
 70
     1
102
RTVSPropertyOp42
 70
     1
102
RTVSPropertyOp43
 70
     1
102
RTVSPropertyOp44
 70
     1
102
RTVSPropertyOp45
 70
     1
102
RTVSPropertyOp46
 70
     1
102
RTVSPropertyOp47
 70
     1
102
RTVSPropertyOp48
 70
     1
102
RTVSPropertyOp49
 70
     1
102
RTVSPropertyOp50
 70
     1
102
RTVSPropertyOp51
 70
     0
102
RTVSPropertyOp52
 70
     0
102
RTVSPropertyOp53
 70
     1
102
RTVSPropertyOp54
 70
     1
102
RTVSPropertyOp55
 70
     1
102
RTVSPropertyOp56
 70
     1
102
RTVSPropertyOp57
 70
     1
102
RTVSPropertyOp58
 70
     1
102
RTVSPropertyOp59
 70
     1
102
RTVSPropertyOp60
 70
     1
102
RTVSPropertyOp61
 70
     1
102
RTVSPropertyOp62
 70
     1
  0
XRECORD
  5
732
102
{ACAD_REACTORS
330
731
102
}
330
731
100
AcDbXrecord
280
     1
102
RTVSPost2010Prop28
280
     0
102
RTVSPost2010PropOp28
 70
     1
102
RTVSPost2010Prop29
280
     1
102
RTVSPost2010PropOp29
 70
     1
102
RTVSPost2010Prop30
280
     1
102
RTVSPost2010PropOp30
 70
     1
102
RTVSPost2010Prop31
280
     0
102
RTVSPost2010PropOp31
 70
     1
102
RTVSPost2010Prop32
280
     0
102
RTVSPost2010PropOp32
 70
     1
102
RTVSPost2010Prop33
280
     0
102
RTVSPost2010PropOp33
 70
     1
102
RTVSPost2010Prop34
280
     0
102
RTVSPost2010PropOp34
 70
     1
102
RTVSPost2010Prop35
280
     0
102
RTVSPost2010PropOp35
 70
     1
102
RTVSPost2010Prop36
280
     0
102
RTVSPost2010PropOp36
 70
     1
102
RTVSPost2010Prop37
 90
       50
102
RTVSPost2010PropOp37
 70
     0
102
RTVSPost2010Prop38
140
0.0
102
RTVSPost2010PropOp38
 70
     0
102
RTVSPost2010Prop39
140
1.0
102
RTVSPost2010PropOp39
 70
     0
102
RTVSPost2010Prop40
 90
        0
102
RTVSPost2010PropOp40
 70
     0
102
RTVSPost2010Prop41ColorIndex
 90
       18
102
RTVSPost2010Prop41ColorRGB
 90
        0
102
RTVSPost2010PropOp41
 70
     0
102
RTVSPost2010Prop42
 90
       50
102
RTVSPost2010PropOp42
 70
     0
102
RTVSPost2010Prop43
 90
        3
102
RTVSPost2010PropOp43
 70
     0
102
RTVSPost2010Prop44ColorIndex
 90
        5
102
RTVSPost2010Prop44ColorRGB
 90
      255
102
RTVSPost2010PropOp44
 70
     0
102
RTVSPost2010Prop45
280
     0
102
RTVSPost2010PropOp45
 70
     1
102
RTVSPost2010Prop46
 90
       50
102
RTVSPost2010PropOp46
 70
     0
102
RTVSPost2010Prop47
 90
       50
102
RTVSPost2010PropOp47
 70
     0
102
RTVSPost2010Prop48
 90
       50
102
RTVSPost2010PropOp48
 70
     0
102
RTVSPost2010Prop49
280
     0
102
RTVSPost2010PropOp49
 70
     1
102
RTVSPost2010Prop50
 90
       50
102
RTVSPost2010PropOp50
 70
     0
102
RTVSPost2010Prop51ColorIndex
 90
      256
102
RTVSPost2010Prop51ColorRGB
 90
-16777216
102
RTVSPost2010PropOp51
 70
     0
102
RTVSPost2010Prop52
140
1.0
102
RTVSPost2010PropOp52
 70
     0
102
RTVSPost2010Prop53
 90
        2
102
RTVSPost2010PropOp53
 70
     0
102
RTVSPost2010Prop54
  1
strokes_ogs.tif
102
RTVSPost2010PropOp54
 70
     0
102
RTVSPost2010Prop55
280
     0
102
RTVSPost2010PropOp55
 70
     1
102
RTVSPost2010Prop56
140
1.0
102
RTVSPost2010PropOp56
 70
     0
102
RTVSPost2010Prop57
140
1.0
102
RTVSPost2010PropOp57
 70
     0
102
RTVSPropertyOp0
 70
     0
102
RTVSPropertyOp1
 70
     0
102
RTVSPropertyOp2
 70
     0
102
RTVSPropertyOp3
 70
     0
102
RTVSPropertyOp4
 70
     0
102
RTVSPropertyOp5
 70
     0
102
RTVSPropertyOp6
 70
     0
102
RTVSPropertyOp7
 70
     0
102
RTVSPropertyOp8
 70
     0
102
RTVSPropertyOp9
 70
     0
102
RTVSPropertyOp10
 70
     0
102
RTVSPropertyOp11
 70
     0
102
RTVSPropertyOp12
 70
     0
102
RTVSPropertyOp13
 70
     0
102
RTVSPropertyOp14
 70
     2
102
RTVSPropertyOp15
 70
     0
102
RTVSPropertyOp16
 70
     0
102
RTVSPropertyOp17
 70
     0
102
RTVSPropertyOp18
 70
     0
102
RTVSPropertyOp19
 70
     0
102
RTVSPropertyOp20
 70
     0
102
RTVSPropertyOp21
 70
     0
102
RTVSPropertyOp22
 70
     0
102
RTVSPropertyOp23
 70
     0
102
RTVSPropertyOp24
 70
     0
102
RTVSPropertyOp25
 70
     0
102
RTVSPropertyOp26
 70
     0
102
RTVSPropertyOp27
 70
     0
102
RTVSPropertyOp28
 70
     1
102
RTVSPropertyOp29
 70
     1
102
RTVSPropertyOp30
 70
     1
102
RTVSPropertyOp31
 70
     1
102
RTVSPropertyOp32
 70
     1
102
RTVSPropertyOp33
 70
     1
102
RTVSPropertyOp34
 70
     1
102
RTVSPropertyOp35
 70
     1
102
RTVSPropertyOp36
 70
     1
102
RTVSPropertyOp37
 70
     0
102
RTVSPropertyOp38
 70
     0
102
RTVSPropertyOp39
 70
     0
102
RTVSPropertyOp40
 70
     0
102
RTVSPropertyOp41
 70
     0
102
RTVSPropertyOp42
 70
     0
102
RTVSPropertyOp43
 70
     0
102
RTVSPropertyOp44
 70
     0
102
RTVSPropertyOp45
 70
     1
102
RTVSPropertyOp46
 70
     0
102
RTVSPropertyOp47
 70
     0
102
RTVSPropertyOp48
 70
     0
102
RTVSPropertyOp49
 70
     1
102
RTVSPropertyOp50
 70
     0
102
RTVSPropertyOp51
 70
     0
102
RTVSPropertyOp52
 70
     0
102
RTVSPropertyOp53
 70
     0
102
RTVSPropertyOp54
 70
     0
102
RTVSPropertyOp55
 70
     1
102
RTVSPropertyOp56
 70
     0
102
RTVSPropertyOp57
 70
     0
102
RTVSPropertyOp58
 70
     0
102
RTVSPropertyOp59
 70
     0
102
RTVSPropertyOp60
 70
     0
102
RTVSPropertyOp61
 70
     0
102
RTVSPropertyOp62
 70
     0
  0
XRECORD
  5
722
102
{ACAD_REACTORS
330
721
102
}
330
721
100
AcDbXrecord
280
     1
102
RTVSPost2010Prop28
280
     0
102
RTVSPost2010PropOp28
 70
     1
102
RTVSPost2010Prop29
280
     1
102
RTVSPost2010PropOp29
 70
     1
102
RTVSPost2010Prop30
280
     1
102
RTVSPost2010PropOp30
 70
     1
102
RTVSPost2010Prop31
280
     0
102
RTVSPost2010PropOp31
 70
     1
102
RTVSPost2010Prop32
280
     0
102
RTVSPost2010PropOp32
 70
     1
102
RTVSPost2010Prop33
280
     0
102
RTVSPost2010PropOp33
 70
     1
102
RTVSPost2010Prop34
280
     0
102
RTVSPost2010PropOp34
 70
     1
102
RTVSPost2010Prop35
280
     0
102
RTVSPost2010PropOp35
 70
     1
102
RTVSPost2010Prop36
280
     0
102
RTVSPost2010PropOp36
 70
     1
102
RTVSPost2010Prop37
 90
       50
102
RTVSPost2010PropOp37
 70
     1
102
RTVSPost2010Prop38
140
0.0
102
RTVSPost2010PropOp38
 70
     1
102
RTVSPost2010Prop39
140
1.0
102
RTVSPost2010PropOp39
 70
     1
102
RTVSPost2010Prop40
 90
        0
102
RTVSPost2010PropOp40
 70
     1
102
RTVSPost2010Prop41ColorIndex
 90
       18
102
RTVSPost2010Prop41ColorRGB
 90
        0
102
RTVSPost2010PropOp41
 70
     1
102
RTVSPost2010Prop42
 90
       50
102
RTVSPost2010PropOp42
 70
     1
102
RTVSPost2010Prop43
 90
        3
102
RTVSPost2010PropOp43
 70
     1
102
RTVSPost2010Prop44ColorIndex
 90
        5
102
RTVSPost2010Prop44ColorRGB
 90
      255
102
RTVSPost2010PropOp44
 70
     1
102
RTVSPost2010Prop45
280
     0
102
RTVSPost2010PropOp45
 70
     1
102
RTVSPost2010Prop46
 90
       50
102
RTVSPost2010PropOp46
 70
     1
102
RTVSPost2010Prop47
 90
       50
102
RTVSPost2010PropOp47
 70
     1
102
RTVSPost2010Prop48
 90
       50
102
RTVSPost2010PropOp48
 70
     1
102
RTVSPost2010Prop49
280
     0
102
RTVSPost2010PropOp49
 70
     1
102
RTVSPost2010Prop50
 90
       50
102
RTVSPost2010PropOp50
 70
     1
102
RTVSPost2010Prop51ColorIndex
 90
      256
102
RTVSPost2010Prop51ColorRGB
 90
-16777216
102
RTVSPost2010PropOp51
 70
     0
102
RTVSPost2010Prop52
140
1.0
102
RTVSPost2010PropOp52
 70
     0
102
RTVSPost2010Prop53
 90
        2
102
RTVSPost2010PropOp53
 70
     1
102
RTVSPost2010Prop54
  1
strokes_ogs.tif
102
RTVSPost2010PropOp54
 70
     1
102
RTVSPost2010Prop55
280
     0
102
RTVSPost2010PropOp55
 70
     1
102
RTVSPost2010Prop56
140
1.0
102
RTVSPost2010PropOp56
 70
     1
102
RTVSPost2010Prop57
140
1.0
102
RTVSPost2010PropOp57
 70
     1
102
RTVSPropertyOp0
 70
     1
102
RTVSPropertyOp1
 70
     1
102
RTVSPropertyOp2
 70
     1
102
RTVSPropertyOp3
 70
     1
102
RTVSPropertyOp4
 70
     1
102
RTVSPropertyOp5
 70
     1
102
RTVSPropertyOp6
 70
     1
102
RTVSPropertyOp7
 70
     1
102
RTVSPropertyOp8
 70
     1
102
RTVSPropertyOp9
 70
     1
102
RTVSPropertyOp10
 70
     1
102
RTVSPropertyOp11
 70
     1
102
RTVSPropertyOp12
 70
     1
102
RTVSPropertyOp13
 70
     1
102
RTVSPropertyOp14
 70
     1
102
RTVSPropertyOp15
 70
     1
102
RTVSPropertyOp16
 70
     1
102
RTVSPropertyOp17
 70
     1
102
RTVSPropertyOp18
 70
     1
102
RTVSPropertyOp19
 70
     1
102
RTVSPropertyOp20
 70
     1
102
RTVSPropertyOp21
 70
     1
102
RTVSPropertyOp22
 70
     1
102
RTVSPropertyOp23
 70
     1
102
RTVSPropertyOp24
 70
     1
102
RTVSPropertyOp25
 70
     1
102
RTVSPropertyOp26
 70
     1
102
RTVSPropertyOp27
 70
     1
102
RTVSPropertyOp28
 70
     1
102
RTVSPropertyOp29
 70
     1
102
RTVSPropertyOp30
 70
     1
102
RTVSPropertyOp31
 70
     1
102
RTVSPropertyOp32
 70
     1
102
RTVSPropertyOp33
 70
     1
102
RTVSPropertyOp34
 70
     1
102
RTVSPropertyOp35
 70
     1
102
RTVSPropertyOp36
 70
     1
102
RTVSPropertyOp37
 70
     1
102
RTVSPropertyOp38
 70
     1
102
RTVSPropertyOp39
 70
     1
102
RTVSPropertyOp40
 70
     1
102
RTVSPropertyOp41
 70
     1
102
RTVSPropertyOp42
 70
     1
102
RTVSPropertyOp43
 70
     1
102
RTVSPropertyOp44
 70
     1
102
RTVSPropertyOp45
 70
     1
102
RTVSPropertyOp46
 70
     1
102
RTVSPropertyOp47
 70
     1
102
RTVSPropertyOp48
 70
     1
102
RTVSPropertyOp49
 70
     1
102
RTVSPropertyOp50
 70
     1
102
RTVSPropertyOp51
 70
     0
102
RTVSPropertyOp52
 70
     0
102
RTVSPropertyOp53
 70
     1
102
RTVSPropertyOp54
 70
     1
102
RTVSPropertyOp55
 70
     1
102
RTVSPropertyOp56
 70
     1
102
RTVSPropertyOp57
 70
     1
102
RTVSPropertyOp58
 70
     1
102
RTVSPropertyOp59
 70
     1
102
RTVSPropertyOp60
 70
     1
102
RTVSPropertyOp61
 70
     1
102
RTVSPropertyOp62
 70
     1
  0
XRECORD
  5
734
102
{ACAD_REACTORS
330
733
102
}
330
733
100
AcDbXrecord
280
     1
102
RTVSPost2010Prop28
280
     0
102
RTVSPost2010PropOp28
 70
     1
102
RTVSPost2010Prop29
280
     1
102
RTVSPost2010PropOp29
 70
     1
102
RTVSPost2010Prop30
280
     1
102
RTVSPost2010PropOp30
 70
     1
102
RTVSPost2010Prop31
280
     0
102
RTVSPost2010PropOp31
 70
     1
102
RTVSPost2010Prop32
280
     0
102
RTVSPost2010PropOp32
 70
     1
102
RTVSPost2010Prop33
280
     0
102
RTVSPost2010PropOp33
 70
     1
102
RTVSPost2010Prop34
280
     0
102
RTVSPost2010PropOp34
 70
     1
102
RTVSPost2010Prop35
280
     0
102
RTVSPost2010PropOp35
 70
     1
102
RTVSPost2010Prop36
280
     0
102
RTVSPost2010PropOp36
 70
     1
102
RTVSPost2010Prop37
 90
       50
102
RTVSPost2010PropOp37
 70
     0
102
RTVSPost2010Prop38
140
0.0
102
RTVSPost2010PropOp38
 70
     0
102
RTVSPost2010Prop39
140
1.0
102
RTVSPost2010PropOp39
 70
     0
102
RTVSPost2010Prop40
 90
        0
102
RTVSPost2010PropOp40
 70
     0
102
RTVSPost2010Prop41ColorIndex
 90
       18
102
RTVSPost2010Prop41ColorRGB
 90
        0
102
RTVSPost2010PropOp41
 70
     0
102
RTVSPost2010Prop42
 90
       50
102
RTVSPost2010PropOp42
 70
     0
102
RTVSPost2010Prop43
 90
        3
102
RTVSPost2010PropOp43
 70
     0
102
RTVSPost2010Prop44ColorIndex
 90
        5
102
RTVSPost2010Prop44ColorRGB
 90
      255
102
RTVSPost2010PropOp44
 70
     0
102
RTVSPost2010Prop45
280
     0
102
RTVSPost2010PropOp45
 70
     1
102
RTVSPost2010Prop46
 90
       50
102
RTVSPost2010PropOp46
 70
     0
102
RTVSPost2010Prop47
 90
       50
102
RTVSPost2010PropOp47
 70
     0
102
RTVSPost2010Prop48
 90
       50
102
RTVSPost2010PropOp48
 70
     0
102
RTVSPost2010Prop49
280
     0
102
RTVSPost2010PropOp49
 70
     1
102
RTVSPost2010Prop50
 90
       50
102
RTVSPost2010PropOp50
 70
     0
102
RTVSPost2010Prop51ColorIndex
 90
      256
102
RTVSPost2010Prop51ColorRGB
 90
-16777216
102
RTVSPost2010PropOp51
 70
     0
102
RTVSPost2010Prop52
140
1.0
102
RTVSPost2010PropOp52
 70
     0
102
RTVSPost2010Prop53
 90
        2
102
RTVSPost2010PropOp53
 70
     0
102
RTVSPost2010Prop54
  1
strokes_ogs.tif
102
RTVSPost2010PropOp54
 70
     0
102
RTVSPost2010Prop55
280
     0
102
RTVSPost2010PropOp55
 70
     1
102
RTVSPost2010Prop56
140
1.0
102
RTVSPost2010PropOp56
 70
     0
102
RTVSPost2010Prop57
140
1.0
102
RTVSPost2010PropOp57
 70
     0
102
RTVSPropertyOp0
 70
     0
102
RTVSPropertyOp1
 70
     0
102
RTVSPropertyOp2
 70
     0
102
RTVSPropertyOp3
 70
     0
102
RTVSPropertyOp4
 70
     0
102
RTVSPropertyOp5
 70
     0
102
RTVSPropertyOp6
 70
     0
102
RTVSPropertyOp7
 70
     0
102
RTVSPropertyOp8
 70
     0
102
RTVSPropertyOp9
 70
     0
102
RTVSPropertyOp10
 70
     0
102
RTVSPropertyOp11
 70
     0
102
RTVSPropertyOp12
 70
     0
102
RTVSPropertyOp13
 70
     0
102
RTVSPropertyOp14
 70
     2
102
RTVSPropertyOp15
 70
     0
102
RTVSPropertyOp16
 70
     0
102
RTVSPropertyOp17
 70
     0
102
RTVSPropertyOp18
 70
     0
102
RTVSPropertyOp19
 70
     0
102
RTVSPropertyOp20
 70
     0
102
RTVSPropertyOp21
 70
     0
102
RTVSPropertyOp22
 70
     0
102
RTVSPropertyOp23
 70
     0
102
RTVSPropertyOp24
 70
     0
102
RTVSPropertyOp25
 70
     0
102
RTVSPropertyOp26
 70
     0
102
RTVSPropertyOp27
 70
     0
102
RTVSPropertyOp28
 70
     1
102
RTVSPropertyOp29
 70
     1
102
RTVSPropertyOp30
 70
     1
102
RTVSPropertyOp31
 70
     1
102
RTVSPropertyOp32
 70
     1
102
RTVSPropertyOp33
 70
     1
102
RTVSPropertyOp34
 70
     1
102
RTVSPropertyOp35
 70
     1
102
RTVSPropertyOp36
 70
     1
102
RTVSPropertyOp37
 70
     0
102
RTVSPropertyOp38
 70
     0
102
RTVSPropertyOp39
 70
     0
102
RTVSPropertyOp40
 70
     0
102
RTVSPropertyOp41
 70
     0
102
RTVSPropertyOp42
 70
     0
102
RTVSPropertyOp43
 70
     0
102
RTVSPropertyOp44
 70
     0
102
RTVSPropertyOp45
 70
     1
102
RTVSPropertyOp46
 70
     0
102
RTVSPropertyOp47
 70
     0
102
RTVSPropertyOp48
 70
     0
102
RTVSPropertyOp49
 70
     1
102
RTVSPropertyOp50
 70
     0
102
RTVSPropertyOp51
 70
     0
102
RTVSPropertyOp52
 70
     0
102
RTVSPropertyOp53
 70
     0
102
RTVSPropertyOp54
 70
     0
102
RTVSPropertyOp55
 70
     1
102
RTVSPropertyOp56
 70
     0
102
RTVSPropertyOp57
 70
     0
102
RTVSPropertyOp58
 70
     0
102
RTVSPropertyOp59
 70
     0
102
RTVSPropertyOp60
 70
     0
102
RTVSPropertyOp61
 70
     0
102
RTVSPropertyOp62
 70
     0
  0
XRECORD
  5
71A
102
{ACAD_REACTORS
330
719
102
}
330
719
100
AcDbXrecord
280
     1
102
RTVSPost2010Prop28
280
     0
102
RTVSPost2010PropOp28
 70
     1
102
RTVSPost2010Prop29
280
     1
102
RTVSPost2010PropOp29
 70
     1
102
RTVSPost2010Prop30
280
     1
102
RTVSPost2010PropOp30
 70
     1
102
RTVSPost2010Prop31
280
     0
102
RTVSPost2010PropOp31
 70
     1
102
RTVSPost2010Prop32
280
     0
102
RTVSPost2010PropOp32
 70
     1
102
RTVSPost2010Prop33
280
     0
102
RTVSPost2010PropOp33
 70
     1
102
RTVSPost2010Prop34
280
     0
102
RTVSPost2010PropOp34
 70
     1
102
RTVSPost2010Prop35
280
     0
102
RTVSPost2010PropOp35
 70
     1
102
RTVSPost2010Prop36
280
     0
102
RTVSPost2010PropOp36
 70
     1
102
RTVSPost2010Prop37
 90
       50
102
RTVSPost2010PropOp37
 70
     1
102
RTVSPost2010Prop38
140
0.0
102
RTVSPost2010PropOp38
 70
     1
102
RTVSPost2010Prop39
140
1.0
102
RTVSPost2010PropOp39
 70
     1
102
RTVSPost2010Prop40
 90
        0
102
RTVSPost2010PropOp40
 70
     1
102
RTVSPost2010Prop41ColorIndex
 90
       18
102
RTVSPost2010Prop41ColorRGB
 90
        0
102
RTVSPost2010PropOp41
 70
     1
102
RTVSPost2010Prop42
 90
       50
102
RTVSPost2010PropOp42
 70
     1
102
RTVSPost2010Prop43
 90
        3
102
RTVSPost2010PropOp43
 70
     1
102
RTVSPost2010Prop44ColorIndex
 90
        5
102
RTVSPost2010Prop44ColorRGB
 90
      255
102
RTVSPost2010PropOp44
 70
     1
102
RTVSPost2010Prop45
280
     0
102
RTVSPost2010PropOp45
 70
     1
102
RTVSPost2010Prop46
 90
       50
102
RTVSPost2010PropOp46
 70
     1
102
RTVSPost2010Prop47
 90
       50
102
RTVSPost2010PropOp47
 70
     1
102
RTVSPost2010Prop48
 90
       50
102
RTVSPost2010PropOp48
 70
     1
102
RTVSPost2010Prop49
280
     0
102
RTVSPost2010PropOp49
 70
     1
102
RTVSPost2010Prop50
 90
       50
102
RTVSPost2010PropOp50
 70
     1
102
RTVSPost2010Prop51ColorIndex
 90
      256
102
RTVSPost2010Prop51ColorRGB
 90
-16777216
102
RTVSPost2010PropOp51
 70
     0
102
RTVSPost2010Prop52
140
1.0
102
RTVSPost2010PropOp52
 70
     0
102
RTVSPost2010Prop53
 90
        2
102
RTVSPost2010PropOp53
 70
     1
102
RTVSPost2010Prop54
  1
strokes_ogs.tif
102
RTVSPost2010PropOp54
 70
     1
102
RTVSPost2010Prop55
280
     0
102
RTVSPost2010PropOp55
 70
     1
102
RTVSPost2010Prop56
140
1.0
102
RTVSPost2010PropOp56
 70
     1
102
RTVSPost2010Prop57
140
1.0
102
RTVSPost2010PropOp57
 70
     1
102
RTVSPropertyOp0
 70
     1
102
RTVSPropertyOp1
 70
     1
102
RTVSPropertyOp2
 70
     1
102
RTVSPropertyOp3
 70
     1
102
RTVSPropertyOp4
 70
     1
102
RTVSPropertyOp5
 70
     1
102
RTVSPropertyOp6
 70
     1
102
RTVSPropertyOp7
 70
     1
102
RTVSPropertyOp8
 70
     1
102
RTVSPropertyOp9
 70
     1
102
RTVSPropertyOp10
 70
     1
102
RTVSPropertyOp11
 70
     1
102
RTVSPropertyOp12
 70
     1
102
RTVSPropertyOp13
 70
     1
102
RTVSPropertyOp14
 70
     1
102
RTVSPropertyOp15
 70
     1
102
RTVSPropertyOp16
 70
     1
102
RTVSPropertyOp17
 70
     1
102
RTVSPropertyOp18
 70
     1
102
RTVSPropertyOp19
 70
     1
102
RTVSPropertyOp20
 70
     1
102
RTVSPropertyOp21
 70
     1
102
RTVSPropertyOp22
 70
     1
102
RTVSPropertyOp23
 70
     1
102
RTVSPropertyOp24
 70
     1
102
RTVSPropertyOp25
 70
     1
102
RTVSPropertyOp26
 70
     1
102
RTVSPropertyOp27
 70
     1
102
RTVSPropertyOp28
 70
     1
102
RTVSPropertyOp29
 70
     1
102
RTVSPropertyOp30
 70
     1
102
RTVSPropertyOp31
 70
     1
102
RTVSPropertyOp32
 70
     1
102
RTVSPropertyOp33
 70
     1
102
RTVSPropertyOp34
 70
     1
102
RTVSPropertyOp35
 70
     1
102
RTVSPropertyOp36
 70
     1
102
RTVSPropertyOp37
 70
     1
102
RTVSPropertyOp38
 70
     1
102
RTVSPropertyOp39
 70
     1
102
RTVSPropertyOp40
 70
     1
102
RTVSPropertyOp41
 70
     1
102
RTVSPropertyOp42
 70
     1
102
RTVSPropertyOp43
 70
     1
102
RTVSPropertyOp44
 70
     1
102
RTVSPropertyOp45
 70
     1
102
RTVSPropertyOp46
 70
     1
102
RTVSPropertyOp47
 70
     1
102
RTVSPropertyOp48
 70
     1
102
RTVSPropertyOp49
 70
     1
102
RTVSPropertyOp50
 70
     1
102
RTVSPropertyOp51
 70
     0
102
RTVSPropertyOp52
 70
     0
102
RTVSPropertyOp53
 70
     1
102
RTVSPropertyOp54
 70
     1
102
RTVSPropertyOp55
 70
     1
102
RTVSPropertyOp56
 70
     1
102
RTVSPropertyOp57
 70
     1
102
RTVSPropertyOp58
 70
     1
102
RTVSPropertyOp59
 70
     1
102
RTVSPropertyOp60
 70
     1
102
RTVSPropertyOp61
 70
     1
102
RTVSPropertyOp62
 70
     1
  0
XRECORD
  5
730
102
{ACAD_REACTORS
330
72F
102
}
330
72F
100
AcDbXrecord
280
     1
102
RTVSPost2010Prop28
280
     0
102
RTVSPost2010PropOp28
 70
     1
102
RTVSPost2010Prop29
280
     1
102
RTVSPost2010PropOp29
 70
     1
102
RTVSPost2010Prop30
280
     1
102
RTVSPost2010PropOp30
 70
     1
102
RTVSPost2010Prop31
280
     0
102
RTVSPost2010PropOp31
 70
     1
102
RTVSPost2010Prop32
280
     0
102
RTVSPost2010PropOp32
 70
     1
102
RTVSPost2010Prop33
280
     0
102
RTVSPost2010PropOp33
 70
     1
102
RTVSPost2010Prop34
280
     0
102
RTVSPost2010PropOp34
 70
     1
102
RTVSPost2010Prop35
280
     0
102
RTVSPost2010PropOp35
 70
     1
102
RTVSPost2010Prop36
280
     0
102
RTVSPost2010PropOp36
 70
     1
102
RTVSPost2010Prop37
 90
       50
102
RTVSPost2010PropOp37
 70
     1
102
RTVSPost2010Prop38
140
0.0
102
RTVSPost2010PropOp38
 70
     1
102
RTVSPost2010Prop39
140
1.0
102
RTVSPost2010PropOp39
 70
     1
102
RTVSPost2010Prop40
 90
        0
102
RTVSPost2010PropOp40
 70
     1
102
RTVSPost2010Prop41ColorIndex
 90
       18
102
RTVSPost2010Prop41ColorRGB
 90
        0
102
RTVSPost2010PropOp41
 70
     1
102
RTVSPost2010Prop42
 90
       50
102
RTVSPost2010PropOp42
 70
     1
102
RTVSPost2010Prop43
 90
        3
102
RTVSPost2010PropOp43
 70
     1
102
RTVSPost2010Prop44ColorIndex
 90
        5
102
RTVSPost2010Prop44ColorRGB
 90
      255
102
RTVSPost2010PropOp44
 70
     1
102
RTVSPost2010Prop45
280
     0
102
RTVSPost2010PropOp45
 70
     1
102
RTVSPost2010Prop46
 90
       50
102
RTVSPost2010PropOp46
 70
     1
102
RTVSPost2010Prop47
 90
       50
102
RTVSPost2010PropOp47
 70
     1
102
RTVSPost2010Prop48
 90
       50
102
RTVSPost2010PropOp48
 70
     1
102
RTVSPost2010Prop49
280
     0
102
RTVSPost2010PropOp49
 70
     1
102
RTVSPost2010Prop50
 90
       50
102
RTVSPost2010PropOp50
 70
     1
102
RTVSPost2010Prop51ColorIndex
 90
      256
102
RTVSPost2010Prop51ColorRGB
 90
-16777216
102
RTVSPost2010PropOp51
 70
     0
102
RTVSPost2010Prop52
140
1.0
102
RTVSPost2010PropOp52
 70
     0
102
RTVSPost2010Prop53
 90
        2
102
RTVSPost2010PropOp53
 70
     1
102
RTVSPost2010Prop54
  1
strokes_ogs.tif
102
RTVSPost2010PropOp54
 70
     1
102
RTVSPost2010Prop55
280
     0
102
RTVSPost2010PropOp55
 70
     1
102
RTVSPost2010Prop56
140
1.0
102
RTVSPost2010PropOp56
 70
     1
102
RTVSPost2010Prop57
140
1.0
102
RTVSPost2010PropOp57
 70
     1
102
RTVSPropertyOp0
 70
     1
102
RTVSPropertyOp1
 70
     1
102
RTVSPropertyOp2
 70
     1
102
RTVSPropertyOp3
 70
     1
102
RTVSPropertyOp4
 70
     1
102
RTVSPropertyOp5
 70
     1
102
RTVSPropertyOp6
 70
     1
102
RTVSPropertyOp7
 70
     1
102
RTVSPropertyOp8
 70
     1
102
RTVSPropertyOp9
 70
     1
102
RTVSPropertyOp10
 70
     1
102
RTVSPropertyOp11
 70
     1
102
RTVSPropertyOp12
 70
     1
102
RTVSPropertyOp13
 70
     1
102
RTVSPropertyOp14
 70
     1
102
RTVSPropertyOp15
 70
     1
102
RTVSPropertyOp16
 70
     1
102
RTVSPropertyOp17
 70
     1
102
RTVSPropertyOp18
 70
     1
102
RTVSPropertyOp19
 70
     1
102
RTVSPropertyOp20
 70
     1
102
RTVSPropertyOp21
 70
     1
102
RTVSPropertyOp22
 70
     1
102
RTVSPropertyOp23
 70
     1
102
RTVSPropertyOp24
 70
     1
102
RTVSPropertyOp25
 70
     1
102
RTVSPropertyOp26
 70
     1
102
RTVSPropertyOp27
 70
     1
102
RTVSPropertyOp28
 70
     1
102
RTVSPropertyOp29
 70
     1
102
RTVSPropertyOp30
 70
     1
102
RTVSPropertyOp31
 70
     1
102
RTVSPropertyOp32
 70
     1
102
RTVSPropertyOp33
 70
     1
102
RTVSPropertyOp34
 70
     1
102
RTVSPropertyOp35
 70
     1
102
RTVSPropertyOp36
 70
     1
102
RTVSPropertyOp37
 70
     1
102
RTVSPropertyOp38
 70
     1
102
RTVSPropertyOp39
 70
     1
102
RTVSPropertyOp40
 70
     1
102
RTVSPropertyOp41
 70
     1
102
RTVSPropertyOp42
 70
     1
102
RTVSPropertyOp43
 70
     1
102
RTVSPropertyOp44
 70
     1
102
RTVSPropertyOp45
 70
     1
102
RTVSPropertyOp46
 70
     1
102
RTVSPropertyOp47
 70
     1
102
RTVSPropertyOp48
 70
     1
102
RTVSPropertyOp49
 70
     1
102
RTVSPropertyOp50
 70
     1
102
RTVSPropertyOp51
 70
     0
102
RTVSPropertyOp52
 70
     0
102
RTVSPropertyOp53
 70
     1
102
RTVSPropertyOp54
 70
     1
102
RTVSPropertyOp55
 70
     1
102
RTVSPropertyOp56
 70
     1
102
RTVSPropertyOp57
 70
     1
102
RTVSPropertyOp58
 70
     1
102
RTVSPropertyOp59
 70
     1
102
RTVSPropertyOp60
 70
     1
102
RTVSPropertyOp61
 70
     1
102
RTVSPropertyOp62
 70
     1
  0
XRECORD
  5
72E
102
{ACAD_REACTORS
330
72D
102
}
330
72D
100
AcDbXrecord
280
     1
102
RTVSPost2010Prop28
280
     0
102
RTVSPost2010PropOp28
 70
     1
102
RTVSPost2010Prop29
280
     1
102
RTVSPost2010PropOp29
 70
     1
102
RTVSPost2010Prop30
280
     1
102
RTVSPost2010PropOp30
 70
     1
102
RTVSPost2010Prop31
280
     0
102
RTVSPost2010PropOp31
 70
     1
102
RTVSPost2010Prop32
280
     0
102
RTVSPost2010PropOp32
 70
     1
102
RTVSPost2010Prop33
280
     0
102
RTVSPost2010PropOp33
 70
     1
102
RTVSPost2010Prop34
280
     0
102
RTVSPost2010PropOp34
 70
     1
102
RTVSPost2010Prop35
280
     0
102
RTVSPost2010PropOp35
 70
     1
102
RTVSPost2010Prop36
280
     0
102
RTVSPost2010PropOp36
 70
     1
102
RTVSPost2010Prop37
 90
       50
102
RTVSPost2010PropOp37
 70
     1
102
RTVSPost2010Prop38
140
0.0
102
RTVSPost2010PropOp38
 70
     1
102
RTVSPost2010Prop39
140
1.0
102
RTVSPost2010PropOp39
 70
     1
102
RTVSPost2010Prop40
 90
        0
102
RTVSPost2010PropOp40
 70
     1
102
RTVSPost2010Prop41ColorIndex
 90
       18
102
RTVSPost2010Prop41ColorRGB
 90
        0
102
RTVSPost2010PropOp41
 70
     1
102
RTVSPost2010Prop42
 90
       50
102
RTVSPost2010PropOp42
 70
     1
102
RTVSPost2010Prop43
 90
        3
102
RTVSPost2010PropOp43
 70
     1
102
RTVSPost2010Prop44ColorIndex
 90
        5
102
RTVSPost2010Prop44ColorRGB
 90
      255
102
RTVSPost2010PropOp44
 70
     1
102
RTVSPost2010Prop45
280
     0
102
RTVSPost2010PropOp45
 70
     1
102
RTVSPost2010Prop46
 90
       50
102
RTVSPost2010PropOp46
 70
     1
102
RTVSPost2010Prop47
 90
       50
102
RTVSPost2010PropOp47
 70
     1
102
RTVSPost2010Prop48
 90
       50
102
RTVSPost2010PropOp48
 70
     1
102
RTVSPost2010Prop49
280
     0
102
RTVSPost2010PropOp49
 70
     1
102
RTVSPost2010Prop50
 90
       50
102
RTVSPost2010PropOp50
 70
     1
102
RTVSPost2010Prop51ColorIndex
 90
      256
102
RTVSPost2010Prop51ColorRGB
 90
-16777216
102
RTVSPost2010PropOp51
 70
     0
102
RTVSPost2010Prop52
140
1.0
102
RTVSPost2010PropOp52
 70
     0
102
RTVSPost2010Prop53
 90
        2
102
RTVSPost2010PropOp53
 70
     1
102
RTVSPost2010Prop54
  1
strokes_ogs.tif
102
RTVSPost2010PropOp54
 70
     1
102
RTVSPost2010Prop55
280
     0
102
RTVSPost2010PropOp55
 70
     1
102
RTVSPost2010Prop56
140
1.0
102
RTVSPost2010PropOp56
 70
     1
102
RTVSPost2010Prop57
140
1.0
102
RTVSPost2010PropOp57
 70
     1
102
RTVSPropertyOp0
 70
     1
102
RTVSPropertyOp1
 70
     1
102
RTVSPropertyOp2
 70
     1
102
RTVSPropertyOp3
 70
     1
102
RTVSPropertyOp4
 70
     1
102
RTVSPropertyOp5
 70
     1
102
RTVSPropertyOp6
 70
     1
102
RTVSPropertyOp7
 70
     1
102
RTVSPropertyOp8
 70
     1
102
RTVSPropertyOp9
 70
     1
102
RTVSPropertyOp10
 70
     1
102
RTVSPropertyOp11
 70
     1
102
RTVSPropertyOp12
 70
     1
102
RTVSPropertyOp13
 70
     1
102
RTVSPropertyOp14
 70
     1
102
RTVSPropertyOp15
 70
     1
102
RTVSPropertyOp16
 70
     1
102
RTVSPropertyOp17
 70
     1
102
RTVSPropertyOp18
 70
     1
102
RTVSPropertyOp19
 70
     1
102
RTVSPropertyOp20
 70
     1
102
RTVSPropertyOp21
 70
     1
102
RTVSPropertyOp22
 70
     1
102
RTVSPropertyOp23
 70
     1
102
RTVSPropertyOp24
 70
     1
102
RTVSPropertyOp25
 70
     1
102
RTVSPropertyOp26
 70
     1
102
RTVSPropertyOp27
 70
     1
102
RTVSPropertyOp28
 70
     1
102
RTVSPropertyOp29
 70
     1
102
RTVSPropertyOp30
 70
     1
102
RTVSPropertyOp31
 70
     1
102
RTVSPropertyOp32
 70
     1
102
RTVSPropertyOp33
 70
     1
102
RTVSPropertyOp34
 70
     1
102
RTVSPropertyOp35
 70
     1
102
RTVSPropertyOp36
 70
     1
102
RTVSPropertyOp37
 70
     1
102
RTVSPropertyOp38
 70
     1
102
RTVSPropertyOp39
 70
     1
102
RTVSPropertyOp40
 70
     1
102
RTVSPropertyOp41
 70
     1
102
RTVSPropertyOp42
 70
     1
102
RTVSPropertyOp43
 70
     1
102
RTVSPropertyOp44
 70
     1
102
RTVSPropertyOp45
 70
     1
102
RTVSPropertyOp46
 70
     1
102
RTVSPropertyOp47
 70
     1
102
RTVSPropertyOp48
 70
     1
102
RTVSPropertyOp49
 70
     1
102
RTVSPropertyOp50
 70
     1
102
RTVSPropertyOp51
 70
     0
102
RTVSPropertyOp52
 70
     0
102
RTVSPropertyOp53
 70
     1
102
RTVSPropertyOp54
 70
     1
102
RTVSPropertyOp55
 70
     1
102
RTVSPropertyOp56
 70
     1
102
RTVSPropertyOp57
 70
     1
102
RTVSPropertyOp58
 70
     1
102
RTVSPropertyOp59
 70
     1
102
RTVSPropertyOp60
 70
     1
102
RTVSPropertyOp61
 70
     1
102
RTVSPropertyOp62
 70
     1
  0
XRECORD
  5
728
102
{ACAD_REACTORS
330
727
102
}
330
727
100
AcDbXrecord
280
     1
102
RTVSPost2010Prop28
280
     0
102
RTVSPost2010PropOp28
 70
     1
102
RTVSPost2010Prop29
280
     1
102
RTVSPost2010PropOp29
 70
     1
102
RTVSPost2010Prop30
280
     1
102
RTVSPost2010PropOp30
 70
     1
102
RTVSPost2010Prop31
280
     0
102
RTVSPost2010PropOp31
 70
     1
102
RTVSPost2010Prop32
280
     0
102
RTVSPost2010PropOp32
 70
     1
102
RTVSPost2010Prop33
280
     0
102
RTVSPost2010PropOp33
 70
     1
102
RTVSPost2010Prop34
280
     0
102
RTVSPost2010PropOp34
 70
     1
102
RTVSPost2010Prop35
280
     0
102
RTVSPost2010PropOp35
 70
     1
102
RTVSPost2010Prop36
280
     0
102
RTVSPost2010PropOp36
 70
     1
102
RTVSPost2010Prop37
 90
       50
102
RTVSPost2010PropOp37
 70
     1
102
RTVSPost2010Prop38
140
0.0
102
RTVSPost2010PropOp38
 70
     1
102
RTVSPost2010Prop39
140
1.0
102
RTVSPost2010PropOp39
 70
     1
102
RTVSPost2010Prop40
 90
        0
102
RTVSPost2010PropOp40
 70
     1
102
RTVSPost2010Prop41ColorIndex
 90
       18
102
RTVSPost2010Prop41ColorRGB
 90
        0
102
RTVSPost2010PropOp41
 70
     1
102
RTVSPost2010Prop42
 90
       50
102
RTVSPost2010PropOp42
 70
     1
102
RTVSPost2010Prop43
 90
        3
102
RTVSPost2010PropOp43
 70
     1
102
RTVSPost2010Prop44ColorIndex
 90
        5
102
RTVSPost2010Prop44ColorRGB
 90
      255
102
RTVSPost2010PropOp44
 70
     1
102
RTVSPost2010Prop45
280
     0
102
RTVSPost2010PropOp45
 70
     1
102
RTVSPost2010Prop46
 90
       50
102
RTVSPost2010PropOp46
 70
     1
102
RTVSPost2010Prop47
 90
       50
102
RTVSPost2010PropOp47
 70
     1
102
RTVSPost2010Prop48
 90
       50
102
RTVSPost2010PropOp48
 70
     1
102
RTVSPost2010Prop49
280
     0
102
RTVSPost2010PropOp49
 70
     1
102
RTVSPost2010Prop50
 90
       50
102
RTVSPost2010PropOp50
 70
     1
102
RTVSPost2010Prop51ColorIndex
 90
      256
102
RTVSPost2010Prop51ColorRGB
 90
-16777216
102
RTVSPost2010PropOp51
 70
     0
102
RTVSPost2010Prop52
140
1.0
102
RTVSPost2010PropOp52
 70
     0
102
RTVSPost2010Prop53
 90
        2
102
RTVSPost2010PropOp53
 70
     1
102
RTVSPost2010Prop54
  1
strokes_ogs.tif
102
RTVSPost2010PropOp54
 70
     1
102
RTVSPost2010Prop55
280
     0
102
RTVSPost2010PropOp55
 70
     1
102
RTVSPost2010Prop56
140
1.0
102
RTVSPost2010PropOp56
 70
     1
102
RTVSPost2010Prop57
140
1.0
102
RTVSPost2010PropOp57
 70
     1
102
RTVSPropertyOp0
 70
     1
102
RTVSPropertyOp1
 70
     1
102
RTVSPropertyOp2
 70
     1
102
RTVSPropertyOp3
 70
     1
102
RTVSPropertyOp4
 70
     1
102
RTVSPropertyOp5
 70
     1
102
RTVSPropertyOp6
 70
     1
102
RTVSPropertyOp7
 70
     1
102
RTVSPropertyOp8
 70
     1
102
RTVSPropertyOp9
 70
     1
102
RTVSPropertyOp10
 70
     1
102
RTVSPropertyOp11
 70
     1
102
RTVSPropertyOp12
 70
     1
102
RTVSPropertyOp13
 70
     1
102
RTVSPropertyOp14
 70
     1
102
RTVSPropertyOp15
 70
     1
102
RTVSPropertyOp16
 70
     1
102
RTVSPropertyOp17
 70
     1
102
RTVSPropertyOp18
 70
     1
102
RTVSPropertyOp19
 70
     1
102
RTVSPropertyOp20
 70
     1
102
RTVSPropertyOp21
 70
     1
102
RTVSPropertyOp22
 70
     1
102
RTVSPropertyOp23
 70
     1
102
RTVSPropertyOp24
 70
     1
102
RTVSPropertyOp25
 70
     1
102
RTVSPropertyOp26
 70
     1
102
RTVSPropertyOp27
 70
     1
102
RTVSPropertyOp28
 70
     1
102
RTVSPropertyOp29
 70
     1
102
RTVSPropertyOp30
 70
     1
102
RTVSPropertyOp31
 70
     1
102
RTVSPropertyOp32
 70
     1
102
RTVSPropertyOp33
 70
     1
102
RTVSPropertyOp34
 70
     1
102
RTVSPropertyOp35
 70
     1
102
RTVSPropertyOp36
 70
     1
102
RTVSPropertyOp37
 70
     1
102
RTVSPropertyOp38
 70
     1
102
RTVSPropertyOp39
 70
     1
102
RTVSPropertyOp40
 70
     1
102
RTVSPropertyOp41
 70
     1
102
RTVSPropertyOp42
 70
     1
102
RTVSPropertyOp43
 70
     1
102
RTVSPropertyOp44
 70
     1
102
RTVSPropertyOp45
 70
     1
102
RTVSPropertyOp46
 70
     1
102
RTVSPropertyOp47
 70
     1
102
RTVSPropertyOp48
 70
     1
102
RTVSPropertyOp49
 70
     1
102
RTVSPropertyOp50
 70
     1
102
RTVSPropertyOp51
 70
     0
102
RTVSPropertyOp52
 70
     0
102
RTVSPropertyOp53
 70
     1
102
RTVSPropertyOp54
 70
     1
102
RTVSPropertyOp55
 70
     1
102
RTVSPropertyOp56
 70
     1
102
RTVSPropertyOp57
 70
     1
102
RTVSPropertyOp58
 70
     1
102
RTVSPropertyOp59
 70
     1
102
RTVSPropertyOp60
 70
     1
102
RTVSPropertyOp61
 70
     1
102
RTVSPropertyOp62
 70
     1
  0
XRECORD
  5
72A
102
{ACAD_REACTORS
330
729
102
}
330
729
100
AcDbXrecord
280
     1
102
RTVSPost2010Prop28
280
     0
102
RTVSPost2010PropOp28
 70
     1
102
RTVSPost2010Prop29
280
     1
102
RTVSPost2010PropOp29
 70
     1
102
RTVSPost2010Prop30
280
     1
102
RTVSPost2010PropOp30
 70
     1
102
RTVSPost2010Prop31
280
     0
102
RTVSPost2010PropOp31
 70
     1
102
RTVSPost2010Prop32
280
     0
102
RTVSPost2010PropOp32
 70
     1
102
RTVSPost2010Prop33
280
     0
102
RTVSPost2010PropOp33
 70
     1
102
RTVSPost2010Prop34
280
     0
102
RTVSPost2010PropOp34
 70
     1
102
RTVSPost2010Prop35
280
     0
102
RTVSPost2010PropOp35
 70
     1
102
RTVSPost2010Prop36
280
     0
102
RTVSPost2010PropOp36
 70
     1
102
RTVSPost2010Prop37
 90
       50
102
RTVSPost2010PropOp37
 70
     1
102
RTVSPost2010Prop38
140
0.0
102
RTVSPost2010PropOp38
 70
     1
102
RTVSPost2010Prop39
140
1.0
102
RTVSPost2010PropOp39
 70
     1
102
RTVSPost2010Prop40
 90
        0
102
RTVSPost2010PropOp40
 70
     1
102
RTVSPost2010Prop41ColorIndex
 90
       18
102
RTVSPost2010Prop41ColorRGB
 90
        0
102
RTVSPost2010PropOp41
 70
     1
102
RTVSPost2010Prop42
 90
       50
102
RTVSPost2010PropOp42
 70
     1
102
RTVSPost2010Prop43
 90
        3
102
RTVSPost2010PropOp43
 70
     1
102
RTVSPost2010Prop44ColorIndex
 90
        5
102
RTVSPost2010Prop44ColorRGB
 90
      255
102
RTVSPost2010PropOp44
 70
     1
102
RTVSPost2010Prop45
280
     0
102
RTVSPost2010PropOp45
 70
     1
102
RTVSPost2010Prop46
 90
       50
102
RTVSPost2010PropOp46
 70
     1
102
RTVSPost2010Prop47
 90
       50
102
RTVSPost2010PropOp47
 70
     1
102
RTVSPost2010Prop48
 90
       50
102
RTVSPost2010PropOp48
 70
     1
102
RTVSPost2010Prop49
280
     0
102
RTVSPost2010PropOp49
 70
     1
102
RTVSPost2010Prop50
 90
       50
102
RTVSPost2010PropOp50
 70
     1
102
RTVSPost2010Prop51ColorIndex
 90
      256
102
RTVSPost2010Prop51ColorRGB
 90
-16777216
102
RTVSPost2010PropOp51
 70
     0
102
RTVSPost2010Prop52
140
1.0
102
RTVSPost2010PropOp52
 70
     0
102
RTVSPost2010Prop53
 90
        2
102
RTVSPost2010PropOp53
 70
     1
102
RTVSPost2010Prop54
  1
strokes_ogs.tif
102
RTVSPost2010PropOp54
 70
     1
102
RTVSPost2010Prop55
280
     0
102
RTVSPost2010PropOp55
 70
     1
102
RTVSPost2010Prop56
140
1.0
102
RTVSPost2010PropOp56
 70
     1
102
RTVSPost2010Prop57
140
1.0
102
RTVSPost2010PropOp57
 70
     1
102
RTVSPropertyOp0
 70
     1
102
RTVSPropertyOp1
 70
     1
102
RTVSPropertyOp2
 70
     1
102
RTVSPropertyOp3
 70
     1
102
RTVSPropertyOp4
 70
     1
102
RTVSPropertyOp5
 70
     1
102
RTVSPropertyOp6
 70
     1
102
RTVSPropertyOp7
 70
     1
102
RTVSPropertyOp8
 70
     1
102
RTVSPropertyOp9
 70
     1
102
RTVSPropertyOp10
 70
     1
102
RTVSPropertyOp11
 70
     1
102
RTVSPropertyOp12
 70
     1
102
RTVSPropertyOp13
 70
     1
102
RTVSPropertyOp14
 70
     1
102
RTVSPropertyOp15
 70
     1
102
RTVSPropertyOp16
 70
     1
102
RTVSPropertyOp17
 70
     1
102
RTVSPropertyOp18
 70
     1
102
RTVSPropertyOp19
 70
     1
102
RTVSPropertyOp20
 70
     1
102
RTVSPropertyOp21
 70
     1
102
RTVSPropertyOp22
 70
     1
102
RTVSPropertyOp23
 70
     1
102
RTVSPropertyOp24
 70
     1
102
RTVSPropertyOp25
 70
     1
102
RTVSPropertyOp26
 70
     1
102
RTVSPropertyOp27
 70
     1
102
RTVSPropertyOp28
 70
     1
102
RTVSPropertyOp29
 70
     1
102
RTVSPropertyOp30
 70
     1
102
RTVSPropertyOp31
 70
     1
102
RTVSPropertyOp32
 70
     1
102
RTVSPropertyOp33
 70
     1
102
RTVSPropertyOp34
 70
     1
102
RTVSPropertyOp35
 70
     1
102
RTVSPropertyOp36
 70
     1
102
RTVSPropertyOp37
 70
     1
102
RTVSPropertyOp38
 70
     1
102
RTVSPropertyOp39
 70
     1
102
RTVSPropertyOp40
 70
     1
102
RTVSPropertyOp41
 70
     1
102
RTVSPropertyOp42
 70
     1
102
RTVSPropertyOp43
 70
     1
102
RTVSPropertyOp44
 70
     1
102
RTVSPropertyOp45
 70
     1
102
RTVSPropertyOp46
 70
     1
102
RTVSPropertyOp47
 70
     1
102
RTVSPropertyOp48
 70
     1
102
RTVSPropertyOp49
 70
     1
102
RTVSPropertyOp50
 70
     1
102
RTVSPropertyOp51
 70
     0
102
RTVSPropertyOp52
 70
     0
102
RTVSPropertyOp53
 70
     1
102
RTVSPropertyOp54
 70
     1
102
RTVSPropertyOp55
 70
     1
102
RTVSPropertyOp56
 70
     1
102
RTVSPropertyOp57
 70
     1
102
RTVSPropertyOp58
 70
     1
102
RTVSPropertyOp59
 70
     1
102
RTVSPropertyOp60
 70
     1
102
RTVSPropertyOp61
 70
     1
102
RTVSPropertyOp62
 70
     1
  0
XRECORD
  5
720
102
{ACAD_REACTORS
330
71F
102
}
330
71F
100
AcDbXrecord
280
     1
102
RTVSPost2010Prop28
280
     0
102
RTVSPost2010PropOp28
 70
     1
102
RTVSPost2010Prop29
280
     1
102
RTVSPost2010PropOp29
 70
     1
102
RTVSPost2010Prop30
280
     1
102
RTVSPost2010PropOp30
 70
     1
102
RTVSPost2010Prop31
280
     0
102
RTVSPost2010PropOp31
 70
     1
102
RTVSPost2010Prop32
280
     0
102
RTVSPost2010PropOp32
 70
     1
102
RTVSPost2010Prop33
280
     0
102
RTVSPost2010PropOp33
 70
     1
102
RTVSPost2010Prop34
280
     0
102
RTVSPost2010PropOp34
 70
     1
102
RTVSPost2010Prop35
280
     0
102
RTVSPost2010PropOp35
 70
     1
102
RTVSPost2010Prop36
280
     0
102
RTVSPost2010PropOp36
 70
     1
102
RTVSPost2010Prop37
 90
       50
102
RTVSPost2010PropOp37
 70
     1
102
RTVSPost2010Prop38
140
0.0
102
RTVSPost2010PropOp38
 70
     1
102
RTVSPost2010Prop39
140
1.0
102
RTVSPost2010PropOp39
 70
     1
102
RTVSPost2010Prop40
 90
        0
102
RTVSPost2010PropOp40
 70
     1
102
RTVSPost2010Prop41ColorIndex
 90
       18
102
RTVSPost2010Prop41ColorRGB
 90
        0
102
RTVSPost2010PropOp41
 70
     1
102
RTVSPost2010Prop42
 90
       50
102
RTVSPost2010PropOp42
 70
     1
102
RTVSPost2010Prop43
 90
        3
102
RTVSPost2010PropOp43
 70
     1
102
RTVSPost2010Prop44ColorIndex
 90
        5
102
RTVSPost2010Prop44ColorRGB
 90
      255
102
RTVSPost2010PropOp44
 70
     1
102
RTVSPost2010Prop45
280
     0
102
RTVSPost2010PropOp45
 70
     1
102
RTVSPost2010Prop46
 90
       50
102
RTVSPost2010PropOp46
 70
     1
102
RTVSPost2010Prop47
 90
       50
102
RTVSPost2010PropOp47
 70
     1
102
RTVSPost2010Prop48
 90
       50
102
RTVSPost2010PropOp48
 70
     1
102
RTVSPost2010Prop49
280
     0
102
RTVSPost2010PropOp49
 70
     1
102
RTVSPost2010Prop50
 90
       50
102
RTVSPost2010PropOp50
 70
     1
102
RTVSPost2010Prop51ColorIndex
 90
      256
102
RTVSPost2010Prop51ColorRGB
 90
-16777216
102
RTVSPost2010PropOp51
 70
     0
102
RTVSPost2010Prop52
140
1.0
102
RTVSPost2010PropOp52
 70
     0
102
RTVSPost2010Prop53
 90
        2
102
RTVSPost2010PropOp53
 70
     1
102
RTVSPost2010Prop54
  1
strokes_ogs.tif
102
RTVSPost2010PropOp54
 70
     1
102
RTVSPost2010Prop55
280
     0
102
RTVSPost2010PropOp55
 70
     1
102
RTVSPost2010Prop56
140
1.0
102
RTVSPost2010PropOp56
 70
     1
102
RTVSPost2010Prop57
140
1.0
102
RTVSPost2010PropOp57
 70
     1
102
RTVSPropertyOp0
 70
     1
102
RTVSPropertyOp1
 70
     1
102
RTVSPropertyOp2
 70
     1
102
RTVSPropertyOp3
 70
     1
102
RTVSPropertyOp4
 70
     1
102
RTVSPropertyOp5
 70
     1
102
RTVSPropertyOp6
 70
     1
102
RTVSPropertyOp7
 70
     1
102
RTVSPropertyOp8
 70
     1
102
RTVSPropertyOp9
 70
     1
102
RTVSPropertyOp10
 70
     1
102
RTVSPropertyOp11
 70
     1
102
RTVSPropertyOp12
 70
     1
102
RTVSPropertyOp13
 70
     1
102
RTVSPropertyOp14
 70
     1
102
RTVSPropertyOp15
 70
     1
102
RTVSPropertyOp16
 70
     1
102
RTVSPropertyOp17
 70
     1
102
RTVSPropertyOp18
 70
     1
102
RTVSPropertyOp19
 70
     1
102
RTVSPropertyOp20
 70
     1
102
RTVSPropertyOp21
 70
     1
102
RTVSPropertyOp22
 70
     1
102
RTVSPropertyOp23
 70
     1
102
RTVSPropertyOp24
 70
     1
102
RTVSPropertyOp25
 70
     1
102
RTVSPropertyOp26
 70
     1
102
RTVSPropertyOp27
 70
     1
102
RTVSPropertyOp28
 70
     1
102
RTVSPropertyOp29
 70
     1
102
RTVSPropertyOp30
 70
     1
102
RTVSPropertyOp31
 70
     1
102
RTVSPropertyOp32
 70
     1
102
RTVSPropertyOp33
 70
     1
102
RTVSPropertyOp34
 70
     1
102
RTVSPropertyOp35
 70
     1
102
RTVSPropertyOp36
 70
     1
102
RTVSPropertyOp37
 70
     1
102
RTVSPropertyOp38
 70
     1
102
RTVSPropertyOp39
 70
     1
102
RTVSPropertyOp40
 70
     1
102
RTVSPropertyOp41
 70
     1
102
RTVSPropertyOp42
 70
     1
102
RTVSPropertyOp43
 70
     1
102
RTVSPropertyOp44
 70
     1
102
RTVSPropertyOp45
 70
     1
102
RTVSPropertyOp46
 70
     1
102
RTVSPropertyOp47
 70
     1
102
RTVSPropertyOp48
 70
     1
102
RTVSPropertyOp49
 70
     1
102
RTVSPropertyOp50
 70
     1
102
RTVSPropertyOp51
 70
     0
102
RTVSPropertyOp52
 70
     0
102
RTVSPropertyOp53
 70
     1
102
RTVSPropertyOp54
 70
     1
102
RTVSPropertyOp55
 70
     1
102
RTVSPropertyOp56
 70
     1
102
RTVSPropertyOp57
 70
     1
102
RTVSPropertyOp58
 70
     1
102
RTVSPropertyOp59
 70
     1
102
RTVSPropertyOp60
 70
     1
102
RTVSPropertyOp61
 70
     1
102
RTVSPropertyOp62
 70
     1
  0
XRECORD
  5
714
102
{ACAD_REACTORS
330
713
102
}
330
713
100
AcDbXrecord
280
     1
102
RTVSPost2010Prop28
280
     0
102
RTVSPost2010PropOp28
 70
     1
102
RTVSPost2010Prop29
280
     1
102
RTVSPost2010PropOp29
 70
     1
102
RTVSPost2010Prop30
280
     1
102
RTVSPost2010PropOp30
 70
     1
102
RTVSPost2010Prop31
280
     0
102
RTVSPost2010PropOp31
 70
     1
102
RTVSPost2010Prop32
280
     0
102
RTVSPost2010PropOp32
 70
     1
102
RTVSPost2010Prop33
280
     0
102
RTVSPost2010PropOp33
 70
     1
102
RTVSPost2010Prop34
280
     0
102
RTVSPost2010PropOp34
 70
     1
102
RTVSPost2010Prop35
280
     0
102
RTVSPost2010PropOp35
 70
     1
102
RTVSPost2010Prop36
280
     0
102
RTVSPost2010PropOp36
 70
     1
102
RTVSPost2010Prop37
 90
       50
102
RTVSPost2010PropOp37
 70
     1
102
RTVSPost2010Prop38
140
0.0
102
RTVSPost2010PropOp38
 70
     1
102
RTVSPost2010Prop39
140
1.0
102
RTVSPost2010PropOp39
 70
     1
102
RTVSPost2010Prop40
 90
        0
102
RTVSPost2010PropOp40
 70
     1
102
RTVSPost2010Prop41ColorIndex
 90
       18
102
RTVSPost2010Prop41ColorRGB
 90
        0
102
RTVSPost2010PropOp41
 70
     1
102
RTVSPost2010Prop42
 90
       50
102
RTVSPost2010PropOp42
 70
     1
102
RTVSPost2010Prop43
 90
        3
102
RTVSPost2010PropOp43
 70
     1
102
RTVSPost2010Prop44ColorIndex
 90
        5
102
RTVSPost2010Prop44ColorRGB
 90
      255
102
RTVSPost2010PropOp44
 70
     1
102
RTVSPost2010Prop45
280
     0
102
RTVSPost2010PropOp45
 70
     1
102
RTVSPost2010Prop46
 90
       50
102
RTVSPost2010PropOp46
 70
     1
102
RTVSPost2010Prop47
 90
       50
102
RTVSPost2010PropOp47
 70
     1
102
RTVSPost2010Prop48
 90
       50
102
RTVSPost2010PropOp48
 70
     1
102
RTVSPost2010Prop49
280
     0
102
RTVSPost2010PropOp49
 70
     1
102
RTVSPost2010Prop50
 90
       50
102
RTVSPost2010PropOp50
 70
     1
102
RTVSPost2010Prop51ColorIndex
 90
      256
102
RTVSPost2010Prop51ColorRGB
 90
-16777216
102
RTVSPost2010PropOp51
 70
     0
102
RTVSPost2010Prop52
140
1.0
102
RTVSPost2010PropOp52
 70
     0
102
RTVSPost2010Prop53
 90
        2
102
RTVSPost2010PropOp53
 70
     1
102
RTVSPost2010Prop54
  1
strokes_ogs.tif
102
RTVSPost2010PropOp54
 70
     1
102
RTVSPost2010Prop55
280
     0
102
RTVSPost2010PropOp55
 70
     1
102
RTVSPost2010Prop56
140
1.0
102
RTVSPost2010PropOp56
 70
     1
102
RTVSPost2010Prop57
140
1.0
102
RTVSPost2010PropOp57
 70
     1
102
RTVSPropertyOp0
 70
     1
102
RTVSPropertyOp1
 70
     1
102
RTVSPropertyOp2
 70
     1
102
RTVSPropertyOp3
 70
     1
102
RTVSPropertyOp4
 70
     1
102
RTVSPropertyOp5
 70
     1
102
RTVSPropertyOp6
 70
     1
102
RTVSPropertyOp7
 70
     1
102
RTVSPropertyOp8
 70
     1
102
RTVSPropertyOp9
 70
     1
102
RTVSPropertyOp10
 70
     1
102
RTVSPropertyOp11
 70
     1
102
RTVSPropertyOp12
 70
     1
102
RTVSPropertyOp13
 70
     1
102
RTVSPropertyOp14
 70
     1
102
RTVSPropertyOp15
 70
     1
102
RTVSPropertyOp16
 70
     1
102
RTVSPropertyOp17
 70
     1
102
RTVSPropertyOp18
 70
     1
102
RTVSPropertyOp19
 70
     1
102
RTVSPropertyOp20
 70
     1
102
RTVSPropertyOp21
 70
     1
102
RTVSPropertyOp22
 70
     1
102
RTVSPropertyOp23
 70
     1
102
RTVSPropertyOp24
 70
     1
102
RTVSPropertyOp25
 70
     1
102
RTVSPropertyOp26
 70
     1
102
RTVSPropertyOp27
 70
     1
102
RTVSPropertyOp28
 70
     1
102
RTVSPropertyOp29
 70
     1
102
RTVSPropertyOp30
 70
     1
102
RTVSPropertyOp31
 70
     1
102
RTVSPropertyOp32
 70
     1
102
RTVSPropertyOp33
 70
     1
102
RTVSPropertyOp34
 70
     1
102
RTVSPropertyOp35
 70
     1
102
RTVSPropertyOp36
 70
     1
102
RTVSPropertyOp37
 70
     1
102
RTVSPropertyOp38
 70
     1
102
RTVSPropertyOp39
 70
     1
102
RTVSPropertyOp40
 70
     1
102
RTVSPropertyOp41
 70
     1
102
RTVSPropertyOp42
 70
     1
102
RTVSPropertyOp43
 70
     1
102
RTVSPropertyOp44
 70
     1
102
RTVSPropertyOp45
 70
     1
102
RTVSPropertyOp46
 70
     1
102
RTVSPropertyOp47
 70
     1
102
RTVSPropertyOp48
 70
     1
102
RTVSPropertyOp49
 70
     1
102
RTVSPropertyOp50
 70
     1
102
RTVSPropertyOp51
 70
     0
102
RTVSPropertyOp52
 70
     0
102
RTVSPropertyOp53
 70
     1
102
RTVSPropertyOp54
 70
     1
102
RTVSPropertyOp55
 70
     1
102
RTVSPropertyOp56
 70
     1
102
RTVSPropertyOp57
 70
     1
102
RTVSPropertyOp58
 70
     1
102
RTVSPropertyOp59
 70
     1
102
RTVSPropertyOp60
 70
     1
102
RTVSPropertyOp61
 70
     1
102
RTVSPropertyOp62
 70
     1
  0
XRECORD
  5
72C
102
{ACAD_REACTORS
330
72B
102
}
330
72B
100
AcDbXrecord
280
     1
102
RTVSPost2010Prop28
280
     0
102
RTVSPost2010PropOp28
 70
     1
102
RTVSPost2010Prop29
280
     1
102
RTVSPost2010PropOp29
 70
     1
102
RTVSPost2010Prop30
280
     1
102
RTVSPost2010PropOp30
 70
     1
102
RTVSPost2010Prop31
280
     0
102
RTVSPost2010PropOp31
 70
     1
102
RTVSPost2010Prop32
280
     0
102
RTVSPost2010PropOp32
 70
     1
102
RTVSPost2010Prop33
280
     0
102
RTVSPost2010PropOp33
 70
     1
102
RTVSPost2010Prop34
280
     0
102
RTVSPost2010PropOp34
 70
     1
102
RTVSPost2010Prop35
280
     0
102
RTVSPost2010PropOp35
 70
     1
102
RTVSPost2010Prop36
280
     0
102
RTVSPost2010PropOp36
 70
     1
102
RTVSPost2010Prop37
 90
       50
102
RTVSPost2010PropOp37
 70
     1
102
RTVSPost2010Prop38
140
0.0
102
RTVSPost2010PropOp38
 70
     1
102
RTVSPost2010Prop39
140
1.0
102
RTVSPost2010PropOp39
 70
     1
102
RTVSPost2010Prop40
 90
        0
102
RTVSPost2010PropOp40
 70
     1
102
RTVSPost2010Prop41ColorIndex
 90
       18
102
RTVSPost2010Prop41ColorRGB
 90
        0
102
RTVSPost2010PropOp41
 70
     1
102
RTVSPost2010Prop42
 90
       50
102
RTVSPost2010PropOp42
 70
     1
102
RTVSPost2010Prop43
 90
        3
102
RTVSPost2010PropOp43
 70
     1
102
RTVSPost2010Prop44ColorIndex
 90
        5
102
RTVSPost2010Prop44ColorRGB
 90
      255
102
RTVSPost2010PropOp44
 70
     1
102
RTVSPost2010Prop45
280
     0
102
RTVSPost2010PropOp45
 70
     1
102
RTVSPost2010Prop46
 90
       50
102
RTVSPost2010PropOp46
 70
     1
102
RTVSPost2010Prop47
 90
       50
102
RTVSPost2010PropOp47
 70
     1
102
RTVSPost2010Prop48
 90
       50
102
RTVSPost2010PropOp48
 70
     1
102
RTVSPost2010Prop49
280
     0
102
RTVSPost2010PropOp49
 70
     1
102
RTVSPost2010Prop50
 90
       50
102
RTVSPost2010PropOp50
 70
     1
102
RTVSPost2010Prop51ColorIndex
 90
      256
102
RTVSPost2010Prop51ColorRGB
 90
-16777216
102
RTVSPost2010PropOp51
 70
     0
102
RTVSPost2010Prop52
140
1.0
102
RTVSPost2010PropOp52
 70
     0
102
RTVSPost2010Prop53
 90
        2
102
RTVSPost2010PropOp53
 70
     1
102
RTVSPost2010Prop54
  1
strokes_ogs.tif
102
RTVSPost2010PropOp54
 70
     1
102
RTVSPost2010Prop55
280
     0
102
RTVSPost2010PropOp55
 70
     1
102
RTVSPost2010Prop56
140
1.0
102
RTVSPost2010PropOp56
 70
     1
102
RTVSPost2010Prop57
140
1.0
102
RTVSPost2010PropOp57
 70
     1
102
RTVSPropertyOp0
 70
     1
102
RTVSPropertyOp1
 70
     1
102
RTVSPropertyOp2
 70
     1
102
RTVSPropertyOp3
 70
     1
102
RTVSPropertyOp4
 70
     1
102
RTVSPropertyOp5
 70
     1
102
RTVSPropertyOp6
 70
     1
102
RTVSPropertyOp7
 70
     1
102
RTVSPropertyOp8
 70
     1
102
RTVSPropertyOp9
 70
     1
102
RTVSPropertyOp10
 70
     1
102
RTVSPropertyOp11
 70
     1
102
RTVSPropertyOp12
 70
     1
102
RTVSPropertyOp13
 70
     1
102
RTVSPropertyOp14
 70
     1
102
RTVSPropertyOp15
 70
     1
102
RTVSPropertyOp16
 70
     1
102
RTVSPropertyOp17
 70
     1
102
RTVSPropertyOp18
 70
     1
102
RTVSPropertyOp19
 70
     1
102
RTVSPropertyOp20
 70
     1
102
RTVSPropertyOp21
 70
     1
102
RTVSPropertyOp22
 70
     1
102
RTVSPropertyOp23
 70
     1
102
RTVSPropertyOp24
 70
     1
102
RTVSPropertyOp25
 70
     1
102
RTVSPropertyOp26
 70
     1
102
RTVSPropertyOp27
 70
     1
102
RTVSPropertyOp28
 70
     1
102
RTVSPropertyOp29
 70
     1
102
RTVSPropertyOp30
 70
     1
102
RTVSPropertyOp31
 70
     1
102
RTVSPropertyOp32
 70
     1
102
RTVSPropertyOp33
 70
     1
102
RTVSPropertyOp34
 70
     1
102
RTVSPropertyOp35
 70
     1
102
RTVSPropertyOp36
 70
     1
102
RTVSPropertyOp37
 70
     1
102
RTVSPropertyOp38
 70
     1
102
RTVSPropertyOp39
 70
     1
102
RTVSPropertyOp40
 70
     1
102
RTVSPropertyOp41
 70
     1
102
RTVSPropertyOp42
 70
     1
102
RTVSPropertyOp43
 70
     1
102
RTVSPropertyOp44
 70
     1
102
RTVSPropertyOp45
 70
     1
102
RTVSPropertyOp46
 70
     1
102
RTVSPropertyOp47
 70
     1
102
RTVSPropertyOp48
 70
     1
102
RTVSPropertyOp49
 70
     1
102
RTVSPropertyOp50
 70
     1
102
RTVSPropertyOp51
 70
     0
102
RTVSPropertyOp52
 70
     0
102
RTVSPropertyOp53
 70
     1
102
RTVSPropertyOp54
 70
     1
102
RTVSPropertyOp55
 70
     1
102
RTVSPropertyOp56
 70
     1
102
RTVSPropertyOp57
 70
     1
102
RTVSPropertyOp58
 70
     1
102
RTVSPropertyOp59
 70
     1
102
RTVSPropertyOp60
 70
     1
102
RTVSPropertyOp61
 70
     1
102
RTVSPropertyOp62
 70
     1
  0
ENDSEC
  0
EOF
