  0
SECTION
  2
HEADER
  9
$ACADVER
  1
AC1015
  9
$ACADMAINTVER
 70
    20
  9
$DWGCODEPAGE
  3
ANSI_932
  9
$INSBASE
 10
0.0
 20
0.0
 30
0.0
  9
$EXTMIN
 10
9.9999975266385
 20
10.0
 30
0.0
  9
$EXTMAX
 10
778.9919545813952
 20
273.456428539441
 30
0.0
  9
$LIMMIN
 10
0.0000015376081137
 20
-0.0000001931532552
  9
$LIMMAX
 10
792.0000015376082
 20
545.9999998068466
  9
$ORTHOMODE
 70
     1
  9
$REGENMODE
 70
     1
  9
$FILLMODE
 70
     1
  9
$QTEXTMODE
 70
     0
  9
$MIRRTEXT
 70
     1
  9
$LTSCALE
 40
1.0
  9
$ATTMODE
 70
     1
  9
$TEXTSIZE
 40
2.5
  9
$TRACEWID
 40
1.0
  9
$TEXTSTYLE
  7
STANDARD
  9
$CLAYER
  8
0
  9
$CELTYPE
  6
BYLAYER
  9
$CECOLOR
 62
   256
  9
$CELTSCALE
 40
1.0
  9
$DISPSILH
 70
     0
  9
$DIMSCALE
 40
1.0
  9
$DIMASZ
 40
3.0
  9
$DIMEXO
 40
1.0
  9
$DIMDLI
 40
10.0
  9
$DIMRND
 40
0.0
  9
$DIMDLE
 40
0.0
  9
$DIMEXE
 40
1.0
  9
$DIMTP
 40
0.0
  9
$DIMTM
 40
0.0
  9
$DIMTXT
 40
3.2
  9
$DIMCEN
 40
0.0
  9
$DIMTSZ
 40
0.0
  9
$DIMTOL
 70
     0
  9
$DIMLIM
 70
     0
  9
$DIMTIH
 70
     0
  9
$DIMTOH
 70
     0
  9
$DIMSE1
 70
     0
  9
$DIMSE2
 70
     0
  9
$DIMTAD
 70
     3
  9
$DIMZIN
 70
     8
  9
$DIMBLK
  1

  9
$DIMASO
 70
     1
  9
$DIMSHO
 70
     1
  9
$DIMPOST
  1

  9
$DIMAPOST
  1

  9
$DIMALT
 70
     0
  9
$DIMALTD
 70
     2
  9
$DIMALTF
 40
25.4
  9
$DIMLFAC
 40
1.0
  9
$DIMTOFL
 70
     1
  9
$DIMTVP
 40
0.0
  9
$DIMTIX
 70
     0
  9
$DIMSOXD
 70
     0
  9
$DIMSAH
 70
     1
  9
$DIMBLK1
  1
OPEN
  9
$DIMBLK2
  1
OPEN
  9
$DIMSTYLE
  2
STANDARD
  9
$DIMCLRD
 70
     0
  9
$DIMCLRE
 70
     0
  9
$DIMCLRT
 70
     0
  9
$DIMTFAC
 40
1.0
  9
$DIMGAP
 40
1.0
  9
$DIMJUST
 70
     0
  9
$DIMSD1
 70
     0
  9
$DIMSD2
 70
     0
  9
$DIMTOLJ
 70
     1
  9
$DIMTZIN
 70
     0
  9
$DIMALTZ
 70
     0
  9
$DIMALTTZ
 70
     0
  9
$DIMUPT
 70
     0
  9
$DIMDEC
 70
     4
  9
$DIMTDEC
 70
     4
  9
$DIMALTU
 70
     2
  9
$DIMALTTD
 70
     2
  9
$DIMTXSTY
  7
STANDARD
  9
$DIMAUNIT
 70
     0
  9
$DIMADEC
 70
     0
  9
$DIMALTRND
 40
0.0
  9
$DIMAZIN
 70
     0
  9
$DIMDSEP
 70
    46
  9
$DIMATFIT
 70
     3
  9
$DIMFRAC
 70
     0
  9
$DIMLDRBLK
  1
OPEN
  9
$DIMLUNIT
 70
     2
  9
$DIMLWD
 70
    -2
  9
$DIMLWE
 70
    -2
  9
$DIMTMOVE
 70
     0
  9
$LUNITS
 70
     2
  9
$LUPREC
 70
     4
  9
$SKETCHINC
 40
1.0
  9
$FILLETRAD
 40
0.0
  9
$AUNITS
 70
     0
  9
$AUPREC
 70
     0
  9
$MENU
  1
.
  9
$ELEVATION
 40
0.0
  9
$PELEVATION
 40
0.0
  9
$THICKNESS
 40
0.0
  9
$LIMCHECK
 70
     0
  9
$CHAMFERA
 40
10.0
  9
$CHAMFERB
 40
10.0
  9
$CHAMFERC
 40
20.0
  9
$CHAMFERD
 40
0.0
  9
$SKPOLY
 70
     0
  9
$TDCREATE
 40
2456065.442649665
  9
$TDUCREATE
 40
2456065.067649664
  9
$TDUPDATE
 40
2457192.602615173
  9
$TDUUPDATE
 40
2457192.227615173
  9
$TDINDWG
 40
0.2614684606
  9
$TDUSRTIMER
 40
0.2614684491
  9
$USRTIMER
 70
     1
  9
$ANGBASE
 50
0.0
  9
$ANGDIR
 70
     0
  9
$PDMODE
 70
     0
  9
$PDSIZE
 40
0.0
  9
$PLINEWID
 40
0.0
  9
$SPLFRAME
 70
     0
  9
$SPLINETYPE
 70
     6
  9
$SPLINESEGS
 70
     8
  9
$HANDSEED
  5
21B0
  9
$SURFTAB1
 70
     6
  9
$SURFTAB2
 70
     6
  9
$SURFTYPE
 70
     6
  9
$SURFU
 70
     6
  9
$SURFV
 70
     6
  9
$UCSBASE
  2

  9
$UCSNAME
  2

  9
$UCSORG
 10
0.0
 20
0.0
 30
0.0
  9
$UCSXDIR
 10
1.0
 20
0.0
 30
0.0
  9
$UCSYDIR
 10
0.0
 20
1.0
 30
0.0
  9
$UCSORTHOREF
  2

  9
$UCSORTHOVIEW
 70
     0
  9
$UCSORGTOP
 10
0.0
 20
0.0
 30
0.0
  9
$UCSORGBOTTOM
 10
0.0
 20
0.0
 30
0.0
  9
$UCSORGLEFT
 10
0.0
 20
0.0
 30
0.0
  9
$UCSORGRIGHT
 10
0.0
 20
0.0
 30
0.0
  9
$UCSORGFRONT
 10
0.0
 20
0.0
 30
0.0
  9
$UCSORGBACK
 10
0.0
 20
0.0
 30
0.0
  9
$PUCSBASE
  2

  9
$PUCSNAME
  2

  9
$PUCSORG
 10
0.0
 20
0.0
 30
0.0
  9
$PUCSXDIR
 10
1.0
 20
0.0
 30
0.0
  9
$PUCSYDIR
 10
0.0
 20
1.0
 30
0.0
  9
$PUCSORTHOREF
  2

  9
$PUCSORTHOVIEW
 70
     0
  9
$PUCSORGTOP
 10
0.0
 20
0.0
 30
0.0
  9
$PUCSORGBOTTOM
 10
0.0
 20
0.0
 30
0.0
  9
$PUCSORGLEFT
 10
0.0
 20
0.0
 30
0.0
  9
$PUCSORGRIGHT
 10
0.0
 20
0.0
 30
0.0
  9
$PUCSORGFRONT
 10
0.0
 20
0.0
 30
0.0
  9
$PUCSORGBACK
 10
0.0
 20
0.0
 30
0.0
  9
$USERI1
 70
     0
  9
$USERI2
 70
     0
  9
$USERI3
 70
     0
  9
$USERI4
 70
     0
  9
$USERI5
 70
     0
  9
$USERR1
 40
0.0
  9
$USERR2
 40
0.0
  9
$USERR3
 40
0.0
  9
$USERR4
 40
0.0
  9
$USERR5
 40
0.0
  9
$WORLDVIEW
 70
     1
  9
$SHADEDGE
 70
     3
  9
$SHADEDIF
 70
    70
  9
$TILEMODE
 70
     1
  9
$MAXACTVP
 70
    48
  9
$PINSBASE
 10
0.0
 20
0.0
 30
0.0
  9
$PLIMCHECK
 70
     0
  9
$PEXTMIN
 10
1.000000000000000E+20
 20
1.000000000000000E+20
 30
1.000000000000000E+20
  9
$PEXTMAX
 10
-1.000000000000000E+20
 20
-1.000000000000000E+20
 30
-1.000000000000000E+20
  9
$PLIMMIN
 10
0.0
 20
0.0
  9
$PLIMMAX
 10
420.0
 20
297.0
  9
$UNITMODE
 70
     0
  9
$VISRETAIN
 70
     1
  9
$PLINEGEN
 70
     0
  9
$PSLTSCALE
 70
     1
  9
$TREEDEPTH
 70
  3020
  9
$CMLSTYLE
  2
STANDARD
  9
$CMLJUST
 70
     0
  9
$CMLSCALE
 40
20.0
  9
$PROXYGRAPHICS
 70
     1
  9
$MEASUREMENT
 70
     0
  9
$CELWEIGHT
370
    -1
  9
$ENDCAPS
280
     0
  9
$JOINSTYLE
280
     0
  9
$LWDISPLAY
290
     0
  9
$INSUNITS
 70
     0
  9
$HYPERLINKBASE
  1

  9
$STYLESHEET
  1

  9
$XEDIT
290
     1
  9
$CEPSNTYPE
380
     0
  9
$PSTYLEMODE
290
     1
  9
$FINGERPRINTGUID
  2
{D361D5F0-3691-4B88-9ACD-0053A5DA41D2}
  9
$VERSIONGUID
  2
{5DB3C7CC-BB29-48F6-81C5-3325C90D5B19}
  9
$EXTNAMES
290
     1
  9
$PSVPSCALE
 40
0.0
  9
$OLESTARTUP
290
     0
  0
ENDSEC
  0
SECTION
  2
CLASSES
  0
CLASS
  1
ACDBDICTIONARYWDFLT
  2
AcDbDictionaryWithDefault
  3
ObjectDBX Classes
 90
        0
280
     0
281
     0
  0
CLASS
  1
ACDBPLACEHOLDER
  2
AcDbPlaceHolder
  3
ObjectDBX Classes
 90
        0
280
     0
281
     0
  0
CLASS
  1
LAYOUT
  2
AcDbLayout
  3
ObjectDBX Classes
 90
        0
280
     0
281
     0
  0
CLASS
  1
MATERIAL
  2
AcDbMaterial
  3
ObjectDBX Classes
 90
     1153
280
     0
281
     0
  0
CLASS
  1
VISUALSTYLE
  2
AcDbVisualStyle
  3
ObjectDBX Classes
 90
     4095
280
     0
281
     0
  0
CLASS
  1
TABLESTYLE
  2
AcDbTableStyle
  3
ObjectDBX Classes
 90
     4095
280
     0
281
     0
  0
CLASS
  1
SCALE
  2
AcDbScale
  3
ObjectDBX Classes
 90
     1153
280
     0
281
     0
  0
CLASS
  1
MLEADERSTYLE
  2
AcDbMLeaderStyle
  3
ACDB_MLEADERSTYLE_CLASS
 90
     4095
280
     0
281
     0
  0
CLASS
  1
ACDBSECTIONVIEWSTYLE
  2
AcDbSectionViewStyle
  3
ObjectDBX Classes
 90
     1025
280
     0
281
     0
  0
CLASS
  1
ACDBDETAILVIEWSTYLE
  2
AcDbDetailViewStyle
  3
ObjectDBX Classes
 90
     1025
280
     0
281
     0
  0
CLASS
  1
DICTIONARYVAR
  2
AcDbDictionaryVar
  3
ObjectDBX Classes
 90
        0
280
     0
281
     0
  0
CLASS
  1
CELLSTYLEMAP
  2
AcDbCellStyleMap
  3
ObjectDBX Classes
 90
     1152
280
     0
281
     0
  0
ENDSEC
  0
SECTION
  2
TABLES
  0
TABLE
  2
VPORT
  5
8
330
0
100
AcDbSymbolTable
 70
     1
  0
VPORT
  5
20FA
330
8
100
AcDbSymbolTableRecord
100
AcDbViewportTableRecord
  2
*ACTIVE
 70
     0
 10
0.0
 20
0.0
 11
1.0
 21
1.0
 12
592.6293843174757
 22
141.7195596410917
 13
0.0
 23
0.0
 14
10.0
 24
10.0
 15
10.0
 25
10.0
 16
0.0
 26
0.0
 36
1.0
 17
0.0
 27
0.0
 37
0.0
 40
497.5819289745503
 41
1.899603698811096
 42
50.0
 43
0.0
 44
0.0
 50
0.0
 51
0.0
 71
     0
 72
   100
 73
     1
 74
     0
 75
     0
 76
     0
 77
     0
 78
     0
281
     0
 65
     1
110
0.0
120
0.0
130
0.0
111
1.0
121
0.0
131
0.0
112
0.0
122
1.0
132
0.0
 79
     0
146
0.0
1001
ACAD_NAV_VCDISPLAY
1070
     3
  0
ENDTAB
  0
TABLE
  2
LTYPE
  5
5
330
0
100
AcDbSymbolTable
 70
     4
  0
LTYPE
  5
12
330
5
100
AcDbSymbolTableRecord
100
AcDbLinetypeTableRecord
  2
BYBLOCK
 70
     0
  3

 72
    65
 73
     0
 40
0.0
  0
LTYPE
  5
13
330
5
100
AcDbSymbolTableRecord
100
AcDbLinetypeTableRecord
  2
BYLAYER
 70
     0
  3

 72
    65
 73
     0
 40
0.0
  0
LTYPE
  5
14
330
5
100
AcDbSymbolTableRecord
100
AcDbLinetypeTableRecord
  2
CONTINUOUS
 70
     0
  3
Solid line
 72
    65
 73
     0
 40
0.0
  0
LTYPE
  5
4B
330
5
100
AcDbSymbolTableRecord
100
AcDbLinetypeTableRecord
  2
DASHED
 70
     0
  3
Dashed __ __ __ __ __ __ __ __ __ __ __ __ __ _
 72
    65
 73
     2
 40
19.04999999999999
 49
12.7
 74
     0
 49
-6.349999999999998
 74
     0
  0
LTYPE
  5
4C
330
5
100
AcDbSymbolTableRecord
100
AcDbLinetypeTableRecord
  2
CENTER
 70
     0
  3
Center ____ _ ____ _ ____ _ ____ _ ____ _ ____
 72
    65
 73
     4
 40
50.8
 49
31.75
 74
     0
 49
-6.349999999999998
 74
     0
 49
6.349999999999998
 74
     0
 49
-6.349999999999998
 74
     0
  0
LTYPE
  5
4D
330
5
100
AcDbSymbolTableRecord
100
AcDbLinetypeTableRecord
  2
PHANTOM
 70
     0
  3
Phantom ______  __  __  ______  __  __  ______
 72
    65
 73
     6
 40
63.5
 49
31.75
 74
     0
 49
-6.349999999999998
 74
     0
 49
6.349999999999998
 74
     0
 49
-6.349999999999998
 74
     0
 49
6.349999999999998
 74
     0
 49
-6.349999999999998
 74
     0
  0
ENDTAB
  0
TABLE
  2
LAYER
  5
2
330
0
100
AcDbSymbolTable
 70
     8
  0
LAYER
  5
E
102
{ACAD_XDICTIONARY
360
2154
102
}
330
2
100
AcDbSymbolTableRecord
100
AcDbLayerTableRecord
  2
0
 70
     0
 62
     7
  6
CONTINUOUS
370
    -3
390
2103
  0
LAYER
  5
4E
102
{ACAD_XDICTIONARY
360
2156
102
}
330
2
100
AcDbSymbolTableRecord
100
AcDbLayerTableRecord
  2
4
 70
     0
 62
     1
  6
CENTER
370
    -3
390
2103
  0
LAYER
  5
4F
102
{ACAD_XDICTIONARY
360
2158
102
}
330
2
100
AcDbSymbolTableRecord
100
AcDbLayerTableRecord
  2
5
 70
     0
 62
     6
  6
PHANTOM
370
    -3
390
2103
  0
LAYER
  5
50
102
{ACAD_XDICTIONARY
360
215A
102
}
330
2
100
AcDbSymbolTableRecord
100
AcDbLayerTableRecord
  2
1
 70
     0
 62
     7
  6
CONTINUOUS
370
    -3
390
2103
  0
LAYER
  5
51
102
{ACAD_XDICTIONARY
360
215C
102
}
330
2
100
AcDbSymbolTableRecord
100
AcDbLayerTableRecord
  2
2
 70
     0
 62
     4
  6
CONTINUOUS
370
    -3
390
2103
  0
LAYER
  5
52
102
{ACAD_XDICTIONARY
360
215E
102
}
330
2
100
AcDbSymbolTableRecord
100
AcDbLayerTableRecord
  2
3
 70
     0
 62
     2
  6
DASHED
370
    -3
390
2103
  0
LAYER
  5
53
102
{ACAD_XDICTIONARY
360
2160
102
}
330
2
100
AcDbSymbolTableRecord
100
AcDbLayerTableRecord
  2
6
 70
     0
 62
     5
  6
CONTINUOUS
370
    -3
390
2103
  0
LAYER
  5
54
102
{ACAD_XDICTIONARY
360
2162
102
}
330
2
100
AcDbSymbolTableRecord
100
AcDbLayerTableRecord
  2
7
 70
     0
 62
     3
  6
CONTINUOUS
370
    -3
390
2103
  0
ENDTAB
  0
TABLE
  2
STYLE
  5
3
330
0
100
AcDbSymbolTable
 70
     1
  0
STYLE
  5
F
330
3
100
AcDbSymbolTableRecord
100
AcDbTextStyleTableRecord
  2
STANDARD
 70
     0
 40
0.0
 41
1.0
 50
0.0
 71
     0
 42
2.5
  3
simplex.shx
  4

  0
ENDTAB
  0
TABLE
  2
VIEW
  5
6
330
0
100
AcDbSymbolTable
 70
     0
  0
ENDTAB
  0
TABLE
  2
UCS
  5
7
330
0
100
AcDbSymbolTable
 70
     0
  0
ENDTAB
  0
TABLE
  2
APPID
  5
9
330
0
100
AcDbSymbolTable
 70
     5
  0
APPID
  5
10
330
9
100
AcDbSymbolTableRecord
100
AcDbRegAppTableRecord
  2
ACAD
 70
     0
  0
APPID
  5
3E
330
9
100
AcDbSymbolTableRecord
100
AcDbRegAppTableRecord
  2
CONTENTTABDATA
 70
     0
  0
APPID
  5
3F
330
9
100
AcDbSymbolTableRecord
100
AcDbRegAppTableRecord
  2
CONTENTCURRENTTAB
 70
     0
  0
APPID
  5
216E
330
9
100
AcDbSymbolTableRecord
100
AcDbRegAppTableRecord
  2
ACAD_NAV_VCDISPLAY
 70
     0
  0
APPID
  5
21A7
330
9
100
AcDbSymbolTableRecord
100
AcDbRegAppTableRecord
  2
ACAD_MLEADERVER
 70
     0
  0
ENDTAB
  0
TABLE
  2
DIMSTYLE
  5
A
330
0
100
AcDbSymbolTable
 70
     1
100
AcDbDimStyleTable
 71
     0
  0
DIMSTYLE
105
1D
330
A
100
AcDbSymbolTableRecord
100
AcDbDimStyleTableRecord
  2
STANDARD
 70
     0
 41
3.0
 42
1.0
 43
10.0
 44
1.0
 73
     0
 74
     0
 77
     3
 78
     8
140
3.2
141
0.0
147
1.0
172
     1
173
     1
340
F
341
2E
343
2E
344
2E
  0
ENDTAB
  0
TABLE
  2
BLOCK_RECORD
  5
1
330
0
100
AcDbSymbolTable
 70
     1
  0
BLOCK_RECORD
  5
18
102
{ACAD_XDICTIONARY
360
20FD
102
}
330
1
100
AcDbSymbolTableRecord
100
AcDbBlockTableRecord
  2
*MODEL_SPACE
340
2151
  0
BLOCK_RECORD
  5
15
102
{ACAD_XDICTIONARY
360
20FB
102
}
330
1
100
AcDbSymbolTableRecord
100
AcDbBlockTableRecord
  2
*PAPER_SPACE
340
2152
  0
BLOCK_RECORD
  5
2E
330
1
100
AcDbSymbolTableRecord
100
AcDbBlockTableRecord
  2
_OPEN
340
0
  0
ENDTAB
  0
ENDSEC
  0
SECTION
  2
BLOCKS
  0
BLOCK
  5
19
330
18
100
AcDbEntity
  8
0
100
AcDbBlockBegin
  2
*MODEL_SPACE
 70
     0
 10
0.0
 20
0.0
 30
0.0
  3
*MODEL_SPACE
  1

  0
ENDBLK
  5
1A
330
18
100
AcDbEntity
  8
0
100
AcDbBlockEnd
  0
BLOCK
  5
16
330
15
100
AcDbEntity
 67
     1
  8
0
100
AcDbBlockBegin
  2
*PAPER_SPACE
 70
     0
 10
0.0
 20
0.0
 30
0.0
  3
*PAPER_SPACE
  1

  0
ENDBLK
  5
17
330
15
100
AcDbEntity
 67
     1
  8
0
100
AcDbBlockEnd
  0
BLOCK
  5
2F
330
2E
100
AcDbEntity
  8
0
100
AcDbBlockBegin
  2
_OPEN
 70
     0
 10
0.0
 20
0.0
 30
0.0
  3
_OPEN
  1

  0
LINE
  5
30
330
2E
100
AcDbEntity
  8
0
  6
ByBlock
 62
     0
100
AcDbLine
 10
-1.0
 20
0.1666666666666666
 30
0.0
 11
0.0
 21
0.0
 31
0.0
  0
LINE
  5
31
330
2E
100
AcDbEntity
  8
0
  6
ByBlock
 62
     0
100
AcDbLine
 10
0.0
 20
0.0
 30
0.0
 11
-1.0
 21
-0.1666666666666666
 31
0.0
  0
LINE
  5
32
330
2E
100
AcDbEntity
  8
0
  6
ByBlock
 62
     0
100
AcDbLine
 10
0.0
 20
0.0
 30
0.0
 11
-1.0
 21
0.0
 31
0.0
  0
ENDBLK
  5
33
330
2E
100
AcDbEntity
  8
0
100
AcDbBlockEnd
  0
ENDSEC
  0
SECTION
  2
ENTITIES
  0
TEXT
  5
63
330
18
100
AcDbEntity
  8
4
  6
CENTER
 48
0.25
100
AcDbText
 10
23.97950852663849
 20
10.0
 30
0.0
 40
1.399999999999999
  1
4
100
AcDbText
  0
TEXT
  5
64
330
18
100
AcDbEntity
  8
7
  6
Continuous
 48
0.25
100
AcDbText
 10
9.999997526638502
 20
26.0000007607689
 30
0.0
 40
3.0
  1
CODE No.11054
100
AcDbText
  0
TEXT
  5
65
330
18
100
AcDbEntity
  8
7
  6
Continuous
 48
0.25
100
AcDbText
 10
9.999997526638502
 20
18.00000076076889
 30
0.0
 40
3.0
  1
TYPE No.TL-383
100
AcDbText
  0
TEXT
  5
66
330
18
100
AcDbEntity
  8
1
  6
Continuous
 48
0.25
100
AcDbText
 10
9.999997526638502
 20
10.00000076076889
 30
0.0
 40
1.399999999999999
  1
LAYER
100
AcDbText
  0
TEXT
  5
67
330
18
100
AcDbEntity
  8
2
  6
Continuous
 48
0.25
100
AcDbText
 10
19.9795085266385
 20
10.0
 30
0.0
 40
1.399999999999999
  1
2
100
AcDbText
  0
TEXT
  5
68
330
18
100
AcDbEntity
  8
3
  6
DASHED
 48
0.25
100
AcDbText
 10
21.9795085266385
 20
10.0
 30
0.0
 40
1.399999999999999
  1
3
100
AcDbText
  0
TEXT
  5
69
330
18
100
AcDbEntity
  8
1
  6
Continuous
 48
0.25
100
AcDbText
 10
17.9795085266385
 20
10.0
 30
0.0
 40
1.399999999999999
  1
1
100
AcDbText
  0
TEXT
  5
6A
330
18
100
AcDbEntity
  8
5
  6
PHANTOM
 48
0.25
100
AcDbText
 10
25.9795085266385
 20
10.0
 30
0.0
 40
1.399999999999999
  1
5
100
AcDbText
  0
TEXT
  5
6B
330
18
100
AcDbEntity
  8
6
  6
Continuous
 48
0.25
100
AcDbText
 10
27.9795085266385
 20
10.0
 30
0.0
 40
1.399999999999999
  1
6
100
AcDbText
  0
TEXT
  5
6C
330
18
100
AcDbEntity
  8
7
  6
Continuous
 48
0.25
100
AcDbText
 10
29.9795085266385
 20
10.0
 30
0.0
 40
1.399999999999999
  1
7
100
AcDbText
  0
LINE
  5
295
330
18
100
AcDbEntity
  8
1
  6
Continuous
100
AcDbLine
 10
166.5489485577338
 20
68.15447565860669
 30
0.0
 11
166.5489485577338
 21
66.5544756586063
 31
0.0
  0
LINE
  5
296
330
18
100
AcDbEntity
  8
1
  6
Continuous
100
AcDbLine
 10
166.5489485577338
 20
62.40197565860708
 30
0.0
 11
166.5489485577338
 21
60.80197565860669
 31
0.0
  0
LINE
  5
297
330
18
100
AcDbEntity
  8
1
  6
Continuous
100
AcDbLine
 10
154.0489485577338
 20
62.40197565860708
 30
0.0
 11
154.0489485577338
 21
60.80197565860669
 31
0.0
  0
LINE
  5
298
330
18
100
AcDbEntity
  8
1
  6
Continuous
100
AcDbLine
 10
154.0489485577338
 20
68.15447565860669
 30
0.0
 11
154.0489485577338
 21
67.46951839744898
 31
0.0
  0
LINE
  5
299
330
18
100
AcDbEntity
  8
1
  6
Continuous
100
AcDbLine
 10
150.5489485577338
 20
62.40197565860747
 30
0.0
 11
150.5489485577338
 21
60.80197565860718
 31
0.0
  0
LINE
  5
29A
330
18
100
AcDbEntity
  8
1
  6
Continuous
100
AcDbLine
 10
138.0489485577338
 20
62.40197565860747
 30
0.0
 11
138.0489485577338
 21
60.80197565860709
 31
0.0
  0
LINE
  5
29B
330
18
100
AcDbEntity
  8
1
  6
Continuous
100
AcDbLine
 10
138.0489485577338
 20
68.15447565860669
 30
0.0
 11
138.0489485577338
 21
66.5544756586063
 31
0.0
  0
LINE
  5
29C
330
18
100
AcDbEntity
  8
1
  6
Continuous
100
AcDbLine
 10
150.5489485577338
 20
68.15447565860669
 30
0.0
 11
150.5489485577338
 21
66.5544756586063
 31
0.0
  0
LINE
  5
29D
330
18
100
AcDbEntity
  8
1
  6
Continuous
100
AcDbLine
 10
255.7239485577331
 20
153.4794756586064
 30
0.0
 11
255.7989485577331
 21
153.4794756586064
 31
0.0
  0
LINE
  5
29E
330
18
100
AcDbEntity
  8
1
  6
Continuous
100
AcDbLine
 10
254.0489485577334
 20
153.4794756586064
 30
0.0
 11
254.1239485577329
 21
153.4794756586064
 31
0.0
  0
LINE
  5
29F
330
18
100
AcDbEntity
  8
1
  6
Continuous
100
AcDbLine
 10
259.8739485577336
 20
141.2294756586065
 30
0.0
 11
261.4739485577338
 21
141.2294756586065
 31
0.0
  0
LINE
  5
2A0
330
18
100
AcDbEntity
  8
1
  6
Continuous
100
AcDbLine
 10
254.1239485577329
 20
141.2294756586065
 30
0.0
 11
255.7239485577331
 21
141.2294756586065
 31
0.0
  0
LINE
  5
2A2
330
18
100
AcDbEntity
  8
1
  6
Continuous
100
AcDbLine
 10
259.8739485577336
 20
153.7294756586064
 30
0.0
 11
261.4739485577338
 21
153.7294756586064
 31
0.0
  0
LINE
  5
2A4
330
18
100
AcDbEntity
  8
1
  6
Continuous
100
AcDbLine
 10
254.1239485577329
 20
153.7294756586064
 30
0.0
 11
255.7239485577331
 21
153.7294756586064
 31
0.0
  0
LINE
  5
2A5
330
18
100
AcDbEntity
  8
1
  6
Continuous
100
AcDbLine
 10
259.8739485577336
 20
155.2294756586064
 30
0.0
 11
261.4739485577338
 21
155.2294756586064
 31
0.0
  0
LINE
  5
2A7
330
18
100
AcDbEntity
  8
1
  6
Continuous
100
AcDbLine
 10
259.8739485577336
 20
167.7294756586064
 30
0.0
 11
261.4739485577338
 21
167.7294756586064
 31
0.0
  0
LINE
  5
2A9
330
18
100
AcDbEntity
  8
1
  6
Continuous
100
AcDbLine
 10
254.1239485577329
 20
167.7294756586064
 30
0.0
 11
255.7239485577331
 21
167.7294756586064
 31
0.0
  0
ARC
  5
2AA
330
18
100
AcDbEntity
  8
1
  6
Continuous
100
AcDbCircle
 10
133.2989485577342
 20
47.97947565860647
 30
0.0
 40
2.0
100
AcDbArc
 50
180.0
 51
270.0
  0
ARC
  5
2AB
330
18
100
AcDbEntity
  8
1
  6
Continuous
100
AcDbCircle
 10
165.2989485577341
 20
47.97947565860647
 30
0.0
 40
2.0
100
AcDbArc
 50
270.0
 51
0.0
  0
ARC
  5
2AC
330
18
100
AcDbEntity
  8
1
  6
Continuous
100
AcDbCircle
 10
165.2989485577335
 20
80.9794756586065
 30
0.0
 40
2.0
100
AcDbArc
 50
0.0
 51
90.0
  0
ARC
  5
2AD
330
18
100
AcDbEntity
  8
1
  6
Continuous
100
AcDbCircle
 10
133.2989485577335
 20
80.9794756586065
 30
0.0
 40
2.0
100
AcDbArc
 50
90.0
 51
180.0
  0
LINE
  5
2E4
330
18
100
AcDbEntity
  8
1
  6
Continuous
100
AcDbLine
 10
154.4344957697054
 20
66.47947565860647
 30
0.0
 11
154.4344957697054
 21
64.99190318985256
 31
0.0
  0
LINE
  5
2E5
330
18
100
AcDbEntity
  8
1
  6
Continuous
100
AcDbLine
 10
154.4344957697054
 20
62.73101428990997
 30
0.0
 11
154.4344957697054
 21
62.47947565860648
 31
0.0
  0
ARC
  5
2E6
330
18
100
AcDbEntity
  8
5
  6
PHANTOM
 48
0.2
100
AcDbCircle
 10
167.554338423767
 20
153.9133503992241
 30
0.0
 40
1.0
100
AcDbArc
 50
255.2033122344418
 51
281.9040000000001
  0
LINE
  5
2E7
330
18
100
AcDbEntity
  8
5
  6
PHANTOM
 48
0.2
100
AcDbLine
 10
167.7606109214754
 20
152.9348558122749
 30
0.0
 11
180.4431961436089
 21
155.6084204554106
 31
0.0
  0
ARC
  5
2E8
330
18
100
AcDbEntity
  8
5
  6
PHANTOM
 48
0.2
100
AcDbCircle
 10
181.47455863215
 20
150.7159475206633
 30
0.0
 40
5.0
100
AcDbArc
 50
11.9039999999993
 51
101.9040000000001
  0
ARC
  5
2E9
330
18
100
AcDbEntity
  8
5
  6
PHANTOM
 48
0.2
100
AcDbCircle
 10
185.3885369799477
 20
151.5410375114968
 30
0.0
 40
1.0
100
AcDbArc
 50
281.9040000000001
 51
11.9039999999993
  0
LINE
  5
2EA
330
18
100
AcDbEntity
  8
5
  6
PHANTOM
 48
0.2
100
AcDbLine
 10
173.693663137122
 20
146.4185453640752
 30
0.0
 11
187.3925873544128
 21
149.3063603319909
 31
0.0
  0
LINE
  5
2EB
330
18
100
AcDbEntity
  8
5
  6
PHANTOM
 48
0.2
100
AcDbLine
 10
187.0625513580796
 20
150.8719516711098
 30
0.0
 11
187.3925873544128
 21
149.3063603319909
 31
0.0
  0
LINE
  5
2EC
330
18
100
AcDbEntity
  8
5
  6
PHANTOM
 48
0.2
100
AcDbLine
 10
173.3636271407887
 20
147.9841367031941
 30
0.0
 11
173.693663137122
 21
146.4185453640752
 31
0.0
  0
LINE
  5
2ED
330
18
100
AcDbEntity
  8
5
  6
PHANTOM
 48
0.2
100
AcDbLine
 10
169.9388960864661
 20
147.262182961215
 30
0.0
 11
187.0625513580796
 21
150.8719516711098
 31
0.0
  0
ARC
  5
2EE
330
18
100
AcDbEntity
  8
5
  6
PHANTOM
 48
0.2
100
AcDbCircle
 10
170.3514410818828
 20
145.3051937873162
 30
0.0
 40
2.0
100
AcDbArc
 50
101.9040000000001
 51
191.9039999999992
  0
LINE
  5
2EF
330
18
100
AcDbEntity
  8
5
  6
PHANTOM
 48
0.2
100
AcDbLine
 10
170.0652591394209
 20
136.9668426376104
 30
0.0
 11
168.3944519079841
 21
144.8926487919
 31
0.0
  0
ARC
  5
2F0
330
18
100
AcDbEntity
  8
5
  6
PHANTOM
 48
0.2
100
AcDbCircle
 10
165.6620334981488
 20
136.038616397923
 30
0.0
 40
4.5
100
AcDbArc
 50
291.3312233648863
 51
11.9039999999993
  0
LINE
  5
2F3
330
18
100
AcDbEntity
  8
4
  6
CENTER
 48
0.1
100
AcDbLine
 10
144.2989485577338
 20
151.8294756586063
 30
0.0
 11
144.2989485577338
 21
143.1294756586065
 31
0.0
  0
LINE
  5
2F4
330
18
100
AcDbEntity
  8
4
  6
CENTER
 48
0.1
100
AcDbLine
 10
148.6489485577337
 20
147.4794756586064
 30
0.0
 11
139.9489485577339
 21
147.4794756586064
 31
0.0
  0
LINE
  5
2F5
330
18
100
AcDbEntity
  8
4
  6
CENTER
 48
0.1
100
AcDbLine
 10
160.2989485577338
 20
165.8294756586061
 30
0.0
 11
160.2989485577338
 21
157.1294756586063
 31
0.0
  0
LINE
  5
2F6
330
18
100
AcDbEntity
  8
4
  6
CENTER
 48
0.1
100
AcDbLine
 10
164.6489485577337
 20
161.4794756586062
 30
0.0
 11
155.9489485577339
 21
161.4794756586062
 31
0.0
  0
LINE
  5
2F7
330
18
100
AcDbEntity
  8
1
  6
Continuous
100
AcDbLine
 10
255.7239485577333
 20
150.4794756586064
 30
0.0
 11
255.7989485577331
 21
150.4794756586064
 31
0.0
  0
LINE
  5
2F8
330
18
100
AcDbEntity
  8
1
  6
Continuous
100
AcDbLine
 10
254.0489485577331
 20
150.4794756586064
 30
0.0
 11
254.1239485577329
 21
150.4794756586064
 31
0.0
  0
LINE
  5
2F9
330
18
100
AcDbEntity
  8
1
  6
Continuous
100
AcDbLine
 10
261.4739485577338
 20
150.4794756586064
 30
0.0
 11
261.5489485577331
 21
150.4794756586064
 31
0.0
  0
LINE
  5
2FA
330
18
100
AcDbEntity
  8
1
  6
Continuous
100
AcDbLine
 10
259.7989485577331
 20
150.4794756586064
 30
0.0
 11
259.8739485577336
 21
150.4794756586064
 31
0.0
  0
LINE
  5
2FB
330
18
100
AcDbEntity
  8
1
  6
Continuous
100
AcDbLine
 10
259.7989485577331
 20
135.1311368981606
 30
0.0
 11
260.4989485577334
 21
135.1311368981606
 31
0.0
  0
LINE
  5
2FC
330
18
100
AcDbEntity
  8
1
  6
Continuous
100
AcDbLine
 10
255.0989485577331
 20
135.1311368981606
 30
0.0
 11
255.7989485577331
 21
135.1311368981606
 31
0.0
  0
LINE
  5
2FD
330
18
100
AcDbEntity
  8
1
  6
Continuous
100
AcDbLine
 10
259.7989485577331
 20
135.7311368981606
 30
0.0
 11
260.4989485577334
 21
135.7311368981606
 31
0.0
  0
LINE
  5
2FE
330
18
100
AcDbEntity
  8
1
  6
Continuous
100
AcDbLine
 10
255.0989485577331
 20
135.7311368981606
 30
0.0
 11
255.7989485577331
 21
135.7311368981606
 31
0.0
  0
LINE
  5
2FF
330
18
100
AcDbEntity
  8
1
  6
Continuous
100
AcDbLine
 10
261.5489485577336
 20
167.9794756586058
 30
0.0
 11
261.5489485577336
 21
145.5794756586065
 31
0.0
  0
LINE
  5
300
330
18
100
AcDbEntity
  8
1
  6
Continuous
100
AcDbLine
 10
261.5489485577336
 20
143.9794756586066
 30
0.0
 11
261.5489485577336
 21
129.9794756586057
 31
0.0
  0
LINE
  5
301
330
18
100
AcDbEntity
  8
1
  6
Continuous
100
AcDbLine
 10
261.4739485577338
 20
153.7294756586064
 30
0.0
 11
261.4739485577338
 21
145.5794756586065
 31
0.0
  0
LINE
  5
302
330
18
100
AcDbEntity
  8
1
  6
Continuous
100
AcDbLine
 10
261.4739485577338
 20
143.9794756586066
 30
0.0
 11
261.4739485577338
 21
141.2294756586065
 31
0.0
  0
LINE
  5
303
330
18
100
AcDbEntity
  8
1
  6
Continuous
100
AcDbLine
 10
259.8739485577336
 20
153.7294756586064
 30
0.0
 11
259.8739485577336
 21
145.5794756586063
 31
0.0
  0
LINE
  5
304
330
18
100
AcDbEntity
  8
1
  6
Continuous
100
AcDbLine
 10
259.8739485577336
 20
143.9794756586066
 30
0.0
 11
259.8739485577336
 21
141.2294756586065
 31
0.0
  0
LINE
  5
307
330
18
100
AcDbEntity
  8
1
  6
Continuous
100
AcDbLine
 10
259.7989485577331
 20
167.4794756586067
 30
0.0
 11
259.7989485577331
 21
145.5794756586065
 31
0.0
  0
LINE
  5
308
330
18
100
AcDbEntity
  8
1
  6
Continuous
100
AcDbLine
 10
259.7989485577331
 20
143.9794756586069
 30
0.0
 11
259.7989485577331
 21
129.9980058893202
 31
0.0
  0
LINE
  5
30B
330
18
100
AcDbEntity
  8
1
  6
Continuous
100
AcDbLine
 10
255.7989485577331
 20
154.9794756586064
 30
0.0
 11
255.7989485577331
 21
145.5794756586065
 31
0.0
  0
LINE
  5
30C
330
18
100
AcDbEntity
  8
1
  6
Continuous
100
AcDbLine
 10
255.7989485577331
 20
143.9794756586069
 30
0.0
 11
255.7989485577331
 21
129.9980058893202
 31
0.0
  0
LINE
  5
30D
330
18
100
AcDbEntity
  8
1
  6
Continuous
100
AcDbLine
 10
255.7239485577331
 20
153.7294756586064
 30
0.0
 11
255.7239485577331
 21
145.5794756586065
 31
0.0
  0
LINE
  5
30E
330
18
100
AcDbEntity
  8
1
  6
Continuous
100
AcDbLine
 10
255.7239485577331
 20
143.9794756586066
 30
0.0
 11
255.7239485577331
 21
141.2294756586065
 31
0.0
  0
LINE
  5
30F
330
18
100
AcDbEntity
  8
1
  6
Continuous
100
AcDbLine
 10
254.1239485577329
 20
143.9794756586066
 30
0.0
 11
254.1239485577329
 21
141.2294756586065
 31
0.0
  0
LINE
  5
310
330
18
100
AcDbEntity
  8
1
  6
Continuous
100
AcDbLine
 10
254.0489485577334
 20
143.9794756586066
 30
0.0
 11
254.0489485577334
 21
129.9794756586065
 31
0.0
  0
LINE
  5
312
330
18
100
AcDbEntity
  8
1
  6
Continuous
100
AcDbLine
 10
254.1239485577329
 20
153.7294756586064
 30
0.0
 11
254.1239485577329
 21
145.5794756586065
 31
0.0
  0
LINE
  5
313
330
18
100
AcDbEntity
  8
1
  6
Continuous
100
AcDbLine
 10
254.0489485577331
 20
154.9794756586064
 30
0.0
 11
254.0489485577331
 21
145.5794756586065
 31
0.0
  0
LINE
  5
314
330
18
100
AcDbEntity
  8
1
  6
Continuous
100
AcDbLine
 10
263.5489485577336
 20
167.979475658606
 30
0.0
 11
263.5489485577336
 21
145.5794756586065
 31
0.0
  0
LINE
  5
315
330
18
100
AcDbEntity
  8
1
  6
Continuous
100
AcDbLine
 10
263.5489485577336
 20
143.9794756586064
 30
0.0
 11
263.5489485577336
 21
129.9794756586057
 31
0.0
  0
LINE
  5
316
330
18
100
AcDbEntity
  8
1
  6
Continuous
100
AcDbLine
 10
252.0489485577334
 20
167.9794756586032
 30
0.0
 11
252.0489485577334
 21
145.5794756586065
 31
0.0
  0
LINE
  5
317
330
18
100
AcDbEntity
  8
1
  6
Continuous
100
AcDbLine
 10
252.0489485577334
 20
143.9794756586066
 30
0.0
 11
252.0489485577334
 21
129.9794756586065
 31
0.0
  0
LINE
  5
318
330
18
100
AcDbEntity
  8
1
  6
Continuous
100
AcDbLine
 10
251.5489485577331
 20
150.3294756586059
 30
0.0
 11
252.0489485577332
 21
150.3294756586059
 31
0.0
  0
LINE
  5
319
330
18
100
AcDbEntity
  8
1
  6
Continuous
100
AcDbLine
 10
251.5489485577331
 20
150.3294756586059
 30
0.0
 11
251.5489485577331
 21
145.5794756586065
 31
0.0
  0
LINE
  5
31A
330
18
100
AcDbEntity
  8
1
  6
Continuous
100
AcDbLine
 10
264.048948557754
 20
150.3294756586059
 30
0.0
 11
263.548948557754
 21
150.3294756586059
 31
0.0
  0
LINE
  5
31B
330
18
100
AcDbEntity
  8
1
  6
Continuous
100
AcDbLine
 10
264.048948557754
 20
150.3294756586059
 30
0.0
 11
264.048948557754
 21
145.5794756586065
 31
0.0
  0
LINE
  5
31C
330
18
100
AcDbEntity
  8
1
  6
Continuous
100
AcDbLine
 10
254.1239485577329
 20
167.7294756586064
 30
0.0
 11
254.1239485577329
 21
160.7294756586066
 31
0.0
  0
LINE
  5
31D
330
18
100
AcDbEntity
  8
1
  6
Continuous
100
AcDbLine
 10
255.7239485577331
 20
167.7294756586064
 30
0.0
 11
255.7239485577331
 21
160.7294756586064
 31
0.0
  0
LINE
  5
31F
330
18
100
AcDbEntity
  8
1
  6
Continuous
100
AcDbLine
 10
255.7989485577331
 20
167.4794756586067
 30
0.0
 11
255.7989485577331
 21
160.7294756586064
 31
0.0
  0
LINE
  5
320
330
18
100
AcDbEntity
  8
1
  6
Continuous
100
AcDbLine
 10
261.4739485577338
 20
158.4794756586064
 30
0.0
 11
261.5489485577336
 21
158.4794756586064
 31
0.0
  0
LINE
  5
321
330
18
100
AcDbEntity
  8
1
  6
Continuous
100
AcDbLine
 10
259.7989485577331
 20
158.4794756586064
 30
0.0
 11
259.8739485577336
 21
158.4794756586064
 31
0.0
  0
LINE
  5
322
330
18
100
AcDbEntity
  8
1
  6
Continuous
100
AcDbLine
 10
255.7239485577331
 20
164.4794756586064
 30
0.0
 11
255.7989485577331
 21
164.4794756586064
 31
0.0
  0
LINE
  5
323
330
18
100
AcDbEntity
  8
1
  6
Continuous
100
AcDbLine
 10
254.0489485577336
 20
164.4794756586064
 30
0.0
 11
254.1239485577329
 21
164.4794756586064
 31
0.0
  0
LINE
  5
324
330
18
100
AcDbEntity
  8
1
  6
Continuous
100
AcDbLine
 10
261.4739485577338
 20
164.4794756586064
 30
0.0
 11
261.5489485577336
 21
164.4794756586064
 31
0.0
  0
LINE
  5
325
330
18
100
AcDbEntity
  8
1
  6
Continuous
100
AcDbLine
 10
259.7989485577331
 20
164.4794756586064
 30
0.0
 11
259.8739485577336
 21
164.4794756586064
 31
0.0
  0
LINE
  5
326
330
18
100
AcDbEntity
  8
1
  6
Continuous
100
AcDbLine
 10
264.0489485577543
 20
158.6294756585842
 30
0.0
 11
263.5489485577543
 21
158.6294756585842
 31
0.0
  0
LINE
  5
327
330
18
100
AcDbEntity
  8
1
  6
Continuous
100
AcDbLine
 10
264.0489485577543
 20
164.3294756586063
 30
0.0
 11
264.0489485577543
 21
158.6294756585845
 31
0.0
  0
LINE
  5
328
330
18
100
AcDbEntity
  8
1
  6
Continuous
100
AcDbLine
 10
264.0489485577543
 20
164.3294756586063
 30
0.0
 11
263.5489485577543
 21
164.3294756586063
 31
0.0
  0
LINE
  5
329
330
18
100
AcDbEntity
  8
1
  6
Continuous
100
AcDbLine
 10
251.5489485577333
 20
158.6294756585842
 30
0.0
 11
252.0489485577334
 21
158.6294756585842
 31
0.0
  0
LINE
  5
32A
330
18
100
AcDbEntity
  8
1
  6
Continuous
100
AcDbLine
 10
251.5489485577333
 20
164.3294756586063
 30
0.0
 11
252.0489485577334
 21
164.3294756586063
 31
0.0
  0
LINE
  5
32B
330
18
100
AcDbEntity
  8
1
  6
Continuous
100
AcDbLine
 10
251.5489485577333
 20
164.3294756586063
 30
0.0
 11
251.5489485577333
 21
158.6294756585845
 31
0.0
  0
LINE
  5
32C
330
18
100
AcDbEntity
  8
1
  6
Continuous
100
AcDbLine
 10
150.5489485577338
 20
62.40197565860747
 30
0.0
 11
149.9579396464905
 21
62.40197565860747
 31
0.0
  0
LINE
  5
32D
330
18
100
AcDbEntity
  8
1
  6
Continuous
100
AcDbLine
 10
143.8550284487186
 20
62.40197565860747
 30
0.0
 11
142.6802796345056
 21
62.40197565860747
 31
0.0
  0
LINE
  5
32E
330
18
100
AcDbEntity
  8
1
  6
Continuous
100
AcDbLine
 10
144.5641425630354
 20
62.47947565860648
 30
0.0
 11
145.1334637313153
 21
62.47947565860648
 31
0.0
  0
LINE
  5
32F
330
18
100
AcDbEntity
  8
1
  6
Continuous
100
AcDbLine
 10
142.6260135502951
 20
62.47947565860648
 30
0.0
 11
143.8464696891277
 21
62.4794756586065
 31
0.0
  0
LINE
  5
330
330
18
100
AcDbEntity
  8
1
  6
Continuous
100
AcDbLine
 10
150.5489485577338
 20
66.5544756586063
 30
0.0
 11
150.3508014247696
 21
66.5544756586063
 31
0.0
  0
LINE
  5
331
330
18
100
AcDbEntity
  8
1
  6
Continuous
100
AcDbLine
 10
144.1904136453648
 20
66.5544756586063
 30
0.0
 11
143.3922491148422
 21
66.5544756586063
 31
0.0
  0
LINE
  5
332
330
18
100
AcDbEntity
  8
1
  6
Continuous
100
AcDbLine
 10
144.9672622164362
 20
66.47947565860647
 30
0.0
 11
145.5357759786978
 21
66.47947565860647
 31
0.0
  0
LINE
  5
333
330
18
100
AcDbEntity
  8
1
  6
Continuous
100
AcDbLine
 10
143.4616664513754
 20
66.47947565860647
 30
0.0
 11
144.186246978698
 21
66.47947565860647
 31
0.0
  0
LINE
  5
334
330
18
100
AcDbEntity
  8
1
  6
Continuous
100
AcDbLine
 10
132.7697633200513
 20
62.47947565860648
 30
0.0
 11
142.5522483900177
 21
62.47947565860648
 31
0.0
  0
LINE
  5
335
330
18
100
AcDbEntity
  8
1
  6
Continuous
100
AcDbLine
 10
142.4272613841814
 20
62.40197565860747
 30
0.0
 11
140.02393556357
 21
62.40197565860747
 31
0.0
  0
LINE
  5
336
330
18
100
AcDbEntity
  8
1
  6
Continuous
100
AcDbLine
 10
139.0613448496429
 20
62.40197565860747
 30
0.0
 11
138.0489485577338
 21
62.40197565860747
 31
0.0
  0
LINE
  5
337
330
18
100
AcDbEntity
  8
1
  6
Continuous
100
AcDbLine
 10
142.4315731833952
 20
66.5544756586063
 30
0.0
 11
140.0196237643561
 21
66.5544756586063
 31
0.0
  0
LINE
  5
338
330
18
100
AcDbEntity
  8
1
  6
Continuous
100
AcDbLine
 10
132.7697633200513
 20
66.47947565860647
 30
0.0
 11
142.5522483900177
 21
66.47947565860647
 31
0.0
  0
LINE
  5
339
330
18
100
AcDbEntity
  8
1
  6
Continuous
100
AcDbLine
 10
139.0589478329092
 20
66.5544756586063
 30
0.0
 11
138.0489485577338
 21
66.5544756586063
 31
0.0
  0
ARC
  5
33A
330
18
100
AcDbEntity
  8
1
  6
Continuous
100
AcDbCircle
 10
141.2255984738757
 20
64.47947565860648
 30
0.0
 40
2.399999999999999
100
AcDbArc
 50
236.4426902380813
 51
305.0000000000017
  0
ARC
  5
33B
330
18
100
AcDbEntity
  8
1
  6
Continuous
100
AcDbCircle
 10
141.2255984738757
 20
64.47947565860648
 30
0.0
 40
2.399999999999999
100
AcDbArc
 50
0.0
 51
123.5573097619186
  0
ARC
  5
33C
330
18
100
AcDbEntity
  8
1
  6
Continuous
100
AcDbCircle
 10
141.2255984738757
 20
64.47947565860648
 30
0.0
 40
3.0
100
AcDbArc
 50
221.8103148957801
 51
305.0000000000017
  0
ARC
  5
33D
330
18
100
AcDbEntity
  8
1
  6
Continuous
100
AcDbCircle
 10
141.2255984738757
 20
64.47947565860648
 30
0.0
 40
3.0
100
AcDbArc
 50
15.30938397463762
 51
138.1896851042198
  0
LINE
  5
33F
330
18
100
AcDbEntity
  8
1
  6
Continuous
100
AcDbLine
 10
147.2989485577335
 20
62.47947565860648
 30
0.0
 11
147.2989485577335
 21
62.40197565860747
 31
0.0
  0
LINE
  5
340
330
18
100
AcDbEntity
  8
1
  6
Continuous
100
AcDbLine
 10
141.2989485577335
 20
66.5544756586063
 30
0.0
 11
141.2989485577335
 21
66.47947565860647
 31
0.0
  0
LINE
  5
341
330
18
100
AcDbEntity
  8
1
  6
Continuous
100
AcDbLine
 10
141.2989485577335
 20
62.47947565860648
 30
0.0
 11
141.2989485577335
 21
62.40197565860747
 31
0.0
  0
LINE
  5
342
330
18
100
AcDbEntity
  8
1
  6
Continuous
100
AcDbLine
 10
141.2989485577335
 20
60.80197565860718
 30
0.0
 11
141.2989485577335
 21
60.72947565860697
 31
0.0
  0
LINE
  5
343
330
18
100
AcDbEntity
  8
1
  6
Continuous
100
AcDbLine
 10
147.2989485577335
 20
60.80197565860718
 30
0.0
 11
147.2989485577335
 21
60.72947565860697
 31
0.0
  0
LINE
  5
344
330
18
100
AcDbEntity
  8
1
  6
Continuous
100
AcDbLine
 10
141.2989485577335
 20
68.22947565860697
 30
0.0
 11
141.2989485577335
 21
68.15447565860708
 31
0.0
  0
LINE
  5
345
330
18
100
AcDbEntity
  8
1
  6
Continuous
100
AcDbLine
 10
147.2989485577335
 20
68.22947565860697
 30
0.0
 11
147.2989485577335
 21
68.15447565860708
 31
0.0
  0
LINE
  5
346
330
18
100
AcDbEntity
  8
1
  6
Continuous
100
AcDbLine
 10
154.6362306640918
 20
62.47947565860648
 30
0.0
 11
154.011650136769
 21
62.47947565860648
 31
0.0
  0
LINE
  5
347
330
18
100
AcDbEntity
  8
1
  6
Continuous
100
AcDbLine
 10
153.2306377313153
 20
62.47947565860648
 30
0.0
 11
152.6613165630354
 21
62.47947565860648
 31
0.0
  0
LINE
  5
348
330
18
100
AcDbEntity
  8
1
  6
Continuous
100
AcDbLine
 10
154.011650136769
 20
62.47947565860648
 30
0.0
 11
154.6362306640918
 21
62.47947565860648
 31
0.0
  0
LINE
  5
349
330
18
100
AcDbEntity
  8
1
  6
Continuous
100
AcDbLine
 10
155.4718835651718
 20
66.47947565860647
 30
0.0
 11
154.3247543759902
 21
66.47947565860647
 31
0.0
  0
LINE
  5
34A
330
18
100
AcDbEntity
  8
1
  6
Continuous
100
AcDbLine
 10
153.6337545524309
 20
66.47947565860647
 30
0.0
 11
153.0644362164362
 21
66.47947565860647
 31
0.0
  0
LINE
  5
34B
330
18
100
AcDbEntity
  8
1
  6
Continuous
100
AcDbLine
 10
154.3247543759902
 20
66.47947565860647
 30
0.0
 11
155.4718835651718
 21
66.47947565860647
 31
0.0
  0
LINE
  5
34C
330
18
100
AcDbEntity
  8
1
  6
Continuous
100
AcDbLine
 10
155.5456487254494
 20
62.47947565860648
 30
0.0
 11
156.1671953613046
 21
62.47947565860648
 31
0.0
  0
LINE
  5
34D
330
18
100
AcDbEntity
  8
1
  6
Continuous
100
AcDbLine
 10
170.5907446252346
 20
62.47947565860648
 30
0.0
 11
155.5456487254494
 21
62.47947565860648
 31
0.0
  0
LINE
  5
34E
330
18
100
AcDbEntity
  8
1
  6
Continuous
100
AcDbLine
 10
158.0739615518963
 20
62.40197565860708
 30
0.0
 11
155.6706357312865
 21
62.40197565860708
 31
0.0
  0
LINE
  5
34F
330
18
100
AcDbEntity
  8
1
  6
Continuous
100
AcDbLine
 10
154.7080450173592
 20
62.40197565860708
 30
0.0
 11
154.0489485577338
 21
62.40197565860708
 31
0.0
  0
LINE
  5
350
330
18
100
AcDbEntity
  8
1
  6
Continuous
100
AcDbLine
 10
155.5456487254494
 20
66.47947565860647
 30
0.0
 11
156.1671953613043
 21
66.47947565860647
 31
0.0
  0
LINE
  5
351
330
18
100
AcDbEntity
  8
1
  6
Continuous
100
AcDbLine
 10
170.5907446252346
 20
66.47947565860647
 30
0.0
 11
155.5456487254494
 21
66.47947565860647
 31
0.0
  0
LINE
  5
352
330
18
100
AcDbEntity
  8
1
  6
Continuous
100
AcDbLine
 10
158.078273351111
 20
66.5544756586063
 30
0.0
 11
155.666323932072
 21
66.5544756586063
 31
0.0
  0
LINE
  5
353
330
18
100
AcDbEntity
  8
1
  6
Continuous
100
AcDbLine
 10
155.4193679998062
 20
66.5544756586063
 30
0.0
 11
154.3192214660304
 21
66.5544756586063
 31
0.0
  0
LINE
  5
354
330
18
100
AcDbEntity
  8
1
  6
Continuous
100
AcDbLine
 10
166.5489485577338
 20
62.40197565860708
 30
0.0
 11
159.0365522658238
 21
62.40197565860708
 31
0.0
  0
LINE
  5
355
330
18
100
AcDbEntity
  8
1
  6
Continuous
100
AcDbLine
 10
166.5489485577338
 20
66.5544756586063
 30
0.0
 11
159.038949282558
 21
66.5544756586063
 31
0.0
  0
ARC
  5
356
330
18
100
AcDbEntity
  8
1
  6
Continuous
100
AcDbCircle
 10
156.8722986415915
 20
64.47947565860648
 30
0.0
 40
2.399999999999999
100
AcDbArc
 50
56.44269023808135
 51
124.999999999998
  0
ARC
  5
357
330
18
100
AcDbEntity
  8
1
  6
Continuous
100
AcDbCircle
 10
156.8722986415915
 20
64.47947565860648
 30
0.0
 40
2.399999999999999
100
AcDbArc
 50
180.0
 51
303.5573097619186
  0
ARC
  5
358
330
18
100
AcDbEntity
  8
1
  6
Continuous
100
AcDbCircle
 10
156.8722986415915
 20
64.47947565860648
 30
0.0
 40
3.0
100
AcDbArc
 50
41.81031489578017
 51
124.9999999999973
  0
ARC
  5
359
330
18
100
AcDbEntity
  8
1
  6
Continuous
100
AcDbCircle
 10
156.8722986415915
 20
64.47947565860648
 30
0.0
 40
3.0
100
AcDbArc
 50
200.6000443962453
 51
318.1896851042203
  0
LINE
  5
35A
330
18
100
AcDbEntity
  8
1
  6
Continuous
100
AcDbLine
 10
163.2989485577333
 20
66.5544756586063
 30
0.0
 11
163.2989485577333
 21
66.47947565860647
 31
0.0
  0
LINE
  5
35B
330
18
100
AcDbEntity
  8
1
  6
Continuous
100
AcDbLine
 10
163.2989485577333
 20
62.47947565860648
 30
0.0
 11
163.2989485577333
 21
62.40197565860708
 31
0.0
  0
LINE
  5
35C
330
18
100
AcDbEntity
  8
1
  6
Continuous
100
AcDbLine
 10
157.2989485577332
 20
66.5544756586063
 30
0.0
 11
157.2989485577332
 21
66.47947565860647
 31
0.0
  0
LINE
  5
35D
330
18
100
AcDbEntity
  8
1
  6
Continuous
100
AcDbLine
 10
157.2989485577332
 20
62.47947565860648
 30
0.0
 11
157.2989485577332
 21
62.40197565860708
 31
0.0
  0
LINE
  5
35E
330
18
100
AcDbEntity
  8
1
  6
Continuous
100
AcDbLine
 10
157.2989485577332
 20
60.80197565860669
 30
0.0
 11
157.2989485577332
 21
60.72947565860648
 31
0.0
  0
LINE
  5
35F
330
18
100
AcDbEntity
  8
1
  6
Continuous
100
AcDbLine
 10
163.2989485577333
 20
60.80197565860669
 30
0.0
 11
163.2989485577333
 21
60.72947565860648
 31
0.0
  0
LINE
  5
360
330
18
100
AcDbEntity
  8
1
  6
Continuous
100
AcDbLine
 10
157.2989485577332
 20
68.22947565860648
 30
0.0
 11
157.2989485577332
 21
68.15447565860669
 31
0.0
  0
LINE
  5
361
330
18
100
AcDbEntity
  8
1
  6
Continuous
100
AcDbLine
 10
163.2989485577333
 20
68.22947565860648
 30
0.0
 11
163.2989485577333
 21
68.15447565860669
 31
0.0
  0
LINE
  5
362
330
18
100
AcDbEntity
  8
1
  6
Continuous
100
AcDbLine
 10
134.2989485577337
 20
68.22947565860648
 30
0.0
 11
134.2989485577337
 21
66.47947565860647
 31
0.0
  0
LINE
  5
363
330
18
100
AcDbEntity
  8
1
  6
Continuous
100
AcDbLine
 10
132.7697633200511
 20
62.72947565862359
 30
0.0
 11
132.2989485577449
 21
62.72947565862397
 31
0.0
  0
LINE
  5
364
330
18
100
AcDbEntity
  8
4
  6
CENTER
 48
0.1
100
AcDbLine
 10
159.2989485577342
 20
47.27947565860668
 30
0.0
 11
159.2989485577342
 21
54.6794756586063
 31
0.0
  0
LINE
  5
365
330
18
100
AcDbEntity
  8
4
  6
CENTER
 48
0.1
100
AcDbLine
 10
139.2989485577337
 20
47.27947565860668
 30
0.0
 11
139.2989485577337
 21
54.6794756586063
 31
0.0
  0
LINE
  5
366
330
18
100
AcDbEntity
  8
4
  6
CENTER
 48
0.1
100
AcDbLine
 10
159.2989485577338
 20
74.27947565860617
 30
0.0
 11
159.2989485577338
 21
81.67947565860631
 31
0.0
  0
LINE
  5
367
330
18
100
AcDbEntity
  8
4
  6
CENTER
 48
0.1
100
AcDbLine
 10
139.2989485577336
 20
74.27947565860617
 30
0.0
 11
139.2989485577336
 21
81.67947565860631
 31
0.0
  0
LINE
  5
368
330
18
100
AcDbEntity
  8
1
  6
Continuous
100
AcDbLine
 10
169.2989485577335
 20
68.22947565860648
 30
0.0
 11
169.2989485577335
 21
66.47947565860596
 31
0.0
  0
LINE
  5
369
330
18
100
AcDbEntity
  8
1
  6
Continuous
100
AcDbLine
 10
167.2989485577335
 20
80.9794756586065
 30
0.0
 11
167.2989485577335
 21
66.47947565860647
 31
0.0
  0
LINE
  5
36A
330
18
100
AcDbEntity
  8
4
  6
CENTER
 48
0.1
100
AcDbLine
 10
159.2989485577352
 20
131.4794756586063
 30
0.0
 11
159.2989485577352
 21
126.4794756586063
 31
0.0
  0
LINE
  5
36B
330
18
100
AcDbEntity
  8
4
  6
CENTER
 48
0.1
100
AcDbLine
 10
139.2989485577347
 20
131.4794756586063
 30
0.0
 11
139.2989485577347
 21
126.4794756586063
 31
0.0
  0
LINE
  5
36D
330
18
100
AcDbEntity
  8
1
  6
Continuous
100
AcDbLine
 10
167.2989485577347
 20
154.9794756586067
 30
0.0
 11
167.2989485577347
 21
127.9794756586063
 31
0.0
  0
LINE
  5
370
330
18
100
AcDbEntity
  8
1
  6
Continuous
100
AcDbLine
 10
167.2989485577345
 20
151.5794756586065
 30
0.0
 11
178.7989485577338
 21
151.5794756586065
 31
0.0
  0
LINE
  5
371
330
18
100
AcDbEntity
  8
1
  6
Continuous
100
AcDbLine
 10
144.0261741327856
 20
165.4794756586067
 30
0.0
 11
151.7989485577352
 21
165.4794756586067
 31
0.0
  0
LINE
  5
372
330
18
100
AcDbEntity
  8
1
  6
Continuous
100
AcDbLine
 10
145.9329231539493
 20
153.9794756586067
 30
0.0
 11
152.6649739615184
 21
153.9794756586067
 31
0.0
  0
LINE
  5
373
330
18
100
AcDbEntity
  8
1
  6
Continuous
100
AcDbLine
 10
145.7946369308285
 20
160.9794756586067
 30
0.0
 11
151.7989504543804
 21
160.9794756586067
 31
0.0
  0
CIRCLE
  5
374
330
18
100
AcDbEntity
  8
1
  6
Continuous
100
AcDbCircle
 10
160.2989485577338
 20
161.4794756586062
 30
0.0
 40
2.85
  0
CIRCLE
  5
376
330
18
100
AcDbEntity
  8
1
  6
Continuous
100
AcDbCircle
 10
144.2989485577338
 20
147.4794756586064
 30
0.0
 40
2.85
  0
ARC
  5
37A
330
18
100
AcDbEntity
  8
1
  6
Continuous
100
AcDbCircle
 10
257.7989485577329
 20
135.0485866092145
 30
0.0
 40
2.983998718498468
100
AcDbArc
 50
132.085712391076
 51
168.827951344705
  0
ARC
  5
37B
330
18
100
AcDbEntity
  8
1
  6
Continuous
100
AcDbCircle
 10
255.0989485577331
 20
135.4311368981609
 30
0.0
 40
0.2999999999999545
100
AcDbArc
 50
90.0
 51
270.0
  0
ARC
  5
37C
330
18
100
AcDbEntity
  8
1
  6
Continuous
100
AcDbCircle
 10
260.4989485577334
 20
135.4311368981609
 30
0.0
 40
0.2999999999999545
100
AcDbArc
 50
270.0
 51
90.0
  0
LINE
  5
380
330
18
100
AcDbEntity
  8
4
  6
CENTER
 48
0.3
100
AcDbLine
 10
127.1738403781882
 20
64.47947565860648
 30
0.0
 11
186.4190948221369
 21
64.47947565860648
 31
0.0
  0
LINE
  5
381
330
18
100
AcDbEntity
  8
1
  6
Continuous
100
AcDbLine
 10
144.5260632323897
 20
61.79616814519107
 30
0.0
 11
144.8251337153606
 21
67.16278317202267
 31
0.0
  0
LINE
  5
382
330
18
100
AcDbEntity
  8
1
  6
Continuous
100
AcDbLine
 10
155.4957151943488
 20
66.44544056490047
 30
0.0
 11
155.1515693325385
 21
66.93693179147349
 31
0.0
  0
LINE
  5
384
330
18
100
AcDbEntity
  8
1
  6
Continuous
100
AcDbLine
 10
142.6021819211184
 20
62.51351075231308
 30
0.0
 11
142.9463277829289
 21
62.02201952573968
 31
0.0
  0
LINE
  5
388
330
18
100
AcDbEntity
  8
1
  6
Continuous
100
AcDbLine
 10
154.2714856095435
 20
67.20154731933907
 30
0.0
 11
154.4722986415911
 21
64.4794756586071
 31
0.0
  0
LINE
  5
389
330
18
100
AcDbEntity
  8
1
  6
Continuous
100
AcDbLine
 10
143.9260603679137
 20
61.79611666449346
 30
0.0
 11
144.2260603679138
 21
67.19611666449359
 31
0.0
  0
LINE
  5
38A
330
18
100
AcDbEntity
  8
1
  6
Continuous
100
AcDbLine
 10
153.3727634001061
 20
61.79616814519079
 30
0.0
 11
153.6718338830767
 21
67.16278317202238
 31
0.0
  0
LINE
  5
38B
330
18
100
AcDbEntity
  8
1
  6
Continuous
100
AcDbLine
 10
153.9718367475531
 20
61.76283465271996
 30
0.0
 11
154.2718367475531
 21
67.16283465272005
 31
0.0
  0
ARC
  5
38C
330
18
100
AcDbEntity
  8
1
  6
Continuous
100
AcDbCircle
 10
153.9722986415914
 20
67.1794756586063
 30
0.0
 40
0.3000000000000114
100
AcDbArc
 50
356.8201698801368
 51
180.0
  0
ARC
  5
38D
330
18
100
AcDbEntity
  8
1
  6
Continuous
100
AcDbCircle
 10
153.6722986415917
 20
61.77947565860669
 30
0.0
 40
0.3
100
AcDbArc
 50
176.8103225828316
 51
356.8201698801352
  0
ARC
  5
38E
330
18
100
AcDbEntity
  8
1
  6
Continuous
100
AcDbCircle
 10
144.5255984738759
 20
67.1794756586063
 30
0.0
 40
0.3000000000000114
100
AcDbArc
 50
356.8103225828317
 51
176.82016988014
  0
ARC
  5
38F
330
18
100
AcDbEntity
  8
1
  6
Continuous
100
AcDbCircle
 10
144.2255984738757
 20
61.77947565860669
 30
0.0
 40
0.3
100
AcDbArc
 50
176.82016988014
 51
0.0
  0
LINE
  5
390
330
18
100
AcDbEntity
  8
1
  6
Continuous
100
AcDbLine
 10
143.6255984738754
 20
64.47947565860596
 30
0.0
 11
143.9274113120783
 21
61.7465451782067
 31
0.0
  0
LINE
  5
391
330
18
100
AcDbEntity
  8
1
  6
Continuous
100
AcDbLine
 10
165.2989485577341
 20
45.97947565860647
 30
0.0
 11
133.2989485577342
 21
45.97947565860647
 31
0.0
  0
ARC
  5
392
330
18
100
AcDbEntity
  8
1
  6
Continuous
100
AcDbCircle
 10
156.2989485577342
 20
50.97947565860647
 30
0.0
 40
2.199999999999989
100
AcDbArc
 50
90.0
 51
270.0
  0
ARC
  5
393
330
18
100
AcDbEntity
  8
1
  6
Continuous
100
AcDbCircle
 10
162.2989485577342
 20
50.97947565860647
 30
0.0
 40
2.199999999999989
100
AcDbArc
 50
270.0
 51
90.0
  0
LINE
  5
394
330
18
100
AcDbEntity
  8
1
  6
Continuous
100
AcDbLine
 10
162.2989485577342
 20
53.17947565860629
 30
0.0
 11
156.2989485577342
 21
53.17947565860629
 31
0.0
  0
LINE
  5
395
330
18
100
AcDbEntity
  8
1
  6
Continuous
100
AcDbLine
 10
162.2989485577342
 20
48.77947565860669
 30
0.0
 11
156.2989485577342
 21
48.77947565860669
 31
0.0
  0
LINE
  5
396
330
18
100
AcDbEntity
  8
4
  6
CENTER
 48
0.25
100
AcDbLine
 10
165.9989485577342
 20
50.97947565860647
 30
0.0
 11
152.5489485577342
 21
50.97947565860647
 31
0.0
  0
ARC
  5
397
330
18
100
AcDbEntity
  8
1
  6
Continuous
100
AcDbCircle
 10
142.2989485577337
 20
50.97947565860647
 30
0.0
 40
2.199999999999989
100
AcDbArc
 50
270.0
 51
90.0
  0
ARC
  5
398
330
18
100
AcDbEntity
  8
1
  6
Continuous
100
AcDbCircle
 10
136.2989485577337
 20
50.97947565860647
 30
0.0
 40
2.199999999999989
100
AcDbArc
 50
90.0
 51
270.0
  0
LINE
  5
399
330
18
100
AcDbEntity
  8
1
  6
Continuous
100
AcDbLine
 10
136.2989485577337
 20
53.17947565860629
 30
0.0
 11
142.2989485577337
 21
53.17947565860629
 31
0.0
  0
LINE
  5
39A
330
18
100
AcDbEntity
  8
1
  6
Continuous
100
AcDbLine
 10
136.2989485577337
 20
48.77947565860669
 30
0.0
 11
142.2989485577337
 21
48.77947565860669
 31
0.0
  0
LINE
  5
39B
330
18
100
AcDbEntity
  8
4
  6
CENTER
 48
0.25
100
AcDbLine
 10
132.5989485577337
 20
50.97947565860647
 30
0.0
 11
146.0489485577337
 21
50.97947565860647
 31
0.0
  0
LINE
  5
39D
330
18
100
AcDbEntity
  8
1
  6
Continuous
100
AcDbLine
 10
167.2989485577341
 20
60.72947565860648
 30
0.0
 11
131.2989485577342
 21
60.72947565860648
 31
0.0
  0
LINE
  5
39E
330
18
100
AcDbEntity
  8
1
  6
Continuous
100
AcDbLine
 10
131.2989485577342
 20
47.97947565860647
 30
0.0
 11
131.2989485577342
 21
60.72947565860648
 31
0.0
  0
LINE
  5
39F
330
18
100
AcDbEntity
  8
1
  6
Continuous
100
AcDbLine
 10
167.2989485577341
 20
47.97947565860647
 30
0.0
 11
167.2989485577341
 21
60.72947565860648
 31
0.0
  0
LINE
  5
3A0
330
18
100
AcDbEntity
  8
1
  6
Continuous
100
AcDbLine
 10
276.2989485577336
 20
129.9794756586057
 30
0.0
 11
276.2989485577336
 21
127.9794756586057
 31
0.0
  0
LINE
  5
3A1
330
18
100
AcDbEntity
  8
4
  6
CENTER
 48
0.2
100
AcDbLine
 10
271.2989485577336
 20
131.4794756586058
 30
0.0
 11
271.2989485577336
 21
126.4794756586057
 31
0.0
  0
ARC
  5
3A2
330
18
100
AcDbEntity
  8
1
  6
Continuous
100
AcDbCircle
 10
263.5489485577336
 20
129.9794756586057
 30
0.0
 40
2.0
100
AcDbArc
 50
180.0
 51
270.0
  0
LINE
  5
3A3
330
18
100
AcDbEntity
  8
1
  6
Continuous
100
AcDbLine
 10
263.5489485577746
 20
167.9794756586059
 30
0.0
 11
261.5489485578155
 21
167.9794756586056
 31
0.0
  0
LINE
  5
3A4
330
18
100
AcDbEntity
  8
1
  6
Continuous
100
AcDbLine
 10
276.2989485577336
 20
129.9794756586057
 30
0.0
 11
263.5489485577336
 21
129.9794756586057
 31
0.0
  0
LINE
  5
3A5
330
18
100
AcDbEntity
  8
1
  6
Continuous
100
AcDbLine
 10
276.2989485577336
 20
127.9794756586057
 30
0.0
 11
263.5489485577336
 21
127.9794756586057
 31
0.0
  0
ARC
  5
3A6
330
18
100
AcDbEntity
  8
1
  6
Continuous
100
AcDbCircle
 10
160.0489485577345
 20
160.7294756586094
 30
0.0
 40
7.25
100
AcDbArc
 50
0.0
 51
180.0
  0
ARC
  5
3A7
330
18
100
AcDbEntity
  8
1
  6
Continuous
100
AcDbCircle
 10
138.5489485577343
 20
160.7294756586096
 30
0.0
 40
7.249999999999772
100
AcDbArc
 50
0.0
 51
180.0
  0
ARC
  5
3A8
330
18
100
AcDbEntity
  8
1
  6
Continuous
100
AcDbCircle
 10
146.7989485577347
 20
154.4794756586064
 30
0.0
 40
1.0
100
AcDbArc
 50
180.0
 51
270.0
  0
ARC
  5
3A9
330
18
100
AcDbEntity
  8
1
  6
Continuous
100
AcDbCircle
 10
151.798948557735
 20
154.4794756586064
 30
0.0
 40
1.0
100
AcDbArc
 50
270.0
 51
0.0
  0
LINE
  5
3AB
330
18
100
AcDbEntity
  8
1
  6
Continuous
100
AcDbLine
 10
152.7989485577347
 20
160.7294756586094
 30
0.0
 11
152.7989485577347
 21
154.4794756586064
 31
0.0
  0
LINE
  5
3AC
330
18
100
AcDbEntity
  8
1
  6
Continuous
100
AcDbLine
 10
145.7989485577347
 20
160.7294756586096
 30
0.0
 11
145.7989485577347
 21
154.4794756586064
 31
0.0
  0
LINE
  5
3AD
330
18
100
AcDbEntity
  8
1
  6
Continuous
100
AcDbLine
 10
131.2989485577347
 20
160.7294756586096
 30
0.0
 11
131.2989485577347
 21
127.9794756586063
 31
0.0
  0
LINE
  5
3AE
330
18
100
AcDbEntity
  8
1
  6
Continuous
100
AcDbLine
 10
167.2989485577347
 20
129.9794756586063
 30
0.0
 11
131.2989485577347
 21
129.9794756586063
 31
0.0
  0
LINE
  5
3AF
330
18
100
AcDbEntity
  8
1
  6
Continuous
100
AcDbLine
 10
167.2989485577347
 20
127.9794756586063
 30
0.0
 11
131.2989485577347
 21
127.9794756586063
 31
0.0
  0
ARC
  5
3B1
330
18
100
AcDbEntity
  8
1
  6
Continuous
100
AcDbCircle
 10
151.7989485577352
 20
164.4794756586066
 30
0.0
 40
1.0
100
AcDbArc
 50
0.0
 51
90.0
  0
LINE
  5
3B2
330
18
100
AcDbEntity
  8
4
  6
CENTER
 48
0.2
100
AcDbLine
 10
261.2989485577331
 20
133.9794756586063
 30
0.0
 11
254.2989485577334
 21
133.9794756586063
 31
0.0
  0
LINE
  5
3B3
330
18
100
AcDbEntity
  8
1
  6
Continuous
100
AcDbLine
 10
259.7989485577331
 20
129.9980058893202
 30
0.0
 11
255.7989485577333
 21
129.9980058893202
 31
0.0
  0
LINE
  5
3B6
330
18
100
AcDbEntity
  8
1
  6
Continuous
100
AcDbLine
 10
137.7989485577337
 20
65.97947565860647
 30
0.0
 11
137.7989485577337
 21
62.97947565860647
 31
0.0
  0
LINE
  5
3B7
330
18
100
AcDbEntity
  8
1
  6
Continuous
100
AcDbLine
 10
141.7989485577337
 20
66.47947565860647
 30
0.0
 11
141.7989485577337
 21
62.47947565860648
 31
0.0
  0
LINE
  5
3B8
330
18
100
AcDbEntity
  8
1
  6
Continuous
100
AcDbLine
 10
132.7697633200513
 20
66.47947565860647
 30
0.0
 11
132.7697633200513
 21
62.47947565860648
 31
0.0
  0
ARC
  5
3B9
330
18
100
AcDbEntity
  8
1
  6
Continuous
100
AcDbCircle
 10
151.7989504543804
 20
161.9794756586067
 30
0.0
 40
1.0
100
AcDbArc
 50
270.0
 51
0.0
  0
LINE
  5
3BA
330
18
100
AcDbEntity
  8
1
  6
Continuous
100
AcDbLine
 10
152.7989485577343
 20
164.4794764172651
 30
0.0
 11
152.7989504543796
 21
161.9794764172651
 31
0.0
  0
LINE
  5
3C8
330
18
100
AcDbEntity
  8
1
  6
Continuous
100
AcDbLine
 10
264.7989485577332
 20
145.5794756586065
 30
0.0
 11
264.7989485577332
 21
143.9794756586066
 31
0.0
  0
LINE
  5
3C9
330
18
100
AcDbEntity
  8
1
  6
Continuous
100
AcDbLine
 10
250.7989485577331
 20
145.5794756586065
 30
0.0
 11
250.7989485577331
 21
143.9794756586066
 31
0.0
  0
LINE
  5
3CA
330
18
100
AcDbEntity
  8
1
  6
Continuous
100
AcDbLine
 10
250.7989485577331
 20
143.9794756586066
 30
0.0
 11
264.7989485577332
 21
143.9794756586066
 31
0.0
  0
LINE
  5
3CB
330
18
100
AcDbEntity
  8
1
  6
Continuous
100
AcDbLine
 10
250.7989485577331
 20
145.5794756586065
 30
0.0
 11
264.7989485577332
 21
145.5794756586065
 31
0.0
  0
CIRCLE
  5
3CC
330
18
100
AcDbEntity
  8
1
  6
Continuous
100
AcDbCircle
 10
177.2989485577339
 20
64.47947565860648
 30
0.0
 40
7.0
  0
LINE
  5
3CD
330
18
100
AcDbEntity
  8
1
  6
Continuous
100
AcDbLine
 10
184.2989485577334
 20
145.5794756586065
 30
0.0
 11
184.2989485577334
 21
143.9794756586066
 31
0.0
  0
LINE
  5
3CE
330
18
100
AcDbEntity
  8
1
  6
Continuous
100
AcDbLine
 10
170.2989485577336
 20
145.5794756586065
 30
0.0
 11
170.2989485577336
 21
143.9794756586066
 31
0.0
  0
LINE
  5
3CF
330
18
100
AcDbEntity
  8
1
  6
Continuous
100
AcDbLine
 10
170.2989485577336
 20
143.9794756586066
 30
0.0
 11
184.2989485577334
 21
143.9794756586066
 31
0.0
  0
LINE
  5
3D2
330
18
100
AcDbEntity
  8
1
  6
Continuous
100
AcDbLine
 10
255.7989485577331
 20
151.5794756586065
 30
0.0
 11
259.7989485577331
 21
151.5794756586065
 31
0.0
  0
LINE
  5
3D3
330
18
100
AcDbEntity
  8
4
  6
CENTER
 48
0.2
100
AcDbLine
 10
254.2989485577332
 20
135.4794756586066
 30
0.0
 11
261.2989485577331
 21
135.4794756586066
 31
0.0
  0
LINE
  5
3D4
330
18
100
AcDbEntity
  8
4
  6
CENTER
 48
0.2
100
AcDbLine
 10
250.0489485577334
 20
161.4794756586066
 30
0.0
 11
265.5489485577541
 21
161.4794756586066
 31
0.0
  0
LINE
  5
3D5
330
18
100
AcDbEntity
  8
1
  6
Continuous
100
AcDbLine
 10
255.7989485577331
 20
130.9794756586066
 30
0.0
 11
259.7989485577331
 21
130.9794756586066
 31
0.0
  0
LINE
  5
3D6
330
18
100
AcDbEntity
  8
1
  6
Continuous
100
AcDbLine
 10
255.7989485577331
 20
167.4794756586067
 30
0.0
 11
259.7989485577331
 21
167.4794756586067
 31
0.0
  0
LINE
  5
3D7
330
18
100
AcDbEntity
  8
1
  6
Continuous
100
AcDbLine
 10
164.7989485577344
 20
66.47947565860647
 30
0.0
 11
164.7989485577344
 21
62.47947565860648
 31
0.0
  0
LINE
  5
3D8
330
18
100
AcDbEntity
  8
1
  6
Continuous
100
AcDbLine
 10
155.7989485577344
 20
66.47947565860647
 30
0.0
 11
155.7989485577344
 21
62.47947565860648
 31
0.0
  0
ARC
  5
3D9
330
18
100
AcDbEntity
  8
1
  6
Continuous
100
AcDbCircle
 10
182.7989485577338
 20
146.5794756586065
 30
0.0
 40
1.0
100
AcDbArc
 50
270.0
 51
0.0
  0
LINE
  5
3DB
330
18
100
AcDbEntity
  8
1
  6
Continuous
100
AcDbLine
 10
167.2989485577338
 20
145.5794756586065
 30
0.0
 11
184.2989485577334
 21
145.5794756586066
 31
0.0
  0
ARC
  5
3DC
330
18
100
AcDbEntity
  8
1
  6
Continuous
100
AcDbCircle
 10
178.7989485577338
 20
146.5794756586065
 30
0.0
 40
5.0
100
AcDbArc
 50
0.0
 51
90.0
  0
LINE
  5
3DD
330
18
100
AcDbEntity
  8
1
  6
Continuous
100
AcDbLine
 10
166.5489485577338
 20
60.80197565860669
 30
0.0
 11
154.0489485577338
 21
60.80197565860669
 31
0.0
  0
LINE
  5
3DE
330
18
100
AcDbEntity
  8
1
  6
Continuous
100
AcDbLine
 10
150.5489485577338
 20
60.80197565860718
 30
0.0
 11
138.0489485577338
 21
60.80197565860718
 31
0.0
  0
LINE
  5
3DF
330
18
100
AcDbEntity
  8
1
  6
Continuous
100
AcDbLine
 10
166.5489485577338
 20
68.15447565860669
 30
0.0
 11
154.0489485577338
 21
68.15447565860669
 31
0.0
  0
LINE
  5
3E0
330
18
100
AcDbEntity
  8
1
  6
Continuous
100
AcDbLine
 10
259.8739485577336
 20
167.7294756586064
 30
0.0
 11
259.8739485577336
 21
155.2294756586064
 31
0.0
  0
LINE
  5
3E1
330
18
100
AcDbEntity
  8
1
  6
Continuous
100
AcDbLine
 10
261.4739485577338
 20
167.7294756586064
 30
0.0
 11
261.4739485577338
 21
155.2294756586064
 31
0.0
  0
LINE
  5
3E2
330
18
100
AcDbEntity
  8
1
  6
Continuous
100
AcDbLine
 10
150.5489485577338
 20
68.15447565860669
 30
0.0
 11
138.0489485577338
 21
68.15447565860669
 31
0.0
  0
LINE
  5
3E3
330
18
100
AcDbEntity
  8
1
  6
Continuous
100
AcDbLine
 10
163.2989485577331
 20
60.72947565860648
 30
0.0
 11
157.2989485577331
 21
60.72947565860648
 31
0.0
  0
LINE
  5
3E4
330
18
100
AcDbEntity
  8
1
  6
Continuous
100
AcDbLine
 10
163.2989485577331
 20
68.22947565860648
 30
0.0
 11
157.2989485577331
 21
68.22947565860648
 31
0.0
  0
LINE
  5
3E6
330
18
100
AcDbEntity
  8
1
  6
Continuous
100
AcDbLine
 10
147.2989485577334
 20
60.72947565860697
 30
0.0
 11
141.2989485577334
 21
60.72947565860697
 31
0.0
  0
LINE
  5
3E7
330
18
100
AcDbEntity
  8
1
  6
Continuous
100
AcDbLine
 10
147.2989485577334
 20
68.22947565860697
 30
0.0
 11
141.2989485577334
 21
68.22947565860697
 31
0.0
  0
LINE
  5
3EB
330
18
100
AcDbEntity
  8
1
  6
Continuous
100
AcDbLine
 10
165.2989485577335
 20
82.97947565860651
 30
0.0
 11
133.2989485577335
 21
82.97947565860651
 31
0.0
  0
ARC
  5
3EC
330
18
100
AcDbEntity
  8
1
  6
Continuous
100
AcDbCircle
 10
156.2989485577339
 20
77.97947565860596
 30
0.0
 40
2.199999999999989
100
AcDbArc
 50
90.0
 51
270.0
  0
ARC
  5
3ED
330
18
100
AcDbEntity
  8
1
  6
Continuous
100
AcDbCircle
 10
162.2989485577339
 20
77.97947565860596
 30
0.0
 40
2.199999999999989
100
AcDbArc
 50
270.0
 51
90.0
  0
LINE
  5
3EE
330
18
100
AcDbEntity
  8
1
  6
Continuous
100
AcDbLine
 10
162.2989485577338
 20
80.17947565860628
 30
0.0
 11
156.2989485577338
 21
80.17947565860628
 31
0.0
  0
LINE
  5
3EF
330
18
100
AcDbEntity
  8
1
  6
Continuous
100
AcDbLine
 10
162.2989485577338
 20
75.77947565860617
 30
0.0
 11
156.2989485577338
 21
75.77947565860617
 31
0.0
  0
LINE
  5
3F0
330
18
100
AcDbEntity
  8
4
  6
CENTER
 48
0.25
100
AcDbLine
 10
165.9989485577339
 20
77.9794756586065
 30
0.0
 11
152.548948557734
 21
77.9794756586065
 31
0.0
  0
ARC
  5
3F1
330
18
100
AcDbEntity
  8
1
  6
Continuous
100
AcDbCircle
 10
142.2989485577335
 20
77.97947565860596
 30
0.0
 40
2.199999999999989
100
AcDbArc
 50
270.0
 51
90.0
  0
ARC
  5
3F2
330
18
100
AcDbEntity
  8
1
  6
Continuous
100
AcDbCircle
 10
136.2989485577335
 20
77.97947565860596
 30
0.0
 40
2.199999999999989
100
AcDbArc
 50
90.0
 51
270.0
  0
LINE
  5
3F3
330
18
100
AcDbEntity
  8
1
  6
Continuous
100
AcDbLine
 10
136.2989485577336
 20
80.17947565860628
 30
0.0
 11
142.2989485577337
 21
80.17947565860628
 31
0.0
  0
LINE
  5
3F4
330
18
100
AcDbEntity
  8
1
  6
Continuous
100
AcDbLine
 10
136.2989485577336
 20
75.77947565860617
 30
0.0
 11
142.2989485577337
 21
75.77947565860617
 31
0.0
  0
LINE
  5
3F5
330
18
100
AcDbEntity
  8
4
  6
CENTER
 48
0.25
100
AcDbLine
 10
132.5989485577337
 20
77.9794756586065
 30
0.0
 11
146.0489485577337
 21
77.9794756586065
 31
0.0
  0
LINE
  5
3F7
330
18
100
AcDbEntity
  8
1
  6
Continuous
100
AcDbLine
 10
132.2989485577336
 20
68.22947565860648
 30
0.0
 11
132.2989485577336
 21
62.72947565862421
 31
0.0
  0
ARC
  5
3F8
330
18
100
AcDbEntity
  8
1
  6
Continuous
100
AcDbCircle
 10
167.2989485577335
 20
68.22947565860596
 30
0.0
 40
2.0
100
AcDbArc
 50
0.0
 51
90.0
  0
LINE
  5
3F9
330
18
100
AcDbEntity
  8
4
  6
CENTER
 48
0.3
100
AcDbLine
 10
160.2989485577335
 20
72.2294756586065
 30
0.0
 11
160.2989485577335
 21
56.72947565860699
 31
0.0
  0
LINE
  5
3FA
330
18
100
AcDbEntity
  8
4
  6
CENTER
 48
0.3
100
AcDbLine
 10
144.2989485577337
 20
72.2294756586065
 30
0.0
 11
144.2989485577337
 21
56.72947565860699
 31
0.0
  0
LINE
  5
3FC
330
18
100
AcDbEntity
  8
1
  6
Continuous
100
AcDbLine
 10
131.2989485577336
 20
68.22947565860648
 30
0.0
 11
167.2989485577334
 21
68.22947565860648
 31
0.0
  0
LINE
  5
3FD
330
18
100
AcDbEntity
  8
1
  6
Continuous
100
AcDbLine
 10
131.2989485577335
 20
80.9794756586065
 30
0.0
 11
131.2989485577335
 21
68.22947565860596
 31
0.0
  0
LINE
  5
401
330
18
100
AcDbEntity
  8
1
  6
Continuous
100
AcDbLine
 10
134.2989485577338
 20
155.4794756586066
 30
0.0
 11
134.2989485577338
 21
153.4794756586066
 31
0.0
  0
LINE
  5
402
330
18
100
AcDbEntity
  8
1
  6
Continuous
100
AcDbLine
 10
239.2989485577334
 20
129.9794756586065
 30
0.0
 11
239.2989485577334
 21
127.9794756586065
 31
0.0
  0
LINE
  5
403
330
18
100
AcDbEntity
  8
1
  6
Continuous
100
AcDbLine
 10
259.5489485577334
 20
160.7294756586064
 30
0.0
 11
252.0489485577334
 21
160.7294756586064
 31
0.0
  0
LINE
  5
404
330
18
100
AcDbEntity
  8
4
  6
CENTER
 48
0.2
100
AcDbLine
 10
244.2989485577334
 20
131.4794756586065
 30
0.0
 11
244.2989485577334
 21
126.4794756586065
 31
0.0
  0
LINE
  5
405
330
18
100
AcDbEntity
  8
4
  6
CENTER
 48
0.2
100
AcDbLine
 10
250.0489485577336
 20
147.4794756586064
 30
0.0
 11
265.5489485577545
 21
147.4794756586064
 31
0.0
  0
LINE
  5
406
330
18
100
AcDbEntity
  8
1
  6
Continuous
100
AcDbLine
 10
259.5489485577334
 20
160.7294756586064
 30
0.0
 11
259.5489485577334
 21
154.9794756586064
 31
0.0
  0
LINE
  5
407
330
18
100
AcDbEntity
  8
1
  6
Continuous
100
AcDbLine
 10
254.0489485577334
 20
167.9794756586032
 30
0.0
 11
254.0489485577334
 21
160.7294756586064
 31
0.0
  0
LINE
  5
408
330
18
100
AcDbEntity
  8
1
  6
Continuous
100
AcDbLine
 10
252.0489485577334
 20
154.9794756586064
 30
0.0
 11
259.5489485577334
 21
154.9794756586064
 31
0.0
  0
ARC
  5
409
330
18
100
AcDbEntity
  8
1
  6
Continuous
100
AcDbCircle
 10
252.0489485577334
 20
129.9794756586065
 30
0.0
 40
2.0
100
AcDbArc
 50
270.0
 51
0.0
  0
LINE
  5
40A
330
18
100
AcDbEntity
  8
1
  6
Continuous
100
AcDbLine
 10
252.0489485577336
 20
167.9794756586034
 30
0.0
 11
254.0489485576924
 21
167.9794756586032
 31
0.0
  0
LINE
  5
40B
330
18
100
AcDbEntity
  8
1
  6
Continuous
100
AcDbLine
 10
239.2989485577334
 20
129.9794756586065
 30
0.0
 11
252.0489485577334
 21
129.9794756586065
 31
0.0
  0
LINE
  5
40C
330
18
100
AcDbEntity
  8
1
  6
Continuous
100
AcDbLine
 10
239.2989485577334
 20
127.9794756586065
 30
0.0
 11
252.0489485577334
 21
127.9794756586065
 31
0.0
  0
LINE
  5
40D
330
18
100
AcDbEntity
  8
1
  6
Continuous
100
AcDbLine
 10
167.2989485577338
 20
160.7294756586066
 30
0.0
 11
169.2989485577338
 21
160.7294756586066
 31
0.0
  0
LINE
  5
412
330
18
100
AcDbEntity
  8
1
  6
Continuous
100
AcDbLine
 10
151.7989485577338
 20
153.4794756586066
 30
0.0
 11
146.7989485577338
 21
153.4794756586066
 31
0.0
  0
LINE
  5
413
330
18
100
AcDbEntity
  8
1
  6
Continuous
100
AcDbLine
 10
167.2989485577338
 20
154.9794756586067
 30
0.0
 11
169.2989485577338
 21
154.9794756586067
 31
0.0
  0
LINE
  5
414
330
18
100
AcDbEntity
  8
1
  6
Continuous
100
AcDbLine
 10
169.2989485577338
 20
160.7294756586066
 30
0.0
 11
169.2989485577338
 21
154.9794756586067
 31
0.0
  0
ARC
  5
415
330
18
100
AcDbEntity
  8
1
  6
Continuous
100
AcDbCircle
 10
133.2989485577338
 20
157.4794756586066
 30
0.0
 40
2.0
100
AcDbArc
 50
180.0
 51
270.0
  0
ARC
  5
416
330
18
100
AcDbEntity
  8
1
  6
Continuous
100
AcDbCircle
 10
133.2989485577338
 20
142.9794756586066
 30
0.0
 40
2.0
100
AcDbArc
 50
90.0
 51
180.0
  0
LINE
  5
419
330
18
100
AcDbEntity
  8
1
  6
Continuous
100
AcDbLine
 10
132.2989485577338
 20
153.4794756586066
 30
0.0
 11
132.2989485577338
 21
146.9794756586066
 31
0.0
  0
LINE
  5
41A
330
18
100
AcDbEntity
  8
1
  6
Continuous
100
AcDbLine
 10
133.2989485577338
 20
155.4794756586066
 30
0.0
 11
134.2989485577338
 21
155.4794756586066
 31
0.0
  0
LINE
  5
41B
330
18
100
AcDbEntity
  8
1
  6
Continuous
100
AcDbLine
 10
132.2989485577338
 20
153.4794756586066
 30
0.0
 11
134.2989485577338
 21
153.4794756586066
 31
0.0
  0
LINE
  5
41C
330
18
100
AcDbEntity
  8
1
  6
Continuous
100
AcDbLine
 10
132.2989485577338
 20
146.9794756586066
 30
0.0
 11
134.2989485577338
 21
146.9794756586066
 31
0.0
  0
LINE
  5
41D
330
18
100
AcDbEntity
  8
1
  6
Continuous
100
AcDbLine
 10
133.2989485577338
 20
144.9794756586066
 30
0.0
 11
134.2989485577338
 21
144.9794756586066
 31
0.0
  0
ARC
  5
423
330
18
100
AcDbEntity
  8
1
  6
Continuous
100
AcDbCircle
 10
568.0475616285162
 20
77.47947565860648
 30
0.0
 40
3.0
100
AcDbArc
 50
0.0
 51
180.0
  0
ARC
  5
425
330
18
100
AcDbEntity
  8
1
  6
Continuous
100
AcDbCircle
 10
568.0475616285162
 20
51.47947565860647
 30
0.0
 40
3.0
100
AcDbArc
 50
180.0
 51
0.0
  0
LINE
  5
427
330
18
100
AcDbEntity
  8
1
  6
Continuous
100
AcDbLine
 10
571.0475616285155
 20
77.47947565860636
 30
0.0
 11
571.0475616285155
 21
51.47947565860626
 31
0.0
  0
LINE
  5
428
330
18
100
AcDbEntity
  8
1
  6
Continuous
100
AcDbLine
 10
565.0475616285155
 20
77.47947565860636
 30
0.0
 11
565.0475616285155
 21
51.47947565860626
 31
0.0
  0
LINE
  5
429
330
18
100
AcDbEntity
  8
1
  6
Continuous
100
AcDbLine
 10
561.0475616285158
 20
86.23848340588585
 30
0.0
 11
561.0475616285158
 21
87.47947565860334
 31
0.0
  0
LINE
  5
42A
330
18
100
AcDbEntity
  8
1
  6
Continuous
100
AcDbLine
 10
550.4329887013714
 20
72.65244960848434
 30
0.0
 11
561.0475616285155
 21
86.23848340588553
 31
0.0
  0
ARC
  5
42B
330
18
100
AcDbEntity
  8
1
  6
Continuous
100
AcDbCircle
 10
552.5475616285158
 20
65.97947565860329
 30
0.0
 40
7.0
100
AcDbArc
 50
107.5826866583277
 51
180.0
  0
LINE
  5
42C
330
18
100
AcDbEntity
  8
1
  6
Continuous
100
AcDbLine
 10
550.4329887013718
 20
56.30650170872525
 30
0.0
 11
561.0475616285158
 21
42.72046791132408
 31
0.0
  0
ARC
  5
42E
330
18
100
AcDbEntity
  8
1
  6
Continuous
100
AcDbCircle
 10
568.0475616285158
 20
77.47947565860648
 30
0.0
 40
3.399999999999999
100
AcDbArc
 50
331.9275130641317
 51
208.0724869358377
  0
ARC
  5
42F
330
18
100
AcDbEntity
  8
1
  6
Continuous
100
AcDbCircle
 10
568.0475616285158
 20
77.47947565860648
 30
0.0
 40
3.1
100
AcDbArc
 50
345.4074493979328
 51
194.5925506020016
  0
ARC
  5
430
330
18
100
AcDbEntity
  8
1
  6
Continuous
100
AcDbCircle
 10
568.0475616285158
 20
51.47947565860647
 30
0.0
 40
3.399999999999999
100
AcDbArc
 50
151.9275130641622
 51
28.07248693586903
  0
ARC
  5
431
330
18
100
AcDbEntity
  8
1
  6
Continuous
100
AcDbCircle
 10
568.0475616285158
 20
51.47947565860647
 30
0.0
 40
3.1
100
AcDbArc
 50
165.4074493980023
 51
14.59255060206713
  0
ARC
  5
432
330
18
100
AcDbEntity
  8
1
  6
Continuous
100
AcDbCircle
 10
568.0475616285158
 20
77.47947565860648
 30
0.0
 40
4.5
100
AcDbArc
 50
311.8103148957715
 51
228.189685104214
  0
ARC
  5
433
330
18
100
AcDbEntity
  8
1
  6
Continuous
100
AcDbCircle
 10
568.0475616285158
 20
51.47947565860647
 30
0.0
 40
4.5
100
AcDbArc
 50
131.8103148957859
 51
48.18968510422849
  0
LINE
  5
435
330
18
100
AcDbEntity
  8
1
  6
Continuous
100
AcDbLine
 10
580.5475616285158
 20
41.47947565860646
 30
0.0
 11
580.5475616285158
 21
87.47947565860647
 31
0.0
  0
ARC
  5
436
330
18
100
AcDbEntity
  8
1
  6
Continuous
100
AcDbCircle
 10
573.5475616285158
 20
87.47947565860647
 30
0.0
 40
7.0
100
AcDbArc
 50
0.0
 51
90.0
  0
LINE
  5
437
330
18
100
AcDbEntity
  8
1
  6
Continuous
100
AcDbLine
 10
568.0475616285158
 20
94.47947565860596
 30
0.0
 11
573.5475616285158
 21
94.47947565860596
 31
0.0
  0
ARC
  5
438
330
18
100
AcDbEntity
  8
1
  6
Continuous
100
AcDbCircle
 10
568.0475616285158
 20
87.47947565860602
 30
0.0
 40
7.0
100
AcDbArc
 50
90.0
 51
180.0
  0
ARC
  5
439
330
18
100
AcDbEntity
  8
1
  6
Continuous
100
AcDbCircle
 10
568.0475616285158
 20
41.47947565860646
 30
0.0
 40
7.0
100
AcDbArc
 50
180.0
 51
270.0
  0
LINE
  5
43A
330
18
100
AcDbEntity
  8
1
  6
Continuous
100
AcDbLine
 10
561.0475616285158
 20
42.72046791132396
 30
0.0
 11
561.0475616285158
 21
41.47947565860646
 31
0.0
  0
ARC
  5
43B
330
18
100
AcDbEntity
  8
1
  6
Continuous
100
AcDbCircle
 10
552.5475616285158
 20
62.97947565860647
 30
0.0
 40
7.0
100
AcDbArc
 50
180.0
 51
252.4173133416721
  0
ARC
  5
43C
330
18
100
AcDbEntity
  8
1
  6
Continuous
100
AcDbCircle
 10
573.5475616285158
 20
41.47947565860646
 30
0.0
 40
7.0
100
AcDbArc
 50
270.0
 51
0.0
  0
LINE
  5
43D
330
18
100
AcDbEntity
  8
1
  6
Continuous
100
AcDbLine
 10
545.5475616285158
 20
62.97947565860647
 30
0.0
 11
545.5475616285158
 21
65.97947565860647
 31
0.0
  0
LINE
  5
43E
330
18
100
AcDbEntity
  8
1
  6
Continuous
100
AcDbLine
 10
568.0475616285158
 20
34.47947565860647
 30
0.0
 11
573.5475616285158
 21
34.47947565860647
 31
0.0
  0
LINE
  5
43F
330
18
100
AcDbEntity
  8
4
  6
CENTER
 48
0.3
100
AcDbLine
 10
562.0475616285158
 20
51.47947565860647
 30
0.0
 11
574.0475616285158
 21
51.47947565860647
 31
0.0
  0
LINE
  5
440
330
18
100
AcDbEntity
  8
4
  6
CENTER
 48
0.3
100
AcDbLine
 10
568.0475616285158
 20
83.47947565860648
 30
0.0
 11
568.0475616285158
 21
45.47947565860647
 31
0.0
  0
LINE
  5
441
330
18
100
AcDbEntity
  8
4
  6
CENTER
 48
0.3
100
AcDbLine
 10
562.0475616285158
 20
77.47947565860648
 30
0.0
 11
574.0475616285158
 21
77.47947565860648
 31
0.0
  0
ARC
  5
442
330
18
100
AcDbEntity
  8
1
  6
Continuous
100
AcDbCircle
 10
552.7975616285158
 20
64.47947565860648
 30
0.0
 40
3.25
100
AcDbArc
 50
90.0
 51
270.0
  0
ARC
  5
443
330
18
100
AcDbEntity
  8
1
  6
Continuous
100
AcDbCircle
 10
555.2975616285158
 20
64.47947565860648
 30
0.0
 40
3.25
100
AcDbArc
 50
270.0
 51
90.0
  0
LINE
  5
444
330
18
100
AcDbEntity
  8
4
  6
CENTER
 48
0.3
100
AcDbLine
 10
554.0475616285158
 20
59.72947565860647
 30
0.0
 11
554.0475616285158
 21
69.22947565860647
 31
0.0
  0
LINE
  5
445
330
18
100
AcDbEntity
  8
1
  6
Continuous
100
AcDbLine
 10
552.7975616285158
 20
61.22947565860648
 30
0.0
 11
555.2975616285158
 21
61.22947565860648
 31
0.0
  0
LINE
  5
446
330
18
100
AcDbEntity
  8
1
  6
Continuous
100
AcDbLine
 10
552.7975616285158
 20
67.72947565860647
 30
0.0
 11
555.2975616285158
 21
67.72947565860647
 31
0.0
  0
LINE
  5
447
330
18
100
AcDbEntity
  8
4
  6
CENTER
 48
0.3
100
AcDbLine
 10
572.0475616285158
 20
46.22947565860648
 30
0.0
 11
572.0475616285158
 21
36.72947565860647
 31
0.0
  0
LINE
  5
448
330
18
100
AcDbEntity
  8
4
  6
CENTER
 48
0.3
100
AcDbLine
 10
566.0475616285158
 20
41.47947565860646
 30
0.0
 11
578.0475616285158
 21
41.47947565860646
 31
0.0
  0
LINE
  5
449
330
18
100
AcDbEntity
  8
1
  6
Continuous
100
AcDbLine
 10
570.797561628516
 20
38.22947565860647
 30
0.0
 11
573.2975616285158
 21
38.22947565860647
 31
0.0
  0
ARC
  5
44A
330
18
100
AcDbEntity
  8
1
  6
Continuous
100
AcDbCircle
 10
570.797561628516
 20
41.47947565860646
 30
0.0
 40
3.25
100
AcDbArc
 50
90.0
 51
270.0
  0
LINE
  5
44B
330
18
100
AcDbEntity
  8
1
  6
Continuous
100
AcDbLine
 10
570.797561628516
 20
44.72947565860647
 30
0.0
 11
573.2975616285158
 21
44.72947565860647
 31
0.0
  0
ARC
  5
44C
330
18
100
AcDbEntity
  8
1
  6
Continuous
100
AcDbCircle
 10
573.2975616285158
 20
41.47947565860646
 30
0.0
 40
3.25
100
AcDbArc
 50
270.0
 51
90.0
  0
ARC
  5
44D
330
18
100
AcDbEntity
  8
1
  6
Continuous
100
AcDbCircle
 10
570.797561628516
 20
87.47947565860647
 30
0.0
 40
3.25
100
AcDbArc
 50
90.0
 51
270.0
  0
ARC
  5
44E
330
18
100
AcDbEntity
  8
1
  6
Continuous
100
AcDbCircle
 10
573.2975616285158
 20
87.47947565860647
 30
0.0
 40
3.25
100
AcDbArc
 50
270.0
 51
90.0
  0
LINE
  5
44F
330
18
100
AcDbEntity
  8
4
  6
CENTER
 48
0.3
100
AcDbLine
 10
572.0475616285158
 20
82.72947565860647
 30
0.0
 11
572.0475616285158
 21
92.22947565860648
 31
0.0
  0
LINE
  5
450
330
18
100
AcDbEntity
  8
1
  6
Continuous
100
AcDbLine
 10
570.797561628516
 20
84.22947565860647
 30
0.0
 11
573.2975616285158
 21
84.22947565860647
 31
0.0
  0
LINE
  5
451
330
18
100
AcDbEntity
  8
1
  6
Continuous
100
AcDbLine
 10
570.797561628516
 20
90.72947565860649
 30
0.0
 11
573.2975616285158
 21
90.72947565860649
 31
0.0
  0
LINE
  5
452
330
18
100
AcDbEntity
  8
4
  6
CENTER
 48
0.3
100
AcDbLine
 10
566.0475616285158
 20
87.47947565860647
 30
0.0
 11
578.0475616285158
 21
87.47947565860647
 31
0.0
  0
LINE
  5
453
330
18
100
AcDbEntity
  8
4
  6
CENTER
 48
0.3
100
AcDbLine
 10
544.0475616285158
 20
64.47947565860648
 30
0.0
 11
582.0475616285158
 21
64.47947565860648
 31
0.0
  0
LINE
  5
454
330
18
100
AcDbEntity
  8
1
  6
Continuous
100
AcDbLine
 10
545.5475616285158
 20
168.9794756586063
 30
0.0
 11
580.5475616285158
 21
168.9794756586063
 31
0.0
  0
LINE
  5
455
330
18
100
AcDbEntity
  8
4
  6
CENTER
 48
0.1
100
AcDbLine
 10
563.5475616285158
 20
136.9794756586065
 30
0.0
 11
572.5475616285158
 21
136.9794756586065
 31
0.0
  0
LINE
  5
456
330
18
100
AcDbEntity
  8
4
  6
CENTER
 48
0.3
100
AcDbLine
 10
568.0475616285158
 20
172.1794756586063
 30
0.0
 11
568.0475616285158
 21
132.4794756586065
 31
0.0
  0
ARC
  5
458
330
18
100
AcDbEntity
  8
1
  6
Continuous
100
AcDbCircle
 10
568.0475616285158
 20
136.9794756586065
 30
0.0
 40
2.999999999999943
100
AcDbArc
 50
180.0
 51
0.0
  0
LINE
  5
459
330
18
100
AcDbEntity
  8
1
  6
Continuous
100
AcDbLine
 10
565.0475616285158
 20
136.9794756586065
 30
0.0
 11
565.0475616285158
 21
166.0794756586059
 31
0.0
  0
LINE
  5
45A
330
18
100
AcDbEntity
  8
1
  6
Continuous
100
AcDbLine
 10
571.0475616285158
 20
136.9794756586065
 30
0.0
 11
571.0475616285158
 21
166.0794756586059
 31
0.0
  0
LINE
  5
45B
330
18
100
AcDbEntity
  8
1
  6
Continuous
100
AcDbLine
 10
550.4329887013716
 20
166.9794756586063
 30
0.0
 11
550.4329887013716
 21
168.9794756586063
 31
0.0
  0
LINE
  5
45C
330
18
100
AcDbEntity
  8
1
  6
Continuous
100
AcDbLine
 10
561.0475616285158
 20
166.9794756586063
 30
0.0
 11
561.0475616285158
 21
168.9794756586063
 31
0.0
  0
LINE
  5
45D
330
18
100
AcDbEntity
  8
1
  6
Continuous
100
AcDbLine
 10
572.5475616284864
 20
166.9794756586066
 30
0.0
 11
572.5475616284864
 21
166.5294756586057
 31
0.0
  0
ARC
  5
45E
330
18
100
AcDbEntity
  8
1
  6
Continuous
100
AcDbCircle
 10
571.3743251785196
 20
167.8279425363013
 30
0.0
 40
1.75
100
AcDbArc
 50
272.3984944512315
 51
312.0995528632036
  0
LINE
  5
45F
330
18
100
AcDbEntity
  8
1
  6
Continuous
100
AcDbLine
 10
564.6475616285131
 20
166.0794756586059
 30
0.0
 11
571.4475616284868
 21
166.0794756586059
 31
0.0
  0
LINE
  5
460
330
18
100
AcDbEntity
  8
1
  6
Continuous
100
AcDbLine
 10
563.5475616285146
 20
166.9794756586066
 30
0.0
 11
563.5475616285146
 21
166.5294756586057
 31
0.0
  0
ARC
  5
461
330
18
100
AcDbEntity
  8
1
  6
Continuous
100
AcDbCircle
 10
564.7207980784802
 20
167.8279425363013
 30
0.0
 40
1.75
100
AcDbArc
 50
227.9004471367951
 51
267.6015055487685
  0
LINE
  5
462
330
18
100
AcDbEntity
  8
1
  6
Continuous
100
AcDbLine
 10
545.5475616285158
 20
166.9794756586063
 30
0.0
 11
580.5475616285158
 21
166.9794756586063
 31
0.0
  0
LINE
  5
463
330
18
100
AcDbEntity
  8
4
  6
CENTER
 48
0.1
100
AcDbLine
 10
572.0475616285158
 20
165.4794756586063
 30
0.0
 11
572.0475616285158
 21
170.4794756586063
 31
0.0
  0
LINE
  5
464
330
18
100
AcDbEntity
  8
4
  6
CENTER
 48
0.1
100
AcDbLine
 10
554.0475616285158
 20
165.4794756586063
 30
0.0
 11
554.0475616285158
 21
170.4794756586063
 31
0.0
  0
LINE
  5
465
330
18
100
AcDbEntity
  8
1
  6
Continuous
100
AcDbLine
 10
580.5475616285158
 20
166.9794756586063
 30
0.0
 11
580.5475616285158
 21
168.9794756586063
 31
0.0
  0
LINE
  5
466
330
18
100
AcDbEntity
  8
1
  6
Continuous
100
AcDbLine
 10
545.5475616285158
 20
166.9794756586063
 30
0.0
 11
545.5475616285158
 21
168.9794756586063
 31
0.0
  0
LINE
  5
477
330
18
100
AcDbEntity
  8
1
  6
Continuous
100
AcDbLine
 10
652.5812514930014
 20
142.4794756586065
 30
0.0
 11
652.5812514930014
 21
166.0794756586059
 31
0.0
  0
LINE
  5
478
330
18
100
AcDbEntity
  8
1
  6
Continuous
100
AcDbLine
 10
646.5812514930014
 20
142.4794756586065
 30
0.0
 11
646.5812514930014
 21
166.0794756586059
 31
0.0
  0
LINE
  5
479
330
18
100
AcDbEntity
  8
4
  6
CENTER
 48
0.3
100
AcDbLine
 10
649.5812514930014
 20
172.1794756586063
 30
0.0
 11
649.5812514930014
 21
142.4794756586065
 31
0.0
  0
LINE
  5
47C
330
18
100
AcDbEntity
  8
1
  6
Continuous
100
AcDbLine
 10
632.5812514930019
 20
168.9794756586063
 30
0.0
 11
692.5812514930014
 21
168.9794756586063
 31
0.0
  0
LINE
  5
47D
330
18
100
AcDbEntity
  8
1
  6
Continuous
100
AcDbLine
 10
632.5812514930019
 20
166.9794756586064
 30
0.0
 11
692.5812514930014
 21
166.9794756586063
 31
0.0
  0
LINE
  5
480
330
18
100
AcDbEntity
  8
4
  6
CENTER
 48
0.1
100
AcDbLine
 10
639.5812514930014
 20
165.4794756586063
 30
0.0
 11
639.5812514930014
 21
170.4794756586063
 31
0.0
  0
LINE
  5
482
330
18
100
AcDbEntity
  8
1
  6
Continuous
100
AcDbLine
 10
646.1812514929986
 20
166.0794756586059
 30
0.0
 11
652.9812514929724
 21
166.0794756586059
 31
0.0
  0
ARC
  5
483
330
18
100
AcDbEntity
  8
1
  6
Continuous
100
AcDbCircle
 10
646.254487942966
 20
167.8279425363012
 30
0.0
 40
1.75
100
AcDbArc
 50
227.9004471367951
 51
267.6015055487685
  0
LINE
  5
484
330
18
100
AcDbEntity
  8
1
  6
Continuous
100
AcDbLine
 10
645.081251493
 20
166.9794756586065
 30
0.0
 11
645.081251493
 21
166.5294756586055
 31
0.0
  0
LINE
  5
485
330
18
100
AcDbEntity
  8
4
  6
CENTER
 48
0.1
100
AcDbLine
 10
685.5812514930014
 20
165.4794756586063
 30
0.0
 11
685.5812514930014
 21
170.4794756586063
 31
0.0
  0
ARC
  5
486
330
18
100
AcDbEntity
  8
1
  6
Continuous
100
AcDbCircle
 10
652.9080150430051
 20
167.8279425363012
 30
0.0
 40
1.75
100
AcDbArc
 50
272.3984944512315
 51
312.0995528632036
  0
LINE
  5
487
330
18
100
AcDbEntity
  8
1
  6
Continuous
100
AcDbLine
 10
654.0812514929719
 20
166.9794756586065
 30
0.0
 11
654.0812514929719
 21
166.5294756586055
 31
0.0
  0
LINE
  5
48A
330
18
100
AcDbEntity
  8
1
  6
Continuous
100
AcDbLine
 10
632.5812514930019
 20
166.9794756586064
 30
0.0
 11
632.5812514930019
 21
168.9794756586063
 31
0.0
  0
LINE
  5
48B
330
18
100
AcDbEntity
  8
1
  6
Continuous
100
AcDbLine
 10
692.5812514930014
 20
166.9794756586063
 30
0.0
 11
692.5812514930014
 21
168.9794756586063
 31
0.0
  0
LINE
  5
48F
330
18
100
AcDbEntity
  8
4
  6
CENTER
 48
0.3
100
AcDbLine
 10
675.5812514930014
 20
172.179475658606
 30
0.0
 11
675.5812514930014
 21
142.4794756586063
 31
0.0
  0
LINE
  5
490
330
18
100
AcDbEntity
  8
1
  6
Continuous
100
AcDbLine
 10
672.5812514930014
 20
142.4794756586063
 30
0.0
 11
672.5812514930014
 21
166.0794756586056
 31
0.0
  0
LINE
  5
491
330
18
100
AcDbEntity
  8
1
  6
Continuous
100
AcDbLine
 10
678.5812514930015
 20
142.4794756586063
 30
0.0
 11
678.5812514930015
 21
166.0794756586056
 31
0.0
  0
LINE
  5
492
330
18
100
AcDbEntity
  8
4
  6
CENTER
 48
0.1
100
AcDbLine
 10
655.0812514930014
 20
136.9794756586061
 30
0.0
 11
670.0812514930014
 21
136.9794756586061
 31
0.0
  0
LINE
  5
494
330
18
100
AcDbEntity
  8
1
  6
Continuous
100
AcDbLine
 10
672.1812514929986
 20
166.0794756586056
 30
0.0
 11
678.9812514929724
 21
166.0794756586056
 31
0.0
  0
LINE
  5
495
330
18
100
AcDbEntity
  8
1
  6
Continuous
100
AcDbLine
 10
680.0812514929718
 20
166.9794756586061
 30
0.0
 11
680.0812514929718
 21
166.5294756586052
 31
0.0
  0
ARC
  5
496
330
18
100
AcDbEntity
  8
1
  6
Continuous
100
AcDbCircle
 10
678.9080150430052
 20
167.8279425363009
 30
0.0
 40
1.75
100
AcDbArc
 50
272.3984944512315
 51
312.0995528632036
  0
LINE
  5
497
330
18
100
AcDbEntity
  8
1
  6
Continuous
100
AcDbLine
 10
671.081251493
 20
166.9794756586061
 30
0.0
 11
671.081251493
 21
166.5294756586052
 31
0.0
  0
ARC
  5
498
330
18
100
AcDbEntity
  8
1
  6
Continuous
100
AcDbCircle
 10
672.2544879429658
 20
167.8279425363009
 30
0.0
 40
1.75
100
AcDbArc
 50
227.9004471367951
 51
267.6015055487685
  0
LINE
  5
499
330
18
100
AcDbEntity
  8
1
  6
Continuous
100
AcDbLine
 10
655.0812514930014
 20
133.9794756586064
 30
0.0
 11
670.0812514930014
 21
133.9794756586063
 31
0.0
  0
LINE
  5
49A
330
18
100
AcDbEntity
  8
1
  6
Continuous
100
AcDbLine
 10
655.0812514930014
 20
139.9794756586065
 30
0.0
 11
670.0812514930014
 21
139.9794756586063
 31
0.0
  0
ARC
  5
49C
330
18
100
AcDbEntity
  8
1
  6
Continuous
100
AcDbCircle
 10
655.0812514930014
 20
142.4794756586065
 30
0.0
 40
2.5
100
AcDbArc
 50
180.0
 51
269.9999999999994
  0
ARC
  5
49D
330
18
100
AcDbEntity
  8
1
  6
Continuous
100
AcDbCircle
 10
670.0812514930014
 20
142.4794756586063
 30
0.0
 40
2.5
100
AcDbArc
 50
269.9999999999993
 51
0.0
  0
ARC
  5
49E
330
18
100
AcDbEntity
  8
1
  6
Continuous
100
AcDbCircle
 10
655.0812514930014
 20
142.4794756586065
 30
0.0
 40
8.5
100
AcDbArc
 50
180.0
 51
269.9999999999994
  0
ARC
  5
49F
330
18
100
AcDbEntity
  8
1
  6
Continuous
100
AcDbCircle
 10
670.0812514930014
 20
142.4794756586063
 30
0.0
 40
8.5
100
AcDbArc
 50
269.9999999999993
 51
0.0
  0
ARC
  5
4A0
330
18
100
AcDbEntity
  8
4
  6
CENTER
 48
0.3
100
AcDbCircle
 10
655.0812514930014
 20
142.4794756586065
 30
0.0
 40
5.5
100
AcDbArc
 50
180.0
 51
270.0
  0
ARC
  5
4A1
330
18
100
AcDbEntity
  8
4
  6
CENTER
 48
0.3
100
AcDbCircle
 10
670.0812514930014
 20
142.4794756586063
 30
0.0
 40
5.5
100
AcDbArc
 50
270.0
 51
0.0
  0
LINE
  5
4A3
330
18
100
AcDbEntity
  8
1
  6
Continuous
100
AcDbLine
 10
499.6135831851471
 20
166.9794756586064
 30
0.0
 11
439.6135831851477
 21
166.9794756586063
 31
0.0
  0
LINE
  5
4A4
330
18
100
AcDbEntity
  8
1
  6
Continuous
100
AcDbLine
 10
499.6135831851471
 20
168.9794756586063
 30
0.0
 11
439.6135831851477
 21
168.9794756586063
 31
0.0
  0
LINE
  5
4A5
330
18
100
AcDbEntity
  8
1
  6
Continuous
100
AcDbLine
 10
477.1135831851477
 20
139.9794756586065
 30
0.0
 11
462.1135831851477
 21
139.9794756586063
 31
0.0
  0
LINE
  5
4A6
330
18
100
AcDbEntity
  8
1
  6
Continuous
100
AcDbLine
 10
477.1135831851477
 20
133.9794756586064
 30
0.0
 11
462.1135831851477
 21
133.9794756586063
 31
0.0
  0
LINE
  5
4A7
330
18
100
AcDbEntity
  8
4
  6
CENTER
 48
0.1
100
AcDbLine
 10
477.1135831851477
 20
136.9794756586061
 30
0.0
 11
462.1135831851477
 21
136.9794756586061
 31
0.0
  0
LINE
  5
4A8
330
18
100
AcDbEntity
  8
1
  6
Continuous
100
AcDbLine
 10
459.6135831851476
 20
142.4794756586063
 30
0.0
 11
459.6135831851476
 21
166.0794756586056
 31
0.0
  0
LINE
  5
4A9
330
18
100
AcDbEntity
  8
1
  6
Continuous
100
AcDbLine
 10
453.6135831851477
 20
142.4794756586063
 30
0.0
 11
453.6135831851477
 21
166.0794756586056
 31
0.0
  0
LINE
  5
4AA
330
18
100
AcDbEntity
  8
4
  6
CENTER
 48
0.3
100
AcDbLine
 10
456.6135831851477
 20
172.179475658606
 30
0.0
 11
456.6135831851477
 21
142.4794756586063
 31
0.0
  0
ARC
  5
4AB
330
18
100
AcDbEntity
  8
1
  6
Continuous
100
AcDbCircle
 10
462.1135831851477
 20
142.4794756586062
 30
0.0
 40
2.5
100
AcDbArc
 50
180.0
 51
270.0000000000006
  0
ARC
  5
4AC
330
18
100
AcDbEntity
  8
1
  6
Continuous
100
AcDbCircle
 10
462.1135831851477
 20
142.4794756586062
 30
0.0
 40
8.5
100
AcDbArc
 50
180.0
 51
270.0000000000006
  0
ARC
  5
4AD
330
18
100
AcDbEntity
  8
4
  6
CENTER
 48
0.3
100
AcDbCircle
 10
462.1135831851477
 20
142.4794756586062
 30
0.0
 40
5.5
100
AcDbArc
 50
180.0
 51
270.0
  0
LINE
  5
4AE
330
18
100
AcDbEntity
  8
1
  6
Continuous
100
AcDbLine
 10
439.6135831851477
 20
166.9794756586063
 30
0.0
 11
439.6135831851477
 21
168.9794756586063
 31
0.0
  0
LINE
  5
4AF
330
18
100
AcDbEntity
  8
1
  6
Continuous
100
AcDbLine
 10
460.0135831851505
 20
166.0794756586056
 30
0.0
 11
453.2135831851767
 21
166.0794756586056
 31
0.0
  0
LINE
  5
4B0
330
18
100
AcDbEntity
  8
1
  6
Continuous
100
AcDbLine
 10
452.1135831851771
 20
166.9794756586061
 30
0.0
 11
452.1135831851771
 21
166.5294756586052
 31
0.0
  0
ARC
  5
4B1
330
18
100
AcDbEntity
  8
1
  6
Continuous
100
AcDbCircle
 10
453.2868196351439
 20
167.8279425363008
 30
0.0
 40
1.75
100
AcDbArc
 50
227.9004471367963
 51
267.6015055487685
  0
LINE
  5
4B2
330
18
100
AcDbEntity
  8
4
  6
CENTER
 48
0.1
100
AcDbLine
 10
446.6135831851477
 20
165.4794756586063
 30
0.0
 11
446.6135831851477
 21
170.4794756586063
 31
0.0
  0
LINE
  5
4B3
330
18
100
AcDbEntity
  8
1
  6
Continuous
100
AcDbLine
 10
461.113583185149
 20
166.9794756586061
 30
0.0
 11
461.113583185149
 21
166.5294756586052
 31
0.0
  0
ARC
  5
4B4
330
18
100
AcDbEntity
  8
1
  6
Continuous
100
AcDbCircle
 10
459.9403467351833
 20
167.8279425363008
 30
0.0
 40
1.75
100
AcDbArc
 50
272.3984944512315
 51
312.0995528632048
  0
LINE
  5
4B5
330
18
100
AcDbEntity
  8
1
  6
Continuous
100
AcDbLine
 10
485.6135831851477
 20
142.4794756586065
 30
0.0
 11
485.6135831851477
 21
166.0794756586059
 31
0.0
  0
LINE
  5
4B6
330
18
100
AcDbEntity
  8
1
  6
Continuous
100
AcDbLine
 10
479.6135831851477
 20
142.4794756586065
 30
0.0
 11
479.6135831851477
 21
166.0794756586059
 31
0.0
  0
LINE
  5
4B7
330
18
100
AcDbEntity
  8
4
  6
CENTER
 48
0.3
100
AcDbLine
 10
482.6135831851477
 20
172.1794756586063
 30
0.0
 11
482.6135831851477
 21
142.4794756586065
 31
0.0
  0
ARC
  5
4B8
330
18
100
AcDbEntity
  8
1
  6
Continuous
100
AcDbCircle
 10
477.1135831851477
 20
142.4794756586064
 30
0.0
 40
8.5
100
AcDbArc
 50
270.0000000000005
 51
0.0
  0
ARC
  5
4B9
330
18
100
AcDbEntity
  8
1
  6
Continuous
100
AcDbCircle
 10
477.1135831851477
 20
142.4794756586064
 30
0.0
 40
2.5
100
AcDbArc
 50
270.0000000000005
 51
0.0
  0
ARC
  5
4BA
330
18
100
AcDbEntity
  8
4
  6
CENTER
 48
0.3
100
AcDbCircle
 10
477.1135831851477
 20
142.4794756586064
 30
0.0
 40
5.5
100
AcDbArc
 50
270.0
 51
0.0
  0
LINE
  5
4BB
330
18
100
AcDbEntity
  8
1
  6
Continuous
100
AcDbLine
 10
486.0135831851505
 20
166.0794756586059
 30
0.0
 11
479.2135831851767
 21
166.0794756586059
 31
0.0
  0
ARC
  5
4BC
330
18
100
AcDbEntity
  8
1
  6
Continuous
100
AcDbCircle
 10
479.2868196351439
 20
167.8279425363011
 30
0.0
 40
1.75
100
AcDbArc
 50
227.9004471367963
 51
267.6015055487685
  0
LINE
  5
4BD
330
18
100
AcDbEntity
  8
1
  6
Continuous
100
AcDbLine
 10
478.1135831851773
 20
166.9794756586065
 30
0.0
 11
478.1135831851773
 21
166.5294756586055
 31
0.0
  0
ARC
  5
4BE
330
18
100
AcDbEntity
  8
1
  6
Continuous
100
AcDbCircle
 10
485.9403467351833
 20
167.8279425363011
 30
0.0
 40
1.75
100
AcDbArc
 50
272.3984944512315
 51
312.0995528632048
  0
LINE
  5
4BF
330
18
100
AcDbEntity
  8
1
  6
Continuous
100
AcDbLine
 10
487.113583185149
 20
166.9794756586065
 30
0.0
 11
487.113583185149
 21
166.5294756586055
 31
0.0
  0
LINE
  5
4C0
330
18
100
AcDbEntity
  8
4
  6
CENTER
 48
0.1
100
AcDbLine
 10
492.6135831851476
 20
165.4794756586063
 30
0.0
 11
492.6135831851476
 21
170.4794756586063
 31
0.0
  0
LINE
  5
4C1
330
18
100
AcDbEntity
  8
1
  6
Continuous
100
AcDbLine
 10
499.6135831851471
 20
166.9794756586064
 30
0.0
 11
499.6135831851471
 21
168.9794756586063
 31
0.0
  0
LINE
  5
4C2
330
18
100
AcDbEntity
  8
1
  6
Continuous
100
AcDbLine
 10
491.3725909324266
 20
166.9794756586063
 30
0.0
 11
491.3725909324266
 21
168.9794756586062
 31
0.0
  0
LINE
  5
4C3
330
18
100
AcDbEntity
  8
1
  6
Continuous
100
AcDbLine
 10
477.7865571350256
 20
166.9794756586063
 30
0.0
 11
477.7865571350254
 21
168.9794756586063
 31
0.0
  0
LINE
  5
4C5
330
18
100
AcDbEntity
  8
1
  6
Continuous
100
AcDbLine
 10
447.8545754378687
 20
166.9794756586063
 30
0.0
 11
447.8545754378687
 21
168.9794756586062
 31
0.0
  0
LINE
  5
4C6
330
18
100
AcDbEntity
  8
1
  6
Continuous
100
AcDbLine
 10
461.4406092352696
 20
166.9794756586063
 30
0.0
 11
461.4406092352698
 21
168.9794756586063
 31
0.0
  0
ARC
  5
4C8
330
18
100
AcDbEntity
  8
1
  6
Continuous
100
AcDbCircle
 10
552.5475616285158
 20
244.9564285394409
 30
0.0
 40
7.0
100
AcDbArc
 50
107.5826866583277
 51
180.0
  0
LINE
  5
4CB
330
18
100
AcDbEntity
  8
4
  6
CENTER
 48
0.3
100
AcDbLine
 10
568.0475616285158
 20
224.4564285394409
 30
0.0
 11
568.0475616285158
 21
262.4564285394409
 31
0.0
  0
LINE
  5
4CC
330
18
100
AcDbEntity
  8
1
  6
Continuous
100
AcDbLine
 10
580.5475616285158
 20
266.4564285394409
 30
0.0
 11
580.5475616285158
 21
220.4564285394409
 31
0.0
  0
ARC
  5
4CD
330
18
100
AcDbEntity
  8
1
  6
Continuous
100
AcDbCircle
 10
568.0475616285158
 20
266.4564285394409
 30
0.0
 40
7.0
100
AcDbArc
 50
90.0
 51
180.0
  0
LINE
  5
4CE
330
18
100
AcDbEntity
  8
1
  6
Continuous
100
AcDbLine
 10
550.4329887013718
 20
251.6294024893222
 30
0.0
 11
561.0475616285158
 21
265.2154362867233
 31
0.0
  0
LINE
  5
4CF
330
18
100
AcDbEntity
  8
1
  6
Continuous
100
AcDbLine
 10
561.0475616285158
 20
265.2154362867234
 30
0.0
 11
561.0475616285158
 21
266.4564285394409
 31
0.0
  0
ARC
  5
4D0
330
18
100
AcDbEntity
  8
1
  6
Continuous
100
AcDbCircle
 10
573.5475616285158
 20
266.4564285394409
 30
0.0
 40
7.0
100
AcDbArc
 50
0.0
 51
90.0
  0
LINE
  5
4D1
330
18
100
AcDbEntity
  8
4
  6
CENTER
 48
0.3
100
AcDbLine
 10
572.0475616285158
 20
261.7064285394409
 30
0.0
 11
572.0475616285158
 21
271.206428539441
 31
0.0
  0
LINE
  5
4D2
330
18
100
AcDbEntity
  8
1
  6
Continuous
100
AcDbLine
 10
568.0475616285158
 20
273.456428539441
 30
0.0
 11
573.5475616285158
 21
273.456428539441
 31
0.0
  0
LINE
  5
4D3
330
18
100
AcDbEntity
  8
4
  6
CENTER
 48
0.3
100
AcDbLine
 10
566.0475616285158
 20
266.4564285394409
 30
0.0
 11
578.0475616285158
 21
266.4564285394409
 31
0.0
  0
ARC
  5
4D6
330
18
100
AcDbEntity
  8
1
  6
Continuous
100
AcDbCircle
 10
570.797561628516
 20
266.4564285394409
 30
0.0
 40
3.25
100
AcDbArc
 50
90.0
 51
270.0
  0
LINE
  5
4D7
330
18
100
AcDbEntity
  8
1
  6
Continuous
100
AcDbLine
 10
570.797561628516
 20
263.206428539441
 30
0.0
 11
573.2975616285158
 21
263.206428539441
 31
0.0
  0
LINE
  5
4D8
330
18
100
AcDbEntity
  8
1
  6
Continuous
100
AcDbLine
 10
570.797561628516
 20
269.706428539441
 30
0.0
 11
573.2975616285158
 21
269.706428539441
 31
0.0
  0
ARC
  5
4D9
330
18
100
AcDbEntity
  8
1
  6
Continuous
100
AcDbCircle
 10
573.2975616285158
 20
266.4564285394409
 30
0.0
 40
3.25
100
AcDbArc
 50
270.0
 51
90.0
  0
LINE
  5
4DC
330
18
100
AcDbEntity
  8
4
  6
CENTER
 48
0.3
100
AcDbLine
 10
562.0475616285158
 20
256.456428539441
 30
0.0
 11
574.0475616285158
 21
256.456428539441
 31
0.0
  0
ARC
  5
4DD
330
18
100
AcDbEntity
  8
1
  6
Continuous
100
AcDbCircle
 10
568.0475616285158
 20
220.4564285394414
 30
0.0
 40
7.0
100
AcDbArc
 50
180.0
 51
270.0
  0
LINE
  5
4DE
330
18
100
AcDbEntity
  8
4
  6
CENTER
 48
0.3
100
AcDbLine
 10
544.0475616285158
 20
243.4564285394409
 30
0.0
 11
582.0475616285158
 21
243.4564285394409
 31
0.0
  0
LINE
  5
4DF
330
18
100
AcDbEntity
  8
1
  6
Continuous
100
AcDbLine
 10
550.4329887013714
 20
235.283454589563
 30
0.0
 11
561.0475616285155
 21
221.6974207921619
 31
0.0
  0
ARC
  5
4E0
330
18
100
AcDbEntity
  8
1
  6
Continuous
100
AcDbCircle
 10
552.5475616285158
 20
241.9564285394441
 30
0.0
 40
7.0
100
AcDbArc
 50
180.0
 51
252.4173133416722
  0
LINE
  5
4E1
330
18
100
AcDbEntity
  8
1
  6
Continuous
100
AcDbLine
 10
545.5475616285158
 20
244.9564285394409
 30
0.0
 11
545.5475616285158
 21
241.956428539441
 31
0.0
  0
LINE
  5
4E2
330
18
100
AcDbEntity
  8
1
  6
Continuous
100
AcDbLine
 10
552.7975616285158
 20
240.206428539441
 30
0.0
 11
555.2975616285158
 21
240.206428539441
 31
0.0
  0
LINE
  5
4E3
330
18
100
AcDbEntity
  8
1
  6
Continuous
100
AcDbLine
 10
552.7975616285158
 20
246.706428539441
 30
0.0
 11
555.2975616285158
 21
246.706428539441
 31
0.0
  0
LINE
  5
4E4
330
18
100
AcDbEntity
  8
4
  6
CENTER
 48
0.3
100
AcDbLine
 10
554.0475616285158
 20
248.206428539441
 30
0.0
 11
554.0475616285158
 21
238.7064285394409
 31
0.0
  0
ARC
  5
4E5
330
18
100
AcDbEntity
  8
1
  6
Continuous
100
AcDbCircle
 10
552.7975616285158
 20
243.4564285394409
 30
0.0
 40
3.25
100
AcDbArc
 50
90.0
 51
270.0
  0
ARC
  5
4E6
330
18
100
AcDbEntity
  8
1
  6
Continuous
100
AcDbCircle
 10
555.2975616285158
 20
243.4564285394409
 30
0.0
 40
3.25
100
AcDbArc
 50
270.0
 51
90.0
  0
LINE
  5
4E7
330
18
100
AcDbEntity
  8
1
  6
Continuous
100
AcDbLine
 10
561.0475616285158
 20
221.6974207921615
 30
0.0
 11
561.0475616285158
 21
220.456428539444
 31
0.0
  0
LINE
  5
4EC
330
18
100
AcDbEntity
  8
4
  6
CENTER
 48
0.3
100
AcDbLine
 10
562.0475616285158
 20
230.4564285394409
 30
0.0
 11
574.0475616285158
 21
230.4564285394409
 31
0.0
  0
ARC
  5
4ED
330
18
100
AcDbEntity
  8
1
  6
Continuous
100
AcDbCircle
 10
573.5475616285158
 20
220.4564285394409
 30
0.0
 40
7.0
100
AcDbArc
 50
270.0
 51
0.0
  0
LINE
  5
4EE
330
18
100
AcDbEntity
  8
4
  6
CENTER
 48
0.3
100
AcDbLine
 10
566.0475616285158
 20
220.4564285394409
 30
0.0
 11
578.0475616285158
 21
220.4564285394409
 31
0.0
  0
LINE
  5
4EF
330
18
100
AcDbEntity
  8
4
  6
CENTER
 48
0.3
100
AcDbLine
 10
572.0475616285158
 20
225.206428539441
 30
0.0
 11
572.0475616285158
 21
215.7064285394409
 31
0.0
  0
ARC
  5
4F0
330
18
100
AcDbEntity
  8
1
  6
Continuous
100
AcDbCircle
 10
570.797561628516
 20
220.4564285394409
 30
0.0
 40
3.25
100
AcDbArc
 50
90.0
 51
270.0
  0
LINE
  5
4F1
330
18
100
AcDbEntity
  8
1
  6
Continuous
100
AcDbLine
 10
570.797561628516
 20
223.706428539441
 30
0.0
 11
573.2975616285158
 21
223.706428539441
 31
0.0
  0
LINE
  5
4F2
330
18
100
AcDbEntity
  8
1
  6
Continuous
100
AcDbLine
 10
570.797561628516
 20
217.206428539441
 30
0.0
 11
573.2975616285158
 21
217.206428539441
 31
0.0
  0
ARC
  5
4F3
330
18
100
AcDbEntity
  8
1
  6
Continuous
100
AcDbCircle
 10
573.2975616285158
 20
220.4564285394409
 30
0.0
 40
3.25
100
AcDbArc
 50
270.0
 51
90.0
  0
LINE
  5
4F4
330
18
100
AcDbEntity
  8
1
  6
Continuous
100
AcDbLine
 10
568.0475616285158
 20
213.4564285394414
 30
0.0
 11
573.5475616285158
 21
213.4564285394414
 31
0.0
  0
CIRCLE
  5
4F6
330
18
100
AcDbEntity
  8
1
  6
Continuous
100
AcDbCircle
 10
568.0475616285158
 20
256.456428539441
 30
0.0
 40
4.0
  0
CIRCLE
  5
4F7
330
18
100
AcDbEntity
  8
1
  6
Continuous
100
AcDbCircle
 10
568.0475616285158
 20
230.4564285394409
 30
0.0
 40
4.0
  0
LINE
  5
4F8
330
18
100
AcDbEntity
  8
1
  6
Continuous
100
AcDbLine
 10
753.4919545813952
 20
136.9794756586065
 30
0.0
 11
753.4919545813952
 21
166.0794756586059
 31
0.0
  0
LINE
  5
4F9
330
18
100
AcDbEntity
  8
1
  6
Continuous
100
AcDbLine
 10
759.4919545813952
 20
136.9794756586065
 30
0.0
 11
759.4919545813952
 21
166.0794756586059
 31
0.0
  0
LINE
  5
4FA
330
18
100
AcDbEntity
  8
4
  6
CENTER
 48
0.3
100
AcDbLine
 10
756.4919545813952
 20
172.1794756586063
 30
0.0
 11
756.4919545813952
 21
132.4794756586065
 31
0.0
  0
LINE
  5
4FB
330
18
100
AcDbEntity
  8
4
  6
CENTER
 48
0.1
100
AcDbLine
 10
760.9919545813952
 20
136.9794756586065
 30
0.0
 11
751.9919545813952
 21
136.9794756586065
 31
0.0
  0
ARC
  5
4FC
330
18
100
AcDbEntity
  8
1
  6
Continuous
100
AcDbCircle
 10
756.4919545813952
 20
136.9794756586065
 30
0.0
 40
2.999999999999943
100
AcDbArc
 50
180.0
 51
0.0
  0
LINE
  5
4FD
330
18
100
AcDbEntity
  8
1
  6
Continuous
100
AcDbLine
 10
778.9919545813952
 20
168.9794756586063
 30
0.0
 11
743.9919545813952
 21
168.9794756586063
 31
0.0
  0
LINE
  5
4FE
330
18
100
AcDbEntity
  8
1
  6
Continuous
100
AcDbLine
 10
778.9919545813952
 20
166.9794756586063
 30
0.0
 11
743.9919545813952
 21
166.9794756586063
 31
0.0
  0
LINE
  5
4FF
330
18
100
AcDbEntity
  8
1
  6
Continuous
100
AcDbLine
 10
778.9919545813952
 20
166.9794756586063
 30
0.0
 11
778.9919545813952
 21
168.9794756586063
 31
0.0
  0
LINE
  5
500
330
18
100
AcDbEntity
  8
1
  6
Continuous
100
AcDbLine
 10
774.1065275085396
 20
166.9794756586063
 30
0.0
 11
774.1065275085396
 21
168.9794756586063
 31
0.0
  0
LINE
  5
501
330
18
100
AcDbEntity
  8
4
  6
CENTER
 48
0.1
100
AcDbLine
 10
770.4919545813952
 20
165.4794756586063
 30
0.0
 11
770.4919545813952
 21
170.4794756586063
 31
0.0
  0
LINE
  5
502
330
18
100
AcDbEntity
  8
1
  6
Continuous
100
AcDbLine
 10
763.4919545813952
 20
166.9794756586063
 30
0.0
 11
763.4919545813952
 21
168.9794756586063
 31
0.0
  0
LINE
  5
503
330
18
100
AcDbEntity
  8
1
  6
Continuous
100
AcDbLine
 10
759.8919545813981
 20
166.0794756586059
 30
0.0
 11
753.0919545814242
 21
166.0794756586059
 31
0.0
  0
ARC
  5
504
330
18
100
AcDbEntity
  8
1
  6
Continuous
100
AcDbCircle
 10
759.8187181314308
 20
167.8279425363013
 30
0.0
 40
1.75
100
AcDbArc
 50
272.3984944512315
 51
312.0995528632048
  0
LINE
  5
505
330
18
100
AcDbEntity
  8
1
  6
Continuous
100
AcDbLine
 10
760.9919545813966
 20
166.9794756586066
 30
0.0
 11
760.9919545813966
 21
166.5294756586057
 31
0.0
  0
LINE
  5
506
330
18
100
AcDbEntity
  8
4
  6
CENTER
 48
0.1
100
AcDbLine
 10
752.4919545813952
 20
165.4794756586063
 30
0.0
 11
752.4919545813952
 21
170.4794756586063
 31
0.0
  0
ARC
  5
507
330
18
100
AcDbEntity
  8
1
  6
Continuous
100
AcDbCircle
 10
753.1651910313915
 20
167.8279425363013
 30
0.0
 40
1.75
100
AcDbArc
 50
227.9004471367963
 51
267.6015055487685
  0
LINE
  5
508
330
18
100
AcDbEntity
  8
1
  6
Continuous
100
AcDbLine
 10
751.9919545814246
 20
166.9794756586066
 30
0.0
 11
751.9919545814246
 21
166.5294756586057
 31
0.0
  0
LINE
  5
509
330
18
100
AcDbEntity
  8
1
  6
Continuous
100
AcDbLine
 10
743.9919545813952
 20
166.9794756586063
 30
0.0
 11
743.9919545813952
 21
168.9794756586063
 31
0.0
  0
LINE
  5
50B
330
18
100
AcDbEntity
  8
1
  6
Continuous
100
AcDbLine
 10
134.2989485577338
 20
146.9794756586066
 30
0.0
 11
134.2989485577338
 21
144.9794756586066
 31
0.0
  0
ARC
  5
E54
330
18
100
AcDbEntity
  8
1
  6
Continuous
100
AcDbCircle
 10
145.8751274738758
 20
67.1794756586063
 30
0.0
 40
0.3000000000000114
100
AcDbArc
 50
356.8103225828317
 51
176.82016988014
  0
LINE
  5
E55
330
18
100
AcDbEntity
  8
1
  6
Continuous
100
AcDbLine
 10
145.8755922323898
 20
61.79616814519107
 30
0.0
 11
146.1746627153606
 21
67.16278317202267
 31
0.0
  0
LINE
  5
E56
330
18
100
AcDbEntity
  8
1
  6
Continuous
100
AcDbLine
 10
145.2755893679137
 20
61.79611666449346
 30
0.0
 11
145.5755893679138
 21
67.19611666449359
 31
0.0
  0
ARC
  5
E57
330
18
100
AcDbEntity
  8
1
  6
Continuous
100
AcDbCircle
 10
145.5751274738756
 20
61.77947565860669
 30
0.0
 40
0.3
100
AcDbArc
 50
176.82016988014
 51
0.0
  0
ARC
  5
E58
330
18
100
AcDbEntity
  8
1
  6
Continuous
100
AcDbCircle
 10
147.2246564738759
 20
67.1794756586063
 30
0.0
 40
0.3000000000000114
100
AcDbArc
 50
356.8103225828317
 51
176.82016988014
  0
LINE
  5
E59
330
18
100
AcDbEntity
  8
1
  6
Continuous
100
AcDbLine
 10
147.2251212323898
 20
61.79616814519107
 30
0.0
 11
147.5241917153606
 21
67.16278317202267
 31
0.0
  0
LINE
  5
E5A
330
18
100
AcDbEntity
  8
1
  6
Continuous
100
AcDbLine
 10
146.6251183679138
 20
61.79611666449346
 30
0.0
 11
146.9251183679137
 21
67.19611666449359
 31
0.0
  0
ARC
  5
E5B
330
18
100
AcDbEntity
  8
1
  6
Continuous
100
AcDbCircle
 10
146.9246564738757
 20
61.77947565860669
 30
0.0
 40
0.3
100
AcDbArc
 50
176.82016988014
 51
0.0
  0
ARC
  5
E5C
330
18
100
AcDbEntity
  8
1
  6
Continuous
100
AcDbCircle
 10
148.5741854738759
 20
67.1794756586063
 30
0.0
 40
0.3000000000000114
100
AcDbArc
 50
356.8103225828317
 51
176.82016988014
  0
LINE
  5
E5D
330
18
100
AcDbEntity
  8
1
  6
Continuous
100
AcDbLine
 10
148.5746502323896
 20
61.79616814519107
 30
0.0
 11
148.8737207153605
 21
67.16278317202267
 31
0.0
  0
LINE
  5
E5E
330
18
100
AcDbEntity
  8
1
  6
Continuous
100
AcDbLine
 10
147.9746473679138
 20
61.79611666449346
 30
0.0
 11
148.2746473679138
 21
67.19611666449359
 31
0.0
  0
ARC
  5
E5F
330
18
100
AcDbEntity
  8
1
  6
Continuous
100
AcDbCircle
 10
148.2741854738757
 20
61.77947565860669
 30
0.0
 40
0.3
100
AcDbArc
 50
176.82016988014
 51
0.0
  0
ARC
  5
E60
330
18
100
AcDbEntity
  8
1
  6
Continuous
100
AcDbCircle
 10
149.9237144738758
 20
67.1794756586063
 30
0.0
 40
0.3000000000000114
100
AcDbArc
 50
356.8103225828317
 51
176.82016988014
  0
LINE
  5
E61
330
18
100
AcDbEntity
  8
1
  6
Continuous
100
AcDbLine
 10
149.9241792323898
 20
61.79616814519107
 30
0.0
 11
150.2232497153606
 21
67.16278317202267
 31
0.0
  0
LINE
  5
E62
330
18
100
AcDbEntity
  8
1
  6
Continuous
100
AcDbLine
 10
149.3241763679137
 20
61.79611666449346
 30
0.0
 11
149.6241763679138
 21
67.19611666449359
 31
0.0
  0
ARC
  5
E63
330
18
100
AcDbEntity
  8
1
  6
Continuous
100
AcDbCircle
 10
149.6237144738756
 20
61.77947565860669
 30
0.0
 40
0.3
100
AcDbArc
 50
176.82016988014
 51
0.0
  0
ARC
  5
E64
330
18
100
AcDbEntity
  8
1
  6
Continuous
100
AcDbCircle
 10
151.2732434738759
 20
67.1794756586063
 30
0.0
 40
0.3000000000000114
100
AcDbArc
 50
356.8103225828317
 51
176.82016988014
  0
LINE
  5
E65
330
18
100
AcDbEntity
  8
1
  6
Continuous
100
AcDbLine
 10
151.2737082323898
 20
61.79616814519107
 30
0.0
 11
151.5727787153606
 21
67.16278317202267
 31
0.0
  0
LINE
  5
E66
330
18
100
AcDbEntity
  8
1
  6
Continuous
100
AcDbLine
 10
150.6737053679138
 20
61.79611666449346
 30
0.0
 11
150.9737053679138
 21
67.19611666449359
 31
0.0
  0
ARC
  5
E67
330
18
100
AcDbEntity
  8
1
  6
Continuous
100
AcDbCircle
 10
150.9732434738757
 20
61.77947565860669
 30
0.0
 40
0.3
100
AcDbArc
 50
176.82016988014
 51
0.0
  0
ARC
  5
E68
330
18
100
AcDbEntity
  8
1
  6
Continuous
100
AcDbCircle
 10
152.6227724738759
 20
67.1794756586063
 30
0.0
 40
0.3000000000000114
100
AcDbArc
 50
356.8103225828317
 51
176.82016988014
  0
LINE
  5
E69
330
18
100
AcDbEntity
  8
1
  6
Continuous
100
AcDbLine
 10
152.6232372323898
 20
61.79616814519107
 30
0.0
 11
152.9223077153605
 21
67.16278317202267
 31
0.0
  0
LINE
  5
E6A
330
18
100
AcDbEntity
  8
1
  6
Continuous
100
AcDbLine
 10
152.0232343679138
 20
61.79611666449346
 30
0.0
 11
152.3232343679138
 21
67.19611666449359
 31
0.0
  0
ARC
  5
E6B
330
18
100
AcDbEntity
  8
1
  6
Continuous
100
AcDbCircle
 10
152.3227724738757
 20
61.77947565860669
 30
0.0
 40
0.3
100
AcDbArc
 50
176.82016988014
 51
0.0
  0
LINE
  5
E70
330
18
100
AcDbEntity
  8
1
  6
Continuous
100
AcDbLine
 10
144.8200879022848
 20
67.23671180588564
 30
0.0
 11
145.4093954943374
 21
64.20462694011797
 31
0.0
  0
LINE
  5
E71
330
18
100
AcDbEntity
  8
1
  6
Continuous
100
AcDbLine
 10
144.6910077574649
 20
64.75598470103645
 30
0.0
 11
145.2806380454668
 21
61.72223951132732
 31
0.0
  0
LINE
  5
E72
330
18
100
AcDbEntity
  8
1
  6
Continuous
100
AcDbLine
 10
145.1485264160373
 20
62.40197565860746
 30
0.0
 11
144.5598236464905
 21
62.40197565860747
 31
0.0
  0
LINE
  5
E73
330
18
100
AcDbEntity
  8
1
  6
Continuous
100
AcDbLine
 10
145.9136715630354
 20
62.47947565860648
 30
0.0
 11
146.4829927313153
 21
62.47947565860648
 31
0.0
  0
LINE
  5
E75
330
18
100
AcDbEntity
  8
1
  6
Continuous
100
AcDbLine
 10
146.1696169022848
 20
67.23671180588564
 30
0.0
 11
146.7589244943374
 21
64.20462694011797
 31
0.0
  0
LINE
  5
E76
330
18
100
AcDbEntity
  8
1
  6
Continuous
100
AcDbLine
 10
146.0405367574649
 20
64.75598470103645
 30
0.0
 11
146.6301670454668
 21
61.72223951132732
 31
0.0
  0
LINE
  5
E77
330
18
100
AcDbEntity
  8
1
  6
Continuous
100
AcDbLine
 10
148.8686749022848
 20
67.23671180588564
 30
0.0
 11
149.4579824943374
 21
64.20462694011797
 31
0.0
  0
LINE
  5
E78
330
18
100
AcDbEntity
  8
1
  6
Continuous
100
AcDbLine
 10
148.7395947574649
 20
64.75598470103645
 30
0.0
 11
149.3292250454668
 21
61.72223951132732
 31
0.0
  0
LINE
  5
E79
330
18
100
AcDbEntity
  8
1
  6
Continuous
100
AcDbLine
 10
147.5191459022848
 20
67.23671180588564
 30
0.0
 11
148.1084534943374
 21
64.20462694011797
 31
0.0
  0
LINE
  5
E7A
330
18
100
AcDbEntity
  8
1
  6
Continuous
100
AcDbLine
 10
147.3900657574649
 20
64.75598470103645
 30
0.0
 11
147.9796960454667
 21
61.72223951132732
 31
0.0
  0
LINE
  5
E7D
330
18
100
AcDbEntity
  8
1
  6
Continuous
100
AcDbLine
 10
152.9172619022848
 20
67.23671180588564
 30
0.0
 11
153.5065694943374
 21
64.20462694011797
 31
0.0
  0
LINE
  5
E7E
330
18
100
AcDbEntity
  8
1
  6
Continuous
100
AcDbLine
 10
152.7881817574649
 20
64.75598470103645
 30
0.0
 11
153.3778120454668
 21
61.72223951132732
 31
0.0
  0
LINE
  5
E7F
330
18
100
AcDbEntity
  8
1
  6
Continuous
100
AcDbLine
 10
151.5677329022848
 20
67.23671180588564
 30
0.0
 11
152.1570404943374
 21
64.20462694011797
 31
0.0
  0
LINE
  5
E80
330
18
100
AcDbEntity
  8
1
  6
Continuous
100
AcDbLine
 10
151.4386527574649
 20
64.75598470103645
 30
0.0
 11
152.0282830454666
 21
61.72223951132732
 31
0.0
  0
LINE
  5
E81
330
18
100
AcDbEntity
  8
1
  6
Continuous
100
AcDbLine
 10
150.0891237574649
 20
64.75598470103645
 30
0.0
 11
150.6787540454667
 21
61.72223951132732
 31
0.0
  0
LINE
  5
E82
330
18
100
AcDbEntity
  8
1
  6
Continuous
100
AcDbLine
 10
150.2182039022848
 20
67.23671180588564
 30
0.0
 11
150.8075114943373
 21
64.20462694011797
 31
0.0
  0
LINE
  5
E83
330
18
100
AcDbEntity
  8
1
  6
Continuous
100
AcDbLine
 10
150.3653782164362
 20
66.47947565860647
 30
0.0
 11
150.9338919786979
 21
66.47947565860643
 31
0.0
  0
LINE
  5
E84
330
18
100
AcDbEntity
  8
1
  6
Continuous
100
AcDbLine
 10
149.5885296453645
 20
66.55447565860626
 30
0.0
 11
149.0012724247697
 21
66.55447565860626
 31
0.0
  0
LINE
  5
E85
330
18
100
AcDbEntity
  8
1
  6
Continuous
100
AcDbLine
 10
149.0158492164361
 20
66.47947565860651
 30
0.0
 11
149.5843629786978
 21
66.47947565860651
 31
0.0
  0
LINE
  5
E86
330
18
100
AcDbEntity
  8
1
  6
Continuous
100
AcDbLine
 10
148.2390006453645
 20
66.55447565860626
 30
0.0
 11
147.6517434247696
 21
66.5544756586063
 31
0.0
  0
LINE
  5
E87
330
18
100
AcDbEntity
  8
1
  6
Continuous
100
AcDbLine
 10
147.6663202164362
 20
66.47947565860647
 30
0.0
 11
148.2348339786978
 21
66.47947565860647
 31
0.0
  0
LINE
  5
E88
330
18
100
AcDbEntity
  8
1
  6
Continuous
100
AcDbLine
 10
146.8894716453645
 20
66.55447565860632
 30
0.0
 11
146.3022144247696
 21
66.5544756586063
 31
0.0
  0
LINE
  5
E89
330
18
100
AcDbEntity
  8
1
  6
Continuous
100
AcDbLine
 10
146.3167912164362
 20
66.47947565860647
 30
0.0
 11
146.8853049786978
 21
66.47947565860643
 31
0.0
  0
LINE
  5
E8A
330
18
100
AcDbEntity
  8
1
  6
Continuous
100
AcDbLine
 10
145.5399426453645
 20
66.5544756586063
 30
0.0
 11
144.9526854247696
 21
66.5544756586063
 31
0.0
  0
LINE
  5
E8C
330
18
100
AcDbEntity
  8
1
  6
Continuous
100
AcDbLine
 10
151.7149072164362
 20
66.47947565860643
 30
0.0
 11
152.2834209786979
 21
66.47947565860647
 31
0.0
  0
LINE
  5
E8D
330
18
100
AcDbEntity
  8
1
  6
Continuous
100
AcDbLine
 10
153.0644362164362
 20
66.47947565860643
 30
0.0
 11
153.6337545524309
 21
66.47947565860647
 31
0.0
  0
LINE
  5
E8E
330
18
100
AcDbEntity
  8
1
  6
Continuous
100
AcDbLine
 10
152.2834209786979
 20
66.47947565860647
 30
0.0
 11
151.8571892094565
 21
66.47947565860647
 31
0.0
  0
LINE
  5
E8F
330
18
100
AcDbEntity
  8
1
  6
Continuous
100
AcDbLine
 10
146.4980554160374
 20
62.40197565860747
 30
0.0
 11
145.9093526464905
 21
62.40197565860747
 31
0.0
  0
LINE
  5
E90
330
18
100
AcDbEntity
  8
1
  6
Continuous
100
AcDbLine
 10
147.2632005630355
 20
62.47947565860648
 30
0.0
 11
147.8325217313154
 21
62.47947565860648
 31
0.0
  0
LINE
  5
E91
330
18
100
AcDbEntity
  8
1
  6
Continuous
100
AcDbLine
 10
148.6127295630354
 20
62.47947565860645
 30
0.0
 11
149.1820507313153
 21
62.47947565860645
 31
0.0
  0
LINE
  5
E92
330
18
100
AcDbEntity
  8
1
  6
Continuous
100
AcDbLine
 10
147.8475844160374
 20
62.40197565860747
 30
0.0
 11
147.2588816464905
 21
62.40197565860747
 31
0.0
  0
LINE
  5
E93
330
18
100
AcDbEntity
  8
1
  6
Continuous
100
AcDbLine
 10
149.1971134160373
 20
62.40197565860747
 30
0.0
 11
148.6084106464904
 21
62.40197565860747
 31
0.0
  0
LINE
  5
E94
330
18
100
AcDbEntity
  8
1
  6
Continuous
100
AcDbLine
 10
149.9622585630354
 20
62.4794756586064
 30
0.0
 11
150.5315797313153
 21
62.47947565860638
 31
0.0
  0
LINE
  5
E95
330
18
100
AcDbEntity
  8
1
  6
Continuous
100
AcDbLine
 10
152.6613165630354
 20
62.47947565860645
 30
0.0
 11
153.2306377313153
 21
62.47947565860648
 31
0.0
  0
LINE
  5
E96
330
18
100
AcDbEntity
  8
1
  6
Continuous
100
AcDbLine
 10
151.8811087313154
 20
62.47947565860645
 30
0.0
 11
151.8571892094565
 21
62.47947565860648
 31
0.0
  0
LINE
  5
E97
330
18
100
AcDbEntity
  8
1
  6
Continuous
100
AcDbLine
 10
151.3117875630355
 20
62.4794756586064
 30
0.0
 11
151.8811087313154
 21
62.4794756586064
 31
0.0
  0
ARC
  5
EAB
330
18
100
AcDbEntity
  8
1
  6
Continuous
100
AcDbCircle
 10
257.7989485577329
 20
135.0485866092145
 30
0.0
 40
2.383998718498468
100
AcDbArc
 50
147.0269468926247
 51
163.3631411380446
  0
ARC
  5
EAC
330
18
100
AcDbEntity
  8
1
  6
Continuous
100
AcDbCircle
 10
257.7989485577329
 20
135.0485866092145
 30
0.0
 40
2.383998718498468
100
AcDbArc
 50
327.0269468926435
 51
1.984367193309775
  0
ARC
  5
EAD
330
18
100
AcDbEntity
  8
1
  6
Continuous
100
AcDbCircle
 10
257.7989485577329
 20
135.0485866092145
 30
0.0
 40
2.983998718498468
100
AcDbArc
 50
312.0857123910869
 51
4.956536007788566
  0
ARC
  5
EAE
330
18
100
AcDbEntity
  8
1
  6
Continuous
100
AcDbCircle
 10
257.7989485577329
 20
135.0485866092145
 30
0.0
 40
2.383998718498468
100
AcDbArc
 50
16.63685886195534
 51
32.97305310735648
  0
ARC
  5
EAF
330
18
100
AcDbEntity
  8
1
  6
Continuous
100
AcDbCircle
 10
257.7989485577329
 20
135.0485866092145
 30
0.0
 40
2.983998718498468
100
AcDbArc
 50
11.17204865531673
 51
47.91428760891305
  0
ARC
  5
EB0
330
18
100
AcDbEntity
  8
1
  6
Continuous
100
AcDbCircle
 10
257.7989485577329
 20
135.0485866092145
 30
0.0
 40
2.383998718498468
100
AcDbArc
 50
178.0156328066901
 51
212.9730531073752
  0
ARC
  5
EB1
330
18
100
AcDbEntity
  8
1
  6
Continuous
100
AcDbCircle
 10
257.7989485577329
 20
135.0485866092145
 30
0.0
 40
2.983998718498468
100
AcDbArc
 50
175.0434639921851
 51
227.9142876089239
  0
LINE
  5
EB3
330
18
100
AcDbEntity
  8
1
  6
Continuous
100
AcDbLine
 10
362.7989485577324
 20
160.7294756586066
 30
0.0
 11
362.7989485577324
 21
154.4794756586066
 31
0.0
  0
LINE
  5
EB4
330
18
100
AcDbEntity
  8
1
  6
Continuous
100
AcDbLine
 10
369.7989485577324
 20
160.7294756586066
 30
0.0
 11
369.7989485577324
 21
154.4794756586066
 31
0.0
  0
LINE
  5
EB5
330
18
100
AcDbEntity
  8
1
  6
Continuous
100
AcDbLine
 10
346.2989485577324
 20
160.7294756586066
 30
0.0
 11
346.2989485577324
 21
154.9794756586067
 31
0.0
  0
LINE
  5
EB6
330
18
100
AcDbEntity
  8
1
  6
Continuous
100
AcDbLine
 10
384.2989485577315
 20
160.7294756586096
 30
0.0
 11
384.2989485577315
 21
127.9794756586063
 31
0.0
  0
CIRCLE
  5
EB9
330
18
100
AcDbEntity
  8
1
  6
Continuous
100
AcDbCircle
 10
355.2989485577324
 20
161.4794756586062
 30
0.0
 40
2.85
  0
LINE
  5
EBA
330
18
100
AcDbEntity
  8
4
  6
CENTER
 48
0.1
100
AcDbLine
 10
355.2989485577324
 20
165.8294756586061
 30
0.0
 11
355.2989485577324
 21
157.1294756586063
 31
0.0
  0
LINE
  5
EBB
330
18
100
AcDbEntity
  8
1
  6
Continuous
100
AcDbLine
 10
363.7989485577325
 20
153.4794756586066
 30
0.0
 11
368.7989485577324
 21
153.4794756586066
 31
0.0
  0
LINE
  5
EBC
330
18
100
AcDbEntity
  8
1
  6
Continuous
100
AcDbLine
 10
369.664973961517
 20
153.9794756586067
 30
0.0
 11
362.9329231539479
 21
153.9794756586067
 31
0.0
  0
LINE
  5
EBD
330
18
100
AcDbEntity
  8
4
  6
CENTER
 48
0.1
100
AcDbLine
 10
366.9489485577325
 20
147.4794756586064
 30
0.0
 11
375.6489485577324
 21
147.4794756586064
 31
0.0
  0
LINE
  5
EBE
330
18
100
AcDbEntity
  8
1
  6
Continuous
100
AcDbLine
 10
348.2989485577316
 20
127.9794756586063
 30
0.0
 11
384.2989485577315
 21
127.9794756586063
 31
0.0
  0
LINE
  5
EBF
330
18
100
AcDbEntity
  8
1
  6
Continuous
100
AcDbLine
 10
348.2989485577316
 20
129.9794756586063
 30
0.0
 11
384.2989485577315
 21
129.9794756586063
 31
0.0
  0
LINE
  5
EC0
330
18
100
AcDbEntity
  8
4
  6
CENTER
 48
0.1
100
AcDbLine
 10
376.2989485577315
 20
131.4794756586063
 30
0.0
 11
376.2989485577315
 21
126.4794756586063
 31
0.0
  0
CIRCLE
  5
EC6
330
18
100
AcDbEntity
  8
1
  6
Continuous
100
AcDbCircle
 10
371.2989485577324
 20
147.4794756586064
 30
0.0
 40
2.85
  0
LINE
  5
EC7
330
18
100
AcDbEntity
  8
4
  6
CENTER
 48
0.1
100
AcDbLine
 10
371.2989485577324
 20
151.8294756586063
 30
0.0
 11
371.2989485577324
 21
143.1294756586065
 31
0.0
  0
ARC
  5
ECC
330
18
100
AcDbEntity
  8
1
  6
Continuous
100
AcDbCircle
 10
368.7989485577324
 20
154.4794756586066
 30
0.0
 40
1.0
100
AcDbArc
 50
270.0
 51
0.000000000000007
  0
LINE
  5
ECE
330
18
100
AcDbEntity
  8
5
  6
PHANTOM
 48
0.2
100
AcDbLine
 10
347.8372861939909
 20
152.9348558122749
 30
0.0
 11
335.1547009718574
 21
155.6084204554106
 31
0.0
  0
ARC
  5
ECF
330
18
100
AcDbEntity
  8
1
  6
Continuous
100
AcDbCircle
 10
336.7989485577325
 20
146.5794756586065
 30
0.0
 40
5.0
100
AcDbArc
 50
90.0
 51
180.0
  0
LINE
  5
ED0
330
18
100
AcDbEntity
  8
1
  6
Continuous
100
AcDbLine
 10
348.2989485577324
 20
145.5794756586065
 30
0.0
 11
331.2989485577329
 21
145.5794756586066
 31
0.0
  0
LINE
  5
ED1
330
18
100
AcDbEntity
  8
1
  6
Continuous
100
AcDbLine
 10
345.2989485577327
 20
143.9794756586066
 30
0.0
 11
331.2989485577329
 21
143.9794756586066
 31
0.0
  0
LINE
  5
ED2
330
18
100
AcDbEntity
  8
5
  6
PHANTOM
 48
0.2
100
AcDbLine
 10
345.6590010290001
 20
147.262182961215
 30
0.0
 11
328.5353457573866
 21
150.8719516711098
 31
0.0
  0
LINE
  5
ED3
330
18
100
AcDbEntity
  8
5
  6
PHANTOM
 48
0.2
100
AcDbLine
 10
341.9042339783443
 20
146.4185453640752
 30
0.0
 11
328.2053097610535
 21
149.3063603319909
 31
0.0
  0
LINE
  5
ED4
330
18
100
AcDbEntity
  8
1
  6
Continuous
100
AcDbLine
 10
348.2989485577316
 20
160.7294756586094
 30
0.0
 11
348.2989485577316
 21
127.9794756586063
 31
0.0
  0
LINE
  5
ED5
330
18
100
AcDbEntity
  8
5
  6
PHANTOM
 48
0.2
100
AcDbLine
 10
345.5326379760454
 20
136.9668426376104
 30
0.0
 11
347.2034452074822
 21
144.8926487919
 31
0.0
  0
LINE
  5
ED6
330
18
100
AcDbEntity
  8
4
  6
CENTER
 48
0.1
100
AcDbLine
 10
356.2989485577311
 20
131.4794756586063
 30
0.0
 11
356.2989485577311
 21
126.4794756586063
 31
0.0
  0
ARC
  5
ED7
330
18
100
AcDbEntity
  8
5
  6
PHANTOM
 48
0.2
100
AcDbCircle
 10
349.9358636173175
 20
136.038616397923
 30
0.0
 40
4.5
100
AcDbArc
 50
168.0960000000006
 51
248.6687766351136
  0
ARC
  5
ED8
330
18
100
AcDbEntity
  8
1
  6
Continuous
100
AcDbCircle
 10
363.7989485577325
 20
154.4794756586066
 30
0.0
 40
1.0
100
AcDbArc
 50
180.0
 51
270.0
  0
LINE
  5
EDA
330
18
100
AcDbEntity
  8
1
  6
Continuous
100
AcDbLine
 10
345.2989485577327
 20
145.5794756586065
 30
0.0
 11
345.2989485577327
 21
143.9794756586066
 31
0.0
  0
ARC
  5
EDB
330
18
100
AcDbEntity
  8
5
  6
PHANTOM
 48
0.2
100
AcDbCircle
 10
345.2464560335835
 20
145.3051937873162
 30
0.0
 40
2.0
100
AcDbArc
 50
348.0960000000006
 51
78.0959999999999
  0
LINE
  5
EDC
330
18
100
AcDbEntity
  8
5
  6
PHANTOM
 48
0.2
100
AcDbLine
 10
342.2342699746776
 20
147.9841367031941
 30
0.0
 11
341.9042339783443
 21
146.4185453640752
 31
0.0
  0
LINE
  5
EDD
330
18
100
AcDbEntity
  8
1
  6
Continuous
100
AcDbLine
 10
348.2989485577318
 20
151.5794756586065
 30
0.0
 11
336.7989485577325
 21
151.5794756586065
 31
0.0
  0
LINE
  5
EDE
330
18
100
AcDbEntity
  8
1
  6
Continuous
100
AcDbLine
 10
348.2989485577324
 20
154.9794756586067
 30
0.0
 11
346.2989485577324
 21
154.9794756586067
 31
0.0
  0
ARC
  5
EDF
330
18
100
AcDbEntity
  8
5
  6
PHANTOM
 48
0.2
100
AcDbCircle
 10
348.0435586916993
 20
153.9133503992241
 30
0.0
 40
1.0
100
AcDbArc
 50
258.0959999999998
 51
284.7966877655581
  0
ARC
  5
EE0
330
18
100
AcDbEntity
  8
1
  6
Continuous
100
AcDbCircle
 10
332.7989485577325
 20
146.5794756586065
 30
0.0
 40
1.0
100
AcDbArc
 50
180.0
 51
270.0
  0
LINE
  5
EE1
330
18
100
AcDbEntity
  8
1
  6
Continuous
100
AcDbLine
 10
331.2989485577329
 20
145.5794756586065
 30
0.0
 11
331.2989485577329
 21
143.9794756586066
 31
0.0
  0
ARC
  5
EE2
330
18
100
AcDbEntity
  8
5
  6
PHANTOM
 48
0.2
100
AcDbCircle
 10
334.1233384833163
 20
150.7159475206633
 30
0.0
 40
5.0
100
AcDbArc
 50
78.0959999999999
 51
168.0960000000006
  0
ARC
  5
EE3
330
18
100
AcDbEntity
  8
5
  6
PHANTOM
 48
0.2
100
AcDbCircle
 10
330.2093601355186
 20
151.5410375114968
 30
0.0
 40
1.0
100
AcDbArc
 50
168.0960000000006
 51
258.0959999999998
  0
LINE
  5
EE4
330
18
100
AcDbEntity
  8
5
  6
PHANTOM
 48
0.2
100
AcDbLine
 10
328.5353457573867
 20
150.8719516711098
 30
0.0
 11
328.2053097610535
 21
149.3063603319909
 31
0.0
  0
LINE
  5
EE5
330
18
100
AcDbEntity
  8
1
  6
Continuous
100
AcDbLine
 10
369.8032601846378
 20
160.9794756586067
 30
0.0
 11
363.7989466610858
 21
160.9794756586067
 31
0.0
  0
LINE
  5
EE6
330
18
100
AcDbEntity
  8
1
  6
Continuous
100
AcDbLine
 10
371.5717229826807
 20
165.4794756586067
 30
0.0
 11
363.7989485577311
 21
165.4794756586067
 31
0.0
  0
ARC
  5
EE7
330
18
100
AcDbEntity
  8
1
  6
Continuous
100
AcDbCircle
 10
377.0489485577324
 20
160.7294756586066
 30
0.0
 40
7.250000000000027
100
AcDbArc
 50
0.000000000000007
 51
180.0
  0
LINE
  5
EE9
330
18
100
AcDbEntity
  8
4
  6
CENTER
 48
0.1
100
AcDbLine
 10
350.9489485577326
 20
161.4794756586062
 30
0.0
 11
359.6489485577324
 21
161.4794756586062
 31
0.0
  0
ARC
  5
EEA
330
18
100
AcDbEntity
  8
1
  6
Continuous
100
AcDbCircle
 10
355.5489485577329
 20
160.7294756586066
 30
0.0
 40
7.250000000000027
100
AcDbArc
 50
0.000000000000007
 51
180.0
  0
LINE
  5
EEC
330
18
100
AcDbEntity
  8
1
  6
Continuous
100
AcDbLine
 10
362.798948557732
 20
164.4794764172651
 30
0.0
 11
362.7989466610865
 21
161.9794764172651
 31
0.0
  0
ARC
  5
EED
330
18
100
AcDbEntity
  8
1
  6
Continuous
100
AcDbCircle
 10
363.7989466610858
 20
161.9794756586067
 30
0.0
 40
1.0
100
AcDbArc
 50
180.0
 51
270.0
  0
ARC
  5
EEE
330
18
100
AcDbEntity
  8
1
  6
Continuous
100
AcDbCircle
 10
363.7989485577311
 20
164.4794756586066
 30
0.0
 40
1.0
100
AcDbArc
 50
90.0
 51
180.0
  0
LINE
  5
EEF
330
18
100
AcDbEntity
  8
1
  6
Continuous
100
AcDbLine
 10
348.2989485577324
 20
160.7294756586066
 30
0.0
 11
346.2989485577324
 21
160.7294756586066
 31
0.0
  0
LINE
  5
EF0
330
18
100
AcDbEntity
  8
1
  6
Continuous
100
AcDbLine
 10
39.04894855773614
 20
153.4794756586066
 30
0.0
 11
39.04894855773614
 21
146.9794756586066
 31
0.0
  0
LINE
  5
EF2
330
18
100
AcDbEntity
  8
1
  6
Continuous
100
AcDbLine
 10
37.12394855773573
 20
167.7294756586064
 30
0.0
 11
37.12394855773573
 21
155.2294756586064
 31
0.0
  0
LINE
  5
EF3
330
18
100
AcDbEntity
  8
1
  6
Continuous
100
AcDbLine
 10
38.72394855773586
 20
167.7294756586064
 30
0.0
 11
38.72394855773586
 21
155.2294756586064
 31
0.0
  0
LINE
  5
EF4
330
18
100
AcDbEntity
  8
1
  6
Continuous
100
AcDbLine
 10
47.04894855773614
 20
164.3294756586063
 30
0.0
 11
47.04894855773614
 21
158.6294756585845
 31
0.0
  0
LINE
  5
EF5
330
18
100
AcDbEntity
  8
1
  6
Continuous
100
AcDbLine
 10
34.54894855771522
 20
164.3294756586063
 30
0.0
 11
34.54894855771522
 21
158.6294756585845
 31
0.0
  0
LINE
  5
EF6
330
18
100
AcDbEntity
  8
1
  6
Continuous
100
AcDbLine
 10
46.54894855773614
 20
167.9794756586032
 30
0.0
 11
46.54894855773614
 21
129.9794756586065
 31
0.0
  0
LINE
  5
EF7
330
18
100
AcDbEntity
  8
1
  6
Continuous
100
AcDbLine
 10
35.04894855773591
 20
167.979475658606
 30
0.0
 11
35.04894855773591
 21
129.9794756586057
 31
0.0
  0
LINE
  5
EF8
330
18
100
AcDbEntity
  8
1
  6
Continuous
100
AcDbLine
 10
38.79894855773637
 20
167.4794756586067
 30
0.0
 11
38.79894855773637
 21
129.9980058893203
 31
0.0
  0
LINE
  5
EF9
330
18
100
AcDbEntity
  8
1
  6
Continuous
100
AcDbLine
 10
37.04894855773591
 20
167.9794756586058
 30
0.0
 11
37.04894855773591
 21
129.9794756586057
 31
0.0
  0
LINE
  5
EFA
330
18
100
AcDbEntity
  8
1
  6
Continuous
100
AcDbLine
 10
22.29894855773591
 20
127.9794756586057
 30
0.0
 11
35.04894855773591
 21
127.9794756586057
 31
0.0
  0
LINE
  5
EFB
330
18
100
AcDbEntity
  8
1
  6
Continuous
100
AcDbLine
 10
22.29894855773591
 20
129.9794756586057
 30
0.0
 11
35.04894855773591
 21
129.9794756586057
 31
0.0
  0
LINE
  5
EFC
330
18
100
AcDbEntity
  8
1
  6
Continuous
100
AcDbLine
 10
59.29894855773614
 20
127.9794756586065
 30
0.0
 11
46.54894855773614
 21
127.9794756586065
 31
0.0
  0
LINE
  5
EFD
330
18
100
AcDbEntity
  8
1
  6
Continuous
100
AcDbLine
 10
59.29894855773614
 20
129.9794756586065
 30
0.0
 11
46.54894855773614
 21
129.9794756586065
 31
0.0
  0
LINE
  5
EFE
330
18
100
AcDbEntity
  8
1
  6
Continuous
100
AcDbLine
 10
59.29894855773614
 20
129.9794756586065
 30
0.0
 11
59.29894855773614
 21
127.9794756586065
 31
0.0
  0
LINE
  5
F06
330
18
100
AcDbEntity
  8
4
  6
CENTER
 48
0.2
100
AcDbLine
 10
44.29894855773635
 20
135.4794756586066
 30
0.0
 11
37.29894855773636
 21
135.4794756586066
 31
0.0
  0
LINE
  5
F07
330
18
100
AcDbEntity
  8
1
  6
Continuous
100
AcDbLine
 10
38.79894855773637
 20
129.9980058893202
 30
0.0
 11
42.79894855773614
 21
129.9980058893202
 31
0.0
  0
LINE
  5
F08
330
18
100
AcDbEntity
  8
4
  6
CENTER
 48
0.2
100
AcDbLine
 10
37.29894855773636
 20
133.9794756586063
 30
0.0
 11
44.29894855773613
 21
133.9794756586063
 31
0.0
  0
LINE
  5
F09
330
18
100
AcDbEntity
  8
4
  6
CENTER
 48
0.2
100
AcDbLine
 10
54.29894855773614
 20
131.4794756586065
 30
0.0
 11
54.29894855773614
 21
126.4794756586065
 31
0.0
  0
ARC
  5
F0A
330
18
100
AcDbEntity
  8
1
  6
Continuous
100
AcDbCircle
 10
40.79894855773659
 20
134.4103647079984
 30
0.0
 40
2.983998718498468
100
AcDbArc
 50
312.085712391076
 51
348.827951344705
  0
ARC
  5
F0B
330
18
100
AcDbEntity
  8
1
  6
Continuous
100
AcDbCircle
 10
40.79894855773659
 20
134.4103647079984
 30
0.0
 40
2.983998718498468
100
AcDbArc
 50
355.0434639921852
 51
47.91428760892392
  0
ARC
  5
F0C
330
18
100
AcDbEntity
  8
1
  6
Continuous
100
AcDbCircle
 10
40.79894855773659
 20
134.4103647079984
 30
0.0
 40
2.383998718498468
100
AcDbArc
 50
327.0269468926247
 51
343.3631411380446
  0
ARC
  5
F0D
330
18
100
AcDbEntity
  8
1
  6
Continuous
100
AcDbCircle
 10
40.79894855773659
 20
134.4103647079984
 30
0.0
 40
2.383998718498468
100
AcDbArc
 50
358.0156328066901
 51
32.97305310737526
  0
ARC
  5
F0E
330
18
100
AcDbEntity
  8
1
  6
Continuous
100
AcDbCircle
 10
46.54894855773614
 20
129.9794756586065
 30
0.0
 40
2.0
100
AcDbArc
 50
180.0
 51
270.0
  0
ARC
  5
F0F
330
18
100
AcDbEntity
  8
1
  6
Continuous
100
AcDbCircle
 10
43.4989485577364
 20
134.027814419052
 30
0.0
 40
0.2999999999999545
100
AcDbArc
 50
270.0
 51
90.00000000000005
  0
LINE
  5
F10
330
18
100
AcDbEntity
  8
1
  6
Continuous
100
AcDbLine
 10
43.4989485577364
 20
133.7278144190524
 30
0.0
 11
42.79894855773636
 21
133.7278144190524
 31
0.0
  0
LINE
  5
F11
330
18
100
AcDbEntity
  8
1
  6
Continuous
100
AcDbLine
 10
43.4989485577364
 20
134.3278144190523
 30
0.0
 11
42.79894855773636
 21
134.3278144190523
 31
0.0
  0
LINE
  5
F12
330
18
100
AcDbEntity
  8
4
  6
CENTER
 48
0.2
100
AcDbLine
 10
27.29894855773591
 20
131.4794756586058
 30
0.0
 11
27.29894855773591
 21
126.4794756586057
 31
0.0
  0
ARC
  5
F13
330
18
100
AcDbEntity
  8
1
  6
Continuous
100
AcDbCircle
 10
40.79894855773659
 20
134.4103647079984
 30
0.0
 40
2.983998718498468
100
AcDbArc
 50
132.0857123910869
 51
184.9565360077885
  0
ARC
  5
F14
330
18
100
AcDbEntity
  8
1
  6
Continuous
100
AcDbCircle
 10
40.79894855773659
 20
134.4103647079984
 30
0.0
 40
2.983998718498468
100
AcDbArc
 50
191.1720486553167
 51
227.914287608913
  0
ARC
  5
F15
330
18
100
AcDbEntity
  8
1
  6
Continuous
100
AcDbCircle
 10
40.79894855773659
 20
134.4103647079984
 30
0.0
 40
2.383998718498468
100
AcDbArc
 50
147.0269468926435
 51
181.9843671933097
  0
ARC
  5
F16
330
18
100
AcDbEntity
  8
1
  6
Continuous
100
AcDbCircle
 10
40.79894855773659
 20
134.4103647079984
 30
0.0
 40
2.383998718498468
100
AcDbArc
 50
196.6368588619553
 51
212.9730531073565
  0
ARC
  5
F17
330
18
100
AcDbEntity
  8
1
  6
Continuous
100
AcDbCircle
 10
35.04894855773591
 20
129.9794756586057
 30
0.0
 40
2.0
100
AcDbArc
 50
270.0
 51
0.000000000000007
  0
ARC
  5
F18
330
18
100
AcDbEntity
  8
1
  6
Continuous
100
AcDbCircle
 10
38.0989485577361
 20
134.027814419052
 30
0.0
 40
0.2999999999999545
100
AcDbArc
 50
90.00000000000005
 51
270.0
  0
LINE
  5
F19
330
18
100
AcDbEntity
  8
1
  6
Continuous
100
AcDbLine
 10
38.79894855773637
 20
133.7278144190524
 30
0.0
 11
38.0989485577361
 21
133.7278144190524
 31
0.0
  0
LINE
  5
F1A
330
18
100
AcDbEntity
  8
1
  6
Continuous
100
AcDbLine
 10
38.79894855773637
 20
134.3278144190523
 30
0.0
 11
38.0989485577361
 21
134.3278144190523
 31
0.0
  0
LINE
  5
F1B
330
18
100
AcDbEntity
  8
1
  6
Continuous
100
AcDbLine
 10
46.54894855773614
 20
146.9794756586066
 30
0.0
 11
39.04894855773614
 21
146.9794756586066
 31
0.0
  0
LINE
  5
F1D
330
18
100
AcDbEntity
  8
4
  6
CENTER
 48
0.2
100
AcDbLine
 10
48.54894855773591
 20
147.4794756586064
 30
0.0
 11
33.04894855771499
 21
147.4794756586064
 31
0.0
  0
LINE
  5
F1E
330
18
100
AcDbEntity
  8
1
  6
Continuous
100
AcDbLine
 10
47.79894855773636
 20
145.5794756586065
 30
0.0
 11
47.04894855773637
 21
145.5794756586066
 31
0.0
  0
LINE
  5
F1F
330
18
100
AcDbEntity
  8
1
  6
Continuous
100
AcDbLine
 10
47.79894855773636
 20
143.9794756586066
 30
0.0
 11
46.54894855773614
 21
143.9794756586066
 31
0.0
  0
LINE
  5
F20
330
18
100
AcDbEntity
  8
1
  6
Continuous
100
AcDbLine
 10
47.04894855773637
 20
150.3294756586059
 30
0.0
 11
47.04894855773637
 21
144.6294756586069
 31
0.0
  0
LINE
  5
F21
330
18
100
AcDbEntity
  8
1
  6
Continuous
100
AcDbLine
 10
44.54894855773637
 20
167.9794756586032
 30
0.0
 11
44.54894855773637
 21
153.4794756586066
 31
0.0
  0
LINE
  5
F22
330
18
100
AcDbEntity
  8
1
  6
Continuous
100
AcDbLine
 10
44.47394855773654
 20
153.7294756586064
 30
0.0
 11
44.47394855773654
 21
153.4794756586066
 31
0.0
  0
LINE
  5
F23
330
18
100
AcDbEntity
  8
1
  6
Continuous
100
AcDbLine
 10
42.8739485577364
 20
153.7294756586064
 30
0.0
 11
42.8739485577364
 21
153.4794756586066
 31
0.0
  0
LINE
  5
F24
330
18
100
AcDbEntity
  8
1
  6
Continuous
100
AcDbLine
 10
42.79894855773636
 20
167.4794756586067
 30
0.0
 11
42.79894855773636
 21
153.4794756586066
 31
0.0
  0
LINE
  5
F25
330
18
100
AcDbEntity
  8
1
  6
Continuous
100
AcDbLine
 10
47.79894855773636
 20
145.5794756586065
 30
0.0
 11
47.79894855773636
 21
143.9794756586066
 31
0.0
  0
LINE
  5
F28
330
18
100
AcDbEntity
  8
1
  6
Continuous
100
AcDbLine
 10
44.47394855773654
 20
141.2294756586065
 30
0.0
 11
42.8739485577364
 21
141.2294756586065
 31
0.0
  0
LINE
  5
F29
330
18
100
AcDbEntity
  8
1
  6
Continuous
100
AcDbLine
 10
47.04894855773614
 20
158.6294756585842
 30
0.0
 11
46.54894855773614
 21
158.6294756585842
 31
0.0
  0
LINE
  5
F2A
330
18
100
AcDbEntity
  8
1
  6
Continuous
100
AcDbLine
 10
47.04894855773637
 20
150.3294756586059
 30
0.0
 11
46.54894855773636
 21
150.3294756586059
 31
0.0
  0
LINE
  5
F2D
330
18
100
AcDbEntity
  8
1
  6
Continuous
100
AcDbLine
 10
44.47394855773654
 20
153.7294756586064
 30
0.0
 11
42.8739485577364
 21
153.7294756586064
 31
0.0
  0
LINE
  5
F2E
330
18
100
AcDbEntity
  8
1
  6
Continuous
100
AcDbLine
 10
44.54894855773614
 20
153.4794756586064
 30
0.0
 11
44.47394855773654
 21
153.4794756586064
 31
0.0
  0
LINE
  5
F2F
330
18
100
AcDbEntity
  8
1
  6
Continuous
100
AcDbLine
 10
42.8739485577364
 20
153.4794756586064
 30
0.0
 11
42.79894855773636
 21
153.4794756586064
 31
0.0
  0
LINE
  5
F30
330
18
100
AcDbEntity
  8
1
  6
Continuous
100
AcDbLine
 10
34.54894855771545
 20
150.3294756586059
 30
0.0
 11
34.54894855771556
 21
144.629475658607
 31
0.0
  0
LINE
  5
F31
330
18
100
AcDbEntity
  8
1
  6
Continuous
100
AcDbLine
 10
38.72394855773586
 20
153.7294756586064
 30
0.0
 11
38.72394855773586
 21
141.2294756586065
 31
0.0
  0
LINE
  5
F32
330
18
100
AcDbEntity
  8
1
  6
Continuous
100
AcDbLine
 10
37.12394855773573
 20
153.7294756586064
 30
0.0
 11
37.12394855773573
 21
141.2294756586064
 31
0.0
  0
LINE
  5
F35
330
18
100
AcDbEntity
  8
1
  6
Continuous
100
AcDbLine
 10
38.72394855773586
 20
141.2294756586065
 30
0.0
 11
37.12394855773573
 21
141.2294756586065
 31
0.0
  0
LINE
  5
F36
330
18
100
AcDbEntity
  8
1
  6
Continuous
100
AcDbLine
 10
33.79894855773637
 20
145.5794756586065
 30
0.0
 11
33.79894855773637
 21
143.9794756586066
 31
0.0
  0
LINE
  5
F37
330
18
100
AcDbEntity
  8
1
  6
Continuous
100
AcDbLine
 10
34.54894855771522
 20
158.6294756585842
 30
0.0
 11
35.04894855771522
 21
158.6294756585842
 31
0.0
  0
LINE
  5
F38
330
18
100
AcDbEntity
  8
1
  6
Continuous
100
AcDbLine
 10
38.79894855773637
 20
158.4794756586064
 30
0.0
 11
38.72394855773586
 21
158.4794756586064
 31
0.0
  0
LINE
  5
F39
330
18
100
AcDbEntity
  8
1
  6
Continuous
100
AcDbLine
 10
37.12394855773573
 20
158.4794756586064
 30
0.0
 11
37.04894855773591
 21
158.4794756586064
 31
0.0
  0
LINE
  5
F3A
330
18
100
AcDbEntity
  8
1
  6
Continuous
100
AcDbLine
 10
34.54894855771545
 20
150.3294756586059
 30
0.0
 11
35.04894855771556
 21
150.3294756586059
 31
0.0
  0
LINE
  5
F3B
330
18
100
AcDbEntity
  8
1
  6
Continuous
100
AcDbLine
 10
38.79894855773637
 20
150.4794756586064
 30
0.0
 11
38.72394855773586
 21
150.4794756586064
 31
0.0
  0
LINE
  5
F3C
330
18
100
AcDbEntity
  8
1
  6
Continuous
100
AcDbLine
 10
37.12394855773573
 20
150.4794756586064
 30
0.0
 11
37.04894855773636
 21
150.4794756586064
 31
0.0
  0
LINE
  5
F3D
330
18
100
AcDbEntity
  8
1
  6
Continuous
100
AcDbLine
 10
38.72394855773586
 20
155.2294756586064
 30
0.0
 11
37.12394855773573
 21
155.2294756586064
 31
0.0
  0
LINE
  5
F3E
330
18
100
AcDbEntity
  8
1
  6
Continuous
100
AcDbLine
 10
38.72394855773586
 20
153.7294756586064
 30
0.0
 11
37.12394855773573
 21
153.7294756586064
 31
0.0
  0
LINE
  5
F3F
330
18
100
AcDbEntity
  8
1
  6
Continuous
100
AcDbLine
 10
22.29894855773591
 20
129.9794756586057
 30
0.0
 11
22.29894855773591
 21
127.9794756586057
 31
0.0
  0
LINE
  5
F40
330
18
100
AcDbEntity
  8
1
  6
Continuous
100
AcDbLine
 10
39.04894855773614
 20
153.4794756586066
 30
0.0
 11
46.54894855773614
 21
153.4794756586066
 31
0.0
  0
LINE
  5
F41
330
18
100
AcDbEntity
  8
1
  6
Continuous
100
AcDbLine
 10
42.79894855773636
 20
167.4794756586067
 30
0.0
 11
38.79894855773637
 21
167.4794756586067
 31
0.0
  0
LINE
  5
F42
330
18
100
AcDbEntity
  8
4
  6
CENTER
 48
0.2
100
AcDbLine
 10
48.54894855773614
 20
161.4794756586066
 30
0.0
 11
33.04894855771545
 21
161.4794756586066
 31
0.0
  0
LINE
  5
F43
330
18
100
AcDbEntity
  8
1
  6
Continuous
100
AcDbLine
 10
46.54894855773591
 20
167.9794756586034
 30
0.0
 11
44.54894855773637
 21
167.9794756586032
 31
0.0
  0
LINE
  5
F46
330
18
100
AcDbEntity
  8
1
  6
Continuous
100
AcDbLine
 10
47.04894855773614
 20
164.3294756586063
 30
0.0
 11
46.54894855773614
 21
164.3294756586063
 31
0.0
  0
LINE
  5
F47
330
18
100
AcDbEntity
  8
1
  6
Continuous
100
AcDbLine
 10
44.54894855773591
 20
164.4794756586064
 30
0.0
 11
44.47394855773654
 21
164.4794756586064
 31
0.0
  0
LINE
  5
F48
330
18
100
AcDbEntity
  8
1
  6
Continuous
100
AcDbLine
 10
42.8739485577364
 20
164.4794756586064
 30
0.0
 11
42.79894855773636
 21
164.4794756586064
 31
0.0
  0
LINE
  5
F4C
330
18
100
AcDbEntity
  8
1
  6
Continuous
100
AcDbLine
 10
44.47394855773654
 20
167.7294756586064
 30
0.0
 11
42.8739485577364
 21
167.7294756586064
 31
0.0
  0
LINE
  5
F4D
330
18
100
AcDbEntity
  8
1
  6
Continuous
100
AcDbLine
 10
35.04894855769487
 20
167.9794756586059
 30
0.0
 11
37.04894855765406
 21
167.9794756586056
 31
0.0
  0
LINE
  5
F4E
330
18
100
AcDbEntity
  8
1
  6
Continuous
100
AcDbLine
 10
34.54894855771522
 20
164.3294756586063
 30
0.0
 11
35.04894855771522
 21
164.3294756586063
 31
0.0
  0
LINE
  5
F4F
330
18
100
AcDbEntity
  8
1
  6
Continuous
100
AcDbLine
 10
38.79894855773637
 20
164.4794756586064
 30
0.0
 11
38.72394855773586
 21
164.4794756586064
 31
0.0
  0
LINE
  5
F50
330
18
100
AcDbEntity
  8
1
  6
Continuous
100
AcDbLine
 10
37.12394855773573
 20
164.4794756586064
 30
0.0
 11
37.04894855773591
 21
164.4794756586064
 31
0.0
  0
LINE
  5
F51
330
18
100
AcDbEntity
  8
1
  6
Continuous
100
AcDbLine
 10
38.72394855773586
 20
167.7294756586064
 30
0.0
 11
37.12394855773573
 21
167.7294756586064
 31
0.0
  0
LINE
  5
F52
330
18
100
AcDbEntity
  8
1
  6
Continuous
100
AcDbLine
 10
167.2989485577335
 20
213.9794756586064
 30
0.0
 11
167.2989485577335
 21
232.2294756586064
 31
0.0
  0
LINE
  5
F53
330
18
100
AcDbEntity
  8
1
  6
Continuous
100
AcDbLine
 10
131.2989485577335
 20
213.9794756586064
 30
0.0
 11
131.2989485577335
 21
226.7294756586069
 31
0.0
  0
LINE
  5
F56
330
18
100
AcDbEntity
  8
1
  6
Continuous
100
AcDbLine
 10
150.5489485577338
 20
226.8044756586062
 30
0.0
 11
138.0489485577338
 21
226.8044756586062
 31
0.0
  0
LINE
  5
F57
330
18
100
AcDbEntity
  8
1
  6
Continuous
100
AcDbLine
 10
150.5489485577338
 20
234.1569756586058
 30
0.0
 11
138.0489485577338
 21
234.1569756586058
 31
0.0
  0
LINE
  5
F58
330
18
100
AcDbEntity
  8
4
  6
CENTER
 48
0.3
100
AcDbLine
 10
127.1738403781882
 20
230.4794756586064
 30
0.0
 11
186.3888252744839
 21
230.4794756586064
 31
0.0
  0
LINE
  5
F59
330
18
100
AcDbEntity
  8
1
  6
Continuous
100
AcDbLine
 10
131.2989485577336
 20
226.7294756586064
 30
0.0
 11
167.2989485577334
 21
226.7294756586064
 31
0.0
  0
LINE
  5
F5A
330
18
100
AcDbEntity
  8
1
  6
Continuous
100
AcDbLine
 10
167.2989485577341
 20
234.2294756586064
 30
0.0
 11
131.2989485577342
 21
234.2294756586064
 31
0.0
  0
LINE
  5
F5B
330
18
100
AcDbEntity
  8
1
  6
Continuous
100
AcDbLine
 10
165.2989485577341
 20
248.9794756586064
 30
0.0
 11
133.2989485577342
 21
248.9794756586064
 31
0.0
  0
ARC
  5
F5C
330
18
100
AcDbEntity
  8
1
  6
Continuous
100
AcDbCircle
 10
136.2989485577337
 20
243.9794756586064
 30
0.0
 40
2.199999999999989
100
AcDbArc
 50
90.00000000000005
 51
270.0
  0
ARC
  5
F5D
330
18
100
AcDbEntity
  8
1
  6
Continuous
100
AcDbCircle
 10
142.2989485577337
 20
243.9794756586064
 30
0.0
 40
2.199999999999989
100
AcDbArc
 50
270.0
 51
90.00000000000005
  0
LINE
  5
F5E
330
18
100
AcDbEntity
  8
4
  6
CENTER
 48
0.1
100
AcDbLine
 10
139.2989485577337
 20
247.6794756586063
 30
0.0
 11
139.2989485577337
 21
240.2794756586066
 31
0.0
  0
LINE
  5
F5F
330
18
100
AcDbEntity
  8
1
  6
Continuous
100
AcDbLine
 10
131.2989485577342
 20
246.9794756586064
 30
0.0
 11
131.2989485577342
 21
234.2294756586064
 31
0.0
  0
LINE
  5
F60
330
18
100
AcDbEntity
  8
4
  6
CENTER
 48
0.25
100
AcDbLine
 10
132.5989485577337
 20
243.9794756586064
 30
0.0
 11
146.0489485577337
 21
243.9794756586064
 31
0.0
  0
ARC
  5
F61
330
18
100
AcDbEntity
  8
1
  6
Continuous
100
AcDbCircle
 10
133.2989485577342
 20
246.9794756586064
 30
0.0
 40
2.0
100
AcDbArc
 50
90.00000000000005
 51
180.0
  0
LINE
  5
F62
330
18
100
AcDbEntity
  8
1
  6
Continuous
100
AcDbLine
 10
136.2989485577337
 20
246.1794756586062
 30
0.0
 11
142.2989485577337
 21
246.1794756586062
 31
0.0
  0
LINE
  5
F65
330
18
100
AcDbEntity
  8
1
  6
Continuous
100
AcDbLine
 10
132.2989485577336
 20
226.7294756586064
 30
0.0
 11
132.2989485577336
 21
232.2294756585887
 31
0.0
  0
LINE
  5
F66
330
18
100
AcDbEntity
  8
1
  6
Continuous
100
AcDbLine
 10
132.7697633200513
 20
232.2294756585893
 30
0.0
 11
132.7697633200513
 21
232.4794756586064
 31
0.0
  0
LINE
  5
F67
330
18
100
AcDbEntity
  8
1
  6
Continuous
100
AcDbLine
 10
134.2989485577337
 20
232.2294756585906
 30
0.0
 11
132.2989485577449
 21
232.2294756585889
 31
0.0
  0
LINE
  5
F70
330
18
100
AcDbEntity
  8
4
  6
CENTER
 48
0.3
100
AcDbLine
 10
144.2989485577337
 20
222.7294756586065
 30
0.0
 11
144.2989485577337
 21
238.2294756586059
 31
0.0
  0
LINE
  5
F75
330
18
100
AcDbEntity
  8
1
  6
Continuous
100
AcDbLine
 10
136.2989485577337
 20
241.7794756586066
 30
0.0
 11
142.2989485577337
 21
241.7794756586066
 31
0.0
  0
LINE
  5
F7A
330
18
100
AcDbEntity
  8
1
  6
Continuous
100
AcDbLine
 10
138.0489485577338
 20
232.5569756586054
 30
0.0
 11
138.0489485577338
 21
234.1569756586058
 31
0.0
  0
LINE
  5
F7F
330
18
100
AcDbEntity
  8
1
  6
Continuous
100
AcDbLine
 10
132.7697633200513
 20
232.4794756586064
 30
0.0
 11
183.7989485577338
 21
232.4794756586064
 31
0.0
  0
LINE
  5
F80
330
18
100
AcDbEntity
  8
1
  6
Continuous
100
AcDbLine
 10
150.5489485577337
 20
232.5569756586054
 30
0.0
 11
138.0489485577338
 21
232.5569756586054
 31
0.0
  0
LINE
  5
F85
330
18
100
AcDbEntity
  8
1
  6
Continuous
100
AcDbLine
 10
147.2989485577334
 20
234.2294756586059
 30
0.0
 11
141.2989485577334
 21
234.2294756586059
 31
0.0
  0
LINE
  5
F88
330
18
100
AcDbEntity
  8
1
  6
Continuous
100
AcDbLine
 10
147.2989485577335
 20
234.1569756586058
 30
0.0
 11
147.2989485577335
 21
234.2294756586059
 31
0.0
  0
LINE
  5
F89
330
18
100
AcDbEntity
  8
1
  6
Continuous
100
AcDbLine
 10
141.2989485577335
 20
234.1569756586058
 30
0.0
 11
141.2989485577335
 21
234.2294756586059
 31
0.0
  0
LINE
  5
F8A
330
18
100
AcDbEntity
  8
1
  6
Continuous
100
AcDbLine
 10
141.2989485577335
 20
232.4794756586064
 30
0.0
 11
141.2989485577335
 21
232.5569756586054
 31
0.0
  0
LINE
  5
F8B
330
18
100
AcDbEntity
  8
1
  6
Continuous
100
AcDbLine
 10
147.2989485577335
 20
232.4794756586064
 30
0.0
 11
147.2989485577335
 21
232.5569756586054
 31
0.0
  0
LINE
  5
F8F
330
18
100
AcDbEntity
  8
1
  6
Continuous
100
AcDbLine
 10
139.7253275768581
 20
228.9794756586065
 30
0.0
 11
139.7253275768581
 21
231.9794756586064
 31
0.0
  0
LINE
  5
F90
330
18
100
AcDbEntity
  8
1
  6
Continuous
100
AcDbLine
 10
134.2989485577337
 20
226.7294756586064
 30
0.0
 11
134.2989485577337
 21
232.2294756585906
 31
0.0
  0
LINE
  5
F92
330
18
100
AcDbEntity
  8
1
  6
Continuous
100
AcDbLine
 10
138.0489485577338
 20
226.8044756586062
 30
0.0
 11
138.0489485577338
 21
228.4044756586066
 31
0.0
  0
LINE
  5
F9E
330
18
100
AcDbEntity
  8
1
  6
Continuous
100
AcDbLine
 10
147.2989485577334
 20
226.7294756586059
 30
0.0
 11
141.2989485577334
 21
226.7294756586059
 31
0.0
  0
LINE
  5
FA0
330
18
100
AcDbEntity
  8
1
  6
Continuous
100
AcDbLine
 10
147.2989485577335
 20
226.7294756586059
 30
0.0
 11
147.2989485577335
 21
226.8044756586058
 31
0.0
  0
LINE
  5
FA1
330
18
100
AcDbEntity
  8
1
  6
Continuous
100
AcDbLine
 10
141.2989485577335
 20
226.7294756586059
 30
0.0
 11
141.2989485577335
 21
226.8044756586058
 31
0.0
  0
LINE
  5
FA2
330
18
100
AcDbEntity
  8
1
  6
Continuous
100
AcDbLine
 10
141.2989485577335
 20
228.4044756586066
 30
0.0
 11
141.2989485577335
 21
228.4794756586064
 31
0.0
  0
LINE
  5
FA3
330
18
100
AcDbEntity
  8
1
  6
Continuous
100
AcDbLine
 10
134.2989485577337
 20
228.4794756586064
 30
0.0
 11
167.2989485577335
 21
228.4794756586064
 31
0.0
  0
LINE
  5
FA4
330
18
100
AcDbEntity
  8
1
  6
Continuous
100
AcDbLine
 10
150.5489485577337
 20
228.4044756586066
 30
0.0
 11
138.0489485577338
 21
228.4044756586066
 31
0.0
  0
ARC
  5
FA5
330
18
100
AcDbEntity
  8
1
  6
Continuous
100
AcDbCircle
 10
177.2989485577339
 20
230.4794756586064
 30
0.0
 40
7.0
100
AcDbArc
 50
196.6015495990202
 51
163.3984504009801
  0
LINE
  5
FA6
330
18
100
AcDbEntity
  8
1
  6
Continuous
100
AcDbLine
 10
167.2989485577341
 20
246.9794756586064
 30
0.0
 11
167.2989485577341
 21
234.2294756586064
 31
0.0
  0
ARC
  5
FA7
330
18
100
AcDbEntity
  8
1
  6
Continuous
100
AcDbCircle
 10
162.2989485577342
 20
243.9794756586064
 30
0.0
 40
2.199999999999989
100
AcDbArc
 50
270.0
 51
90.00000000000005
  0
ARC
  5
FA8
330
18
100
AcDbEntity
  8
1
  6
Continuous
100
AcDbCircle
 10
156.2989485577342
 20
243.9794756586064
 30
0.0
 40
2.199999999999989
100
AcDbArc
 50
90.00000000000005
 51
270.0
  0
LINE
  5
FA9
330
18
100
AcDbEntity
  8
4
  6
CENTER
 48
0.1
100
AcDbLine
 10
159.2989485577342
 20
247.6794756586063
 30
0.0
 11
159.2989485577342
 21
240.2794756586066
 31
0.0
  0
LINE
  5
FAA
330
18
100
AcDbEntity
  8
4
  6
CENTER
 48
0.25
100
AcDbLine
 10
165.9989485577342
 20
243.9794756586064
 30
0.0
 11
152.5489485577342
 21
243.9794756586064
 31
0.0
  0
LINE
  5
FAB
330
18
100
AcDbEntity
  8
1
  6
Continuous
100
AcDbLine
 10
162.2989485577342
 20
246.1794756586062
 30
0.0
 11
156.2989485577342
 21
246.1794756586062
 31
0.0
  0
ARC
  5
FAC
330
18
100
AcDbEntity
  8
1
  6
Continuous
100
AcDbCircle
 10
165.2989485577341
 20
246.9794756586064
 30
0.0
 40
2.0
100
AcDbArc
 50
0.0
 51
90.00000000000005
  0
LINE
  5
FAD
330
18
100
AcDbEntity
  8
1
  6
Continuous
100
AcDbLine
 10
166.5489485577338
 20
226.8044756586062
 30
0.0
 11
154.0489485577338
 21
226.8044756586062
 31
0.0
  0
LINE
  5
FAE
330
18
100
AcDbEntity
  8
1
  6
Continuous
100
AcDbLine
 10
166.5489485577338
 20
234.1569756586062
 30
0.0
 11
154.0489485577338
 21
234.1569756586062
 31
0.0
  0
LINE
  5
FAF
330
18
100
AcDbEntity
  8
1
  6
Continuous
100
AcDbLine
 10
166.5489485577338
 20
228.4044756586066
 30
0.0
 11
154.0489485577338
 21
228.4044756586067
 31
0.0
  0
LINE
  5
FB0
330
18
100
AcDbEntity
  8
1
  6
Continuous
100
AcDbLine
 10
166.5489485577338
 20
232.5569756586058
 30
0.0
 11
154.0489485577338
 21
232.5569756586058
 31
0.0
  0
LINE
  5
FB1
330
18
100
AcDbEntity
  8
1
  6
Continuous
100
AcDbLine
 10
183.7989485577338
 20
228.4794756586064
 30
0.0
 11
169.2989485577335
 21
228.4794756586064
 31
0.0
  0
LINE
  5
FBE
330
18
100
AcDbEntity
  8
4
  6
CENTER
 48
0.3
100
AcDbLine
 10
160.2989485577335
 20
222.7294756586065
 30
0.0
 11
160.2989485577335
 21
238.2294756586059
 31
0.0
  0
LINE
  5
FBF
330
18
100
AcDbEntity
  8
1
  6
Continuous
100
AcDbLine
 10
154.2989485577338
 20
228.4794756586064
 30
0.0
 11
154.2989485577338
 21
232.4794756586064
 31
0.0
  0
LINE
  5
FD6
330
18
100
AcDbEntity
  8
1
  6
Continuous
100
AcDbLine
 10
150.5489485577338
 20
232.5569756586054
 30
0.0
 11
150.5489485577338
 21
234.1569756586058
 31
0.0
  0
LINE
  5
FD7
330
18
100
AcDbEntity
  8
1
  6
Continuous
100
AcDbLine
 10
154.0489485577338
 20
232.5569756586058
 30
0.0
 11
154.0489485577338
 21
234.1569756586062
 31
0.0
  0
LINE
  5
FD8
330
18
100
AcDbEntity
  8
1
  6
Continuous
100
AcDbLine
 10
163.2989485577331
 20
234.2294756586064
 30
0.0
 11
157.2989485577331
 21
234.2294756586064
 31
0.0
  0
LINE
  5
FD9
330
18
100
AcDbEntity
  8
1
  6
Continuous
100
AcDbLine
 10
163.2989485577333
 20
234.1569756586062
 30
0.0
 11
163.2989485577333
 21
234.2294756586064
 31
0.0
  0
LINE
  5
FDA
330
18
100
AcDbEntity
  8
1
  6
Continuous
100
AcDbLine
 10
157.2989485577332
 20
234.1569756586062
 30
0.0
 11
157.2989485577332
 21
234.2294756586064
 31
0.0
  0
LINE
  5
FDB
330
18
100
AcDbEntity
  8
1
  6
Continuous
100
AcDbLine
 10
157.2989485577332
 20
232.4794756586064
 30
0.0
 11
157.2989485577332
 21
232.5569756586058
 31
0.0
  0
LINE
  5
FDC
330
18
100
AcDbEntity
  8
1
  6
Continuous
100
AcDbLine
 10
163.2989485577333
 20
232.4794756586064
 30
0.0
 11
163.2989485577333
 21
232.5569756586058
 31
0.0
  0
LINE
  5
FDD
330
18
100
AcDbEntity
  8
1
  6
Continuous
100
AcDbLine
 10
162.2989485577342
 20
241.7794756586066
 30
0.0
 11
156.2989485577342
 21
241.7794756586066
 31
0.0
  0
LINE
  5
FF7
330
18
100
AcDbEntity
  8
1
  6
Continuous
100
AcDbLine
 10
152.7989485577338
 20
228.4794756586064
 30
0.0
 11
152.7989485577338
 21
232.4794756586064
 31
0.0
  0
LINE
  5
FF8
330
18
100
AcDbEntity
  8
1
  6
Continuous
100
AcDbLine
 10
150.5489485577338
 20
226.8044756586062
 30
0.0
 11
150.5489485577338
 21
228.4044756586066
 31
0.0
  0
LINE
  5
FF9
330
18
100
AcDbEntity
  8
1
  6
Continuous
100
AcDbLine
 10
154.0489485577338
 20
226.8044756586062
 30
0.0
 11
154.0489485577338
 21
228.4044756586067
 31
0.0
  0
LINE
  5
FFA
330
18
100
AcDbEntity
  8
1
  6
Continuous
100
AcDbLine
 10
163.2989485577331
 20
226.7294756586064
 30
0.0
 11
157.2989485577331
 21
226.7294756586064
 31
0.0
  0
LINE
  5
FFB
330
18
100
AcDbEntity
  8
1
  6
Continuous
100
AcDbLine
 10
163.2989485577333
 20
226.7294756586064
 30
0.0
 11
163.2989485577333
 21
226.8044756586062
 31
0.0
  0
LINE
  5
FFC
330
18
100
AcDbEntity
  8
1
  6
Continuous
100
AcDbLine
 10
157.2989485577332
 20
226.7294756586064
 30
0.0
 11
157.2989485577332
 21
226.8044756586062
 31
0.0
  0
LINE
  5
FFD
330
18
100
AcDbEntity
  8
1
  6
Continuous
100
AcDbLine
 10
157.2989485577332
 20
228.4044756586066
 30
0.0
 11
157.2989485577332
 21
228.4794756586064
 31
0.0
  0
LINE
  5
FFE
330
18
100
AcDbEntity
  8
1
  6
Continuous
100
AcDbLine
 10
163.2989485577333
 20
228.4044756586066
 30
0.0
 11
163.2989485577333
 21
228.4794756586064
 31
0.0
  0
LINE
  5
FFF
330
18
100
AcDbEntity
  8
1
  6
Continuous
100
AcDbLine
 10
166.2989485577338
 20
228.4794756586064
 30
0.0
 11
166.2989485577338
 21
232.4794756586064
 31
0.0
  0
LINE
  5
1000
330
18
100
AcDbEntity
  8
1
  6
Continuous
100
AcDbLine
 10
166.5489485577338
 20
232.5569756586058
 30
0.0
 11
166.5489485577338
 21
234.1569756586062
 31
0.0
  0
ARC
  5
1001
330
18
100
AcDbEntity
  8
1
  6
Continuous
100
AcDbCircle
 10
167.2989485577335
 20
226.7294756586069
 30
0.0
 40
2.0
100
AcDbArc
 50
270.0
 51
0.0
  0
LINE
  5
1002
330
18
100
AcDbEntity
  8
1
  6
Continuous
100
AcDbLine
 10
169.2989485577335
 20
226.7294756586064
 30
0.0
 11
169.2989485577335
 21
232.2294756586065
 31
0.0
  0
LINE
  5
1003
330
18
100
AcDbEntity
  8
1
  6
Continuous
100
AcDbLine
 10
166.5489485577338
 20
226.8044756586062
 30
0.0
 11
166.5489485577338
 21
228.4044756586066
 31
0.0
  0
LINE
  5
1004
330
18
100
AcDbEntity
  8
1
  6
Continuous
100
AcDbLine
 10
165.2989485577335
 20
211.9794756586064
 30
0.0
 11
133.2989485577335
 21
211.9794756586064
 31
0.0
  0
LINE
  5
1005
330
18
100
AcDbEntity
  8
4
  6
CENTER
 48
0.25
100
AcDbLine
 10
132.5989485577337
 20
216.9794756586064
 30
0.0
 11
146.0489485577337
 21
216.9794756586064
 31
0.0
  0
ARC
  5
1006
330
18
100
AcDbEntity
  8
1
  6
Continuous
100
AcDbCircle
 10
133.2989485577335
 20
213.9794756586064
 30
0.0
 40
2.0
100
AcDbArc
 50
180.0
 51
270.0
  0
LINE
  5
1007
330
18
100
AcDbEntity
  8
1
  6
Continuous
100
AcDbLine
 10
136.2989485577336
 20
219.1794756586067
 30
0.0
 11
142.2989485577337
 21
219.1794756586067
 31
0.0
  0
LINE
  5
1008
330
18
100
AcDbEntity
  8
1
  6
Continuous
100
AcDbLine
 10
136.2989485577336
 20
214.7794756586066
 30
0.0
 11
142.2989485577337
 21
214.7794756586066
 31
0.0
  0
ARC
  5
1009
330
18
100
AcDbEntity
  8
1
  6
Continuous
100
AcDbCircle
 10
136.2989485577335
 20
216.9794756586069
 30
0.0
 40
2.199999999999989
100
AcDbArc
 50
90.00000000000005
 51
270.0
  0
LINE
  5
100A
330
18
100
AcDbEntity
  8
4
  6
CENTER
 48
0.1
100
AcDbLine
 10
139.2989485577336
 20
220.6794756586067
 30
0.0
 11
139.2989485577336
 21
213.2794756586066
 31
0.0
  0
ARC
  5
100B
330
18
100
AcDbEntity
  8
1
  6
Continuous
100
AcDbCircle
 10
142.2989485577335
 20
216.9794756586069
 30
0.0
 40
2.199999999999989
100
AcDbArc
 50
270.0
 51
90.00000000000005
  0
LINE
  5
100C
330
18
100
AcDbEntity
  8
4
  6
CENTER
 48
0.25
100
AcDbLine
 10
165.9989485577339
 20
216.9794756586064
 30
0.0
 11
152.548948557734
 21
216.9794756586064
 31
0.0
  0
ARC
  5
100D
330
18
100
AcDbEntity
  8
1
  6
Continuous
100
AcDbCircle
 10
162.2989485577339
 20
216.9794756586069
 30
0.0
 40
2.199999999999989
100
AcDbArc
 50
270.0
 51
90.00000000000005
  0
ARC
  5
100E
330
18
100
AcDbEntity
  8
1
  6
Continuous
100
AcDbCircle
 10
156.2989485577339
 20
216.9794756586069
 30
0.0
 40
2.199999999999989
100
AcDbArc
 50
90.00000000000005
 51
270.0
  0
LINE
  5
100F
330
18
100
AcDbEntity
  8
4
  6
CENTER
 48
0.1
100
AcDbLine
 10
159.2989485577338
 20
220.6794756586067
 30
0.0
 11
159.2989485577338
 21
213.2794756586066
 31
0.0
  0
LINE
  5
1010
330
18
100
AcDbEntity
  8
1
  6
Continuous
100
AcDbLine
 10
162.2989485577338
 20
219.1794756586067
 30
0.0
 11
156.2989485577338
 21
219.1794756586067
 31
0.0
  0
LINE
  5
1011
330
18
100
AcDbEntity
  8
1
  6
Continuous
100
AcDbLine
 10
162.2989485577338
 20
214.7794756586066
 30
0.0
 11
156.2989485577338
 21
214.7794756586066
 31
0.0
  0
ARC
  5
1012
330
18
100
AcDbEntity
  8
1
  6
Continuous
100
AcDbCircle
 10
165.2989485577335
 20
213.9794756586064
 30
0.0
 40
2.0
100
AcDbArc
 50
270.0
 51
0.0
  0
LINE
  5
1014
330
18
100
AcDbEntity
  8
1
  6
Continuous
100
AcDbLine
 10
34.54894855771545
 20
144.6294756586069
 30
0.0
 11
35.04894855771556
 21
144.6294756586069
 31
0.0
  0
LINE
  5
1015
330
18
100
AcDbEntity
  8
1
  6
Continuous
100
AcDbLine
 10
47.04894855773637
 20
144.6294756586069
 30
0.0
 11
46.54894855773636
 21
144.6294756586069
 31
0.0
  0
LINE
  5
1016
330
18
100
AcDbEntity
  8
1
  6
Continuous
100
AcDbLine
 10
35.04894855773591
 20
143.9794756586066
 30
0.0
 11
33.79894855773637
 21
143.9794756586066
 31
0.0
  0
LINE
  5
1017
330
18
100
AcDbEntity
  8
1
  6
Continuous
100
AcDbLine
 10
34.54894855771545
 20
145.5794756586066
 30
0.0
 11
33.79894855773637
 21
145.5794756586065
 31
0.0
  0
LINE
  5
101B
330
18
100
AcDbEntity
  8
1
  6
Continuous
100
AcDbLine
 10
37.12394855773573
 20
144.4794756586064
 30
0.0
 11
37.04894855773636
 21
144.4794756586064
 31
0.0
  0
LINE
  5
101C
330
18
100
AcDbEntity
  8
1
  6
Continuous
100
AcDbLine
 10
38.79894855773637
 20
144.4794756586064
 30
0.0
 11
38.72394855773586
 21
144.4794756586064
 31
0.0
  0
LINE
  5
101D
330
18
100
AcDbEntity
  8
1
  6
Continuous
100
AcDbLine
 10
42.87394855773619
 20
144.4794756586064
 30
0.0
 11
42.79894855773636
 21
144.4794756586064
 31
0.0
  0
LINE
  5
101E
330
18
100
AcDbEntity
  8
1
  6
Continuous
100
AcDbLine
 10
44.54894855773637
 20
144.4794756586064
 30
0.0
 11
44.47394855773654
 21
144.4794756586064
 31
0.0
  0
LINE
  5
1020
330
18
100
AcDbEntity
  8
1
  6
Continuous
100
AcDbLine
 10
42.79894855773636
 20
165.4794756586067
 30
0.0
 11
38.79894855773637
 21
165.4794756586067
 31
0.0
  0
LINE
  5
1024
330
18
100
AcDbEntity
  8
1
  6
Continuous
100
AcDbLine
 10
42.87394855773686
 20
155.2294756586064
 30
0.0
 11
44.47394855773699
 21
155.2294756586064
 31
0.0
  0
LINE
  5
1026
330
18
100
AcDbEntity
  8
1
  6
Continuous
100
AcDbLine
 10
44.47394855773654
 20
167.7294756586064
 30
0.0
 11
44.47394855773654
 21
155.2294756586064
 31
0.0
  0
LINE
  5
1027
330
18
100
AcDbEntity
  8
1
  6
Continuous
100
AcDbLine
 10
42.8739485577364
 20
167.7294756586064
 30
0.0
 11
42.8739485577364
 21
155.2294756586064
 31
0.0
  0
LINE
  5
1028
330
18
100
AcDbEntity
  8
1
  6
Continuous
100
AcDbLine
 10
42.8739485577364
 20
158.4794756586069
 30
0.0
 11
42.79894855773636
 21
158.4794756586069
 31
0.0
  0
LINE
  5
1029
330
18
100
AcDbEntity
  8
1
  6
Continuous
100
AcDbLine
 10
44.54894855773591
 20
158.4794756586069
 30
0.0
 11
44.47394855773654
 21
158.4794756586069
 31
0.0
  0
LINE
  5
102A
330
18
100
AcDbEntity
  8
1
  6
Continuous
100
AcDbLine
 10
44.54894855773637
 20
146.9794756586066
 30
0.0
 11
44.54894855773637
 21
129.9794756586065
 31
0.0
  0
LINE
  5
102B
330
18
100
AcDbEntity
  8
1
  6
Continuous
100
AcDbLine
 10
44.47394855773654
 20
146.9794756586066
 30
0.0
 11
44.47394855773654
 21
141.2294756586065
 31
0.0
  0
LINE
  5
102C
330
18
100
AcDbEntity
  8
1
  6
Continuous
100
AcDbLine
 10
42.79894855773636
 20
146.9794756586066
 30
0.0
 11
42.79894855773636
 21
129.9980058893202
 31
0.0
  0
LINE
  5
102D
330
18
100
AcDbEntity
  8
1
  6
Continuous
100
AcDbLine
 10
42.8739485577364
 20
146.9794756586066
 30
0.0
 11
42.8739485577364
 21
141.2294756586065
 31
0.0
  0
LINE
  5
102E
330
18
100
AcDbEntity
  8
1
  6
Continuous
100
AcDbLine
 10
46.54894855773614
 20
155.4794756586066
 30
0.0
 11
44.54894855773637
 21
155.4794756586066
 31
0.0
  0
LINE
  5
102F
330
18
100
AcDbEntity
  8
1
  6
Continuous
100
AcDbLine
 10
46.54894855773614
 20
144.9794756586066
 30
0.0
 11
44.54894855773637
 21
144.9794756586066
 31
0.0
  0
LINE
  5
1034
330
18
100
AcDbEntity
  8
1
  6
Continuous
100
AcDbLine
 10
183.7989485577338
 20
228.4794756586064
 30
0.0
 11
183.7989485577338
 21
232.4794756586064
 31
0.0
  0
LINE
  5
1098
330
18
100
AcDbEntity
  8
1
  6
Continuous
100
AcDbLine
 10
169.2989485577335
 20
232.2294756586065
 30
0.0
 11
167.2989485577335
 21
232.2294756586064
 31
0.0
  0
LINE
  5
109B
330
18
100
AcDbEntity
  8
1
  6
Continuous
100
AcDbLine
 10
167.2989485577338
 20
236.2294756585246
 30
0.0
 11
131.2989485577338
 21
236.2294756585246
 31
0.0
  0
LINE
  5
109C
330
18
100
AcDbEntity
  8
1
  6
Continuous
100
AcDbLine
 10
131.2989485577336
 20
224.7294756586476
 30
0.0
 11
167.2989485577334
 21
224.7294756586476
 31
0.0
  0
LINE
  5
109F
330
18
100
AcDbEntity
  8
1
  6
Continuous
100
AcDbLine
 10
145.7989485577347
 20
236.2294756585246
 30
0.0
 11
145.7989485577347
 21
234.2294756586064
 31
0.0
  0
LINE
  5
10A0
330
18
100
AcDbEntity
  8
1
  6
Continuous
100
AcDbLine
 10
152.7989485577347
 20
236.2294756585245
 30
0.0
 11
152.7989485577347
 21
234.2294756586064
 31
0.0
  0
LINE
  5
10A1
330
18
100
AcDbEntity
  8
1
  6
Continuous
100
AcDbLine
 10
145.7989485577347
 20
226.7294756586064
 30
0.0
 11
145.7989485577347
 21
224.7294756586476
 31
0.0
  0
LINE
  5
10A2
330
18
100
AcDbEntity
  8
1
  6
Continuous
100
AcDbLine
 10
152.7989485577347
 20
226.7294756586064
 30
0.0
 11
152.7989485577347
 21
224.7294756586476
 31
0.0
  0
LINE
  5
10A9
330
18
100
AcDbEntity
  8
1
  6
Continuous
100
AcDbLine
 10
157.4489485577338
 20
236.7294756585452
 30
0.0
 11
163.1489485577557
 21
236.7294756585452
 31
0.0
  0
LINE
  5
10AA
330
18
100
AcDbEntity
  8
1
  6
Continuous
100
AcDbLine
 10
163.1489485577559
 20
236.7294756585452
 30
0.0
 11
163.1489485577559
 21
236.2294756585452
 31
0.0
  0
LINE
  5
10AB
330
18
100
AcDbEntity
  8
1
  6
Continuous
100
AcDbLine
 10
157.4489485577338
 20
236.7294756585452
 30
0.0
 11
157.4489485577338
 21
236.2294756585452
 31
0.0
  0
LINE
  5
10AC
330
18
100
AcDbEntity
  8
1
  6
Continuous
100
AcDbLine
 10
141.4489485577339
 20
236.7294756585452
 30
0.0
 11
147.1489485577559
 21
236.7294756585452
 31
0.0
  0
LINE
  5
10AD
330
18
100
AcDbEntity
  8
1
  6
Continuous
100
AcDbLine
 10
147.1489485577561
 20
236.7294756585452
 30
0.0
 11
147.1489485577561
 21
236.2294756585452
 31
0.0
  0
LINE
  5
10AE
330
18
100
AcDbEntity
  8
1
  6
Continuous
100
AcDbLine
 10
141.4489485577339
 20
236.7294756585452
 30
0.0
 11
141.4489485577339
 21
236.2294756585452
 31
0.0
  0
LINE
  5
10AF
330
18
100
AcDbEntity
  8
1
  6
Continuous
100
AcDbLine
 10
157.4489485577338
 20
224.2294756586476
 30
0.0
 11
163.1489485577557
 21
224.2294756586476
 31
0.0
  0
LINE
  5
10B0
330
18
100
AcDbEntity
  8
1
  6
Continuous
100
AcDbLine
 10
163.1489485577559
 20
224.2294756586476
 30
0.0
 11
163.1489485577559
 21
224.7294756586476
 31
0.0
  0
LINE
  5
10B1
330
18
100
AcDbEntity
  8
1
  6
Continuous
100
AcDbLine
 10
157.4489485577338
 20
224.2294756586476
 30
0.0
 11
157.4489485577338
 21
224.7294756586476
 31
0.0
  0
LINE
  5
10B2
330
18
100
AcDbEntity
  8
1
  6
Continuous
100
AcDbLine
 10
141.4489485577339
 20
224.2294756586476
 30
0.0
 11
147.1489485577559
 21
224.2294756586476
 31
0.0
  0
LINE
  5
10B3
330
18
100
AcDbEntity
  8
1
  6
Continuous
100
AcDbLine
 10
147.1489485577561
 20
224.2294756586476
 30
0.0
 11
147.1489485577561
 21
224.7294756586476
 31
0.0
  0
LINE
  5
10B4
330
18
100
AcDbEntity
  8
1
  6
Continuous
100
AcDbLine
 10
141.4489485577339
 20
224.2294756586476
 30
0.0
 11
141.4489485577339
 21
224.7294756586476
 31
0.0
  0
LINE
  5
110D
330
18
100
AcDbEntity
  8
1
  6
Continuous
100
AcDbLine
 10
141.2989485577341
 20
228.9794756586065
 30
0.0
 11
141.2989485577341
 21
231.9794756586064
 31
0.0
  0
LINE
  5
200D
330
18
100
AcDbEntity
  8
1
  6
Continuous
100
AcDbLine
 10
144.6109958366583
 20
138.4794756586066
 30
0.0
 11
143.6925060875687
 21
138.4794756586066
 31
0.0
  0
LINE
  5
200E
330
18
100
AcDbEntity
  8
1
  6
Continuous
100
AcDbLine
 10
143.4696564951298
 20
137.6477896571819
 30
0.0
 11
143.9717217818999
 21
139.5215228161184
 31
0.0
  0
LINE
  5
200F
330
18
100
AcDbEntity
  8
1
  6
Continuous
100
AcDbLine
 10
143.0211440160134
 20
138.4794756586066
 30
0.0
 11
143.0211440160134
 21
137.4134391548482
 31
0.0
  0
LINE
  5
2010
330
18
100
AcDbEntity
  8
1
  6
Continuous
100
AcDbLine
 10
143.2433635618416
 20
138.7016952044346
 30
0.0
 11
143.2433635618416
 21
139.6511520932819
 31
0.0
  0
ARC
  5
2011
330
18
100
AcDbEntity
  8
1
  6
Continuous
100
AcDbCircle
 10
143.0211440160134
 20
138.7016952044346
 30
0.0
 40
0.2222195458280311
100
AcDbArc
 50
180.0
 51
0.0
  0
LINE
  5
2012
330
18
100
AcDbEntity
  8
1
  6
Continuous
100
AcDbLine
 10
142.7989244701854
 20
139.7310427689476
 30
0.0
 11
142.7989244701854
 21
138.7016952044346
 31
0.0
  0
LINE
  5
2013
330
18
100
AcDbEntity
  8
1
  6
Continuous
100
AcDbLine
 10
142.3544853785294
 20
139.9404235987621
 30
0.0
 11
142.3544853785294
 21
137.1578676797317
 31
0.0
  0
LINE
  5
2014
330
18
100
AcDbEntity
  8
1
  6
Continuous
100
AcDbLine
 10
141.9100462868732
 20
138.4794756586066
 30
0.0
 11
141.6878267410452
 21
138.4794756586066
 31
0.0
  0
LINE
  5
2015
330
18
100
AcDbEntity
  8
1
  6
Continuous
100
AcDbLine
 10
141.9100462868732
 20
137.2247395362044
 30
0.0
 11
141.9100462868732
 21
138.4794756586066
 31
0.0
  0
ARC
  5
2016
330
18
100
AcDbEntity
  8
1
  6
Continuous
100
AcDbCircle
 10
141.6878267410452
 20
137.2247395362044
 30
0.0
 40
0.2222195458280301
100
AcDbArc
 50
280.1041827161252
 51
0.0
  0
ARC
  5
2017
330
18
100
AcDbEntity
  8
1
  6
Continuous
100
AcDbCircle
 10
140.7989485577331
 20
142.2127640285212
 30
0.0
 40
5.288825190707117
100
AcDbArc
 50
277.7929243354226
 51
280.1041827161252
  0
ARC
  5
2018
330
18
100
AcDbEntity
  8
1
  6
Continuous
100
AcDbCircle
 10
141.5100511043827
 20
137.0168167429599
 30
0.0
 40
0.044443909165606
100
AcDbArc
 50
180.0
 51
277.7929243354226
  0
LINE
  5
2019
330
18
100
AcDbEntity
  8
1
  6
Continuous
100
AcDbLine
 10
141.4656071952172
 20
139.9421345742605
 30
0.0
 11
141.4656071952172
 21
137.0168167429599
 31
0.0
  0
ARC
  5
201A
330
18
100
AcDbEntity
  8
1
  6
Continuous
100
AcDbCircle
 10
141.5100511043827
 20
139.9421345742605
 30
0.0
 40
0.044443909165606
100
AcDbArc
 50
82.20707566457726
 51
180.0
  0
ARC
  5
201B
330
18
100
AcDbEntity
  8
1
  6
Continuous
100
AcDbCircle
 10
140.7989485577331
 20
134.7461872886994
 30
0.0
 40
5.288825190707117
100
AcDbArc
 50
79.8958172838747
 51
82.20707566457726
  0
ARC
  5
201C
330
18
100
AcDbEntity
  8
1
  6
Continuous
100
AcDbCircle
 10
141.6878267410452
 20
139.7342117810162
 30
0.0
 40
0.2222195458280301
100
AcDbArc
 50
0.0
 51
79.8958172838747
  0
LINE
  5
201D
330
18
100
AcDbEntity
  8
1
  6
Continuous
100
AcDbLine
 10
141.9100462868732
 20
139.0128025685938
 30
0.0
 11
141.9100462868732
 21
139.7342117810162
 31
0.0
  0
LINE
  5
201E
330
18
100
AcDbEntity
  8
1
  6
Continuous
100
AcDbLine
 10
141.0211681035611
 20
140.0303419392852
 30
0.0
 11
141.0211681035611
 21
136.9286093779351
 31
0.0
  0
LINE
  5
201F
330
18
100
AcDbEntity
  8
1
  6
Continuous
100
AcDbLine
 10
140.5767290119051
 20
138.4794756586066
 30
0.0
 11
140.132289920249
 21
138.4794756586066
 31
0.0
  0
LINE
  5
2020
330
18
100
AcDbEntity
  8
1
  6
Continuous
100
AcDbLine
 10
140.5767290119051
 20
140.0303419392852
 30
0.0
 11
140.5767290119051
 21
136.9286093779351
 31
0.0
  0
LINE
  5
2021
330
18
100
AcDbEntity
  8
1
  6
Continuous
100
AcDbLine
 10
140.132289920249
 20
139.9928279433397
 30
0.0
 11
140.132289920249
 21
136.9661233738807
 31
0.0
  0
LINE
  5
2022
330
18
100
AcDbEntity
  8
1
  6
Continuous
100
AcDbLine
 10
139.687850828593
 20
137.0972720142253
 30
0.0
 11
139.687850828593
 21
137.9461487486194
 31
0.0
  0
ARC
  5
2023
330
18
100
AcDbEntity
  8
1
  6
Continuous
100
AcDbCircle
 10
139.6434069194274
 20
137.0972720142253
 30
0.0
 40
0.044443909165606
100
AcDbArc
 50
257.2710561268771
 51
0.0
  0
ARC
  5
2024
330
18
100
AcDbEntity
  8
1
  6
Continuous
100
AcDbCircle
 10
140.7989485577331
 20
142.2127640285212
 30
0.0
 40
5.288825190707117
100
AcDbArc
 50
254.7937121239406
 51
257.2710561268771
  0
ARC
  5
2025
330
18
100
AcDbEntity
  8
1
  6
Continuous
100
AcDbCircle
 10
140.7989485577331
 20
142.2127640285212
 30
0.0
 40
5.288825190707117
100
AcDbArc
 50
254.7424767095449
 51
254.7937121239406
  0
ARC
  5
2026
330
18
100
AcDbEntity
  8
1
  6
Continuous
100
AcDbCircle
 10
139.4656312827649
 20
137.3247421581739
 30
0.0
 40
0.2222195458280301
100
AcDbArc
 50
180.0
 51
254.7424767095449
  0
LINE
  5
2027
330
18
100
AcDbEntity
  8
1
  6
Continuous
100
AcDbLine
 10
139.2434117369369
 20
139.6342091590464
 30
0.0
 11
139.2434117369369
 21
137.3247421581739
 31
0.0
  0
ARC
  5
2028
330
18
100
AcDbEntity
  8
1
  6
Continuous
100
AcDbCircle
 10
139.4656312827649
 20
139.6342091590464
 30
0.0
 40
0.2222195458280301
100
AcDbArc
 50
105.257523290455
 51
180.0
  0
ARC
  5
2029
330
18
100
AcDbEntity
  8
1
  6
Continuous
100
AcDbCircle
 10
140.7989485577331
 20
134.7461872886994
 30
0.0
 40
5.288825190707117
100
AcDbArc
 50
103.2681189705571
 51
105.257523290455
  0
ARC
  5
202A
330
18
100
AcDbEntity
  8
1
  6
Continuous
100
AcDbCircle
 10
140.7989485577331
 20
134.7461872886994
 30
0.0
 40
5.288825190707117
100
AcDbArc
 50
102.7289438731228
 51
103.2681189705571
  0
ARC
  5
202B
330
18
100
AcDbEntity
  8
1
  6
Continuous
100
AcDbCircle
 10
139.6434069194274
 20
139.8616793029952
 30
0.0
 40
0.044443909165606
100
AcDbArc
 50
0.0
 51
102.7289438731228
  0
LINE
  5
202C
330
18
100
AcDbEntity
  8
1
  6
Continuous
100
AcDbLine
 10
139.687850828593
 20
139.0128025685938
 30
0.0
 11
139.687850828593
 21
139.8616793029952
 31
0.0
  0
ARC
  5
202D
330
18
100
AcDbEntity
  8
1
  6
Continuous
100
AcDbCircle
 10
138.5767530994529
 20
137.6594860767683
 30
0.0
 40
0.2222195458280301
100
AcDbArc
 50
180.0
 51
243.9856340003642
  0
ARC
  5
202E
330
18
100
AcDbEntity
  8
1
  6
Continuous
100
AcDbCircle
 10
140.7989485577331
 20
142.2127640285212
 30
0.0
 40
5.288825190707117
100
AcDbArc
 50
243.9856340003642
 51
247.0560464434622
  0
ARC
  5
202F
330
18
100
AcDbEntity
  8
1
  6
Continuous
100
AcDbCircle
 10
138.7545287361153
 20
137.3832834540535
 30
0.0
 40
0.044443909165606
100
AcDbArc
 50
247.0560464434622
 51
0.0
  0
LINE
  5
2030
330
18
100
AcDbEntity
  8
1
  6
Continuous
100
AcDbLine
 10
138.7989726452809
 20
139.5756678631669
 30
0.0
 11
138.7989726452809
 21
137.3832834540535
 31
0.0
  0
ARC
  5
2031
330
18
100
AcDbEntity
  8
1
  6
Continuous
100
AcDbCircle
 10
138.7545287361153
 20
139.5756678631669
 30
0.0
 40
0.044443909165606
100
AcDbArc
 50
0.0
 51
112.9439535565377
  0
ARC
  5
2032
330
18
100
AcDbEntity
  8
1
  6
Continuous
100
AcDbCircle
 10
140.7989485577331
 20
134.7461872886994
 30
0.0
 40
5.288825190707117
100
AcDbArc
 50
112.9439535565377
 51
116.0143659996353
  0
ARC
  5
2033
330
18
100
AcDbEntity
  8
1
  6
Continuous
100
AcDbCircle
 10
138.5767530994529
 20
139.2994652404522
 30
0.0
 40
0.2222195458280301
100
AcDbArc
 50
116.0143659996353
 51
180.0
  0
LINE
  5
2034
330
18
100
AcDbEntity
  8
1
  6
Continuous
100
AcDbLine
 10
138.3545335536248
 20
137.6594860767683
 30
0.0
 11
138.3545335536248
 21
139.2994652404522
 31
0.0
  0
LINE
  5
2035
330
18
100
AcDbEntity
  8
1
  6
Continuous
100
AcDbLine
 10
137.9100944619687
 20
139.6984434760151
 30
0.0
 11
137.9100944619687
 21
137.7826179912845
 31
0.0
  0
ARC
  5
2036
330
18
100
AcDbEntity
  8
1
  6
Continuous
100
AcDbCircle
 10
143.4655831076696
 20
138.4794756586066
 30
0.0
 40
1.145412728988864
100
AcDbArc
 50
305.5376777919478
 51
315.6988392796159
  0
ARC
  5
2037
330
18
100
AcDbEntity
  8
1
  6
Continuous
100
AcDbCircle
 10
140.7989485577331
 20
142.2127640285212
 30
0.0
 40
5.733264282363177
100
AcDbArc
 50
234.4623222080521
 51
305.5376777919478
  0
ARC
  5
2038
330
18
100
AcDbEntity
  8
1
  6
Continuous
100
AcDbCircle
 10
138.1323140077968
 20
138.4794756586066
 30
0.0
 40
1.145412728988863
100
AcDbArc
 50
180.0
 51
234.4623222080521
  0
ARC
  5
2039
330
18
100
AcDbEntity
  8
1
  6
Continuous
100
AcDbCircle
 10
143.4655831076696
 20
138.4794756586066
 30
0.0
 40
1.145412728988864
100
AcDbArc
 50
332.2496545546283
 51
54.46232220799967
  0
ARC
  5
203A
330
18
100
AcDbEntity
  8
1
  6
Continuous
100
AcDbCircle
 10
140.7989485577331
 20
134.7461872886994
 30
0.0
 40
5.733264282363177
100
AcDbArc
 50
54.46232220799967
 51
125.5376777920003
  0
ARC
  5
203B
330
18
100
AcDbEntity
  8
1
  6
Continuous
100
AcDbCircle
 10
138.1323140077968
 20
138.4794756586066
 30
0.0
 40
1.145412728988863
100
AcDbArc
 50
125.5376777920003
 51
166.5374393917342
  0
LINE
  5
209C
330
18
100
AcDbEntity
  8
1
  6
Continuous
100
AcDbLine
 10
149.797501185398
 20
135.4794756586062
 30
0.0
 11
149.797501185398
 21
133.4794756586063
 31
0.0
  0
LINE
  5
209D
330
18
100
AcDbEntity
  8
1
  6
Continuous
100
AcDbLine
 10
151.0215062959962
 20
135.4794756586062
 30
0.0
 11
151.0215062959962
 21
133.4794756586063
 31
0.0
  0
LINE
  5
209E
330
18
100
AcDbEntity
  8
1
  6
Continuous
100
AcDbLine
 10
158.1535886621068
 20
138.4794756586062
 30
0.0
 11
158.1535886621068
 21
137.4794756586062
 31
0.0
  0
LINE
  5
209F
330
18
100
AcDbEntity
  8
1
  6
Continuous
100
AcDbLine
 10
156.8662076737509
 20
139.4794756586063
 30
0.0
 11
156.8662076737509
 21
137.4794756586062
 31
0.0
  0
LINE
  5
20A0
330
18
100
AcDbEntity
  8
1
  6
Continuous
100
AcDbLine
 10
158.9688461952941
 20
137.4794756586062
 30
0.0
 11
159.5688461952941
 21
139.4794756586063
 31
0.0
  0
LINE
  5
20A1
330
18
100
AcDbEntity
  8
1
  6
Continuous
100
AcDbLine
 10
159.5688461952941
 20
139.4794756586063
 30
0.0
 11
160.1688461952941
 21
137.4794756586062
 31
0.0
  0
ARC
  5
20A2
330
18
100
AcDbEntity
  8
1
  6
Continuous
100
AcDbCircle
 10
148.9289409212683
 20
137.9536792258237
 30
0.0
 40
0.4742035672174262
100
AcDbArc
 50
212.0053832080829
 51
327.9946167919175
  0
ARC
  5
20A3
330
18
100
AcDbEntity
  8
1
  6
Continuous
100
AcDbCircle
 10
150.7849856867201
 20
137.9536792258237
 30
0.0
 40
0.4742035672174262
100
AcDbArc
 50
212.0053832080829
 51
327.9946167919175
  0
CIRCLE
  5
20A4
330
18
100
AcDbEntity
  8
1
  6
Continuous
100
AcDbCircle
 10
156.6966324112156
 20
133.9794756586063
 30
0.0
 40
0.5
  0
LINE
  5
20A7
330
18
100
AcDbEntity
  8
1
  6
Continuous
100
AcDbLine
 10
147.2008218277305
 20
139.4794756586063
 30
0.0
 11
147.2008218277305
 21
137.4794756586062
 31
0.0
  0
LINE
  5
20A8
330
18
100
AcDbEntity
  8
1
  6
Continuous
100
AcDbLine
 10
153.8491667917746
 20
139.4794756586063
 30
0.0
 11
153.8491667917746
 21
137.4794756586062
 31
0.0
  0
LINE
  5
20A9
330
18
100
AcDbEntity
  8
1
  6
Continuous
100
AcDbLine
 10
152.9991667917746
 20
139.4794756586063
 30
0.0
 11
152.9991667917746
 21
137.4794756586062
 31
0.0
  0
LINE
  5
20AA
330
18
100
AcDbEntity
  8
1
  6
Continuous
100
AcDbLine
 10
151.8491667917746
 20
139.4794756586063
 30
0.0
 11
151.8491667917746
 21
137.4794756586062
 31
0.0
  0
ARC
  5
20AE
330
18
100
AcDbEntity
  8
1
  6
Continuous
100
AcDbCircle
 10
154.8350888381439
 20
133.9794756586063
 30
0.0
 40
0.5000000000000005
100
AcDbArc
 50
180.0
 51
90.0
  0
ARC
  5
20B2
330
18
100
AcDbEntity
  8
1
  6
Continuous
100
AcDbCircle
 10
155.3766448362211
 20
138.0001875406821
 30
0.0
 40
0.5207118820758546
100
AcDbArc
 50
214.8882680994076
 51
325.1117319005919
  0
LINE
  5
20B5
330
18
100
AcDbEntity
  8
1
  6
Continuous
100
AcDbLine
 10
152.0215062959962
 20
133.4794756586063
 30
0.0
 11
151.0215062959962
 21
133.4794756586063
 31
0.0
  0
LINE
  5
20B7
330
18
100
AcDbEntity
  8
1
  6
Continuous
100
AcDbLine
 10
154.8350888381439
 20
134.4794756586063
 30
0.0
 11
154.6849255192209
 21
134.4794756586063
 31
0.0
  0
ARC
  5
20B8
330
18
100
AcDbEntity
  8
1
  6
Continuous
100
AcDbCircle
 10
154.8350888381439
 20
134.9794756586063
 30
0.0
 40
0.5
100
AcDbArc
 50
270.0
 51
180.0
  0
LINE
  5
20C1
330
18
100
AcDbEntity
  8
1
  6
Continuous
100
AcDbLine
 10
147.8008218277305
 20
139.4794756586063
 30
0.0
 11
146.6008218277305
 21
139.4794756586063
 31
0.0
  0
CIRCLE
  5
20C3
330
18
100
AcDbEntity
  8
1
  6
Continuous
100
AcDbCircle
 10
156.6966324112156
 20
134.9794756586063
 30
0.0
 40
0.5
  0
ARC
  5
20C7
330
18
100
AcDbEntity
  8
1
  6
Continuous
100
AcDbCircle
 10
150.7849856867201
 20
139.0052720913888
 30
0.0
 40
0.4742035672174262
100
AcDbArc
 50
32.00538320808246
 51
147.994616791917
  0
ARC
  5
20C8
330
18
100
AcDbEntity
  8
1
  6
Continuous
100
AcDbCircle
 10
149.7702152137204
 20
138.4794756586062
 30
0.0
 40
1.466274292452125
100
AcDbArc
 50
147.9946167919164
 51
212.0053832080835
  0
ARC
  5
20C9
330
18
100
AcDbEntity
  8
1
  6
Continuous
100
AcDbCircle
 10
148.0876666288162
 20
138.4794756586062
 30
0.0
 40
1.466274292452125
100
AcDbArc
 50
327.9946167919175
 51
32.00538320808246
  0
ARC
  5
20CA
330
18
100
AcDbEntity
  8
1
  6
Continuous
100
AcDbCircle
 10
151.6262599791722
 20
138.4794756586062
 30
0.0
 40
1.466274292452125
100
AcDbArc
 50
147.9946167919164
 51
212.0053832080835
  0
ARC
  5
20CB
330
18
100
AcDbEntity
  8
1
  6
Continuous
100
AcDbCircle
 10
148.9289409212683
 20
139.0052720913888
 30
0.0
 40
0.4742035672174262
100
AcDbArc
 50
32.00538320808246
 51
147.994616791917
  0
LINE
  5
20CC
330
18
100
AcDbEntity
  8
1
  6
Continuous
100
AcDbLine
 10
151.8491667917746
 20
138.4794756586062
 30
0.0
 11
152.9991667917746
 21
138.4794756586062
 31
0.0
  0
LINE
  5
20CD
330
18
100
AcDbEntity
  8
1
  6
Continuous
100
AcDbLine
 10
158.1535886621068
 20
138.4794756586062
 30
0.0
 11
158.7535886621068
 21
139.4794756586063
 31
0.0
  0
ARC
  5
20CE
330
18
100
AcDbEntity
  8
1
  6
Continuous
100
AcDbCircle
 10
154.5589019151076
 20
138.5759396536589
 30
0.0
 40
1.520805338277071
100
AcDbArc
 50
324.9406618563474
 51
356.3633132383579
  0
LINE
  5
20CF
330
18
100
AcDbEntity
  8
1
  6
Continuous
100
AcDbLine
 10
156.0766448362213
 20
138.4794756586062
 30
0.0
 11
156.0766448362213
 21
137.5763838113674
 31
0.0
  0
LINE
  5
20D0
330
18
100
AcDbEntity
  8
1
  6
Continuous
100
AcDbLine
 10
156.0766448362213
 20
138.4794756586062
 30
0.0
 11
155.3875262917558
 21
138.4794756586062
 31
0.0
  0
ARC
  5
20D1
330
18
100
AcDbEntity
  8
1
  6
Continuous
100
AcDbCircle
 10
154.5589019151076
 20
138.3830116635536
 30
0.0
 40
1.520805338277071
100
AcDbArc
 50
25.72010630391774
 51
35.05933814365256
  0
LINE
  5
20D2
330
18
100
AcDbEntity
  8
1
  6
Continuous
100
AcDbLine
 10
157.5535886621068
 20
139.4794756586063
 30
0.0
 11
158.1535886621068
 21
138.4794756586062
 31
0.0
  0
ARC
  5
20D3
330
18
100
AcDbEntity
  8
1
  6
Continuous
100
AcDbCircle
 10
156.1929191286734
 20
138.4794756586062
 30
0.0
 40
1.466274292452125
100
AcDbArc
 50
147.9946167919164
 51
212.0053832080835
  0
ARC
  5
20D4
330
18
100
AcDbEntity
  8
1
  6
Continuous
100
AcDbCircle
 10
155.3766448362211
 20
138.9587637765304
 30
0.0
 40
0.5207118820758546
100
AcDbArc
 50
34.88826809940808
 51
145.1117319005923
  0
LINE
  5
20D5
330
18
100
AcDbEntity
  8
1
  6
Continuous
100
AcDbLine
 10
159.1938461952941
 20
138.2294756586063
 30
0.0
 11
159.9438461952941
 21
138.2294756586063
 31
0.0
  0
LINE
  5
20D6
330
18
100
AcDbEntity
  8
1
  6
Continuous
100
AcDbLine
 10
150.397501185398
 20
135.4794756586062
 30
0.0
 11
149.1975011853979
 21
135.4794756586062
 31
0.0
  0
LINE
  5
20D7
330
18
100
AcDbEntity
  8
1
  6
Continuous
100
AcDbLine
 10
153.3967666958638
 20
134.4794756586063
 30
0.0
 11
152.4576481513984
 21
134.4794756586063
 31
0.0
  0
ARC
  5
20EF
330
18
100
AcDbEntity
  8
1
  6
Continuous
100
AcDbCircle
 10
158.5108724433537
 20
133.9794756586063
 30
0.0
 40
0.5000000000000005
100
AcDbArc
 50
180.0
 51
90.0
  0
LINE
  5
20F0
330
18
100
AcDbEntity
  8
1
  6
Continuous
100
AcDbLine
 10
158.5108724433537
 20
134.4794756586063
 30
0.0
 11
158.3607091244307
 21
134.4794756586063
 31
0.0
  0
ARC
  5
20F1
330
18
100
AcDbEntity
  8
1
  6
Continuous
100
AcDbCircle
 10
158.5108724433537
 20
134.9794756586063
 30
0.0
 40
0.5
100
AcDbArc
 50
270.0
 51
180.0
  0
ENDSEC
  0
SECTION
  2
OBJECTS
  0
DICTIONARY
  5
C
330
0
100
AcDbDictionary
281
     1
  3
ACAD_CIP_PREVIOUS_PRODUCT_INFO
350
2153
  3
ACAD_COLOR
350
2136
  3
ACAD_DETAILVIEWSTYLE
350
214F
  3
ACAD_GROUP
350
D
  3
ACAD_LAYOUT
350
94
  3
ACAD_MATERIAL
350
2104
  3
ACAD_MLEADERSTYLE
350
214B
  3
ACAD_MLINESTYLE
350
1B
  3
ACAD_PLOTSETTINGS
350
95
  3
ACAD_PLOTSTYLENAME
350
2102
  3
ACAD_SCALELIST
350
2139
  3
ACAD_SECTIONVIEWSTYLE
350
214D
  3
ACAD_TABLESTYLE
350
2137
  3
ACAD_VISUALSTYLE
350
211D
  3
ACDB_RECOMPOSE_DATA
350
2171
  3
AcDbVariableDictionary
350
2164
  3
CONTENTDICTIONARY
350
3D
  3
DWGPROPS
350
2172
  0
DICTIONARY
  5
2154
330
E
100
AcDbDictionary
280
     1
281
     1
  3
ADSK_XREC_LAYER_RECONCILED
360
2155
  0
DICTIONARY
  5
2156
330
4E
100
AcDbDictionary
280
     1
281
     1
  3
ADSK_XREC_LAYER_RECONCILED
360
2157
  0
DICTIONARY
  5
2158
330
4F
100
AcDbDictionary
280
     1
281
     1
  3
ADSK_XREC_LAYER_RECONCILED
360
2159
  0
DICTIONARY
  5
215A
330
50
100
AcDbDictionary
280
     1
281
     1
  3
ADSK_XREC_LAYER_RECONCILED
360
215B
  0
DICTIONARY
  5
215C
330
51
100
AcDbDictionary
280
     1
281
     1
  3
ADSK_XREC_LAYER_RECONCILED
360
215D
  0
DICTIONARY
  5
215E
330
52
100
AcDbDictionary
280
     1
281
     1
  3
ADSK_XREC_LAYER_RECONCILED
360
215F
  0
DICTIONARY
  5
2160
330
53
100
AcDbDictionary
280
     1
281
     1
  3
ADSK_XREC_LAYER_RECONCILED
360
2161
  0
DICTIONARY
  5
2162
330
54
100
AcDbDictionary
280
     1
281
     1
  3
ADSK_XREC_LAYER_RECONCILED
360
2163
  0
DICTIONARY
  5
20FD
330
18
100
AcDbDictionary
281
     1
  3
ACAD_LAYOUTSELFREF
350
20FE
  0
DICTIONARY
  5
20FB
330
15
100
AcDbDictionary
281
     1
  3
ACAD_LAYOUTSELFREF
350
20FC
  0
XRECORD
  5
2153
102
{ACAD_REACTORS
330
C
102
}
330
C
100
AcDbXrecord
280
     1
300
ACDLT
300
2014
300
ACDLT_F_S
  0
DICTIONARY
  5
2136
102
{ACAD_REACTORS
330
C
102
}
330
C
100
AcDbDictionary
281
     1
  0
DICTIONARY
  5
214F
102
{ACAD_REACTORS
330
C
102
}
330
C
100
AcDbDictionary
281
     1
  3
Imperial24
350
2150
  0
DICTIONARY
  5
D
102
{ACAD_REACTORS
330
C
102
}
330
C
100
AcDbDictionary
281
     1
  0
DICTIONARY
  5
94
102
{ACAD_REACTORS
330
C
102
}
330
C
100
AcDbDictionary
281
     1
  3
Model
350
2151
  3
レイアウト1
350
2152
  0
DICTIONARY
  5
2104
102
{ACAD_REACTORS
330
C
102
}
330
C
100
AcDbDictionary
281
     1
  3
ByBlock
350
210D
  3
ByLayer
350
2105
  3
Global
350
2115
  0
DICTIONARY
  5
214B
102
{ACAD_REACTORS
330
C
102
}
330
C
100
AcDbDictionary
281
     1
  3
Standard
350
214C
  0
DICTIONARY
  5
1B
102
{ACAD_REACTORS
330
C
102
}
330
C
100
AcDbDictionary
281
     1
  3
STANDARD
350
1C
  0
DICTIONARY
  5
95
102
{ACAD_REACTORS
330
C
102
}
330
C
100
AcDbDictionary
281
     1
  0
ACDBDICTIONARYWDFLT
  5
2102
102
{ACAD_REACTORS
330
C
102
}
330
C
100
AcDbDictionary
281
     1
  3
Normal
350
2103
100
AcDbDictionaryWithDefault
340
2103
  0
DICTIONARY
  5
2139
102
{ACAD_REACTORS
330
C
102
}
330
C
100
AcDbDictionary
281
     1
  3
A0
350
213A
  3
A1
350
213B
  3
A2
350
213C
  3
A3
350
213D
  3
A4
350
213E
  3
A5
350
213F
  3
A6
350
2140
  3
A7
350
2141
  3
A8
350
2142
  3
A9
350
2143
  3
B0
350
2144
  3
B1
350
2145
  3
B2
350
2146
  3
B3
350
2147
  3
B4
350
2148
  3
B5
350
2149
  3
B6
350
214A
  0
DICTIONARY
  5
214D
102
{ACAD_REACTORS
330
C
102
}
330
C
100
AcDbDictionary
281
     1
  3
Imperial24
350
214E
  0
DICTIONARY
  5
2137
102
{ACAD_REACTORS
330
C
102
}
330
C
100
AcDbDictionary
281
     1
  3
Standard
350
2138
  0
DICTIONARY
  5
211D
102
{ACAD_REACTORS
330
C
102
}
330
C
100
AcDbDictionary
281
     1
  3
2dWireframe
350
2123
  3
Basic
350
2122
  3
Brighten
350
2129
  3
ColorChange
350
212D
  3
Conceptual
350
2126
  3
Dim
350
2128
  3
EdgeColorOff
350
2135
  3
Facepattern
350
212C
  3
Flat
350
211E
  3
FlatWithEdges
350
211F
  3
Gouraud
350
2120
  3
GouraudWithEdges
350
2121
  3
Hidden
350
2125
  3
JitterOff
350
2133
  3
Linepattern
350
212B
  3
OverhangOff
350
2134
  3
Realistic
350
2127
  3
Shaded
350
2132
  3
Shaded with edges
350
2131
  3
Shades of Gray
350
212E
  3
Sketchy
350
212F
  3
Thicken
350
212A
  3
Wireframe
350
2124
  3
X-Ray
350
2130
  0
XRECORD
  5
2171
102
{ACAD_REACTORS
330
C
102
}
330
C
100
AcDbXrecord
280
     1
 90
        1
330
2138
  0
DICTIONARY
  5
2164
102
{ACAD_REACTORS
330
C
102
}
330
C
100
AcDbDictionary
281
     1
  3
CANNOSCALE
350
2169
  3
CMLEADERSTYLE
350
2166
  3
CTABLESTYLE
350
2165
  3
CVIEWDETAILSTYLE
350
2167
  3
CVIEWSECTIONSTYLE
350
2168
  3
DIMASSOC
350
216C
  3
INDEXCTL
350
216B
  3
SORTENTS
350
216A
  3
XCLIPFRAME
350
216D
  0
DICTIONARY
  5
3D
102
{ACAD_REACTORS
330
C
102
}
330
C
100
AcDbDictionary
281
     1
  0
XRECORD
  5
2172
102
{ACAD_REACTORS
330
C
102
}
330
C
100
AcDbXrecord
280
     1
  1
DWGPROPS COOKIE
  2

  3

  4

  6

  7

  8
Yoshitsune
  9

300
=
301
=
302
=
303
=
304
=
305
=
306
=
307
=
308
=
309
=
 40
0.2614677662037037
 41
2456065.442649665
 42
2457192.602615173
  1

 90
        0
  0
XRECORD
  5
2155
102
{ACAD_REACTORS
330
2154
102
}
330
2154
100
AcDbXrecord
280
     1
290
     1
  0
XRECORD
  5
2157
102
{ACAD_REACTORS
330
2156
102
}
330
2156
100
AcDbXrecord
280
     1
290
     1
  0
XRECORD
  5
2159
102
{ACAD_REACTORS
330
2158
102
}
330
2158
100
AcDbXrecord
280
     1
290
     1
  0
XRECORD
  5
215B
102
{ACAD_REACTORS
330
215A
102
}
330
215A
100
AcDbXrecord
280
     1
290
     1
  0
XRECORD
  5
215D
102
{ACAD_REACTORS
330
215C
102
}
330
215C
100
AcDbXrecord
280
     1
290
     1
  0
XRECORD
  5
215F
102
{ACAD_REACTORS
330
215E
102
}
330
215E
100
AcDbXrecord
280
     1
290
     1
  0
XRECORD
  5
2161
102
{ACAD_REACTORS
330
2160
102
}
330
2160
100
AcDbXrecord
280
     1
290
     1
  0
XRECORD
  5
2163
102
{ACAD_REACTORS
330
2162
102
}
330
2162
100
AcDbXrecord
280
     1
290
     1
  0
XRECORD
  5
20FE
102
{ACAD_REACTORS
330
20FD
102
}
330
20FD
100
AcDbXrecord
280
     1
340
18
  0
XRECORD
  5
20FC
102
{ACAD_REACTORS
330
20FB
102
}
330
20FB
100
AcDbXrecord
280
     1
340
15
  0
ACDBDETAILVIEWSTYLE
  5
2150
102
{ACAD_XDICTIONARY
360
21AA
102
}
102
{ACAD_REACTORS
330
214F
102
}
330
214F
100
AcDbModelDocViewStyle
 70
     0
  3
Imperial24
290
     0
100
AcDbDetailViewStyle
 70
     0
 71
     0
 90
        3
 71
     1
340
F
 40
0.24
340
0
 40
0.24
300

 40
0.36
280
     3
 71
     2
340
14
 90
       25
 71
     3
340
F
 40
0.24
 90
        1
 40
0.75
 90
        1
300
%<\AcVar ViewType \f "%tc1">% %<\AcVar ViewDetailId>%\PSCALE %<\AcVar ViewScale \f "%sn">%
 71
     4
340
14
 90
       25
340
14
 90
       25
280
     0
  0
LAYOUT
  5
2151
102
{ACAD_XDICTIONARY
360
21AC
102
}
102
{ACAD_REACTORS
330
94
102
}
330
94
100
AcDbPlotSettings
  1

  2
Canon LBP9100C
  4

  6

 40
0.0
 41
0.0
 42
0.0
 43
0.0
 44
0.0
 45
0.0
 46
0.0
 47
0.0
 48
0.0
 49
0.0
140
0.0
141
0.0
142
1.0
143
1.0
 70
  1712
 72
     0
 73
     0
 74
     0
  7

 75
     0
147
1.0
148
0.0
149
0.0
100
AcDbLayout
  1
Model
 70
     1
 71
     0
 10
0.0
 20
0.0
 11
12.0
 21
9.0
 12
0.0
 22
0.0
 32
0.0
 14
0.0
 24
0.0
 34
0.0
 15
0.0
 25
0.0
 35
0.0
146
0.0
 13
0.0
 23
0.0
 33
0.0
 16
1.0
 26
0.0
 36
0.0
 17
0.0
 27
1.0
 37
0.0
 76
     0
330
18
331
20FA
  0
LAYOUT
  5
2152
102
{ACAD_XDICTIONARY
360
21AE
102
}
102
{ACAD_REACTORS
330
94
102
}
330
94
100
AcDbPlotSettings
  1

  2
Canon LBP9100C
  4

  6

 40
0.0
 41
0.0
 42
0.0
 43
0.0
 44
0.0
 45
0.0
 46
0.0
 47
0.0
 48
0.0
 49
0.0
140
0.0
141
0.0
142
1.0
143
1.0
 70
   688
 72
     0
 73
     0
 74
     5
  7

 75
    16
147
1.0
148
0.0
149
0.0
100
AcDbLayout
  1
レイアウト1
 70
     1
 71
     1
 10
0.0
 20
0.0
 11
420.0
 21
297.0
 12
0.0
 22
0.0
 32
0.0
 14
1.000000000000000E+20
 24
1.000000000000000E+20
 34
1.000000000000000E+20
 15
-1.000000000000000E+20
 25
-1.000000000000000E+20
 35
-1.000000000000000E+20
146
0.0
 13
0.0
 23
0.0
 33
0.0
 16
1.0
 26
0.0
 36
0.0
 17
0.0
 27
1.0
 37
0.0
 76
     0
330
15
  0
MATERIAL
  5
210D
102
{ACAD_XDICTIONARY
360
210E
102
}
102
{ACAD_REACTORS
330
2104
102
}
330
2104
100
AcDbMaterial
  1
ByBlock
 72
     0
 43
0.0208333333333333
 43
0.0
 43
0.0
 43
0.0
 43
0.0
 43
0.0208333333333333
 43
0.0
 43
0.0
 43
0.0
 43
0.0
 43
1.0
 43
0.0
 43
0.0
 43
0.0
 43
0.0
 43
1.0
 77
     0
 47
0.0208333333333333
 47
0.0
 47
0.0
 47
0.0
 47
0.0
 47
0.0208333333333333
 47
0.0
 47
0.0
 47
0.0
 47
0.0
 47
1.0
 47
0.0
 47
0.0
 47
0.0
 47
0.0
 47
1.0
171
     0
 49
0.0208333333333333
 49
0.0
 49
0.0
 49
0.0
 49
0.0
 49
0.0208333333333333
 49
0.0
 49
0.0
 49
0.0
 49
0.0
 49
1.0
 49
0.0
 49
0.0
 49
0.0
 49
0.0
 49
1.0
175
     0
142
0.0208333333333333
142
0.0
142
0.0
142
0.0
142
0.0
142
0.0208333333333333
142
0.0
142
0.0
142
0.0
142
0.0
142
1.0
142
0.0
142
0.0
142
0.0
142
0.0
142
1.0
179
     0
144
0.0208333333333333
144
0.0
144
0.0
144
0.0
144
0.0
144
0.0208333333333333
144
0.0
144
0.0
144
0.0
144
0.0
144
1.0
144
0.0
144
0.0
144
0.0
144
0.0
144
1.0
147
0.0208333333333333
147
0.0
147
0.0
147
0.0
147
0.0
147
0.0208333333333333
147
0.0
147
0.0
147
0.0
147
0.0
147
1.0
147
0.0
147
0.0
147
0.0
147
0.0
147
1.0
  0
MATERIAL
  5
2105
102
{ACAD_XDICTIONARY
360
2106
102
}
102
{ACAD_REACTORS
330
2104
102
}
330
2104
100
AcDbMaterial
  1
ByLayer
 72
     0
 43
0.0208333333333333
 43
0.0
 43
0.0
 43
0.0
 43
0.0
 43
0.0208333333333333
 43
0.0
 43
0.0
 43
0.0
 43
0.0
 43
1.0
 43
0.0
 43
0.0
 43
0.0
 43
0.0
 43
1.0
 77
     0
 47
0.0208333333333333
 47
0.0
 47
0.0
 47
0.0
 47
0.0
 47
0.0208333333333333
 47
0.0
 47
0.0
 47
0.0
 47
0.0
 47
1.0
 47
0.0
 47
0.0
 47
0.0
 47
0.0
 47
1.0
171
     0
 49
0.0208333333333333
 49
0.0
 49
0.0
 49
0.0
 49
0.0
 49
0.0208333333333333
 49
0.0
 49
0.0
 49
0.0
 49
0.0
 49
1.0
 49
0.0
 49
0.0
 49
0.0
 49
0.0
 49
1.0
175
     0
142
0.0208333333333333
142
0.0
142
0.0
142
0.0
142
0.0
142
0.0208333333333333
142
0.0
142
0.0
142
0.0
142
0.0
142
1.0
142
0.0
142
0.0
142
0.0
142
0.0
142
1.0
179
     0
144
0.0208333333333333
144
0.0
144
0.0
144
0.0
144
0.0
144
0.0208333333333333
144
0.0
144
0.0
144
0.0
144
0.0
144
1.0
144
0.0
144
0.0
144
0.0
144
0.0
144
1.0
147
0.0208333333333333
147
0.0
147
0.0
147
0.0
147
0.0
147
0.0208333333333333
147
0.0
147
0.0
147
0.0
147
0.0
147
1.0
147
0.0
147
0.0
147
0.0
147
0.0
147
1.0
  0
MATERIAL
  5
2115
102
{ACAD_XDICTIONARY
360
2116
102
}
102
{ACAD_REACTORS
330
2104
102
}
330
2104
100
AcDbMaterial
  1
Global
 72
     0
 43
0.0208333333333333
 43
0.0
 43
0.0
 43
0.0
 43
0.0
 43
0.0208333333333333
 43
0.0
 43
0.0
 43
0.0
 43
0.0
 43
1.0
 43
0.0
 43
0.0
 43
0.0
 43
0.0
 43
1.0
 77
     0
 47
0.0208333333333333
 47
0.0
 47
0.0
 47
0.0
 47
0.0
 47
0.0208333333333333
 47
0.0
 47
0.0
 47
0.0
 47
0.0
 47
1.0
 47
0.0
 47
0.0
 47
0.0
 47
0.0
 47
1.0
171
     0
 49
0.0208333333333333
 49
0.0
 49
0.0
 49
0.0
 49
0.0
 49
0.0208333333333333
 49
0.0
 49
0.0
 49
0.0
 49
0.0
 49
1.0
 49
0.0
 49
0.0
 49
0.0
 49
0.0
 49
1.0
175
     0
142
0.0208333333333333
142
0.0
142
0.0
142
0.0
142
0.0
142
0.0208333333333333
142
0.0
142
0.0
142
0.0
142
0.0
142
1.0
142
0.0
142
0.0
142
0.0
142
0.0
142
1.0
179
     0
144
0.0208333333333333
144
0.0
144
0.0
144
0.0
144
0.0
144
0.0208333333333333
144
0.0
144
0.0
144
0.0
144
0.0
144
1.0
144
0.0
144
0.0
144
0.0
144
0.0
144
1.0
147
0.0208333333333333
147
0.0
147
0.0
147
0.0
147
0.0
147
0.0208333333333333
147
0.0
147
0.0
147
0.0
147
0.0
147
1.0
147
0.0
147
0.0
147
0.0
147
0.0
147
1.0
  0
MLEADERSTYLE
  5
214C
102
{ACAD_REACTORS
330
214B
102
}
330
214B
100
AcDbMLeaderStyle
170
     2
171
     1
172
     0
 90
        2
 40
0.0
 41
0.0
173
     1
 91
-1056964608
340
12
 92
       -2
290
     1
 42
0.09
291
     1
 43
0.36
  3
Standard
 44
0.18
300

342
F
174
     1
178
     6
175
     1
176
     0
 93
-1056964608
 45
0.18
292
     0
297
     0
 46
0.18
 94
-1056964608
 47
1.0
 49
1.0
140
1.0
293
     1
141
0.0
294
     1
177
     0
142
1.0
295
     0
296
     0
143
0.125
1001
ACAD_MLEADERVER
1070
     2
  0
MLINESTYLE
  5
1C
102
{ACAD_REACTORS
330
1B
102
}
330
1B
100
AcDbMlineStyle
  2
STANDARD
 70
     0
  3

 62
   256
 51
90.0
 52
90.0
 71
     2
 49
0.5
 62
   256
  6
BYLAYER
 49
-0.5
 62
   256
  6
BYLAYER
  0
ACDBPLACEHOLDER
  5
2103
102
{ACAD_REACTORS
330
2102
102
}
330
2102
  0
SCALE
  5
213A
102
{ACAD_REACTORS
330
2139
102
}
330
2139
100
AcDbScale
 70
     0
300
1:1
140
1.0
141
1.0
290
     1
  0
SCALE
  5
213B
102
{ACAD_REACTORS
330
2139
102
}
330
2139
100
AcDbScale
 70
     0
300
1/128" = 1'-0"
140
0.0078125
141
12.0
290
     0
  0
SCALE
  5
213C
102
{ACAD_REACTORS
330
2139
102
}
330
2139
100
AcDbScale
 70
     0
300
1/64" = 1'-0"
140
0.015625
141
12.0
290
     0
  0
SCALE
  5
213D
102
{ACAD_REACTORS
330
2139
102
}
330
2139
100
AcDbScale
 70
     0
300
1/32" = 1'-0"
140
0.03125
141
12.0
290
     0
  0
SCALE
  5
213E
102
{ACAD_REACTORS
330
2139
102
}
330
2139
100
AcDbScale
 70
     0
300
1/16" = 1'-0"
140
0.0625
141
12.0
290
     0
  0
SCALE
  5
213F
102
{ACAD_REACTORS
330
2139
102
}
330
2139
100
AcDbScale
 70
     0
300
3/32" = 1'-0"
140
0.09375
141
12.0
290
     0
  0
SCALE
  5
2140
102
{ACAD_REACTORS
330
2139
102
}
330
2139
100
AcDbScale
 70
     0
300
1/8" = 1'-0"
140
0.125
141
12.0
290
     0
  0
SCALE
  5
2141
102
{ACAD_REACTORS
330
2139
102
}
330
2139
100
AcDbScale
 70
     0
300
3/16" = 1'-0"
140
0.1875
141
12.0
290
     0
  0
SCALE
  5
2142
102
{ACAD_REACTORS
330
2139
102
}
330
2139
100
AcDbScale
 70
     0
300
1/4" = 1'-0"
140
0.25
141
12.0
290
     0
  0
SCALE
  5
2143
102
{ACAD_REACTORS
330
2139
102
}
330
2139
100
AcDbScale
 70
     0
300
3/8" = 1'-0"
140
0.375
141
12.0
290
     0
  0
SCALE
  5
2144
102
{ACAD_REACTORS
330
2139
102
}
330
2139
100
AcDbScale
 70
     0
300
1/2" = 1'-0"
140
0.5
141
12.0
290
     0
  0
SCALE
  5
2145
102
{ACAD_REACTORS
330
2139
102
}
330
2139
100
AcDbScale
 70
     0
300
3/4" = 1'-0"
140
0.75
141
12.0
290
     0
  0
SCALE
  5
2146
102
{ACAD_REACTORS
330
2139
102
}
330
2139
100
AcDbScale
 70
     0
300
1" = 1'-0"
140
1.0
141
12.0
290
     0
  0
SCALE
  5
2147
102
{ACAD_REACTORS
330
2139
102
}
330
2139
100
AcDbScale
 70
     0
300
1-1/2" = 1'-0"
140
1.5
141
12.0
290
     0
  0
SCALE
  5
2148
102
{ACAD_REACTORS
330
2139
102
}
330
2139
100
AcDbScale
 70
     0
300
3" = 1'-0"
140
3.0
141
12.0
290
     0
  0
SCALE
  5
2149
102
{ACAD_REACTORS
330
2139
102
}
330
2139
100
AcDbScale
 70
     0
300
6" = 1'-0"
140
6.0
141
12.0
290
     0
  0
SCALE
  5
214A
102
{ACAD_REACTORS
330
2139
102
}
330
2139
100
AcDbScale
 70
     0
300
1'-0" = 1'-0"
140
12.0
141
12.0
290
     0
  0
ACDBSECTIONVIEWSTYLE
  5
214E
102
{ACAD_XDICTIONARY
360
21A8
102
}
102
{ACAD_REACTORS
330
214D
102
}
330
214D
100
AcDbModelDocViewStyle
 70
     0
  3
Imperial24
290
     0
100
AcDbSectionViewStyle
 70
     0
 71
     0
 90
       78
 71
     1
340
F
 40
0.24
340
0
340
0
 40
0.24
300
I, O, Q, S, X, Z
 40
0.48
 90
        3
 40
0.18
 90
        1
 71
     2
340
14
 90
       25
340
14
 90
       50
 40
0.24
 40
0.0
 40
0.24
 71
     3
340
F
 40
0.24
 90
        1
 40
0.75
 90
        1
300
%<\AcVar ViewType \f "%tc1">% %<\AcVar ViewSectionStartId>%-%<\AcVar ViewSectionEndId>%\PSCALE %<\AcVar ViewScale \f "%sn">%
 71
     4
300
ANSI31
 40
1.0
 90
        0
290
     0
290
     0
 90
        6
 40
0.0
 40
1.570796326794896
 40
0.2617993877991494
 40
1.308996938995747
 40
-0.2617993877991494
 40
1.832595714594046
  0
TABLESTYLE
  5
2138
102
{ACAD_XDICTIONARY
360
216F
102
}
102
{ACAD_REACTORS
330
2137
102
}
330
2137
100
AcDbTableStyle
  3
Standard
 70
     0
 71
     0
 40
0.06
 41
0.06
280
     0
281
     0
  7
STANDARD
140
0.18
170
     2
 62
     0
 63
     7
283
     0
274
    -2
284
     1
 64
     0
275
    -2
285
     1
 65
     0
276
    -2
286
     1
 66
     0
277
    -2
287
     1
 67
     0
278
    -2
288
     1
 68
     0
279
    -2
289
     1
 69
     0
  7
STANDARD
140
0.25
170
     5
 62
     0
 63
     7
283
     0
274
    -2
284
     1
 64
     0
275
    -2
285
     1
 65
     0
276
    -2
286
     1
 66
     0
277
    -2
287
     1
 67
     0
278
    -2
288
     1
 68
     0
279
    -2
289
     1
 69
     0
  7
STANDARD
140
0.18
170
     5
 62
     0
 63
     7
283
     0
274
    -2
284
     1
 64
     0
275
    -2
285
     1
 65
     0
276
    -2
286
     1
 66
     0
277
    -2
287
     1
 67
     0
278
    -2
288
     1
 68
     0
279
    -2
289
     1
 69
     0
  0
VISUALSTYLE
  5
2123
102
{ACAD_XDICTIONARY
360
2180
102
}
102
{ACAD_REACTORS
330
211D
102
}
330
211D
100
AcDbVisualStyle
  2
2dWireframe
 70
     4
 71
     0
 72
     2
 73
     0
 90
        0
 40
-0.6
 41
-30.0
 62
     5
 63
     7
 74
     1
 91
        4
 64
     7
 65
   257
 75
     1
175
     1
 42
1.0
 92
        0
 66
   257
 43
1.0
 76
     1
 77
     6
 78
     2
 67
     7
 79
     5
170
     0
171
     0
290
     0
174
     0
 93
        1
 44
0.0
173
     0
291
     0
 45
0.0
1001
ACAD
1000
AcDbSavedByObjectVersion
1070
     0
  0
VISUALSTYLE
  5
2122
102
{ACAD_XDICTIONARY
360
217E
102
}
102
{ACAD_REACTORS
330
211D
102
}
330
211D
100
AcDbVisualStyle
  2
Basic
 70
     7
 71
     1
 72
     0
 73
     1
 90
        0
 40
-0.6
 41
-30.0
 62
     5
 63
     7
 74
     0
 91
        4
 64
     7
 65
   257
 75
     1
175
     1
 42
1.0
 92
        8
 66
     7
 43
1.0
 76
     1
 77
     6
 78
     2
 67
     7
 79
     5
170
     0
171
     0
290
     0
174
     0
 93
        1
 44
0.0
173
     0
291
     1
 45
0.0
1001
ACAD
1000
AcDbSavedByObjectVersion
1070
     0
  0
VISUALSTYLE
  5
2129
102
{ACAD_XDICTIONARY
360
218C
102
}
102
{ACAD_REACTORS
330
211D
102
}
330
211D
100
AcDbVisualStyle
  2
Brighten
 70
    12
 71
     2
 72
     2
 73
     0
 90
        0
 40
-0.6
 41
-30.0
 62
     5
 63
     7
 74
     1
 91
        4
 64
     7
 65
   257
 75
     1
175
     1
 42
1.0
 92
        8
 66
     7
 43
1.0
 76
     1
 77
     6
 78
     2
 67
     7
 79
     5
170
     0
171
     0
290
     0
174
     0
 93
        1
 44
50.0
173
     0
291
     1
 45
0.0
1001
ACAD
1000
AcDbSavedByObjectVersion
1070
     0
  0
VISUALSTYLE
  5
212D
102
{ACAD_XDICTIONARY
360
2194
102
}
102
{ACAD_REACTORS
330
211D
102
}
330
211D
100
AcDbVisualStyle
  2
ColorChange
 70
    16
 71
     2
 72
     2
 73
     3
 90
        0
 40
-0.6
 41
-30.0
 62
     5
 63
     8
 74
     1
 91
        4
 64
     7
 65
   257
 75
     1
175
     1
 42
1.0
 92
        8
 66
     8
 43
1.0
 76
     1
 77
     6
 78
     2
 67
     7
 79
     5
170
     0
171
     0
290
     0
174
     0
 93
        1
 44
0.0
173
     0
291
     1
 45
0.0
1001
ACAD
1000
AcDbSavedByObjectVersion
1070
     0
  0
VISUALSTYLE
  5
2126
102
{ACAD_XDICTIONARY
360
2186
102
}
102
{ACAD_REACTORS
330
211D
102
}
330
211D
100
AcDbVisualStyle
  2
Conceptual
 70
     9
 71
     3
 72
     2
 73
     0
 90
        0
 40
-0.6
 41
-30.0
 62
     5
 63
     7
 74
     2
 91
        2
 64
     7
 65
   257
 75
     1
175
     1
 42
179.0
 92
        8
 66
     7
 43
1.0
 76
     1
 77
     6
 78
     2
 67
     7
 79
     3
170
     0
171
     0
290
     0
174
     0
 93
        1
 44
0.0
173
     0
291
     0
 45
0.0
1001
ACAD
1000
AcDbSavedByObjectVersion
1070
     0
  0
VISUALSTYLE
  5
2128
102
{ACAD_XDICTIONARY
360
218A
102
}
102
{ACAD_REACTORS
330
211D
102
}
330
211D
100
AcDbVisualStyle
  2
Dim
 70
    11
 71
     2
 72
     2
 73
     0
 90
        0
 40
-0.6
 41
-30.0
 62
     5
 63
     7
 74
     1
 91
        4
 64
     7
 65
   257
 75
     1
175
     1
 42
1.0
 92
        8
 66
     7
 43
1.0
 76
     1
 77
     6
 78
     2
 67
     7
 79
     5
170
     0
171
     0
290
     0
174
     0
 93
        1
 44
-50.0
173
     0
291
     1
 45
0.0
1001
ACAD
1000
AcDbSavedByObjectVersion
1070
     0
  0
VISUALSTYLE
  5
2135
102
{ACAD_XDICTIONARY
360
21A4
102
}
102
{ACAD_REACTORS
330
211D
102
}
330
211D
100
AcDbVisualStyle
  2
EdgeColorOff
 70
    22
 71
     2
 72
     2
 73
     0
 90
        0
 40
-0.6
 41
-30.0
 62
     5
 63
     7
 74
     1
 91
        4
 64
     7
 65
   257
 75
     1
175
     1
 42
1.0
 92
        8
 66
     7
 43
1.0
 76
     1
 77
     6
 78
     2
 67
     7
 79
     5
170
     0
171
     0
290
     0
174
     0
 93
        1
 44
0.0
173
     0
291
     1
 45
0.0
1001
ACAD
1000
AcDbSavedByObjectVersion
1070
     0
  0
VISUALSTYLE
  5
212C
102
{ACAD_XDICTIONARY
360
2192
102
}
102
{ACAD_REACTORS
330
211D
102
}
330
211D
100
AcDbVisualStyle
  2
Facepattern
 70
    15
 71
     2
 72
     2
 73
     0
 90
        0
 40
-0.6
 41
-30.0
 62
     5
 63
     7
 74
     1
 91
        4
 64
     7
 65
   257
 75
     1
175
     1
 42
1.0
 92
        8
 66
     7
 43
1.0
 76
     1
 77
     6
 78
     2
 67
     7
 79
     5
170
     0
171
     0
290
     0
174
     0
 93
        1
 44
0.0
173
     0
291
     1
 45
0.0
1001
ACAD
1000
AcDbSavedByObjectVersion
1070
     0
  0
VISUALSTYLE
  5
211E
102
{ACAD_XDICTIONARY
360
2176
102
}
102
{ACAD_REACTORS
330
211D
102
}
330
211D
100
AcDbVisualStyle
  2
Flat
 70
     0
 71
     2
 72
     1
 73
     1
 90
        2
 40
-0.6
 41
30.0
 62
     5
 63
     7
 74
     0
 91
        0
 64
     7
 65
   257
 75
     1
175
     1
 42
1.0
 92
        8
 66
     7
 43
1.0
 76
     1
 77
     6
 78
     2
 67
     7
 79
     5
170
     0
171
     0
290
     0
174
     0
 93
       13
 44
0.0
173
     0
291
     1
 45
0.0
1001
ACAD
1000
AcDbSavedByObjectVersion
1070
     0
  0
VISUALSTYLE
  5
211F
102
{ACAD_XDICTIONARY
360
2178
102
}
102
{ACAD_REACTORS
330
211D
102
}
330
211D
100
AcDbVisualStyle
  2
FlatWithEdges
 70
     1
 71
     2
 72
     1
 73
     1
 90
        2
 40
-0.6
 41
30.0
 62
     5
 63
     7
 74
     1
 91
        0
 64
     7
 65
   257
 75
     1
175
     1
 42
1.0
 92
        0
 66
   257
 43
1.0
 76
     1
 77
     6
 78
     2
 67
     7
 79
     5
170
     0
171
     0
290
     0
174
     0
 93
       13
 44
0.0
173
     0
291
     1
 45
0.0
1001
ACAD
1000
AcDbSavedByObjectVersion
1070
     0
  0
VISUALSTYLE
  5
2120
102
{ACAD_XDICTIONARY
360
217A
102
}
102
{ACAD_REACTORS
330
211D
102
}
330
211D
100
AcDbVisualStyle
  2
Gouraud
 70
     2
 71
     2
 72
     2
 73
     1
 90
        2
 40
-0.6
 41
30.0
 62
     5
 63
     7
 74
     0
 91
        0
 64
     7
 65
   257
 75
     1
175
     1
 42
1.0
 92
        0
 66
     7
 43
1.0
 76
     1
 77
     6
 78
     2
 67
     7
 79
     5
170
     0
171
     0
290
     0
174
     0
 93
       13
 44
0.0
173
     0
291
     1
 45
0.0
1001
ACAD
1000
AcDbSavedByObjectVersion
1070
     0
  0
VISUALSTYLE
  5
2121
102
{ACAD_XDICTIONARY
360
217C
102
}
102
{ACAD_REACTORS
330
211D
102
}
330
211D
100
AcDbVisualStyle
  2
GouraudWithEdges
 70
     3
 71
     2
 72
     2
 73
     1
 90
        2
 40
-0.6
 41
30.0
 62
     5
 63
     7
 74
     1
 91
        0
 64
     7
 65
   257
 75
     1
175
     1
 42
1.0
 92
        0
 66
   257
 43
1.0
 76
     1
 77
     6
 78
     2
 67
     7
 79
     5
170
     0
171
     0
290
     0
174
     0
 93
       13
 44
0.0
173
     0
291
     1
 45
0.0
1001
ACAD
1000
AcDbSavedByObjectVersion
1070
     0
  0
VISUALSTYLE
  5
2125
102
{ACAD_XDICTIONARY
360
2184
102
}
102
{ACAD_REACTORS
330
211D
102
}
330
211D
100
AcDbVisualStyle
  2
Hidden
 70
     6
 71
     1
 72
     2
 73
     2
 90
        0
 40
-0.6
 41
-30.0
 62
     5
 63
     7
 74
     2
 91
        2
 64
     7
 65
   257
 75
     2
175
     1
 42
40.0
 92
        0
 66
   257
 43
1.0
 76
     1
 77
     6
 78
     2
 67
     7
 79
     3
170
     0
171
     0
290
     0
174
     0
 93
        1
 44
0.0
173
     0
291
     0
 45
0.0
1001
ACAD
1000
AcDbSavedByObjectVersion
1070
     0
  0
VISUALSTYLE
  5
2133
102
{ACAD_XDICTIONARY
360
21A0
102
}
102
{ACAD_REACTORS
330
211D
102
}
330
211D
100
AcDbVisualStyle
  2
JitterOff
 70
    20
 71
     2
 72
     2
 73
     0
 90
        0
 40
-0.6
 41
-30.0
 62
     5
 63
     7
 74
     1
 91
        4
 64
     7
 65
   257
 75
     1
175
     1
 42
1.0
 92
       10
 66
     7
 43
1.0
 76
     1
 77
     6
 78
     2
 67
     7
 79
     5
170
     0
171
     0
290
     0
174
     0
 93
        1
 44
0.0
173
     0
291
     1
 45
0.0
1001
ACAD
1000
AcDbSavedByObjectVersion
1070
     0
  0
VISUALSTYLE
  5
212B
102
{ACAD_XDICTIONARY
360
2190
102
}
102
{ACAD_REACTORS
330
211D
102
}
330
211D
100
AcDbVisualStyle
  2
Linepattern
 70
    14
 71
     2
 72
     2
 73
     0
 90
        0
 40
-0.6
 41
-30.0
 62
     5
 63
     7
 74
     1
 91
        4
 64
     7
 65
   257
 75
     7
175
     7
 42
1.0
 92
        8
 66
     7
 43
1.0
 76
     1
 77
     6
 78
     2
 67
     7
 79
     5
170
     0
171
     0
290
     0
174
     0
 93
        1
 44
0.0
173
     0
291
     1
 45
0.0
1001
ACAD
1000
AcDbSavedByObjectVersion
1070
     0
  0
VISUALSTYLE
  5
2134
102
{ACAD_XDICTIONARY
360
21A2
102
}
102
{ACAD_REACTORS
330
211D
102
}
330
211D
100
AcDbVisualStyle
  2
OverhangOff
 70
    21
 71
     2
 72
     2
 73
     0
 90
        0
 40
-0.6
 41
-30.0
 62
     5
 63
     7
 74
     1
 91
        4
 64
     7
 65
   257
 75
     1
175
     1
 42
1.0
 92
        9
 66
     7
 43
1.0
 76
     1
 77
     6
 78
     2
 67
     7
 79
     5
170
     0
171
     0
290
     0
174
     0
 93
        1
 44
0.0
173
     0
291
     1
 45
0.0
1001
ACAD
1000
AcDbSavedByObjectVersion
1070
     0
  0
VISUALSTYLE
  5
2127
102
{ACAD_XDICTIONARY
360
2188
102
}
102
{ACAD_REACTORS
330
211D
102
}
330
211D
100
AcDbVisualStyle
  2
Realistic
 70
     8
 71
     2
 72
     3
 73
     0
 90
        2
 40
-0.6
 41
30.0
 62
     5
 63
     7
 74
     0
 91
        0
 64
     7
 65
   257
 75
     1
175
     1
 42
1.0
 92
        8
 66
   257
 43
1.0
 76
     1
 77
     6
 78
     2
 67
     7
 79
     3
170
     0
171
     0
290
     0
174
     0
 93
       13
 44
0.0
173
     0
291
     0
 45
0.0
1001
ACAD
1000
AcDbSavedByObjectVersion
1070
     0
  0
VISUALSTYLE
  5
2132
102
{ACAD_XDICTIONARY
360
219E
102
}
102
{ACAD_REACTORS
330
211D
102
}
330
211D
100
AcDbVisualStyle
  2
Shaded
 70
    27
 71
     2
 72
     2
 73
     1
 90
        2
 40
-0.6
 41
30.0
 62
     5
 63
     7
 74
     0
 91
        4
 64
     7
 65
   257
 75
     1
175
     1
 42
1.0
 92
        8
 66
   257
 43
1.0
 76
     1
 77
     6
 78
     2
 67
     8
 79
     3
170
     0
171
     0
290
     0
174
     0
 93
        5
 44
0.0
173
     0
291
     0
 45
0.0
1001
ACAD
1000
AcDbSavedByObjectVersion
1070
     0
  0
VISUALSTYLE
  5
2131
102
{ACAD_XDICTIONARY
360
219C
102
}
102
{ACAD_REACTORS
330
211D
102
}
330
211D
100
AcDbVisualStyle
  2
Shaded with edges
 70
    26
 71
     2
 72
     2
 73
     1
 90
        2
 40
-0.6
 41
30.0
 62
     5
 63
     7
 74
     1
 91
       10
 64
     7
 65
   257
 75
     2
175
     1
 42
1.0
 92
        8
 66
   257
 43
1.0
 76
     1
 77
     6
 78
     2
 67
     7
 79
     3
170
     0
171
     0
290
     0
174
     0
 93
        5
 44
0.0
173
     0
291
     0
 45
0.0
1001
ACAD
1000
AcDbSavedByObjectVersion
1070
     0
  0
VISUALSTYLE
  5
212E
102
{ACAD_XDICTIONARY
360
2196
102
}
102
{ACAD_REACTORS
330
211D
102
}
330
211D
100
AcDbVisualStyle
  2
Shades of Gray
 70
    23
 71
     2
 72
     2
 73
     3
 90
        0
 40
-0.6
 41
-30.0
 62
     5
 63
     7
 74
     2
 91
        2
 64
     7
 65
     7
 75
     1
175
     1
 42
40.0
 92
        8
 66
     7
 43
1.0
 76
     1
 77
     6
 78
     2
 67
     7
 79
     3
170
     0
171
     0
290
     0
174
     0
 93
        1
 44
0.0
173
     0
291
     0
 45
0.0
1001
ACAD
1000
AcDbSavedByObjectVersion
1070
     0
  0
VISUALSTYLE
  5
212F
102
{ACAD_XDICTIONARY
360
2198
102
}
102
{ACAD_REACTORS
330
211D
102
}
330
211D
100
AcDbVisualStyle
  2
Sketchy
 70
    24
 71
     1
 72
     2
 73
     2
 90
        0
 40
-0.6
 41
-30.0
 62
     5
 63
     7
 74
     2
 91
        2
 64
     7
 65
     7
 75
     1
175
     1
 42
40.0
 92
       11
 66
     7
 43
1.0
 76
     1
 77
     6
 78
     2
 67
     7
 79
     6
170
     0
171
     0
290
     0
174
     0
 93
        1
 44
0.0
173
     0
291
     0
 45
0.0
1001
ACAD
1000
AcDbSavedByObjectVersion
1070
     0
  0
VISUALSTYLE
  5
212A
102
{ACAD_XDICTIONARY
360
218E
102
}
102
{ACAD_REACTORS
330
211D
102
}
330
211D
100
AcDbVisualStyle
  2
Thicken
 70
    13
 71
     2
 72
     2
 73
     0
 90
        0
 40
-0.6
 41
-30.0
 62
     5
 63
     7
 74
     1
 91
        4
 64
     7
 65
   257
 75
     1
175
     1
 42
1.0
 92
       12
 66
     7
 43
1.0
 76
     1
 77
     6
 78
     2
 67
     7
 79
     5
170
     0
171
     0
290
     0
174
     0
 93
        1
 44
0.0
173
     0
291
     1
 45
0.0
1001
ACAD
1000
AcDbSavedByObjectVersion
1070
     0
  0
VISUALSTYLE
  5
2124
102
{ACAD_XDICTIONARY
360
2182
102
}
102
{ACAD_REACTORS
330
211D
102
}
330
211D
100
AcDbVisualStyle
  2
Wireframe
 70
     5
 71
     0
 72
     2
 73
     0
 90
        0
 40
-0.6
 41
-30.0
 62
     5
 63
     7
 74
     1
 91
        4
 64
     7
 65
   257
 75
     1
175
     1
 42
1.0
 92
        0
 66
   257
 43
1.0
 76
     1
 77
     6
 78
     2
 67
     7
 79
     3
170
     0
171
     0
290
     0
174
     0
 93
        1
 44
0.0
173
     0
291
     0
 45
0.0
1001
ACAD
1000
AcDbSavedByObjectVersion
1070
     0
  0
VISUALSTYLE
  5
2130
102
{ACAD_XDICTIONARY
360
219A
102
}
102
{ACAD_REACTORS
330
211D
102
}
330
211D
100
AcDbVisualStyle
  2
X-Ray
 70
    25
 71
     2
 72
     2
 73
     1
 90
        1
 40
0.5
 41
-30.0
 62
     5
 63
     7
 74
     1
 91
        0
 64
     7
 65
   257
 75
     1
175
     1
 42
1.0
 92
        8
 66
     7
 43
1.0
 76
     1
 77
     6
 78
     2
 67
     7
 79
     3
170
     0
171
     0
290
     0
174
     0
 93
       13
 44
0.0
173
     0
291
     0
 45
0.0
1001
ACAD
1000
AcDbSavedByObjectVersion
1070
     0
  0
DICTIONARYVAR
  5
2169
102
{ACAD_REACTORS
330
2164
102
}
330
2164
100
DictionaryVariables
280
     0
  1
1:1
  0
DICTIONARYVAR
  5
2166
102
{ACAD_REACTORS
330
2164
102
}
330
2164
100
DictionaryVariables
280
     0
  1
STANDARD
  0
DICTIONARYVAR
  5
2165
102
{ACAD_REACTORS
330
2164
102
}
330
2164
100
DictionaryVariables
280
     0
  1
STANDARD
  0
DICTIONARYVAR
  5
2167
102
{ACAD_REACTORS
330
2164
102
}
330
2164
100
DictionaryVariables
280
     0
  1
Imperial24
  0
DICTIONARYVAR
  5
2168
102
{ACAD_REACTORS
330
2164
102
}
330
2164
100
DictionaryVariables
280
     0
  1
Imperial24
  0
DICTIONARYVAR
  5
216C
102
{ACAD_REACTORS
330
2164
102
}
330
2164
100
DictionaryVariables
280
     0
  1
1
  0
DICTIONARYVAR
  5
216B
102
{ACAD_REACTORS
330
2164
102
}
330
2164
100
DictionaryVariables
280
     0
  1
0
  0
DICTIONARYVAR
  5
216A
102
{ACAD_REACTORS
330
2164
102
}
330
2164
100
DictionaryVariables
280
     0
  1
127
  0
DICTIONARYVAR
  5
216D
102
{ACAD_REACTORS
330
2164
102
}
330
2164
100
DictionaryVariables
280
     0
  1
2
  0
DICTIONARY
  5
21AA
330
2150
100
AcDbDictionary
280
     1
281
     1
  3
ACAD_XREC_ROUNDTRIP
360
21AB
  0
DICTIONARY
  5
21AC
330
2151
100
AcDbDictionary
280
     1
281
     1
  3
ACAD_XREC_ROUNDTRIP
360
21AD
  0
DICTIONARY
  5
21AE
330
2152
100
AcDbDictionary
280
     1
281
     1
  3
ACAD_XREC_ROUNDTRIP
360
21AF
  0
DICTIONARY
  5
210E
330
210D
100
AcDbDictionary
280
     1
281
     1
  3
ACAD_XREC_ROUNDTRIP
360
2174
  3
BUMPTILE
360
2110
  3
DIFFUSETILE
360
210F
  3
OPACITYTILE
360
2113
  3
REFLECTIONTILE
360
2112
  3
REFRACTIONTILE
360
2114
  3
SPECULARTILE
360
2111
  0
DICTIONARY
  5
2106
330
2105
100
AcDbDictionary
280
     1
281
     1
  3
ACAD_XREC_ROUNDTRIP
360
2173
  3
BUMPTILE
360
2108
  3
DIFFUSETILE
360
2107
  3
OPACITYTILE
360
210B
  3
REFLECTIONTILE
360
210A
  3
REFRACTIONTILE
360
210C
  3
SPECULARTILE
360
2109
  0
DICTIONARY
  5
2116
330
2115
100
AcDbDictionary
280
     1
281
     1
  3
ACAD_XREC_ROUNDTRIP
360
2175
  3
BUMPTILE
360
2118
  3
DIFFUSETILE
360
2117
  3
OPACITYTILE
360
211B
  3
REFLECTIONTILE
360
211A
  3
REFRACTIONTILE
360
211C
  3
SPECULARTILE
360
2119
  0
DICTIONARY
  5
21A8
330
214E
100
AcDbDictionary
280
     1
281
     1
  3
ACAD_XREC_ROUNDTRIP
360
21A9
  0
DICTIONARY
  5
216F
330
2138
100
AcDbDictionary
280
     1
281
     1
  3
ACAD_ROUNDTRIP_2008_TABLESTYLE_CELLSTYLEMAP
360
2170
  3
ACAD_XREC_ROUNDTRIP
360
21A6
  0
DICTIONARY
  5
2180
330
2123
100
AcDbDictionary
280
     1
281
     1
  3
ACAD_XREC_ROUNDTRIP
360
2181
  0
DICTIONARY
  5
217E
330
2122
100
AcDbDictionary
280
     1
281
     1
  3
ACAD_XREC_ROUNDTRIP
360
217F
  0
DICTIONARY
  5
218C
330
2129
100
AcDbDictionary
280
     1
281
     1
  3
ACAD_XREC_ROUNDTRIP
360
218D
  0
DICTIONARY
  5
2194
330
212D
100
AcDbDictionary
280
     1
281
     1
  3
ACAD_XREC_ROUNDTRIP
360
2195
  0
DICTIONARY
  5
2186
330
2126
100
AcDbDictionary
280
     1
281
     1
  3
ACAD_XREC_ROUNDTRIP
360
2187
  0
DICTIONARY
  5
218A
330
2128
100
AcDbDictionary
280
     1
281
     1
  3
ACAD_XREC_ROUNDTRIP
360
218B
  0
DICTIONARY
  5
21A4
330
2135
100
AcDbDictionary
280
     1
281
     1
  3
ACAD_XREC_ROUNDTRIP
360
21A5
  0
DICTIONARY
  5
2192
330
212C
100
AcDbDictionary
280
     1
281
     1
  3
ACAD_XREC_ROUNDTRIP
360
2193
  0
DICTIONARY
  5
2176
330
211E
100
AcDbDictionary
280
     1
281
     1
  3
ACAD_XREC_ROUNDTRIP
360
2177
  0
DICTIONARY
  5
2178
330
211F
100
AcDbDictionary
280
     1
281
     1
  3
ACAD_XREC_ROUNDTRIP
360
2179
  0
DICTIONARY
  5
217A
330
2120
100
AcDbDictionary
280
     1
281
     1
  3
ACAD_XREC_ROUNDTRIP
360
217B
  0
DICTIONARY
  5
217C
330
2121
100
AcDbDictionary
280
     1
281
     1
  3
ACAD_XREC_ROUNDTRIP
360
217D
  0
DICTIONARY
  5
2184
330
2125
100
AcDbDictionary
280
     1
281
     1
  3
ACAD_XREC_ROUNDTRIP
360
2185
  0
DICTIONARY
  5
21A0
330
2133
100
AcDbDictionary
280
     1
281
     1
  3
ACAD_XREC_ROUNDTRIP
360
21A1
  0
DICTIONARY
  5
2190
330
212B
100
AcDbDictionary
280
     1
281
     1
  3
ACAD_XREC_ROUNDTRIP
360
2191
  0
DICTIONARY
  5
21A2
330
2134
100
AcDbDictionary
280
     1
281
     1
  3
ACAD_XREC_ROUNDTRIP
360
21A3
  0
DICTIONARY
  5
2188
330
2127
100
AcDbDictionary
280
     1
281
     1
  3
ACAD_XREC_ROUNDTRIP
360
2189
  0
DICTIONARY
  5
219E
330
2132
100
AcDbDictionary
280
     1
281
     1
  3
ACAD_XREC_ROUNDTRIP
360
219F
  0
DICTIONARY
  5
219C
330
2131
100
AcDbDictionary
280
     1
281
     1
  3
ACAD_XREC_ROUNDTRIP
360
219D
  0
DICTIONARY
  5
2196
330
212E
100
AcDbDictionary
280
     1
281
     1
  3
ACAD_XREC_ROUNDTRIP
360
2197
  0
DICTIONARY
  5
2198
330
212F
100
AcDbDictionary
280
     1
281
     1
  3
ACAD_XREC_ROUNDTRIP
360
2199
  0
DICTIONARY
  5
218E
330
212A
100
AcDbDictionary
280
     1
281
     1
  3
ACAD_XREC_ROUNDTRIP
360
218F
  0
DICTIONARY
  5
2182
330
2124
100
AcDbDictionary
280
     1
281
     1
  3
ACAD_XREC_ROUNDTRIP
360
2183
  0
DICTIONARY
  5
219A
330
2130
100
AcDbDictionary
280
     1
281
     1
  3
ACAD_XREC_ROUNDTRIP
360
219B
  0
XRECORD
  5
21AB
102
{ACAD_REACTORS
330
21AA
102
}
330
21AA
100
AcDbXrecord
280
     1
102
DISPLAYNAME
  1
Imperial24
102
FLAGS
 90
        0
  0
XRECORD
  5
21AD
102
{ACAD_REACTORS
330
21AC
102
}
330
21AC
100
AcDbXrecord
280
     1
102
SHADEPLOT
 70
     0
102
SHADEPLOTRESLEVEL
 70
     2
102
SHADEPLOTCUSTOMDPI
 70
   300
  0
XRECORD
  5
21AF
102
{ACAD_REACTORS
330
21AE
102
}
330
21AE
100
AcDbXrecord
280
     1
102
SHADEPLOT
 70
     0
102
SHADEPLOTRESLEVEL
 70
     2
102
SHADEPLOTCUSTOMDPI
 70
   300
  0
XRECORD
  5
2174
102
{ACAD_REACTORS
330
210E
102
}
330
210E
100
AcDbXrecord
280
     1
102
MATERIAL
148
0.0
149
0.0
149
0.0
 93
        0
 94
      127
282
     0
 72
     0
 77
     0
171
     0
175
     0
179
     0
273
     0
  0
XRECORD
  5
2110
102
{ACAD_REACTORS
330
210E
102
}
330
210E
100
AcDbXrecord
280
     1
270
     1
271
     1
  0
XRECORD
  5
210F
102
{ACAD_REACTORS
330
210E
102
}
330
210E
100
AcDbXrecord
280
     1
270
     1
271
     1
  0
XRECORD
  5
2113
102
{ACAD_REACTORS
330
210E
102
}
330
210E
100
AcDbXrecord
280
     1
270
     1
271
     1
  0
XRECORD
  5
2112
102
{ACAD_REACTORS
330
210E
102
}
330
210E
100
AcDbXrecord
280
     1
270
     1
271
     1
  0
XRECORD
  5
2114
102
{ACAD_REACTORS
330
210E
102
}
330
210E
100
AcDbXrecord
280
     1
270
     1
271
     1
  0
XRECORD
  5
2111
102
{ACAD_REACTORS
330
210E
102
}
330
210E
100
AcDbXrecord
280
     1
270
     1
271
     1
  0
XRECORD
  5
2173
102
{ACAD_REACTORS
330
2106
102
}
330
2106
100
AcDbXrecord
280
     1
102
MATERIAL
148
0.0
149
0.0
149
0.0
 93
        0
 94
      127
282
     0
 72
     0
 77
     0
171
     0
175
     0
179
     0
273
     0
  0
XRECORD
  5
2108
102
{ACAD_REACTORS
330
2106
102
}
330
2106
100
AcDbXrecord
280
     1
270
     1
271
     1
  0
XRECORD
  5
2107
102
{ACAD_REACTORS
330
2106
102
}
330
2106
100
AcDbXrecord
280
     1
270
     1
271
     1
  0
XRECORD
  5
210B
102
{ACAD_REACTORS
330
2106
102
}
330
2106
100
AcDbXrecord
280
     1
270
     1
271
     1
  0
XRECORD
  5
210A
102
{ACAD_REACTORS
330
2106
102
}
330
2106
100
AcDbXrecord
280
     1
270
     1
271
     1
  0
XRECORD
  5
210C
102
{ACAD_REACTORS
330
2106
102
}
330
2106
100
AcDbXrecord
280
     1
270
     1
271
     1
  0
XRECORD
  5
2109
102
{ACAD_REACTORS
330
2106
102
}
330
2106
100
AcDbXrecord
280
     1
270
     1
271
     1
  0
XRECORD
  5
2175
102
{ACAD_REACTORS
330
2116
102
}
330
2116
100
AcDbXrecord
280
     1
102
MATERIAL
148
0.0
149
0.0
149
0.0
 93
        0
 94
      127
282
     0
 72
     0
 77
     0
171
     0
175
     0
179
     0
273
     0
  0
XRECORD
  5
2118
102
{ACAD_REACTORS
330
2116
102
}
330
2116
100
AcDbXrecord
280
     1
270
     1
271
     1
  0
XRECORD
  5
2117
102
{ACAD_REACTORS
330
2116
102
}
330
2116
100
AcDbXrecord
280
     1
270
     1
271
     1
  0
XRECORD
  5
211B
102
{ACAD_REACTORS
330
2116
102
}
330
2116
100
AcDbXrecord
280
     1
270
     1
271
     1
  0
XRECORD
  5
211A
102
{ACAD_REACTORS
330
2116
102
}
330
2116
100
AcDbXrecord
280
     1
270
     1
271
     1
  0
XRECORD
  5
211C
102
{ACAD_REACTORS
330
2116
102
}
330
2116
100
AcDbXrecord
280
     1
270
     1
271
     1
  0
XRECORD
  5
2119
102
{ACAD_REACTORS
330
2116
102
}
330
2116
100
AcDbXrecord
280
     1
270
     1
271
     1
  0
XRECORD
  5
21A9
102
{ACAD_REACTORS
330
21A8
102
}
330
21A8
100
AcDbXrecord
280
     1
102
DISPLAYNAME
  1
Imperial24
102
FLAGS
 90
        0
  0
CELLSTYLEMAP
  5
2170
102
{ACAD_REACTORS
330
216F
102
}
330
216F
100
AcDbCellStyleMap
 90
        3
300
CELLSTYLE
  1
TABLEFORMAT_BEGIN
 90
        5
170
     1
 91
        0
 92
    32768
 62
   257
 93
        1
300
CONTENTFORMAT
  1
CONTENTFORMAT_BEGIN
 90
        0
 91
        0
 92
      512
 93
        0
300

 40
0.0
140
1.0
 94
        5
 62
     0
340
F
144
0.25
309
CONTENTFORMAT_END
171
     0
 94
        0
309
TABLEFORMAT_END
  1
CELLSTYLE_BEGIN
 90
        1
 91
        1
300
_TITLE
309
CELLSTYLE_END
300
CELLSTYLE
  1
TABLEFORMAT_BEGIN
 90
        5
170
     1
 91
        0
 92
        0
 62
   257
 93
        1
300
CONTENTFORMAT
  1
CONTENTFORMAT_BEGIN
 90
        0
 91
        0
 92
      512
 93
        0
300

 40
0.0
140
1.0
 94
        5
 62
     0
340
F
144
0.18
309
CONTENTFORMAT_END
171
     0
 94
        0
309
TABLEFORMAT_END
  1
CELLSTYLE_BEGIN
 90
        2
 91
        1
300
_HEADER
309
CELLSTYLE_END
300
CELLSTYLE
  1
TABLEFORMAT_BEGIN
 90
        5
170
     1
 91
        0
 92
        0
 62
   257
 93
        1
300
CONTENTFORMAT
  1
CONTENTFORMAT_BEGIN
 90
        0
 91
        0
 92
      512
 93
        0
300

 40
0.0
140
1.0
 94
        2
 62
     0
340
F
144
0.18
309
CONTENTFORMAT_END
171
     0
 94
        0
309
TABLEFORMAT_END
  1
CELLSTYLE_BEGIN
 90
        3
 91
        2
300
_DATA
309
CELLSTYLE_END
  0
XRECORD
  5
21A6
102
{ACAD_REACTORS
330
216F
102
}
330
216F
100
AcDbXrecord
280
     1
102
ACAD_ROUNDTRIP_PRE2007_TABLESTYLE
 90
      512
 91
        0
  1

 92
      512
 93
        0
  2

 94
      512
 95
        0
  3

  0
XRECORD
  5
2181
102
{ACAD_REACTORS
330
2180
102
}
330
2180
100
AcDbXrecord
280
     1
102
RTVSPost2010Prop28
280
     1
102
RTVSPost2010PropOp28
 70
     1
102
RTVSPost2010Prop29
280
     1
102
RTVSPost2010PropOp29
 70
     1
102
RTVSPost2010Prop30
280
     0
102
RTVSPost2010PropOp30
 70
     1
102
RTVSPost2010Prop31
280
     0
102
RTVSPost2010PropOp31
 70
     1
102
RTVSPost2010Prop32
280
     0
102
RTVSPost2010PropOp32
 70
     1
102
RTVSPost2010Prop33
280
     0
102
RTVSPost2010PropOp33
 70
     1
102
RTVSPost2010Prop34
280
     0
102
RTVSPost2010PropOp34
 70
     1
102
RTVSPost2010Prop35
280
     0
102
RTVSPost2010PropOp35
 70
     1
102
RTVSPost2010Prop36
280
     0
102
RTVSPost2010PropOp36
 70
     1
102
RTVSPost2010Prop37
 90
       50
102
RTVSPost2010PropOp37
 70
     1
102
RTVSPost2010Prop38
140
0.0
102
RTVSPost2010PropOp38
 70
     1
102
RTVSPost2010Prop39
140
1.0
102
RTVSPost2010PropOp39
 70
     1
102
RTVSPost2010Prop40
 90
        0
102
RTVSPost2010PropOp40
 70
     1
102
RTVSPost2010Prop41ColorIndex
 90
       18
102
RTVSPost2010Prop41ColorRGB
 90
        0
102
RTVSPost2010PropOp41
 70
     1
102
RTVSPost2010Prop42
 90
       50
102
RTVSPost2010PropOp42
 70
     1
102
RTVSPost2010Prop43
 90
        3
102
RTVSPost2010PropOp43
 70
     1
102
RTVSPost2010Prop44ColorIndex
 90
        5
102
RTVSPost2010Prop44ColorRGB
 90
      255
102
RTVSPost2010PropOp44
 70
     1
102
RTVSPost2010Prop45
280
     0
102
RTVSPost2010PropOp45
 70
     1
102
RTVSPost2010Prop46
 90
       50
102
RTVSPost2010PropOp46
 70
     1
102
RTVSPost2010Prop47
 90
       50
102
RTVSPost2010PropOp47
 70
     1
102
RTVSPost2010Prop48
 90
       50
102
RTVSPost2010PropOp48
 70
     1
102
RTVSPost2010Prop49
280
     0
102
RTVSPost2010PropOp49
 70
     1
102
RTVSPost2010Prop50
 90
       50
102
RTVSPost2010PropOp50
 70
     1
102
RTVSPost2010Prop51ColorIndex
 90
      256
102
RTVSPost2010Prop51ColorRGB
 90
-16777216
102
RTVSPost2010PropOp51
 70
     0
102
RTVSPost2010Prop52
140
1.0
102
RTVSPost2010PropOp52
 70
     0
102
RTVSPost2010Prop53
 90
        2
102
RTVSPost2010PropOp53
 70
     1
102
RTVSPost2010Prop54
  1
strokes_ogs.tif
102
RTVSPost2010PropOp54
 70
     1
102
RTVSPost2010Prop55
280
     0
102
RTVSPost2010PropOp55
 70
     1
102
RTVSPost2010Prop56
140
1.0
102
RTVSPost2010PropOp56
 70
     1
102
RTVSPost2010Prop57
140
1.0
102
RTVSPost2010PropOp57
 70
     1
102
RTVSPropertyOp0
 70
     1
102
RTVSPropertyOp1
 70
     1
102
RTVSPropertyOp2
 70
     1
102
RTVSPropertyOp3
 70
     1
102
RTVSPropertyOp4
 70
     1
102
RTVSPropertyOp5
 70
     1
102
RTVSPropertyOp6
 70
     1
102
RTVSPropertyOp7
 70
     1
102
RTVSPropertyOp8
 70
     1
102
RTVSPropertyOp9
 70
     1
102
RTVSPropertyOp10
 70
     1
102
RTVSPropertyOp11
 70
     1
102
RTVSPropertyOp12
 70
     1
102
RTVSPropertyOp13
 70
     1
102
RTVSPropertyOp14
 70
     1
102
RTVSPropertyOp15
 70
     1
102
RTVSPropertyOp16
 70
     1
102
RTVSPropertyOp17
 70
     1
102
RTVSPropertyOp18
 70
     1
102
RTVSPropertyOp19
 70
     1
102
RTVSPropertyOp20
 70
     1
102
RTVSPropertyOp21
 70
     1
102
RTVSPropertyOp22
 70
     1
102
RTVSPropertyOp23
 70
     1
102
RTVSPropertyOp24
 70
     1
102
RTVSPropertyOp25
 70
     1
102
RTVSPropertyOp26
 70
     1
102
RTVSPropertyOp27
 70
     1
102
RTVSPropertyOp28
 70
     1
102
RTVSPropertyOp29
 70
     1
102
RTVSPropertyOp30
 70
     1
102
RTVSPropertyOp31
 70
     1
102
RTVSPropertyOp32
 70
     1
102
RTVSPropertyOp33
 70
     1
102
RTVSPropertyOp34
 70
     1
102
RTVSPropertyOp35
 70
     1
102
RTVSPropertyOp36
 70
     1
102
RTVSPropertyOp37
 70
     1
102
RTVSPropertyOp38
 70
     1
102
RTVSPropertyOp39
 70
     1
102
RTVSPropertyOp40
 70
     1
102
RTVSPropertyOp41
 70
     1
102
RTVSPropertyOp42
 70
     1
102
RTVSPropertyOp43
 70
     1
102
RTVSPropertyOp44
 70
     1
102
RTVSPropertyOp45
 70
     1
102
RTVSPropertyOp46
 70
     1
102
RTVSPropertyOp47
 70
     1
102
RTVSPropertyOp48
 70
     1
102
RTVSPropertyOp49
 70
     1
102
RTVSPropertyOp50
 70
     1
102
RTVSPropertyOp51
 70
     0
102
RTVSPropertyOp52
 70
     0
102
RTVSPropertyOp53
 70
     1
102
RTVSPropertyOp54
 70
     1
102
RTVSPropertyOp55
 70
     1
102
RTVSPropertyOp56
 70
     1
102
RTVSPropertyOp57
 70
     1
102
RTVSPropertyOp58
 70
     1
102
RTVSPropertyOp59
 70
     1
102
RTVSPropertyOp60
 70
     1
102
RTVSPropertyOp61
 70
     1
102
RTVSPropertyOp62
 70
     1
  0
XRECORD
  5
217F
102
{ACAD_REACTORS
330
217E
102
}
330
217E
100
AcDbXrecord
280
     1
102
RTVSPost2010Prop28
280
     0
102
RTVSPost2010PropOp28
 70
     1
102
RTVSPost2010Prop29
280
     1
102
RTVSPost2010PropOp29
 70
     1
102
RTVSPost2010Prop30
280
     1
102
RTVSPost2010PropOp30
 70
     1
102
RTVSPost2010Prop31
280
     0
102
RTVSPost2010PropOp31
 70
     1
102
RTVSPost2010Prop32
280
     0
102
RTVSPost2010PropOp32
 70
     1
102
RTVSPost2010Prop33
280
     0
102
RTVSPost2010PropOp33
 70
     1
102
RTVSPost2010Prop34
280
     0
102
RTVSPost2010PropOp34
 70
     1
102
RTVSPost2010Prop35
280
     0
102
RTVSPost2010PropOp35
 70
     1
102
RTVSPost2010Prop36
280
     0
102
RTVSPost2010PropOp36
 70
     1
102
RTVSPost2010Prop37
 90
       50
102
RTVSPost2010PropOp37
 70
     1
102
RTVSPost2010Prop38
140
0.0
102
RTVSPost2010PropOp38
 70
     1
102
RTVSPost2010Prop39
140
1.0
102
RTVSPost2010PropOp39
 70
     1
102
RTVSPost2010Prop40
 90
        0
102
RTVSPost2010PropOp40
 70
     1
102
RTVSPost2010Prop41ColorIndex
 90
       18
102
RTVSPost2010Prop41ColorRGB
 90
        0
102
RTVSPost2010PropOp41
 70
     1
102
RTVSPost2010Prop42
 90
       50
102
RTVSPost2010PropOp42
 70
     1
102
RTVSPost2010Prop43
 90
        3
102
RTVSPost2010PropOp43
 70
     1
102
RTVSPost2010Prop44ColorIndex
 90
        5
102
RTVSPost2010Prop44ColorRGB
 90
      255
102
RTVSPost2010PropOp44
 70
     1
102
RTVSPost2010Prop45
280
     0
102
RTVSPost2010PropOp45
 70
     1
102
RTVSPost2010Prop46
 90
       50
102
RTVSPost2010PropOp46
 70
     1
102
RTVSPost2010Prop47
 90
       50
102
RTVSPost2010PropOp47
 70
     1
102
RTVSPost2010Prop48
 90
       50
102
RTVSPost2010PropOp48
 70
     1
102
RTVSPost2010Prop49
280
     0
102
RTVSPost2010PropOp49
 70
     1
102
RTVSPost2010Prop50
 90
       50
102
RTVSPost2010PropOp50
 70
     1
102
RTVSPost2010Prop51ColorIndex
 90
      256
102
RTVSPost2010Prop51ColorRGB
 90
-16777216
102
RTVSPost2010PropOp51
 70
     0
102
RTVSPost2010Prop52
140
1.0
102
RTVSPost2010PropOp52
 70
     0
102
RTVSPost2010Prop53
 90
        2
102
RTVSPost2010PropOp53
 70
     1
102
RTVSPost2010Prop54
  1
strokes_ogs.tif
102
RTVSPost2010PropOp54
 70
     1
102
RTVSPost2010Prop55
280
     0
102
RTVSPost2010PropOp55
 70
     1
102
RTVSPost2010Prop56
140
1.0
102
RTVSPost2010PropOp56
 70
     1
102
RTVSPost2010Prop57
140
1.0
102
RTVSPost2010PropOp57
 70
     1
102
RTVSPropertyOp0
 70
     1
102
RTVSPropertyOp1
 70
     1
102
RTVSPropertyOp2
 70
     1
102
RTVSPropertyOp3
 70
     1
102
RTVSPropertyOp4
 70
     1
102
RTVSPropertyOp5
 70
     1
102
RTVSPropertyOp6
 70
     1
102
RTVSPropertyOp7
 70
     1
102
RTVSPropertyOp8
 70
     1
102
RTVSPropertyOp9
 70
     1
102
RTVSPropertyOp10
 70
     1
102
RTVSPropertyOp11
 70
     1
102
RTVSPropertyOp12
 70
     1
102
RTVSPropertyOp13
 70
     1
102
RTVSPropertyOp14
 70
     1
102
RTVSPropertyOp15
 70
     1
102
RTVSPropertyOp16
 70
     1
102
RTVSPropertyOp17
 70
     1
102
RTVSPropertyOp18
 70
     1
102
RTVSPropertyOp19
 70
     1
102
RTVSPropertyOp20
 70
     1
102
RTVSPropertyOp21
 70
     1
102
RTVSPropertyOp22
 70
     1
102
RTVSPropertyOp23
 70
     1
102
RTVSPropertyOp24
 70
     1
102
RTVSPropertyOp25
 70
     1
102
RTVSPropertyOp26
 70
     1
102
RTVSPropertyOp27
 70
     1
102
RTVSPropertyOp28
 70
     1
102
RTVSPropertyOp29
 70
     1
102
RTVSPropertyOp30
 70
     1
102
RTVSPropertyOp31
 70
     1
102
RTVSPropertyOp32
 70
     1
102
RTVSPropertyOp33
 70
     1
102
RTVSPropertyOp34
 70
     1
102
RTVSPropertyOp35
 70
     1
102
RTVSPropertyOp36
 70
     1
102
RTVSPropertyOp37
 70
     1
102
RTVSPropertyOp38
 70
     1
102
RTVSPropertyOp39
 70
     1
102
RTVSPropertyOp40
 70
     1
102
RTVSPropertyOp41
 70
     1
102
RTVSPropertyOp42
 70
     1
102
RTVSPropertyOp43
 70
     1
102
RTVSPropertyOp44
 70
     1
102
RTVSPropertyOp45
 70
     1
102
RTVSPropertyOp46
 70
     1
102
RTVSPropertyOp47
 70
     1
102
RTVSPropertyOp48
 70
     1
102
RTVSPropertyOp49
 70
     1
102
RTVSPropertyOp50
 70
     1
102
RTVSPropertyOp51
 70
     0
102
RTVSPropertyOp52
 70
     0
102
RTVSPropertyOp53
 70
     1
102
RTVSPropertyOp54
 70
     1
102
RTVSPropertyOp55
 70
     1
102
RTVSPropertyOp56
 70
     1
102
RTVSPropertyOp57
 70
     1
102
RTVSPropertyOp58
 70
     1
102
RTVSPropertyOp59
 70
     1
102
RTVSPropertyOp60
 70
     1
102
RTVSPropertyOp61
 70
     1
102
RTVSPropertyOp62
 70
     1
  0
XRECORD
  5
218D
102
{ACAD_REACTORS
330
218C
102
}
330
218C
100
AcDbXrecord
280
     1
102
RTVSPost2010Prop28
280
     0
102
RTVSPost2010PropOp28
 70
     1
102
RTVSPost2010Prop29
280
     1
102
RTVSPost2010PropOp29
 70
     1
102
RTVSPost2010Prop30
280
     1
102
RTVSPost2010PropOp30
 70
     1
102
RTVSPost2010Prop31
280
     0
102
RTVSPost2010PropOp31
 70
     1
102
RTVSPost2010Prop32
280
     0
102
RTVSPost2010PropOp32
 70
     1
102
RTVSPost2010Prop33
280
     0
102
RTVSPost2010PropOp33
 70
     1
102
RTVSPost2010Prop34
280
     0
102
RTVSPost2010PropOp34
 70
     1
102
RTVSPost2010Prop35
280
     0
102
RTVSPost2010PropOp35
 70
     1
102
RTVSPost2010Prop36
280
     0
102
RTVSPost2010PropOp36
 70
     1
102
RTVSPost2010Prop37
 90
       50
102
RTVSPost2010PropOp37
 70
     1
102
RTVSPost2010Prop38
140
0.0
102
RTVSPost2010PropOp38
 70
     1
102
RTVSPost2010Prop39
140
1.0
102
RTVSPost2010PropOp39
 70
     1
102
RTVSPost2010Prop40
 90
        0
102
RTVSPost2010PropOp40
 70
     1
102
RTVSPost2010Prop41ColorIndex
 90
       18
102
RTVSPost2010Prop41ColorRGB
 90
        0
102
RTVSPost2010PropOp41
 70
     1
102
RTVSPost2010Prop42
 90
       50
102
RTVSPost2010PropOp42
 70
     1
102
RTVSPost2010Prop43
 90
        3
102
RTVSPost2010PropOp43
 70
     1
102
RTVSPost2010Prop44ColorIndex
 90
        5
102
RTVSPost2010Prop44ColorRGB
 90
      255
102
RTVSPost2010PropOp44
 70
     1
102
RTVSPost2010Prop45
280
     0
102
RTVSPost2010PropOp45
 70
     1
102
RTVSPost2010Prop46
 90
       50
102
RTVSPost2010PropOp46
 70
     1
102
RTVSPost2010Prop47
 90
       50
102
RTVSPost2010PropOp47
 70
     1
102
RTVSPost2010Prop48
 90
       50
102
RTVSPost2010PropOp48
 70
     1
102
RTVSPost2010Prop49
280
     0
102
RTVSPost2010PropOp49
 70
     1
102
RTVSPost2010Prop50
 90
       50
102
RTVSPost2010PropOp50
 70
     1
102
RTVSPost2010Prop51ColorIndex
 90
      256
102
RTVSPost2010Prop51ColorRGB
 90
-16777216
102
RTVSPost2010PropOp51
 70
     0
102
RTVSPost2010Prop52
140
1.0
102
RTVSPost2010PropOp52
 70
     0
102
RTVSPost2010Prop53
 90
        2
102
RTVSPost2010PropOp53
 70
     1
102
RTVSPost2010Prop54
  1
strokes_ogs.tif
102
RTVSPost2010PropOp54
 70
     1
102
RTVSPost2010Prop55
280
     0
102
RTVSPost2010PropOp55
 70
     1
102
RTVSPost2010Prop56
140
1.0
102
RTVSPost2010PropOp56
 70
     1
102
RTVSPost2010Prop57
140
1.0
102
RTVSPost2010PropOp57
 70
     1
102
RTVSPropertyOp0
 70
     1
102
RTVSPropertyOp1
 70
     1
102
RTVSPropertyOp2
 70
     1
102
RTVSPropertyOp3
 70
     1
102
RTVSPropertyOp4
 70
     1
102
RTVSPropertyOp5
 70
     1
102
RTVSPropertyOp6
 70
     1
102
RTVSPropertyOp7
 70
     1
102
RTVSPropertyOp8
 70
     1
102
RTVSPropertyOp9
 70
     1
102
RTVSPropertyOp10
 70
     1
102
RTVSPropertyOp11
 70
     1
102
RTVSPropertyOp12
 70
     1
102
RTVSPropertyOp13
 70
     1
102
RTVSPropertyOp14
 70
     1
102
RTVSPropertyOp15
 70
     1
102
RTVSPropertyOp16
 70
     1
102
RTVSPropertyOp17
 70
     1
102
RTVSPropertyOp18
 70
     1
102
RTVSPropertyOp19
 70
     1
102
RTVSPropertyOp20
 70
     1
102
RTVSPropertyOp21
 70
     1
102
RTVSPropertyOp22
 70
     1
102
RTVSPropertyOp23
 70
     1
102
RTVSPropertyOp24
 70
     1
102
RTVSPropertyOp25
 70
     1
102
RTVSPropertyOp26
 70
     1
102
RTVSPropertyOp27
 70
     1
102
RTVSPropertyOp28
 70
     1
102
RTVSPropertyOp29
 70
     1
102
RTVSPropertyOp30
 70
     1
102
RTVSPropertyOp31
 70
     1
102
RTVSPropertyOp32
 70
     1
102
RTVSPropertyOp33
 70
     1
102
RTVSPropertyOp34
 70
     1
102
RTVSPropertyOp35
 70
     1
102
RTVSPropertyOp36
 70
     1
102
RTVSPropertyOp37
 70
     1
102
RTVSPropertyOp38
 70
     1
102
RTVSPropertyOp39
 70
     1
102
RTVSPropertyOp40
 70
     1
102
RTVSPropertyOp41
 70
     1
102
RTVSPropertyOp42
 70
     1
102
RTVSPropertyOp43
 70
     1
102
RTVSPropertyOp44
 70
     1
102
RTVSPropertyOp45
 70
     1
102
RTVSPropertyOp46
 70
     1
102
RTVSPropertyOp47
 70
     1
102
RTVSPropertyOp48
 70
     1
102
RTVSPropertyOp49
 70
     1
102
RTVSPropertyOp50
 70
     1
102
RTVSPropertyOp51
 70
     0
102
RTVSPropertyOp52
 70
     0
102
RTVSPropertyOp53
 70
     1
102
RTVSPropertyOp54
 70
     1
102
RTVSPropertyOp55
 70
     1
102
RTVSPropertyOp56
 70
     1
102
RTVSPropertyOp57
 70
     1
102
RTVSPropertyOp58
 70
     1
102
RTVSPropertyOp59
 70
     1
102
RTVSPropertyOp60
 70
     1
102
RTVSPropertyOp61
 70
     1
102
RTVSPropertyOp62
 70
     1
  0
XRECORD
  5
2195
102
{ACAD_REACTORS
330
2194
102
}
330
2194
100
AcDbXrecord
280
     1
102
RTVSPost2010Prop28
280
     0
102
RTVSPost2010PropOp28
 70
     1
102
RTVSPost2010Prop29
280
     1
102
RTVSPost2010PropOp29
 70
     1
102
RTVSPost2010Prop30
280
     1
102
RTVSPost2010PropOp30
 70
     1
102
RTVSPost2010Prop31
280
     0
102
RTVSPost2010PropOp31
 70
     1
102
RTVSPost2010Prop32
280
     0
102
RTVSPost2010PropOp32
 70
     1
102
RTVSPost2010Prop33
280
     0
102
RTVSPost2010PropOp33
 70
     1
102
RTVSPost2010Prop34
280
     0
102
RTVSPost2010PropOp34
 70
     1
102
RTVSPost2010Prop35
280
     0
102
RTVSPost2010PropOp35
 70
     1
102
RTVSPost2010Prop36
280
     0
102
RTVSPost2010PropOp36
 70
     1
102
RTVSPost2010Prop37
 90
       50
102
RTVSPost2010PropOp37
 70
     1
102
RTVSPost2010Prop38
140
0.0
102
RTVSPost2010PropOp38
 70
     1
102
RTVSPost2010Prop39
140
1.0
102
RTVSPost2010PropOp39
 70
     1
102
RTVSPost2010Prop40
 90
        0
102
RTVSPost2010PropOp40
 70
     1
102
RTVSPost2010Prop41ColorIndex
 90
       18
102
RTVSPost2010Prop41ColorRGB
 90
        0
102
RTVSPost2010PropOp41
 70
     1
102
RTVSPost2010Prop42
 90
       50
102
RTVSPost2010PropOp42
 70
     1
102
RTVSPost2010Prop43
 90
        3
102
RTVSPost2010PropOp43
 70
     1
102
RTVSPost2010Prop44ColorIndex
 90
        5
102
RTVSPost2010Prop44ColorRGB
 90
      255
102
RTVSPost2010PropOp44
 70
     1
102
RTVSPost2010Prop45
280
     0
102
RTVSPost2010PropOp45
 70
     1
102
RTVSPost2010Prop46
 90
       50
102
RTVSPost2010PropOp46
 70
     1
102
RTVSPost2010Prop47
 90
       50
102
RTVSPost2010PropOp47
 70
     1
102
RTVSPost2010Prop48
 90
       50
102
RTVSPost2010PropOp48
 70
     1
102
RTVSPost2010Prop49
280
     0
102
RTVSPost2010PropOp49
 70
     1
102
RTVSPost2010Prop50
 90
       50
102
RTVSPost2010PropOp50
 70
     1
102
RTVSPost2010Prop51ColorIndex
 90
      256
102
RTVSPost2010Prop51ColorRGB
 90
-16777216
102
RTVSPost2010PropOp51
 70
     0
102
RTVSPost2010Prop52
140
1.0
102
RTVSPost2010PropOp52
 70
     0
102
RTVSPost2010Prop53
 90
        2
102
RTVSPost2010PropOp53
 70
     1
102
RTVSPost2010Prop54
  1
strokes_ogs.tif
102
RTVSPost2010PropOp54
 70
     1
102
RTVSPost2010Prop55
280
     0
102
RTVSPost2010PropOp55
 70
     1
102
RTVSPost2010Prop56
140
1.0
102
RTVSPost2010PropOp56
 70
     1
102
RTVSPost2010Prop57
140
1.0
102
RTVSPost2010PropOp57
 70
     1
102
RTVSPropertyOp0
 70
     1
102
RTVSPropertyOp1
 70
     1
102
RTVSPropertyOp2
 70
     1
102
RTVSPropertyOp3
 70
     1
102
RTVSPropertyOp4
 70
     1
102
RTVSPropertyOp5
 70
     1
102
RTVSPropertyOp6
 70
     1
102
RTVSPropertyOp7
 70
     1
102
RTVSPropertyOp8
 70
     1
102
RTVSPropertyOp9
 70
     1
102
RTVSPropertyOp10
 70
     1
102
RTVSPropertyOp11
 70
     1
102
RTVSPropertyOp12
 70
     1
102
RTVSPropertyOp13
 70
     1
102
RTVSPropertyOp14
 70
     1
102
RTVSPropertyOp15
 70
     1
102
RTVSPropertyOp16
 70
     1
102
RTVSPropertyOp17
 70
     1
102
RTVSPropertyOp18
 70
     1
102
RTVSPropertyOp19
 70
     1
102
RTVSPropertyOp20
 70
     1
102
RTVSPropertyOp21
 70
     1
102
RTVSPropertyOp22
 70
     1
102
RTVSPropertyOp23
 70
     1
102
RTVSPropertyOp24
 70
     1
102
RTVSPropertyOp25
 70
     1
102
RTVSPropertyOp26
 70
     1
102
RTVSPropertyOp27
 70
     1
102
RTVSPropertyOp28
 70
     1
102
RTVSPropertyOp29
 70
     1
102
RTVSPropertyOp30
 70
     1
102
RTVSPropertyOp31
 70
     1
102
RTVSPropertyOp32
 70
     1
102
RTVSPropertyOp33
 70
     1
102
RTVSPropertyOp34
 70
     1
102
RTVSPropertyOp35
 70
     1
102
RTVSPropertyOp36
 70
     1
102
RTVSPropertyOp37
 70
     1
102
RTVSPropertyOp38
 70
     1
102
RTVSPropertyOp39
 70
     1
102
RTVSPropertyOp40
 70
     1
102
RTVSPropertyOp41
 70
     1
102
RTVSPropertyOp42
 70
     1
102
RTVSPropertyOp43
 70
     1
102
RTVSPropertyOp44
 70
     1
102
RTVSPropertyOp45
 70
     1
102
RTVSPropertyOp46
 70
     1
102
RTVSPropertyOp47
 70
     1
102
RTVSPropertyOp48
 70
     1
102
RTVSPropertyOp49
 70
     1
102
RTVSPropertyOp50
 70
     1
102
RTVSPropertyOp51
 70
     0
102
RTVSPropertyOp52
 70
     0
102
RTVSPropertyOp53
 70
     1
102
RTVSPropertyOp54
 70
     1
102
RTVSPropertyOp55
 70
     1
102
RTVSPropertyOp56
 70
     1
102
RTVSPropertyOp57
 70
     1
102
RTVSPropertyOp58
 70
     1
102
RTVSPropertyOp59
 70
     1
102
RTVSPropertyOp60
 70
     1
102
RTVSPropertyOp61
 70
     1
102
RTVSPropertyOp62
 70
     1
  0
XRECORD
  5
2187
102
{ACAD_REACTORS
330
2186
102
}
330
2186
100
AcDbXrecord
280
     1
102
RTVSPost2010Prop28
280
     0
102
RTVSPost2010PropOp28
 70
     1
102
RTVSPost2010Prop29
280
     1
102
RTVSPost2010PropOp29
 70
     1
102
RTVSPost2010Prop30
280
     1
102
RTVSPost2010PropOp30
 70
     1
102
RTVSPost2010Prop31
280
     0
102
RTVSPost2010PropOp31
 70
     1
102
RTVSPost2010Prop32
280
     0
102
RTVSPost2010PropOp32
 70
     1
102
RTVSPost2010Prop33
280
     0
102
RTVSPost2010PropOp33
 70
     1
102
RTVSPost2010Prop34
280
     0
102
RTVSPost2010PropOp34
 70
     1
102
RTVSPost2010Prop35
280
     0
102
RTVSPost2010PropOp35
 70
     1
102
RTVSPost2010Prop36
280
     0
102
RTVSPost2010PropOp36
 70
     1
102
RTVSPost2010Prop37
 90
       50
102
RTVSPost2010PropOp37
 70
     1
102
RTVSPost2010Prop38
140
0.0
102
RTVSPost2010PropOp38
 70
     1
102
RTVSPost2010Prop39
140
1.0
102
RTVSPost2010PropOp39
 70
     1
102
RTVSPost2010Prop40
 90
        0
102
RTVSPost2010PropOp40
 70
     1
102
RTVSPost2010Prop41ColorIndex
 90
       18
102
RTVSPost2010Prop41ColorRGB
 90
        0
102
RTVSPost2010PropOp41
 70
     1
102
RTVSPost2010Prop42
 90
       50
102
RTVSPost2010PropOp42
 70
     1
102
RTVSPost2010Prop43
 90
        3
102
RTVSPost2010PropOp43
 70
     1
102
RTVSPost2010Prop44ColorIndex
 90
        5
102
RTVSPost2010Prop44ColorRGB
 90
      255
102
RTVSPost2010PropOp44
 70
     1
102
RTVSPost2010Prop45
280
     0
102
RTVSPost2010PropOp45
 70
     1
102
RTVSPost2010Prop46
 90
       50
102
RTVSPost2010PropOp46
 70
     1
102
RTVSPost2010Prop47
 90
       50
102
RTVSPost2010PropOp47
 70
     1
102
RTVSPost2010Prop48
 90
       50
102
RTVSPost2010PropOp48
 70
     1
102
RTVSPost2010Prop49
280
     0
102
RTVSPost2010PropOp49
 70
     1
102
RTVSPost2010Prop50
 90
       50
102
RTVSPost2010PropOp50
 70
     1
102
RTVSPost2010Prop51ColorIndex
 90
      256
102
RTVSPost2010Prop51ColorRGB
 90
-16777216
102
RTVSPost2010PropOp51
 70
     0
102
RTVSPost2010Prop52
140
1.0
102
RTVSPost2010PropOp52
 70
     0
102
RTVSPost2010Prop53
 90
        2
102
RTVSPost2010PropOp53
 70
     1
102
RTVSPost2010Prop54
  1
strokes_ogs.tif
102
RTVSPost2010PropOp54
 70
     1
102
RTVSPost2010Prop55
280
     0
102
RTVSPost2010PropOp55
 70
     1
102
RTVSPost2010Prop56
140
1.0
102
RTVSPost2010PropOp56
 70
     1
102
RTVSPost2010Prop57
140
1.0
102
RTVSPost2010PropOp57
 70
     1
102
RTVSPropertyOp0
 70
     1
102
RTVSPropertyOp1
 70
     1
102
RTVSPropertyOp2
 70
     1
102
RTVSPropertyOp3
 70
     1
102
RTVSPropertyOp4
 70
     1
102
RTVSPropertyOp5
 70
     1
102
RTVSPropertyOp6
 70
     1
102
RTVSPropertyOp7
 70
     1
102
RTVSPropertyOp8
 70
     1
102
RTVSPropertyOp9
 70
     1
102
RTVSPropertyOp10
 70
     1
102
RTVSPropertyOp11
 70
     1
102
RTVSPropertyOp12
 70
     1
102
RTVSPropertyOp13
 70
     1
102
RTVSPropertyOp14
 70
     1
102
RTVSPropertyOp15
 70
     1
102
RTVSPropertyOp16
 70
     1
102
RTVSPropertyOp17
 70
     1
102
RTVSPropertyOp18
 70
     1
102
RTVSPropertyOp19
 70
     1
102
RTVSPropertyOp20
 70
     1
102
RTVSPropertyOp21
 70
     1
102
RTVSPropertyOp22
 70
     1
102
RTVSPropertyOp23
 70
     1
102
RTVSPropertyOp24
 70
     1
102
RTVSPropertyOp25
 70
     1
102
RTVSPropertyOp26
 70
     1
102
RTVSPropertyOp27
 70
     1
102
RTVSPropertyOp28
 70
     1
102
RTVSPropertyOp29
 70
     1
102
RTVSPropertyOp30
 70
     1
102
RTVSPropertyOp31
 70
     1
102
RTVSPropertyOp32
 70
     1
102
RTVSPropertyOp33
 70
     1
102
RTVSPropertyOp34
 70
     1
102
RTVSPropertyOp35
 70
     1
102
RTVSPropertyOp36
 70
     1
102
RTVSPropertyOp37
 70
     1
102
RTVSPropertyOp38
 70
     1
102
RTVSPropertyOp39
 70
     1
102
RTVSPropertyOp40
 70
     1
102
RTVSPropertyOp41
 70
     1
102
RTVSPropertyOp42
 70
     1
102
RTVSPropertyOp43
 70
     1
102
RTVSPropertyOp44
 70
     1
102
RTVSPropertyOp45
 70
     1
102
RTVSPropertyOp46
 70
     1
102
RTVSPropertyOp47
 70
     1
102
RTVSPropertyOp48
 70
     1
102
RTVSPropertyOp49
 70
     1
102
RTVSPropertyOp50
 70
     1
102
RTVSPropertyOp51
 70
     0
102
RTVSPropertyOp52
 70
     0
102
RTVSPropertyOp53
 70
     1
102
RTVSPropertyOp54
 70
     1
102
RTVSPropertyOp55
 70
     1
102
RTVSPropertyOp56
 70
     1
102
RTVSPropertyOp57
 70
     1
102
RTVSPropertyOp58
 70
     1
102
RTVSPropertyOp59
 70
     1
102
RTVSPropertyOp60
 70
     1
102
RTVSPropertyOp61
 70
     1
102
RTVSPropertyOp62
 70
     1
  0
XRECORD
  5
218B
102
{ACAD_REACTORS
330
218A
102
}
330
218A
100
AcDbXrecord
280
     1
102
RTVSPost2010Prop28
280
     0
102
RTVSPost2010PropOp28
 70
     1
102
RTVSPost2010Prop29
280
     1
102
RTVSPost2010PropOp29
 70
     1
102
RTVSPost2010Prop30
280
     1
102
RTVSPost2010PropOp30
 70
     1
102
RTVSPost2010Prop31
280
     0
102
RTVSPost2010PropOp31
 70
     1
102
RTVSPost2010Prop32
280
     0
102
RTVSPost2010PropOp32
 70
     1
102
RTVSPost2010Prop33
280
     0
102
RTVSPost2010PropOp33
 70
     1
102
RTVSPost2010Prop34
280
     0
102
RTVSPost2010PropOp34
 70
     1
102
RTVSPost2010Prop35
280
     0
102
RTVSPost2010PropOp35
 70
     1
102
RTVSPost2010Prop36
280
     0
102
RTVSPost2010PropOp36
 70
     1
102
RTVSPost2010Prop37
 90
       50
102
RTVSPost2010PropOp37
 70
     1
102
RTVSPost2010Prop38
140
0.0
102
RTVSPost2010PropOp38
 70
     1
102
RTVSPost2010Prop39
140
1.0
102
RTVSPost2010PropOp39
 70
     1
102
RTVSPost2010Prop40
 90
        0
102
RTVSPost2010PropOp40
 70
     1
102
RTVSPost2010Prop41ColorIndex
 90
       18
102
RTVSPost2010Prop41ColorRGB
 90
        0
102
RTVSPost2010PropOp41
 70
     1
102
RTVSPost2010Prop42
 90
       50
102
RTVSPost2010PropOp42
 70
     1
102
RTVSPost2010Prop43
 90
        3
102
RTVSPost2010PropOp43
 70
     1
102
RTVSPost2010Prop44ColorIndex
 90
        5
102
RTVSPost2010Prop44ColorRGB
 90
      255
102
RTVSPost2010PropOp44
 70
     1
102
RTVSPost2010Prop45
280
     0
102
RTVSPost2010PropOp45
 70
     1
102
RTVSPost2010Prop46
 90
       50
102
RTVSPost2010PropOp46
 70
     1
102
RTVSPost2010Prop47
 90
       50
102
RTVSPost2010PropOp47
 70
     1
102
RTVSPost2010Prop48
 90
       50
102
RTVSPost2010PropOp48
 70
     1
102
RTVSPost2010Prop49
280
     0
102
RTVSPost2010PropOp49
 70
     1
102
RTVSPost2010Prop50
 90
       50
102
RTVSPost2010PropOp50
 70
     1
102
RTVSPost2010Prop51ColorIndex
 90
      256
102
RTVSPost2010Prop51ColorRGB
 90
-16777216
102
RTVSPost2010PropOp51
 70
     0
102
RTVSPost2010Prop52
140
1.0
102
RTVSPost2010PropOp52
 70
     0
102
RTVSPost2010Prop53
 90
        2
102
RTVSPost2010PropOp53
 70
     1
102
RTVSPost2010Prop54
  1
strokes_ogs.tif
102
RTVSPost2010PropOp54
 70
     1
102
RTVSPost2010Prop55
280
     0
102
RTVSPost2010PropOp55
 70
     1
102
RTVSPost2010Prop56
140
1.0
102
RTVSPost2010PropOp56
 70
     1
102
RTVSPost2010Prop57
140
1.0
102
RTVSPost2010PropOp57
 70
     1
102
RTVSPropertyOp0
 70
     1
102
RTVSPropertyOp1
 70
     1
102
RTVSPropertyOp2
 70
     1
102
RTVSPropertyOp3
 70
     1
102
RTVSPropertyOp4
 70
     1
102
RTVSPropertyOp5
 70
     1
102
RTVSPropertyOp6
 70
     1
102
RTVSPropertyOp7
 70
     1
102
RTVSPropertyOp8
 70
     1
102
RTVSPropertyOp9
 70
     1
102
RTVSPropertyOp10
 70
     1
102
RTVSPropertyOp11
 70
     1
102
RTVSPropertyOp12
 70
     1
102
RTVSPropertyOp13
 70
     1
102
RTVSPropertyOp14
 70
     1
102
RTVSPropertyOp15
 70
     1
102
RTVSPropertyOp16
 70
     1
102
RTVSPropertyOp17
 70
     1
102
RTVSPropertyOp18
 70
     1
102
RTVSPropertyOp19
 70
     1
102
RTVSPropertyOp20
 70
     1
102
RTVSPropertyOp21
 70
     1
102
RTVSPropertyOp22
 70
     1
102
RTVSPropertyOp23
 70
     1
102
RTVSPropertyOp24
 70
     1
102
RTVSPropertyOp25
 70
     1
102
RTVSPropertyOp26
 70
     1
102
RTVSPropertyOp27
 70
     1
102
RTVSPropertyOp28
 70
     1
102
RTVSPropertyOp29
 70
     1
102
RTVSPropertyOp30
 70
     1
102
RTVSPropertyOp31
 70
     1
102
RTVSPropertyOp32
 70
     1
102
RTVSPropertyOp33
 70
     1
102
RTVSPropertyOp34
 70
     1
102
RTVSPropertyOp35
 70
     1
102
RTVSPropertyOp36
 70
     1
102
RTVSPropertyOp37
 70
     1
102
RTVSPropertyOp38
 70
     1
102
RTVSPropertyOp39
 70
     1
102
RTVSPropertyOp40
 70
     1
102
RTVSPropertyOp41
 70
     1
102
RTVSPropertyOp42
 70
     1
102
RTVSPropertyOp43
 70
     1
102
RTVSPropertyOp44
 70
     1
102
RTVSPropertyOp45
 70
     1
102
RTVSPropertyOp46
 70
     1
102
RTVSPropertyOp47
 70
     1
102
RTVSPropertyOp48
 70
     1
102
RTVSPropertyOp49
 70
     1
102
RTVSPropertyOp50
 70
     1
102
RTVSPropertyOp51
 70
     0
102
RTVSPropertyOp52
 70
     0
102
RTVSPropertyOp53
 70
     1
102
RTVSPropertyOp54
 70
     1
102
RTVSPropertyOp55
 70
     1
102
RTVSPropertyOp56
 70
     1
102
RTVSPropertyOp57
 70
     1
102
RTVSPropertyOp58
 70
     1
102
RTVSPropertyOp59
 70
     1
102
RTVSPropertyOp60
 70
     1
102
RTVSPropertyOp61
 70
     1
102
RTVSPropertyOp62
 70
     1
  0
XRECORD
  5
21A5
102
{ACAD_REACTORS
330
21A4
102
}
330
21A4
100
AcDbXrecord
280
     1
102
RTVSPost2010Prop28
280
     0
102
RTVSPost2010PropOp28
 70
     1
102
RTVSPost2010Prop29
280
     1
102
RTVSPost2010PropOp29
 70
     1
102
RTVSPost2010Prop30
280
     1
102
RTVSPost2010PropOp30
 70
     1
102
RTVSPost2010Prop31
280
     0
102
RTVSPost2010PropOp31
 70
     1
102
RTVSPost2010Prop32
280
     0
102
RTVSPost2010PropOp32
 70
     1
102
RTVSPost2010Prop33
280
     0
102
RTVSPost2010PropOp33
 70
     1
102
RTVSPost2010Prop34
280
     0
102
RTVSPost2010PropOp34
 70
     1
102
RTVSPost2010Prop35
280
     0
102
RTVSPost2010PropOp35
 70
     1
102
RTVSPost2010Prop36
280
     0
102
RTVSPost2010PropOp36
 70
     1
102
RTVSPost2010Prop37
 90
       50
102
RTVSPost2010PropOp37
 70
     0
102
RTVSPost2010Prop38
140
0.0
102
RTVSPost2010PropOp38
 70
     0
102
RTVSPost2010Prop39
140
1.0
102
RTVSPost2010PropOp39
 70
     0
102
RTVSPost2010Prop40
 90
        0
102
RTVSPost2010PropOp40
 70
     0
102
RTVSPost2010Prop41ColorIndex
 90
       18
102
RTVSPost2010Prop41ColorRGB
 90
        0
102
RTVSPost2010PropOp41
 70
     0
102
RTVSPost2010Prop42
 90
       50
102
RTVSPost2010PropOp42
 70
     0
102
RTVSPost2010Prop43
 90
        3
102
RTVSPost2010PropOp43
 70
     0
102
RTVSPost2010Prop44ColorIndex
 90
        5
102
RTVSPost2010Prop44ColorRGB
 90
      255
102
RTVSPost2010PropOp44
 70
     0
102
RTVSPost2010Prop45
280
     0
102
RTVSPost2010PropOp45
 70
     1
102
RTVSPost2010Prop46
 90
       50
102
RTVSPost2010PropOp46
 70
     0
102
RTVSPost2010Prop47
 90
       50
102
RTVSPost2010PropOp47
 70
     0
102
RTVSPost2010Prop48
 90
       50
102
RTVSPost2010PropOp48
 70
     0
102
RTVSPost2010Prop49
280
     0
102
RTVSPost2010PropOp49
 70
     1
102
RTVSPost2010Prop50
 90
       50
102
RTVSPost2010PropOp50
 70
     0
102
RTVSPost2010Prop51ColorIndex
 90
      256
102
RTVSPost2010Prop51ColorRGB
 90
-16777216
102
RTVSPost2010PropOp51
 70
     0
102
RTVSPost2010Prop52
140
1.0
102
RTVSPost2010PropOp52
 70
     0
102
RTVSPost2010Prop53
 90
        2
102
RTVSPost2010PropOp53
 70
     0
102
RTVSPost2010Prop54
  1
strokes_ogs.tif
102
RTVSPost2010PropOp54
 70
     0
102
RTVSPost2010Prop55
280
     0
102
RTVSPost2010PropOp55
 70
     1
102
RTVSPost2010Prop56
140
1.0
102
RTVSPost2010PropOp56
 70
     0
102
RTVSPost2010Prop57
140
1.0
102
RTVSPost2010PropOp57
 70
     0
102
RTVSPropertyOp0
 70
     0
102
RTVSPropertyOp1
 70
     0
102
RTVSPropertyOp2
 70
     0
102
RTVSPropertyOp3
 70
     0
102
RTVSPropertyOp4
 70
     0
102
RTVSPropertyOp5
 70
     0
102
RTVSPropertyOp6
 70
     0
102
RTVSPropertyOp7
 70
     0
102
RTVSPropertyOp8
 70
     0
102
RTVSPropertyOp9
 70
     0
102
RTVSPropertyOp10
 70
     0
102
RTVSPropertyOp11
 70
     0
102
RTVSPropertyOp12
 70
     0
102
RTVSPropertyOp13
 70
     0
102
RTVSPropertyOp14
 70
     2
102
RTVSPropertyOp15
 70
     0
102
RTVSPropertyOp16
 70
     0
102
RTVSPropertyOp17
 70
     0
102
RTVSPropertyOp18
 70
     0
102
RTVSPropertyOp19
 70
     0
102
RTVSPropertyOp20
 70
     0
102
RTVSPropertyOp21
 70
     0
102
RTVSPropertyOp22
 70
     0
102
RTVSPropertyOp23
 70
     0
102
RTVSPropertyOp24
 70
     0
102
RTVSPropertyOp25
 70
     0
102
RTVSPropertyOp26
 70
     0
102
RTVSPropertyOp27
 70
     0
102
RTVSPropertyOp28
 70
     1
102
RTVSPropertyOp29
 70
     1
102
RTVSPropertyOp30
 70
     1
102
RTVSPropertyOp31
 70
     1
102
RTVSPropertyOp32
 70
     1
102
RTVSPropertyOp33
 70
     1
102
RTVSPropertyOp34
 70
     1
102
RTVSPropertyOp35
 70
     1
102
RTVSPropertyOp36
 70
     1
102
RTVSPropertyOp37
 70
     0
102
RTVSPropertyOp38
 70
     0
102
RTVSPropertyOp39
 70
     0
102
RTVSPropertyOp40
 70
     0
102
RTVSPropertyOp41
 70
     0
102
RTVSPropertyOp42
 70
     0
102
RTVSPropertyOp43
 70
     0
102
RTVSPropertyOp44
 70
     0
102
RTVSPropertyOp45
 70
     1
102
RTVSPropertyOp46
 70
     0
102
RTVSPropertyOp47
 70
     0
102
RTVSPropertyOp48
 70
     0
102
RTVSPropertyOp49
 70
     1
102
RTVSPropertyOp50
 70
     0
102
RTVSPropertyOp51
 70
     0
102
RTVSPropertyOp52
 70
     0
102
RTVSPropertyOp53
 70
     0
102
RTVSPropertyOp54
 70
     0
102
RTVSPropertyOp55
 70
     1
102
RTVSPropertyOp56
 70
     0
102
RTVSPropertyOp57
 70
     0
102
RTVSPropertyOp58
 70
     0
102
RTVSPropertyOp59
 70
     0
102
RTVSPropertyOp60
 70
     0
102
RTVSPropertyOp61
 70
     0
102
RTVSPropertyOp62
 70
     0
  0
XRECORD
  5
2193
102
{ACAD_REACTORS
330
2192
102
}
330
2192
100
AcDbXrecord
280
     1
102
RTVSPost2010Prop28
280
     0
102
RTVSPost2010PropOp28
 70
     1
102
RTVSPost2010Prop29
280
     1
102
RTVSPost2010PropOp29
 70
     1
102
RTVSPost2010Prop30
280
     1
102
RTVSPost2010PropOp30
 70
     1
102
RTVSPost2010Prop31
280
     0
102
RTVSPost2010PropOp31
 70
     1
102
RTVSPost2010Prop32
280
     0
102
RTVSPost2010PropOp32
 70
     1
102
RTVSPost2010Prop33
280
     0
102
RTVSPost2010PropOp33
 70
     1
102
RTVSPost2010Prop34
280
     0
102
RTVSPost2010PropOp34
 70
     1
102
RTVSPost2010Prop35
280
     0
102
RTVSPost2010PropOp35
 70
     1
102
RTVSPost2010Prop36
280
     0
102
RTVSPost2010PropOp36
 70
     1
102
RTVSPost2010Prop37
 90
       50
102
RTVSPost2010PropOp37
 70
     1
102
RTVSPost2010Prop38
140
0.0
102
RTVSPost2010PropOp38
 70
     1
102
RTVSPost2010Prop39
140
1.0
102
RTVSPost2010PropOp39
 70
     1
102
RTVSPost2010Prop40
 90
        0
102
RTVSPost2010PropOp40
 70
     1
102
RTVSPost2010Prop41ColorIndex
 90
       18
102
RTVSPost2010Prop41ColorRGB
 90
        0
102
RTVSPost2010PropOp41
 70
     1
102
RTVSPost2010Prop42
 90
       50
102
RTVSPost2010PropOp42
 70
     1
102
RTVSPost2010Prop43
 90
        3
102
RTVSPost2010PropOp43
 70
     1
102
RTVSPost2010Prop44ColorIndex
 90
        5
102
RTVSPost2010Prop44ColorRGB
 90
      255
102
RTVSPost2010PropOp44
 70
     1
102
RTVSPost2010Prop45
280
     0
102
RTVSPost2010PropOp45
 70
     1
102
RTVSPost2010Prop46
 90
       50
102
RTVSPost2010PropOp46
 70
     1
102
RTVSPost2010Prop47
 90
       50
102
RTVSPost2010PropOp47
 70
     1
102
RTVSPost2010Prop48
 90
       50
102
RTVSPost2010PropOp48
 70
     1
102
RTVSPost2010Prop49
280
     0
102
RTVSPost2010PropOp49
 70
     1
102
RTVSPost2010Prop50
 90
       50
102
RTVSPost2010PropOp50
 70
     1
102
RTVSPost2010Prop51ColorIndex
 90
      256
102
RTVSPost2010Prop51ColorRGB
 90
-16777216
102
RTVSPost2010PropOp51
 70
     0
102
RTVSPost2010Prop52
140
1.0
102
RTVSPost2010PropOp52
 70
     0
102
RTVSPost2010Prop53
 90
        2
102
RTVSPost2010PropOp53
 70
     1
102
RTVSPost2010Prop54
  1
strokes_ogs.tif
102
RTVSPost2010PropOp54
 70
     1
102
RTVSPost2010Prop55
280
     0
102
RTVSPost2010PropOp55
 70
     1
102
RTVSPost2010Prop56
140
1.0
102
RTVSPost2010PropOp56
 70
     1
102
RTVSPost2010Prop57
140
1.0
102
RTVSPost2010PropOp57
 70
     1
102
RTVSPropertyOp0
 70
     1
102
RTVSPropertyOp1
 70
     1
102
RTVSPropertyOp2
 70
     1
102
RTVSPropertyOp3
 70
     1
102
RTVSPropertyOp4
 70
     1
102
RTVSPropertyOp5
 70
     1
102
RTVSPropertyOp6
 70
     1
102
RTVSPropertyOp7
 70
     1
102
RTVSPropertyOp8
 70
     1
102
RTVSPropertyOp9
 70
     1
102
RTVSPropertyOp10
 70
     1
102
RTVSPropertyOp11
 70
     1
102
RTVSPropertyOp12
 70
     1
102
RTVSPropertyOp13
 70
     1
102
RTVSPropertyOp14
 70
     1
102
RTVSPropertyOp15
 70
     1
102
RTVSPropertyOp16
 70
     1
102
RTVSPropertyOp17
 70
     1
102
RTVSPropertyOp18
 70
     1
102
RTVSPropertyOp19
 70
     1
102
RTVSPropertyOp20
 70
     1
102
RTVSPropertyOp21
 70
     1
102
RTVSPropertyOp22
 70
     1
102
RTVSPropertyOp23
 70
     1
102
RTVSPropertyOp24
 70
     1
102
RTVSPropertyOp25
 70
     1
102
RTVSPropertyOp26
 70
     1
102
RTVSPropertyOp27
 70
     1
102
RTVSPropertyOp28
 70
     1
102
RTVSPropertyOp29
 70
     1
102
RTVSPropertyOp30
 70
     1
102
RTVSPropertyOp31
 70
     1
102
RTVSPropertyOp32
 70
     1
102
RTVSPropertyOp33
 70
     1
102
RTVSPropertyOp34
 70
     1
102
RTVSPropertyOp35
 70
     1
102
RTVSPropertyOp36
 70
     1
102
RTVSPropertyOp37
 70
     1
102
RTVSPropertyOp38
 70
     1
102
RTVSPropertyOp39
 70
     1
102
RTVSPropertyOp40
 70
     1
102
RTVSPropertyOp41
 70
     1
102
RTVSPropertyOp42
 70
     1
102
RTVSPropertyOp43
 70
     1
102
RTVSPropertyOp44
 70
     1
102
RTVSPropertyOp45
 70
     1
102
RTVSPropertyOp46
 70
     1
102
RTVSPropertyOp47
 70
     1
102
RTVSPropertyOp48
 70
     1
102
RTVSPropertyOp49
 70
     1
102
RTVSPropertyOp50
 70
     1
102
RTVSPropertyOp51
 70
     0
102
RTVSPropertyOp52
 70
     0
102
RTVSPropertyOp53
 70
     1
102
RTVSPropertyOp54
 70
     1
102
RTVSPropertyOp55
 70
     1
102
RTVSPropertyOp56
 70
     1
102
RTVSPropertyOp57
 70
     1
102
RTVSPropertyOp58
 70
     1
102
RTVSPropertyOp59
 70
     1
102
RTVSPropertyOp60
 70
     1
102
RTVSPropertyOp61
 70
     1
102
RTVSPropertyOp62
 70
     1
  0
XRECORD
  5
2177
102
{ACAD_REACTORS
330
2176
102
}
330
2176
100
AcDbXrecord
280
     1
102
RTVSPost2010Prop28
280
     0
102
RTVSPost2010PropOp28
 70
     1
102
RTVSPost2010Prop29
280
     1
102
RTVSPost2010PropOp29
 70
     1
102
RTVSPost2010Prop30
280
     1
102
RTVSPost2010PropOp30
 70
     1
102
RTVSPost2010Prop31
280
     0
102
RTVSPost2010PropOp31
 70
     1
102
RTVSPost2010Prop32
280
     0
102
RTVSPost2010PropOp32
 70
     1
102
RTVSPost2010Prop33
280
     0
102
RTVSPost2010PropOp33
 70
     1
102
RTVSPost2010Prop34
280
     0
102
RTVSPost2010PropOp34
 70
     1
102
RTVSPost2010Prop35
280
     0
102
RTVSPost2010PropOp35
 70
     1
102
RTVSPost2010Prop36
280
     0
102
RTVSPost2010PropOp36
 70
     1
102
RTVSPost2010Prop37
 90
       50
102
RTVSPost2010PropOp37
 70
     1
102
RTVSPost2010Prop38
140
0.0
102
RTVSPost2010PropOp38
 70
     1
102
RTVSPost2010Prop39
140
1.0
102
RTVSPost2010PropOp39
 70
     1
102
RTVSPost2010Prop40
 90
        0
102
RTVSPost2010PropOp40
 70
     1
102
RTVSPost2010Prop41ColorIndex
 90
       18
102
RTVSPost2010Prop41ColorRGB
 90
        0
102
RTVSPost2010PropOp41
 70
     1
102
RTVSPost2010Prop42
 90
       50
102
RTVSPost2010PropOp42
 70
     1
102
RTVSPost2010Prop43
 90
        3
102
RTVSPost2010PropOp43
 70
     1
102
RTVSPost2010Prop44ColorIndex
 90
        5
102
RTVSPost2010Prop44ColorRGB
 90
      255
102
RTVSPost2010PropOp44
 70
     1
102
RTVSPost2010Prop45
280
     0
102
RTVSPost2010PropOp45
 70
     1
102
RTVSPost2010Prop46
 90
       50
102
RTVSPost2010PropOp46
 70
     1
102
RTVSPost2010Prop47
 90
       50
102
RTVSPost2010PropOp47
 70
     1
102
RTVSPost2010Prop48
 90
       50
102
RTVSPost2010PropOp48
 70
     1
102
RTVSPost2010Prop49
280
     0
102
RTVSPost2010PropOp49
 70
     1
102
RTVSPost2010Prop50
 90
       50
102
RTVSPost2010PropOp50
 70
     1
102
RTVSPost2010Prop51ColorIndex
 90
      256
102
RTVSPost2010Prop51ColorRGB
 90
-16777216
102
RTVSPost2010PropOp51
 70
     0
102
RTVSPost2010Prop52
140
1.0
102
RTVSPost2010PropOp52
 70
     0
102
RTVSPost2010Prop53
 90
        2
102
RTVSPost2010PropOp53
 70
     1
102
RTVSPost2010Prop54
  1
strokes_ogs.tif
102
RTVSPost2010PropOp54
 70
     1
102
RTVSPost2010Prop55
280
     0
102
RTVSPost2010PropOp55
 70
     1
102
RTVSPost2010Prop56
140
1.0
102
RTVSPost2010PropOp56
 70
     1
102
RTVSPost2010Prop57
140
1.0
102
RTVSPost2010PropOp57
 70
     1
102
RTVSPropertyOp0
 70
     1
102
RTVSPropertyOp1
 70
     1
102
RTVSPropertyOp2
 70
     1
102
RTVSPropertyOp3
 70
     1
102
RTVSPropertyOp4
 70
     1
102
RTVSPropertyOp5
 70
     1
102
RTVSPropertyOp6
 70
     1
102
RTVSPropertyOp7
 70
     1
102
RTVSPropertyOp8
 70
     1
102
RTVSPropertyOp9
 70
     1
102
RTVSPropertyOp10
 70
     1
102
RTVSPropertyOp11
 70
     1
102
RTVSPropertyOp12
 70
     1
102
RTVSPropertyOp13
 70
     1
102
RTVSPropertyOp14
 70
     1
102
RTVSPropertyOp15
 70
     1
102
RTVSPropertyOp16
 70
     1
102
RTVSPropertyOp17
 70
     1
102
RTVSPropertyOp18
 70
     1
102
RTVSPropertyOp19
 70
     1
102
RTVSPropertyOp20
 70
     1
102
RTVSPropertyOp21
 70
     1
102
RTVSPropertyOp22
 70
     1
102
RTVSPropertyOp23
 70
     1
102
RTVSPropertyOp24
 70
     1
102
RTVSPropertyOp25
 70
     1
102
RTVSPropertyOp26
 70
     1
102
RTVSPropertyOp27
 70
     1
102
RTVSPropertyOp28
 70
     1
102
RTVSPropertyOp29
 70
     1
102
RTVSPropertyOp30
 70
     1
102
RTVSPropertyOp31
 70
     1
102
RTVSPropertyOp32
 70
     1
102
RTVSPropertyOp33
 70
     1
102
RTVSPropertyOp34
 70
     1
102
RTVSPropertyOp35
 70
     1
102
RTVSPropertyOp36
 70
     1
102
RTVSPropertyOp37
 70
     1
102
RTVSPropertyOp38
 70
     1
102
RTVSPropertyOp39
 70
     1
102
RTVSPropertyOp40
 70
     1
102
RTVSPropertyOp41
 70
     1
102
RTVSPropertyOp42
 70
     1
102
RTVSPropertyOp43
 70
     1
102
RTVSPropertyOp44
 70
     1
102
RTVSPropertyOp45
 70
     1
102
RTVSPropertyOp46
 70
     1
102
RTVSPropertyOp47
 70
     1
102
RTVSPropertyOp48
 70
     1
102
RTVSPropertyOp49
 70
     1
102
RTVSPropertyOp50
 70
     1
102
RTVSPropertyOp51
 70
     0
102
RTVSPropertyOp52
 70
     0
102
RTVSPropertyOp53
 70
     1
102
RTVSPropertyOp54
 70
     1
102
RTVSPropertyOp55
 70
     1
102
RTVSPropertyOp56
 70
     1
102
RTVSPropertyOp57
 70
     1
102
RTVSPropertyOp58
 70
     1
102
RTVSPropertyOp59
 70
     1
102
RTVSPropertyOp60
 70
     1
102
RTVSPropertyOp61
 70
     1
102
RTVSPropertyOp62
 70
     1
  0
XRECORD
  5
2179
102
{ACAD_REACTORS
330
2178
102
}
330
2178
100
AcDbXrecord
280
     1
102
RTVSPost2010Prop28
280
     0
102
RTVSPost2010PropOp28
 70
     1
102
RTVSPost2010Prop29
280
     1
102
RTVSPost2010PropOp29
 70
     1
102
RTVSPost2010Prop30
280
     1
102
RTVSPost2010PropOp30
 70
     1
102
RTVSPost2010Prop31
280
     0
102
RTVSPost2010PropOp31
 70
     1
102
RTVSPost2010Prop32
280
     0
102
RTVSPost2010PropOp32
 70
     1
102
RTVSPost2010Prop33
280
     0
102
RTVSPost2010PropOp33
 70
     1
102
RTVSPost2010Prop34
280
     0
102
RTVSPost2010PropOp34
 70
     1
102
RTVSPost2010Prop35
280
     0
102
RTVSPost2010PropOp35
 70
     1
102
RTVSPost2010Prop36
280
     0
102
RTVSPost2010PropOp36
 70
     1
102
RTVSPost2010Prop37
 90
       50
102
RTVSPost2010PropOp37
 70
     1
102
RTVSPost2010Prop38
140
0.0
102
RTVSPost2010PropOp38
 70
     1
102
RTVSPost2010Prop39
140
1.0
102
RTVSPost2010PropOp39
 70
     1
102
RTVSPost2010Prop40
 90
        0
102
RTVSPost2010PropOp40
 70
     1
102
RTVSPost2010Prop41ColorIndex
 90
       18
102
RTVSPost2010Prop41ColorRGB
 90
        0
102
RTVSPost2010PropOp41
 70
     1
102
RTVSPost2010Prop42
 90
       50
102
RTVSPost2010PropOp42
 70
     1
102
RTVSPost2010Prop43
 90
        3
102
RTVSPost2010PropOp43
 70
     1
102
RTVSPost2010Prop44ColorIndex
 90
        5
102
RTVSPost2010Prop44ColorRGB
 90
      255
102
RTVSPost2010PropOp44
 70
     1
102
RTVSPost2010Prop45
280
     0
102
RTVSPost2010PropOp45
 70
     1
102
RTVSPost2010Prop46
 90
       50
102
RTVSPost2010PropOp46
 70
     1
102
RTVSPost2010Prop47
 90
       50
102
RTVSPost2010PropOp47
 70
     1
102
RTVSPost2010Prop48
 90
       50
102
RTVSPost2010PropOp48
 70
     1
102
RTVSPost2010Prop49
280
     0
102
RTVSPost2010PropOp49
 70
     1
102
RTVSPost2010Prop50
 90
       50
102
RTVSPost2010PropOp50
 70
     1
102
RTVSPost2010Prop51ColorIndex
 90
      256
102
RTVSPost2010Prop51ColorRGB
 90
-16777216
102
RTVSPost2010PropOp51
 70
     0
102
RTVSPost2010Prop52
140
1.0
102
RTVSPost2010PropOp52
 70
     0
102
RTVSPost2010Prop53
 90
        2
102
RTVSPost2010PropOp53
 70
     1
102
RTVSPost2010Prop54
  1
strokes_ogs.tif
102
RTVSPost2010PropOp54
 70
     1
102
RTVSPost2010Prop55
280
     0
102
RTVSPost2010PropOp55
 70
     1
102
RTVSPost2010Prop56
140
1.0
102
RTVSPost2010PropOp56
 70
     1
102
RTVSPost2010Prop57
140
1.0
102
RTVSPost2010PropOp57
 70
     1
102
RTVSPropertyOp0
 70
     1
102
RTVSPropertyOp1
 70
     1
102
RTVSPropertyOp2
 70
     1
102
RTVSPropertyOp3
 70
     1
102
RTVSPropertyOp4
 70
     1
102
RTVSPropertyOp5
 70
     1
102
RTVSPropertyOp6
 70
     1
102
RTVSPropertyOp7
 70
     1
102
RTVSPropertyOp8
 70
     1
102
RTVSPropertyOp9
 70
     1
102
RTVSPropertyOp10
 70
     1
102
RTVSPropertyOp11
 70
     1
102
RTVSPropertyOp12
 70
     1
102
RTVSPropertyOp13
 70
     1
102
RTVSPropertyOp14
 70
     1
102
RTVSPropertyOp15
 70
     1
102
RTVSPropertyOp16
 70
     1
102
RTVSPropertyOp17
 70
     1
102
RTVSPropertyOp18
 70
     1
102
RTVSPropertyOp19
 70
     1
102
RTVSPropertyOp20
 70
     1
102
RTVSPropertyOp21
 70
     1
102
RTVSPropertyOp22
 70
     1
102
RTVSPropertyOp23
 70
     1
102
RTVSPropertyOp24
 70
     1
102
RTVSPropertyOp25
 70
     1
102
RTVSPropertyOp26
 70
     1
102
RTVSPropertyOp27
 70
     1
102
RTVSPropertyOp28
 70
     1
102
RTVSPropertyOp29
 70
     1
102
RTVSPropertyOp30
 70
     1
102
RTVSPropertyOp31
 70
     1
102
RTVSPropertyOp32
 70
     1
102
RTVSPropertyOp33
 70
     1
102
RTVSPropertyOp34
 70
     1
102
RTVSPropertyOp35
 70
     1
102
RTVSPropertyOp36
 70
     1
102
RTVSPropertyOp37
 70
     1
102
RTVSPropertyOp38
 70
     1
102
RTVSPropertyOp39
 70
     1
102
RTVSPropertyOp40
 70
     1
102
RTVSPropertyOp41
 70
     1
102
RTVSPropertyOp42
 70
     1
102
RTVSPropertyOp43
 70
     1
102
RTVSPropertyOp44
 70
     1
102
RTVSPropertyOp45
 70
     1
102
RTVSPropertyOp46
 70
     1
102
RTVSPropertyOp47
 70
     1
102
RTVSPropertyOp48
 70
     1
102
RTVSPropertyOp49
 70
     1
102
RTVSPropertyOp50
 70
     1
102
RTVSPropertyOp51
 70
     0
102
RTVSPropertyOp52
 70
     0
102
RTVSPropertyOp53
 70
     1
102
RTVSPropertyOp54
 70
     1
102
RTVSPropertyOp55
 70
     1
102
RTVSPropertyOp56
 70
     1
102
RTVSPropertyOp57
 70
     1
102
RTVSPropertyOp58
 70
     1
102
RTVSPropertyOp59
 70
     1
102
RTVSPropertyOp60
 70
     1
102
RTVSPropertyOp61
 70
     1
102
RTVSPropertyOp62
 70
     1
  0
XRECORD
  5
217B
102
{ACAD_REACTORS
330
217A
102
}
330
217A
100
AcDbXrecord
280
     1
102
RTVSPost2010Prop28
280
     0
102
RTVSPost2010PropOp28
 70
     1
102
RTVSPost2010Prop29
280
     1
102
RTVSPost2010PropOp29
 70
     1
102
RTVSPost2010Prop30
280
     1
102
RTVSPost2010PropOp30
 70
     1
102
RTVSPost2010Prop31
280
     0
102
RTVSPost2010PropOp31
 70
     1
102
RTVSPost2010Prop32
280
     0
102
RTVSPost2010PropOp32
 70
     1
102
RTVSPost2010Prop33
280
     0
102
RTVSPost2010PropOp33
 70
     1
102
RTVSPost2010Prop34
280
     0
102
RTVSPost2010PropOp34
 70
     1
102
RTVSPost2010Prop35
280
     0
102
RTVSPost2010PropOp35
 70
     1
102
RTVSPost2010Prop36
280
     0
102
RTVSPost2010PropOp36
 70
     1
102
RTVSPost2010Prop37
 90
       50
102
RTVSPost2010PropOp37
 70
     1
102
RTVSPost2010Prop38
140
0.0
102
RTVSPost2010PropOp38
 70
     1
102
RTVSPost2010Prop39
140
1.0
102
RTVSPost2010PropOp39
 70
     1
102
RTVSPost2010Prop40
 90
        0
102
RTVSPost2010PropOp40
 70
     1
102
RTVSPost2010Prop41ColorIndex
 90
       18
102
RTVSPost2010Prop41ColorRGB
 90
        0
102
RTVSPost2010PropOp41
 70
     1
102
RTVSPost2010Prop42
 90
       50
102
RTVSPost2010PropOp42
 70
     1
102
RTVSPost2010Prop43
 90
        3
102
RTVSPost2010PropOp43
 70
     1
102
RTVSPost2010Prop44ColorIndex
 90
        5
102
RTVSPost2010Prop44ColorRGB
 90
      255
102
RTVSPost2010PropOp44
 70
     1
102
RTVSPost2010Prop45
280
     0
102
RTVSPost2010PropOp45
 70
     1
102
RTVSPost2010Prop46
 90
       50
102
RTVSPost2010PropOp46
 70
     1
102
RTVSPost2010Prop47
 90
       50
102
RTVSPost2010PropOp47
 70
     1
102
RTVSPost2010Prop48
 90
       50
102
RTVSPost2010PropOp48
 70
     1
102
RTVSPost2010Prop49
280
     0
102
RTVSPost2010PropOp49
 70
     1
102
RTVSPost2010Prop50
 90
       50
102
RTVSPost2010PropOp50
 70
     1
102
RTVSPost2010Prop51ColorIndex
 90
      256
102
RTVSPost2010Prop51ColorRGB
 90
-16777216
102
RTVSPost2010PropOp51
 70
     0
102
RTVSPost2010Prop52
140
1.0
102
RTVSPost2010PropOp52
 70
     0
102
RTVSPost2010Prop53
 90
        2
102
RTVSPost2010PropOp53
 70
     1
102
RTVSPost2010Prop54
  1
strokes_ogs.tif
102
RTVSPost2010PropOp54
 70
     1
102
RTVSPost2010Prop55
280
     0
102
RTVSPost2010PropOp55
 70
     1
102
RTVSPost2010Prop56
140
1.0
102
RTVSPost2010PropOp56
 70
     1
102
RTVSPost2010Prop57
140
1.0
102
RTVSPost2010PropOp57
 70
     1
102
RTVSPropertyOp0
 70
     1
102
RTVSPropertyOp1
 70
     1
102
RTVSPropertyOp2
 70
     1
102
RTVSPropertyOp3
 70
     1
102
RTVSPropertyOp4
 70
     1
102
RTVSPropertyOp5
 70
     1
102
RTVSPropertyOp6
 70
     1
102
RTVSPropertyOp7
 70
     1
102
RTVSPropertyOp8
 70
     1
102
RTVSPropertyOp9
 70
     1
102
RTVSPropertyOp10
 70
     1
102
RTVSPropertyOp11
 70
     1
102
RTVSPropertyOp12
 70
     1
102
RTVSPropertyOp13
 70
     1
102
RTVSPropertyOp14
 70
     1
102
RTVSPropertyOp15
 70
     1
102
RTVSPropertyOp16
 70
     1
102
RTVSPropertyOp17
 70
     1
102
RTVSPropertyOp18
 70
     1
102
RTVSPropertyOp19
 70
     1
102
RTVSPropertyOp20
 70
     1
102
RTVSPropertyOp21
 70
     1
102
RTVSPropertyOp22
 70
     1
102
RTVSPropertyOp23
 70
     1
102
RTVSPropertyOp24
 70
     1
102
RTVSPropertyOp25
 70
     1
102
RTVSPropertyOp26
 70
     1
102
RTVSPropertyOp27
 70
     1
102
RTVSPropertyOp28
 70
     1
102
RTVSPropertyOp29
 70
     1
102
RTVSPropertyOp30
 70
     1
102
RTVSPropertyOp31
 70
     1
102
RTVSPropertyOp32
 70
     1
102
RTVSPropertyOp33
 70
     1
102
RTVSPropertyOp34
 70
     1
102
RTVSPropertyOp35
 70
     1
102
RTVSPropertyOp36
 70
     1
102
RTVSPropertyOp37
 70
     1
102
RTVSPropertyOp38
 70
     1
102
RTVSPropertyOp39
 70
     1
102
RTVSPropertyOp40
 70
     1
102
RTVSPropertyOp41
 70
     1
102
RTVSPropertyOp42
 70
     1
102
RTVSPropertyOp43
 70
     1
102
RTVSPropertyOp44
 70
     1
102
RTVSPropertyOp45
 70
     1
102
RTVSPropertyOp46
 70
     1
102
RTVSPropertyOp47
 70
     1
102
RTVSPropertyOp48
 70
     1
102
RTVSPropertyOp49
 70
     1
102
RTVSPropertyOp50
 70
     1
102
RTVSPropertyOp51
 70
     0
102
RTVSPropertyOp52
 70
     0
102
RTVSPropertyOp53
 70
     1
102
RTVSPropertyOp54
 70
     1
102
RTVSPropertyOp55
 70
     1
102
RTVSPropertyOp56
 70
     1
102
RTVSPropertyOp57
 70
     1
102
RTVSPropertyOp58
 70
     1
102
RTVSPropertyOp59
 70
     1
102
RTVSPropertyOp60
 70
     1
102
RTVSPropertyOp61
 70
     1
102
RTVSPropertyOp62
 70
     1
  0
XRECORD
  5
217D
102
{ACAD_REACTORS
330
217C
102
}
330
217C
100
AcDbXrecord
280
     1
102
RTVSPost2010Prop28
280
     0
102
RTVSPost2010PropOp28
 70
     1
102
RTVSPost2010Prop29
280
     1
102
RTVSPost2010PropOp29
 70
     1
102
RTVSPost2010Prop30
280
     1
102
RTVSPost2010PropOp30
 70
     1
102
RTVSPost2010Prop31
280
     0
102
RTVSPost2010PropOp31
 70
     1
102
RTVSPost2010Prop32
280
     0
102
RTVSPost2010PropOp32
 70
     1
102
RTVSPost2010Prop33
280
     0
102
RTVSPost2010PropOp33
 70
     1
102
RTVSPost2010Prop34
280
     0
102
RTVSPost2010PropOp34
 70
     1
102
RTVSPost2010Prop35
280
     0
102
RTVSPost2010PropOp35
 70
     1
102
RTVSPost2010Prop36
280
     0
102
RTVSPost2010PropOp36
 70
     1
102
RTVSPost2010Prop37
 90
       50
102
RTVSPost2010PropOp37
 70
     1
102
RTVSPost2010Prop38
140
0.0
102
RTVSPost2010PropOp38
 70
     1
102
RTVSPost2010Prop39
140
1.0
102
RTVSPost2010PropOp39
 70
     1
102
RTVSPost2010Prop40
 90
        0
102
RTVSPost2010PropOp40
 70
     1
102
RTVSPost2010Prop41ColorIndex
 90
       18
102
RTVSPost2010Prop41ColorRGB
 90
        0
102
RTVSPost2010PropOp41
 70
     1
102
RTVSPost2010Prop42
 90
       50
102
RTVSPost2010PropOp42
 70
     1
102
RTVSPost2010Prop43
 90
        3
102
RTVSPost2010PropOp43
 70
     1
102
RTVSPost2010Prop44ColorIndex
 90
        5
102
RTVSPost2010Prop44ColorRGB
 90
      255
102
RTVSPost2010PropOp44
 70
     1
102
RTVSPost2010Prop45
280
     0
102
RTVSPost2010PropOp45
 70
     1
102
RTVSPost2010Prop46
 90
       50
102
RTVSPost2010PropOp46
 70
     1
102
RTVSPost2010Prop47
 90
       50
102
RTVSPost2010PropOp47
 70
     1
102
RTVSPost2010Prop48
 90
       50
102
RTVSPost2010PropOp48
 70
     1
102
RTVSPost2010Prop49
280
     0
102
RTVSPost2010PropOp49
 70
     1
102
RTVSPost2010Prop50
 90
       50
102
RTVSPost2010PropOp50
 70
     1
102
RTVSPost2010Prop51ColorIndex
 90
      256
102
RTVSPost2010Prop51ColorRGB
 90
-16777216
102
RTVSPost2010PropOp51
 70
     0
102
RTVSPost2010Prop52
140
1.0
102
RTVSPost2010PropOp52
 70
     0
102
RTVSPost2010Prop53
 90
        2
102
RTVSPost2010PropOp53
 70
     1
102
RTVSPost2010Prop54
  1
strokes_ogs.tif
102
RTVSPost2010PropOp54
 70
     1
102
RTVSPost2010Prop55
280
     0
102
RTVSPost2010PropOp55
 70
     1
102
RTVSPost2010Prop56
140
1.0
102
RTVSPost2010PropOp56
 70
     1
102
RTVSPost2010Prop57
140
1.0
102
RTVSPost2010PropOp57
 70
     1
102
RTVSPropertyOp0
 70
     1
102
RTVSPropertyOp1
 70
     1
102
RTVSPropertyOp2
 70
     1
102
RTVSPropertyOp3
 70
     1
102
RTVSPropertyOp4
 70
     1
102
RTVSPropertyOp5
 70
     1
102
RTVSPropertyOp6
 70
     1
102
RTVSPropertyOp7
 70
     1
102
RTVSPropertyOp8
 70
     1
102
RTVSPropertyOp9
 70
     1
102
RTVSPropertyOp10
 70
     1
102
RTVSPropertyOp11
 70
     1
102
RTVSPropertyOp12
 70
     1
102
RTVSPropertyOp13
 70
     1
102
RTVSPropertyOp14
 70
     1
102
RTVSPropertyOp15
 70
     1
102
RTVSPropertyOp16
 70
     1
102
RTVSPropertyOp17
 70
     1
102
RTVSPropertyOp18
 70
     1
102
RTVSPropertyOp19
 70
     1
102
RTVSPropertyOp20
 70
     1
102
RTVSPropertyOp21
 70
     1
102
RTVSPropertyOp22
 70
     1
102
RTVSPropertyOp23
 70
     1
102
RTVSPropertyOp24
 70
     1
102
RTVSPropertyOp25
 70
     1
102
RTVSPropertyOp26
 70
     1
102
RTVSPropertyOp27
 70
     1
102
RTVSPropertyOp28
 70
     1
102
RTVSPropertyOp29
 70
     1
102
RTVSPropertyOp30
 70
     1
102
RTVSPropertyOp31
 70
     1
102
RTVSPropertyOp32
 70
     1
102
RTVSPropertyOp33
 70
     1
102
RTVSPropertyOp34
 70
     1
102
RTVSPropertyOp35
 70
     1
102
RTVSPropertyOp36
 70
     1
102
RTVSPropertyOp37
 70
     1
102
RTVSPropertyOp38
 70
     1
102
RTVSPropertyOp39
 70
     1
102
RTVSPropertyOp40
 70
     1
102
RTVSPropertyOp41
 70
     1
102
RTVSPropertyOp42
 70
     1
102
RTVSPropertyOp43
 70
     1
102
RTVSPropertyOp44
 70
     1
102
RTVSPropertyOp45
 70
     1
102
RTVSPropertyOp46
 70
     1
102
RTVSPropertyOp47
 70
     1
102
RTVSPropertyOp48
 70
     1
102
RTVSPropertyOp49
 70
     1
102
RTVSPropertyOp50
 70
     1
102
RTVSPropertyOp51
 70
     0
102
RTVSPropertyOp52
 70
     0
102
RTVSPropertyOp53
 70
     1
102
RTVSPropertyOp54
 70
     1
102
RTVSPropertyOp55
 70
     1
102
RTVSPropertyOp56
 70
     1
102
RTVSPropertyOp57
 70
     1
102
RTVSPropertyOp58
 70
     1
102
RTVSPropertyOp59
 70
     1
102
RTVSPropertyOp60
 70
     1
102
RTVSPropertyOp61
 70
     1
102
RTVSPropertyOp62
 70
     1
  0
XRECORD
  5
2185
102
{ACAD_REACTORS
330
2184
102
}
330
2184
100
AcDbXrecord
280
     1
102
RTVSPost2010Prop28
280
     0
102
RTVSPost2010PropOp28
 70
     1
102
RTVSPost2010Prop29
280
     1
102
RTVSPost2010PropOp29
 70
     1
102
RTVSPost2010Prop30
280
     1
102
RTVSPost2010PropOp30
 70
     1
102
RTVSPost2010Prop31
280
     0
102
RTVSPost2010PropOp31
 70
     1
102
RTVSPost2010Prop32
280
     0
102
RTVSPost2010PropOp32
 70
     1
102
RTVSPost2010Prop33
280
     0
102
RTVSPost2010PropOp33
 70
     1
102
RTVSPost2010Prop34
280
     0
102
RTVSPost2010PropOp34
 70
     1
102
RTVSPost2010Prop35
280
     0
102
RTVSPost2010PropOp35
 70
     1
102
RTVSPost2010Prop36
280
     0
102
RTVSPost2010PropOp36
 70
     1
102
RTVSPost2010Prop37
 90
       50
102
RTVSPost2010PropOp37
 70
     1
102
RTVSPost2010Prop38
140
0.0
102
RTVSPost2010PropOp38
 70
     1
102
RTVSPost2010Prop39
140
1.0
102
RTVSPost2010PropOp39
 70
     1
102
RTVSPost2010Prop40
 90
        0
102
RTVSPost2010PropOp40
 70
     1
102
RTVSPost2010Prop41ColorIndex
 90
       18
102
RTVSPost2010Prop41ColorRGB
 90
        0
102
RTVSPost2010PropOp41
 70
     1
102
RTVSPost2010Prop42
 90
       50
102
RTVSPost2010PropOp42
 70
     1
102
RTVSPost2010Prop43
 90
        3
102
RTVSPost2010PropOp43
 70
     1
102
RTVSPost2010Prop44ColorIndex
 90
        5
102
RTVSPost2010Prop44ColorRGB
 90
      255
102
RTVSPost2010PropOp44
 70
     1
102
RTVSPost2010Prop45
280
     0
102
RTVSPost2010PropOp45
 70
     1
102
RTVSPost2010Prop46
 90
       50
102
RTVSPost2010PropOp46
 70
     1
102
RTVSPost2010Prop47
 90
       50
102
RTVSPost2010PropOp47
 70
     1
102
RTVSPost2010Prop48
 90
       50
102
RTVSPost2010PropOp48
 70
     1
102
RTVSPost2010Prop49
280
     0
102
RTVSPost2010PropOp49
 70
     1
102
RTVSPost2010Prop50
 90
       50
102
RTVSPost2010PropOp50
 70
     1
102
RTVSPost2010Prop51ColorIndex
 90
      256
102
RTVSPost2010Prop51ColorRGB
 90
-16777216
102
RTVSPost2010PropOp51
 70
     0
102
RTVSPost2010Prop52
140
1.0
102
RTVSPost2010PropOp52
 70
     0
102
RTVSPost2010Prop53
 90
        2
102
RTVSPost2010PropOp53
 70
     1
102
RTVSPost2010Prop54
  1
strokes_ogs.tif
102
RTVSPost2010PropOp54
 70
     1
102
RTVSPost2010Prop55
280
     0
102
RTVSPost2010PropOp55
 70
     1
102
RTVSPost2010Prop56
140
1.0
102
RTVSPost2010PropOp56
 70
     1
102
RTVSPost2010Prop57
140
1.0
102
RTVSPost2010PropOp57
 70
     1
102
RTVSPropertyOp0
 70
     1
102
RTVSPropertyOp1
 70
     1
102
RTVSPropertyOp2
 70
     1
102
RTVSPropertyOp3
 70
     1
102
RTVSPropertyOp4
 70
     1
102
RTVSPropertyOp5
 70
     1
102
RTVSPropertyOp6
 70
     1
102
RTVSPropertyOp7
 70
     1
102
RTVSPropertyOp8
 70
     1
102
RTVSPropertyOp9
 70
     1
102
RTVSPropertyOp10
 70
     1
102
RTVSPropertyOp11
 70
     1
102
RTVSPropertyOp12
 70
     1
102
RTVSPropertyOp13
 70
     1
102
RTVSPropertyOp14
 70
     1
102
RTVSPropertyOp15
 70
     1
102
RTVSPropertyOp16
 70
     1
102
RTVSPropertyOp17
 70
     1
102
RTVSPropertyOp18
 70
     1
102
RTVSPropertyOp19
 70
     1
102
RTVSPropertyOp20
 70
     1
102
RTVSPropertyOp21
 70
     1
102
RTVSPropertyOp22
 70
     1
102
RTVSPropertyOp23
 70
     1
102
RTVSPropertyOp24
 70
     1
102
RTVSPropertyOp25
 70
     1
102
RTVSPropertyOp26
 70
     1
102
RTVSPropertyOp27
 70
     1
102
RTVSPropertyOp28
 70
     1
102
RTVSPropertyOp29
 70
     1
102
RTVSPropertyOp30
 70
     1
102
RTVSPropertyOp31
 70
     1
102
RTVSPropertyOp32
 70
     1
102
RTVSPropertyOp33
 70
     1
102
RTVSPropertyOp34
 70
     1
102
RTVSPropertyOp35
 70
     1
102
RTVSPropertyOp36
 70
     1
102
RTVSPropertyOp37
 70
     1
102
RTVSPropertyOp38
 70
     1
102
RTVSPropertyOp39
 70
     1
102
RTVSPropertyOp40
 70
     1
102
RTVSPropertyOp41
 70
     1
102
RTVSPropertyOp42
 70
     1
102
RTVSPropertyOp43
 70
     1
102
RTVSPropertyOp44
 70
     1
102
RTVSPropertyOp45
 70
     1
102
RTVSPropertyOp46
 70
     1
102
RTVSPropertyOp47
 70
     1
102
RTVSPropertyOp48
 70
     1
102
RTVSPropertyOp49
 70
     1
102
RTVSPropertyOp50
 70
     1
102
RTVSPropertyOp51
 70
     0
102
RTVSPropertyOp52
 70
     0
102
RTVSPropertyOp53
 70
     1
102
RTVSPropertyOp54
 70
     1
102
RTVSPropertyOp55
 70
     1
102
RTVSPropertyOp56
 70
     1
102
RTVSPropertyOp57
 70
     1
102
RTVSPropertyOp58
 70
     1
102
RTVSPropertyOp59
 70
     1
102
RTVSPropertyOp60
 70
     1
102
RTVSPropertyOp61
 70
     1
102
RTVSPropertyOp62
 70
     1
  0
XRECORD
  5
21A1
102
{ACAD_REACTORS
330
21A0
102
}
330
21A0
100
AcDbXrecord
280
     1
102
RTVSPost2010Prop28
280
     0
102
RTVSPost2010PropOp28
 70
     1
102
RTVSPost2010Prop29
280
     1
102
RTVSPost2010PropOp29
 70
     1
102
RTVSPost2010Prop30
280
     1
102
RTVSPost2010PropOp30
 70
     1
102
RTVSPost2010Prop31
280
     0
102
RTVSPost2010PropOp31
 70
     1
102
RTVSPost2010Prop32
280
     0
102
RTVSPost2010PropOp32
 70
     1
102
RTVSPost2010Prop33
280
     0
102
RTVSPost2010PropOp33
 70
     1
102
RTVSPost2010Prop34
280
     0
102
RTVSPost2010PropOp34
 70
     1
102
RTVSPost2010Prop35
280
     0
102
RTVSPost2010PropOp35
 70
     1
102
RTVSPost2010Prop36
280
     0
102
RTVSPost2010PropOp36
 70
     1
102
RTVSPost2010Prop37
 90
       50
102
RTVSPost2010PropOp37
 70
     0
102
RTVSPost2010Prop38
140
0.0
102
RTVSPost2010PropOp38
 70
     0
102
RTVSPost2010Prop39
140
1.0
102
RTVSPost2010PropOp39
 70
     0
102
RTVSPost2010Prop40
 90
        0
102
RTVSPost2010PropOp40
 70
     0
102
RTVSPost2010Prop41ColorIndex
 90
       18
102
RTVSPost2010Prop41ColorRGB
 90
        0
102
RTVSPost2010PropOp41
 70
     0
102
RTVSPost2010Prop42
 90
       50
102
RTVSPost2010PropOp42
 70
     0
102
RTVSPost2010Prop43
 90
        3
102
RTVSPost2010PropOp43
 70
     0
102
RTVSPost2010Prop44ColorIndex
 90
        5
102
RTVSPost2010Prop44ColorRGB
 90
      255
102
RTVSPost2010PropOp44
 70
     0
102
RTVSPost2010Prop45
280
     0
102
RTVSPost2010PropOp45
 70
     1
102
RTVSPost2010Prop46
 90
       50
102
RTVSPost2010PropOp46
 70
     0
102
RTVSPost2010Prop47
 90
       50
102
RTVSPost2010PropOp47
 70
     0
102
RTVSPost2010Prop48
 90
       50
102
RTVSPost2010PropOp48
 70
     0
102
RTVSPost2010Prop49
280
     0
102
RTVSPost2010PropOp49
 70
     1
102
RTVSPost2010Prop50
 90
       50
102
RTVSPost2010PropOp50
 70
     0
102
RTVSPost2010Prop51ColorIndex
 90
      256
102
RTVSPost2010Prop51ColorRGB
 90
-16777216
102
RTVSPost2010PropOp51
 70
     0
102
RTVSPost2010Prop52
140
1.0
102
RTVSPost2010PropOp52
 70
     0
102
RTVSPost2010Prop53
 90
        2
102
RTVSPost2010PropOp53
 70
     0
102
RTVSPost2010Prop54
  1
strokes_ogs.tif
102
RTVSPost2010PropOp54
 70
     0
102
RTVSPost2010Prop55
280
     0
102
RTVSPost2010PropOp55
 70
     1
102
RTVSPost2010Prop56
140
1.0
102
RTVSPost2010PropOp56
 70
     0
102
RTVSPost2010Prop57
140
1.0
102
RTVSPost2010PropOp57
 70
     0
102
RTVSPropertyOp0
 70
     0
102
RTVSPropertyOp1
 70
     0
102
RTVSPropertyOp2
 70
     0
102
RTVSPropertyOp3
 70
     0
102
RTVSPropertyOp4
 70
     0
102
RTVSPropertyOp5
 70
     0
102
RTVSPropertyOp6
 70
     0
102
RTVSPropertyOp7
 70
     0
102
RTVSPropertyOp8
 70
     0
102
RTVSPropertyOp9
 70
     0
102
RTVSPropertyOp10
 70
     0
102
RTVSPropertyOp11
 70
     0
102
RTVSPropertyOp12
 70
     0
102
RTVSPropertyOp13
 70
     0
102
RTVSPropertyOp14
 70
     2
102
RTVSPropertyOp15
 70
     0
102
RTVSPropertyOp16
 70
     0
102
RTVSPropertyOp17
 70
     0
102
RTVSPropertyOp18
 70
     0
102
RTVSPropertyOp19
 70
     0
102
RTVSPropertyOp20
 70
     0
102
RTVSPropertyOp21
 70
     0
102
RTVSPropertyOp22
 70
     0
102
RTVSPropertyOp23
 70
     0
102
RTVSPropertyOp24
 70
     0
102
RTVSPropertyOp25
 70
     0
102
RTVSPropertyOp26
 70
     0
102
RTVSPropertyOp27
 70
     0
102
RTVSPropertyOp28
 70
     1
102
RTVSPropertyOp29
 70
     1
102
RTVSPropertyOp30
 70
     1
102
RTVSPropertyOp31
 70
     1
102
RTVSPropertyOp32
 70
     1
102
RTVSPropertyOp33
 70
     1
102
RTVSPropertyOp34
 70
     1
102
RTVSPropertyOp35
 70
     1
102
RTVSPropertyOp36
 70
     1
102
RTVSPropertyOp37
 70
     0
102
RTVSPropertyOp38
 70
     0
102
RTVSPropertyOp39
 70
     0
102
RTVSPropertyOp40
 70
     0
102
RTVSPropertyOp41
 70
     0
102
RTVSPropertyOp42
 70
     0
102
RTVSPropertyOp43
 70
     0
102
RTVSPropertyOp44
 70
     0
102
RTVSPropertyOp45
 70
     1
102
RTVSPropertyOp46
 70
     0
102
RTVSPropertyOp47
 70
     0
102
RTVSPropertyOp48
 70
     0
102
RTVSPropertyOp49
 70
     1
102
RTVSPropertyOp50
 70
     0
102
RTVSPropertyOp51
 70
     0
102
RTVSPropertyOp52
 70
     0
102
RTVSPropertyOp53
 70
     0
102
RTVSPropertyOp54
 70
     0
102
RTVSPropertyOp55
 70
     1
102
RTVSPropertyOp56
 70
     0
102
RTVSPropertyOp57
 70
     0
102
RTVSPropertyOp58
 70
     0
102
RTVSPropertyOp59
 70
     0
102
RTVSPropertyOp60
 70
     0
102
RTVSPropertyOp61
 70
     0
102
RTVSPropertyOp62
 70
     0
  0
XRECORD
  5
2191
102
{ACAD_REACTORS
330
2190
102
}
330
2190
100
AcDbXrecord
280
     1
102
RTVSPost2010Prop28
280
     0
102
RTVSPost2010PropOp28
 70
     1
102
RTVSPost2010Prop29
280
     1
102
RTVSPost2010PropOp29
 70
     1
102
RTVSPost2010Prop30
280
     1
102
RTVSPost2010PropOp30
 70
     1
102
RTVSPost2010Prop31
280
     0
102
RTVSPost2010PropOp31
 70
     1
102
RTVSPost2010Prop32
280
     0
102
RTVSPost2010PropOp32
 70
     1
102
RTVSPost2010Prop33
280
     0
102
RTVSPost2010PropOp33
 70
     1
102
RTVSPost2010Prop34
280
     0
102
RTVSPost2010PropOp34
 70
     1
102
RTVSPost2010Prop35
280
     0
102
RTVSPost2010PropOp35
 70
     1
102
RTVSPost2010Prop36
280
     0
102
RTVSPost2010PropOp36
 70
     1
102
RTVSPost2010Prop37
 90
       50
102
RTVSPost2010PropOp37
 70
     1
102
RTVSPost2010Prop38
140
0.0
102
RTVSPost2010PropOp38
 70
     1
102
RTVSPost2010Prop39
140
1.0
102
RTVSPost2010PropOp39
 70
     1
102
RTVSPost2010Prop40
 90
        0
102
RTVSPost2010PropOp40
 70
     1
102
RTVSPost2010Prop41ColorIndex
 90
       18
102
RTVSPost2010Prop41ColorRGB
 90
        0
102
RTVSPost2010PropOp41
 70
     1
102
RTVSPost2010Prop42
 90
       50
102
RTVSPost2010PropOp42
 70
     1
102
RTVSPost2010Prop43
 90
        3
102
RTVSPost2010PropOp43
 70
     1
102
RTVSPost2010Prop44ColorIndex
 90
        5
102
RTVSPost2010Prop44ColorRGB
 90
      255
102
RTVSPost2010PropOp44
 70
     1
102
RTVSPost2010Prop45
280
     0
102
RTVSPost2010PropOp45
 70
     1
102
RTVSPost2010Prop46
 90
       50
102
RTVSPost2010PropOp46
 70
     1
102
RTVSPost2010Prop47
 90
       50
102
RTVSPost2010PropOp47
 70
     1
102
RTVSPost2010Prop48
 90
       50
102
RTVSPost2010PropOp48
 70
     1
102
RTVSPost2010Prop49
280
     0
102
RTVSPost2010PropOp49
 70
     1
102
RTVSPost2010Prop50
 90
       50
102
RTVSPost2010PropOp50
 70
     1
102
RTVSPost2010Prop51ColorIndex
 90
      256
102
RTVSPost2010Prop51ColorRGB
 90
-16777216
102
RTVSPost2010PropOp51
 70
     0
102
RTVSPost2010Prop52
140
1.0
102
RTVSPost2010PropOp52
 70
     0
102
RTVSPost2010Prop53
 90
        2
102
RTVSPost2010PropOp53
 70
     1
102
RTVSPost2010Prop54
  1
strokes_ogs.tif
102
RTVSPost2010PropOp54
 70
     1
102
RTVSPost2010Prop55
280
     0
102
RTVSPost2010PropOp55
 70
     1
102
RTVSPost2010Prop56
140
1.0
102
RTVSPost2010PropOp56
 70
     1
102
RTVSPost2010Prop57
140
1.0
102
RTVSPost2010PropOp57
 70
     1
102
RTVSPropertyOp0
 70
     1
102
RTVSPropertyOp1
 70
     1
102
RTVSPropertyOp2
 70
     1
102
RTVSPropertyOp3
 70
     1
102
RTVSPropertyOp4
 70
     1
102
RTVSPropertyOp5
 70
     1
102
RTVSPropertyOp6
 70
     1
102
RTVSPropertyOp7
 70
     1
102
RTVSPropertyOp8
 70
     1
102
RTVSPropertyOp9
 70
     1
102
RTVSPropertyOp10
 70
     1
102
RTVSPropertyOp11
 70
     1
102
RTVSPropertyOp12
 70
     1
102
RTVSPropertyOp13
 70
     1
102
RTVSPropertyOp14
 70
     1
102
RTVSPropertyOp15
 70
     1
102
RTVSPropertyOp16
 70
     1
102
RTVSPropertyOp17
 70
     1
102
RTVSPropertyOp18
 70
     1
102
RTVSPropertyOp19
 70
     1
102
RTVSPropertyOp20
 70
     1
102
RTVSPropertyOp21
 70
     1
102
RTVSPropertyOp22
 70
     1
102
RTVSPropertyOp23
 70
     1
102
RTVSPropertyOp24
 70
     1
102
RTVSPropertyOp25
 70
     1
102
RTVSPropertyOp26
 70
     1
102
RTVSPropertyOp27
 70
     1
102
RTVSPropertyOp28
 70
     1
102
RTVSPropertyOp29
 70
     1
102
RTVSPropertyOp30
 70
     1
102
RTVSPropertyOp31
 70
     1
102
RTVSPropertyOp32
 70
     1
102
RTVSPropertyOp33
 70
     1
102
RTVSPropertyOp34
 70
     1
102
RTVSPropertyOp35
 70
     1
102
RTVSPropertyOp36
 70
     1
102
RTVSPropertyOp37
 70
     1
102
RTVSPropertyOp38
 70
     1
102
RTVSPropertyOp39
 70
     1
102
RTVSPropertyOp40
 70
     1
102
RTVSPropertyOp41
 70
     1
102
RTVSPropertyOp42
 70
     1
102
RTVSPropertyOp43
 70
     1
102
RTVSPropertyOp44
 70
     1
102
RTVSPropertyOp45
 70
     1
102
RTVSPropertyOp46
 70
     1
102
RTVSPropertyOp47
 70
     1
102
RTVSPropertyOp48
 70
     1
102
RTVSPropertyOp49
 70
     1
102
RTVSPropertyOp50
 70
     1
102
RTVSPropertyOp51
 70
     0
102
RTVSPropertyOp52
 70
     0
102
RTVSPropertyOp53
 70
     1
102
RTVSPropertyOp54
 70
     1
102
RTVSPropertyOp55
 70
     1
102
RTVSPropertyOp56
 70
     1
102
RTVSPropertyOp57
 70
     1
102
RTVSPropertyOp58
 70
     1
102
RTVSPropertyOp59
 70
     1
102
RTVSPropertyOp60
 70
     1
102
RTVSPropertyOp61
 70
     1
102
RTVSPropertyOp62
 70
     1
  0
XRECORD
  5
21A3
102
{ACAD_REACTORS
330
21A2
102
}
330
21A2
100
AcDbXrecord
280
     1
102
RTVSPost2010Prop28
280
     0
102
RTVSPost2010PropOp28
 70
     1
102
RTVSPost2010Prop29
280
     1
102
RTVSPost2010PropOp29
 70
     1
102
RTVSPost2010Prop30
280
     1
102
RTVSPost2010PropOp30
 70
     1
102
RTVSPost2010Prop31
280
     0
102
RTVSPost2010PropOp31
 70
     1
102
RTVSPost2010Prop32
280
     0
102
RTVSPost2010PropOp32
 70
     1
102
RTVSPost2010Prop33
280
     0
102
RTVSPost2010PropOp33
 70
     1
102
RTVSPost2010Prop34
280
     0
102
RTVSPost2010PropOp34
 70
     1
102
RTVSPost2010Prop35
280
     0
102
RTVSPost2010PropOp35
 70
     1
102
RTVSPost2010Prop36
280
     0
102
RTVSPost2010PropOp36
 70
     1
102
RTVSPost2010Prop37
 90
       50
102
RTVSPost2010PropOp37
 70
     0
102
RTVSPost2010Prop38
140
0.0
102
RTVSPost2010PropOp38
 70
     0
102
RTVSPost2010Prop39
140
1.0
102
RTVSPost2010PropOp39
 70
     0
102
RTVSPost2010Prop40
 90
        0
102
RTVSPost2010PropOp40
 70
     0
102
RTVSPost2010Prop41ColorIndex
 90
       18
102
RTVSPost2010Prop41ColorRGB
 90
        0
102
RTVSPost2010PropOp41
 70
     0
102
RTVSPost2010Prop42
 90
       50
102
RTVSPost2010PropOp42
 70
     0
102
RTVSPost2010Prop43
 90
        3
102
RTVSPost2010PropOp43
 70
     0
102
RTVSPost2010Prop44ColorIndex
 90
        5
102
RTVSPost2010Prop44ColorRGB
 90
      255
102
RTVSPost2010PropOp44
 70
     0
102
RTVSPost2010Prop45
280
     0
102
RTVSPost2010PropOp45
 70
     1
102
RTVSPost2010Prop46
 90
       50
102
RTVSPost2010PropOp46
 70
     0
102
RTVSPost2010Prop47
 90
       50
102
RTVSPost2010PropOp47
 70
     0
102
RTVSPost2010Prop48
 90
       50
102
RTVSPost2010PropOp48
 70
     0
102
RTVSPost2010Prop49
280
     0
102
RTVSPost2010PropOp49
 70
     1
102
RTVSPost2010Prop50
 90
       50
102
RTVSPost2010PropOp50
 70
     0
102
RTVSPost2010Prop51ColorIndex
 90
      256
102
RTVSPost2010Prop51ColorRGB
 90
-16777216
102
RTVSPost2010PropOp51
 70
     0
102
RTVSPost2010Prop52
140
1.0
102
RTVSPost2010PropOp52
 70
     0
102
RTVSPost2010Prop53
 90
        2
102
RTVSPost2010PropOp53
 70
     0
102
RTVSPost2010Prop54
  1
strokes_ogs.tif
102
RTVSPost2010PropOp54
 70
     0
102
RTVSPost2010Prop55
280
     0
102
RTVSPost2010PropOp55
 70
     1
102
RTVSPost2010Prop56
140
1.0
102
RTVSPost2010PropOp56
 70
     0
102
RTVSPost2010Prop57
140
1.0
102
RTVSPost2010PropOp57
 70
     0
102
RTVSPropertyOp0
 70
     0
102
RTVSPropertyOp1
 70
     0
102
RTVSPropertyOp2
 70
     0
102
RTVSPropertyOp3
 70
     0
102
RTVSPropertyOp4
 70
     0
102
RTVSPropertyOp5
 70
     0
102
RTVSPropertyOp6
 70
     0
102
RTVSPropertyOp7
 70
     0
102
RTVSPropertyOp8
 70
     0
102
RTVSPropertyOp9
 70
     0
102
RTVSPropertyOp10
 70
     0
102
RTVSPropertyOp11
 70
     0
102
RTVSPropertyOp12
 70
     0
102
RTVSPropertyOp13
 70
     0
102
RTVSPropertyOp14
 70
     2
102
RTVSPropertyOp15
 70
     0
102
RTVSPropertyOp16
 70
     0
102
RTVSPropertyOp17
 70
     0
102
RTVSPropertyOp18
 70
     0
102
RTVSPropertyOp19
 70
     0
102
RTVSPropertyOp20
 70
     0
102
RTVSPropertyOp21
 70
     0
102
RTVSPropertyOp22
 70
     0
102
RTVSPropertyOp23
 70
     0
102
RTVSPropertyOp24
 70
     0
102
RTVSPropertyOp25
 70
     0
102
RTVSPropertyOp26
 70
     0
102
RTVSPropertyOp27
 70
     0
102
RTVSPropertyOp28
 70
     1
102
RTVSPropertyOp29
 70
     1
102
RTVSPropertyOp30
 70
     1
102
RTVSPropertyOp31
 70
     1
102
RTVSPropertyOp32
 70
     1
102
RTVSPropertyOp33
 70
     1
102
RTVSPropertyOp34
 70
     1
102
RTVSPropertyOp35
 70
     1
102
RTVSPropertyOp36
 70
     1
102
RTVSPropertyOp37
 70
     0
102
RTVSPropertyOp38
 70
     0
102
RTVSPropertyOp39
 70
     0
102
RTVSPropertyOp40
 70
     0
102
RTVSPropertyOp41
 70
     0
102
RTVSPropertyOp42
 70
     0
102
RTVSPropertyOp43
 70
     0
102
RTVSPropertyOp44
 70
     0
102
RTVSPropertyOp45
 70
     1
102
RTVSPropertyOp46
 70
     0
102
RTVSPropertyOp47
 70
     0
102
RTVSPropertyOp48
 70
     0
102
RTVSPropertyOp49
 70
     1
102
RTVSPropertyOp50
 70
     0
102
RTVSPropertyOp51
 70
     0
102
RTVSPropertyOp52
 70
     0
102
RTVSPropertyOp53
 70
     0
102
RTVSPropertyOp54
 70
     0
102
RTVSPropertyOp55
 70
     1
102
RTVSPropertyOp56
 70
     0
102
RTVSPropertyOp57
 70
     0
102
RTVSPropertyOp58
 70
     0
102
RTVSPropertyOp59
 70
     0
102
RTVSPropertyOp60
 70
     0
102
RTVSPropertyOp61
 70
     0
102
RTVSPropertyOp62
 70
     0
  0
XRECORD
  5
2189
102
{ACAD_REACTORS
330
2188
102
}
330
2188
100
AcDbXrecord
280
     1
102
RTVSPost2010Prop28
280
     0
102
RTVSPost2010PropOp28
 70
     1
102
RTVSPost2010Prop29
280
     1
102
RTVSPost2010PropOp29
 70
     1
102
RTVSPost2010Prop30
280
     1
102
RTVSPost2010PropOp30
 70
     1
102
RTVSPost2010Prop31
280
     0
102
RTVSPost2010PropOp31
 70
     1
102
RTVSPost2010Prop32
280
     0
102
RTVSPost2010PropOp32
 70
     1
102
RTVSPost2010Prop33
280
     0
102
RTVSPost2010PropOp33
 70
     1
102
RTVSPost2010Prop34
280
     0
102
RTVSPost2010PropOp34
 70
     1
102
RTVSPost2010Prop35
280
     0
102
RTVSPost2010PropOp35
 70
     1
102
RTVSPost2010Prop36
280
     0
102
RTVSPost2010PropOp36
 70
     1
102
RTVSPost2010Prop37
 90
       50
102
RTVSPost2010PropOp37
 70
     1
102
RTVSPost2010Prop38
140
0.0
102
RTVSPost2010PropOp38
 70
     1
102
RTVSPost2010Prop39
140
1.0
102
RTVSPost2010PropOp39
 70
     1
102
RTVSPost2010Prop40
 90
        0
102
RTVSPost2010PropOp40
 70
     1
102
RTVSPost2010Prop41ColorIndex
 90
       18
102
RTVSPost2010Prop41ColorRGB
 90
        0
102
RTVSPost2010PropOp41
 70
     1
102
RTVSPost2010Prop42
 90
       50
102
RTVSPost2010PropOp42
 70
     1
102
RTVSPost2010Prop43
 90
        3
102
RTVSPost2010PropOp43
 70
     1
102
RTVSPost2010Prop44ColorIndex
 90
        5
102
RTVSPost2010Prop44ColorRGB
 90
      255
102
RTVSPost2010PropOp44
 70
     1
102
RTVSPost2010Prop45
280
     0
102
RTVSPost2010PropOp45
 70
     1
102
RTVSPost2010Prop46
 90
       50
102
RTVSPost2010PropOp46
 70
     1
102
RTVSPost2010Prop47
 90
       50
102
RTVSPost2010PropOp47
 70
     1
102
RTVSPost2010Prop48
 90
       50
102
RTVSPost2010PropOp48
 70
     1
102
RTVSPost2010Prop49
280
     0
102
RTVSPost2010PropOp49
 70
     1
102
RTVSPost2010Prop50
 90
       50
102
RTVSPost2010PropOp50
 70
     1
102
RTVSPost2010Prop51ColorIndex
 90
      256
102
RTVSPost2010Prop51ColorRGB
 90
-16777216
102
RTVSPost2010PropOp51
 70
     0
102
RTVSPost2010Prop52
140
1.0
102
RTVSPost2010PropOp52
 70
     0
102
RTVSPost2010Prop53
 90
        2
102
RTVSPost2010PropOp53
 70
     1
102
RTVSPost2010Prop54
  1
strokes_ogs.tif
102
RTVSPost2010PropOp54
 70
     1
102
RTVSPost2010Prop55
280
     0
102
RTVSPost2010PropOp55
 70
     1
102
RTVSPost2010Prop56
140
1.0
102
RTVSPost2010PropOp56
 70
     1
102
RTVSPost2010Prop57
140
1.0
102
RTVSPost2010PropOp57
 70
     1
102
RTVSPropertyOp0
 70
     1
102
RTVSPropertyOp1
 70
     1
102
RTVSPropertyOp2
 70
     1
102
RTVSPropertyOp3
 70
     1
102
RTVSPropertyOp4
 70
     1
102
RTVSPropertyOp5
 70
     1
102
RTVSPropertyOp6
 70
     1
102
RTVSPropertyOp7
 70
     1
102
RTVSPropertyOp8
 70
     1
102
RTVSPropertyOp9
 70
     1
102
RTVSPropertyOp10
 70
     1
102
RTVSPropertyOp11
 70
     1
102
RTVSPropertyOp12
 70
     1
102
RTVSPropertyOp13
 70
     1
102
RTVSPropertyOp14
 70
     1
102
RTVSPropertyOp15
 70
     1
102
RTVSPropertyOp16
 70
     1
102
RTVSPropertyOp17
 70
     1
102
RTVSPropertyOp18
 70
     1
102
RTVSPropertyOp19
 70
     1
102
RTVSPropertyOp20
 70
     1
102
RTVSPropertyOp21
 70
     1
102
RTVSPropertyOp22
 70
     1
102
RTVSPropertyOp23
 70
     1
102
RTVSPropertyOp24
 70
     1
102
RTVSPropertyOp25
 70
     1
102
RTVSPropertyOp26
 70
     1
102
RTVSPropertyOp27
 70
     1
102
RTVSPropertyOp28
 70
     1
102
RTVSPropertyOp29
 70
     1
102
RTVSPropertyOp30
 70
     1
102
RTVSPropertyOp31
 70
     1
102
RTVSPropertyOp32
 70
     1
102
RTVSPropertyOp33
 70
     1
102
RTVSPropertyOp34
 70
     1
102
RTVSPropertyOp35
 70
     1
102
RTVSPropertyOp36
 70
     1
102
RTVSPropertyOp37
 70
     1
102
RTVSPropertyOp38
 70
     1
102
RTVSPropertyOp39
 70
     1
102
RTVSPropertyOp40
 70
     1
102
RTVSPropertyOp41
 70
     1
102
RTVSPropertyOp42
 70
     1
102
RTVSPropertyOp43
 70
     1
102
RTVSPropertyOp44
 70
     1
102
RTVSPropertyOp45
 70
     1
102
RTVSPropertyOp46
 70
     1
102
RTVSPropertyOp47
 70
     1
102
RTVSPropertyOp48
 70
     1
102
RTVSPropertyOp49
 70
     1
102
RTVSPropertyOp50
 70
     1
102
RTVSPropertyOp51
 70
     0
102
RTVSPropertyOp52
 70
     0
102
RTVSPropertyOp53
 70
     1
102
RTVSPropertyOp54
 70
     1
102
RTVSPropertyOp55
 70
     1
102
RTVSPropertyOp56
 70
     1
102
RTVSPropertyOp57
 70
     1
102
RTVSPropertyOp58
 70
     1
102
RTVSPropertyOp59
 70
     1
102
RTVSPropertyOp60
 70
     1
102
RTVSPropertyOp61
 70
     1
102
RTVSPropertyOp62
 70
     1
  0
XRECORD
  5
219F
102
{ACAD_REACTORS
330
219E
102
}
330
219E
100
AcDbXrecord
280
     1
102
RTVSPost2010Prop28
280
     0
102
RTVSPost2010PropOp28
 70
     1
102
RTVSPost2010Prop29
280
     1
102
RTVSPost2010PropOp29
 70
     1
102
RTVSPost2010Prop30
280
     1
102
RTVSPost2010PropOp30
 70
     1
102
RTVSPost2010Prop31
280
     0
102
RTVSPost2010PropOp31
 70
     1
102
RTVSPost2010Prop32
280
     0
102
RTVSPost2010PropOp32
 70
     1
102
RTVSPost2010Prop33
280
     0
102
RTVSPost2010PropOp33
 70
     1
102
RTVSPost2010Prop34
280
     0
102
RTVSPost2010PropOp34
 70
     1
102
RTVSPost2010Prop35
280
     0
102
RTVSPost2010PropOp35
 70
     1
102
RTVSPost2010Prop36
280
     0
102
RTVSPost2010PropOp36
 70
     1
102
RTVSPost2010Prop37
 90
       50
102
RTVSPost2010PropOp37
 70
     1
102
RTVSPost2010Prop38
140
0.0
102
RTVSPost2010PropOp38
 70
     1
102
RTVSPost2010Prop39
140
1.0
102
RTVSPost2010PropOp39
 70
     1
102
RTVSPost2010Prop40
 90
        0
102
RTVSPost2010PropOp40
 70
     1
102
RTVSPost2010Prop41ColorIndex
 90
       18
102
RTVSPost2010Prop41ColorRGB
 90
        0
102
RTVSPost2010PropOp41
 70
     1
102
RTVSPost2010Prop42
 90
       50
102
RTVSPost2010PropOp42
 70
     1
102
RTVSPost2010Prop43
 90
        3
102
RTVSPost2010PropOp43
 70
     1
102
RTVSPost2010Prop44ColorIndex
 90
        5
102
RTVSPost2010Prop44ColorRGB
 90
      255
102
RTVSPost2010PropOp44
 70
     1
102
RTVSPost2010Prop45
280
     0
102
RTVSPost2010PropOp45
 70
     1
102
RTVSPost2010Prop46
 90
       50
102
RTVSPost2010PropOp46
 70
     1
102
RTVSPost2010Prop47
 90
       50
102
RTVSPost2010PropOp47
 70
     1
102
RTVSPost2010Prop48
 90
       50
102
RTVSPost2010PropOp48
 70
     1
102
RTVSPost2010Prop49
280
     0
102
RTVSPost2010PropOp49
 70
     1
102
RTVSPost2010Prop50
 90
       50
102
RTVSPost2010PropOp50
 70
     1
102
RTVSPost2010Prop51ColorIndex
 90
      256
102
RTVSPost2010Prop51ColorRGB
 90
-16777216
102
RTVSPost2010PropOp51
 70
     0
102
RTVSPost2010Prop52
140
1.0
102
RTVSPost2010PropOp52
 70
     0
102
RTVSPost2010Prop53
 90
        2
102
RTVSPost2010PropOp53
 70
     1
102
RTVSPost2010Prop54
  1
strokes_ogs.tif
102
RTVSPost2010PropOp54
 70
     1
102
RTVSPost2010Prop55
280
     0
102
RTVSPost2010PropOp55
 70
     1
102
RTVSPost2010Prop56
140
1.0
102
RTVSPost2010PropOp56
 70
     1
102
RTVSPost2010Prop57
140
1.0
102
RTVSPost2010PropOp57
 70
     1
102
RTVSPropertyOp0
 70
     1
102
RTVSPropertyOp1
 70
     1
102
RTVSPropertyOp2
 70
     1
102
RTVSPropertyOp3
 70
     1
102
RTVSPropertyOp4
 70
     1
102
RTVSPropertyOp5
 70
     1
102
RTVSPropertyOp6
 70
     1
102
RTVSPropertyOp7
 70
     1
102
RTVSPropertyOp8
 70
     1
102
RTVSPropertyOp9
 70
     1
102
RTVSPropertyOp10
 70
     1
102
RTVSPropertyOp11
 70
     1
102
RTVSPropertyOp12
 70
     1
102
RTVSPropertyOp13
 70
     1
102
RTVSPropertyOp14
 70
     1
102
RTVSPropertyOp15
 70
     1
102
RTVSPropertyOp16
 70
     1
102
RTVSPropertyOp17
 70
     1
102
RTVSPropertyOp18
 70
     1
102
RTVSPropertyOp19
 70
     1
102
RTVSPropertyOp20
 70
     1
102
RTVSPropertyOp21
 70
     1
102
RTVSPropertyOp22
 70
     1
102
RTVSPropertyOp23
 70
     1
102
RTVSPropertyOp24
 70
     1
102
RTVSPropertyOp25
 70
     1
102
RTVSPropertyOp26
 70
     1
102
RTVSPropertyOp27
 70
     1
102
RTVSPropertyOp28
 70
     1
102
RTVSPropertyOp29
 70
     1
102
RTVSPropertyOp30
 70
     1
102
RTVSPropertyOp31
 70
     1
102
RTVSPropertyOp32
 70
     1
102
RTVSPropertyOp33
 70
     1
102
RTVSPropertyOp34
 70
     1
102
RTVSPropertyOp35
 70
     1
102
RTVSPropertyOp36
 70
     1
102
RTVSPropertyOp37
 70
     1
102
RTVSPropertyOp38
 70
     1
102
RTVSPropertyOp39
 70
     1
102
RTVSPropertyOp40
 70
     1
102
RTVSPropertyOp41
 70
     1
102
RTVSPropertyOp42
 70
     1
102
RTVSPropertyOp43
 70
     1
102
RTVSPropertyOp44
 70
     1
102
RTVSPropertyOp45
 70
     1
102
RTVSPropertyOp46
 70
     1
102
RTVSPropertyOp47
 70
     1
102
RTVSPropertyOp48
 70
     1
102
RTVSPropertyOp49
 70
     1
102
RTVSPropertyOp50
 70
     1
102
RTVSPropertyOp51
 70
     0
102
RTVSPropertyOp52
 70
     0
102
RTVSPropertyOp53
 70
     1
102
RTVSPropertyOp54
 70
     1
102
RTVSPropertyOp55
 70
     1
102
RTVSPropertyOp56
 70
     1
102
RTVSPropertyOp57
 70
     1
102
RTVSPropertyOp58
 70
     1
102
RTVSPropertyOp59
 70
     1
102
RTVSPropertyOp60
 70
     1
102
RTVSPropertyOp61
 70
     1
102
RTVSPropertyOp62
 70
     1
  0
XRECORD
  5
219D
102
{ACAD_REACTORS
330
219C
102
}
330
219C
100
AcDbXrecord
280
     1
102
RTVSPost2010Prop28
280
     0
102
RTVSPost2010PropOp28
 70
     1
102
RTVSPost2010Prop29
280
     1
102
RTVSPost2010PropOp29
 70
     1
102
RTVSPost2010Prop30
280
     1
102
RTVSPost2010PropOp30
 70
     1
102
RTVSPost2010Prop31
280
     0
102
RTVSPost2010PropOp31
 70
     1
102
RTVSPost2010Prop32
280
     0
102
RTVSPost2010PropOp32
 70
     1
102
RTVSPost2010Prop33
280
     0
102
RTVSPost2010PropOp33
 70
     1
102
RTVSPost2010Prop34
280
     0
102
RTVSPost2010PropOp34
 70
     1
102
RTVSPost2010Prop35
280
     0
102
RTVSPost2010PropOp35
 70
     1
102
RTVSPost2010Prop36
280
     0
102
RTVSPost2010PropOp36
 70
     1
102
RTVSPost2010Prop37
 90
       50
102
RTVSPost2010PropOp37
 70
     1
102
RTVSPost2010Prop38
140
0.0
102
RTVSPost2010PropOp38
 70
     1
102
RTVSPost2010Prop39
140
1.0
102
RTVSPost2010PropOp39
 70
     1
102
RTVSPost2010Prop40
 90
        0
102
RTVSPost2010PropOp40
 70
     1
102
RTVSPost2010Prop41ColorIndex
 90
       18
102
RTVSPost2010Prop41ColorRGB
 90
        0
102
RTVSPost2010PropOp41
 70
     1
102
RTVSPost2010Prop42
 90
       50
102
RTVSPost2010PropOp42
 70
     1
102
RTVSPost2010Prop43
 90
        3
102
RTVSPost2010PropOp43
 70
     1
102
RTVSPost2010Prop44ColorIndex
 90
        5
102
RTVSPost2010Prop44ColorRGB
 90
      255
102
RTVSPost2010PropOp44
 70
     1
102
RTVSPost2010Prop45
280
     0
102
RTVSPost2010PropOp45
 70
     1
102
RTVSPost2010Prop46
 90
       50
102
RTVSPost2010PropOp46
 70
     1
102
RTVSPost2010Prop47
 90
       50
102
RTVSPost2010PropOp47
 70
     1
102
RTVSPost2010Prop48
 90
       50
102
RTVSPost2010PropOp48
 70
     1
102
RTVSPost2010Prop49
280
     0
102
RTVSPost2010PropOp49
 70
     1
102
RTVSPost2010Prop50
 90
       50
102
RTVSPost2010PropOp50
 70
     1
102
RTVSPost2010Prop51ColorIndex
 90
      256
102
RTVSPost2010Prop51ColorRGB
 90
-16777216
102
RTVSPost2010PropOp51
 70
     0
102
RTVSPost2010Prop52
140
1.0
102
RTVSPost2010PropOp52
 70
     0
102
RTVSPost2010Prop53
 90
        2
102
RTVSPost2010PropOp53
 70
     1
102
RTVSPost2010Prop54
  1
strokes_ogs.tif
102
RTVSPost2010PropOp54
 70
     1
102
RTVSPost2010Prop55
280
     0
102
RTVSPost2010PropOp55
 70
     1
102
RTVSPost2010Prop56
140
1.0
102
RTVSPost2010PropOp56
 70
     1
102
RTVSPost2010Prop57
140
1.0
102
RTVSPost2010PropOp57
 70
     1
102
RTVSPropertyOp0
 70
     1
102
RTVSPropertyOp1
 70
     1
102
RTVSPropertyOp2
 70
     1
102
RTVSPropertyOp3
 70
     1
102
RTVSPropertyOp4
 70
     1
102
RTVSPropertyOp5
 70
     1
102
RTVSPropertyOp6
 70
     1
102
RTVSPropertyOp7
 70
     1
102
RTVSPropertyOp8
 70
     1
102
RTVSPropertyOp9
 70
     1
102
RTVSPropertyOp10
 70
     1
102
RTVSPropertyOp11
 70
     1
102
RTVSPropertyOp12
 70
     1
102
RTVSPropertyOp13
 70
     1
102
RTVSPropertyOp14
 70
     1
102
RTVSPropertyOp15
 70
     1
102
RTVSPropertyOp16
 70
     1
102
RTVSPropertyOp17
 70
     1
102
RTVSPropertyOp18
 70
     1
102
RTVSPropertyOp19
 70
     1
102
RTVSPropertyOp20
 70
     1
102
RTVSPropertyOp21
 70
     1
102
RTVSPropertyOp22
 70
     1
102
RTVSPropertyOp23
 70
     1
102
RTVSPropertyOp24
 70
     1
102
RTVSPropertyOp25
 70
     1
102
RTVSPropertyOp26
 70
     1
102
RTVSPropertyOp27
 70
     1
102
RTVSPropertyOp28
 70
     1
102
RTVSPropertyOp29
 70
     1
102
RTVSPropertyOp30
 70
     1
102
RTVSPropertyOp31
 70
     1
102
RTVSPropertyOp32
 70
     1
102
RTVSPropertyOp33
 70
     1
102
RTVSPropertyOp34
 70
     1
102
RTVSPropertyOp35
 70
     1
102
RTVSPropertyOp36
 70
     1
102
RTVSPropertyOp37
 70
     1
102
RTVSPropertyOp38
 70
     1
102
RTVSPropertyOp39
 70
     1
102
RTVSPropertyOp40
 70
     1
102
RTVSPropertyOp41
 70
     1
102
RTVSPropertyOp42
 70
     1
102
RTVSPropertyOp43
 70
     1
102
RTVSPropertyOp44
 70
     1
102
RTVSPropertyOp45
 70
     1
102
RTVSPropertyOp46
 70
     1
102
RTVSPropertyOp47
 70
     1
102
RTVSPropertyOp48
 70
     1
102
RTVSPropertyOp49
 70
     1
102
RTVSPropertyOp50
 70
     1
102
RTVSPropertyOp51
 70
     0
102
RTVSPropertyOp52
 70
     0
102
RTVSPropertyOp53
 70
     1
102
RTVSPropertyOp54
 70
     1
102
RTVSPropertyOp55
 70
     1
102
RTVSPropertyOp56
 70
     1
102
RTVSPropertyOp57
 70
     1
102
RTVSPropertyOp58
 70
     1
102
RTVSPropertyOp59
 70
     1
102
RTVSPropertyOp60
 70
     1
102
RTVSPropertyOp61
 70
     1
102
RTVSPropertyOp62
 70
     1
  0
XRECORD
  5
2197
102
{ACAD_REACTORS
330
2196
102
}
330
2196
100
AcDbXrecord
280
     1
102
RTVSPost2010Prop28
280
     0
102
RTVSPost2010PropOp28
 70
     1
102
RTVSPost2010Prop29
280
     1
102
RTVSPost2010PropOp29
 70
     1
102
RTVSPost2010Prop30
280
     1
102
RTVSPost2010PropOp30
 70
     1
102
RTVSPost2010Prop31
280
     0
102
RTVSPost2010PropOp31
 70
     1
102
RTVSPost2010Prop32
280
     0
102
RTVSPost2010PropOp32
 70
     1
102
RTVSPost2010Prop33
280
     0
102
RTVSPost2010PropOp33
 70
     1
102
RTVSPost2010Prop34
280
     0
102
RTVSPost2010PropOp34
 70
     1
102
RTVSPost2010Prop35
280
     0
102
RTVSPost2010PropOp35
 70
     1
102
RTVSPost2010Prop36
280
     0
102
RTVSPost2010PropOp36
 70
     1
102
RTVSPost2010Prop37
 90
       50
102
RTVSPost2010PropOp37
 70
     1
102
RTVSPost2010Prop38
140
0.0
102
RTVSPost2010PropOp38
 70
     1
102
RTVSPost2010Prop39
140
1.0
102
RTVSPost2010PropOp39
 70
     1
102
RTVSPost2010Prop40
 90
        0
102
RTVSPost2010PropOp40
 70
     1
102
RTVSPost2010Prop41ColorIndex
 90
       18
102
RTVSPost2010Prop41ColorRGB
 90
        0
102
RTVSPost2010PropOp41
 70
     1
102
RTVSPost2010Prop42
 90
       50
102
RTVSPost2010PropOp42
 70
     1
102
RTVSPost2010Prop43
 90
        3
102
RTVSPost2010PropOp43
 70
     1
102
RTVSPost2010Prop44ColorIndex
 90
        5
102
RTVSPost2010Prop44ColorRGB
 90
      255
102
RTVSPost2010PropOp44
 70
     1
102
RTVSPost2010Prop45
280
     0
102
RTVSPost2010PropOp45
 70
     1
102
RTVSPost2010Prop46
 90
       50
102
RTVSPost2010PropOp46
 70
     1
102
RTVSPost2010Prop47
 90
       50
102
RTVSPost2010PropOp47
 70
     1
102
RTVSPost2010Prop48
 90
       50
102
RTVSPost2010PropOp48
 70
     1
102
RTVSPost2010Prop49
280
     0
102
RTVSPost2010PropOp49
 70
     1
102
RTVSPost2010Prop50
 90
       50
102
RTVSPost2010PropOp50
 70
     1
102
RTVSPost2010Prop51ColorIndex
 90
      256
102
RTVSPost2010Prop51ColorRGB
 90
-16777216
102
RTVSPost2010PropOp51
 70
     0
102
RTVSPost2010Prop52
140
1.0
102
RTVSPost2010PropOp52
 70
     0
102
RTVSPost2010Prop53
 90
        2
102
RTVSPost2010PropOp53
 70
     1
102
RTVSPost2010Prop54
  1
strokes_ogs.tif
102
RTVSPost2010PropOp54
 70
     1
102
RTVSPost2010Prop55
280
     0
102
RTVSPost2010PropOp55
 70
     1
102
RTVSPost2010Prop56
140
1.0
102
RTVSPost2010PropOp56
 70
     1
102
RTVSPost2010Prop57
140
1.0
102
RTVSPost2010PropOp57
 70
     1
102
RTVSPropertyOp0
 70
     1
102
RTVSPropertyOp1
 70
     1
102
RTVSPropertyOp2
 70
     1
102
RTVSPropertyOp3
 70
     1
102
RTVSPropertyOp4
 70
     1
102
RTVSPropertyOp5
 70
     1
102
RTVSPropertyOp6
 70
     1
102
RTVSPropertyOp7
 70
     1
102
RTVSPropertyOp8
 70
     1
102
RTVSPropertyOp9
 70
     1
102
RTVSPropertyOp10
 70
     1
102
RTVSPropertyOp11
 70
     1
102
RTVSPropertyOp12
 70
     1
102
RTVSPropertyOp13
 70
     1
102
RTVSPropertyOp14
 70
     1
102
RTVSPropertyOp15
 70
     1
102
RTVSPropertyOp16
 70
     1
102
RTVSPropertyOp17
 70
     1
102
RTVSPropertyOp18
 70
     1
102
RTVSPropertyOp19
 70
     1
102
RTVSPropertyOp20
 70
     1
102
RTVSPropertyOp21
 70
     1
102
RTVSPropertyOp22
 70
     1
102
RTVSPropertyOp23
 70
     1
102
RTVSPropertyOp24
 70
     1
102
RTVSPropertyOp25
 70
     1
102
RTVSPropertyOp26
 70
     1
102
RTVSPropertyOp27
 70
     1
102
RTVSPropertyOp28
 70
     1
102
RTVSPropertyOp29
 70
     1
102
RTVSPropertyOp30
 70
     1
102
RTVSPropertyOp31
 70
     1
102
RTVSPropertyOp32
 70
     1
102
RTVSPropertyOp33
 70
     1
102
RTVSPropertyOp34
 70
     1
102
RTVSPropertyOp35
 70
     1
102
RTVSPropertyOp36
 70
     1
102
RTVSPropertyOp37
 70
     1
102
RTVSPropertyOp38
 70
     1
102
RTVSPropertyOp39
 70
     1
102
RTVSPropertyOp40
 70
     1
102
RTVSPropertyOp41
 70
     1
102
RTVSPropertyOp42
 70
     1
102
RTVSPropertyOp43
 70
     1
102
RTVSPropertyOp44
 70
     1
102
RTVSPropertyOp45
 70
     1
102
RTVSPropertyOp46
 70
     1
102
RTVSPropertyOp47
 70
     1
102
RTVSPropertyOp48
 70
     1
102
RTVSPropertyOp49
 70
     1
102
RTVSPropertyOp50
 70
     1
102
RTVSPropertyOp51
 70
     0
102
RTVSPropertyOp52
 70
     0
102
RTVSPropertyOp53
 70
     1
102
RTVSPropertyOp54
 70
     1
102
RTVSPropertyOp55
 70
     1
102
RTVSPropertyOp56
 70
     1
102
RTVSPropertyOp57
 70
     1
102
RTVSPropertyOp58
 70
     1
102
RTVSPropertyOp59
 70
     1
102
RTVSPropertyOp60
 70
     1
102
RTVSPropertyOp61
 70
     1
102
RTVSPropertyOp62
 70
     1
  0
XRECORD
  5
2199
102
{ACAD_REACTORS
330
2198
102
}
330
2198
100
AcDbXrecord
280
     1
102
RTVSPost2010Prop28
280
     0
102
RTVSPost2010PropOp28
 70
     1
102
RTVSPost2010Prop29
280
     1
102
RTVSPost2010PropOp29
 70
     1
102
RTVSPost2010Prop30
280
     1
102
RTVSPost2010PropOp30
 70
     1
102
RTVSPost2010Prop31
280
     0
102
RTVSPost2010PropOp31
 70
     1
102
RTVSPost2010Prop32
280
     0
102
RTVSPost2010PropOp32
 70
     1
102
RTVSPost2010Prop33
280
     0
102
RTVSPost2010PropOp33
 70
     1
102
RTVSPost2010Prop34
280
     0
102
RTVSPost2010PropOp34
 70
     1
102
RTVSPost2010Prop35
280
     0
102
RTVSPost2010PropOp35
 70
     1
102
RTVSPost2010Prop36
280
     0
102
RTVSPost2010PropOp36
 70
     1
102
RTVSPost2010Prop37
 90
       50
102
RTVSPost2010PropOp37
 70
     1
102
RTVSPost2010Prop38
140
0.0
102
RTVSPost2010PropOp38
 70
     1
102
RTVSPost2010Prop39
140
1.0
102
RTVSPost2010PropOp39
 70
     1
102
RTVSPost2010Prop40
 90
        0
102
RTVSPost2010PropOp40
 70
     1
102
RTVSPost2010Prop41ColorIndex
 90
       18
102
RTVSPost2010Prop41ColorRGB
 90
        0
102
RTVSPost2010PropOp41
 70
     1
102
RTVSPost2010Prop42
 90
       50
102
RTVSPost2010PropOp42
 70
     1
102
RTVSPost2010Prop43
 90
        3
102
RTVSPost2010PropOp43
 70
     1
102
RTVSPost2010Prop44ColorIndex
 90
        5
102
RTVSPost2010Prop44ColorRGB
 90
      255
102
RTVSPost2010PropOp44
 70
     1
102
RTVSPost2010Prop45
280
     0
102
RTVSPost2010PropOp45
 70
     1
102
RTVSPost2010Prop46
 90
       50
102
RTVSPost2010PropOp46
 70
     1
102
RTVSPost2010Prop47
 90
       50
102
RTVSPost2010PropOp47
 70
     1
102
RTVSPost2010Prop48
 90
       50
102
RTVSPost2010PropOp48
 70
     1
102
RTVSPost2010Prop49
280
     0
102
RTVSPost2010PropOp49
 70
     1
102
RTVSPost2010Prop50
 90
       50
102
RTVSPost2010PropOp50
 70
     1
102
RTVSPost2010Prop51ColorIndex
 90
      256
102
RTVSPost2010Prop51ColorRGB
 90
-16777216
102
RTVSPost2010PropOp51
 70
     0
102
RTVSPost2010Prop52
140
1.0
102
RTVSPost2010PropOp52
 70
     0
102
RTVSPost2010Prop53
 90
        2
102
RTVSPost2010PropOp53
 70
     1
102
RTVSPost2010Prop54
  1
strokes_ogs.tif
102
RTVSPost2010PropOp54
 70
     1
102
RTVSPost2010Prop55
280
     0
102
RTVSPost2010PropOp55
 70
     1
102
RTVSPost2010Prop56
140
1.0
102
RTVSPost2010PropOp56
 70
     1
102
RTVSPost2010Prop57
140
1.0
102
RTVSPost2010PropOp57
 70
     1
102
RTVSPropertyOp0
 70
     1
102
RTVSPropertyOp1
 70
     1
102
RTVSPropertyOp2
 70
     1
102
RTVSPropertyOp3
 70
     1
102
RTVSPropertyOp4
 70
     1
102
RTVSPropertyOp5
 70
     1
102
RTVSPropertyOp6
 70
     1
102
RTVSPropertyOp7
 70
     1
102
RTVSPropertyOp8
 70
     1
102
RTVSPropertyOp9
 70
     1
102
RTVSPropertyOp10
 70
     1
102
RTVSPropertyOp11
 70
     1
102
RTVSPropertyOp12
 70
     1
102
RTVSPropertyOp13
 70
     1
102
RTVSPropertyOp14
 70
     1
102
RTVSPropertyOp15
 70
     1
102
RTVSPropertyOp16
 70
     1
102
RTVSPropertyOp17
 70
     1
102
RTVSPropertyOp18
 70
     1
102
RTVSPropertyOp19
 70
     1
102
RTVSPropertyOp20
 70
     1
102
RTVSPropertyOp21
 70
     1
102
RTVSPropertyOp22
 70
     1
102
RTVSPropertyOp23
 70
     1
102
RTVSPropertyOp24
 70
     1
102
RTVSPropertyOp25
 70
     1
102
RTVSPropertyOp26
 70
     1
102
RTVSPropertyOp27
 70
     1
102
RTVSPropertyOp28
 70
     1
102
RTVSPropertyOp29
 70
     1
102
RTVSPropertyOp30
 70
     1
102
RTVSPropertyOp31
 70
     1
102
RTVSPropertyOp32
 70
     1
102
RTVSPropertyOp33
 70
     1
102
RTVSPropertyOp34
 70
     1
102
RTVSPropertyOp35
 70
     1
102
RTVSPropertyOp36
 70
     1
102
RTVSPropertyOp37
 70
     1
102
RTVSPropertyOp38
 70
     1
102
RTVSPropertyOp39
 70
     1
102
RTVSPropertyOp40
 70
     1
102
RTVSPropertyOp41
 70
     1
102
RTVSPropertyOp42
 70
     1
102
RTVSPropertyOp43
 70
     1
102
RTVSPropertyOp44
 70
     1
102
RTVSPropertyOp45
 70
     1
102
RTVSPropertyOp46
 70
     1
102
RTVSPropertyOp47
 70
     1
102
RTVSPropertyOp48
 70
     1
102
RTVSPropertyOp49
 70
     1
102
RTVSPropertyOp50
 70
     1
102
RTVSPropertyOp51
 70
     0
102
RTVSPropertyOp52
 70
     0
102
RTVSPropertyOp53
 70
     1
102
RTVSPropertyOp54
 70
     1
102
RTVSPropertyOp55
 70
     1
102
RTVSPropertyOp56
 70
     1
102
RTVSPropertyOp57
 70
     1
102
RTVSPropertyOp58
 70
     1
102
RTVSPropertyOp59
 70
     1
102
RTVSPropertyOp60
 70
     1
102
RTVSPropertyOp61
 70
     1
102
RTVSPropertyOp62
 70
     1
  0
XRECORD
  5
218F
102
{ACAD_REACTORS
330
218E
102
}
330
218E
100
AcDbXrecord
280
     1
102
RTVSPost2010Prop28
280
     0
102
RTVSPost2010PropOp28
 70
     1
102
RTVSPost2010Prop29
280
     1
102
RTVSPost2010PropOp29
 70
     1
102
RTVSPost2010Prop30
280
     1
102
RTVSPost2010PropOp30
 70
     1
102
RTVSPost2010Prop31
280
     0
102
RTVSPost2010PropOp31
 70
     1
102
RTVSPost2010Prop32
280
     0
102
RTVSPost2010PropOp32
 70
     1
102
RTVSPost2010Prop33
280
     0
102
RTVSPost2010PropOp33
 70
     1
102
RTVSPost2010Prop34
280
     0
102
RTVSPost2010PropOp34
 70
     1
102
RTVSPost2010Prop35
280
     0
102
RTVSPost2010PropOp35
 70
     1
102
RTVSPost2010Prop36
280
     0
102
RTVSPost2010PropOp36
 70
     1
102
RTVSPost2010Prop37
 90
       50
102
RTVSPost2010PropOp37
 70
     1
102
RTVSPost2010Prop38
140
0.0
102
RTVSPost2010PropOp38
 70
     1
102
RTVSPost2010Prop39
140
1.0
102
RTVSPost2010PropOp39
 70
     1
102
RTVSPost2010Prop40
 90
        0
102
RTVSPost2010PropOp40
 70
     1
102
RTVSPost2010Prop41ColorIndex
 90
       18
102
RTVSPost2010Prop41ColorRGB
 90
        0
102
RTVSPost2010PropOp41
 70
     1
102
RTVSPost2010Prop42
 90
       50
102
RTVSPost2010PropOp42
 70
     1
102
RTVSPost2010Prop43
 90
        3
102
RTVSPost2010PropOp43
 70
     1
102
RTVSPost2010Prop44ColorIndex
 90
        5
102
RTVSPost2010Prop44ColorRGB
 90
      255
102
RTVSPost2010PropOp44
 70
     1
102
RTVSPost2010Prop45
280
     0
102
RTVSPost2010PropOp45
 70
     1
102
RTVSPost2010Prop46
 90
       50
102
RTVSPost2010PropOp46
 70
     1
102
RTVSPost2010Prop47
 90
       50
102
RTVSPost2010PropOp47
 70
     1
102
RTVSPost2010Prop48
 90
       50
102
RTVSPost2010PropOp48
 70
     1
102
RTVSPost2010Prop49
280
     0
102
RTVSPost2010PropOp49
 70
     1
102
RTVSPost2010Prop50
 90
       50
102
RTVSPost2010PropOp50
 70
     1
102
RTVSPost2010Prop51ColorIndex
 90
      256
102
RTVSPost2010Prop51ColorRGB
 90
-16777216
102
RTVSPost2010PropOp51
 70
     0
102
RTVSPost2010Prop52
140
1.0
102
RTVSPost2010PropOp52
 70
     0
102
RTVSPost2010Prop53
 90
        2
102
RTVSPost2010PropOp53
 70
     1
102
RTVSPost2010Prop54
  1
strokes_ogs.tif
102
RTVSPost2010PropOp54
 70
     1
102
RTVSPost2010Prop55
280
     0
102
RTVSPost2010PropOp55
 70
     1
102
RTVSPost2010Prop56
140
1.0
102
RTVSPost2010PropOp56
 70
     1
102
RTVSPost2010Prop57
140
1.0
102
RTVSPost2010PropOp57
 70
     1
102
RTVSPropertyOp0
 70
     1
102
RTVSPropertyOp1
 70
     1
102
RTVSPropertyOp2
 70
     1
102
RTVSPropertyOp3
 70
     1
102
RTVSPropertyOp4
 70
     1
102
RTVSPropertyOp5
 70
     1
102
RTVSPropertyOp6
 70
     1
102
RTVSPropertyOp7
 70
     1
102
RTVSPropertyOp8
 70
     1
102
RTVSPropertyOp9
 70
     1
102
RTVSPropertyOp10
 70
     1
102
RTVSPropertyOp11
 70
     1
102
RTVSPropertyOp12
 70
     1
102
RTVSPropertyOp13
 70
     1
102
RTVSPropertyOp14
 70
     1
102
RTVSPropertyOp15
 70
     1
102
RTVSPropertyOp16
 70
     1
102
RTVSPropertyOp17
 70
     1
102
RTVSPropertyOp18
 70
     1
102
RTVSPropertyOp19
 70
     1
102
RTVSPropertyOp20
 70
     1
102
RTVSPropertyOp21
 70
     1
102
RTVSPropertyOp22
 70
     1
102
RTVSPropertyOp23
 70
     1
102
RTVSPropertyOp24
 70
     1
102
RTVSPropertyOp25
 70
     1
102
RTVSPropertyOp26
 70
     1
102
RTVSPropertyOp27
 70
     1
102
RTVSPropertyOp28
 70
     1
102
RTVSPropertyOp29
 70
     1
102
RTVSPropertyOp30
 70
     1
102
RTVSPropertyOp31
 70
     1
102
RTVSPropertyOp32
 70
     1
102
RTVSPropertyOp33
 70
     1
102
RTVSPropertyOp34
 70
     1
102
RTVSPropertyOp35
 70
     1
102
RTVSPropertyOp36
 70
     1
102
RTVSPropertyOp37
 70
     1
102
RTVSPropertyOp38
 70
     1
102
RTVSPropertyOp39
 70
     1
102
RTVSPropertyOp40
 70
     1
102
RTVSPropertyOp41
 70
     1
102
RTVSPropertyOp42
 70
     1
102
RTVSPropertyOp43
 70
     1
102
RTVSPropertyOp44
 70
     1
102
RTVSPropertyOp45
 70
     1
102
RTVSPropertyOp46
 70
     1
102
RTVSPropertyOp47
 70
     1
102
RTVSPropertyOp48
 70
     1
102
RTVSPropertyOp49
 70
     1
102
RTVSPropertyOp50
 70
     1
102
RTVSPropertyOp51
 70
     0
102
RTVSPropertyOp52
 70
     0
102
RTVSPropertyOp53
 70
     1
102
RTVSPropertyOp54
 70
     1
102
RTVSPropertyOp55
 70
     1
102
RTVSPropertyOp56
 70
     1
102
RTVSPropertyOp57
 70
     1
102
RTVSPropertyOp58
 70
     1
102
RTVSPropertyOp59
 70
     1
102
RTVSPropertyOp60
 70
     1
102
RTVSPropertyOp61
 70
     1
102
RTVSPropertyOp62
 70
     1
  0
XRECORD
  5
2183
102
{ACAD_REACTORS
330
2182
102
}
330
2182
100
AcDbXrecord
280
     1
102
RTVSPost2010Prop28
280
     0
102
RTVSPost2010PropOp28
 70
     1
102
RTVSPost2010Prop29
280
     1
102
RTVSPost2010PropOp29
 70
     1
102
RTVSPost2010Prop30
280
     1
102
RTVSPost2010PropOp30
 70
     1
102
RTVSPost2010Prop31
280
     0
102
RTVSPost2010PropOp31
 70
     1
102
RTVSPost2010Prop32
280
     0
102
RTVSPost2010PropOp32
 70
     1
102
RTVSPost2010Prop33
280
     0
102
RTVSPost2010PropOp33
 70
     1
102
RTVSPost2010Prop34
280
     0
102
RTVSPost2010PropOp34
 70
     1
102
RTVSPost2010Prop35
280
     0
102
RTVSPost2010PropOp35
 70
     1
102
RTVSPost2010Prop36
280
     0
102
RTVSPost2010PropOp36
 70
     1
102
RTVSPost2010Prop37
 90
       50
102
RTVSPost2010PropOp37
 70
     1
102
RTVSPost2010Prop38
140
0.0
102
RTVSPost2010PropOp38
 70
     1
102
RTVSPost2010Prop39
140
1.0
102
RTVSPost2010PropOp39
 70
     1
102
RTVSPost2010Prop40
 90
        0
102
RTVSPost2010PropOp40
 70
     1
102
RTVSPost2010Prop41ColorIndex
 90
       18
102
RTVSPost2010Prop41ColorRGB
 90
        0
102
RTVSPost2010PropOp41
 70
     1
102
RTVSPost2010Prop42
 90
       50
102
RTVSPost2010PropOp42
 70
     1
102
RTVSPost2010Prop43
 90
        3
102
RTVSPost2010PropOp43
 70
     1
102
RTVSPost2010Prop44ColorIndex
 90
        5
102
RTVSPost2010Prop44ColorRGB
 90
      255
102
RTVSPost2010PropOp44
 70
     1
102
RTVSPost2010Prop45
280
     0
102
RTVSPost2010PropOp45
 70
     1
102
RTVSPost2010Prop46
 90
       50
102
RTVSPost2010PropOp46
 70
     1
102
RTVSPost2010Prop47
 90
       50
102
RTVSPost2010PropOp47
 70
     1
102
RTVSPost2010Prop48
 90
       50
102
RTVSPost2010PropOp48
 70
     1
102
RTVSPost2010Prop49
280
     0
102
RTVSPost2010PropOp49
 70
     1
102
RTVSPost2010Prop50
 90
       50
102
RTVSPost2010PropOp50
 70
     1
102
RTVSPost2010Prop51ColorIndex
 90
      256
102
RTVSPost2010Prop51ColorRGB
 90
-16777216
102
RTVSPost2010PropOp51
 70
     0
102
RTVSPost2010Prop52
140
1.0
102
RTVSPost2010PropOp52
 70
     0
102
RTVSPost2010Prop53
 90
        2
102
RTVSPost2010PropOp53
 70
     1
102
RTVSPost2010Prop54
  1
strokes_ogs.tif
102
RTVSPost2010PropOp54
 70
     1
102
RTVSPost2010Prop55
280
     0
102
RTVSPost2010PropOp55
 70
     1
102
RTVSPost2010Prop56
140
1.0
102
RTVSPost2010PropOp56
 70
     1
102
RTVSPost2010Prop57
140
1.0
102
RTVSPost2010PropOp57
 70
     1
102
RTVSPropertyOp0
 70
     1
102
RTVSPropertyOp1
 70
     1
102
RTVSPropertyOp2
 70
     1
102
RTVSPropertyOp3
 70
     1
102
RTVSPropertyOp4
 70
     1
102
RTVSPropertyOp5
 70
     1
102
RTVSPropertyOp6
 70
     1
102
RTVSPropertyOp7
 70
     1
102
RTVSPropertyOp8
 70
     1
102
RTVSPropertyOp9
 70
     1
102
RTVSPropertyOp10
 70
     1
102
RTVSPropertyOp11
 70
     1
102
RTVSPropertyOp12
 70
     1
102
RTVSPropertyOp13
 70
     1
102
RTVSPropertyOp14
 70
     1
102
RTVSPropertyOp15
 70
     1
102
RTVSPropertyOp16
 70
     1
102
RTVSPropertyOp17
 70
     1
102
RTVSPropertyOp18
 70
     1
102
RTVSPropertyOp19
 70
     1
102
RTVSPropertyOp20
 70
     1
102
RTVSPropertyOp21
 70
     1
102
RTVSPropertyOp22
 70
     1
102
RTVSPropertyOp23
 70
     1
102
RTVSPropertyOp24
 70
     1
102
RTVSPropertyOp25
 70
     1
102
RTVSPropertyOp26
 70
     1
102
RTVSPropertyOp27
 70
     1
102
RTVSPropertyOp28
 70
     1
102
RTVSPropertyOp29
 70
     1
102
RTVSPropertyOp30
 70
     1
102
RTVSPropertyOp31
 70
     1
102
RTVSPropertyOp32
 70
     1
102
RTVSPropertyOp33
 70
     1
102
RTVSPropertyOp34
 70
     1
102
RTVSPropertyOp35
 70
     1
102
RTVSPropertyOp36
 70
     1
102
RTVSPropertyOp37
 70
     1
102
RTVSPropertyOp38
 70
     1
102
RTVSPropertyOp39
 70
     1
102
RTVSPropertyOp40
 70
     1
102
RTVSPropertyOp41
 70
     1
102
RTVSPropertyOp42
 70
     1
102
RTVSPropertyOp43
 70
     1
102
RTVSPropertyOp44
 70
     1
102
RTVSPropertyOp45
 70
     1
102
RTVSPropertyOp46
 70
     1
102
RTVSPropertyOp47
 70
     1
102
RTVSPropertyOp48
 70
     1
102
RTVSPropertyOp49
 70
     1
102
RTVSPropertyOp50
 70
     1
102
RTVSPropertyOp51
 70
     0
102
RTVSPropertyOp52
 70
     0
102
RTVSPropertyOp53
 70
     1
102
RTVSPropertyOp54
 70
     1
102
RTVSPropertyOp55
 70
     1
102
RTVSPropertyOp56
 70
     1
102
RTVSPropertyOp57
 70
     1
102
RTVSPropertyOp58
 70
     1
102
RTVSPropertyOp59
 70
     1
102
RTVSPropertyOp60
 70
     1
102
RTVSPropertyOp61
 70
     1
102
RTVSPropertyOp62
 70
     1
  0
XRECORD
  5
219B
102
{ACAD_REACTORS
330
219A
102
}
330
219A
100
AcDbXrecord
280
     1
102
RTVSPost2010Prop28
280
     0
102
RTVSPost2010PropOp28
 70
     1
102
RTVSPost2010Prop29
280
     1
102
RTVSPost2010PropOp29
 70
     1
102
RTVSPost2010Prop30
280
     1
102
RTVSPost2010PropOp30
 70
     1
102
RTVSPost2010Prop31
280
     0
102
RTVSPost2010PropOp31
 70
     1
102
RTVSPost2010Prop32
280
     0
102
RTVSPost2010PropOp32
 70
     1
102
RTVSPost2010Prop33
280
     0
102
RTVSPost2010PropOp33
 70
     1
102
RTVSPost2010Prop34
280
     0
102
RTVSPost2010PropOp34
 70
     1
102
RTVSPost2010Prop35
280
     0
102
RTVSPost2010PropOp35
 70
     1
102
RTVSPost2010Prop36
280
     0
102
RTVSPost2010PropOp36
 70
     1
102
RTVSPost2010Prop37
 90
       50
102
RTVSPost2010PropOp37
 70
     1
102
RTVSPost2010Prop38
140
0.0
102
RTVSPost2010PropOp38
 70
     1
102
RTVSPost2010Prop39
140
1.0
102
RTVSPost2010PropOp39
 70
     1
102
RTVSPost2010Prop40
 90
        0
102
RTVSPost2010PropOp40
 70
     1
102
RTVSPost2010Prop41ColorIndex
 90
       18
102
RTVSPost2010Prop41ColorRGB
 90
        0
102
RTVSPost2010PropOp41
 70
     1
102
RTVSPost2010Prop42
 90
       50
102
RTVSPost2010PropOp42
 70
     1
102
RTVSPost2010Prop43
 90
        3
102
RTVSPost2010PropOp43
 70
     1
102
RTVSPost2010Prop44ColorIndex
 90
        5
102
RTVSPost2010Prop44ColorRGB
 90
      255
102
RTVSPost2010PropOp44
 70
     1
102
RTVSPost2010Prop45
280
     0
102
RTVSPost2010PropOp45
 70
     1
102
RTVSPost2010Prop46
 90
       50
102
RTVSPost2010PropOp46
 70
     1
102
RTVSPost2010Prop47
 90
       50
102
RTVSPost2010PropOp47
 70
     1
102
RTVSPost2010Prop48
 90
       50
102
RTVSPost2010PropOp48
 70
     1
102
RTVSPost2010Prop49
280
     0
102
RTVSPost2010PropOp49
 70
     1
102
RTVSPost2010Prop50
 90
       50
102
RTVSPost2010PropOp50
 70
     1
102
RTVSPost2010Prop51ColorIndex
 90
      256
102
RTVSPost2010Prop51ColorRGB
 90
-16777216
102
RTVSPost2010PropOp51
 70
     0
102
RTVSPost2010Prop52
140
1.0
102
RTVSPost2010PropOp52
 70
     0
102
RTVSPost2010Prop53
 90
        2
102
RTVSPost2010PropOp53
 70
     1
102
RTVSPost2010Prop54
  1
strokes_ogs.tif
102
RTVSPost2010PropOp54
 70
     1
102
RTVSPost2010Prop55
280
     0
102
RTVSPost2010PropOp55
 70
     1
102
RTVSPost2010Prop56
140
1.0
102
RTVSPost2010PropOp56
 70
     1
102
RTVSPost2010Prop57
140
1.0
102
RTVSPost2010PropOp57
 70
     1
102
RTVSPropertyOp0
 70
     1
102
RTVSPropertyOp1
 70
     1
102
RTVSPropertyOp2
 70
     1
102
RTVSPropertyOp3
 70
     1
102
RTVSPropertyOp4
 70
     1
102
RTVSPropertyOp5
 70
     1
102
RTVSPropertyOp6
 70
     1
102
RTVSPropertyOp7
 70
     1
102
RTVSPropertyOp8
 70
     1
102
RTVSPropertyOp9
 70
     1
102
RTVSPropertyOp10
 70
     1
102
RTVSPropertyOp11
 70
     1
102
RTVSPropertyOp12
 70
     1
102
RTVSPropertyOp13
 70
     1
102
RTVSPropertyOp14
 70
     1
102
RTVSPropertyOp15
 70
     1
102
RTVSPropertyOp16
 70
     1
102
RTVSPropertyOp17
 70
     1
102
RTVSPropertyOp18
 70
     1
102
RTVSPropertyOp19
 70
     1
102
RTVSPropertyOp20
 70
     1
102
RTVSPropertyOp21
 70
     1
102
RTVSPropertyOp22
 70
     1
102
RTVSPropertyOp23
 70
     1
102
RTVSPropertyOp24
 70
     1
102
RTVSPropertyOp25
 70
     1
102
RTVSPropertyOp26
 70
     1
102
RTVSPropertyOp27
 70
     1
102
RTVSPropertyOp28
 70
     1
102
RTVSPropertyOp29
 70
     1
102
RTVSPropertyOp30
 70
     1
102
RTVSPropertyOp31
 70
     1
102
RTVSPropertyOp32
 70
     1
102
RTVSPropertyOp33
 70
     1
102
RTVSPropertyOp34
 70
     1
102
RTVSPropertyOp35
 70
     1
102
RTVSPropertyOp36
 70
     1
102
RTVSPropertyOp37
 70
     1
102
RTVSPropertyOp38
 70
     1
102
RTVSPropertyOp39
 70
     1
102
RTVSPropertyOp40
 70
     1
102
RTVSPropertyOp41
 70
     1
102
RTVSPropertyOp42
 70
     1
102
RTVSPropertyOp43
 70
     1
102
RTVSPropertyOp44
 70
     1
102
RTVSPropertyOp45
 70
     1
102
RTVSPropertyOp46
 70
     1
102
RTVSPropertyOp47
 70
     1
102
RTVSPropertyOp48
 70
     1
102
RTVSPropertyOp49
 70
     1
102
RTVSPropertyOp50
 70
     1
102
RTVSPropertyOp51
 70
     0
102
RTVSPropertyOp52
 70
     0
102
RTVSPropertyOp53
 70
     1
102
RTVSPropertyOp54
 70
     1
102
RTVSPropertyOp55
 70
     1
102
RTVSPropertyOp56
 70
     1
102
RTVSPropertyOp57
 70
     1
102
RTVSPropertyOp58
 70
     1
102
RTVSPropertyOp59
 70
     1
102
RTVSPropertyOp60
 70
     1
102
RTVSPropertyOp61
 70
     1
102
RTVSPropertyOp62
 70
     1
  0
ENDSEC
  0
EOF
