  0
SECTION
  2
HEADER
  9
$ACADVER
  1
AC1015
  9
$DWGCODEPAGE
  3
ANSI_932
  9
$LTSCALE
 40
20.0
  9
$FILLMODE
 70
     1
  9
$CLAYER
  8
0
  9
$PDMODE
 70
     0
  9
$SPLFRAME
 70
     0
  9
$SPLINETYPE
 70
     6
  9
$SPLINESEGS
 70
     8
  9
$DIMASZ
 40
2.000000
  9
$DIMEXE
 40
1.500000
  9
$DIMEXO
 40
0.800000
  9
$DIMTAD
 70
     1
  9
$DIMTIH
 70
     0
  9
$DIMTOH
 70
     0
  9
$DIMTVP
 40
0.500000
  9
$DIMTXT
 40
3.100000
  9
$EXTMIN
 10
0.000000
 20
0.000000
 30
0.000000
  9
$EXTMAX
 10
297.000000
 20
420.000000
 30
0.000000
  9
$MEASUREMENT
 70
  1
  9
$LIMMIN
 10
0.000000
 20
0.000000
  9
$LIMMAX
 10
297.000000
 20
420.000000
  9
$HANDSEED
  5
20F
  9
$LWDISPLAY
290
     0
  9
$DIMBLK
  1
_OPEN
  9
$DIMDEC
 70
     2
  9
$DIMADEC
 70
     2
  9
$DIMAUNIT
 70
     0
  9
$DIMZIN
 70
     8
  9
$DIMAZIN
 70
     2
  9
$DIMTOFL
 70
     1
  0
ENDSEC
  0
SECTION
  2
CLASSES
  0
ENDSEC
  0
SECTION
  2
TABLES
  0
TABLE
  2
VPORT
  5
1DE
100
AcDbSymbolTable
 70
     1
  0
VPORT
  5
1DF
100
AcDbSymbolTableRecord
100
AcDbViewportTableRecord
  2
*ACTIVE
 70
     0
 12
210.000000
 22
147.556071
 40
293.470525
 41
1.892078
  0
ENDTAB
  0
TABLE
  2
LTYPE
  5
1E0
100
AcDbSymbolTable
 70
     3
  0
LTYPE
  5
1E1
100
AcDbSymbolTableRecord
100
AcDbLinetypeTableRecord
  2
BYBLOCK
 70
     0
  3

 72
    65
 73
     0
 40
0.0
  0
LTYPE
  5
1E2
100
AcDbSymbolTableRecord
100
AcDbLinetypeTableRecord
  2
BYLAYER
 70
     0
  3

 72
    65
 73
     0
 40
0.0
  0
LTYPE
  5
1E3
100
AcDbSymbolTableRecord
100
AcDbLinetypeTableRecord
  2
CONTINUOUS
 70
     0
  3
Solid line (NEC CAE2D for Win R16.0 : 2021.10.21)
 72
    65
 73
     0
 40
0.0
  0
LTYPE
  5
1E4
100
AcDbSymbolTableRecord
100
AcDbLinetypeTableRecord
  2
DASHED
 70
     0
  3
__ __ __ __ __ __ __ __ __ __ __ __ __ _
 72
    65
 73
     2
 40
0.75
 49
0.5
 74
     0
 49
-0.25
 74
     0
  0
LTYPE
  5
1E5
100
AcDbSymbolTableRecord
100
AcDbLinetypeTableRecord
  2
CENTER
 70
     0
  3
____ _ ____ _ ____ _ ____ _ ____ _ ____
 72
    65
 73
     4
 40
2.0
 49
1.25
 74
     0
 49
-0.25
 74
     0
 49
0.25
 74
     0
 49
-0.25
 74
     0
  0
ENDTAB
  0
TABLE
  2
LAYER
  5
1E6
100
AcDbSymbolTable
 70
    10
  0
LAYER
  5
1E7
100
AcDbSymbolTableRecord
100
AcDbLayerTableRecord
  2
0
 70
     0
 62
     7
  6
CONTINUOUS
370
    -3
390

  0
LAYER
  5
1E8
100
AcDbSymbolTableRecord
100
AcDbLayerTableRecord
  2
DXF0
 70
     0
 62
     7
  6
CONTINUOUS
370
    -3
390

  0
LAYER
  5
1E9
100
AcDbSymbolTableRecord
100
AcDbLayerTableRecord
  2
4
 70
     0
 62
     1
  6
CONTINUOUS
370
    -3
390

  0
LAYER
  5
1EA
100
AcDbSymbolTableRecord
100
AcDbLayerTableRecord
  2
5
 70
     0
 62
     6
  6
CONTINUOUS
370
    -3
390

  0
LAYER
  5
1EB
100
AcDbSymbolTableRecord
100
AcDbLayerTableRecord
  2
1
 70
     0
 62
     7
  6
CONTINUOUS
370
    -3
390

  0
LAYER
  5
1EC
100
AcDbSymbolTableRecord
100
AcDbLayerTableRecord
  2
2
 70
     0
 62
     4
  6
CONTINUOUS
370
    -3
390

  0
LAYER
  5
1ED
100
AcDbSymbolTableRecord
100
AcDbLayerTableRecord
  2
3
 70
     0
 62
     2
  6
CONTINUOUS
370
    -3
390

  0
LAYER
  5
1EE
100
AcDbSymbolTableRecord
100
AcDbLayerTableRecord
  2
6
 70
     0
 62
     5
  6
CONTINUOUS
370
    -3
390

  0
LAYER
  5
1EF
100
AcDbSymbolTableRecord
100
AcDbLayerTableRecord
  2
7
 70
     0
 62
     7
  6
CONTINUOUS
370
    -3
390

  0
LAYER
  5
1F0
100
AcDbSymbolTableRecord
100
AcDbLayerTableRecord
  2
DXF1023
 70
     0
 62
    16
  6
CONTINUOUS
370
    -3
390

  0
ENDTAB
  0
TABLE
  2
STYLE
  5
1F1
100
AcDbSymbolTable
 70
     4
  0
STYLE
  5
1F2
100
AcDbSymbolTableRecord
100
AcDbTextStyleTableRecord
  2
STANDARD
 70
    64
 40
0.0
 41
1.0
 50
0.0
 71
     0
 42
3.000000000000000
  3
TXT
  4

  0
STYLE
  5
1F3
100
AcDbSymbolTableRecord
100
AcDbTextStyleTableRecord
  2
ANKTATE
 70
    68
 40
0.0
 41
1.0
 50
0.0
 71
     0
 42
3.000000000000000
  3
TXT
  4

  0
STYLE
  5
1F4
100
AcDbSymbolTableRecord
100
AcDbTextStyleTableRecord
  2
KNJYOKO
 70
    64
 40
0.0
 41
1.0
 50
0.0
 71
     0
 42
3.000000000000000
  3
TXT
  4
BIGFONT
  0
STYLE
  5
1F5
100
AcDbSymbolTableRecord
100
AcDbTextStyleTableRecord
  2
KNJTATE
 70
    68
 40
0.0
 41
1.0
 50
0.0
 71
     0
 42
3.000000000000000
  3
TXT
  4
BIGFONT
  0
ENDTAB
  0
TABLE
  2
VIEW
  5
1F6
100
AcDbSymbolTable
 70
     0
  0
ENDTAB
  0
TABLE
  2
UCS
  5
1F7
100
AcDbSymbolTable
 70
     0
  0
ENDTAB
  0
TABLE
  2
APPID
  5
1F8
100
AcDbSymbolTable
 70
     1
  0
APPID
  5
1F9
100
AcDbSymbolTableRecord
100
AcDbRegAppTableRecord
  2
ACAD
 70
     0
  0
ENDTAB
  0
TABLE
  2
DIMSTYLE
  5
1FA
100
AcDbSymbolTable
 70
     2
100
AcDbDimStyleTable
  0
DIMSTYLE
105
1FB
100
AcDbSymbolTableRecord
100
AcDbDimStyleTableRecord
  2
STANDARD
 70
     0
 41
2.000000
 44
1.500000
 42
0.800000
145
0.661290
140
3.100000
144
1.000000
146
0.645161
340
1F2
  0
DIMSTYLE
105
1FC
100
AcDbSymbolTableRecord
100
AcDbDimStyleTableRecord
  2
DXF001
 70
     0
 41
2.000000
 44
1.500000
 42
0.800000
145
0.661290
140
3.100000
144
1.000000
146
0.645161
 77
     1
 73
     0
 74
     0
271
     2
179
     2
275
     0
 78
     8
 79
     2
172
     1
340
1F2
  0
ENDTAB
  0
TABLE
  2
BLOCK_RECORD
  5
1FD
100
AcDbSymbolTable
 70
    12
  0
BLOCK_RECORD
  5
1FE
100
AcDbSymbolTableRecord
100
AcDbBlockTableRecord
  2
*MODEL_SPACE
  0
BLOCK_RECORD
  5
1FF
100
AcDbSymbolTableRecord
100
AcDbBlockTableRecord
  2
*PAPER_SPACE
  0
BLOCK_RECORD
  5
200
100
AcDbSymbolTableRecord
100
AcDbBlockTableRecord
  2
*PAPER_SPACE0
  0
BLOCK_RECORD
  5
1
100
AcDbSymbolTableRecord
100
AcDbBlockTableRecord
  2
_NONE
  0
BLOCK_RECORD
  5
4
100
AcDbSymbolTableRecord
100
AcDbBlockTableRecord
  2
_CLOSED
  0
BLOCK_RECORD
  5
B
100
AcDbSymbolTableRecord
100
AcDbBlockTableRecord
  2
_DOT
  0
BLOCK_RECORD
  5
13
100
AcDbSymbolTableRecord
100
AcDbBlockTableRecord
  2
_OPEN
  0
BLOCK_RECORD
  5
19
100
AcDbSymbolTableRecord
100
AcDbBlockTableRecord
  2
_ORIGIN
  0
BLOCK_RECORD
  5
1E
100
AcDbSymbolTableRecord
100
AcDbBlockTableRecord
  2
_OPEN30
  0
BLOCK_RECORD
  5
24
100
AcDbSymbolTableRecord
100
AcDbBlockTableRecord
  2
_BOXFILLED
  0
BLOCK_RECORD
  5
29
100
AcDbSymbolTableRecord
100
AcDbBlockTableRecord
  2
_BOXBLANK
  0
BLOCK_RECORD
  5
31
100
AcDbSymbolTableRecord
100
AcDbBlockTableRecord
  2
_OBLIQUE
  0
BLOCK_RECORD
  5
35
100
AcDbSymbolTableRecord
100
AcDbBlockTableRecord
  2
_OPEN90
  0
BLOCK_RECORD
  5
3B
100
AcDbSymbolTableRecord
100
AcDbBlockTableRecord
  2
_CLOSEDBLANK
  0
BLOCK_RECORD
  5
41
100
AcDbSymbolTableRecord
100
AcDbBlockTableRecord
  2
_DOTBLANK
  0
ENDTAB
  0
ENDSEC
  0
SECTION
  2
BLOCKS
  0
BLOCK
  5
201
100
AcDbEntity
  8
0
100
AcDbBlockBegin
  2
*MODEL_SPACE
 70
     0
 10
0.0
 20
0.0
 30
0.0
  3
*MODEL_SPACE
  1

  0
ENDBLK
  5
202
100
AcDbEntity
  8
0
100
AcDbBlockEnd
  0
BLOCK
  5
203
100
AcDbEntity
  8
0
100
AcDbBlockBegin
  2
*PAPER_SPACE
 70
     0
 10
0.0
 20
0.0
 30
0.0
  3
*PAPER_SPACE
  1

  0
ENDBLK
  5
204
100
AcDbEntity
  8
0
100
AcDbBlockEnd
  0
BLOCK
  5
205
100
AcDbEntity
  8
0
100
AcDbBlockBegin
  2
*PAPER_SPACE0
 70
     0
 10
0.0
 20
0.0
 30
0.0
  3
*PAPER_SPACE0
  1

  0
ENDBLK
  5
206
100
AcDbEntity
  8
0
100
AcDbBlockEnd
  0
BLOCK
  5
2
330
1
100
AcDbEntity
  8
0
100
AcDbBlockBegin
  2
_NONE
 70
     0
 10
0.0
 20
0.0
 30
0.0
  3
_NONE
  1

  0
ENDBLK
  5
3
330
1
100
AcDbEntity
  8
0
100
AcDbBlockEnd
  0
BLOCK
  5
5
330
4
100
AcDbEntity
  8
0
100
AcDbBlockBegin
  2
_CLOSED
 70
     0
 10
0.0
 20
0.0
 30
0.0
  3
_CLOSED
  1

  0
LINE
  5
6
330
4
100
AcDbEntity
  8
0
  6
BYBLOCK
 62
     0
370
    -2
100
AcDbLine
 10
-1.0
 20
0.166667
 30
0.0
 11
0.0
 21
0.0
 31
0.0
  0
LINE
  5
7
330
4
100
AcDbEntity
  8
0
  6
BYBLOCK
 62
     0
370
    -2
100
AcDbLine
 10
0.0
 20
0.0
 30
0.0
 11
-1.0
 21
-0.166667
 31
0.0
  0
LINE
  5
8
330
4
100
AcDbEntity
  8
0
  6
BYBLOCK
 62
     0
370
    -2
100
AcDbLine
 10
-1.0
 20
0.166667
 30
0.0
 11
-1.0
 21
-0.166667
 31
0.0
  0
LINE
  5
9
330
4
100
AcDbEntity
  8
0
  6
BYBLOCK
 62
     0
370
    -2
100
AcDbLine
 10
0.0
 20
0.0
 30
0.0
 11
-1.0
 21
0.0
 31
0.0
  0
ENDBLK
  5
A
330
4
100
AcDbEntity
  8
0
100
AcDbBlockEnd
  0
BLOCK
  5
C
330
B
100
AcDbEntity
  8
0
100
AcDbBlockBegin
  2
_DOT
 70
     0
 10
0.0
 20
0.0
 30
0.0
  3
_DOT
  1

  0
POLYLINE
  5
D
330
B
100
AcDbEntity
  8
0
  6
BYBLOCK
 62
     0
370
    -2
100
AcDb2dPolyline
 66
     1
 10
0.0
 20
0.0
 30
0.0
 70
     1
 40
0.5
 41
0.5
  0
VERTEX
  5
E
330
B
100
AcDbEntity
  8
0
  6
BYBLOCK
 62
     0
370
    -2
100
AcDbVertex
100
AcDb2dVertex
 10
-0.25
 20
0.0
 30
0.0
 42
1.0
  0
VERTEX
  5
F
330
B
100
AcDbEntity
  8
0
  6
BYBLOCK
 62
     0
370
    -2
100
AcDbVertex
100
AcDb2dVertex
 10
0.25
 20
0.0
 30
0.0
 42
1.0
  0
SEQEND
  5
10
330
B
100
AcDbEntity
  8
0
  6
BYBLOCK
 62
     0
370
    -2
  0
LINE
  5
11
330
B
100
AcDbEntity
  8
0
  6
BYBLOCK
 62
     0
370
    -2
100
AcDbLine
 10
-0.5
 20
0.0
 30
0.0
 11
-1.0
 21
0.0
 31
0.0
  0
ENDBLK
  5
12
330
B
100
AcDbEntity
  8
0
100
AcDbBlockEnd
  0
BLOCK
  5
14
330
13
100
AcDbEntity
  8
0
100
AcDbBlockBegin
  2
_OPEN
 70
     0
 10
0.0
 20
0.0
 30
0.0
  3
_OPEN
  1

  0
LINE
  5
15
330
13
100
AcDbEntity
  8
0
  6
BYBLOCK
 62
     0
370
    -2
100
AcDbLine
 10
-1.0
 20
0.166667
 30
0.0
 11
0.0
 21
0.0
 31
0.0
  0
LINE
  5
16
330
13
100
AcDbEntity
  8
0
  6
BYBLOCK
 62
     0
370
    -2
100
AcDbLine
 10
0.0
 20
0.0
 30
0.0
 11
-1.0
 21
-0.166667
 31
0.0
  0
LINE
  5
17
330
13
100
AcDbEntity
  8
0
  6
BYBLOCK
 62
     0
370
    -2
100
AcDbLine
 10
0.0
 20
0.0
 30
0.0
 11
-1.0
 21
0.0
 31
0.0
  0
ENDBLK
  5
18
330
13
100
AcDbEntity
  8
0
100
AcDbBlockEnd
  0
BLOCK
  5
1A
330
19
100
AcDbEntity
  8
0
100
AcDbBlockBegin
  2
_ORIGIN
 70
     0
 10
0.0
 20
0.0
 30
0.0
  3
_ORIGIN
  1

  0
CIRCLE
  5
1B
330
19
100
AcDbEntity
  8
0
  6
BYBLOCK
 62
     0
370
    -2
100
AcDbCircle
 10
0.0
 20
0.0
 30
0.0
 40
0.5
  0
LINE
  5
1C
330
19
100
AcDbEntity
  8
0
  6
BYBLOCK
 62
     0
370
    -2
100
AcDbLine
 10
0.0
 20
0.0
 30
0.0
 11
-1.0
 21
0.0
 31
0.0
  0
ENDBLK
  5
1D
330
19
100
AcDbEntity
  8
0
100
AcDbBlockEnd
  0
BLOCK
  5
1F
330
1E
100
AcDbEntity
  8
0
100
AcDbBlockBegin
  2
_OPEN30
 70
     0
 10
0.0
 20
0.0
 30
0.0
  3
_OPEN30
  1

  0
LINE
  5
20
330
1E
100
AcDbEntity
  8
0
  6
BYBLOCK
 62
     0
370
    -2
100
AcDbLine
 10
-1.0
 20
0.267949
 30
0.0
 11
0.0
 21
0.0
 31
0.0
  0
LINE
  5
21
330
1E
100
AcDbEntity
  8
0
  6
BYBLOCK
 62
     0
370
    -2
100
AcDbLine
 10
0.0
 20
0.0
 30
0.0
 11
-1.0
 21
-0.267949
 31
0.0
  0
LINE
  5
22
330
1E
100
AcDbEntity
  8
0
  6
BYBLOCK
 62
     0
370
    -2
100
AcDbLine
 10
0.0
 20
0.0
 30
0.0
 11
-1.0
 21
0.0
 31
0.0
  0
ENDBLK
  5
23
330
1E
100
AcDbEntity
  8
0
100
AcDbBlockEnd
  0
BLOCK
  5
25
330
24
100
AcDbEntity
  8
0
100
AcDbBlockBegin
  2
_BOXFILLED
 70
     0
 10
0.0
 20
0.0
 30
0.0
  3
_BOXFILLED
  1

  0
SOLID
  5
26
330
24
100
AcDbEntity
  8
0
  6
BYBLOCK
 62
     0
370
    -2
100
AcDbTrace
 10
-0.5
 20
0.5
 30
0.0
 11
0.5
 21
0.5
 31
0.0
 12
-0.5
 22
-0.5
 32
0.0
 13
0.5
 23
-0.5
 33
0.0
  0
LINE
  5
27
330
24
100
AcDbEntity
  8
0
  6
BYBLOCK
 62
     0
370
    -2
100
AcDbLine
 10
-0.5
 20
0.0
 30
0.0
 11
-1.0
 21
0.0
 31
0.0
  0
ENDBLK
  5
28
330
24
100
AcDbEntity
  8
0
100
AcDbBlockEnd
  0
BLOCK
  5
2A
330
29
100
AcDbEntity
  8
0
100
AcDbBlockBegin
  2
_BOXBLANK
 70
     0
 10
0.0
 20
0.0
 30
0.0
  3
_BOXBLANK
  1

  0
LINE
  5
2B
330
29
100
AcDbEntity
  8
0
  6
BYBLOCK
 62
     0
370
    -2
100
AcDbLine
 10
-0.5
 20
-0.5
 30
0.0
 11
0.5
 21
-0.5
 31
0.0
  0
LINE
  5
2C
330
29
100
AcDbEntity
  8
0
  6
BYBLOCK
 62
     0
370
    -2
100
AcDbLine
 10
0.5
 20
-0.5
 30
0.0
 11
0.5
 21
0.5
 31
0.0
  0
LINE
  5
2D
330
29
100
AcDbEntity
  8
0
  6
BYBLOCK
 62
     0
370
    -2
100
AcDbLine
 10
0.5
 20
0.5
 30
0.0
 11
-0.5
 21
0.5
 31
0.0
  0
LINE
  5
2E
330
29
100
AcDbEntity
  8
0
  6
BYBLOCK
 62
     0
370
    -2
100
AcDbLine
 10
-0.5
 20
0.5
 30
0.0
 11
-0.5
 21
-0.5
 31
0.0
  0
LINE
  5
2F
330
29
100
AcDbEntity
  8
0
  6
BYBLOCK
 62
     0
370
    -2
100
AcDbLine
 10
-0.5
 20
0.0
 30
0.0
 11
-1.0
 21
0.0
 31
0.0
  0
ENDBLK
  5
30
330
29
100
AcDbEntity
  8
0
100
AcDbBlockEnd
  0
BLOCK
  5
32
330
31
100
AcDbEntity
  8
0
100
AcDbBlockBegin
  2
_OBLIQUE
 70
     0
 10
0.0
 20
0.0
 30
0.0
  3
_OBLIQUE
  1

  0
LINE
  5
33
330
31
100
AcDbEntity
  8
0
  6
BYBLOCK
 62
     0
370
    -2
100
AcDbLine
 10
-0.5
 20
-0.5
 30
0.0
 11
0.5
 21
0.5
 31
0.0
  0
ENDBLK
  5
34
330
31
100
AcDbEntity
  8
0
100
AcDbBlockEnd
  0
BLOCK
  5
36
330
35
100
AcDbEntity
  8
0
100
AcDbBlockBegin
  2
_OPEN90
 70
     0
 10
0.0
 20
0.0
 30
0.0
  3
_OPEN90
  1

  0
LINE
  5
37
330
35
100
AcDbEntity
  8
0
  6
BYBLOCK
 62
     0
370
    -2
100
AcDbLine
 10
-0.5
 20
0.5
 30
0.0
 11
0.0
 21
0.0
 31
0.0
  0
LINE
  5
38
330
35
100
AcDbEntity
  8
0
  6
BYBLOCK
 62
     0
370
    -2
100
AcDbLine
 10
0.0
 20
0.0
 30
0.0
 11
-0.5
 21
-0.5
 31
0.0
  0
LINE
  5
39
330
35
100
AcDbEntity
  8
0
  6
BYBLOCK
 62
     0
370
    -2
100
AcDbLine
 10
0.0
 20
0.0
 30
0.0
 11
-1.0
 21
0.0
 31
0.0
  0
ENDBLK
  5
3A
330
35
100
AcDbEntity
  8
0
100
AcDbBlockEnd
  0
BLOCK
  5
3C
330
3B
100
AcDbEntity
  8
0
100
AcDbBlockBegin
  2
_CLOSEDBLANK
 70
     0
 10
0.0
 20
0.0
 30
0.0
  3
_CLOSEDBLANK
  1

  0
LINE
  5
3D
330
3B
100
AcDbEntity
  8
0
  6
BYBLOCK
 62
     0
370
    -2
100
AcDbLine
 10
-1.0
 20
0.1666666666666666
 30
0.0
 11
0.0
 21
0.0
 31
0.0
  0
LINE
  5
3E
330
3B
100
AcDbEntity
  8
0
  6
BYBLOCK
 62
     0
370
    -2
100
AcDbLine
 10
0.0
 20
0.0
 30
0.0
 11
-1.0
 21
-0.1666666666666666
 31
0.0
  0
LINE
  5
3F
330
3B
100
AcDbEntity
  8
0
  6
BYBLOCK
 62
     0
370
    -2
100
AcDbLine
 10
-1.0
 20
0.1666666666666666
 30
0.0
 11
-1.0
 21
-0.1666666666666666
 31
0.0
  0
ENDBLK
  5
40
330
3B
100
AcDbEntity
  8
0
100
AcDbBlockEnd
  0
BLOCK
  5
42
330
41
100
AcDbEntity
  8
0
100
AcDbBlockBegin
  2
_DOTBLANK
 70
     0
 10
0.0
 20
0.0
 30
0.0
  3
_DOTBLANK
  1

  0
CIRCLE
  5
43
330
41
100
AcDbEntity
  8
0
  6
BYBLOCK
 62
     0
370
    -2
100
AcDbCircle
 10
0.0
 20
0.0
 30
0.0
 40
0.5
  0
LINE
  5
44
330
41
100
AcDbEntity
  8
0
  6
BYBLOCK
 62
     0
370
    -2
100
AcDbLine
 10
-0.5
 20
0.0
 30
0.0
 11
-1.0
 21
0.0
 31
0.0
  0
ENDBLK
  5
45
330
41
100
AcDbEntity
  8
0
100
AcDbBlockEnd
  0
ENDSEC
  0
SECTION
  2
ENTITIES
  0
MTEXT
  5
46
100
AcDbEntity
  8
7
  6
CONTINUOUS
 62
7
100
AcDbMText
 10
10.00000000000000
 20
18.00000000000000
 30
0.000000000000000
 40
3.000000000000000
 41
0.000000000000000
 44
0.6739999771118164
 71
     7
 72
     1
  1
{\H0.93x;{TYPE No.TL-3-1}}
 11
1.000000000000000
 21
0.000000000000000
 31
0.000000000000000
  7
STANDARD
  0
LINE
  5
47
100
AcDbEntity
  8
1
  6
CONTINUOUS
 62
7
100
AcDbLine
 10
152.2227580000000
 20
148.9499389999998
 30
0.000000000000000
 11
152.2227580000000
 21
97.94993900000001
 31
0.000000000000000
  0
LINE
  5
48
100
AcDbEntity
  8
1
  6
CONTINUOUS
 62
7
100
AcDbLine
 10
150.7227580000000
 20
142.1499389999999
 30
0.000000000000000
 11
150.7227580000000
 21
97.94993900000001
 31
0.000000000000000
  0
LINE
  5
49
100
AcDbEntity
  8
1
  6
CONTINUOUS
 62
7
100
AcDbLine
 10
152.2227580000000
 20
97.94993900000001
 30
0.000000000000000
 11
150.7227580000000
 21
97.94993900000001
 31
0.000000000000000
  0
LINE
  5
4A
100
AcDbEntity
  8
1
  6
CONTINUOUS
 62
7
100
AcDbLine
 10
152.2227580000000
 20
148.9499389999998
 30
0.000000000000000
 11
149.7347580000000
 21
148.9499389999998
 31
0.000000000000000
  0
LINE
  5
4B
100
AcDbEntity
  8
1
  6
CONTINUOUS
 62
7
100
AcDbLine
 10
152.2227580000000
 20
142.1499389999999
 30
0.000000000000000
 11
150.1337579999998
 21
142.1499389999999
 31
0.000000000000000
  0
LINE
  5
4C
100
AcDbEntity
  8
4
  6
CENTER
 62
1
100
AcDbLine
 10
261.2227579999998
 20
168.0509390000000
 30
0.000000000000000
 11
261.2227579999998
 21
92.94993899999999
 31
0.000000000000000
  0
LINE
  5
4D
100
AcDbEntity
  8
1
  6
CONTINUOUS
 62
7
100
AcDbLine
 10
252.2727580000000
 20
148.9499389999998
 30
0.000000000000000
 11
270.1727580000000
 21
148.9499389999998
 31
0.000000000000000
  0
LINE
  5
4E
100
AcDbEntity
  8
1
  6
CONTINUOUS
 62
7
100
AcDbLine
 10
252.2727580000000
 20
148.9499389999998
 30
0.000000000000000
 11
252.2727580000000
 21
142.1499389999999
 31
0.000000000000000
  0
LINE
  5
4F
100
AcDbEntity
  8
1
  6
CONTINUOUS
 62
7
100
AcDbLine
 10
270.1727580000000
 20
148.9499389999998
 30
0.000000000000000
 11
270.1727580000000
 21
142.1499389999999
 31
0.000000000000000
  0
LINE
  5
50
100
AcDbEntity
  8
1
  6
CONTINUOUS
 62
7
100
AcDbLine
 10
252.2727580000000
 20
142.1499389999999
 30
0.000000000000000
 11
255.2227579999999
 21
142.1499389999999
 31
0.000000000000000
  0
LINE
  5
51
100
AcDbEntity
  8
1
  6
CONTINUOUS
 62
7
100
AcDbLine
 10
253.7227580000000
 20
139.6499389999999
 30
0.000000000000000
 11
255.2227579999999
 21
139.6499389999999
 31
0.000000000000000
  0
LINE
  5
52
100
AcDbEntity
  8
1
  6
CONTINUOUS
 62
7
100
AcDbLine
 10
267.2227579999999
 20
142.1499389999999
 30
0.000000000000000
 11
267.2227579999999
 21
139.6499389999999
 31
0.000000000000000
  0
LINE
  5
53
100
AcDbEntity
  8
1
  6
CONTINUOUS
 62
7
100
AcDbLine
 10
255.2227579999999
 20
142.1499389999999
 30
0.000000000000000
 11
255.2227579999999
 21
139.6499389999999
 31
0.000000000000000
  0
LINE
  5
54
100
AcDbEntity
  8
1
  6
CONTINUOUS
 62
7
100
AcDbLine
 10
267.2227579999999
 20
142.1499389999999
 30
0.000000000000000
 11
270.1727580000000
 21
142.1499389999999
 31
0.000000000000000
  0
LINE
  5
55
100
AcDbEntity
  8
1
  6
CONTINUOUS
 62
7
100
AcDbLine
 10
268.7227580000000
 20
139.6499389999999
 30
0.000000000000000
 11
268.7227580000000
 21
124.9499389999999
 31
0.000000000000000
  0
LINE
  5
56
100
AcDbEntity
  8
1
  6
CONTINUOUS
 62
7
100
AcDbLine
 10
253.7227580000000
 20
139.6499389999999
 30
0.000000000000000
 11
253.7227580000000
 21
105.4499389999999
 31
0.000000000000000
  0
LINE
  5
57
100
AcDbEntity
  8
1
  6
CONTINUOUS
 62
7
100
AcDbLine
 10
267.2227579999999
 20
139.6499389999999
 30
0.000000000000000
 11
268.7227580000000
 21
139.6499389999999
 31
0.000000000000000
  0
LINE
  5
58
100
AcDbEntity
  8
1
  6
CONTINUOUS
 62
7
100
AcDbLine
 10
260.4227579999998
 20
124.9499389999999
 30
0.000000000000000
 11
268.7227580000000
 21
124.9499389999999
 31
0.000000000000000
  0
LINE
  5
59
100
AcDbEntity
  8
1
  6
CONTINUOUS
 62
7
100
AcDbLine
 10
260.4227579999998
 20
124.9499389999999
 30
0.000000000000000
 11
260.4227579999998
 21
122.4499389999998
 31
0.000000000000000
  0
LINE
  5
5A
100
AcDbEntity
  8
1
  6
CONTINUOUS
 62
7
100
AcDbLine
 10
261.9227579999998
 20
122.4499389999998
 30
0.000000000000000
 11
261.9227579999998
 21
112.4499389999999
 31
0.000000000000000
  0
LINE
  5
5B
100
AcDbEntity
  8
4
  6
CENTER
 62
1
100
AcDbLine
 10
256.4727580000000
 20
136.9499390000000
 30
0.000000000000000
 11
265.9727580000000
 21
136.9499390000000
 31
0.000000000000000
  0
LINE
  5
5C
100
AcDbEntity
  8
4
  6
CENTER
 62
1
100
AcDbLine
 10
256.4727580000000
 20
102.9499390000000
 30
0.000000000000000
 11
265.9727580000000
 21
102.9499390000000
 31
0.000000000000000
  0
LINE
  5
5D
100
AcDbEntity
  8
4
  6
CENTER
 62
1
100
AcDbLine
 10
244.9727580000000
 20
145.5499389999999
 30
0.000000000000000
 11
277.4727579999999
 21
145.5499389999999
 31
0.000000000000000
  0
LINE
  5
5E
100
AcDbEntity
  8
4
  6
CENTER
 62
1
100
AcDbLine
 10
30.22275800000000
 20
168.0509390000000
 30
0.000000000000000
 11
30.22275800000000
 21
92.94993899999999
 31
0.000000000000000
  0
LINE
  5
5F
100
AcDbEntity
  8
1
  6
CONTINUOUS
 62
7
100
AcDbLine
 10
19.72275800000000
 20
150.0429389999998
 30
0.000000000000000
 11
19.72275800000000
 21
106.6589389999998
 31
0.000000000000000
  0
LINE
  5
60
100
AcDbEntity
  8
1
  6
CONTINUOUS
 62
7
100
AcDbLine
 10
40.72275799999999
 20
150.0429389999998
 30
0.000000000000000
 11
40.72275799999999
 21
106.6589389999998
 31
0.000000000000000
  0
LINE
  5
61
100
AcDbEntity
  8
1
  6
CONTINUOUS
 62
7
100
AcDbLine
 10
21.22275800000000
 20
148.9499389999998
 30
0.000000000000000
 11
21.22275800000000
 21
145.3619389999998
 31
0.000000000000000
  0
LINE
  5
62
100
AcDbEntity
  8
1
  6
CONTINUOUS
 62
7
100
AcDbLine
 10
39.22275799999999
 20
148.9499389999998
 30
0.000000000000000
 11
39.22275799999999
 21
145.3619389999998
 31
0.000000000000000
  0
LINE
  5
63
100
AcDbEntity
  8
1
  6
CONTINUOUS
 62
7
100
AcDbLine
 10
41.47275800000000
 20
147.2999390000000
 30
0.000000000000000
 11
41.47275800000000
 21
143.7999389999999
 31
0.000000000000000
  0
LINE
  5
64
100
AcDbEntity
  8
1
  6
CONTINUOUS
 62
7
100
AcDbLine
 10
18.97275800000000
 20
147.2999390000000
 30
0.000000000000000
 11
18.97275800000000
 21
143.7999389999999
 31
0.000000000000000
  0
LINE
  5
65
100
AcDbEntity
  8
1
  6
CONTINUOUS
 62
7
100
AcDbLine
 10
22.72275800000000
 20
147.0499390000000
 30
0.000000000000000
 11
23.98755799999999
 21
147.0499390000000
 31
0.000000000000000
  0
LINE
  5
66
100
AcDbEntity
  8
1
  6
CONTINUOUS
 62
7
100
AcDbLine
 10
22.72275800000000
 20
148.9499389999998
 30
0.000000000000000
 11
22.72275800000000
 21
145.3619389999998
 31
0.000000000000000
  0
LINE
  5
67
100
AcDbEntity
  8
1
  6
CONTINUOUS
 62
7
100
AcDbLine
 10
21.22275800000000
 20
148.9499389999998
 30
0.000000000000000
 11
23.02275799999998
 21
148.9499389999998
 31
0.000000000000000
  0
LINE
  5
68
100
AcDbEntity
  8
1
  6
CONTINUOUS
 62
7
100
AcDbLine
 10
37.72275800000000
 20
148.9499389999998
 30
0.000000000000000
 11
37.72275800000000
 21
145.3619389999998
 31
0.000000000000000
  0
LINE
  5
69
100
AcDbEntity
  8
1
  6
CONTINUOUS
 62
7
100
AcDbLine
 10
37.41525800000000
 20
147.0499390000000
 30
0.000000000000000
 11
37.72275800000000
 21
147.0499390000000
 31
0.000000000000000
  0
LINE
  5
6A
100
AcDbEntity
  8
1
  6
CONTINUOUS
 62
7
100
AcDbLine
 10
18.97275800000000
 20
147.2999390000000
 30
0.000000000000000
 11
19.72275800000000
 21
147.2999390000000
 31
0.000000000000000
  0
LINE
  5
6B
100
AcDbEntity
  8
1
  6
CONTINUOUS
 62
7
100
AcDbLine
 10
18.97275800000000
 20
143.7999389999999
 30
0.000000000000000
 11
19.72275800000000
 21
143.7999389999999
 31
0.000000000000000
  0
LINE
  5
6C
100
AcDbEntity
  8
1
  6
CONTINUOUS
 62
7
100
AcDbLine
 10
40.72275799999999
 20
147.2999390000000
 30
0.000000000000000
 11
41.47275800000000
 21
147.2999390000000
 31
0.000000000000000
  0
LINE
  5
6D
100
AcDbEntity
  8
1
  6
CONTINUOUS
 62
7
100
AcDbLine
 10
40.72275799999999
 20
143.7999389999999
 30
0.000000000000000
 11
41.47275800000000
 21
143.7999389999999
 31
0.000000000000000
  0
LINE
  5
6E
100
AcDbEntity
  8
1
  6
CONTINUOUS
 62
7
100
AcDbLine
 10
271.7227579999998
 20
150.0429389999998
 30
0.000000000000000
 11
271.7227579999998
 21
106.6589389999998
 31
0.000000000000000
  0
LINE
  5
6F
100
AcDbEntity
  8
1
  6
CONTINUOUS
 62
7
100
AcDbLine
 10
250.7227579999999
 20
150.0429389999998
 30
0.000000000000000
 11
250.7227579999999
 21
106.6589389999998
 31
0.000000000000000
  0
LINE
  5
70
100
AcDbEntity
  8
1
  6
CONTINUOUS
 62
7
100
AcDbLine
 10
252.1227580000000
 20
150.0429389999998
 30
0.000000000000000
 11
252.1227580000000
 21
109.7959389999999
 31
0.000000000000000
  0
LINE
  5
71
100
AcDbEntity
  8
1
  6
CONTINUOUS
 62
7
100
AcDbLine
 10
270.3227580000000
 20
150.0429389999998
 30
0.000000000000000
 11
270.3227580000000
 21
109.7959389999999
 31
0.000000000000000
  0
LINE
  5
72
100
AcDbEntity
  8
1
  6
CONTINUOUS
 62
7
100
AcDbLine
 10
250.7227579999999
 20
109.7959389999999
 30
0.000000000000000
 11
252.1227580000000
 21
109.7959389999999
 31
0.000000000000000
  0
LINE
  5
73
100
AcDbEntity
  8
1
  6
CONTINUOUS
 62
7
100
AcDbLine
 10
270.3227580000000
 20
109.7959389999999
 30
0.000000000000000
 11
271.7227579999998
 21
109.7959389999999
 31
0.000000000000000
  0
LINE
  5
74
100
AcDbEntity
  8
1
  6
CONTINUOUS
 62
7
100
AcDbLine
 10
272.4727580000000
 20
147.2999390000000
 30
0.000000000000000
 11
272.4727580000000
 21
143.7999389999999
 31
0.000000000000000
  0
LINE
  5
75
100
AcDbEntity
  8
1
  6
CONTINUOUS
 62
7
100
AcDbLine
 10
249.9727580000000
 20
147.2999390000000
 30
0.000000000000000
 11
249.9727580000000
 21
143.7999389999999
 31
0.000000000000000
  0
LINE
  5
76
100
AcDbEntity
  8
1
  6
CONTINUOUS
 62
7
100
AcDbLine
 10
249.9727580000000
 20
143.7999389999999
 30
0.000000000000000
 11
250.7227579999999
 21
143.7999389999999
 31
0.000000000000000
  0
LINE
  5
77
100
AcDbEntity
  8
1
  6
CONTINUOUS
 62
7
100
AcDbLine
 10
249.9727580000000
 20
147.2999390000000
 30
0.000000000000000
 11
250.7227579999999
 21
147.2999390000000
 31
0.000000000000000
  0
LINE
  5
78
100
AcDbEntity
  8
1
  6
CONTINUOUS
 62
7
100
AcDbLine
 10
271.7227579999998
 20
147.2999390000000
 30
0.000000000000000
 11
272.4727580000000
 21
147.2999390000000
 31
0.000000000000000
  0
LINE
  5
79
100
AcDbEntity
  8
1
  6
CONTINUOUS
 62
7
100
AcDbLine
 10
271.7227579999998
 20
143.7999389999999
 30
0.000000000000000
 11
272.4727580000000
 21
143.7999389999999
 31
0.000000000000000
  0
LINE
  5
7A
100
AcDbEntity
  8
1
  6
CONTINUOUS
 62
7
100
AcDbLine
 10
72.22275800000000
 20
157.4499389999998
 30
0.000000000000000
 11
88.22275799999998
 21
157.4499389999998
 31
0.000000000000000
  0
LINE
  5
7B
100
AcDbEntity
  8
1
  6
CONTINUOUS
 62
7
100
AcDbLine
 10
72.22275800000000
 20
163.4499390000000
 30
0.000000000000000
 11
72.22275800000000
 21
157.4499389999998
 31
0.000000000000000
  0
LINE
  5
7C
100
AcDbEntity
  8
1
  6
CONTINUOUS
 62
7
100
AcDbLine
 10
88.22275799999998
 20
163.4499390000000
 30
0.000000000000000
 11
88.22275799999998
 21
157.4499389999998
 31
0.000000000000000
  0
LINE
  5
7D
100
AcDbEntity
  8
1
  6
CONTINUOUS
 62
7
100
AcDbLine
 10
74.22275800000000
 20
162.4499389999998
 30
0.000000000000000
 11
86.22275800000000
 21
162.4499389999998
 31
0.000000000000000
  0
LINE
  5
7E
100
AcDbEntity
  8
1
  6
CONTINUOUS
 62
7
100
AcDbLine
 10
72.22275800000000
 20
163.4499390000000
 30
0.000000000000000
 11
66.84775800000000
 21
167.9589390000000
 31
0.000000000000000
  0
LINE
  5
7F
100
AcDbEntity
  8
1
  6
CONTINUOUS
 62
7
100
AcDbLine
 10
88.22275800000000
 20
163.4499390000000
 30
0.000000000000000
 11
93.59775800000000
 21
167.9589390000000
 31
0.000000000000000
  0
LINE
  5
80
100
AcDbEntity
  8
1
  6
CONTINUOUS
 62
7
100
AcDbLine
 10
200.7227579999999
 20
175.4499390000000
 30
0.000000000000000
 11
202.2227580000000
 21
175.4499390000000
 31
0.000000000000000
  0
LINE
  5
81
100
AcDbEntity
  8
1
  6
CONTINUOUS
 62
7
100
AcDbLine
 10
202.2227580000000
 20
175.4499390000000
 30
0.000000000000000
 11
202.2227580000000
 21
160.8499389999998
 31
0.000000000000000
  0
LINE
  5
82
100
AcDbEntity
  8
1
  6
CONTINUOUS
 62
7
100
AcDbLine
 10
200.7227579999999
 20
175.4499390000000
 30
0.000000000000000
 11
200.7227579999999
 21
160.8499389999998
 31
0.000000000000000
  0
LINE
  5
83
100
AcDbEntity
  8
1
  6
CONTINUOUS
 62
7
100
AcDbLine
 10
193.2227579999999
 20
161.3379389999998
 30
0.000000000000000
 11
196.5387579999998
 21
158.3309390000000
 31
0.000000000000000
  0
LINE
  5
84
100
AcDbEntity
  8
1
  6
CONTINUOUS
 62
7
100
AcDbLine
 10
194.2297580000000
 20
162.4499389999998
 30
0.000000000000000
 11
197.5617579999999
 21
159.4289389999999
 31
0.000000000000000
  0
LINE
  5
85
100
AcDbEntity
  8
1
  6
CONTINUOUS
 62
7
100
AcDbLine
 10
193.2227580000000
 20
161.3379389999998
 30
0.000000000000000
 11
194.2297580000000
 21
162.4499389999998
 31
0.000000000000000
  0
LINE
  5
86
100
AcDbEntity
  8
1
  6
CONTINUOUS
 62
7
100
AcDbLine
 10
319.2227579999999
 20
157.4499389999998
 30
0.000000000000000
 11
303.2227580000000
 21
157.4499389999998
 31
0.000000000000000
  0
LINE
  5
87
100
AcDbEntity
  8
1
  6
CONTINUOUS
 62
7
100
AcDbLine
 10
319.2227579999999
 20
163.4499390000000
 30
0.000000000000000
 11
319.2227579999999
 21
157.4499389999998
 31
0.000000000000000
  0
LINE
  5
88
100
AcDbEntity
  8
1
  6
CONTINUOUS
 62
7
100
AcDbLine
 10
303.2227580000000
 20
163.4499390000000
 30
0.000000000000000
 11
303.2227580000000
 21
157.4499389999998
 31
0.000000000000000
  0
LINE
  5
89
100
AcDbEntity
  8
1
  6
CONTINUOUS
 62
7
100
AcDbLine
 10
319.2227579999999
 20
163.4499390000000
 30
0.000000000000000
 11
324.5977579999999
 21
167.9589390000000
 31
0.000000000000000
  0
LINE
  5
8A
100
AcDbEntity
  8
1
  6
CONTINUOUS
 62
7
100
AcDbLine
 10
303.2227580000000
 20
163.4499390000000
 30
0.000000000000000
 11
297.8477579999998
 21
167.9589390000000
 31
0.000000000000000
  0
LINE
  5
8B
100
AcDbEntity
  8
4
  6
CENTER
 62
1
100
AcDbLine
 10
86.22275800000000
 20
174.6999389999998
 30
0.000000000000000
 11
86.22275800000000
 21
164.1999389999998
 31
0.000000000000000
  0
LINE
  5
8C
100
AcDbEntity
  8
4
  6
CENTER
 62
1
100
AcDbLine
 10
68.97275800000000
 20
169.4499389999998
 30
0.000000000000000
 11
91.47275800000000
 21
169.4499389999998
 31
0.000000000000000
  0
LINE
  5
8D
100
AcDbEntity
  8
4
  6
CENTER
 62
1
100
AcDbLine
 10
74.22275800000000
 20
174.6999389999998
 30
0.000000000000000
 11
74.22275800000000
 21
164.1999389999998
 31
0.000000000000000
  0
LINE
  5
8E
100
AcDbEntity
  8
4
  6
CENTER
 62
1
100
AcDbLine
 10
305.2227580000000
 20
173.2499389999999
 30
0.000000000000000
 11
305.2227580000000
 21
165.6499389999999
 31
0.000000000000000
  0
LINE
  5
8F
100
AcDbEntity
  8
4
  6
CENTER
 62
1
100
AcDbLine
 10
301.4227580000000
 20
169.4499389999998
 30
0.000000000000000
 11
321.0227580000000
 21
169.4499389999998
 31
0.000000000000000
  0
LINE
  5
90
100
AcDbEntity
  8
4
  6
CENTER
 62
1
100
AcDbLine
 10
317.2227579999999
 20
173.2499389999999
 30
0.000000000000000
 11
317.2227579999999
 21
165.6499389999999
 31
0.000000000000000
  0
LINE
  5
91
100
AcDbEntity
  8
1
  6
CONTINUOUS
 62
7
100
AcDbLine
 10
74.22275800000000
 20
161.3379389999998
 30
0.000000000000000
 11
86.22275800000000
 21
161.3379389999998
 31
0.000000000000000
  0
LINE
  5
92
100
AcDbEntity
  8
4
  6
CENTER
 62
1
100
AcDbLine
 10
198.7227580000000
 20
169.4499389999998
 30
0.000000000000000
 11
204.2227580000000
 21
169.4499389999998
 31
0.000000000000000
  0
LINE
  5
93
100
AcDbEntity
  8
4
  6
CENTER
 62
1
100
AcDbLine
 10
148.7227580000000
 20
136.9499390000000
 30
0.000000000000000
 11
154.2227580000000
 21
136.9499390000000
 31
0.000000000000000
  0
LINE
  5
94
100
AcDbEntity
  8
1
  6
CONTINUOUS
 62
7
100
AcDbLine
 10
66.22275800000000
 20
238.3329390000000
 30
0.000000000000000
 11
94.22275799999998
 21
238.3329390000000
 31
0.000000000000000
  0
LINE
  5
95
100
AcDbEntity
  8
1
  6
CONTINUOUS
 62
7
100
AcDbLine
 10
21.12275799999998
 20
226.3449390000000
 30
0.000000000000000
 11
39.32275800000000
 21
226.3449390000000
 31
0.000000000000000
  0
LINE
  5
96
100
AcDbEntity
  8
4
  6
CENTER
 62
1
100
AcDbLine
 10
30.22275800000000
 20
243.3329390000000
 30
0.000000000000000
 11
30.22275800000000
 21
221.3449390000000
 31
0.000000000000000
  0
LINE
  5
97
100
AcDbEntity
  8
1
  6
CONTINUOUS
 62
7
100
AcDbLine
 10
21.27275800000000
 20
228.8329390000000
 30
0.000000000000000
 11
22.77275799999999
 21
228.8329390000000
 31
0.000000000000000
  0
LINE
  5
98
100
AcDbEntity
  8
1
  6
CONTINUOUS
 62
7
100
AcDbLine
 10
22.77275799999999
 20
233.4279390000000
 30
0.000000000000000
 11
22.77275799999999
 21
228.8329390000000
 31
0.000000000000000
  0
LINE
  5
99
100
AcDbEntity
  8
1
  6
CONTINUOUS
 62
7
100
AcDbLine
 10
37.67275800000000
 20
233.4279390000000
 30
0.000000000000000
 11
37.67275800000000
 21
228.8329390000000
 31
0.000000000000000
  0
LINE
  5
9A
100
AcDbEntity
  8
1
  6
CONTINUOUS
 62
7
100
AcDbLine
 10
37.67275800000000
 20
228.8329390000000
 30
0.000000000000000
 11
39.17275800000000
 21
228.8329390000000
 31
0.000000000000000
  0
LINE
  5
9B
100
AcDbEntity
  8
1
  6
CONTINUOUS
 62
7
100
AcDbLine
 10
21.12275799999998
 20
230.8329390000000
 30
0.000000000000000
 11
21.27275800000000
 21
230.8329390000000
 31
0.000000000000000
  0
LINE
  5
9C
100
AcDbEntity
  8
1
  6
CONTINUOUS
 62
7
100
AcDbLine
 10
18.97275800000000
 20
232.9468929999999
 30
0.000000000000000
 11
18.97275800000000
 21
230.5829389999999
 31
0.000000000000000
  0
LINE
  5
9D
100
AcDbEntity
  8
1
  6
CONTINUOUS
 62
7
100
AcDbLine
 10
41.47275800000000
 20
232.9468929999999
 30
0.000000000000000
 11
41.47275800000000
 21
230.5829389999999
 31
0.000000000000000
  0
LINE
  5
9E
100
AcDbEntity
  8
1
  6
CONTINUOUS
 62
7
100
AcDbLine
 10
18.97275800000000
 20
230.5829389999999
 30
0.000000000000000
 11
19.72275800000000
 21
230.5829389999999
 31
0.000000000000000
  0
LINE
  5
9F
100
AcDbEntity
  8
1
  6
CONTINUOUS
 62
7
100
AcDbLine
 10
40.72275799999999
 20
230.5829389999999
 30
0.000000000000000
 11
41.47275800000000
 21
230.5829389999999
 31
0.000000000000000
  0
LINE
  5
A0
100
AcDbEntity
  8
1
  6
CONTINUOUS
 62
7
100
AcDbLine
 10
39.17275800000000
 20
230.8329390000000
 30
0.000000000000000
 11
39.32275800000000
 21
230.8329390000000
 31
0.000000000000000
  0
LINE
  5
A1
100
AcDbEntity
  8
1
  6
CONTINUOUS
 62
7
100
AcDbLine
 10
66.22275800000000
 20
236.8329389999999
 30
0.000000000000000
 11
94.22275799999998
 21
236.8329389999999
 31
0.000000000000000
  0
LINE
  5
A2
100
AcDbEntity
  8
1
  6
CONTINUOUS
 62
7
100
AcDbLine
 10
29.47275799999999
 20
229.5969389999999
 30
0.000000000000000
 11
29.47275799999999
 21
227.7449390000000
 31
0.000000000000000
  0
LINE
  5
A3
100
AcDbEntity
  8
1
  6
CONTINUOUS
 62
7
100
AcDbLine
 10
30.97275800000000
 20
229.5839389999999
 30
0.000000000000000
 11
30.97275800000000
 21
227.7449390000000
 31
0.000000000000000
  0
LINE
  5
A4
100
AcDbEntity
  8
1
  6
CONTINUOUS
 62
7
100
AcDbLine
 10
66.22275800000000
 20
238.3329390000000
 30
0.000000000000000
 11
66.22275800000000
 21
236.8329389999999
 31
0.000000000000000
  0
LINE
  5
A5
100
AcDbEntity
  8
1
  6
CONTINUOUS
 62
7
100
AcDbLine
 10
94.22275799999998
 20
238.3329390000000
 30
0.000000000000000
 11
94.22275799999998
 21
236.8329389999999
 31
0.000000000000000
  0
LINE
  5
A6
100
AcDbEntity
  8
1
  6
CONTINUOUS
 62
7
100
AcDbLine
 10
74.22275800000000
 20
229.3329390000000
 30
0.000000000000000
 11
86.22275800000000
 21
229.3329390000000
 31
0.000000000000000
  0
LINE
  5
A7
100
AcDbEntity
  8
1
  6
CONTINUOUS
 62
7
100
AcDbLine
 10
74.22275800000000
 20
230.3389389999999
 30
0.000000000000000
 11
86.22275800000000
 21
230.3389389999999
 31
0.000000000000000
  0
LINE
  5
A8
100
AcDbEntity
  8
1
  6
CONTINUOUS
 62
7
100
AcDbLine
 10
22.72275800000000
 20
42.04523900000000
 30
0.000000000000000
 11
37.72275800000000
 21
42.04523900000000
 31
0.000000000000000
  0
LINE
  5
A9
100
AcDbEntity
  8
1
  6
CONTINUOUS
 62
7
100
AcDbLine
 10
40.72275799999999
 20
44.15772899999999
 30
0.000000000000000
 11
40.72275799999999
 21
52.63263900000000
 31
0.000000000000000
  0
LINE
  5
AA
100
AcDbEntity
  8
1
  6
CONTINUOUS
 62
7
100
AcDbLine
 10
21.12275799999998
 20
54.03263900000000
 30
0.000000000000000
 11
39.32275800000000
 21
54.03263900000000
 31
0.000000000000000
  0
LINE
  5
AB
100
AcDbEntity
  8
1
  6
CONTINUOUS
 62
7
100
AcDbLine
 10
19.72275800000000
 20
44.15772899999999
 30
0.000000000000000
 11
19.72275800000000
 21
52.63263900000000
 31
0.000000000000000
  0
LINE
  5
AC
100
AcDbEntity
  8
1
  6
CONTINUOUS
 62
7
100
AcDbLine
 10
21.22275800000000
 20
45.34993899999999
 30
0.000000000000000
 11
21.22275800000000
 21
45.77333900000000
 31
0.000000000000000
  0
LINE
  5
AD
100
AcDbEntity
  8
1
  6
CONTINUOUS
 62
7
100
AcDbLine
 10
39.22275799999999
 20
45.34993899999999
 30
0.000000000000000
 11
39.22275799999999
 21
45.77333900000000
 31
0.000000000000000
  0
LINE
  5
AE
100
AcDbEntity
  8
4
  6
CENTER
 62
1
100
AcDbLine
 10
30.22275800000000
 20
37.04523900000000
 30
0.000000000000000
 11
30.22275800000000
 21
59.03263900000000
 31
0.000000000000000
  0
LINE
  5
AF
100
AcDbEntity
  8
1
  6
CONTINUOUS
 62
7
100
AcDbLine
 10
21.27275800000000
 20
43.54523900000000
 30
0.000000000000000
 11
21.27275800000000
 21
45.34993899999999
 31
0.000000000000000
  0
LINE
  5
B0
100
AcDbEntity
  8
1
  6
CONTINUOUS
 62
7
100
AcDbLine
 10
39.17275800000000
 20
43.54523900000000
 30
0.000000000000000
 11
39.17275800000000
 21
45.34993899999999
 31
0.000000000000000
  0
LINE
  5
B1
100
AcDbEntity
  8
1
  6
CONTINUOUS
 62
7
100
AcDbLine
 10
22.77275799999999
 20
43.54523900000000
 30
0.000000000000000
 11
22.77275799999999
 21
45.34993899999999
 31
0.000000000000000
  0
LINE
  5
B2
100
AcDbEntity
  8
1
  6
CONTINUOUS
 62
7
100
AcDbLine
 10
37.67275800000000
 20
43.54523900000000
 30
0.000000000000000
 11
37.67275800000000
 21
45.34993899999999
 31
0.000000000000000
  0
LINE
  5
B3
100
AcDbEntity
  8
1
  6
CONTINUOUS
 62
7
100
AcDbLine
 10
18.97275800000000
 20
48.50563900000000
 30
0.000000000000000
 11
18.97275800000000
 21
49.79523900000000
 31
0.000000000000000
  0
LINE
  5
B4
100
AcDbEntity
  8
1
  6
CONTINUOUS
 62
7
100
AcDbLine
 10
41.47275800000000
 20
48.50563900000000
 30
0.000000000000000
 11
41.47275800000000
 21
49.79523900000000
 31
0.000000000000000
  0
LINE
  5
B5
100
AcDbEntity
  8
1
  6
CONTINUOUS
 62
7
100
AcDbLine
 10
23.22275799999999
 20
43.54523900000000
 30
0.000000000000000
 11
23.22275799999999
 21
45.34993899999999
 31
0.000000000000000
  0
LINE
  5
B6
100
AcDbEntity
  8
1
  6
CONTINUOUS
 62
7
100
AcDbLine
 10
24.22275799999999
 20
43.54523900000000
 30
0.000000000000000
 11
24.22275799999999
 21
45.34993899999999
 31
0.000000000000000
  0
LINE
  5
B7
100
AcDbEntity
  8
1
  6
CONTINUOUS
 62
7
100
AcDbLine
 10
26.06915799999999
 20
45.77333900000001
 30
0.000000000000000
 11
26.09725800000000
 21
45.64123900000000
 31
0.000000000000000
  0
LINE
  5
B8
100
AcDbEntity
  8
1
  6
CONTINUOUS
 62
7
100
AcDbLine
 10
27.09155800000000
 20
45.77333900000001
 30
0.000000000000000
 11
27.11955800000000
 21
45.64123900000001
 31
0.000000000000000
  0
LINE
  5
B9
100
AcDbEntity
  8
1
  6
CONTINUOUS
 62
7
100
AcDbLine
 10
28.11385800000000
 20
45.77333900000001
 30
0.000000000000000
 11
28.14195800000000
 21
45.64123900000001
 31
0.000000000000000
  0
LINE
  5
BA
100
AcDbEntity
  8
1
  6
CONTINUOUS
 62
7
100
AcDbLine
 10
29.13615800000000
 20
45.77333900000000
 30
0.000000000000000
 11
29.16425800000000
 21
45.64123900000000
 31
0.000000000000000
  0
LINE
  5
BB
100
AcDbEntity
  8
1
  6
CONTINUOUS
 62
7
100
AcDbLine
 10
30.15855800000001
 20
45.77333899999999
 30
0.000000000000000
 11
30.18665800000000
 21
45.64123900000000
 31
0.000000000000000
  0
LINE
  5
BC
100
AcDbEntity
  8
1
  6
CONTINUOUS
 62
7
100
AcDbLine
 10
31.18085800000001
 20
45.77333900000000
 30
0.000000000000000
 11
31.20895799999999
 21
45.64123900000001
 31
0.000000000000000
  0
LINE
  5
BD
100
AcDbEntity
  8
1
  6
CONTINUOUS
 62
7
100
AcDbLine
 10
32.20325799999999
 20
45.77333899999999
 30
0.000000000000000
 11
32.23125800000000
 21
45.64123899999998
 31
0.000000000000000
  0
LINE
  5
BE
100
AcDbEntity
  8
1
  6
CONTINUOUS
 62
7
100
AcDbLine
 10
33.22555800000000
 20
45.77333900000001
 30
0.000000000000000
 11
33.25365800000001
 21
45.64123900000001
 31
0.000000000000000
  0
LINE
  5
BF
100
AcDbEntity
  8
1
  6
CONTINUOUS
 62
7
100
AcDbLine
 10
34.24785800000001
 20
45.77333900000001
 30
0.000000000000000
 11
34.27595800000002
 21
45.64123900000000
 31
0.000000000000000
  0
LINE
  5
C0
100
AcDbEntity
  8
1
  6
CONTINUOUS
 62
7
100
AcDbLine
 10
22.72275800000000
 20
43.54523900000000
 30
0.000000000000000
 11
37.72275800000000
 21
43.54523900000000
 31
0.000000000000000
  0
LINE
  5
C1
100
AcDbEntity
  8
1
  6
CONTINUOUS
 62
7
100
AcDbLine
 10
29.47275799999999
 20
43.54523900000000
 30
0.000000000000000
 11
29.47275799999999
 21
45.27893900000000
 31
0.000000000000000
  0
LINE
  5
C2
100
AcDbEntity
  8
1
  6
CONTINUOUS
 62
7
100
AcDbLine
 10
30.97275800000000
 20
43.54523900000000
 30
0.000000000000000
 11
30.97275800000000
 21
45.34303900000000
 31
0.000000000000000
  0
LINE
  5
C3
100
AcDbEntity
  8
1
  6
CONTINUOUS
 62
7
100
AcDbLine
 10
39.32275800000000
 20
233.4279390000000
 30
0.000000000000000
 11
39.32275800000000
 21
227.7449390000000
 31
0.000000000000000
  0
LINE
  5
C4
100
AcDbEntity
  8
1
  6
CONTINUOUS
 62
7
100
AcDbLine
 10
39.17275800000000
 20
233.4279390000000
 30
0.000000000000000
 11
39.17275800000000
 21
228.8329390000000
 31
0.000000000000000
  0
LINE
  5
C5
100
AcDbEntity
  8
1
  6
CONTINUOUS
 62
7
100
AcDbLine
 10
40.72275799999999
 20
233.1949400000000
 30
0.000000000000000
 11
40.72275799999999
 21
227.7449390000000
 31
0.000000000000000
  0
LINE
  5
C6
100
AcDbEntity
  8
1
  6
CONTINUOUS
 62
7
100
AcDbLine
 10
88.22275799999998
 20
236.8329389999999
 30
0.000000000000000
 11
88.22275799999998
 21
231.3329390000000
 31
0.000000000000000
  0
LINE
  5
C7
100
AcDbEntity
  8
1
  6
CONTINUOUS
 62
7
100
AcDbLine
 10
72.22275800000000
 20
236.8329389999999
 30
0.000000000000000
 11
72.22275800000000
 21
231.3329390000000
 31
0.000000000000000
  0
LINE
  5
C8
100
AcDbEntity
  8
1
  6
CONTINUOUS
 62
7
100
AcDbLine
 10
21.27275800000000
 20
233.4279390000000
 30
0.000000000000000
 11
21.27275800000000
 21
228.8329390000000
 31
0.000000000000000
  0
LINE
  5
C9
100
AcDbEntity
  8
1
  6
CONTINUOUS
 62
7
100
AcDbLine
 10
19.72275800000000
 20
233.1949400000000
 30
0.000000000000000
 11
19.72275800000000
 21
227.7449390000000
 31
0.000000000000000
  0
LINE
  5
CA
100
AcDbEntity
  8
1
  6
CONTINUOUS
 62
7
100
AcDbLine
 10
21.12275799999998
 20
233.4279390000000
 30
0.000000000000000
 11
21.12275799999998
 21
227.7449390000000
 31
0.000000000000000
  0
LINE
  5
CB
100
AcDbEntity
  8
1
  6
CONTINUOUS
 62
7
100
AcDbLine
 10
40.72275799999999
 20
45.77333900000000
 30
0.000000000000000
 11
19.72275800000000
 21
45.77333900000000
 31
0.000000000000000
  0
LINE
  5
CC
100
AcDbEntity
  8
4
  6
CENTER
 62
1
100
AcDbLine
 10
146.2227579999999
 20
149.2999390000000
 30
0.000000000000000
 11
146.2227579999999
 21
141.7999390000000
 31
0.000000000000000
  0
LINE
  5
CD
100
AcDbEntity
  8
4
  6
CENTER
 62
1
100
AcDbLine
 10
142.4727580000000
 20
145.5499389999999
 30
0.000000000000000
 11
149.9727580000000
 21
145.5499389999999
 31
0.000000000000000
  0
LINE
  5
CE
100
AcDbEntity
  8
1
  6
CONTINUOUS
 62
7
100
AcDbLine
 10
140.2247580000000
 20
145.0209389999999
 30
0.000000000000000
 11
145.9481150000000
 21
111.8876659999999
 31
0.000000000000000
  0
LINE
  5
CF
100
AcDbEntity
  8
1
  6
CONTINUOUS
 62
7
100
AcDbLine
 10
141.5757580000000
 20
99.01193900000000
 30
0.000000000000000
 11
144.7577579999999
 21
104.8739389999998
 31
0.000000000000000
  0
LINE
  5
D0
100
AcDbEntity
  8
1
  6
CONTINUOUS
 62
7
100
AcDbLine
 10
142.7658590000000
 20
98.26978400000004
 30
0.000000000000000
 11
141.5757580000000
 21
99.01193900000003
 31
0.000000000000000
  0
LINE
  5
D1
100
AcDbEntity
  8
1
  6
CONTINUOUS
 62
7
100
AcDbLine
 10
142.1957580000000
 20
145.3619389999998
 30
0.000000000000000
 11
140.2247580000000
 21
145.0209389999999
 31
0.000000000000000
  0
LINE
  5
D2
100
AcDbEntity
  8
1
  6
CONTINUOUS
 62
7
100
AcDbLine
 10
150.1057580000000
 20
114.2539389999999
 30
0.000000000000000
 11
150.1377579999999
 21
146.0389390000000
 31
0.000000000000000
  0
LINE
  5
D3
100
AcDbEntity
  8
4
  6
CENTER
 62
1
100
AcDbLine
 10
240.4587579999999
 20
136.6159389999999
 30
0.000000000000000
 11
281.9867580000000
 21
136.6159389999999
 31
0.000000000000000
  0
LINE
  5
D4
100
AcDbEntity
  8
1
  6
CONTINUOUS
 62
7
100
AcDbLine
 10
249.4727580000000
 20
135.1159390000000
 30
0.000000000000000
 11
250.7227579999999
 21
135.1159390000000
 31
0.000000000000000
  0
LINE
  5
D5
100
AcDbEntity
  8
1
  6
CONTINUOUS
 62
7
100
AcDbLine
 10
249.4727580000000
 20
138.1159390000000
 30
0.000000000000000
 11
250.7227579999999
 21
138.1159390000000
 31
0.000000000000000
  0
LINE
  5
D6
100
AcDbEntity
  8
1
  6
CONTINUOUS
 62
7
100
AcDbLine
 10
271.7227579999998
 20
138.1159390000000
 30
0.000000000000000
 11
272.9727580000000
 21
138.1159390000000
 31
0.000000000000000
  0
LINE
  5
D7
100
AcDbEntity
  8
1
  6
CONTINUOUS
 62
7
100
AcDbLine
 10
271.7227579999998
 20
135.1159390000000
 30
0.000000000000000
 11
272.9727580000000
 21
135.1159390000000
 31
0.000000000000000
  0
LINE
  5
D8
100
AcDbEntity
  8
1
  6
CONTINUOUS
 62
7
100
AcDbLine
 10
18.47275800000000
 20
135.1159390000000
 30
0.000000000000000
 11
19.72275800000000
 21
135.1159390000000
 31
0.000000000000000
  0
LINE
  5
D9
100
AcDbEntity
  8
1
  6
CONTINUOUS
 62
7
100
AcDbLine
 10
18.47275800000000
 20
138.1159390000000
 30
0.000000000000000
 11
19.72275800000000
 21
138.1159390000000
 31
0.000000000000000
  0
LINE
  5
DA
100
AcDbEntity
  8
1
  6
CONTINUOUS
 62
7
100
AcDbLine
 10
40.72275799999999
 20
138.1159390000000
 30
0.000000000000000
 11
41.97275799999999
 21
138.1159390000000
 31
0.000000000000000
  0
LINE
  5
DB
100
AcDbEntity
  8
1
  6
CONTINUOUS
 62
7
100
AcDbLine
 10
40.72275799999999
 20
135.1159390000000
 30
0.000000000000000
 11
41.97275799999999
 21
135.1159390000000
 31
0.000000000000000
  0
LINE
  5
DC
100
AcDbEntity
  8
4
  6
CENTER
 62
1
100
AcDbLine
 10
9.458857999999999
 20
136.6159389999999
 30
0.000000000000000
 11
50.98665800000000
 21
136.6159389999999
 31
0.000000000000000
  0
LINE
  5
DD
100
AcDbEntity
  8
1
  6
CONTINUOUS
 62
7
100
AcDbLine
 10
15.48089200000000
 20
231.8719390000000
 30
0.000000000000000
 11
18.98089200000000
 21
231.8719390000000
 31
0.000000000000000
  0
LINE
  5
DE
100
AcDbEntity
  8
1
  6
CONTINUOUS
 62
7
100
AcDbLine
 10
18.97275800000000
 20
49.79523900000000
 30
0.000000000000000
 11
19.72275800000000
 21
49.79523900000000
 31
0.000000000000000
  0
LINE
  5
DF
100
AcDbEntity
  8
1
  6
CONTINUOUS
 62
7
100
AcDbLine
 10
40.72275799999999
 20
49.79523900000000
 30
0.000000000000000
 11
41.47275800000000
 21
49.79523900000000
 31
0.000000000000000
  0
LINE
  5
E0
100
AcDbEntity
  8
1
  6
CONTINUOUS
 62
7
100
AcDbLine
 10
39.22275799999999
 20
45.34993899999999
 30
0.000000000000000
 11
37.47275800000000
 21
45.34993899999999
 31
0.000000000000000
  0
LINE
  5
E1
100
AcDbEntity
  8
1
  6
CONTINUOUS
 62
7
100
AcDbLine
 10
34.47275799999999
 20
45.34993899999999
 30
0.000000000000000
 11
34.47275799999999
 21
45.77333900000000
 31
0.000000000000000
  0
LINE
  5
E2
100
AcDbEntity
  8
1
  6
CONTINUOUS
 62
7
100
AcDbLine
 10
25.97275800000000
 20
45.34993899999999
 30
0.000000000000000
 11
25.97275800000000
 21
45.77333900000000
 31
0.000000000000000
  0
LINE
  5
E3
100
AcDbEntity
  8
1
  6
CONTINUOUS
 62
7
100
AcDbLine
 10
36.47275800000000
 20
45.34993899999999
 30
0.000000000000000
 11
36.47275800000000
 21
45.77333900000000
 31
0.000000000000000
  0
LINE
  5
E4
100
AcDbEntity
  8
1
  6
CONTINUOUS
 62
7
100
AcDbLine
 10
37.47275800000000
 20
45.34993899999999
 30
0.000000000000000
 11
37.47275800000000
 21
45.77333900000000
 31
0.000000000000000
  0
LINE
  5
E5
100
AcDbEntity
  8
1
  6
CONTINUOUS
 62
7
100
AcDbLine
 10
25.97275800000000
 20
45.34993899999999
 30
0.000000000000000
 11
21.22275800000000
 21
45.34993899999999
 31
0.000000000000000
  0
LINE
  5
E6
100
AcDbEntity
  8
1
  6
CONTINUOUS
 62
7
100
AcDbLine
 10
36.47275800000000
 20
45.34993899999999
 30
0.000000000000000
 11
34.47275799999999
 21
45.34993899999999
 31
0.000000000000000
  0
LINE
  5
E7
100
AcDbEntity
  8
1
  6
CONTINUOUS
 62
7
100
AcDbLine
 10
20.42726200000000
 20
233.4279390000000
 30
0.000000000000000
 11
40.01825400000000
 21
233.4279390000000
 31
0.000000000000000
  0
LINE
  5
E8
100
AcDbEntity
  8
1
  6
CONTINUOUS
 62
7
100
AcDbLine
 10
249.0379330000000
 20
158.7996280000000
 30
0.000000000000000
 11
245.0657580000000
 21
140.5269389999999
 31
0.000000000000000
  0
LINE
  5
E9
100
AcDbEntity
  8
1
  6
CONTINUOUS
 62
7
100
AcDbLine
 10
273.4075829999999
 20
158.7996280000000
 30
0.000000000000000
 11
277.3797579999999
 21
140.5269389999999
 31
0.000000000000000
  0
LINE
  5
EA
100
AcDbEntity
  8
4
  6
CENTER
 62
1
100
AcDbLine
 10
80.22275800000000
 20
180.4499390000000
 30
0.000000000000000
 11
80.22275800000000
 21
151.9499390000000
 31
0.000000000000000
  0
LINE
  5
EB
100
AcDbEntity
  8
1
  6
CONTINUOUS
 62
7
100
AcDbLine
 10
252.2227580000000
 20
138.1159390000000
 30
0.000000000000000
 11
253.7227580000000
 21
138.1159390000000
 31
0.000000000000000
  0
LINE
  5
EC
100
AcDbEntity
  8
1
  6
CONTINUOUS
 62
7
100
AcDbLine
 10
252.2227580000000
 20
135.1159390000000
 30
0.000000000000000
 11
253.7227580000000
 21
135.1159390000000
 31
0.000000000000000
  0
LINE
  5
ED
100
AcDbEntity
  8
1
  6
CONTINUOUS
 62
7
100
AcDbLine
 10
268.7227580000000
 20
138.1159390000000
 30
0.000000000000000
 11
270.2227580000000
 21
138.1159390000000
 31
0.000000000000000
  0
LINE
  5
EE
100
AcDbEntity
  8
1
  6
CONTINUOUS
 62
7
100
AcDbLine
 10
268.7227580000000
 20
135.1159390000000
 30
0.000000000000000
 11
270.2227580000000
 21
135.1159390000000
 31
0.000000000000000
  0
LINE
  5
EF
100
AcDbEntity
  8
1
  6
CONTINUOUS
 62
7
100
AcDbLine
 10
22.77275799999999
 20
238.3329390000000
 30
0.000000000000000
 11
37.67275800000000
 21
238.3329390000000
 31
0.000000000000000
  0
LINE
  5
F0
100
AcDbEntity
  8
1
  6
CONTINUOUS
 62
7
100
AcDbLine
 10
19.95915799999998
 20
236.4329389999999
 30
0.000000000000000
 11
40.48635800000000
 21
236.4329389999999
 31
0.000000000000000
  0
LINE
  5
F1
100
AcDbEntity
  8
1
  6
CONTINUOUS
 62
7
100
AcDbLine
 10
260.4227579999998
 20
107.9499389999998
 30
0.000000000000000
 11
268.7227580000000
 21
107.9499389999998
 31
0.000000000000000
  0
LINE
  5
F2
100
AcDbEntity
  8
1
  6
CONTINUOUS
 62
7
100
AcDbLine
 10
261.9227579999998
 20
122.4499389999998
 30
0.000000000000000
 11
260.4227579999998
 21
122.4499389999998
 31
0.000000000000000
  0
LINE
  5
F3
100
AcDbEntity
  8
1
  6
CONTINUOUS
 62
7
100
AcDbLine
 10
261.9227579999998
 20
112.4499389999999
 30
0.000000000000000
 11
260.4227579999998
 21
112.4499389999999
 31
0.000000000000000
  0
LINE
  5
F4
100
AcDbEntity
  8
4
  6
CENTER
 62
1
100
AcDbLine
 10
147.2617579999999
 20
140.1959389999998
 30
0.000000000000000
 11
147.2617579999999
 21
132.9959389999999
 31
0.000000000000000
  0
LINE
  5
F5
100
AcDbEntity
  8
4
  6
CENTER
 62
1
100
AcDbLine
 10
143.6617579999999
 20
136.5959389999999
 30
0.000000000000000
 11
150.8617580000000
 21
136.5959389999999
 31
0.000000000000000
  0
LINE
  5
F6
100
AcDbEntity
  8
1
  6
CONTINUOUS
 62
7
100
AcDbLine
 10
250.7227579999999
 20
150.0429389999998
 30
0.000000000000000
 11
252.1227580000000
 21
150.0429389999998
 31
0.000000000000000
  0
LINE
  5
F7
100
AcDbEntity
  8
1
  6
CONTINUOUS
 62
7
100
AcDbLine
 10
270.3227580000000
 20
150.0429389999998
 30
0.000000000000000
 11
271.7227579999998
 21
150.0429389999998
 31
0.000000000000000
  0
LINE
  5
F8
100
AcDbEntity
  8
1
  6
CONTINUOUS
 62
7
100
AcDbLine
 10
19.72275800000000
 20
150.0429389999998
 30
0.000000000000000
 11
21.12275799999998
 21
150.0429389999998
 31
0.000000000000000
  0
LINE
  5
F9
100
AcDbEntity
  8
1
  6
CONTINUOUS
 62
7
100
AcDbLine
 10
39.32275800000000
 20
150.0429389999998
 30
0.000000000000000
 11
40.72275799999999
 21
150.0429389999998
 31
0.000000000000000
  0
LINE
  5
FA
100
AcDbEntity
  8
1
  6
CONTINUOUS
 62
7
100
AcDbLine
 10
23.02275799999998
 20
230.8329390000000
 30
0.000000000000000
 11
23.02275799999998
 21
229.9939390000000
 31
0.000000000000000
  0
LINE
  5
FB
100
AcDbEntity
  8
4
  6
CENTER
 62
1
100
AcDbLine
 10
13.97275800000000
 20
232.3329390000000
 30
0.000000000000000
 11
46.47275800000000
 21
232.3329390000000
 31
0.000000000000000
  0
LINE
  5
FC
100
AcDbEntity
  8
1
  6
CONTINUOUS
 62
7
100
AcDbLine
 10
23.02275799999997
 20
230.1019389999999
 30
0.000000000000000
 11
23.88300099999999
 21
233.4279390000000
 31
0.000000000000000
  0
LINE
  5
FD
100
AcDbEntity
  8
1
  6
CONTINUOUS
 62
7
100
AcDbLine
 10
24.00525800000000
 20
229.9069390000000
 30
0.000000000000000
 11
24.91590500000000
 21
233.4279390000000
 31
0.000000000000000
  0
LINE
  5
FE
100
AcDbEntity
  8
1
  6
CONTINUOUS
 62
7
100
AcDbLine
 10
25.03815800000000
 20
229.9069390000000
 30
0.000000000000000
 11
25.94880500000000
 21
233.4279390000000
 31
0.000000000000000
  0
LINE
  5
FF
100
AcDbEntity
  8
1
  6
CONTINUOUS
 62
7
100
AcDbLine
 10
26.07105799999999
 20
229.9069390000000
 30
0.000000000000000
 11
26.98170499999999
 21
233.4279390000000
 31
0.000000000000000
  0
LINE
  5
100
100
AcDbEntity
  8
1
  6
CONTINUOUS
 62
7
100
AcDbLine
 10
27.10395800000002
 20
229.9069390000000
 30
0.000000000000000
 11
28.01460500000001
 21
233.4279390000000
 31
0.000000000000000
  0
LINE
  5
101
100
AcDbEntity
  8
1
  6
CONTINUOUS
 62
7
100
AcDbLine
 10
28.13685800000000
 20
229.9069390000000
 30
0.000000000000000
 11
29.04750500000000
 21
233.4279390000000
 31
0.000000000000000
  0
LINE
  5
102
100
AcDbEntity
  8
1
  6
CONTINUOUS
 62
7
100
AcDbLine
 10
29.16975799999999
 20
229.9069390000000
 30
0.000000000000000
 11
30.08040499999999
 21
233.4279390000000
 31
0.000000000000000
  0
LINE
  5
103
100
AcDbEntity
  8
1
  6
CONTINUOUS
 62
7
100
AcDbLine
 10
30.20265800000001
 20
229.9069390000000
 30
0.000000000000000
 11
31.11330500000000
 21
233.4279390000000
 31
0.000000000000000
  0
LINE
  5
104
100
AcDbEntity
  8
1
  6
CONTINUOUS
 62
7
100
AcDbLine
 10
31.23555800000000
 20
229.9069390000000
 30
0.000000000000000
 11
32.14620500000000
 21
233.4279390000000
 31
0.000000000000000
  0
LINE
  5
105
100
AcDbEntity
  8
1
  6
CONTINUOUS
 62
7
100
AcDbLine
 10
32.26845800000001
 20
229.9069390000000
 30
0.000000000000000
 11
33.17910499999999
 21
233.4279390000000
 31
0.000000000000000
  0
LINE
  5
106
100
AcDbEntity
  8
1
  6
CONTINUOUS
 62
7
100
AcDbLine
 10
33.30135800000001
 20
229.9069390000000
 30
0.000000000000000
 11
34.21200500000000
 21
233.4279390000000
 31
0.000000000000000
  0
LINE
  5
107
100
AcDbEntity
  8
1
  6
CONTINUOUS
 62
7
100
AcDbLine
 10
34.33425800000001
 20
229.9069390000000
 30
0.000000000000000
 11
35.24490499999997
 21
233.4279390000000
 31
0.000000000000000
  0
LINE
  5
108
100
AcDbEntity
  8
1
  6
CONTINUOUS
 62
7
100
AcDbLine
 10
35.36715800000002
 20
229.9069390000000
 30
0.000000000000000
 11
36.27780500000000
 21
233.4279390000000
 31
0.000000000000000
  0
LINE
  5
109
100
AcDbEntity
  8
1
  6
CONTINUOUS
 62
7
100
AcDbLine
 10
36.40005800000000
 20
229.9069390000000
 30
0.000000000000000
 11
37.31070500000000
 21
233.4279390000000
 31
0.000000000000000
  0
LINE
  5
10A
100
AcDbEntity
  8
1
  6
CONTINUOUS
 62
7
100
AcDbLine
 10
22.77275799999999
 20
230.8329390000000
 30
0.000000000000000
 11
23.21165800000000
 21
230.8329390000000
 31
0.000000000000000
  0
LINE
  5
10B
100
AcDbEntity
  8
1
  6
CONTINUOUS
 62
7
100
AcDbLine
 10
36.63935800000000
 20
230.8329390000000
 30
0.000000000000000
 11
37.67275800000000
 21
230.8329390000000
 31
0.000000000000000
  0
LINE
  5
10C
100
AcDbEntity
  8
1
  6
CONTINUOUS
 62
7
100
AcDbLine
 10
23.02275799999998
 20
237.8329390000000
 30
0.000000000000000
 11
23.02275799999998
 21
236.4329389999999
 31
0.000000000000000
  0
LINE
  5
10D
100
AcDbEntity
  8
1
  6
CONTINUOUS
 62
7
100
AcDbLine
 10
24.02275799999999
 20
237.8329390000000
 30
0.000000000000000
 11
24.02275799999999
 21
236.4329389999999
 31
0.000000000000000
  0
LINE
  5
10E
100
AcDbEntity
  8
1
  6
CONTINUOUS
 62
7
100
AcDbLine
 10
37.60565800000000
 20
230.8329390000000
 30
0.000000000000000
 11
37.60565800000000
 21
227.7449390000000
 31
0.000000000000000
  0
LINE
  5
10F
100
AcDbEntity
  8
1
  6
CONTINUOUS
 62
7
100
AcDbLine
 10
36.60565800000000
 20
230.7019390000000
 30
0.000000000000000
 11
36.60565800000000
 21
227.7449390000000
 31
0.000000000000000
  0
LINE
  5
110
100
AcDbEntity
  8
1
  6
CONTINUOUS
 62
7
100
AcDbLine
 10
23.02275799999998
 20
149.8499389999998
 30
0.000000000000000
 11
23.02275799999998
 21
147.0499390000000
 31
0.000000000000000
  0
LINE
  5
111
100
AcDbEntity
  8
1
  6
CONTINUOUS
 62
7
100
AcDbLine
 10
23.55095800000000
 20
145.3619389999998
 30
0.000000000000000
 11
24.22675800000001
 21
147.9749389999998
 31
0.000000000000000
  0
LINE
  5
112
100
AcDbEntity
  8
1
  6
CONTINUOUS
 62
7
100
AcDbLine
 10
24.58385800000001
 20
145.3619389999998
 30
0.000000000000000
 11
25.25965799999999
 21
147.9749389999998
 31
0.000000000000000
  0
LINE
  5
113
100
AcDbEntity
  8
1
  6
CONTINUOUS
 62
7
100
AcDbLine
 10
25.61675800000000
 20
145.3619389999998
 30
0.000000000000000
 11
26.29255800000001
 21
147.9749389999998
 31
0.000000000000000
  0
LINE
  5
114
100
AcDbEntity
  8
1
  6
CONTINUOUS
 62
7
100
AcDbLine
 10
26.64965800000000
 20
145.3619389999998
 30
0.000000000000000
 11
27.32545800000000
 21
147.9749389999998
 31
0.000000000000000
  0
LINE
  5
115
100
AcDbEntity
  8
1
  6
CONTINUOUS
 62
7
100
AcDbLine
 10
27.68255800000001
 20
145.3619389999998
 30
0.000000000000000
 11
28.35835800000000
 21
147.9749389999998
 31
0.000000000000000
  0
LINE
  5
116
100
AcDbEntity
  8
1
  6
CONTINUOUS
 62
7
100
AcDbLine
 10
28.71545800000001
 20
145.3619389999998
 30
0.000000000000000
 11
29.39125800000000
 21
147.9749389999998
 31
0.000000000000000
  0
LINE
  5
117
100
AcDbEntity
  8
1
  6
CONTINUOUS
 62
7
100
AcDbLine
 10
29.74835800000001
 20
145.3619389999998
 30
0.000000000000000
 11
30.42415800000001
 21
147.9749389999998
 31
0.000000000000000
  0
LINE
  5
118
100
AcDbEntity
  8
1
  6
CONTINUOUS
 62
7
100
AcDbLine
 10
30.78125800000001
 20
145.3619389999998
 30
0.000000000000000
 11
31.45705799999999
 21
147.9749389999998
 31
0.000000000000000
  0
LINE
  5
119
100
AcDbEntity
  8
1
  6
CONTINUOUS
 62
7
100
AcDbLine
 10
31.81415799999999
 20
145.3619389999998
 30
0.000000000000000
 11
32.48995800000001
 21
147.9749389999998
 31
0.000000000000000
  0
LINE
  5
11A
100
AcDbEntity
  8
1
  6
CONTINUOUS
 62
7
100
AcDbLine
 10
32.84705799999999
 20
145.3619389999998
 30
0.000000000000000
 11
33.52285800000000
 21
147.9749389999998
 31
0.000000000000000
  0
LINE
  5
11B
100
AcDbEntity
  8
1
  6
CONTINUOUS
 62
7
100
AcDbLine
 10
33.87995800000002
 20
145.3619389999998
 30
0.000000000000000
 11
34.55575800000000
 21
147.9749389999998
 31
0.000000000000000
  0
LINE
  5
11C
100
AcDbEntity
  8
1
  6
CONTINUOUS
 62
7
100
AcDbLine
 10
34.91285800000001
 20
145.3619389999998
 30
0.000000000000000
 11
35.58865800000002
 21
147.9749389999998
 31
0.000000000000000
  0
LINE
  5
11D
100
AcDbEntity
  8
1
  6
CONTINUOUS
 62
7
100
AcDbLine
 10
35.94575800000000
 20
145.3619389999998
 30
0.000000000000000
 11
36.62155800000001
 21
147.9749389999998
 31
0.000000000000000
  0
LINE
  5
11E
100
AcDbEntity
  8
1
  6
CONTINUOUS
 62
7
100
AcDbLine
 10
36.97865800000002
 20
145.3619389999998
 30
0.000000000000000
 11
37.58975800000001
 21
147.7249389999998
 31
0.000000000000000
  0
LINE
  5
11F
100
AcDbEntity
  8
1
  6
CONTINUOUS
 62
7
100
AcDbLine
 10
24.02275799999999
 20
149.8499389999998
 30
0.000000000000000
 11
24.02275799999999
 21
147.1859389999998
 31
0.000000000000000
  0
LINE
  5
120
100
AcDbEntity
  8
1
  6
CONTINUOUS
 62
7
100
AcDbLine
 10
24.02275799999999
 20
148.9499389999998
 30
0.000000000000000
 11
39.22275799999999
 21
148.9499389999998
 31
0.000000000000000
  0
LINE
  5
121
100
AcDbEntity
  8
1
  6
CONTINUOUS
 62
7
100
AcDbLine
 10
37.60565800000000
 20
147.8499389999998
 30
0.000000000000000
 11
37.60565800000000
 21
147.0499390000000
 31
0.000000000000000
  0
LINE
  5
122
100
AcDbEntity
  8
4
  6
CENTER
 62
1
100
AcDbLine
 10
311.2227579999998
 20
180.4499390000000
 30
0.000000000000000
 11
311.2227579999998
 21
151.9499390000000
 31
0.000000000000000
  0
LINE
  5
123
100
AcDbEntity
  8
1
  6
CONTINUOUS
 62
7
100
AcDbLine
 10
268.7227580000000
 20
107.9499389999998
 30
0.000000000000000
 11
268.7227580000000
 21
105.4499389999999
 31
0.000000000000000
  0
LINE
  5
124
100
AcDbEntity
  8
4
  6
CENTER
 62
1
100
AcDbLine
 10
25.22275800000000
 20
102.9499390000000
 30
0.000000000000000
 11
35.22275800000000
 21
102.9499390000000
 31
0.000000000000000
  0
LINE
  5
125
100
AcDbEntity
  8
4
  6
CENTER
 62
1
100
AcDbLine
 10
25.22275800000000
 20
136.9499390000000
 30
0.000000000000000
 11
35.22275800000000
 21
136.9499390000000
 31
0.000000000000000
  0
LINE
  5
126
100
AcDbEntity
  8
4
  6
CENTER
 62
1
100
AcDbLine
 10
148.7227580000000
 20
102.9499390000000
 30
0.000000000000000
 11
154.2227580000000
 21
102.9499390000000
 31
0.000000000000000
  0
LINE
  5
127
100
AcDbEntity
  8
1
  6
CONTINUOUS
 62
7
100
AcDbLine
 10
19.72275800000000
 20
145.0209389999999
 30
0.000000000000000
 11
40.72275799999999
 21
145.0209389999999
 31
0.000000000000000
  0
LINE
  5
128
100
AcDbEntity
  8
1
  6
CONTINUOUS
 62
7
100
AcDbLine
 10
21.12275799999998
 20
145.3619389999998
 30
0.000000000000000
 11
39.32275800000000
 21
145.3619389999998
 31
0.000000000000000
  0
LINE
  5
129
100
AcDbEntity
  8
4
  6
CENTER
 62
1
100
AcDbLine
 10
13.97275800000000
 20
145.5499389999999
 30
0.000000000000000
 11
46.47275800000000
 21
145.5499389999999
 31
0.000000000000000
  0
LINE
  5
12A
100
AcDbEntity
  8
4
  6
CENTER
 62
1
100
AcDbLine
 10
244.3347580000000
 20
160.4499389999998
 30
0.000000000000000
 11
278.1107580000000
 21
160.4499389999998
 31
0.000000000000000
  0
LINE
  5
12B
100
AcDbEntity
  8
4
  6
CENTER
 62
1
100
AcDbLine
 10
70.22275800000000
 20
235.3279389999999
 30
0.000000000000000
 11
90.22275800000000
 21
235.3279389999999
 31
0.000000000000000
  0
LINE
  5
12C
100
AcDbEntity
  8
4
  6
CENTER
 62
1
100
AcDbLine
 10
80.22275800000000
 20
243.3329390000000
 30
0.000000000000000
 11
80.22275800000000
 21
224.3329389999999
 31
0.000000000000000
  0
LINE
  5
12D
100
AcDbEntity
  8
1
  6
CONTINUOUS
 62
7
100
AcDbLine
 10
150.7227580000000
 20
139.6499389999999
 30
0.000000000000000
 11
152.2227580000000
 21
139.6499389999999
 31
0.000000000000000
  0
LINE
  5
12E
100
AcDbEntity
  8
4
  6
CENTER
 62
1
100
AcDbLine
 10
86.22275800000000
 20
240.3329390000000
 30
0.000000000000000
 11
86.22275800000000
 21
234.8329389999999
 31
0.000000000000000
  0
LINE
  5
12F
100
AcDbEntity
  8
4
  6
CENTER
 62
1
100
AcDbLine
 10
74.22275800000000
 20
240.3329390000000
 30
0.000000000000000
 11
74.22275800000000
 21
234.8329389999999
 31
0.000000000000000
  0
ARC
  5
130
100
AcDbEntity
  8
1
  6
CONTINUOUS
 62
7
100
AcDbCircle
 10
261.2227579999998
 20
105.4499389999999
 30
0.000000000000000
 40
7.500000000000000
100
AcDbArc
 50
180.0000000000000
 51
360.0000100000000
  0
CIRCLE
  5
131
100
AcDbEntity
  8
1
  6
CONTINUOUS
 62
7
100
AcDbCircle
 10
261.2227579999998
 20
136.9499390000000
 30
0.000000000000000
 40
1.800000000000000
  0
CIRCLE
  5
132
100
AcDbEntity
  8
1
  6
CONTINUOUS
 62
7
100
AcDbCircle
 10
261.2227579999998
 20
102.9499390000000
 30
0.000000000000000
 40
1.800000000000000
  0
ARC
  5
133
100
AcDbEntity
  8
1
  6
CONTINUOUS
 62
7
100
AcDbCircle
 10
146.2227579999999
 20
145.5499389999999
 30
0.000000000000000
 40
1.750000000000000
100
AcDbArc
 50
77.77010000000000
 51
273.2640000000000
  0
ARC
  5
134
100
AcDbEntity
  8
1
  6
CONTINUOUS
 62
7
100
AcDbCircle
 10
147.2617579999999
 20
136.5959389999999
 30
0.000000000000000
 40
1.500000000000000
100
AcDbArc
 50
176.2559159999999
 51
356.2559160000000
  0
ARC
  5
135
100
AcDbEntity
  8
1
  6
CONTINUOUS
 62
7
100
AcDbCircle
 10
80.22275800000000
 20
154.4499390000000
 30
0.000000000000000
 40
21.00000000000000
100
AcDbArc
 50
50.47879999999999
 51
129.5209999999999
  0
ARC
  5
136
100
AcDbEntity
  8
1
  6
CONTINUOUS
 62
7
100
AcDbCircle
 10
67.97275800000000
 20
169.2989390000000
 30
0.000000000000000
 40
1.750000000000000
100
AcDbArc
 50
129.5209999999999
 51
230.0090000000000
  0
ARC
  5
137
100
AcDbEntity
  8
1
  6
CONTINUOUS
 62
7
100
AcDbCircle
 10
92.47275800000001
 20
169.2989390000000
 30
0.000000000000000
 40
1.750000000000000
100
AcDbArc
 50
309.9909999999998
 51
410.4788000000000
  0
ARC
  5
138
100
AcDbEntity
  8
1
  6
CONTINUOUS
 62
7
100
AcDbCircle
 10
74.22275800000000
 20
160.4499389999998
 30
0.000000000000000
 40
2.000000000000000
100
AcDbArc
 50
90.00000000000000
 51
180.0000000000000
  0
ARC
  5
139
100
AcDbEntity
  8
1
  6
CONTINUOUS
 62
7
100
AcDbCircle
 10
86.22275800000000
 20
160.4499389999998
 30
0.000000000000000
 40
2.000000000000000
100
AcDbArc
 50
0.000000000000000
 51
90.00000000000000
  0
CIRCLE
  5
13A
100
AcDbEntity
  8
1
  6
CONTINUOUS
 62
7
100
AcDbCircle
 10
86.22275800000000
 20
169.4499389999998
 30
0.000000000000000
 40
1.800000000000000
  0
CIRCLE
  5
13B
100
AcDbEntity
  8
1
  6
CONTINUOUS
 62
7
100
AcDbCircle
 10
86.22275800000000
 20
169.4499389999998
 30
0.000000000000000
 40
3.250000000000000
  0
CIRCLE
  5
13C
100
AcDbEntity
  8
1
  6
CONTINUOUS
 62
7
100
AcDbCircle
 10
74.22275800000000
 20
169.4499389999998
 30
0.000000000000000
 40
3.250000000000000
  0
CIRCLE
  5
13D
100
AcDbEntity
  8
1
  6
CONTINUOUS
 62
7
100
AcDbCircle
 10
74.22275800000000
 20
169.4499389999998
 30
0.000000000000000
 40
1.800000000000000
  0
ARC
  5
13E
100
AcDbEntity
  8
1
  6
CONTINUOUS
 62
7
100
AcDbCircle
 10
311.2227579999998
 20
154.4499390000000
 30
0.000000000000000
 40
21.00000000000000
100
AcDbArc
 50
50.47879999999999
 51
129.5209999999999
  0
ARC
  5
13F
100
AcDbEntity
  8
1
  6
CONTINUOUS
 62
7
100
AcDbCircle
 10
323.4727579999999
 20
169.2989390000000
 30
0.000000000000000
 40
1.750000000000000
100
AcDbArc
 50
309.9909999999998
 51
410.4788000000000
  0
ARC
  5
140
100
AcDbEntity
  8
1
  6
CONTINUOUS
 62
7
100
AcDbCircle
 10
298.9727580000000
 20
169.2989390000000
 30
0.000000000000000
 40
1.750000000000000
100
AcDbArc
 50
129.5209999999999
 51
230.0090000000000
  0
CIRCLE
  5
141
100
AcDbEntity
  8
1
  6
CONTINUOUS
 62
7
100
AcDbCircle
 10
305.2227580000000
 20
169.4499389999998
 30
0.000000000000000
 40
1.800000000000000
  0
CIRCLE
  5
142
100
AcDbEntity
  8
1
  6
CONTINUOUS
 62
7
100
AcDbCircle
 10
317.2227579999999
 20
169.4499389999998
 30
0.000000000000000
 40
1.800000000000000
  0
ARC
  5
143
100
AcDbEntity
  8
1
  6
CONTINUOUS
 62
7
100
AcDbCircle
 10
74.22275800000000
 20
159.3379389999998
 30
0.000000000000000
 40
2.000000000000000
100
AcDbArc
 50
90.00000000000000
 51
180.0000000000000
  0
ARC
  5
144
100
AcDbEntity
  8
1
  6
CONTINUOUS
 62
7
100
AcDbCircle
 10
86.22275800000000
 20
159.3379389999998
 30
0.000000000000000
 40
2.000000000000000
100
AcDbArc
 50
0.000000000000000
 51
90.00000000000000
  0
ARC
  5
145
100
AcDbEntity
  8
1
  6
CONTINUOUS
 62
7
100
AcDbCircle
 10
198.8227580000000
 20
160.8499389999998
 30
0.000000000000000
 40
3.399999999999999
100
AcDbArc
 50
227.8000000000000
 51
360.0000000000000
  0
ARC
  5
146
100
AcDbEntity
  8
1
  6
CONTINUOUS
 62
7
100
AcDbCircle
 10
34.76505800000000
 20
45.74523899999999
 30
0.000000000000000
 40
0.5000000000000000
100
AcDbArc
 50
192.0000000000000
 51
307.7640000000001
  0
ARC
  5
147
100
AcDbEntity
  8
1
  6
CONTINUOUS
 62
7
100
AcDbCircle
 10
35.78735800000000
 20
45.74523899999999
 30
0.000000000000000
 40
0.5000000000000000
100
AcDbArc
 50
232.2360000000000
 51
307.7640000000001
  0
ARC
  5
148
100
AcDbEntity
  8
1
  6
CONTINUOUS
 62
7
100
AcDbCircle
 10
36.80975800000001
 20
45.74523899999999
 30
0.000000000000000
 40
0.5000000000000000
100
AcDbArc
 50
227.6279999999999
 51
315.3670000000000
  0
ARC
  5
149
100
AcDbEntity
  8
1
  6
CONTINUOUS
 62
7
100
AcDbCircle
 10
22.77275799999999
 20
43.54523900000000
 30
0.000000000000000
 40
1.500000000000000
100
AcDbArc
 50
180.0000000000000
 51
268.0897869999999
  0
ARC
  5
14A
100
AcDbEntity
  8
1
  6
CONTINUOUS
 62
7
100
AcDbCircle
 10
37.67275800000000
 20
43.54523900000000
 30
0.000000000000000
 40
1.500000000000000
100
AcDbArc
 50
271.9102130000001
 51
360.0000030000000
  0
ARC
  5
14B
100
AcDbEntity
  8
1
  6
CONTINUOUS
 62
7
100
AcDbCircle
 10
24.54165800000000
 20
45.74523899999999
 30
0.000000000000000
 40
0.5000000000000000
100
AcDbArc
 50
232.2360000000000
 51
307.7640000000001
  0
ARC
  5
14C
100
AcDbEntity
  8
1
  6
CONTINUOUS
 62
7
100
AcDbCircle
 10
25.56395800000000
 20
45.74523899999999
 30
0.000000000000000
 40
0.5000000000000000
100
AcDbArc
 50
232.2360000000000
 51
307.7640000000001
  0
ARC
  5
14D
100
AcDbEntity
  8
1
  6
CONTINUOUS
 62
7
100
AcDbCircle
 10
26.58635800000000
 20
45.74523899999999
 30
0.000000000000000
 40
0.5000000000000000
100
AcDbArc
 50
192.0000000000000
 51
363.2238900000000
  0
ARC
  5
14E
100
AcDbEntity
  8
1
  6
CONTINUOUS
 62
7
100
AcDbCircle
 10
27.60865799999999
 20
45.74523899999999
 30
0.000000000000000
 40
0.5000000000000000
100
AcDbArc
 50
192.0000000000000
 51
363.2238900000000
  0
ARC
  5
14F
100
AcDbEntity
  8
1
  6
CONTINUOUS
 62
7
100
AcDbCircle
 10
28.63095800000000
 20
45.74523899999999
 30
0.000000000000000
 40
0.5000000000000000
100
AcDbArc
 50
192.0000000000000
 51
363.2238900000000
  0
ARC
  5
150
100
AcDbEntity
  8
1
  6
CONTINUOUS
 62
7
100
AcDbCircle
 10
29.65335800000000
 20
45.74523899999999
 30
0.000000000000000
 40
0.5000000000000000
100
AcDbArc
 50
192.0000000000000
 51
363.2238900000000
  0
ARC
  5
151
100
AcDbEntity
  8
1
  6
CONTINUOUS
 62
7
100
AcDbCircle
 10
30.67565800000001
 20
45.74523899999999
 30
0.000000000000000
 40
0.5000000000000000
100
AcDbArc
 50
192.0000000000000
 51
363.2238900000000
  0
ARC
  5
152
100
AcDbEntity
  8
1
  6
CONTINUOUS
 62
7
100
AcDbCircle
 10
31.69805800000001
 20
45.74523899999999
 30
0.000000000000000
 40
0.5000000000000000
100
AcDbArc
 50
192.0000000000000
 51
363.2238900000000
  0
ARC
  5
153
100
AcDbEntity
  8
1
  6
CONTINUOUS
 62
7
100
AcDbCircle
 10
32.72035799999999
 20
45.74523899999999
 30
0.000000000000000
 40
0.5000000000000000
100
AcDbArc
 50
192.0000000000000
 51
363.2238900000000
  0
ARC
  5
154
100
AcDbEntity
  8
1
  6
CONTINUOUS
 62
7
100
AcDbCircle
 10
33.74275800000000
 20
45.74523899999999
 30
0.000000000000000
 40
0.5000000000000000
100
AcDbArc
 50
192.0000000000000
 51
363.2238900000000
  0
ARC
  5
155
100
AcDbEntity
  8
1
  6
CONTINUOUS
 62
7
100
AcDbCircle
 10
30.22275800000000
 20
36.61973900000000
 30
0.000000000000000
 40
13.92980000000000
100
AcDbArc
 50
41.08109999999999
 51
138.9189999999999
  0
ARC
  5
156
100
AcDbEntity
  8
1
  6
CONTINUOUS
 62
7
100
AcDbCircle
 10
30.22275800000000
 20
39.79733900000000
 30
0.000000000000000
 40
12.08150000000000
100
AcDbArc
 50
29.64600000000000
 51
150.3539999999999
  0
ARC
  5
157
100
AcDbEntity
  8
1
  6
CONTINUOUS
 62
7
100
AcDbCircle
 10
146.1377579999999
 20
146.0429389999999
 30
0.000000000000000
 40
4.000000000000000
100
AcDbArc
 50
0.09529300000000000
 51
28.39660000000000
  0
ARC
  5
158
100
AcDbEntity
  8
1
  6
CONTINUOUS
 62
7
100
AcDbCircle
 10
147.2617579999999
 20
136.5959389999999
 30
0.000000000000000
 40
1.600000000000000
100
AcDbArc
 50
155.8917820000000
 51
376.6200509999999
  0
ARC
  5
159
100
AcDbEntity
  8
1
  6
CONTINUOUS
 62
7
100
AcDbCircle
 10
145.6717580000000
 20
113.4879389999998
 30
0.000000000000000
 40
4.500000000000000
100
AcDbArc
 50
298.0119999999999
 51
369.8000000000000
  0
ARC
  5
15A
100
AcDbEntity
  8
1
  6
CONTINUOUS
 62
7
100
AcDbCircle
 10
249.4727580000000
 20
139.6159390000000
 30
0.000000000000000
 40
4.500000000000000
100
AcDbArc
 50
168.3259999999999
 51
270.0000000000000
  0
ARC
  5
15B
100
AcDbEntity
  8
1
  6
CONTINUOUS
 62
7
100
AcDbCircle
 10
249.4727580000000
 20
139.6159390000000
 30
0.000000000000000
 40
1.500000000000000
100
AcDbArc
 50
167.2231909999998
 51
270.0000000000000
  0
ARC
  5
15C
100
AcDbEntity
  8
1
  6
CONTINUOUS
 62
7
100
AcDbCircle
 10
272.9727580000000
 20
139.6159390000000
 30
0.000000000000000
 40
4.500000000000000
100
AcDbArc
 50
270.0000000000000
 51
371.6739000000000
  0
ARC
  5
15D
100
AcDbEntity
  8
1
  6
CONTINUOUS
 62
7
100
AcDbCircle
 10
272.9727580000000
 20
139.6159390000000
 30
0.000000000000000
 40
1.500000000000000
100
AcDbArc
 50
270.0000000000000
 51
372.7768090000000
  0
ARC
  5
15E
100
AcDbEntity
  8
1
  6
CONTINUOUS
 62
7
100
AcDbCircle
 10
15.48089200000000
 20
233.3719390000000
 30
0.000000000000000
 40
1.500000000000000
100
AcDbArc
 50
108.3005459999998
 51
270.0000000000000
  0
ARC
  5
15F
100
AcDbEntity
  8
1
  6
CONTINUOUS
 62
7
100
AcDbCircle
 10
25.56395800000000
 20
45.74523899999999
 30
0.000000000000000
 40
0.5000000000000000
100
AcDbArc
 50
324.8399999999999
 51
363.2238900000000
  0
ARC
  5
160
100
AcDbEntity
  8
1
  6
CONTINUOUS
 62
7
100
AcDbCircle
 10
36.97275799999999
 20
45.85523900000000
 30
0.000000000000000
 40
0.5000000000000000
100
AcDbArc
 50
189.4320000000000
 51
350.5679999999999
  0
ARC
  5
161
100
AcDbEntity
  8
1
  6
CONTINUOUS
 62
7
100
AcDbCircle
 10
74.22275800000000
 20
232.3389389999999
 30
0.000000000000000
 40
2.000000000000000
100
AcDbArc
 50
180.0000000000000
 51
270.0000000000000
  0
ARC
  5
162
100
AcDbEntity
  8
1
  6
CONTINUOUS
 62
7
100
AcDbCircle
 10
86.22275800000000
 20
232.3389389999999
 30
0.000000000000000
 40
2.000000000000000
100
AcDbArc
 50
270.0000000000000
 51
360.0000000000000
  0
ARC
  5
163
100
AcDbEntity
  8
1
  6
CONTINUOUS
 62
7
100
AcDbCircle
 10
74.22275800000000
 20
231.3329390000000
 30
0.000000000000000
 40
2.000000000000000
100
AcDbArc
 50
180.0000000000000
 51
270.0000000000000
  0
ARC
  5
164
100
AcDbEntity
  8
1
  6
CONTINUOUS
 62
7
100
AcDbCircle
 10
86.22275800000000
 20
231.3329390000000
 30
0.000000000000000
 40
2.000000000000000
100
AcDbArc
 50
270.0000000000000
 51
360.0000000000000
  0
ARC
  5
165
100
AcDbEntity
  8
1
  6
CONTINUOUS
 62
7
100
AcDbCircle
 10
146.1377579999999
 20
146.0429389999999
 30
0.000000000000000
 40
4.000000000000000
100
AcDbArc
 50
80.36409999999998
 51
189.8000000000000
  0
ARC
  5
166
100
AcDbEntity
  8
1
  6
CONTINUOUS
 62
7
100
AcDbCircle
 10
135.0907579999999
 20
110.1219389999998
 30
0.000000000000000
 40
11.00000000000000
100
AcDbArc
 50
331.5079999999999
 51
369.8000000000000
  0
ARC
  5
167
100
AcDbEntity
  8
1
  6
CONTINUOUS
 62
7
100
AcDbCircle
 10
149.8987579999999
 20
105.5429390000000
 30
0.000000000000000
 40
4.500000000000000
100
AcDbArc
 50
118.0120000000000
 51
162.8179999999999
  0
ARC
  5
168
100
AcDbEntity
  8
1
  6
CONTINUOUS
 62
7
100
AcDbCircle
 10
198.8227580000000
 20
160.8499389999998
 30
0.000000000000000
 40
1.900000000000000
100
AcDbArc
 50
227.8000000000000
 51
360.0000000000000
  0
ARC
  5
169
100
AcDbEntity
  8
1
  6
CONTINUOUS
 62
7
100
AcDbCircle
 10
22.77275799999999
 20
236.8329389999999
 30
0.000000000000000
 40
1.500000000000000
100
AcDbArc
 50
90.00000000000000
 51
180.0000000000000
  0
ARC
  5
16A
100
AcDbEntity
  8
1
  6
CONTINUOUS
 62
7
100
AcDbCircle
 10
37.67275800000000
 20
236.8329389999999
 30
0.000000000000000
 40
1.500000000000000
100
AcDbArc
 50
0.000000000000000
 51
90.00000000000000
  0
ARC
  5
16B
100
AcDbEntity
  8
1
  6
CONTINUOUS
 62
7
100
AcDbCircle
 10
30.22275800000000
 20
105.4499389999999
 30
0.000000000000000
 40
7.500000000000000
100
AcDbArc
 50
239.4019999999999
 51
300.5980000000000
  0
ARC
  5
16C
100
AcDbEntity
  8
1
  6
CONTINUOUS
 62
7
100
AcDbCircle
 10
30.22275800000000
 20
110.0119389999999
 30
0.000000000000000
 40
11.00000000000000
100
AcDbArc
 50
197.3409999999999
 51
342.6590000000000
  0
ARC
  5
16D
100
AcDbEntity
  8
1
  6
CONTINUOUS
 62
7
100
AcDbCircle
 10
30.22275800000000
 20
109.0449389999998
 30
0.000000000000000
 40
10.75160000000000
100
AcDbArc
 50
192.4199999999999
 51
347.5800000000000
  0
ARC
  5
16E
100
AcDbEntity
  8
1
  6
CONTINUOUS
 62
7
100
AcDbCircle
 10
261.2227579999998
 20
109.0659389999999
 30
0.000000000000000
 40
10.77239999999999
100
AcDbArc
 50
192.9120000000000
 51
249.2829999999998
  0
ARC
  5
16F
100
AcDbEntity
  8
1
  6
CONTINUOUS
 62
7
100
AcDbCircle
 10
261.2227579999998
 20
109.0659389999999
 30
0.000000000000000
 40
10.77239999999999
100
AcDbArc
 50
290.7169999999999
 51
347.0880000000000
  0
ARC
  5
170
100
AcDbEntity
  8
1
  6
CONTINUOUS
 62
7
100
AcDbCircle
 10
24.55415799999999
 20
230.0329389999999
 30
0.000000000000000
 40
0.5000000000000000
100
AcDbArc
 50
165.5000000000000
 51
345.5000000000000
  0
ARC
  5
171
100
AcDbEntity
  8
1
  6
CONTINUOUS
 62
7
100
AcDbCircle
 10
25.58705800000000
 20
230.0329389999999
 30
0.000000000000000
 40
0.5000000000000000
100
AcDbArc
 50
165.5000000000000
 51
345.5000000000000
  0
ARC
  5
172
100
AcDbEntity
  8
1
  6
CONTINUOUS
 62
7
100
AcDbCircle
 10
26.61995800000000
 20
230.0329389999999
 30
0.000000000000000
 40
0.5000000000000000
100
AcDbArc
 50
165.5000000000000
 51
345.5000000000000
  0
ARC
  5
173
100
AcDbEntity
  8
1
  6
CONTINUOUS
 62
7
100
AcDbCircle
 10
27.65285800000000
 20
230.0329389999999
 30
0.000000000000000
 40
0.5000000000000000
100
AcDbArc
 50
165.5000000000000
 51
345.5000000000000
  0
ARC
  5
174
100
AcDbEntity
  8
1
  6
CONTINUOUS
 62
7
100
AcDbCircle
 10
28.68575800000000
 20
230.0329389999999
 30
0.000000000000000
 40
0.5000000000000000
100
AcDbArc
 50
165.5000000000000
 51
345.5000000000000
  0
ARC
  5
175
100
AcDbEntity
  8
1
  6
CONTINUOUS
 62
7
100
AcDbCircle
 10
29.71865800000000
 20
230.0329389999999
 30
0.000000000000000
 40
0.5000000000000000
100
AcDbArc
 50
165.5000000000000
 51
345.5000000000000
  0
ARC
  5
176
100
AcDbEntity
  8
1
  6
CONTINUOUS
 62
7
100
AcDbCircle
 10
30.75155800000000
 20
230.0329389999999
 30
0.000000000000000
 40
0.5000000000000000
100
AcDbArc
 50
165.5000000000000
 51
345.5000000000000
  0
ARC
  5
177
100
AcDbEntity
  8
1
  6
CONTINUOUS
 62
7
100
AcDbCircle
 10
31.78445800000000
 20
230.0329389999999
 30
0.000000000000000
 40
0.5000000000000000
100
AcDbArc
 50
165.5000000000000
 51
345.5000000000000
  0
ARC
  5
178
100
AcDbEntity
  8
1
  6
CONTINUOUS
 62
7
100
AcDbCircle
 10
32.81735799999999
 20
230.0329389999999
 30
0.000000000000000
 40
0.5000000000000000
100
AcDbArc
 50
165.5000000000000
 51
345.5000000000000
  0
ARC
  5
179
100
AcDbEntity
  8
1
  6
CONTINUOUS
 62
7
100
AcDbCircle
 10
33.85025799999999
 20
230.0329389999999
 30
0.000000000000000
 40
0.5000000000000000
100
AcDbArc
 50
165.5000000000000
 51
345.5000000000000
  0
ARC
  5
17A
100
AcDbEntity
  8
1
  6
CONTINUOUS
 62
7
100
AcDbCircle
 10
34.88315800000000
 20
230.0329389999999
 30
0.000000000000000
 40
0.5000000000000000
100
AcDbArc
 50
165.5000000000000
 51
345.5000000000000
  0
ARC
  5
17B
100
AcDbEntity
  8
1
  6
CONTINUOUS
 62
7
100
AcDbCircle
 10
35.91605799999999
 20
230.0329389999999
 30
0.000000000000000
 40
0.5000000000000000
100
AcDbArc
 50
165.5000000000000
 51
345.5000000000000
  0
ARC
  5
17C
100
AcDbEntity
  8
1
  6
CONTINUOUS
 62
7
100
AcDbCircle
 10
23.52125800000000
 20
230.0329389999999
 30
0.000000000000000
 40
0.5000000000000000
100
AcDbArc
 50
165.5000000000000
 51
345.5000000000000
  0
CIRCLE
  5
17D
100
AcDbEntity
  8
1
  6
CONTINUOUS
 62
7
100
AcDbCircle
 10
23.52275800000000
 20
237.8329390000000
 30
0.000000000000000
 40
0.5000000000000000
  0
ARC
  5
17E
100
AcDbEntity
  8
1
  6
CONTINUOUS
 62
7
100
AcDbCircle
 10
37.10565799999999
 20
147.8499389999998
 30
0.000000000000000
 40
0.5000000000000000
100
AcDbArc
 50
345.5000000000000
 51
525.5000000000000
  0
ARC
  5
17F
100
AcDbEntity
  8
1
  6
CONTINUOUS
 62
7
100
AcDbCircle
 10
36.07275800000000
 20
147.8499389999998
 30
0.000000000000000
 40
0.5000000000000000
100
AcDbArc
 50
345.5000000000000
 51
525.5000000000000
  0
ARC
  5
180
100
AcDbEntity
  8
1
  6
CONTINUOUS
 62
7
100
AcDbCircle
 10
35.03985800000001
 20
147.8499389999998
 30
0.000000000000000
 40
0.5000000000000000
100
AcDbArc
 50
345.5000000000000
 51
525.5000000000000
  0
ARC
  5
181
100
AcDbEntity
  8
1
  6
CONTINUOUS
 62
7
100
AcDbCircle
 10
34.00695799999999
 20
147.8499389999998
 30
0.000000000000000
 40
0.5000000000000000
100
AcDbArc
 50
345.5000000000000
 51
525.5000000000000
  0
ARC
  5
182
100
AcDbEntity
  8
1
  6
CONTINUOUS
 62
7
100
AcDbCircle
 10
32.97405799999999
 20
147.8499389999998
 30
0.000000000000000
 40
0.5000000000000000
100
AcDbArc
 50
345.5000000000000
 51
525.5000000000000
  0
ARC
  5
183
100
AcDbEntity
  8
1
  6
CONTINUOUS
 62
7
100
AcDbCircle
 10
31.94115800000000
 20
147.8499389999998
 30
0.000000000000000
 40
0.5000000000000000
100
AcDbArc
 50
345.5000000000000
 51
525.5000000000000
  0
ARC
  5
184
100
AcDbEntity
  8
1
  6
CONTINUOUS
 62
7
100
AcDbCircle
 10
30.90825800000000
 20
147.8499389999998
 30
0.000000000000000
 40
0.5000000000000000
100
AcDbArc
 50
345.5000000000000
 51
525.5000000000000
  0
ARC
  5
185
100
AcDbEntity
  8
1
  6
CONTINUOUS
 62
7
100
AcDbCircle
 10
29.87535799999999
 20
147.8499389999998
 30
0.000000000000000
 40
0.5000000000000000
100
AcDbArc
 50
345.5000000000000
 51
525.5000000000000
  0
ARC
  5
186
100
AcDbEntity
  8
1
  6
CONTINUOUS
 62
7
100
AcDbCircle
 10
28.84245800000000
 20
147.8499389999998
 30
0.000000000000000
 40
0.5000000000000000
100
AcDbArc
 50
345.5000000000000
 51
525.5000000000000
  0
ARC
  5
187
100
AcDbEntity
  8
1
  6
CONTINUOUS
 62
7
100
AcDbCircle
 10
27.80955800000000
 20
147.8499389999998
 30
0.000000000000000
 40
0.5000000000000000
100
AcDbArc
 50
345.5000000000000
 51
525.5000000000000
  0
ARC
  5
188
100
AcDbEntity
  8
1
  6
CONTINUOUS
 62
7
100
AcDbCircle
 10
26.77665800000000
 20
147.8499389999998
 30
0.000000000000000
 40
0.5000000000000000
100
AcDbArc
 50
345.5000000000000
 51
525.5000000000000
  0
ARC
  5
189
100
AcDbEntity
  8
1
  6
CONTINUOUS
 62
7
100
AcDbCircle
 10
25.74375800000000
 20
147.8499389999998
 30
0.000000000000000
 40
0.5000000000000000
100
AcDbArc
 50
345.5000000000000
 51
525.5000000000000
  0
ARC
  5
18A
100
AcDbEntity
  8
1
  6
CONTINUOUS
 62
7
100
AcDbCircle
 10
24.71085799999999
 20
147.8499389999998
 30
0.000000000000000
 40
0.5000000000000000
100
AcDbArc
 50
345.5000000000000
 51
525.5000000000000
  0
ARC
  5
18B
100
AcDbEntity
  8
1
  6
CONTINUOUS
 62
7
100
AcDbCircle
 10
23.52275800000000
 20
148.9839390000000
 30
0.000000000000000
 40
0.5000000000000000
100
AcDbArc
 50
36.86990000000000
 51
143.1300000000000
  0
ARC
  5
18C
100
AcDbEntity
  8
1
  6
CONTINUOUS
 62
7
100
AcDbCircle
 10
23.52275800000000
 20
149.8499389999998
 30
0.000000000000000
 40
0.5000000000000000
100
AcDbArc
 50
0.000000000000000
 51
180.0000000000000
  0
LINE
  5
18D
100
AcDbEntity
  8
1
  6
CONTINUOUS
 62
7
100
AcDbLine
 10
260.4227579999998
 20
112.4499389999999
 30
0.000000000000000
 11
260.4227579999998
 21
107.9499389999998
 31
0.000000000000000
  0
CIRCLE
  5
18E
100
AcDbEntity
  8
3
  6
DASHED
 62
2
100
AcDbCircle
 10
261.2227579999998
 20
102.9499390000000
 30
0.000000000000000
 40
3.250000000000000
  0
CIRCLE
  5
18F
100
AcDbEntity
  8
3
  6
DASHED
 62
2
100
AcDbCircle
 10
261.2227579999998
 20
136.9499390000000
 30
0.000000000000000
 40
3.250000000000000
  0
LINE
  5
190
100
AcDbEntity
  8
1
  6
CONTINUOUS
 62
7
100
AcDbLine
 10
202.2227580000000
 20
163.4499390000000
 30
0.000000000000000
 11
200.7227579999999
 21
163.4499390000000
 31
0.000000000000000
  0
LINE
  5
191
100
AcDbEntity
  8
1
  6
CONTINUOUS
 62
7
100
AcDbLine
 10
252.1227580000000
 20
147.0499390000000
 30
0.000000000000000
 11
252.2727580000000
 21
147.0499390000000
 31
0.000000000000000
  0
LINE
  5
192
100
AcDbEntity
  8
1
  6
CONTINUOUS
 62
7
100
AcDbLine
 10
252.1227580000000
 20
144.0499390000000
 30
0.000000000000000
 11
252.2727580000000
 21
144.0499390000000
 31
0.000000000000000
  0
LINE
  5
193
100
AcDbEntity
  8
1
  6
CONTINUOUS
 62
7
100
AcDbLine
 10
270.1727580000000
 20
147.0499390000000
 30
0.000000000000000
 11
270.3227580000000
 21
147.0499390000000
 31
0.000000000000000
  0
LINE
  5
194
100
AcDbEntity
  8
1
  6
CONTINUOUS
 62
7
100
AcDbLine
 10
270.1727580000000
 20
144.0499390000000
 30
0.000000000000000
 11
270.3227580000000
 21
144.0499390000000
 31
0.000000000000000
  0
ARC
  5
195
100
AcDbEntity
  8
1
  6
CONTINUOUS
 62
7
100
AcDbCircle
 10
148.8227580000000
 20
160.4499389999998
 30
0.000000000000000
 40
1.500000000000000
100
AcDbArc
 50
356.2559160000000
 51
536.2559159999998
  0
LINE
  5
196
100
AcDbEntity
  8
4
  6
CENTER
 62
1
100
AcDbLine
 10
145.9794100000000
 20
160.4499389999998
 30
0.000000000000000
 11
151.8591780000000
 21
160.4499389999998
 31
0.000000000000000
  0
LINE
  5
197
100
AcDbEntity
  8
4
  6
CENTER
 62
1
100
AcDbLine
 10
148.8227580000000
 20
157.1640240000000
 30
0.000000000000000
 11
148.8227580000000
 21
163.7350169999999
 31
0.000000000000000
  0
LINE
  5
198
100
AcDbEntity
  8
1
  6
CONTINUOUS
 62
7
100
AcDbLine
 10
150.3195570000000
 20
160.3519890000000
 30
0.000000000000000
 11
148.7585570000000
 21
136.4979889999998
 31
0.000000000000000
  0
LINE
  5
199
100
AcDbEntity
  8
1
  6
CONTINUOUS
 62
7
100
AcDbLine
 10
147.3259600000000
 20
160.5478900000000
 30
0.000000000000000
 11
145.7649600000000
 21
136.6938899999998
 31
0.000000000000000
  0
LINE
  5
19A
100
AcDbEntity
  8
1
  6
CONTINUOUS
 62
7
100
AcDbLine
 10
252.9466450000000
 20
161.9499390000000
 30
0.000000000000000
 11
269.4988710000000
 21
161.9499390000000
 31
0.000000000000000
  0
ARC
  5
19B
100
AcDbEntity
  8
1
  6
CONTINUOUS
 62
7
100
AcDbCircle
 10
252.9466450000000
 20
157.9499390000000
 30
0.000000000000000
 40
4.000000000000000
100
AcDbArc
 50
90.00000000000000
 51
167.7356699999999
  0
ARC
  5
19C
100
AcDbEntity
  8
1
  6
CONTINUOUS
 62
7
100
AcDbCircle
 10
269.4988710000000
 20
157.9499390000000
 30
0.000000000000000
 40
4.000000000000000
100
AcDbArc
 50
12.26433000000000
 51
90.00000000000000
  0
LINE
  5
19D
100
AcDbEntity
  8
1
  6
CONTINUOUS
 62
7
100
AcDbLine
 10
252.9466450000000
 20
158.9499390000000
 30
0.000000000000000
 11
269.4988710000000
 21
158.9499390000000
 31
0.000000000000000
  0
ARC
  5
19E
100
AcDbEntity
  8
1
  6
CONTINUOUS
 62
7
100
AcDbCircle
 10
269.4988710000000
 20
157.9499390000000
 30
0.000000000000000
 40
1.000000000000000
100
AcDbArc
 50
12.26433000000000
 51
90.00000000000000
  0
LINE
  5
19F
100
AcDbEntity
  8
1
  6
CONTINUOUS
 62
7
100
AcDbLine
 10
270.4760489999998
 20
158.1623620000000
 30
0.000000000000000
 11
274.4482239999999
 21
139.8896729999999
 31
0.000000000000000
  0
ARC
  5
1A0
100
AcDbEntity
  8
1
  6
CONTINUOUS
 62
7
100
AcDbCircle
 10
252.9466450000000
 20
157.9499390000000
 30
0.000000000000000
 40
1.000000000000000
100
AcDbArc
 50
90.00000000000000
 51
167.7356699999999
  0
LINE
  5
1A1
100
AcDbEntity
  8
1
  6
CONTINUOUS
 62
7
100
AcDbLine
 10
251.9694669999998
 20
158.1623619999999
 30
0.000000000000000
 11
247.9972919999998
 21
139.8896729999999
 31
0.000000000000000
  0
LINE
  5
1A2
100
AcDbEntity
  8
1
  6
CONTINUOUS
 62
7
100
AcDbLine
 10
21.12275799999998
 20
150.0429389999998
 30
0.000000000000000
 11
21.12275799999998
 21
145.3619389999998
 31
0.000000000000000
  0
LINE
  5
1A3
100
AcDbEntity
  8
1
  6
CONTINUOUS
 62
7
100
AcDbLine
 10
39.32275800000000
 20
150.0429389999998
 30
0.000000000000000
 11
39.32275800000000
 21
145.3619389999998
 31
0.000000000000000
  0
LINE
  5
1A4
100
AcDbEntity
  8
1
  6
CONTINUOUS
 62
7
100
AcDbLine
 10
21.94664500000000
 20
158.9499390000000
 30
0.000000000000000
 11
38.49887100000000
 21
158.9499390000000
 31
0.000000000000000
  0
LINE
  5
1A5
100
AcDbEntity
  8
1
  6
CONTINUOUS
 62
7
100
AcDbLine
 10
21.94664500000000
 20
161.9499390000000
 30
0.000000000000000
 11
38.49887100000000
 21
161.9499390000000
 31
0.000000000000000
  0
LINE
  5
1A6
100
AcDbEntity
  8
4
  6
CENTER
 62
1
100
AcDbLine
 10
13.33475799999999
 20
160.4499389999998
 30
0.000000000000000
 11
47.11075799999998
 21
160.4499389999998
 31
0.000000000000000
  0
LINE
  5
1A7
100
AcDbEntity
  8
1
  6
CONTINUOUS
 62
7
100
AcDbLine
 10
39.47604899999997
 20
158.1623620000000
 30
0.000000000000000
 11
43.44822399999997
 21
139.8896729999999
 31
0.000000000000000
  0
LINE
  5
1A8
100
AcDbEntity
  8
1
  6
CONTINUOUS
 62
7
100
AcDbLine
 10
42.40758300000000
 20
158.7996280000000
 30
0.000000000000000
 11
46.37975800000000
 21
140.5269389999999
 31
0.000000000000000
  0
ARC
  5
1A9
100
AcDbEntity
  8
1
  6
CONTINUOUS
 62
7
100
AcDbCircle
 10
38.49887100000000
 20
157.9499390000000
 30
0.000000000000000
 40
4.000000000000000
100
AcDbArc
 50
12.26433000000000
 51
90.00000000000000
  0
ARC
  5
1AA
100
AcDbEntity
  8
1
  6
CONTINUOUS
 62
7
100
AcDbCircle
 10
38.49887100000000
 20
157.9499390000000
 30
0.000000000000000
 40
1.000000000000000
100
AcDbArc
 50
12.26433000000000
 51
90.00000000000000
  0
LINE
  5
1AB
100
AcDbEntity
  8
1
  6
CONTINUOUS
 62
7
100
AcDbLine
 10
20.96946700000000
 20
158.1623620000000
 30
0.000000000000000
 11
16.99729200000000
 21
139.8896729999999
 31
0.000000000000000
  0
LINE
  5
1AC
100
AcDbEntity
  8
1
  6
CONTINUOUS
 62
7
100
AcDbLine
 10
18.03793299999998
 20
158.7996280000000
 30
0.000000000000000
 11
14.06575799999998
 21
140.5269389999999
 31
0.000000000000000
  0
ARC
  5
1AD
100
AcDbEntity
  8
1
  6
CONTINUOUS
 62
7
100
AcDbCircle
 10
21.94664500000000
 20
157.9499390000000
 30
0.000000000000000
 40
1.000000000000000
100
AcDbArc
 50
90.00000000000000
 51
167.7356699999999
  0
ARC
  5
1AE
100
AcDbEntity
  8
1
  6
CONTINUOUS
 62
7
100
AcDbCircle
 10
21.94664500000000
 20
157.9499390000000
 30
0.000000000000000
 40
4.000000000000000
100
AcDbArc
 50
90.00000000000000
 51
167.7356699999999
  0
ARC
  5
1AF
100
AcDbEntity
  8
1
  6
CONTINUOUS
 62
7
100
AcDbCircle
 10
18.47275800000000
 20
139.6159390000000
 30
0.000000000000000
 40
1.500000000000000
100
AcDbArc
 50
167.2231909999998
 51
270.0000000000000
  0
ARC
  5
1B0
100
AcDbEntity
  8
1
  6
CONTINUOUS
 62
7
100
AcDbCircle
 10
18.47275800000000
 20
139.6159390000000
 30
0.000000000000000
 40
4.500000000000000
100
AcDbArc
 50
168.3259999999999
 51
270.0000000000000
  0
ARC
  5
1B1
100
AcDbEntity
  8
1
  6
CONTINUOUS
 62
7
100
AcDbCircle
 10
41.97275799999999
 20
139.6159390000000
 30
0.000000000000000
 40
4.500000000000000
100
AcDbArc
 50
270.0000000000000
 51
371.6739000000000
  0
ARC
  5
1B2
100
AcDbEntity
  8
1
  6
CONTINUOUS
 62
7
100
AcDbCircle
 10
41.97275799999999
 20
139.6159390000000
 30
0.000000000000000
 40
1.500000000000000
100
AcDbArc
 50
270.0000000000000
 51
372.7768090000000
  0
LINE
  5
1B3
100
AcDbEntity
  8
1
  6
CONTINUOUS
 62
7
100
AcDbLine
 10
19.72275800000000
 20
44.15772899999999
 30
0.000000000000000
 11
21.12275799999998
 21
44.15631900000000
 31
0.000000000000000
  0
LINE
  5
1B4
100
AcDbEntity
  8
1
  6
CONTINUOUS
 62
7
100
AcDbLine
 10
40.72275800000000
 20
44.15772899999999
 30
0.000000000000000
 11
39.32275800000000
 21
44.15631900000000
 31
0.000000000000000
  0
LINE
  5
1B5
100
AcDbEntity
  8
1
  6
CONTINUOUS
 62
7
100
AcDbLine
 10
21.12275799999998
 20
44.15631900000000
 30
0.000000000000000
 11
21.12275799999998
 21
45.77333900000000
 31
0.000000000000000
  0
LINE
  5
1B6
100
AcDbEntity
  8
1
  6
CONTINUOUS
 62
7
100
AcDbLine
 10
39.32275800000000
 20
44.15631900000000
 30
0.000000000000000
 11
39.32275800000000
 21
45.77333900000000
 31
0.000000000000000
  0
ARC
  5
1B7
100
AcDbEntity
  8
1
  6
CONTINUOUS
 62
7
100
AcDbCircle
 10
21.12275799999998
 20
227.7449390000000
 30
0.000000000000000
 40
1.399999999999999
100
AcDbArc
 50
180.0000000000000
 51
270.0000000000000
  0
ARC
  5
1B8
100
AcDbEntity
  8
1
  6
CONTINUOUS
 62
7
100
AcDbCircle
 10
39.32275800000000
 20
227.7449390000000
 30
0.000000000000000
 40
1.399999999999999
100
AcDbArc
 50
270.0000000000000
 51
360.0000000000000
  0
LINE
  5
1B9
100
AcDbEntity
  8
4
  6
CENTER
 62
1
100
AcDbLine
 10
12.45453799999999
 20
233.3719390000000
 30
0.000000000000000
 11
48.57291899999999
 21
233.3719390000000
 31
0.000000000000000
  0
LINE
  5
1BA
100
AcDbEntity
  8
4
  6
CENTER
 62
1
100
AcDbLine
 10
44.98566100000000
 20
234.9329390000000
 30
0.000000000000000
 11
16.11163099999998
 21
234.9329390000000
 31
0.000000000000000
  0
LINE
  5
1BB
100
AcDbEntity
  8
1
  6
CONTINUOUS
 62
7
100
AcDbLine
 10
39.17275800000000
 20
236.4329389999999
 30
0.000000000000000
 11
39.17275800000000
 21
236.8329389999999
 31
0.000000000000000
  0
LINE
  5
1BC
100
AcDbEntity
  8
1
  6
CONTINUOUS
 62
7
100
AcDbLine
 10
21.27275800000000
 20
236.4329389999999
 30
0.000000000000000
 11
21.27275800000000
 21
236.8329389999999
 31
0.000000000000000
  0
ARC
  5
1BD
100
AcDbEntity
  8
1
  6
CONTINUOUS
 62
7
100
AcDbCircle
 10
44.96462400000000
 20
233.3719390000000
 30
0.000000000000000
 40
1.500000000000000
100
AcDbArc
 50
270.0000000000000
 51
431.6994540000000
  0
LINE
  5
1BE
100
AcDbEntity
  8
1
  6
CONTINUOUS
 62
7
100
AcDbLine
 10
44.96462400000000
 20
231.8719390000000
 30
0.000000000000000
 11
41.46462399999999
 21
231.8719390000000
 31
0.000000000000000
  0
LINE
  5
1BF
100
AcDbEntity
  8
1
  6
CONTINUOUS
 62
7
100
AcDbLine
 10
19.95915799999997
 20
236.4329389999999
 30
0.000000000000000
 11
15.00988999999997
 21
234.7960730000000
 31
0.000000000000000
  0
LINE
  5
1C0
100
AcDbEntity
  8
1
  6
CONTINUOUS
 62
7
100
AcDbLine
 10
40.48635800000001
 20
236.4329389999999
 30
0.000000000000000
 11
45.43562600000001
 21
234.7960730000000
 31
0.000000000000000
  0
LINE
  5
1C1
100
AcDbEntity
  8
1
  6
CONTINUOUS
 62
7
100
AcDbLine
 10
40.01825399999998
 20
233.4279390000000
 30
0.000000000000000
 11
44.49362199999998
 21
231.9478060000000
 31
0.000000000000000
  0
LINE
  5
1C2
100
AcDbEntity
  8
1
  6
CONTINUOUS
 62
7
100
AcDbLine
 10
20.42726200000000
 20
233.4279390000000
 30
0.000000000000000
 11
15.95189400000000
 21
231.9478060000000
 31
0.000000000000000
  0
ARC
  5
1C3
100
AcDbEntity
  8
1
  6
CONTINUOUS
 62
7
100
AcDbCircle
 10
21.12275799999998
 20
52.63263900000000
 30
0.000000000000000
 40
1.399999999999999
100
AcDbArc
 50
90.00000000000000
 51
180.0000000000000
  0
ARC
  5
1C4
100
AcDbEntity
  8
1
  6
CONTINUOUS
 62
7
100
AcDbCircle
 10
39.32275800000000
 20
52.63263900000000
 30
0.000000000000000
 40
1.399999999999999
100
AcDbArc
 50
0.000000000000000
 51
90.00000000000000
  0
LINE
  5
1C5
100
AcDbEntity
  8
1
  6
CONTINUOUS
 62
7
100
AcDbLine
 10
44.96462400000000
 20
48.50563900000000
 30
0.000000000000000
 11
40.72275799999999
 21
48.50563900000000
 31
0.000000000000000
  0
LINE
  5
1C6
100
AcDbEntity
  8
4
  6
CENTER
 62
1
100
AcDbLine
 10
13.97275800000000
 20
48.04463900000000
 30
0.000000000000000
 11
46.47275800000000
 21
48.04463900000000
 31
0.000000000000000
  0
ARC
  5
1C7
100
AcDbEntity
  8
1
  6
CONTINUOUS
 62
7
100
AcDbCircle
 10
44.96462400000000
 20
47.00563900000000
 30
0.000000000000000
 40
1.500000000000000
100
AcDbArc
 50
288.3005460000000
 51
450.0000000000000
  0
LINE
  5
1C8
100
AcDbEntity
  8
4
  6
CENTER
 62
1
100
AcDbLine
 10
12.45453799999999
 20
47.00563900000000
 30
0.000000000000000
 11
48.57291899999999
 21
47.00563900000000
 31
0.000000000000000
  0
LINE
  5
1C9
100
AcDbEntity
  8
4
  6
CENTER
 62
1
100
AcDbLine
 10
44.98566100000000
 20
45.44463900000000
 30
0.000000000000000
 11
16.11163099999998
 21
45.44463900000000
 31
0.000000000000000
  0
LINE
  5
1CA
100
AcDbEntity
  8
1
  6
CONTINUOUS
 62
7
100
AcDbLine
 10
40.48635800000000
 20
43.94463900000000
 30
0.000000000000000
 11
45.43562599999999
 21
45.58150599999999
 31
0.000000000000000
  0
LINE
  5
1CB
100
AcDbEntity
  8
1
  6
CONTINUOUS
 62
7
100
AcDbLine
 10
19.95915799999998
 20
43.94463900000000
 30
0.000000000000000
 11
21.27275800000000
 21
43.94463900000000
 31
0.000000000000000
  0
LINE
  5
1CC
100
AcDbEntity
  8
1
  6
CONTINUOUS
 62
7
100
AcDbLine
 10
19.95915799999997
 20
43.94463900000000
 30
0.000000000000000
 11
15.00988999999998
 21
45.58150599999999
 31
0.000000000000000
  0
ARC
  5
1CD
100
AcDbEntity
  8
1
  6
CONTINUOUS
 62
7
100
AcDbCircle
 10
15.48089200000000
 20
47.00563900000000
 30
0.000000000000000
 40
1.500000000000000
100
AcDbArc
 50
90.00000000000000
 51
251.6994540000000
  0
LINE
  5
1CE
100
AcDbEntity
  8
1
  6
CONTINUOUS
 62
7
100
AcDbLine
 10
15.48089200000000
 20
48.50563900000000
 30
0.000000000000000
 11
19.72275800000000
 21
48.50563900000000
 31
0.000000000000000
  0
LINE
  5
1CF
100
AcDbEntity
  8
1
  6
CONTINUOUS
 62
7
100
AcDbLine
 10
44.96462400000000
 20
45.50563900000000
 30
0.000000000000000
 11
40.72275799999999
 21
45.50563900000000
 31
0.000000000000000
  0
LINE
  5
1D0
100
AcDbEntity
  8
1
  6
CONTINUOUS
 62
7
100
AcDbLine
 10
15.48089200000000
 20
45.50563900000000
 30
0.000000000000000
 11
19.72275800000000
 21
45.50563900000000
 31
0.000000000000000
  0
LINE
  5
1D1
100
AcDbEntity
  8
1
  6
CONTINUOUS
 62
7
100
AcDbLine
 10
39.17275800000000
 20
43.94463900000000
 30
0.000000000000000
 11
40.48635800000000
 21
43.94463900000000
 31
0.000000000000000
  0
LINE
  5
1D2
100
AcDbEntity
  8
1
  6
CONTINUOUS
 62
7
100
AcDbLine
 10
30.97275800000000
 20
43.94463900000000
 30
0.000000000000000
 11
37.67275800000000
 21
43.94463900000000
 31
0.000000000000000
  0
LINE
  5
1D3
100
AcDbEntity
  8
1
  6
CONTINUOUS
 62
7
100
AcDbLine
 10
24.22275799999999
 20
43.94463900000000
 30
0.000000000000000
 11
29.47275799999999
 21
43.94463900000000
 31
0.000000000000000
  0
LINE
  5
1D4
100
AcDbEntity
  8
1
  6
CONTINUOUS
 62
7
100
AcDbLine
 10
22.77275799999999
 20
43.94463900000000
 30
0.000000000000000
 11
23.22275799999999
 21
43.94463900000000
 31
0.000000000000000
  0
LINE
  5
1D5
100
AcDbEntity
  8
1
  6
CONTINUOUS
 62
7
100
AcDbLine
 10
37.72275800000000
 20
42.04523900000000
 30
0.000000000000000
 11
37.72275800000000
 21
43.54523900000000
 31
0.000000000000000
  0
LINE
  5
1D6
100
AcDbEntity
  8
1
  6
CONTINUOUS
 62
7
100
AcDbLine
 10
22.72275800000000
 20
42.04523900000000
 30
0.000000000000000
 11
22.72275800000000
 21
43.54523900000000
 31
0.000000000000000
  0
ARC
  5
1D7
100
AcDbEntity
  8
1
  6
CONTINUOUS
 62
7
100
AcDbCircle
 10
135.0907579999999
 20
110.1219389999998
 30
0.000000000000000
 40
12.40000000000000
100
AcDbArc
 50
331.5079999999999
 51
356.6580000000000
  0
LINE
  5
1D8
100
AcDbEntity
  8
1
  6
CONTINUOUS
 62
7
100
AcDbLine
 10
142.7658590000000
 20
98.26978400000004
 30
0.000000000000000
 11
145.9888740000000
 21
104.2066500000000
 31
0.000000000000000
  0
LINE
  5
1D9
100
AcDbEntity
  8
1
  6
CONTINUOUS
 62
7
100
AcDbLine
 10
21.12275799999998
 20
227.7449390000000
 30
0.000000000000000
 11
39.32275800000000
 21
227.7449390000000
 31
0.000000000000000
  0
LINE
  5
1DA
100
AcDbEntity
  8
1
  6
CONTINUOUS
 62
7
100
AcDbLine
 10
22.77275799999999
 20
236.8329389999999
 30
0.000000000000000
 11
23.02275799999998
 21
236.8329389999999
 31
0.000000000000000
  0
LINE
  5
1DB
100
AcDbEntity
  8
1
  6
CONTINUOUS
 62
7
100
AcDbLine
 10
37.67275800000000
 20
236.4329389999999
 30
0.000000000000000
 11
37.67275800000000
 21
236.8329389999999
 31
0.000000000000000
  0
LINE
  5
1DC
100
AcDbEntity
  8
1
  6
CONTINUOUS
 62
7
100
AcDbLine
 10
22.77275799999999
 20
236.4329389999999
 30
0.000000000000000
 11
22.77275799999999
 21
236.8329389999999
 31
0.000000000000000
  0
LINE
  5
1DD
100
AcDbEntity
  8
1
  6
CONTINUOUS
 62
7
100
AcDbLine
 10
24.02275799999999
 20
236.8329389999999
 30
0.000000000000000
 11
37.67275800000000
 21
236.8329389999999
 31
0.000000000000000
  0
ENDSEC
  0
SECTION
  2
OBJECTS
  0
DICTIONARY
  5
207
100
AcDbDictionary
  3
ACAD_GROUP
350
208
  3
ACAD_LAYOUT
350
209
  3
ACAD_MLINESTYLE
350
20A
  0
DICTIONARY
  5
208
102
{ACAD_REACTORS
330
207
102
}
330
207
100
AcDbDictionary
  0
DICTIONARY
  5
209
102
{ACAD_REACTORS
330
207
102
}
330
207
100
AcDbDictionary
  3
Model
350
20B
  3
ﾚｲｱｳﾄ1
350
20C
  3
ﾚｲｱｳﾄ2
350
20D
  0
DICTIONARY
  5
20A
102
{ACAD_REACTORS
330
207
102
}
330
207
100
AcDbDictionary
  3
STANDARD
350
20E
  0
LAYOUT
  5
20B
102
{ACAD_REACTORS
330
209
102
}
330
209
100
AcDbPlotSettings
 70
11952
  4
A3
 44
297.000000
 45
420.000000
 73
  1
 72
  1
100
AcDbLayout
  1
Model
 71
0
330
1FE
  0
LAYOUT
  5
20C
102
{ACAD_REACTORS
330
209
102
}
330
209
100
AcDbPlotSettings
100
AcDbLayout
  1
ﾚｲｱｳﾄ1
 71
1
330
1FF
  0
LAYOUT
  5
20D
102
{ACAD_REACTORS
330
209
102
}
330
209
100
AcDbPlotSettings
100
AcDbLayout
  1
ﾚｲｱｳﾄ2
 71
2
330
200
  0
MLINESTYLE
  5
20E
102
{ACAD_REACTORS
330
20A
102
}
330
20A
100
AcDbMlineStyle
  2
STANDARD
 70
     0
  3

 62
   256
 51
90.00
 52
90.00
 71
     2
 49
0.50
 62
   256
  6
BYLAYER
 49
-0.50
 62
   256
  6
BYLAYER
  0
ENDSEC
  0
EOF
