  0
SECTION
  2
HEADER
  9
$ACADVER
  1
AC1015
  9
$ACADMAINTVER
 70
    20
  9
$DWGCODEPAGE
  3
ANSI_932
  9
$INSBASE
 10
0.0
 20
0.0
 30
0.0
  9
$EXTMIN
 10
9.9999975266385
 20
9.999999999999998
 30
0.0
  9
$EXTMAX
 10
477.441145836004
 20
183.2918848649338
 30
0.0
  9
$LIMMIN
 10
0.0000015376081137
 20
-0.0000001931532552
  9
$LIMMAX
 10
495.0000015376081
 20
341.2499998068465
  9
$ORTHOMODE
 70
     1
  9
$REGENMODE
 70
     1
  9
$FILLMODE
 70
     1
  9
$QTEXTMODE
 70
     0
  9
$MIRRTEXT
 70
     1
  9
$LTSCALE
 40
1.0
  9
$ATTMODE
 70
     1
  9
$TEXTSIZE
 40
2.5
  9
$TRACEWID
 40
1.0
  9
$TEXTSTYLE
  7
STANDARD
  9
$CLAYER
  8
0
  9
$CELTYPE
  6
CONTINUOUS
  9
$CECOLOR
 62
   256
  9
$CELTSCALE
 40
1.0
  9
$DISPSILH
 70
     0
  9
$DIMSCALE
 40
1.0
  9
$DIMASZ
 40
3.0
  9
$DIMEXO
 40
1.0
  9
$DIMDLI
 40
10.0
  9
$DIMRND
 40
0.0
  9
$DIMDLE
 40
0.0
  9
$DIMEXE
 40
1.0
  9
$DIMTP
 40
0.0
  9
$DIMTM
 40
0.0
  9
$DIMTXT
 40
2.5
  9
$DIMCEN
 40
0.0
  9
$DIMTSZ
 40
0.0
  9
$DIMTOL
 70
     0
  9
$DIMLIM
 70
     0
  9
$DIMTIH
 70
     0
  9
$DIMTOH
 70
     0
  9
$DIMSE1
 70
     0
  9
$DIMSE2
 70
     0
  9
$DIMTAD
 70
     3
  9
$DIMZIN
 70
     8
  9
$DIMBLK
  1

  9
$DIMASO
 70
     1
  9
$DIMSHO
 70
     1
  9
$DIMPOST
  1

  9
$DIMAPOST
  1

  9
$DIMALT
 70
     0
  9
$DIMALTD
 70
     2
  9
$DIMALTF
 40
25.4
  9
$DIMLFAC
 40
1.0
  9
$DIMTOFL
 70
     1
  9
$DIMTVP
 40
0.0
  9
$DIMTIX
 70
     0
  9
$DIMSOXD
 70
     0
  9
$DIMSAH
 70
     1
  9
$DIMBLK1
  1
OPEN
  9
$DIMBLK2
  1
OPEN
  9
$DIMSTYLE
  2
STANDARD
  9
$DIMCLRD
 70
     0
  9
$DIMCLRE
 70
     0
  9
$DIMCLRT
 70
     0
  9
$DIMTFAC
 40
1.0
  9
$DIMGAP
 40
1.0
  9
$DIMJUST
 70
     0
  9
$DIMSD1
 70
     0
  9
$DIMSD2
 70
     0
  9
$DIMTOLJ
 70
     1
  9
$DIMTZIN
 70
     0
  9
$DIMALTZ
 70
     0
  9
$DIMALTTZ
 70
     0
  9
$DIMUPT
 70
     0
  9
$DIMDEC
 70
     4
  9
$DIMTDEC
 70
     4
  9
$DIMALTU
 70
     2
  9
$DIMALTTD
 70
     2
  9
$DIMTXSTY
  7
STANDARD
  9
$DIMAUNIT
 70
     0
  9
$DIMADEC
 70
     0
  9
$DIMALTRND
 40
0.0
  9
$DIMAZIN
 70
     0
  9
$DIMDSEP
 70
    46
  9
$DIMATFIT
 70
     3
  9
$DIMFRAC
 70
     0
  9
$DIMLDRBLK
  1
OPEN
  9
$DIMLUNIT
 70
     2
  9
$DIMLWD
 70
    -2
  9
$DIMLWE
 70
    -2
  9
$DIMTMOVE
 70
     0
  9
$LUNITS
 70
     2
  9
$LUPREC
 70
     4
  9
$SKETCHINC
 40
1.0
  9
$FILLETRAD
 40
0.0
  9
$AUNITS
 70
     0
  9
$AUPREC
 70
     0
  9
$MENU
  1
acad
  9
$ELEVATION
 40
0.0
  9
$PELEVATION
 40
0.0
  9
$THICKNESS
 40
0.0
  9
$LIMCHECK
 70
     0
  9
$CHAMFERA
 40
10.0
  9
$CHAMFERB
 40
10.0
  9
$CHAMFERC
 40
20.0
  9
$CHAMFERD
 40
0.0
  9
$SKPOLY
 70
     0
  9
$TDCREATE
 40
2457366.444791725
  9
$TDUCREATE
 40
2457366.069791724
  9
$TDUPDATE
 40
2457381.442228368
  9
$TDUUPDATE
 40
2457381.067228368
  9
$TDINDWG
 40
0.2965141319
  9
$TDUSRTIMER
 40
0.2965140972
  9
$USRTIMER
 70
     1
  9
$ANGBASE
 50
0.0
  9
$ANGDIR
 70
     0
  9
$PDMODE
 70
     0
  9
$PDSIZE
 40
0.0
  9
$PLINEWID
 40
0.0
  9
$SPLFRAME
 70
     0
  9
$SPLINETYPE
 70
     6
  9
$SPLINESEGS
 70
     8
  9
$HANDSEED
  5
288F
  9
$SURFTAB1
 70
     6
  9
$SURFTAB2
 70
     6
  9
$SURFTYPE
 70
     6
  9
$SURFU
 70
     6
  9
$SURFV
 70
     6
  9
$UCSBASE
  2

  9
$UCSNAME
  2

  9
$UCSORG
 10
0.0
 20
0.0
 30
0.0
  9
$UCSXDIR
 10
1.0
 20
0.0
 30
0.0
  9
$UCSYDIR
 10
0.0
 20
1.0
 30
0.0
  9
$UCSORTHOREF
  2

  9
$UCSORTHOVIEW
 70
     0
  9
$UCSORGTOP
 10
0.0
 20
0.0
 30
0.0
  9
$UCSORGBOTTOM
 10
0.0
 20
0.0
 30
0.0
  9
$UCSORGLEFT
 10
0.0
 20
0.0
 30
0.0
  9
$UCSORGRIGHT
 10
0.0
 20
0.0
 30
0.0
  9
$UCSORGFRONT
 10
0.0
 20
0.0
 30
0.0
  9
$UCSORGBACK
 10
0.0
 20
0.0
 30
0.0
  9
$PUCSBASE
  2

  9
$PUCSNAME
  2

  9
$PUCSORG
 10
0.0
 20
0.0
 30
0.0
  9
$PUCSXDIR
 10
1.0
 20
0.0
 30
0.0
  9
$PUCSYDIR
 10
0.0
 20
1.0
 30
0.0
  9
$PUCSORTHOREF
  2

  9
$PUCSORTHOVIEW
 70
     0
  9
$PUCSORGTOP
 10
0.0
 20
0.0
 30
0.0
  9
$PUCSORGBOTTOM
 10
0.0
 20
0.0
 30
0.0
  9
$PUCSORGLEFT
 10
0.0
 20
0.0
 30
0.0
  9
$PUCSORGRIGHT
 10
0.0
 20
0.0
 30
0.0
  9
$PUCSORGFRONT
 10
0.0
 20
0.0
 30
0.0
  9
$PUCSORGBACK
 10
0.0
 20
0.0
 30
0.0
  9
$USERI1
 70
     0
  9
$USERI2
 70
     0
  9
$USERI3
 70
     0
  9
$USERI4
 70
     0
  9
$USERI5
 70
     0
  9
$USERR1
 40
0.0
  9
$USERR2
 40
0.0
  9
$USERR3
 40
0.0
  9
$USERR4
 40
0.0
  9
$USERR5
 40
0.0
  9
$WORLDVIEW
 70
     1
  9
$SHADEDGE
 70
     3
  9
$SHADEDIF
 70
    70
  9
$TILEMODE
 70
     1
  9
$MAXACTVP
 70
    48
  9
$PINSBASE
 10
0.0
 20
0.0
 30
0.0
  9
$PLIMCHECK
 70
     0
  9
$PEXTMIN
 10
1.000000000000000E+20
 20
1.000000000000000E+20
 30
1.000000000000000E+20
  9
$PEXTMAX
 10
-1.000000000000000E+20
 20
-1.000000000000000E+20
 30
-1.000000000000000E+20
  9
$PLIMMIN
 10
0.0
 20
0.0
  9
$PLIMMAX
 10
420.0
 20
297.0
  9
$UNITMODE
 70
     0
  9
$VISRETAIN
 70
     1
  9
$PLINEGEN
 70
     0
  9
$PSLTSCALE
 70
     1
  9
$TREEDEPTH
 70
  3020
  9
$CMLSTYLE
  2
STANDARD
  9
$CMLJUST
 70
     0
  9
$CMLSCALE
 40
20.0
  9
$PROXYGRAPHICS
 70
     1
  9
$MEASUREMENT
 70
     1
  9
$CELWEIGHT
370
    -1
  9
$ENDCAPS
280
     0
  9
$JOINSTYLE
280
     0
  9
$LWDISPLAY
290
     0
  9
$INSUNITS
 70
     0
  9
$HYPERLINKBASE
  1

  9
$STYLESHEET
  1
std_栃木屋様.ctb
  9
$XEDIT
290
     1
  9
$CEPSNTYPE
380
     0
  9
$PSTYLEMODE
290
     1
  9
$FINGERPRINTGUID
  2
{779B1240-7DC3-4C7B-AB69-FDB300698145}
  9
$VERSIONGUID
  2
{9E6CCE04-923D-423F-B88C-E15DF9067B5C}
  9
$EXTNAMES
290
     1
  9
$PSVPSCALE
 40
0.0
  9
$OLESTARTUP
290
     0
  0
ENDSEC
  0
SECTION
  2
CLASSES
  0
CLASS
  1
ACDBDICTIONARYWDFLT
  2
AcDbDictionaryWithDefault
  3
ObjectDBX Classes
 90
        0
280
     0
281
     0
  0
CLASS
  1
MATERIAL
  2
AcDbMaterial
  3
ObjectDBX Classes
 90
     1153
280
     0
281
     0
  0
CLASS
  1
VISUALSTYLE
  2
AcDbVisualStyle
  3
ObjectDBX Classes
 90
     4095
280
     0
281
     0
  0
CLASS
  1
TABLESTYLE
  2
AcDbTableStyle
  3
ObjectDBX Classes
 90
     4095
280
     0
281
     0
  0
CLASS
  1
SCALE
  2
AcDbScale
  3
ObjectDBX Classes
 90
     1153
280
     0
281
     0
  0
CLASS
  1
MLEADERSTYLE
  2
AcDbMLeaderStyle
  3
ACDB_MLEADERSTYLE_CLASS
 90
     4095
280
     0
281
     0
  0
CLASS
  1
ACDBSECTIONVIEWSTYLE
  2
AcDbSectionViewStyle
  3
ObjectDBX Classes
 90
     1025
280
     0
281
     0
  0
CLASS
  1
ACDBDETAILVIEWSTYLE
  2
AcDbDetailViewStyle
  3
ObjectDBX Classes
 90
     1025
280
     0
281
     0
  0
CLASS
  1
EXACXREFPANELOBJECT
  2
ExAcXREFPanelObject
  3
EXAC_ESW
 90
    33793
280
     0
281
     0
  0
CLASS
  1
NPOCOLLECTION
  2
AcDbImpNonPersistentObjectsCollection
  3
ObjectDBX Classes
 90
    33921
280
     0
281
     0
  0
CLASS
  1
DICTIONARYVAR
  2
AcDbDictionaryVar
  3
ObjectDBX Classes
 90
        0
280
     0
281
     0
  0
CLASS
  1
CELLSTYLEMAP
  2
AcDbCellStyleMap
  3
ObjectDBX Classes
 90
     1152
280
     0
281
     0
  0
CLASS
  1
SORTENTSTABLE
  2
AcDbSortentsTable
  3
ObjectDBX Classes
 90
        0
280
     0
281
     0
  0
CLASS
  1
ACDBPLACEHOLDER
  2
AcDbPlaceHolder
  3
ObjectDBX Classes
 90
        0
280
     0
281
     0
  0
CLASS
  1
LAYOUT
  2
AcDbLayout
  3
ObjectDBX Classes
 90
        0
280
     0
281
     0
  0
ENDSEC
  0
SECTION
  2
TABLES
  0
TABLE
  2
VPORT
  5
8
102
{ACAD_XDICTIONARY
360
1FB5
102
}
330
0
100
AcDbSymbolTable
 70
     1
  0
VPORT
  5
90
330
8
100
AcDbSymbolTableRecord
100
AcDbViewportTableRecord
  2
*ACTIVE
 70
     0
 10
0.0
 20
0.0
 11
1.0
 21
1.0
 12
300.0216223386777
 22
119.3995676582829
 13
0.0
 23
0.0
 14
10.0
 24
10.0
 15
10.0
 25
10.0
 16
0.0
 26
0.0
 36
1.0
 17
0.0
 27
0.0
 37
0.0
 40
260.4804468282949
 41
2.35006605019815
 42
50.0
 43
0.0
 44
0.0
 50
0.0
 51
0.0
 71
     0
 72
   100
 73
     1
 74
     0
 75
     0
 76
     0
 77
     0
 78
     0
281
     0
 65
     1
110
0.0
120
0.0
130
0.0
111
1.0
121
0.0
131
0.0
112
0.0
122
1.0
132
0.0
 79
     0
146
0.0
1001
ACAD_NAV_VCDISPLAY
1070
     3
  0
ENDTAB
  0
TABLE
  2
LTYPE
  5
5
330
0
100
AcDbSymbolTable
 70
     4
  0
LTYPE
  5
12
330
5
100
AcDbSymbolTableRecord
100
AcDbLinetypeTableRecord
  2
BYBLOCK
 70
     0
  3

 72
    65
 73
     0
 40
0.0
  0
LTYPE
  5
13
330
5
100
AcDbSymbolTableRecord
100
AcDbLinetypeTableRecord
  2
BYLAYER
 70
     0
  3

 72
    65
 73
     0
 40
0.0
  0
LTYPE
  5
14
330
5
100
AcDbSymbolTableRecord
100
AcDbLinetypeTableRecord
  2
CONTINUOUS
 70
     0
  3
Solid line
 72
    65
 73
     0
 40
0.0
  0
LTYPE
  5
4B
330
5
100
AcDbSymbolTableRecord
100
AcDbLinetypeTableRecord
  2
DASHED
 70
     0
  3
Dashed __ __ __ __ __ __ __ __ __ __ __ __ __ _
 72
    65
 73
     2
 40
19.05
 49
12.7
 74
     0
 49
-6.349999999999999
 74
     0
  0
LTYPE
  5
4C
330
5
100
AcDbSymbolTableRecord
100
AcDbLinetypeTableRecord
  2
CENTER
 70
     0
  3
Center ____ _ ____ _ ____ _ ____ _ ____ _ ____
 72
    65
 73
     4
 40
50.8
 49
31.75
 74
     0
 49
-6.349999999999999
 74
     0
 49
6.349999999999999
 74
     0
 49
-6.349999999999999
 74
     0
  0
LTYPE
  5
4D
330
5
100
AcDbSymbolTableRecord
100
AcDbLinetypeTableRecord
  2
PHANTOM
 70
     0
  3
Phantom ______  __  __  ______  __  __  ______
 72
    65
 73
     6
 40
63.5
 49
31.75
 74
     0
 49
-6.349999999999999
 74
     0
 49
6.349999999999999
 74
     0
 49
-6.349999999999999
 74
     0
 49
6.349999999999999
 74
     0
 49
-6.349999999999999
 74
     0
  0
ENDTAB
  0
TABLE
  2
LAYER
  5
2
330
0
100
AcDbSymbolTable
 70
     8
  0
LAYER
  5
E
102
{ACAD_XDICTIONARY
360
472
102
}
330
2
100
AcDbSymbolTableRecord
100
AcDbLayerTableRecord
  2
0
 70
     0
 62
     7
  6
CONTINUOUS
370
    -3
390
93
  0
LAYER
  5
4E
102
{ACAD_XDICTIONARY
360
476
102
}
330
2
100
AcDbSymbolTableRecord
100
AcDbLayerTableRecord
  2
4
 70
     0
 62
     1
  6
CENTER
370
    -3
390
93
  0
LAYER
  5
4F
102
{ACAD_XDICTIONARY
360
478
102
}
330
2
100
AcDbSymbolTableRecord
100
AcDbLayerTableRecord
  2
5
 70
     0
 62
     6
  6
PHANTOM
370
    -3
390
93
  0
LAYER
  5
50
102
{ACAD_XDICTIONARY
360
47A
102
}
330
2
100
AcDbSymbolTableRecord
100
AcDbLayerTableRecord
  2
1
 70
     0
 62
     7
  6
CONTINUOUS
370
    -3
390
93
  0
LAYER
  5
51
102
{ACAD_XDICTIONARY
360
47C
102
}
330
2
100
AcDbSymbolTableRecord
100
AcDbLayerTableRecord
  2
2
 70
     0
 62
     4
  6
CONTINUOUS
370
    -3
390
93
  0
LAYER
  5
52
102
{ACAD_XDICTIONARY
360
47E
102
}
330
2
100
AcDbSymbolTableRecord
100
AcDbLayerTableRecord
  2
3
 70
     0
 62
     2
  6
DASHED
370
    -3
390
93
  0
LAYER
  5
53
102
{ACAD_XDICTIONARY
360
480
102
}
330
2
100
AcDbSymbolTableRecord
100
AcDbLayerTableRecord
  2
6
 70
     0
 62
     5
  6
CONTINUOUS
370
    -3
390
93
  0
LAYER
  5
54
102
{ACAD_XDICTIONARY
360
482
102
}
330
2
100
AcDbSymbolTableRecord
100
AcDbLayerTableRecord
  2
7
 70
     0
 62
     3
  6
CONTINUOUS
370
    -3
390
93
  0
ENDTAB
  0
TABLE
  2
STYLE
  5
3
330
0
100
AcDbSymbolTable
 70
     1
  0
STYLE
  5
F
330
3
100
AcDbSymbolTableRecord
100
AcDbTextStyleTableRecord
  2
STANDARD
 70
     0
 40
0.0
 41
1.0
 50
0.0
 71
     0
 42
2.5
  3
simplex.shx
  4

  0
ENDTAB
  0
TABLE
  2
VIEW
  5
6
330
0
100
AcDbSymbolTable
 70
     0
  0
ENDTAB
  0
TABLE
  2
UCS
  5
7
330
0
100
AcDbSymbolTable
 70
     0
  0
ENDTAB
  0
TABLE
  2
APPID
  5
9
330
0
100
AcDbSymbolTable
 70
    10
  0
APPID
  5
10
330
9
100
AcDbSymbolTableRecord
100
AcDbRegAppTableRecord
  2
ACAD
 70
     0
  0
APPID
  5
3E
330
9
100
AcDbSymbolTableRecord
100
AcDbRegAppTableRecord
  2
CONTENTTABDATA
 70
     0
  0
APPID
  5
3F
330
9
100
AcDbSymbolTableRecord
100
AcDbRegAppTableRecord
  2
CONTENTCURRENTTAB
 70
     0
  0
APPID
  5
EA
330
9
100
AcDbSymbolTableRecord
100
AcDbRegAppTableRecord
  2
ACAD_NAV_VCDISPLAY
 70
     0
  0
APPID
  5
100
330
9
100
AcDbSymbolTableRecord
100
AcDbRegAppTableRecord
  2
ACAD_PSEXT
 70
     0
  0
APPID
  5
470
330
9
100
AcDbSymbolTableRecord
100
AcDbRegAppTableRecord
  2
ACAD_EXEMPT_FROM_CAD_STANDARDS
 70
     0
  0
APPID
  5
82F
330
9
100
AcDbSymbolTableRecord
100
AcDbRegAppTableRecord
  2
ACAD_DSTYLE_DIMRADIAL_EXTENSION
 70
     0
  0
APPID
  5
A45
330
9
100
AcDbSymbolTableRecord
100
AcDbRegAppTableRecord
  2
ACAD_DSTYLE_DIMJAG
 70
     0
  0
APPID
  5
A46
330
9
100
AcDbSymbolTableRecord
100
AcDbRegAppTableRecord
  2
ACAD_DSTYLE_DIMTALN
 70
     0
  0
APPID
  5
1FEB
330
9
100
AcDbSymbolTableRecord
100
AcDbRegAppTableRecord
  2
ACAD_MLEADERVER
 70
     0
  0
ENDTAB
  0
TABLE
  2
DIMSTYLE
  5
A
330
0
100
AcDbSymbolTable
 70
     1
100
AcDbDimStyleTable
 71
     1
340
1D
  0
DIMSTYLE
105
1D
330
A
100
AcDbSymbolTableRecord
100
AcDbDimStyleTableRecord
  2
STANDARD
 70
     0
 41
3.0
 42
1.0
 43
10.0
 44
1.0
 73
     0
 74
     0
 77
     3
 78
     8
140
2.5
141
0.0
147
1.0
172
     1
173
     1
340
F
341
2E
343
2E
344
2E
1001
ACAD_DSTYLE_DIMJAG
1070
   388
1040
1.5
1001
ACAD_DSTYLE_DIMTALN
1070
   392
1070
     0
  0
ENDTAB
  0
TABLE
  2
BLOCK_RECORD
  5
1
330
0
100
AcDbSymbolTable
 70
     1
  0
BLOCK_RECORD
  5
18
102
{ACAD_XDICTIONARY
360
64B
102
}
330
1
100
AcDbSymbolTableRecord
100
AcDbBlockTableRecord
  2
*MODEL_SPACE
340
E3
  0
BLOCK_RECORD
  5
15
330
1
100
AcDbSymbolTableRecord
100
AcDbBlockTableRecord
  2
*PAPER_SPACE
340
E4
  0
BLOCK_RECORD
  5
2E
330
1
100
AcDbSymbolTableRecord
100
AcDbBlockTableRecord
  2
_OPEN
340
0
  0
ENDTAB
  0
ENDSEC
  0
SECTION
  2
BLOCKS
  0
BLOCK
  5
19
330
18
100
AcDbEntity
  8
0
100
AcDbBlockBegin
  2
*MODEL_SPACE
 70
     0
 10
0.0
 20
0.0
 30
0.0
  3
*MODEL_SPACE
  1

  0
ENDBLK
  5
1A
330
18
100
AcDbEntity
  8
0
100
AcDbBlockEnd
  0
BLOCK
  5
16
330
15
100
AcDbEntity
 67
     1
  8
0
100
AcDbBlockBegin
  2
*PAPER_SPACE
 70
     0
 10
0.0
 20
0.0
 30
0.0
  3
*PAPER_SPACE
  1

  0
ENDBLK
  5
17
330
15
100
AcDbEntity
 67
     1
  8
0
100
AcDbBlockEnd
  0
BLOCK
  5
2F
330
2E
100
AcDbEntity
  8
0
100
AcDbBlockBegin
  2
_OPEN
 70
     0
 10
0.0
 20
0.0
 30
0.0
  3
_OPEN
  1

  0
LINE
  5
30
330
2E
100
AcDbEntity
  8
0
  6
ByBlock
 62
     0
100
AcDbLine
 10
-1.0
 20
0.1666666666666666
 30
0.0
 11
0.0
 21
0.0
 31
0.0
  0
LINE
  5
31
330
2E
100
AcDbEntity
  8
0
  6
ByBlock
 62
     0
100
AcDbLine
 10
0.0
 20
0.0
 30
0.0
 11
-1.0
 21
-0.1666666666666666
 31
0.0
  0
LINE
  5
32
330
2E
100
AcDbEntity
  8
0
  6
ByBlock
 62
     0
100
AcDbLine
 10
0.0
 20
0.0
 30
0.0
 11
-1.0
 21
0.0
 31
0.0
  0
ENDBLK
  5
33
330
2E
100
AcDbEntity
  8
0
100
AcDbBlockEnd
  0
ENDSEC
  0
SECTION
  2
ENTITIES
  0
TEXT
  5
63
330
18
100
AcDbEntity
  8
4
  6
CENTER
 48
0.25
100
AcDbText
 10
23.9795085266385
 20
10.0
 30
0.0
 40
1.399999999999999
  1
4
100
AcDbText
  0
TEXT
  5
64
330
18
100
AcDbEntity
  8
7
  6
Continuous
 48
0.25
100
AcDbText
 10
9.999997526638502
 20
26.0000007607689
 30
0.0
 40
3.0
  1
CODE No.11115
100
AcDbText
  0
TEXT
  5
65
330
18
100
AcDbEntity
  8
7
  6
Continuous
 48
0.25
100
AcDbText
 10
9.999997526638502
 20
18.0000007607689
 30
0.0
 40
3.0
  1
TYPE No.TL-413
100
AcDbText
  0
TEXT
  5
66
330
18
100
AcDbEntity
  8
1
  6
Continuous
 48
0.25
100
AcDbText
 10
9.999997526638502
 20
10.0000007607689
 30
0.0
 40
1.399999999999999
  1
LAYER
100
AcDbText
  0
TEXT
  5
67
330
18
100
AcDbEntity
  8
2
  6
Continuous
 48
0.25
100
AcDbText
 10
19.9795085266385
 20
10.0
 30
0.0
 40
1.399999999999999
  1
2
100
AcDbText
  0
TEXT
  5
68
330
18
100
AcDbEntity
  8
3
  6
DASHED
 48
0.25
100
AcDbText
 10
21.9795085266385
 20
10.0
 30
0.0
 40
1.399999999999999
  1
3
100
AcDbText
  0
TEXT
  5
69
330
18
100
AcDbEntity
  8
1
  6
Continuous
 48
0.25
100
AcDbText
 10
17.9795085266385
 20
10.0
 30
0.0
 40
1.399999999999999
  1
1
100
AcDbText
  0
TEXT
  5
6A
330
18
100
AcDbEntity
  8
5
  6
PHANTOM
 48
0.1
100
AcDbText
 10
25.9795085266385
 20
10.0
 30
0.0
 40
1.399999999999999
  1
5
100
AcDbText
  0
TEXT
  5
6B
330
18
100
AcDbEntity
  8
6
  6
Continuous
 48
0.25
100
AcDbText
 10
27.9795085266385
 20
10.0
 30
0.0
 40
1.399999999999999
  1
6
100
AcDbText
  0
TEXT
  5
6C
330
18
100
AcDbEntity
  8
7
  6
Continuous
 48
0.25
100
AcDbText
 10
29.9795085266385
 20
10.0
 30
0.0
 40
1.399999999999999
  1
7
100
AcDbText
  0
LINE
  5
2D6
330
18
100
AcDbEntity
  8
1
  6
Continuous
 48
0.25
100
AcDbLine
 10
85.14214155758258
 20
178.2918848649338
 30
0.0
 11
85.14214155758258
 21
154.2918848649339
 31
0.0
  0
LINE
  5
2D7
330
18
100
AcDbEntity
  8
1
  6
Continuous
 48
0.25
100
AcDbLine
 10
127.1421415575825
 20
178.2918848649338
 30
0.0
 11
127.1421415575825
 21
154.2918848649339
 31
0.0
  0
ARC
  5
2D8
330
18
100
AcDbEntity
  8
1
  6
Continuous
 48
0.25
100
AcDbCircle
 10
88.14214155758259
 20
154.2918848649339
 30
0.0
 40
3.0
100
AcDbArc
 50
180.0
 51
270.0
  0
ARC
  5
2D9
330
18
100
AcDbEntity
  8
1
  6
Continuous
 48
0.25
100
AcDbCircle
 10
124.1421415575825
 20
154.2918848649339
 30
0.0
 40
3.0
100
AcDbArc
 50
270.0
 51
0.0
  0
CIRCLE
  5
2DA
330
18
100
AcDbEntity
  8
1
  6
Continuous
 48
0.25
100
AcDbCircle
 10
89.14214155758259
 20
156.2918848649339
 30
0.0
 40
1.6
  0
LINE
  5
2DB
330
18
100
AcDbEntity
  8
1
  6
Continuous
 48
0.25
100
AcDbLine
 10
118.1421415575826
 20
151.2918848649339
 30
0.0
 11
118.1421415575826
 21
181.2918848649339
 31
0.0
  0
LINE
  5
2DC
330
18
100
AcDbEntity
  8
1
  6
Continuous
 48
0.25
100
AcDbLine
 10
94.14214155758259
 20
181.2918848649339
 30
0.0
 11
94.14214155758259
 21
151.2918848649339
 31
0.0
  0
LINE
  5
2DD
330
18
100
AcDbEntity
  8
1
  6
Continuous
 48
0.25
100
AcDbLine
 10
93.39214155758259
 20
149.791884864934
 30
0.0
 11
95.39214155758259
 21
149.791884864934
 31
0.0
  0
LINE
  5
2DE
330
18
100
AcDbEntity
  8
1
  6
Continuous
 48
0.25
100
AcDbLine
 10
118.8921415575826
 20
149.791884864934
 30
0.0
 11
116.8921415575826
 21
149.791884864934
 31
0.0
  0
ARC
  5
2DF
330
18
100
AcDbEntity
  8
1
  6
Continuous
 48
0.25
100
AcDbCircle
 10
95.29214155758259
 20
149.8918848649339
 30
0.0
 40
1.1
100
AcDbArc
 50
270.0
 51
0.0
  0
ARC
  5
2E0
330
18
100
AcDbEntity
  8
1
  6
Continuous
 48
0.25
100
AcDbCircle
 10
116.9921415575826
 20
149.8918848649339
 30
0.0
 40
1.1
100
AcDbArc
 50
180.0
 51
270.0
  0
LINE
  5
2E1
330
18
100
AcDbEntity
  8
1
  6
Continuous
 48
0.25
100
AcDbLine
 10
114.8921415575826
 20
149.291884864934
 30
0.0
 11
114.8921415575826
 21
150.0918848649339
 31
0.0
  0
LINE
  5
2E2
330
18
100
AcDbEntity
  8
1
  6
Continuous
 48
0.25
100
AcDbLine
 10
97.3921415575826
 20
149.291884864934
 30
0.0
 11
97.3921415575826
 21
150.0918848649339
 31
0.0
  0
LINE
  5
2E3
330
18
100
AcDbEntity
  8
1
  6
Continuous
 48
0.25
100
AcDbLine
 10
93.39214155758259
 20
148.791884864934
 30
0.0
 11
95.29214155758259
 21
148.791884864934
 31
0.0
  0
LINE
  5
2E4
330
18
100
AcDbEntity
  8
1
  6
Continuous
 48
0.25
100
AcDbLine
 10
114.3921415575826
 20
148.791884864934
 30
0.0
 11
97.89214155758259
 21
148.791884864934
 31
0.0
  0
LINE
  5
2E5
330
18
100
AcDbEntity
  8
1
  6
Continuous
 48
0.25
100
AcDbLine
 10
116.9921415575826
 20
148.791884864934
 30
0.0
 11
118.8921415575826
 21
148.791884864934
 31
0.0
  0
ARC
  5
2E6
330
18
100
AcDbEntity
  8
1
  6
Continuous
 48
0.25
100
AcDbCircle
 10
88.14214155758259
 20
178.2918848649338
 30
0.0
 40
3.0
100
AcDbArc
 50
90.0
 51
180.0
  0
ARC
  5
2E7
330
18
100
AcDbEntity
  8
1
  6
Continuous
 48
0.25
100
AcDbCircle
 10
124.1421415575825
 20
178.2918848649338
 30
0.0
 40
3.0
100
AcDbArc
 50
0.0
 51
90.0
  0
LINE
  5
2E8
330
18
100
AcDbEntity
  8
1
  6
Continuous
 48
0.25
100
AcDbLine
 10
88.14214155758259
 20
151.2918848649339
 30
0.0
 11
124.1421415575825
 21
151.2918848649339
 31
0.0
  0
LINE
  5
2E9
330
18
100
AcDbEntity
  8
1
  6
Continuous
 48
0.25
100
AcDbLine
 10
88.14214155758259
 20
181.2918848649339
 30
0.0
 11
124.1421415575825
 21
181.2918848649339
 31
0.0
  0
LINE
  5
2EA
330
18
100
AcDbEntity
  8
1
  6
Continuous
 48
0.25
100
AcDbLine
 10
96.3921415575826
 20
150.291884864934
 30
0.0
 11
97.1921415575826
 21
150.291884864934
 31
0.0
  0
LINE
  5
2EB
330
18
100
AcDbEntity
  8
1
  6
Continuous
 48
0.25
100
AcDbLine
 10
115.8921415575826
 20
150.291884864934
 30
0.0
 11
115.0921415575826
 21
150.291884864934
 31
0.0
  0
LINE
  5
2EC
330
18
100
AcDbEntity
  8
1
  6
Continuous
 48
0.25
100
AcDbLine
 10
115.8921415575826
 20
149.8918848649338
 30
0.0
 11
115.8921415575826
 21
151.2918848649339
 31
0.0
  0
LINE
  5
2ED
330
18
100
AcDbEntity
  8
1
  6
Continuous
 48
0.25
100
AcDbLine
 10
116.8921415575826
 20
149.791884864934
 30
0.0
 11
116.8921415575826
 21
151.2918848649339
 31
0.0
  0
LINE
  5
2EE
330
18
100
AcDbEntity
  8
1
  6
Continuous
 48
0.25
100
AcDbLine
 10
96.3921415575826
 20
149.8918848649339
 30
0.0
 11
96.3921415575826
 21
151.2918848649339
 31
0.0
  0
LINE
  5
2EF
330
18
100
AcDbEntity
  8
1
  6
Continuous
 48
0.25
100
AcDbLine
 10
95.39214155758259
 20
149.791884864934
 30
0.0
 11
95.39214155758259
 21
151.2918848649339
 31
0.0
  0
CIRCLE
  5
2F0
330
18
100
AcDbEntity
  8
1
  6
Continuous
 48
0.25
100
AcDbCircle
 10
123.1421415575826
 20
176.2918848649339
 30
0.0
 40
1.6
  0
ARC
  5
2F1
330
18
100
AcDbEntity
  8
1
  6
Continuous
 48
0.25
100
AcDbCircle
 10
123.1421415575826
 20
155.3918848649339
 30
0.0
 40
1.6
100
AcDbArc
 50
180.0
 51
0.0
  0
ARC
  5
2F2
330
18
100
AcDbEntity
  8
1
  6
Continuous
 48
0.25
100
AcDbCircle
 10
123.1421415575826
 20
157.1918848649338
 30
0.0
 40
1.6
100
AcDbArc
 50
0.0
 51
180.0
  0
LINE
  5
2F3
330
18
100
AcDbEntity
  8
1
  6
Continuous
 48
0.25
100
AcDbLine
 10
118.8921415575826
 20
149.791884864934
 30
0.0
 11
118.8921415575826
 21
148.791884864934
 31
0.0
  0
LINE
  5
2F4
330
18
100
AcDbEntity
  8
1
  6
Continuous
 48
0.25
100
AcDbLine
 10
93.39214155758259
 20
149.791884864934
 30
0.0
 11
93.39214155758259
 21
148.791884864934
 31
0.0
  0
LINE
  5
2F5
330
18
100
AcDbEntity
  8
1
  6
Continuous
 48
0.25
100
AcDbLine
 10
121.5421415575826
 20
157.1918848649338
 30
0.0
 11
121.5421415575826
 21
155.3918848649339
 31
0.0
  0
LINE
  5
2F6
330
18
100
AcDbEntity
  8
1
  6
Continuous
 48
0.25
100
AcDbLine
 10
124.7421415575826
 20
157.1918848649338
 30
0.0
 11
124.7421415575826
 21
155.3918848649339
 31
0.0
  0
ARC
  5
2F7
330
18
100
AcDbEntity
  8
1
  6
Continuous
 48
0.25
100
AcDbCircle
 10
89.14214155758259
 20
177.1918848649338
 30
0.0
 40
1.6
100
AcDbArc
 50
0.0
 51
180.0
  0
ARC
  5
2F8
330
18
100
AcDbEntity
  8
1
  6
Continuous
 48
0.25
100
AcDbCircle
 10
89.14214155758259
 20
175.3918848649338
 30
0.0
 40
1.6
100
AcDbArc
 50
180.0
 51
0.0
  0
LINE
  5
2F9
330
18
100
AcDbEntity
  8
1
  6
Continuous
 48
0.25
100
AcDbLine
 10
90.74214155758259
 20
175.3918848649338
 30
0.0
 11
90.74214155758259
 21
177.1918848649338
 31
0.0
  0
LINE
  5
2FA
330
18
100
AcDbEntity
  8
1
  6
Continuous
 48
0.25
100
AcDbLine
 10
87.5421415575826
 20
175.3918848649338
 30
0.0
 11
87.5421415575826
 21
177.1918848649338
 31
0.0
  0
LINE
  5
2FB
330
18
100
AcDbEntity
  8
1
  6
Continuous
 48
0.25
100
AcDbLine
 10
96.64214155758259
 20
179.6918848649338
 30
0.0
 11
96.64214155758259
 21
181.2918848649339
 31
0.0
  0
LINE
  5
2FC
330
18
100
AcDbEntity
  8
1
  6
Continuous
 48
0.25
100
AcDbLine
 10
115.6421415575826
 20
179.6918848649338
 30
0.0
 11
115.6421415575826
 21
181.2918848649339
 31
0.0
  0
LINE
  5
2FD
330
18
100
AcDbEntity
  8
1
  6
Continuous
 48
0.25
100
AcDbLine
 10
98.6421415575826
 20
148.8330089105393
 30
0.0
 11
113.6421415575826
 21
148.8330089105393
 31
0.0
  0
LINE
  5
2FE
330
18
100
AcDbEntity
  8
1
  6
Continuous
 48
0.25
100
AcDbLine
 10
98.14214155758259
 20
151.2918848649339
 30
0.0
 11
98.14214155758259
 21
149.3365261092003
 31
0.0
  0
LINE
  5
2FF
330
18
100
AcDbEntity
  8
1
  6
Continuous
 48
0.25
100
AcDbLine
 10
114.1421415575826
 20
149.3365261092003
 30
0.0
 11
114.1421415575826
 21
151.2918848649339
 31
0.0
  0
CIRCLE
  5
300
330
18
100
AcDbEntity
  8
1
  6
Continuous
 48
0.25
100
AcDbCircle
 10
89.14214155758259
 20
166.2918848649338
 30
0.0
 40
2.25
  0
CIRCLE
  5
301
330
18
100
AcDbEntity
  8
1
  6
Continuous
 48
0.25
100
AcDbCircle
 10
89.14214155758259
 20
166.2918848649338
 30
0.0
 40
1.399999999999999
  0
CIRCLE
  5
302
330
18
100
AcDbEntity
  8
1
  6
Continuous
 48
0.25
100
AcDbCircle
 10
123.1421415575825
 20
166.2918848649338
 30
0.0
 40
2.25
  0
CIRCLE
  5
303
330
18
100
AcDbEntity
  8
1
  6
Continuous
 48
0.25
100
AcDbCircle
 10
123.1421415575825
 20
166.2918848649338
 30
0.0
 40
1.399999999999999
  0
ARC
  5
304
330
18
100
AcDbEntity
  8
1
  6
Continuous
 48
0.25
100
AcDbCircle
 10
98.6421415575826
 20
149.3330089105393
 30
0.0
 40
0.5
100
AcDbArc
 50
180.0
 51
270.0
  0
ARC
  5
305
330
18
100
AcDbEntity
  8
1
  6
Continuous
 48
0.25
100
AcDbCircle
 10
113.6421415575826
 20
149.3330089105393
 30
0.0
 40
0.5
100
AcDbArc
 50
270.0
 51
0.0
  0
LINE
  5
306
330
18
100
AcDbEntity
  8
1
  6
Continuous
 48
0.25
100
AcDbLine
 10
116.2421415575826
 20
179.0918848649338
 30
0.0
 11
118.1421415575826
 21
179.0918848649338
 31
0.0
  0
LINE
  5
307
330
18
100
AcDbEntity
  8
1
  6
Continuous
 48
0.25
100
AcDbLine
 10
94.14214155758259
 20
179.0918848649338
 30
0.0
 11
96.0421415575826
 21
179.0918848649338
 31
0.0
  0
ARC
  5
308
330
18
100
AcDbEntity
  8
1
  6
Continuous
 48
0.25
100
AcDbCircle
 10
96.0421415575826
 20
179.6918848649338
 30
0.0
 40
0.6
100
AcDbArc
 50
270.0
 51
0.0
  0
ARC
  5
309
330
18
100
AcDbEntity
  8
1
  6
Continuous
 48
0.25
100
AcDbCircle
 10
116.2421415575826
 20
179.6918848649338
 30
0.0
 40
0.6
100
AcDbArc
 50
180.0
 51
270.0
  0
ARC
  5
30A
330
18
100
AcDbEntity
  8
1
  6
Continuous
 48
0.25
100
AcDbCircle
 10
115.0921415575826
 20
150.0918848649339
 30
0.0
 40
0.2
100
AcDbArc
 50
90.0
 51
180.0
  0
ARC
  5
30B
330
18
100
AcDbEntity
  8
1
  6
Continuous
 48
0.25
100
AcDbCircle
 10
97.1921415575826
 20
150.0918848649339
 30
0.0
 40
0.2
100
AcDbArc
 50
0.0
 51
90.0
  0
LINE
  5
30C
330
18
100
AcDbEntity
  8
1
  6
Continuous
 48
0.25
100
AcDbLine
 10
116.9421415575826
 20
179.0918848649338
 30
0.0
 11
116.9421415575826
 21
181.2918848649339
 31
0.0
  0
LINE
  5
30D
330
18
100
AcDbEntity
  8
1
  6
Continuous
 48
0.25
100
AcDbLine
 10
95.34214155758258
 20
179.0918848649338
 30
0.0
 11
95.34214155758258
 21
181.2918848649339
 31
0.0
  0
LINE
  5
30E
330
18
100
AcDbEntity
  8
1
  6
Continuous
 48
0.25
100
AcDbLine
 10
98.6421415575826
 20
149.4952836150306
 30
0.0
 11
113.6421415575826
 21
149.4952836150306
 31
0.0
  0
ARC
  5
30F
330
18
100
AcDbEntity
  8
1
  6
Continuous
 48
0.25
100
AcDbCircle
 10
98.6421415575826
 20
149.9952836150306
 30
0.0
 40
0.5
100
AcDbArc
 50
180.0
 51
270.0
  0
ARC
  5
310
330
18
100
AcDbEntity
  8
1
  6
Continuous
 48
0.25
100
AcDbCircle
 10
113.6421415575826
 20
149.9952836150306
 30
0.0
 40
0.5
100
AcDbArc
 50
270.0
 51
0.0
  0
ARC
  5
311
330
18
100
AcDbEntity
  8
1
  6
Continuous
 48
0.25
100
AcDbCircle
 10
114.3921415575826
 20
149.291884864934
 30
0.0
 40
0.5
100
AcDbArc
 50
270.0
 51
0.0
  0
ARC
  5
312
330
18
100
AcDbEntity
  8
1
  6
Continuous
 48
0.25
100
AcDbCircle
 10
97.89214155758259
 20
149.291884864934
 30
0.0
 40
0.5
100
AcDbArc
 50
180.0
 51
270.0
  0
CIRCLE
  5
313
330
18
100
AcDbEntity
  8
1
  6
Continuous
 48
0.25
100
AcDbCircle
 10
106.1421415575826
 20
165.8418848649339
 30
0.0
 40
0.6
  0
LINE
  5
315
330
18
100
AcDbEntity
  8
1
  6
Continuous
 48
0.25
100
AcDbLine
 10
97.1921415575826
 20
150.291884864934
 30
0.0
 11
97.1921415575826
 21
151.2918848649339
 31
0.0
  0
LINE
  5
316
330
18
100
AcDbEntity
  8
1
  6
Continuous
 48
0.25
100
AcDbLine
 10
115.0921415575826
 20
150.291884864934
 30
0.0
 11
115.0921415575826
 21
151.2918848649339
 31
0.0
  0
LINE
  5
317
330
18
100
AcDbEntity
  8
5
  6
PHANTOM
 48
0.1
100
AcDbLine
 10
93.39214155758261
 20
143.791884864934
 30
0.0
 11
95.39214155758262
 21
143.791884864934
 31
0.0
  0
LINE
  5
318
330
18
100
AcDbEntity
  8
5
  6
PHANTOM
 48
0.1
100
AcDbLine
 10
118.8921415575826
 20
143.791884864934
 30
0.0
 11
116.8921415575826
 21
143.791884864934
 31
0.0
  0
ARC
  5
319
330
18
100
AcDbEntity
  8
5
  6
PHANTOM
 48
0.1
100
AcDbCircle
 10
95.29214155758259
 20
143.8918848649338
 30
0.0
 40
1.1
100
AcDbArc
 50
270.0
 51
0.0
  0
ARC
  5
31A
330
18
100
AcDbEntity
  8
5
  6
PHANTOM
 48
0.1
100
AcDbCircle
 10
116.9921415575826
 20
143.8918848649338
 30
0.0
 40
1.1
100
AcDbArc
 50
180.0
 51
270.0
  0
LINE
  5
31B
330
18
100
AcDbEntity
  8
5
  6
PHANTOM
 48
0.1
100
AcDbLine
 10
114.8921415575826
 20
143.291884864934
 30
0.0
 11
114.8921415575826
 21
144.091884864934
 31
0.0
  0
LINE
  5
31C
330
18
100
AcDbEntity
  8
5
  6
PHANTOM
 48
0.1
100
AcDbLine
 10
97.39214155758261
 20
143.291884864934
 30
0.0
 11
97.39214155758261
 21
144.091884864934
 31
0.0
  0
LINE
  5
31D
330
18
100
AcDbEntity
  8
5
  6
PHANTOM
 48
0.1
100
AcDbLine
 10
93.39214155758261
 20
142.791884864934
 30
0.0
 11
95.29214155758259
 21
142.791884864934
 31
0.0
  0
LINE
  5
31E
330
18
100
AcDbEntity
  8
5
  6
PHANTOM
 48
0.1
100
AcDbLine
 10
114.3921415575826
 20
142.791884864934
 30
0.0
 11
97.89214155758262
 21
142.791884864934
 31
0.0
  0
LINE
  5
31F
330
18
100
AcDbEntity
  8
5
  6
PHANTOM
 48
0.1
100
AcDbLine
 10
116.9921415575826
 20
142.791884864934
 30
0.0
 11
118.8921415575826
 21
142.791884864934
 31
0.0
  0
LINE
  5
320
330
18
100
AcDbEntity
  8
5
  6
PHANTOM
 48
0.1
100
AcDbLine
 10
96.39214155758262
 20
144.291884864934
 30
0.0
 11
97.19214155758264
 21
144.291884864934
 31
0.0
  0
LINE
  5
321
330
18
100
AcDbEntity
  8
5
  6
PHANTOM
 48
0.1
100
AcDbLine
 10
115.8921415575826
 20
144.291884864934
 30
0.0
 11
115.0921415575826
 21
144.291884864934
 31
0.0
  0
LINE
  5
322
330
18
100
AcDbEntity
  8
5
  6
PHANTOM
 48
0.1
100
AcDbLine
 10
118.8921415575826
 20
143.791884864934
 30
0.0
 11
118.8921415575826
 21
142.791884864934
 31
0.0
  0
LINE
  5
323
330
18
100
AcDbEntity
  8
5
  6
PHANTOM
 48
0.1
100
AcDbLine
 10
93.39214155758261
 20
143.791884864934
 30
0.0
 11
93.39214155758261
 21
142.791884864934
 31
0.0
  0
ARC
  5
324
330
18
100
AcDbEntity
  8
5
  6
PHANTOM
 48
0.1
100
AcDbCircle
 10
115.0921415575826
 20
144.091884864934
 30
0.0
 40
0.2
100
AcDbArc
 50
90.0
 51
180.0
  0
ARC
  5
325
330
18
100
AcDbEntity
  8
5
  6
PHANTOM
 48
0.1
100
AcDbCircle
 10
97.19214155758264
 20
144.091884864934
 30
0.0
 40
0.2
100
AcDbArc
 50
0.0
 51
90.0
  0
ARC
  5
326
330
18
100
AcDbEntity
  8
5
  6
PHANTOM
 48
0.1
100
AcDbCircle
 10
114.3921415575826
 20
143.291884864934
 30
0.0
 40
0.5
100
AcDbArc
 50
270.0
 51
0.0
  0
ARC
  5
327
330
18
100
AcDbEntity
  8
5
  6
PHANTOM
 48
0.1
100
AcDbCircle
 10
97.89214155758262
 20
143.291884864934
 30
0.0
 40
0.5
100
AcDbArc
 50
180.0
 51
270.0
  0
LINE
  5
328
330
18
100
AcDbEntity
  8
5
  6
PHANTOM
 48
0.1
100
AcDbLine
 10
115.8921415575826
 20
149.8918848649339
 30
0.0
 11
115.8921415575826
 21
143.8918848649338
 31
0.0
  0
LINE
  5
329
330
18
100
AcDbEntity
  8
5
  6
PHANTOM
 48
0.1
100
AcDbLine
 10
116.8921415575826
 20
149.791884864934
 30
0.0
 11
116.8921415575826
 21
143.791884864934
 31
0.0
  0
LINE
  5
32A
330
18
100
AcDbEntity
  8
5
  6
PHANTOM
 48
0.1
100
AcDbLine
 10
96.39214155758262
 20
149.8918848649339
 30
0.0
 11
96.39214155758262
 21
143.8918848649338
 31
0.0
  0
LINE
  5
32B
330
18
100
AcDbEntity
  8
5
  6
PHANTOM
 48
0.1
100
AcDbLine
 10
95.39214155758262
 20
149.791884864934
 30
0.0
 11
95.39214155758262
 21
143.791884864934
 31
0.0
  0
CIRCLE
  5
32C
330
18
100
AcDbEntity
  8
1
  6
Continuous
 48
0.25
100
AcDbCircle
 10
106.1421415575826
 20
165.8418848649339
 30
0.0
 40
1.5
  0
CIRCLE
  5
32D
330
18
100
AcDbEntity
  8
1
  6
Continuous
 48
0.25
100
AcDbCircle
 10
123.1421415575826
 20
166.2918848649338
 30
0.0
 40
3.0
  0
CIRCLE
  5
32E
330
18
100
AcDbEntity
  8
1
  6
Continuous
 48
0.25
100
AcDbCircle
 10
89.14214155758259
 20
166.2918848649338
 30
0.0
 40
3.0
  0
LINE
  5
32F
330
18
100
AcDbEntity
  8
4
  6
CENTER
 48
0.25
100
AcDbLine
 10
127.6421415575826
 20
166.2918848649338
 30
0.0
 11
118.6421415575826
 21
166.2918848649338
 31
0.0
  0
LINE
  5
330
330
18
100
AcDbEntity
  8
4
  6
CENTER
 48
0.25
100
AcDbLine
 10
126.2421415575825
 20
176.2918848649339
 30
0.0
 11
120.0421415575826
 21
176.2918848649339
 31
0.0
  0
LINE
  5
331
330
18
100
AcDbEntity
  8
4
  6
CENTER
 48
0.25
100
AcDbLine
 10
120.0421415575826
 20
156.2918848649339
 30
0.0
 11
126.2421415575825
 21
156.2918848649339
 31
0.0
  0
LINE
  5
332
330
18
100
AcDbEntity
  8
4
  6
CENTER
 48
0.25
100
AcDbLine
 10
123.1421415575826
 20
179.3918848649338
 30
0.0
 11
123.1421415575826
 21
152.2918848649339
 31
0.0
  0
LINE
  5
333
330
18
100
AcDbEntity
  8
4
  6
CENTER
 48
0.25
100
AcDbLine
 10
92.24214155758259
 20
156.2918848649339
 30
0.0
 11
86.0421415575826
 21
156.2918848649339
 31
0.0
  0
LINE
  5
334
330
18
100
AcDbEntity
  8
4
  6
CENTER
 48
0.25
100
AcDbLine
 10
93.6421415575826
 20
166.2918848649338
 30
0.0
 11
84.64214155758259
 21
166.2918848649338
 31
0.0
  0
LINE
  5
335
330
18
100
AcDbEntity
  8
4
  6
CENTER
 48
0.25
100
AcDbLine
 10
86.0421415575826
 20
176.2918848649338
 30
0.0
 11
92.24214155758259
 21
176.2918848649338
 31
0.0
  0
LINE
  5
336
330
18
100
AcDbEntity
  8
4
  6
CENTER
 48
0.25
100
AcDbLine
 10
89.14214155758259
 20
180.2918848649338
 30
0.0
 11
89.14214155758259
 21
153.1918848649339
 31
0.0
  0
LINE
  5
337
330
18
100
AcDbEntity
  8
4
  6
CENTER
 48
0.25
100
AcDbLine
 10
106.1421415575826
 20
140.791884864934
 30
0.0
 11
106.1421415575826
 21
183.2918848649338
 31
0.0
  0
LINE
  5
338
330
18
100
AcDbEntity
  8
4
  6
CENTER
 48
0.25
100
AcDbLine
 10
109.1421415575826
 20
165.8418848649339
 30
0.0
 11
103.1421415575826
 21
165.8418848649339
 31
0.0
  0
ARC
  5
339
330
18
100
AcDbEntity
  8
1
  6
Continuous
 48
0.25
100
AcDbCircle
 10
108.8087761075189
 20
172.2918607773898
 30
0.0
 40
1.145412728988863
100
AcDbArc
 50
305.5376777919995
 51
346.5374393917324
  0
ARC
  5
33A
330
18
100
AcDbEntity
  8
1
  6
Continuous
 48
0.25
100
AcDbCircle
 10
106.1421415575825
 20
176.025149147297
 30
0.0
 40
5.733264282363177
100
AcDbArc
 50
234.4623222080005
 51
305.5376777919995
  0
ARC
  5
33B
330
18
100
AcDbEntity
  8
1
  6
Continuous
 48
0.25
100
AcDbCircle
 10
103.4755070076462
 20
172.2918607773898
 30
0.0
 40
1.145412728988864
100
AcDbArc
 50
152.2496545546295
 51
234.4623222080005
  0
ARC
  5
33C
330
18
100
AcDbEntity
  8
1
  6
Continuous
 48
0.25
100
AcDbCircle
 10
108.8087761075189
 20
172.2918607773898
 30
0.0
 40
1.145412728988863
100
AcDbArc
 50
0.0
 51
54.46232220805201
  0
ARC
  5
33D
330
18
100
AcDbEntity
  8
1
  6
Continuous
 48
0.25
100
AcDbCircle
 10
106.1421415575825
 20
168.5585724074753
 30
0.0
 40
5.733264282363177
100
AcDbArc
 50
54.46232220805201
 51
125.5376777919479
  0
ARC
  5
33E
330
18
100
AcDbEntity
  8
1
  6
Continuous
 48
0.25
100
AcDbCircle
 10
103.4755070076462
 20
172.2918607773898
 30
0.0
 40
1.145412728988864
100
AcDbArc
 50
125.5376777919479
 51
135.698839279615
  0
LINE
  5
33F
330
18
100
AcDbEntity
  8
1
  6
Continuous
 48
0.25
100
AcDbLine
 10
109.030995653347
 20
171.0728929599813
 30
0.0
 11
109.030995653347
 21
172.9887184447118
 31
0.0
  0
LINE
  5
340
330
18
100
AcDbEntity
  8
1
  6
Continuous
 48
0.25
100
AcDbLine
 10
108.5865565616909
 20
173.111850359228
 30
0.0
 11
108.5865565616909
 21
171.4718711955442
 31
0.0
  0
ARC
  5
341
330
18
100
AcDbEntity
  8
1
  6
Continuous
 48
0.25
100
AcDbCircle
 10
108.3643370158628
 20
171.4718711955442
 30
0.0
 40
0.2222195458280301
100
AcDbArc
 50
296.0143659996353
 51
0.0
  0
ARC
  5
342
330
18
100
AcDbEntity
  8
1
  6
Continuous
 48
0.25
100
AcDbCircle
 10
106.1421415575825
 20
176.025149147297
 30
0.0
 40
5.288825190707117
100
AcDbArc
 50
292.9439535565377
 51
296.0143659996353
  0
ARC
  5
343
330
18
100
AcDbEntity
  8
1
  6
Continuous
 48
0.25
100
AcDbCircle
 10
108.1865613792004
 20
171.1956685728296
 30
0.0
 40
0.044443909165606
100
AcDbArc
 50
180.0
 51
292.9439535565377
  0
LINE
  5
344
330
18
100
AcDbEntity
  8
1
  6
Continuous
 48
0.25
100
AcDbLine
 10
108.1421174700348
 20
171.1956685728296
 30
0.0
 11
108.1421174700348
 21
173.3880529819428
 31
0.0
  0
ARC
  5
345
330
18
100
AcDbEntity
  8
1
  6
Continuous
 48
0.25
100
AcDbCircle
 10
108.1865613792004
 20
173.3880529819428
 30
0.0
 40
0.044443909165606
100
AcDbArc
 50
67.05604644346234
 51
180.0
  0
ARC
  5
346
330
18
100
AcDbEntity
  8
1
  6
Continuous
 48
0.25
100
AcDbCircle
 10
106.1421415575825
 20
168.5585724074753
 30
0.0
 40
5.288825190707117
100
AcDbArc
 50
63.98563400036445
 51
67.05604644346234
  0
ARC
  5
347
330
18
100
AcDbEntity
  8
1
  6
Continuous
 48
0.25
100
AcDbCircle
 10
108.3643370158628
 20
173.111850359228
 30
0.0
 40
0.2222195458280301
100
AcDbArc
 50
0.0
 51
63.98563400036445
  0
LINE
  5
348
330
18
100
AcDbEntity
  8
1
  6
Continuous
 48
0.25
100
AcDbLine
 10
107.2532392867227
 20
171.7585338674025
 30
0.0
 11
107.2532392867227
 21
170.9096571330012
 31
0.0
  0
ARC
  5
349
330
18
100
AcDbEntity
  8
1
  6
Continuous
 48
0.25
100
AcDbCircle
 10
107.2976831958883
 20
170.9096571330012
 30
0.0
 40
0.044443909165606
100
AcDbArc
 50
180.0
 51
282.7289438731229
  0
ARC
  5
34A
330
18
100
AcDbEntity
  8
1
  6
Continuous
 48
0.25
100
AcDbCircle
 10
106.1421415575825
 20
176.025149147297
 30
0.0
 40
5.288825190707117
100
AcDbArc
 50
282.7289438731229
 51
283.2681189705571
  0
ARC
  5
34B
330
18
100
AcDbEntity
  8
1
  6
Continuous
 48
0.25
100
AcDbCircle
 10
106.1421415575825
 20
176.025149147297
 30
0.0
 40
5.288825190707117
100
AcDbArc
 50
283.2681189705571
 51
285.2575232904552
  0
ARC
  5
34C
330
18
100
AcDbEntity
  8
1
  6
Continuous
 48
0.25
100
AcDbCircle
 10
107.4754588325507
 20
171.1371272769499
 30
0.0
 40
0.2222195458280301
100
AcDbArc
 50
285.2575232904585
 51
0.0
  0
LINE
  5
34D
330
18
100
AcDbEntity
  8
1
  6
Continuous
 48
0.25
100
AcDbLine
 10
107.6976783783788
 20
171.1371272769499
 30
0.0
 11
107.6976783783788
 21
173.4465942778224
 31
0.0
  0
ARC
  5
34E
330
18
100
AcDbEntity
  8
1
  6
Continuous
 48
0.25
100
AcDbCircle
 10
107.4754588325507
 20
173.4465942778224
 30
0.0
 40
0.2222195458280301
100
AcDbArc
 50
0.0
 51
74.74247670954149
  0
ARC
  5
34F
330
18
100
AcDbEntity
  8
1
  6
Continuous
 48
0.25
100
AcDbCircle
 10
106.1421415575825
 20
168.5585724074753
 30
0.0
 40
5.288825190707117
100
AcDbArc
 50
74.74247670954149
 51
74.79371212394053
  0
ARC
  5
350
330
18
100
AcDbEntity
  8
1
  6
Continuous
 48
0.25
100
AcDbCircle
 10
106.1421415575825
 20
168.5585724074753
 30
0.0
 40
5.288825190707117
100
AcDbArc
 50
74.79371212394053
 51
77.2710561268771
  0
ARC
  5
351
330
18
100
AcDbEntity
  8
1
  6
Continuous
 48
0.25
100
AcDbCircle
 10
107.2976831958883
 20
173.6740644217711
 30
0.0
 40
0.044443909165606
100
AcDbArc
 50
77.2710561268771
 51
180.0
  0
LINE
  5
352
330
18
100
AcDbEntity
  8
1
  6
Continuous
 48
0.25
100
AcDbLine
 10
107.2532392867227
 20
173.6740644217711
 30
0.0
 11
107.2532392867227
 21
172.825187687377
 31
0.0
  0
LINE
  5
353
330
18
100
AcDbEntity
  8
1
  6
Continuous
 48
0.25
100
AcDbLine
 10
106.8088001950667
 20
170.7785084926566
 30
0.0
 11
106.8088001950667
 21
173.8052130621156
 31
0.0
  0
LINE
  5
354
330
18
100
AcDbEntity
  8
1
  6
Continuous
 48
0.25
100
AcDbLine
 10
106.3643611034106
 20
170.740994496711
 30
0.0
 11
106.3643611034106
 21
173.8427270580612
 31
0.0
  0
LINE
  5
355
330
18
100
AcDbEntity
  8
1
  6
Continuous
 48
0.25
100
AcDbLine
 10
106.3643611034106
 20
172.2918607773898
 30
0.0
 11
106.8088001950667
 21
172.2918607773898
 31
0.0
  0
LINE
  5
356
330
18
100
AcDbEntity
  8
1
  6
Continuous
 48
0.25
100
AcDbLine
 10
105.9199220117545
 20
170.740994496711
 30
0.0
 11
105.9199220117545
 21
173.8427270580612
 31
0.0
  0
LINE
  5
357
330
18
100
AcDbEntity
  8
1
  6
Continuous
 48
0.25
100
AcDbLine
 10
105.0310438284424
 20
171.7585338674025
 30
0.0
 11
105.0310438284424
 21
171.0371246549802
 31
0.0
  0
ARC
  5
358
330
18
100
AcDbEntity
  8
1
  6
Continuous
 48
0.25
100
AcDbCircle
 10
105.2532633742704
 20
171.0371246549802
 30
0.0
 40
0.2222195458280301
100
AcDbArc
 50
180.0
 51
259.8958172838747
  0
ARC
  5
359
330
18
100
AcDbEntity
  8
1
  6
Continuous
 48
0.25
100
AcDbCircle
 10
106.1421415575825
 20
176.025149147297
 30
0.0
 40
5.288825190707117
100
AcDbArc
 50
259.8958172838747
 51
262.2070756645773
  0
ARC
  5
35A
330
18
100
AcDbEntity
  8
1
  6
Continuous
 48
0.25
100
AcDbCircle
 10
105.4310390109328
 20
170.8292018617358
 30
0.0
 40
0.044443909165606
100
AcDbArc
 50
262.2070756645773
 51
0.0
  0
LINE
  5
35B
330
18
100
AcDbEntity
  8
1
  6
Continuous
 48
0.25
100
AcDbLine
 10
105.4754829200985
 20
170.8292018617358
 30
0.0
 11
105.4754829200985
 21
173.7545196930364
 31
0.0
  0
ARC
  5
35C
330
18
100
AcDbEntity
  8
1
  6
Continuous
 48
0.25
100
AcDbCircle
 10
105.4310390109328
 20
173.7545196930364
 30
0.0
 40
0.044443909165606
100
AcDbArc
 50
0.0
 51
97.79292433542275
  0
ARC
  5
35D
330
18
100
AcDbEntity
  8
1
  6
Continuous
 48
0.25
100
AcDbCircle
 10
106.1421415575825
 20
168.5585724074753
 30
0.0
 40
5.288825190707117
100
AcDbArc
 50
97.79292433542275
 51
100.104182716125
  0
ARC
  5
35E
330
18
100
AcDbEntity
  8
1
  6
Continuous
 48
0.25
100
AcDbCircle
 10
105.2532633742704
 20
173.546596899792
 30
0.0
 40
0.2222195458280301
100
AcDbArc
 50
100.104182716125
 51
180.0
  0
LINE
  5
35F
330
18
100
AcDbEntity
  8
1
  6
Continuous
 48
0.25
100
AcDbLine
 10
105.0310438284424
 20
173.546596899792
 30
0.0
 11
105.0310438284424
 21
172.2918607773898
 31
0.0
  0
LINE
  5
360
330
18
100
AcDbEntity
  8
1
  6
Continuous
 48
0.25
100
AcDbLine
 10
105.0310438284424
 20
172.2918607773898
 30
0.0
 11
105.2532633742704
 21
172.2918607773898
 31
0.0
  0
LINE
  5
361
330
18
100
AcDbEntity
  8
1
  6
Continuous
 48
0.25
100
AcDbLine
 10
104.5866047367863
 20
170.8309128372343
 30
0.0
 11
104.5866047367863
 21
173.6134687562647
 31
0.0
  0
LINE
  5
362
330
18
100
AcDbEntity
  8
1
  6
Continuous
 48
0.25
100
AcDbLine
 10
104.1421656451302
 20
171.0402936670487
 30
0.0
 11
104.1421656451302
 21
172.0696412315617
 31
0.0
  0
ARC
  5
363
330
18
100
AcDbEntity
  8
1
  6
Continuous
 48
0.25
100
AcDbCircle
 10
103.9199460993023
 20
172.0696412315617
 30
0.0
 40
0.2222195458280311
100
AcDbArc
 50
0.0
 51
180.0
  0
LINE
  5
364
330
18
100
AcDbEntity
  8
1
  6
Continuous
 48
0.25
100
AcDbLine
 10
103.6977265534742
 20
172.0696412315617
 30
0.0
 11
103.6977265534742
 21
171.1201843427145
 31
0.0
  0
LINE
  5
365
330
18
100
AcDbEntity
  8
1
  6
Continuous
 48
0.25
100
AcDbLine
 10
103.9199460993023
 20
172.2918607773898
 30
0.0
 11
103.9199460993023
 21
173.3578972811482
 31
0.0
  0
LINE
  5
366
330
18
100
AcDbEntity
  8
1
  6
Continuous
 48
0.25
100
AcDbLine
 10
103.4714336201857
 20
173.1235467788143
 30
0.0
 11
102.9693683334156
 21
171.2498136198779
 31
0.0
  0
LINE
  5
367
330
18
100
AcDbEntity
  8
1
  6
Continuous
 48
0.25
100
AcDbLine
 10
102.3300942786572
 20
172.2918607773898
 30
0.0
 11
103.248584027747
 21
172.2918607773898
 31
0.0
  0
LINE
  5
369
330
18
100
AcDbEntity
  8
4
  6
CENTER
 48
0.25
100
AcDbLine
 10
173.4650484592744
 20
116.3402668236557
 30
0.0
 11
173.4650484592744
 21
120.5402668236556
 31
0.0
  0
LINE
  5
36A
330
18
100
AcDbEntity
  8
4
  6
CENTER
 48
0.25
100
AcDbLine
 10
163.9150484592743
 20
108.2065821350182
 30
0.0
 11
163.9150484592743
 21
113.4065821350182
 31
0.0
  0
LINE
  5
36B
330
18
100
AcDbEntity
  8
4
  6
CENTER
 48
0.25
100
AcDbLine
 10
173.9150484592743
 20
108.2065821350182
 30
0.0
 11
173.9150484592743
 21
113.4065821350182
 31
0.0
  0
LINE
  5
36C
330
18
100
AcDbEntity
  8
4
  6
CENTER
 48
0.25
100
AcDbLine
 10
183.9150484592743
 20
108.2065821350182
 30
0.0
 11
183.9150484592743
 21
113.4065821350182
 31
0.0
  0
LINE
  5
36D
330
18
100
AcDbEntity
  8
1
  6
Continuous
 48
0.25
100
AcDbLine
 10
158.9150484592743
 20
110.7065821350182
 30
0.0
 11
188.9150484592743
 21
110.7065821350182
 31
0.0
  0
LINE
  5
36E
330
18
100
AcDbEntity
  8
1
  6
Continuous
 48
0.25
100
AcDbLine
 10
187.5150484592743
 20
118.5065821350182
 30
0.0
 11
158.9150484592743
 21
118.5065821350182
 31
0.0
  0
LINE
  5
36F
330
18
100
AcDbEntity
  8
1
  6
Continuous
 48
0.25
100
AcDbLine
 10
158.9150484592743
 20
111.9065821350182
 30
0.0
 11
188.9150484592743
 21
111.9065821350182
 31
0.0
  0
LINE
  5
370
330
18
100
AcDbEntity
  8
1
  6
Continuous
 48
0.25
100
AcDbLine
 10
158.9150484592743
 20
109.7065821350182
 30
0.0
 11
188.9150484592743
 21
109.7065821350182
 31
0.0
  0
LINE
  5
371
330
18
100
AcDbEntity
  8
1
  6
Continuous
 48
0.25
100
AcDbLine
 10
158.9150484592743
 20
118.5065821350182
 30
0.0
 11
158.9150484592743
 21
109.7065821350182
 31
0.0
  0
LINE
  5
372
330
18
100
AcDbEntity
  8
1
  6
Continuous
 48
0.25
100
AcDbLine
 10
188.9150484592743
 20
117.1065821350182
 30
0.0
 11
188.9150484592743
 21
109.7065821350182
 31
0.0
  0
LINE
  5
373
330
18
100
AcDbEntity
  8
1
  6
Continuous
 48
0.25
100
AcDbLine
 10
156.4150484592744
 20
111.7565821350182
 30
0.0
 11
157.9150484592744
 21
111.7565821350182
 31
0.0
  0
LINE
  5
374
330
18
100
AcDbEntity
  8
1
  6
Continuous
 48
0.25
100
AcDbLine
 10
156.4150484592744
 20
110.7565821350182
 30
0.0
 11
158.9150484592743
 21
110.7565821350182
 31
0.0
  0
LINE
  5
375
330
18
100
AcDbEntity
  8
1
  6
Continuous
 48
0.25
100
AcDbLine
 10
156.4150484592744
 20
117.1565821350182
 30
0.0
 11
158.9150484592743
 21
117.1565821350182
 31
0.0
  0
LINE
  5
376
330
18
100
AcDbEntity
  8
1
  6
Continuous
 48
0.25
100
AcDbLine
 10
156.4150484592744
 20
112.7565821350182
 30
0.0
 11
157.7150484592744
 21
112.7565821350182
 31
0.0
  0
LINE
  5
377
330
18
100
AcDbEntity
  8
1
  6
Continuous
 48
0.25
100
AcDbLine
 10
156.4150484592744
 20
112.7565821350182
 30
0.0
 11
156.4150484592744
 21
117.1565821350182
 31
0.0
  0
LINE
  5
378
330
18
100
AcDbEntity
  8
1
  6
Continuous
 48
0.25
100
AcDbLine
 10
157.4150484592744
 20
112.7565821350182
 30
0.0
 11
157.4150484592744
 21
117.1565821350182
 31
0.0
  0
LINE
  5
379
330
18
100
AcDbEntity
  8
1
  6
Continuous
 48
0.25
100
AcDbLine
 10
157.9150484592744
 20
112.5565821350182
 30
0.0
 11
157.9150484592744
 21
110.7565821350182
 31
0.0
  0
LINE
  5
37A
330
18
100
AcDbEntity
  8
1
  6
Continuous
 48
0.25
100
AcDbLine
 10
186.9150484592743
 20
118.5065821350182
 30
0.0
 11
186.9150484592743
 21
116.8894248474928
 31
0.0
  0
LINE
  5
37B
330
18
100
AcDbEntity
  8
1
  6
Continuous
 48
0.25
100
AcDbLine
 10
186.9736271030369
 20
116.7480034912555
 30
0.0
 11
188.8564698155115
 21
114.8651607787808
 31
0.0
  0
LINE
  5
37C
330
18
100
AcDbEntity
  8
1
  6
Continuous
 48
0.25
100
AcDbLine
 10
187.7150484592742
 20
116.0065821350182
 30
0.0
 11
187.7150484592742
 21
117.1065821350182
 31
0.0
  0
ARC
  5
37D
330
18
100
AcDbEntity
  8
1
  6
Continuous
 48
0.25
100
AcDbCircle
 10
157.7150484592744
 20
112.5565821350182
 30
0.0
 40
0.2
100
AcDbArc
 50
0.0
 51
90.0
  0
LINE
  5
37E
330
18
100
AcDbEntity
  8
1
  6
Continuous
 48
0.25
100
AcDbLine
 10
156.4150484592744
 20
111.7565821350182
 30
0.0
 11
156.4150484592744
 21
110.7565821350182
 31
0.0
  0
ARC
  5
37F
330
18
100
AcDbEntity
  8
1
  6
Continuous
 48
0.25
100
AcDbCircle
 10
187.5150484592743
 20
117.1065821350182
 30
0.0
 40
0.2
100
AcDbArc
 50
0.0
 51
90.0
  0
ARC
  5
380
330
18
100
AcDbEntity
  8
1
  6
Continuous
 48
0.25
100
AcDbCircle
 10
187.5150484592743
 20
117.1065821350182
 30
0.0
 40
1.399999999999999
100
AcDbArc
 50
0.0
 51
90.0
  0
ARC
  5
381
330
18
100
AcDbEntity
  8
1
  6
Continuous
 48
0.25
100
AcDbCircle
 10
187.1150484592743
 20
116.8894248474928
 30
0.0
 40
0.2
100
AcDbArc
 50
180.0
 51
224.9999999999961
  0
ARC
  5
382
330
18
100
AcDbEntity
  8
1
  6
Continuous
 48
0.25
100
AcDbCircle
 10
188.7150484592742
 20
114.7237394225436
 30
0.0
 40
0.2
100
AcDbArc
 50
0.0
 51
44.99999999999608
  0
LINE
  5
383
330
18
100
AcDbEntity
  8
1
  6
Continuous
 48
0.25
100
AcDbLine
 10
187.5150484592743
 20
117.3065821350182
 30
0.0
 11
186.9150484592743
 21
117.3065821350182
 31
0.0
  0
LINE
  5
384
330
18
100
AcDbEntity
  8
5
  6
PHANTOM
 48
0.1
100
AcDbLine
 10
150.4150484592744
 20
112.7565821350182
 30
0.0
 11
151.7150484592744
 21
112.7565821350182
 31
0.0
  0
LINE
  5
385
330
18
100
AcDbEntity
  8
5
  6
PHANTOM
 48
0.1
100
AcDbLine
 10
150.4150484592744
 20
112.7565821350182
 30
0.0
 11
150.4150484592744
 21
117.1565821350182
 31
0.0
  0
LINE
  5
386
330
18
100
AcDbEntity
  8
5
  6
PHANTOM
 48
0.1
100
AcDbLine
 10
151.4150484592744
 20
112.7565821350182
 30
0.0
 11
151.4150484592744
 21
117.1565821350182
 31
0.0
  0
LINE
  5
387
330
18
100
AcDbEntity
  8
5
  6
PHANTOM
 48
0.1
100
AcDbLine
 10
151.9150484592744
 20
112.5565821350182
 30
0.0
 11
151.9150484592744
 21
110.7565821350182
 31
0.0
  0
ARC
  5
388
330
18
100
AcDbEntity
  8
5
  6
PHANTOM
 48
0.1
100
AcDbCircle
 10
151.7150484592744
 20
112.5565821350182
 30
0.0
 40
0.2
100
AcDbArc
 50
0.0
 51
90.0
  0
LINE
  5
389
330
18
100
AcDbEntity
  8
5
  6
PHANTOM
 48
0.1
100
AcDbLine
 10
150.4150484592744
 20
111.7565821350182
 30
0.0
 11
150.4150484592744
 21
110.7565821350182
 31
0.0
  0
LINE
  5
38A
330
18
100
AcDbEntity
  8
5
  6
PHANTOM
 48
0.1
100
AcDbLine
 10
151.9150484592744
 20
111.7565821350182
 30
0.0
 11
150.4150484592744
 21
111.7565821350182
 31
0.0
  0
LINE
  5
38B
330
18
100
AcDbEntity
  8
5
  6
PHANTOM
 48
0.1
100
AcDbLine
 10
156.4150484592744
 20
110.7565821350182
 30
0.0
 11
150.4150484592744
 21
110.7565821350182
 31
0.0
  0
LINE
  5
38C
330
18
100
AcDbEntity
  8
5
  6
PHANTOM
 48
0.1
100
AcDbLine
 10
156.4150484592744
 20
117.1565821350182
 30
0.0
 11
150.4150484592744
 21
117.1565821350182
 31
0.0
  0
ARC
  5
38D
330
18
100
AcDbEntity
  8
5
  6
PHANTOM
 48
0.1
100
AcDbCircle
 10
153.7503237909099
 20
117.721800022225
 30
0.0
 40
0.1000000000000001
100
AcDbArc
 50
190.598495790901
 51
311.4754560201851
  0
LINE
  5
38E
330
18
100
AcDbEntity
  8
5
  6
PHANTOM
 48
0.1
100
AcDbLine
 10
156.4276715987775
 20
118.8886460858514
 30
0.0
 11
158.9150484592742
 21
117.2953622893272
 31
0.0
  0
LINE
  5
38F
330
18
100
AcDbEntity
  8
5
  6
PHANTOM
 48
0.1
100
AcDbLine
 10
155.8993111684359
 20
118.056325865558
 30
0.0
 11
158.9326357807453
 21
116.1133364331381
 31
0.0
  0
LINE
  5
390
330
18
100
AcDbEntity
  8
5
  6
PHANTOM
 48
0.1
100
AcDbLine
 10
153.8165537063924
 20
117.6468760721479
 30
0.0
 11
155.1058235345492
 21
118.7865414483734
 31
0.0
  0
LINE
  5
391
330
18
100
AcDbEntity
  8
5
  6
PHANTOM
 48
0.1
100
AcDbLine
 10
154.4788528612181
 20
116.8976365713758
 30
0.0
 11
155.7791431625969
 21
118.0470436257872
 31
0.0
  0
ARC
  5
392
330
18
100
AcDbEntity
  8
5
  6
PHANTOM
 48
0.1
100
AcDbCircle
 10
153.75032379091
 20
117.721800022225
 30
0.0
 40
1.1
100
AcDbArc
 50
190.5984957909047
 51
311.4754560201747
  0
ARC
  5
393
330
18
100
AcDbEntity
  8
5
  6
PHANTOM
 48
0.1
100
AcDbCircle
 10
155.8343526048575
 20
117.9623779975241
 30
0.0
 40
1.1
100
AcDbArc
 50
57.35849579090101
 51
131.4754560201758
  0
ARC
  5
394
330
18
100
AcDbEntity
  8
5
  6
PHANTOM
 48
0.1
100
AcDbCircle
 10
155.8453730780795
 20
117.97211967571
 30
0.0
 40
0.1
100
AcDbArc
 50
57.35849579090461
 51
131.4754560201755
  0
ARC
  5
395
330
18
100
AcDbEntity
  8
5
  6
PHANTOM
 48
0.1
100
AcDbCircle
 10
153.316042850157
 20
119.49903938187
 30
0.0
 40
1.0
100
AcDbArc
 50
145.5982595309549
 51
190.5982595309543
  0
LINE
  5
396
330
18
100
AcDbEntity
  8
5
  6
PHANTOM
 48
0.1
100
AcDbLine
 10
152.4909465142143
 20
120.0640314494372
 30
0.0
 11
152.7249738912338
 21
120.405797542049
 31
0.0
  0
LINE
  5
397
330
18
100
AcDbEntity
  8
5
  6
PHANTOM
 48
0.1
100
AcDbLine
 10
152.7249738912339
 20
120.405797542049
 30
0.0
 11
153.1321213581733
 21
120.4819803184406
 31
0.0
  0
LINE
  5
398
330
18
100
AcDbEntity
  8
5
  6
PHANTOM
 48
0.1
100
AcDbLine
 10
152.3331019135864
 20
119.3151178898861
 30
0.0
 11
152.6690887606823
 21
117.5194863810429
 31
0.0
  0
LINE
  5
399
330
18
100
AcDbEntity
  8
5
  6
PHANTOM
 48
0.1
100
AcDbLine
 10
153.132121358173
 20
120.4819803184406
 30
0.0
 11
153.6520296972527
 21
117.7034078730267
 31
0.0
  0
LINE
  5
39A
330
18
100
AcDbEntity
  8
4
  6
CENTER
 48
0.25
100
AcDbLine
 10
454.4411458360041
 20
120.709830291737
 30
0.0
 11
454.4411458360041
 21
106.709830291737
 31
0.0
  0
LINE
  5
39B
330
18
100
AcDbEntity
  8
1
  6
Continuous
 48
0.25
100
AcDbLine
 10
433.4411458360041
 20
110.709830291737
 30
0.0
 11
433.4411458360041
 21
116.709830291737
 31
0.0
  0
LINE
  5
39C
330
18
100
AcDbEntity
  8
1
  6
Continuous
 48
0.25
100
AcDbLine
 10
475.441145836004
 20
110.709830291737
 30
0.0
 11
475.441145836004
 21
116.709830291737
 31
0.0
  0
LINE
  5
39D
330
18
100
AcDbEntity
  8
1
  6
Continuous
 48
0.25
100
AcDbLine
 10
473.4411458360041
 20
118.709830291737
 30
0.0
 11
435.4411458360041
 21
118.709830291737
 31
0.0
  0
LINE
  5
39E
330
18
100
AcDbEntity
  8
1
  6
Continuous
 48
0.25
100
AcDbLine
 10
446.941145836004
 20
108.709830291737
 30
0.0
 11
446.941145836004
 21
112.6446188302616
 31
0.0
  0
LINE
  5
39F
330
18
100
AcDbEntity
  8
1
  6
Continuous
 48
0.25
100
AcDbLine
 10
461.941145836004
 20
108.709830291737
 30
0.0
 11
461.941145836004
 21
112.6446188302616
 31
0.0
  0
ARC
  5
3A0
330
18
100
AcDbEntity
  8
1
  6
Continuous
 48
0.25
100
AcDbCircle
 10
461.4411458360041
 20
109.411166452346
 30
0.0
 40
0.5
100
AcDbArc
 50
270.0
 51
0.0
  0
ARC
  5
3A1
330
18
100
AcDbEntity
  8
1
  6
Continuous
 48
0.25
100
AcDbCircle
 10
447.441145836004
 20
109.411166452346
 30
0.0
 40
0.5
100
AcDbArc
 50
180.0
 51
270.0
  0
LINE
  5
3A2
330
18
100
AcDbEntity
  8
1
  6
Continuous
 48
0.25
100
AcDbLine
 10
444.941145836004
 20
109.209830291737
 30
0.0
 11
444.941145836004
 21
109.709830291737
 31
0.0
  0
LINE
  5
3A3
330
18
100
AcDbEntity
  8
1
  6
Continuous
 48
0.25
100
AcDbLine
 10
435.441145836004
 20
108.709830291737
 30
0.0
 11
444.4411458360039
 21
108.709830291737
 31
0.0
  0
LINE
  5
3A4
330
18
100
AcDbEntity
  8
1
  6
Continuous
 48
0.25
100
AcDbLine
 10
446.941145836004
 20
108.709830291737
 30
0.0
 11
461.941145836004
 21
108.709830291737
 31
0.0
  0
LINE
  5
3A5
330
18
100
AcDbEntity
  8
1
  6
Continuous
 48
0.25
100
AcDbLine
 10
473.4411458360041
 20
108.709830291737
 30
0.0
 11
464.441145836004
 21
108.709830291737
 31
0.0
  0
ARC
  5
3A6
330
18
100
AcDbEntity
  8
1
  6
Continuous
 48
0.25
100
AcDbCircle
 10
445.9411458360039
 20
109.709830291737
 30
0.0
 40
1.0
100
AcDbArc
 50
359.9999999999992
 51
180.0
  0
ARC
  5
3A7
330
18
100
AcDbEntity
  8
1
  6
Continuous
 48
0.25
100
AcDbCircle
 10
444.441145836004
 20
109.209830291737
 30
0.0
 40
0.5
100
AcDbArc
 50
270.0
 51
0.0
  0
LINE
  5
3A8
330
18
100
AcDbEntity
  8
1
  6
Continuous
 48
0.25
100
AcDbLine
 10
463.941145836004
 20
109.209830291737
 30
0.0
 11
463.941145836004
 21
109.709830291737
 31
0.0
  0
ARC
  5
3A9
330
18
100
AcDbEntity
  8
1
  6
Continuous
 48
0.25
100
AcDbCircle
 10
462.941145836004
 20
109.709830291737
 30
0.0
 40
1.0
100
AcDbArc
 50
0.0
 51
180.0000000000008
  0
ARC
  5
3AA
330
18
100
AcDbEntity
  8
1
  6
Continuous
 48
0.25
100
AcDbCircle
 10
464.441145836004
 20
109.209830291737
 30
0.0
 40
0.5
100
AcDbArc
 50
180.0
 51
270.0
  0
CIRCLE
  5
3AB
330
18
100
AcDbEntity
  8
1
  6
Continuous
 48
0.25
100
AcDbCircle
 10
437.4411458360039
 20
113.709830291737
 30
0.0
 40
1.75
  0
CIRCLE
  5
3AC
330
18
100
AcDbEntity
  8
1
  6
Continuous
 48
0.25
100
AcDbCircle
 10
471.441145836004
 20
113.709830291737
 30
0.0
 40
1.75
  0
ARC
  5
3AD
330
18
100
AcDbEntity
  8
1
  6
Continuous
 48
0.25
100
AcDbCircle
 10
473.4411458360041
 20
110.709830291737
 30
0.0
 40
2.0
100
AcDbArc
 50
270.0
 51
0.0
  0
ARC
  5
3AE
330
18
100
AcDbEntity
  8
1
  6
Continuous
 48
0.25
100
AcDbCircle
 10
435.4411458360041
 20
110.709830291737
 30
0.0
 40
2.0
100
AcDbArc
 50
180.0
 51
270.0
  0
ARC
  5
3AF
330
18
100
AcDbEntity
  8
1
  6
Continuous
 48
0.25
100
AcDbCircle
 10
435.4411458360041
 20
116.709830291737
 30
0.0
 40
2.0
100
AcDbArc
 50
90.0
 51
180.0
  0
ARC
  5
3B0
330
18
100
AcDbEntity
  8
1
  6
Continuous
 48
0.25
100
AcDbCircle
 10
473.4411458360041
 20
116.709830291737
 30
0.0
 40
2.0
100
AcDbArc
 50
0.0
 51
90.0
  0
LINE
  5
3B1
330
18
100
AcDbEntity
  8
1
  6
Continuous
 48
0.25
100
AcDbLine
 10
446.9411458360037
 20
112.6446188302616
 30
0.0
 11
461.941145836004
 21
112.6446188302616
 31
0.0
  0
LINE
  5
3B2
330
18
100
AcDbEntity
  8
1
  6
Continuous
 48
0.25
100
AcDbLine
 10
447.441145836004
 20
108.911166452346
 30
0.0
 11
461.4411458360041
 21
108.911166452346
 31
0.0
  0
LINE
  5
3B3
330
18
100
AcDbEntity
  8
1
  6
Continuous
 48
0.25
100
AcDbLine
 10
461.941145836004
 20
111.0778376460437
 30
0.0
 11
446.941145836004
 21
111.0778376460437
 31
0.0
  0
ARC
  5
3B4
330
18
100
AcDbEntity
  8
1
  6
Continuous
 48
0.25
100
AcDbCircle
 10
461.4411458360041
 20
109.9064992223327
 30
0.0
 40
0.5
100
AcDbArc
 50
270.0
 51
0.0
  0
LINE
  5
3B5
330
18
100
AcDbEntity
  8
1
  6
Continuous
 48
0.25
100
AcDbLine
 10
447.441145836004
 20
109.4064992223327
 30
0.0
 11
461.4411458360041
 21
109.4064992223327
 31
0.0
  0
ARC
  5
3B6
330
18
100
AcDbEntity
  8
1
  6
Continuous
 48
0.25
100
AcDbCircle
 10
447.441145836004
 20
109.911166452346
 30
0.0
 40
0.5
100
AcDbArc
 50
180.0
 51
270.0
  0
LINE
  5
3B7
330
18
100
AcDbEntity
  8
4
  6
CENTER
 48
0.25
100
AcDbLine
 10
471.441145836004
 20
116.959830291737
 30
0.0
 11
471.441145836004
 21
110.459830291737
 31
0.0
  0
LINE
  5
3B8
330
18
100
AcDbEntity
  8
4
  6
CENTER
 48
0.25
100
AcDbLine
 10
437.4411458360039
 20
116.959830291737
 30
0.0
 11
437.4411458360039
 21
110.459830291737
 31
0.0
  0
LINE
  5
3B9
330
18
100
AcDbEntity
  8
4
  6
CENTER
 48
0.25
100
AcDbLine
 10
431.4411458360041
 20
113.709830291737
 30
0.0
 11
477.441145836004
 21
113.709830291737
 31
0.0
  0
LINE
  5
3CD
330
18
100
AcDbEntity
  8
4
  6
CENTER
 48
0.25
100
AcDbLine
 10
374.5173365462694
 20
154.3024738908221
 30
0.0
 11
374.5173365462694
 21
158.5024738908221
 31
0.0
  0
LINE
  5
3CE
330
18
100
AcDbEntity
  8
4
  6
CENTER
 48
0.25
100
AcDbLine
 10
340.5173365462693
 20
154.3024738908222
 30
0.0
 11
340.5173365462693
 21
158.5024738908222
 31
0.0
  0
LINE
  5
3CF
330
18
100
AcDbEntity
  8
4
  6
CENTER
 48
0.25
100
AcDbLine
 10
357.5173365462693
 20
153.8024738908222
 30
0.0
 11
357.5173365462692
 21
167.1900738908222
 31
0.0
  0
LINE
  5
3D0
330
18
100
AcDbEntity
  8
1
  6
Continuous
 48
0.25
100
AcDbLine
 10
378.5173365462692
 20
157.0024738908221
 30
0.0
 11
378.5173365462692
 21
155.8024738908222
 31
0.0
  0
LINE
  5
3D1
330
18
100
AcDbEntity
  8
1
  6
Continuous
 48
0.25
100
AcDbLine
 10
336.5173365462693
 20
157.0024738908222
 30
0.0
 11
336.5173365462693
 21
155.8024738908222
 31
0.0
  0
LINE
  5
3D2
330
18
100
AcDbEntity
  8
1
  6
Continuous
 48
0.25
100
AcDbLine
 10
378.5173365462692
 20
155.8024738908222
 30
0.0
 11
336.5173365462693
 21
155.8024738908222
 31
0.0
  0
LINE
  5
3D3
330
18
100
AcDbEntity
  8
1
  6
Continuous
 48
0.25
100
AcDbLine
 10
378.5173365462692
 20
157.0024738908221
 30
0.0
 11
336.5173365462693
 21
157.0024738908222
 31
0.0
  0
LINE
  5
3D4
330
18
100
AcDbEntity
  8
1
  6
Continuous
 48
0.25
100
AcDbLine
 10
365.0173365462693
 20
159.5651399498533
 30
0.0
 11
350.0173365462694
 21
159.5651399498534
 31
0.0
  0
LINE
  5
3D5
330
18
100
AcDbEntity
  8
1
  6
Continuous
 48
0.25
100
AcDbLine
 10
350.0173365462694
 20
157.0024738908222
 30
0.0
 11
350.0173365462694
 21
164.6900738908222
 31
0.0
  0
LINE
  5
3D6
330
18
100
AcDbEntity
  8
1
  6
Continuous
 48
0.25
100
AcDbLine
 10
365.0173365462693
 20
157.0024738908221
 30
0.0
 11
365.0173365462693
 21
164.6900738908222
 31
0.0
  0
LINE
  5
3D7
330
18
100
AcDbEntity
  8
1
  6
Continuous
 48
0.25
100
AcDbLine
 10
364.5173365462694
 20
165.1900738908222
 30
0.0
 11
350.5173365462693
 21
165.1900738908222
 31
0.0
  0
ARC
  5
3D8
330
18
100
AcDbEntity
  8
1
  6
Continuous
 48
0.25
100
AcDbCircle
 10
350.5173365462693
 20
164.6900738908222
 30
0.0
 40
0.5
100
AcDbArc
 50
90.0
 51
180.0
  0
ARC
  5
3D9
330
18
100
AcDbEntity
  8
1
  6
Continuous
 48
0.25
100
AcDbCircle
 10
364.5173365462694
 20
164.6900738908222
 30
0.0
 40
0.5
100
AcDbArc
 50
0.0
 51
90.0
  0
LINE
  5
3DA
330
18
100
AcDbEntity
  8
4
  6
CENTER
 48
0.25
100
AcDbLine
 10
123.1421415575826
 20
108.2065821350182
 30
0.0
 11
123.1421415575826
 21
113.4065821350182
 31
0.0
  0
LINE
  5
3DB
330
18
100
AcDbEntity
  8
4
  6
CENTER
 48
0.25
100
AcDbLine
 10
89.14214155758259
 20
108.2065821350182
 30
0.0
 11
89.14214155758259
 21
113.4065821350182
 31
0.0
  0
LINE
  5
3DC
330
18
100
AcDbEntity
  8
4
  6
CENTER
 48
0.25
100
AcDbLine
 10
106.1421415575826
 20
120.5065821350182
 30
0.0
 11
106.1421415575826
 21
107.7065821350182
 31
0.0
  0
LINE
  5
3DD
330
18
100
AcDbEntity
  8
1
  6
Continuous
 48
0.25
100
AcDbLine
 10
95.54214155758259
 20
118.5065821350182
 30
0.0
 11
116.7421415575826
 21
118.5065821350182
 31
0.0
  0
LINE
  5
3DE
330
18
100
AcDbEntity
  8
1
  6
Continuous
 48
0.25
100
AcDbLine
 10
96.1421415575826
 20
117.3065821350183
 30
0.0
 11
116.1421415575826
 21
117.3065821350183
 31
0.0
  0
LINE
  5
3DF
330
18
100
AcDbEntity
  8
1
  6
Continuous
 48
0.25
100
AcDbLine
 10
118.3421415575826
 20
111.9065821350182
 30
0.0
 11
127.1421415575826
 21
111.9065821350182
 31
0.0
  0
LINE
  5
3E0
330
18
100
AcDbEntity
  8
1
  6
Continuous
 48
0.25
100
AcDbLine
 10
93.94214155758261
 20
111.9065821350182
 30
0.0
 11
85.14214155758258
 21
111.9065821350182
 31
0.0
  0
LINE
  5
3E1
330
18
100
AcDbEntity
  8
1
  6
Continuous
 48
0.25
100
AcDbLine
 10
85.14214155758248
 20
109.7065821350182
 30
0.0
 11
127.1421415575824
 21
109.7065821350182
 31
0.0
  0
LINE
  5
3E2
330
18
100
AcDbEntity
  8
1
  6
Continuous
 48
0.25
100
AcDbLine
 10
85.14214155758248
 20
110.7065821350182
 30
0.0
 11
127.1421415575824
 21
110.7065821350182
 31
0.0
  0
LINE
  5
3E3
330
18
100
AcDbEntity
  8
1
  6
Continuous
 48
0.25
100
AcDbLine
 10
118.8921415575826
 20
113.7565821350182
 30
0.0
 11
118.8921415575826
 21
116.1565821350182
 31
0.0
  0
LINE
  5
3E4
330
18
100
AcDbEntity
  8
1
  6
Continuous
 48
0.25
100
AcDbLine
 10
93.39214155758259
 20
116.1565821350182
 30
0.0
 11
93.39214155758259
 21
113.7565821350182
 31
0.0
  0
LINE
  5
3E5
330
18
100
AcDbEntity
  8
1
  6
Continuous
 48
0.25
100
AcDbLine
 10
115.8921415575826
 20
112.7565821350182
 30
0.0
 11
117.8921415575826
 21
112.7565821350182
 31
0.0
  0
LINE
  5
3E6
330
18
100
AcDbEntity
  8
1
  6
Continuous
 48
0.25
100
AcDbLine
 10
94.39214155758259
 20
112.7565821350182
 30
0.0
 11
96.3921415575826
 21
112.7565821350182
 31
0.0
  0
LINE
  5
3E7
330
18
100
AcDbEntity
  8
1
  6
Continuous
 48
0.25
100
AcDbLine
 10
117.8921415575826
 20
117.1565821350182
 30
0.0
 11
115.8921415575826
 21
117.1565821350182
 31
0.0
  0
LINE
  5
3E8
330
18
100
AcDbEntity
  8
1
  6
Continuous
 48
0.25
100
AcDbLine
 10
94.39214155758259
 20
117.1565821350182
 30
0.0
 11
96.3921415575826
 21
117.1565821350182
 31
0.0
  0
LINE
  5
3E9
330
18
100
AcDbEntity
  8
1
  6
Continuous
 48
0.25
100
AcDbLine
 10
95.39214155758259
 20
112.7565821350182
 30
0.0
 11
95.39214155758259
 21
111.8565821350183
 31
0.0
  0
LINE
  5
3EA
330
18
100
AcDbEntity
  8
1
  6
Continuous
 48
0.25
100
AcDbLine
 10
116.8921415575826
 20
112.7565821350182
 30
0.0
 11
116.8921415575826
 21
111.8565821350183
 31
0.0
  0
LINE
  5
3EB
330
18
100
AcDbEntity
  8
1
  6
Continuous
 48
0.25
100
AcDbLine
 10
96.49214155758262
 20
110.7565821350182
 30
0.0
 11
115.7921415575825
 21
110.7565821350182
 31
0.0
  0
ARC
  5
3EC
330
18
100
AcDbEntity
  8
1
  6
Continuous
 48
0.25
100
AcDbCircle
 10
96.49214155758262
 20
111.8565821350183
 30
0.0
 40
1.1
100
AcDbArc
 50
180.0
 51
270.0
  0
ARC
  5
3ED
330
18
100
AcDbEntity
  8
1
  6
Continuous
 48
0.25
100
AcDbCircle
 10
115.7921415575825
 20
111.8565821350183
 30
0.0
 40
1.1
100
AcDbArc
 50
270.0
 51
0.0
  0
ARC
  5
3EE
330
18
100
AcDbEntity
  8
1
  6
Continuous
 48
0.25
100
AcDbCircle
 10
93.94214155758261
 20
112.1065821350183
 30
0.0
 40
0.2
100
AcDbArc
 50
270.0
 51
0.0
  0
ARC
  5
3EF
330
18
100
AcDbEntity
  8
1
  6
Continuous
 48
0.25
100
AcDbCircle
 10
118.3421415575826
 20
112.1065821350183
 30
0.0
 40
0.2
100
AcDbArc
 50
180.0
 51
270.0
  0
ARC
  5
3F0
330
18
100
AcDbEntity
  8
1
  6
Continuous
 48
0.25
100
AcDbCircle
 10
93.94214155758261
 20
112.1065821350183
 30
0.0
 40
1.399999999999999
100
AcDbArc
 50
270.0
 51
0.0
  0
ARC
  5
3F1
330
18
100
AcDbEntity
  8
1
  6
Continuous
 48
0.25
100
AcDbCircle
 10
118.3421415575826
 20
112.1065821350183
 30
0.0
 40
1.399999999999999
100
AcDbArc
 50
180.0
 51
270.0
  0
ARC
  5
3F2
330
18
100
AcDbEntity
  8
1
  6
Continuous
 48
0.25
100
AcDbCircle
 10
94.39214155758259
 20
116.1565821350182
 30
0.0
 40
1.0
100
AcDbArc
 50
90.0
 51
180.0
  0
ARC
  5
3F3
330
18
100
AcDbEntity
  8
1
  6
Continuous
 48
0.25
100
AcDbCircle
 10
94.39214155758259
 20
113.7565821350182
 30
0.0
 40
1.0
100
AcDbArc
 50
180.0
 51
270.0
  0
ARC
  5
3F4
330
18
100
AcDbEntity
  8
1
  6
Continuous
 48
0.25
100
AcDbCircle
 10
117.8921415575826
 20
113.7565821350182
 30
0.0
 40
1.0
100
AcDbArc
 50
270.0
 51
0.0
  0
ARC
  5
3F5
330
18
100
AcDbEntity
  8
1
  6
Continuous
 48
0.25
100
AcDbCircle
 10
117.8921415575826
 20
116.1565821350182
 30
0.0
 40
1.0
100
AcDbArc
 50
0.0
 51
90.0
  0
LINE
  5
3F6
330
18
100
AcDbEntity
  8
1
  6
Continuous
 48
0.25
100
AcDbLine
 10
85.14214155758258
 20
111.9065821350182
 30
0.0
 11
85.14214155758258
 21
109.7065821350183
 31
0.0
  0
LINE
  5
3F7
330
18
100
AcDbEntity
  8
1
  6
Continuous
 48
0.25
100
AcDbLine
 10
127.1421415575826
 20
109.7065821350183
 30
0.0
 11
127.1421415575826
 21
111.9065821350182
 31
0.0
  0
LINE
  5
3F8
330
18
100
AcDbEntity
  8
1
  6
Continuous
 48
0.25
100
AcDbLine
 10
116.1421415575826
 20
117.3065821350183
 30
0.0
 11
116.1421415575826
 21
117.3565821350183
 31
0.0
  0
LINE
  5
3F9
330
18
100
AcDbEntity
  8
1
  6
Continuous
 48
0.25
100
AcDbLine
 10
116.2921415575825
 20
117.5065821350182
 30
0.0
 11
116.7921415575825
 21
117.5065821350182
 31
0.0
  0
ARC
  5
3FA
330
18
100
AcDbEntity
  8
1
  6
Continuous
 48
0.25
100
AcDbCircle
 10
116.7921415575825
 20
117.3565821350183
 30
0.0
 40
0.15
100
AcDbArc
 50
0.0
 51
90.0
  0
ARC
  5
3FB
330
18
100
AcDbEntity
  8
1
  6
Continuous
 48
0.25
100
AcDbCircle
 10
116.2921415575825
 20
117.3565821350183
 30
0.0
 40
0.15
100
AcDbArc
 50
90.0
 51
180.0
  0
LINE
  5
3FC
330
18
100
AcDbEntity
  8
1
  6
Continuous
 48
0.25
100
AcDbLine
 10
96.1421415575826
 20
117.3065821350183
 30
0.0
 11
96.1421415575826
 21
117.3565821350183
 31
0.0
  0
LINE
  5
3FD
330
18
100
AcDbEntity
  8
1
  6
Continuous
 48
0.25
100
AcDbLine
 10
95.99214155758261
 20
117.5065821350182
 30
0.0
 11
95.49214155758262
 21
117.5065821350182
 31
0.0
  0
ARC
  5
3FE
330
18
100
AcDbEntity
  8
1
  6
Continuous
 48
0.25
100
AcDbCircle
 10
95.49214155758262
 20
117.3565821350183
 30
0.0
 40
0.15
100
AcDbArc
 50
90.0
 51
180.0
  0
ARC
  5
3FF
330
18
100
AcDbEntity
  8
1
  6
Continuous
 48
0.25
100
AcDbCircle
 10
95.99214155758261
 20
117.3565821350183
 30
0.0
 40
0.15
100
AcDbArc
 50
0.0
 51
90.0
  0
LINE
  5
400
330
18
100
AcDbEntity
  8
1
  6
Continuous
 48
0.25
100
AcDbLine
 10
95.34214155758261
 20
112.1065821350183
 30
0.0
 11
95.34214155758261
 21
112.7565821350182
 31
0.0
  0
LINE
  5
401
330
18
100
AcDbEntity
  8
1
  6
Continuous
 48
0.25
100
AcDbLine
 10
95.34214155758261
 20
117.1565821350182
 30
0.0
 11
95.34214155758261
 21
117.3565821350183
 31
0.0
  0
ARC
  5
402
330
18
100
AcDbEntity
  8
1
  6
Continuous
 48
0.25
100
AcDbCircle
 10
95.54214155758259
 20
117.1065821350183
 30
0.0
 40
1.399999999999999
100
AcDbArc
 50
90.0
 51
179.2519973820751
  0
LINE
  5
403
330
18
100
AcDbEntity
  8
1
  6
Continuous
 48
0.25
100
AcDbLine
 10
94.14214155758259
 20
112.7883362984664
 30
0.0
 11
94.14214155758259
 21
112.1065821350183
 31
0.0
  0
ARC
  5
404
330
18
100
AcDbEntity
  8
1
  6
Continuous
 48
0.25
100
AcDbCircle
 10
116.7421415575826
 20
117.1065821350183
 30
0.0
 40
1.399999999999999
100
AcDbArc
 50
0.7480026179242801
 51
90.0
  0
LINE
  5
405
330
18
100
AcDbEntity
  8
1
  6
Continuous
 48
0.25
100
AcDbLine
 10
118.1421415575826
 20
112.7883362984664
 30
0.0
 11
118.1421415575826
 21
112.1065821350183
 31
0.0
  0
LINE
  5
406
330
18
100
AcDbEntity
  8
1
  6
Continuous
 48
0.25
100
AcDbLine
 10
116.9421415575826
 20
117.3565821350183
 30
0.0
 11
116.9421415575826
 21
117.1565821350182
 31
0.0
  0
LINE
  5
407
330
18
100
AcDbEntity
  8
1
  6
Continuous
 48
0.25
100
AcDbLine
 10
116.9421415575826
 20
112.7565821350182
 30
0.0
 11
116.9421415575826
 21
112.1065821350183
 31
0.0
  0
LINE
  5
408
330
18
100
AcDbEntity
  8
1
  6
Continuous
 48
0.25
100
AcDbLine
 10
114.8921415575826
 20
112.5065821350182
 30
0.0
 11
114.8921415575826
 21
111.7565821350182
 31
0.0
  0
LINE
  5
409
330
18
100
AcDbEntity
  8
1
  6
Continuous
 48
0.25
100
AcDbLine
 10
97.3921415575826
 20
111.7565821350182
 30
0.0
 11
97.3921415575826
 21
112.5065821350182
 31
0.0
  0
LINE
  5
40A
330
18
100
AcDbEntity
  8
1
  6
Continuous
 48
0.25
100
AcDbLine
 10
115.8921415575826
 20
117.1565821350182
 30
0.0
 11
115.8921415575826
 21
111.7565821350182
 31
0.0
  0
LINE
  5
40B
330
18
100
AcDbEntity
  8
1
  6
Continuous
 48
0.25
100
AcDbLine
 10
96.3921415575826
 20
117.1565821350182
 30
0.0
 11
96.3921415575826
 21
111.7565821350182
 31
0.0
  0
LINE
  5
40C
330
18
100
AcDbEntity
  8
1
  6
Continuous
 48
0.25
100
AcDbLine
 10
115.0921415575826
 20
111.7565821350182
 30
0.0
 11
97.1921415575826
 21
111.7565821350182
 31
0.0
  0
LINE
  5
40D
330
18
100
AcDbEntity
  8
1
  6
Continuous
 48
0.25
100
AcDbLine
 10
113.8921415575826
 20
116.9565821350182
 30
0.0
 11
98.39214155758259
 21
116.9565821350182
 31
0.0
  0
LINE
  5
40E
330
18
100
AcDbEntity
  8
1
  6
Continuous
 48
0.25
100
AcDbLine
 10
115.3921415575826
 20
116.6705109043059
 30
0.0
 11
115.3921415575826
 21
112.5065821350182
 31
0.0
  0
LINE
  5
40F
330
18
100
AcDbEntity
  8
1
  6
Continuous
 48
0.25
100
AcDbLine
 10
98.6421415575826
 20
114.6489004276707
 30
0.0
 11
113.6421415575826
 21
114.6489004276707
 31
0.0
  0
LINE
  5
410
330
18
100
AcDbEntity
  8
1
  6
Continuous
 48
0.25
100
AcDbLine
 10
98.6421415575826
 20
114.3373576995239
 30
0.0
 11
113.6421415575826
 21
114.3373576995239
 31
0.0
  0
LINE
  5
411
330
18
100
AcDbEntity
  8
1
  6
Continuous
 48
0.25
100
AcDbLine
 10
96.89214155758259
 20
116.6705109043059
 30
0.0
 11
115.3921415575826
 21
116.6705109043059
 31
0.0
  0
LINE
  5
412
330
18
100
AcDbEntity
  8
1
  6
Continuous
 48
0.25
100
AcDbLine
 10
114.1421415575826
 20
114.5405358708723
 30
0.0
 11
115.3921415575826
 21
114.5405358708723
 31
0.0
  0
LINE
  5
413
330
18
100
AcDbEntity
  8
1
  6
Continuous
 48
0.25
100
AcDbLine
 10
114.1421415575826
 20
116.6705109043059
 30
0.0
 11
114.1421415575826
 21
111.7932891460382
 31
0.0
  0
LINE
  5
414
330
18
100
AcDbEntity
  8
1
  6
Continuous
 48
0.25
100
AcDbLine
 10
96.89214155758259
 20
116.6705109043059
 30
0.0
 11
96.89214155758259
 21
112.5065821350182
 31
0.0
  0
LINE
  5
415
330
18
100
AcDbEntity
  8
1
  6
Continuous
 48
0.25
100
AcDbLine
 10
98.14214155758259
 20
114.5405358708723
 30
0.0
 11
96.89214155758259
 21
114.5405358708723
 31
0.0
  0
LINE
  5
416
330
18
100
AcDbEntity
  8
1
  6
Continuous
 48
0.25
100
AcDbLine
 10
98.14214155758259
 20
116.6705109043059
 30
0.0
 11
98.14214155758259
 21
111.7932891460382
 31
0.0
  0
ARC
  5
417
330
18
100
AcDbEntity
  8
1
  6
Continuous
 48
0.25
100
AcDbCircle
 10
98.6421415575826
 20
114.1489004276707
 30
0.0
 40
0.5
100
AcDbArc
 50
90.0
 51
180.0
  0
ARC
  5
418
330
18
100
AcDbEntity
  8
1
  6
Continuous
 48
0.25
100
AcDbCircle
 10
98.6421415575826
 20
113.8373576995239
 30
0.0
 40
0.5
100
AcDbArc
 50
90.0
 51
180.0
  0
ARC
  5
419
330
18
100
AcDbEntity
  8
1
  6
Continuous
 48
0.25
100
AcDbCircle
 10
113.6421415575826
 20
114.1489004276707
 30
0.0
 40
0.5
100
AcDbArc
 50
0.0
 51
90.0
  0
ARC
  5
41A
330
18
100
AcDbEntity
  8
1
  6
Continuous
 48
0.25
100
AcDbCircle
 10
113.6421415575826
 20
113.8373576995239
 30
0.0
 40
0.5
100
AcDbArc
 50
0.0
 51
90.0
  0
ARC
  5
41B
330
18
100
AcDbEntity
  8
1
  6
Continuous
 48
0.25
100
AcDbCircle
 10
98.39214155758259
 20
115.9565821350182
 30
0.0
 40
1.0
100
AcDbArc
 50
90.0
 51
134.4445234283041
  0
ARC
  5
41C
330
18
100
AcDbEntity
  8
1
  6
Continuous
 48
0.25
100
AcDbCircle
 10
113.8921415575826
 20
115.9565821350182
 30
0.0
 40
1.0
100
AcDbArc
 50
45.55547657169583
 51
90.0
  0
LINE
  5
41D
330
18
100
AcDbEntity
  8
1
  6
Continuous
 48
0.25
100
AcDbLine
 10
115.2421415575826
 20
111.6065821350182
 30
0.0
 11
115.7421415575826
 21
111.6065821350182
 31
0.0
  0
ARC
  5
41E
330
18
100
AcDbEntity
  8
1
  6
Continuous
 48
0.25
100
AcDbCircle
 10
115.7421415575826
 20
111.7565821350182
 30
0.0
 40
0.15
100
AcDbArc
 50
270.0
 51
0.0
  0
ARC
  5
41F
330
18
100
AcDbEntity
  8
1
  6
Continuous
 48
0.25
100
AcDbCircle
 10
115.2421415575826
 20
111.7565821350182
 30
0.0
 40
0.15
100
AcDbArc
 50
180.0
 51
270.0
  0
LINE
  5
420
330
18
100
AcDbEntity
  8
1
  6
Continuous
 48
0.25
100
AcDbLine
 10
97.04214155758249
 20
111.6065821350182
 30
0.0
 11
96.54214155758261
 21
111.6065821350182
 31
0.0
  0
ARC
  5
421
330
18
100
AcDbEntity
  8
1
  6
Continuous
 48
0.25
100
AcDbCircle
 10
96.54214155758261
 20
111.7565821350182
 30
0.0
 40
0.15
100
AcDbArc
 50
180.0
 51
270.0
  0
ARC
  5
422
330
18
100
AcDbEntity
  8
1
  6
Continuous
 48
0.25
100
AcDbCircle
 10
97.04214155758249
 20
111.7565821350182
 30
0.0
 40
0.15
100
AcDbArc
 50
270.0
 51
0.0
  0
LINE
  5
423
330
18
100
AcDbEntity
  8
1
  6
Continuous
 48
0.25
100
AcDbLine
 10
96.89214155758259
 20
113.8977482611858
 30
0.0
 11
98.14214155758259
 21
113.8977482611858
 31
0.0
  0
LINE
  5
424
330
18
100
AcDbEntity
  8
1
  6
Continuous
 48
0.25
100
AcDbLine
 10
114.1421415575826
 20
113.8977482611858
 30
0.0
 11
115.3921415575826
 21
113.8977482611858
 31
0.0
  0
LINE
  5
425
330
18
100
AcDbEntity
  8
1
  6
Continuous
 48
0.25
100
AcDbLine
 10
98.14214155758259
 20
111.7932891460382
 30
0.0
 11
114.1421415575826
 21
111.7932891460382
 31
0.0
  0
LINE
  5
426
330
18
100
AcDbEntity
  8
1
  6
Continuous
 48
0.25
100
AcDbLine
 10
98.14214155758259
 20
112.5065821350182
 30
0.0
 11
96.89214155758259
 21
112.5065821350182
 31
0.0
  0
LINE
  5
427
330
18
100
AcDbEntity
  8
1
  6
Continuous
 48
0.25
100
AcDbLine
 10
115.3921415575826
 20
112.5065821350182
 30
0.0
 11
114.1421415575826
 21
112.5065821350182
 31
0.0
  0
LINE
  5
428
330
18
100
AcDbEntity
  8
1
  6
Continuous
 48
0.25
100
AcDbLine
 10
96.64214155758259
 20
117.3065821350182
 30
0.0
 11
96.64214155758259
 21
114.9565821350182
 31
0.0
  0
LINE
  5
429
330
18
100
AcDbEntity
  8
1
  6
Continuous
 48
0.25
100
AcDbLine
 10
96.64214155758259
 20
113.5565821350182
 30
0.0
 11
96.64214155758259
 21
111.6065821350182
 31
0.0
  0
LINE
  5
42A
330
18
100
AcDbEntity
  8
1
  6
Continuous
 48
0.25
100
AcDbLine
 10
115.6421415575826
 20
117.3065821350182
 30
0.0
 11
115.6421415575826
 21
114.9565821350182
 31
0.0
  0
LINE
  5
42B
330
18
100
AcDbEntity
  8
1
  6
Continuous
 48
0.25
100
AcDbLine
 10
115.6421415575826
 20
113.5565821350182
 30
0.0
 11
115.6421415575826
 21
111.6065821350182
 31
0.0
  0
LINE
  5
42C
330
18
100
AcDbEntity
  8
1
  6
Continuous
 48
0.25
100
AcDbLine
 10
115.3921415575826
 20
113.5565821350182
 30
0.0
 11
115.8921415575826
 21
113.5565821350182
 31
0.0
  0
LINE
  5
42D
330
18
100
AcDbEntity
  8
1
  6
Continuous
 48
0.25
100
AcDbLine
 10
115.3921415575826
 20
114.9565821350182
 30
0.0
 11
115.8921415575826
 21
114.9565821350182
 31
0.0
  0
LINE
  5
42E
330
18
100
AcDbEntity
  8
1
  6
Continuous
 48
0.25
100
AcDbLine
 10
96.89214155758259
 20
113.5565821350182
 30
0.0
 11
96.3921415575826
 21
113.5565821350182
 31
0.0
  0
LINE
  5
42F
330
18
100
AcDbEntity
  8
1
  6
Continuous
 48
0.25
100
AcDbLine
 10
96.89214155758259
 20
114.9565821350182
 30
0.0
 11
96.3921415575826
 21
114.9565821350182
 31
0.0
  0
LINE
  5
438
330
18
100
AcDbEntity
  8
1
  6
Continuous
 48
0.25
100
AcDbLine
 10
85.14214155758258
 20
53.99125122008512
 30
0.0
 11
85.14214155758262
 21
77.99125122008502
 31
0.0
  0
LINE
  5
439
330
18
100
AcDbEntity
  8
1
  6
Continuous
 48
0.25
100
AcDbLine
 10
127.1421415575825
 20
53.99125122008512
 30
0.0
 11
127.1421415575825
 21
77.99125122008499
 31
0.0
  0
ARC
  5
43A
330
18
100
AcDbEntity
  8
1
  6
Continuous
 48
0.25
100
AcDbCircle
 10
88.14214155758262
 20
77.99125122008502
 30
0.0
 40
3.0
100
AcDbArc
 50
90.0
 51
180.0
  0
ARC
  5
43B
330
18
100
AcDbEntity
  8
1
  6
Continuous
 48
0.25
100
AcDbCircle
 10
124.1421415575825
 20
77.99125122008499
 30
0.0
 40
3.0
100
AcDbArc
 50
0.0
 51
90.0
  0
LINE
  5
43C
330
18
100
AcDbEntity
  8
1
  6
Continuous
 48
0.25
100
AcDbLine
 10
93.39214155758259
 20
82.49125122008489
 30
0.0
 11
95.39214155758259
 21
82.49125122008489
 31
0.0
  0
LINE
  5
43D
330
18
100
AcDbEntity
  8
1
  6
Continuous
 48
0.25
100
AcDbLine
 10
118.8921415575826
 20
82.49125122008489
 30
0.0
 11
116.8921415575826
 21
82.49125122008489
 31
0.0
  0
ARC
  5
43E
330
18
100
AcDbEntity
  8
1
  6
Continuous
 48
0.25
100
AcDbCircle
 10
95.29214155758259
 20
82.3912512200849
 30
0.0
 40
1.1
100
AcDbArc
 50
0.0
 51
90.0
  0
ARC
  5
43F
330
18
100
AcDbEntity
  8
1
  6
Continuous
 48
0.25
100
AcDbCircle
 10
116.9921415575826
 20
82.3912512200849
 30
0.0
 40
1.1
100
AcDbArc
 50
90.0
 51
180.0
  0
LINE
  5
440
330
18
100
AcDbEntity
  8
1
  6
Continuous
 48
0.25
100
AcDbLine
 10
114.8921415575826
 20
82.99125122008488
 30
0.0
 11
114.8921415575826
 21
82.19125122008502
 31
0.0
  0
LINE
  5
441
330
18
100
AcDbEntity
  8
1
  6
Continuous
 48
0.25
100
AcDbLine
 10
97.3921415575826
 20
82.99125122008488
 30
0.0
 11
97.3921415575826
 21
82.19125122008502
 31
0.0
  0
LINE
  5
442
330
18
100
AcDbEntity
  8
1
  6
Continuous
 48
0.25
100
AcDbLine
 10
93.39214155758259
 20
83.49125122008489
 30
0.0
 11
95.29214155758259
 21
83.49125122008489
 31
0.0
  0
LINE
  5
443
330
18
100
AcDbEntity
  8
1
  6
Continuous
 48
0.25
100
AcDbLine
 10
114.3921415575826
 20
83.49125122008489
 30
0.0
 11
97.89214155758259
 21
83.49125122008489
 31
0.0
  0
LINE
  5
444
330
18
100
AcDbEntity
  8
1
  6
Continuous
 48
0.25
100
AcDbLine
 10
116.9921415575826
 20
83.49125122008489
 30
0.0
 11
118.8921415575826
 21
83.49125122008489
 31
0.0
  0
ARC
  5
445
330
18
100
AcDbEntity
  8
1
  6
Continuous
 48
0.25
100
AcDbCircle
 10
88.14214155758259
 20
53.99125122008512
 30
0.0
 40
3.0
100
AcDbArc
 50
180.0
 51
270.0
  0
ARC
  5
446
330
18
100
AcDbEntity
  8
1
  6
Continuous
 48
0.25
100
AcDbCircle
 10
124.1421415575825
 20
53.99125122008512
 30
0.0
 40
3.0
100
AcDbArc
 50
270.0
 51
0.0
  0
LINE
  5
447
330
18
100
AcDbEntity
  8
1
  6
Continuous
 48
0.25
100
AcDbLine
 10
88.14214155758262
 20
80.99125122008501
 30
0.0
 11
124.1421415575825
 21
80.991251220085
 31
0.0
  0
LINE
  5
448
330
18
100
AcDbEntity
  8
1
  6
Continuous
 48
0.25
100
AcDbLine
 10
88.14214155758259
 20
50.99125122008512
 30
0.0
 11
124.1421415575825
 21
50.99125122008512
 31
0.0
  0
LINE
  5
449
330
18
100
AcDbEntity
  8
1
  6
Continuous
 48
0.25
100
AcDbLine
 10
95.39214155758259
 20
81.99125122008489
 30
0.0
 11
97.1921415575826
 21
81.99125122008489
 31
0.0
  0
LINE
  5
44A
330
18
100
AcDbEntity
  8
1
  6
Continuous
 48
0.25
100
AcDbLine
 10
116.8921415575826
 20
81.99125122008489
 30
0.0
 11
115.0921415575826
 21
81.99125122008489
 31
0.0
  0
LINE
  5
44B
330
18
100
AcDbEntity
  8
1
  6
Continuous
 48
0.25
100
AcDbLine
 10
115.8921415575826
 20
82.391251220085
 30
0.0
 11
115.8921415575826
 21
81.99125122008489
 31
0.0
  0
LINE
  5
44C
330
18
100
AcDbEntity
  8
1
  6
Continuous
 48
0.25
100
AcDbLine
 10
116.8921415575826
 20
82.49125122008489
 30
0.0
 11
116.8921415575826
 21
80.991251220085
 31
0.0
  0
LINE
  5
44D
330
18
100
AcDbEntity
  8
1
  6
Continuous
 48
0.25
100
AcDbLine
 10
96.3921415575826
 20
82.3912512200849
 30
0.0
 11
96.3921415575826
 21
81.99125122008489
 31
0.0
  0
LINE
  5
44E
330
18
100
AcDbEntity
  8
1
  6
Continuous
 48
0.25
100
AcDbLine
 10
95.39214155758259
 20
82.49125122008489
 30
0.0
 11
95.39214155758259
 21
80.991251220085
 31
0.0
  0
LINE
  5
44F
330
18
100
AcDbEntity
  8
1
  6
Continuous
 48
0.25
100
AcDbLine
 10
118.8921415575826
 20
82.49125122008489
 30
0.0
 11
118.8921415575826
 21
83.49125122008489
 31
0.0
  0
LINE
  5
450
330
18
100
AcDbEntity
  8
1
  6
Continuous
 48
0.25
100
AcDbLine
 10
93.39214155758259
 20
82.49125122008489
 30
0.0
 11
93.39214155758259
 21
83.49125122008489
 31
0.0
  0
CIRCLE
  5
451
330
18
100
AcDbEntity
  8
1
  6
Continuous
 48
0.25
100
AcDbCircle
 10
89.14214155758262
 20
65.99125122008506
 30
0.0
 40
1.399999999999999
  0
CIRCLE
  5
452
330
18
100
AcDbEntity
  8
1
  6
Continuous
 48
0.25
100
AcDbCircle
 10
123.1421415575825
 20
65.99125122008506
 30
0.0
 40
1.399999999999999
  0
ARC
  5
453
330
18
100
AcDbEntity
  8
1
  6
Continuous
 48
0.25
100
AcDbCircle
 10
115.0921415575826
 20
82.19125122008502
 30
0.0
 40
0.2
100
AcDbArc
 50
180.0
 51
270.0
  0
ARC
  5
454
330
18
100
AcDbEntity
  8
1
  6
Continuous
 48
0.25
100
AcDbCircle
 10
97.1921415575826
 20
82.19125122008502
 30
0.0
 40
0.2
100
AcDbArc
 50
270.0
 51
0.0
  0
ARC
  5
455
330
18
100
AcDbEntity
  8
1
  6
Continuous
 48
0.25
100
AcDbCircle
 10
114.3921415575826
 20
82.99125122008488
 30
0.0
 40
0.5
100
AcDbArc
 50
0.0
 51
90.0
  0
ARC
  5
456
330
18
100
AcDbEntity
  8
1
  6
Continuous
 48
0.25
100
AcDbCircle
 10
97.89214155758259
 20
82.99125122008488
 30
0.0
 40
0.5
100
AcDbArc
 50
90.0
 51
180.0
  0
LINE
  5
45B
330
18
100
AcDbEntity
  8
4
  6
CENTER
 48
0.25
100
AcDbLine
 10
106.1421415575826
 20
85.49125122008488
 30
0.0
 11
106.1421415575826
 21
48.99125122008511
 31
0.0
  0
LINE
  5
45C
330
18
100
AcDbEntity
  8
4
  6
CENTER
 48
0.25
100
AcDbLine
 10
92.24214155758261
 20
75.9912512200851
 30
0.0
 11
86.0421415575826
 21
75.99125122008513
 31
0.0
  0
LINE
  5
45D
330
18
100
AcDbEntity
  8
4
  6
CENTER
 48
0.25
100
AcDbLine
 10
89.14214155758259
 20
51.99125122008514
 30
0.0
 11
89.14214155758271
 21
79.09125122008513
 31
0.0
  0
CIRCLE
  5
45E
330
18
100
AcDbEntity
  8
1
  6
Continuous
 48
0.25
100
AcDbCircle
 10
89.14214155758262
 20
75.99125122008513
 30
0.0
 40
1.6
  0
ARC
  5
45F
330
18
100
AcDbEntity
  8
1
  6
Continuous
 48
0.25
100
AcDbCircle
 10
89.14214155758262
 20
56.89125122008515
 30
0.0
 40
1.6
100
AcDbArc
 50
0.0
 51
180.0
  0
LINE
  5
460
330
18
100
AcDbEntity
  8
1
  6
Continuous
 48
0.25
100
AcDbLine
 10
90.7421415575826
 20
56.89125122008515
 30
0.0
 11
90.74214155758259
 21
55.09125122008514
 31
0.0
  0
LINE
  5
461
330
18
100
AcDbEntity
  8
4
  6
CENTER
 48
0.25
100
AcDbLine
 10
86.0421415575826
 20
55.99125122008515
 30
0.0
 11
92.24214155758261
 21
55.99125122008515
 31
0.0
  0
ARC
  5
462
330
18
100
AcDbEntity
  8
1
  6
Continuous
 48
0.25
100
AcDbCircle
 10
89.14214155758259
 20
55.09125122008514
 30
0.0
 40
1.6
100
AcDbArc
 50
180.0
 51
0.0
  0
LINE
  5
463
330
18
100
AcDbEntity
  8
1
  6
Continuous
 48
0.25
100
AcDbLine
 10
87.5421415575826
 20
56.89125122008515
 30
0.0
 11
87.54214155758257
 21
55.09125122008514
 31
0.0
  0
LINE
  5
464
330
18
100
AcDbEntity
  8
4
  6
CENTER
 48
0.25
100
AcDbLine
 10
123.1421415575826
 20
52.89125122008515
 30
0.0
 11
123.1421415575826
 21
79.99125122008511
 31
0.0
  0
CIRCLE
  5
465
330
18
100
AcDbEntity
  8
1
  6
Continuous
 48
0.25
100
AcDbCircle
 10
123.1421415575826
 20
55.99125122008512
 30
0.0
 40
1.6
  0
LINE
  5
466
330
18
100
AcDbEntity
  8
4
  6
CENTER
 48
0.25
100
AcDbLine
 10
126.2421415575826
 20
55.99125122008512
 30
0.0
 11
120.0421415575826
 21
55.99125122008512
 31
0.0
  0
LINE
  5
467
330
18
100
AcDbEntity
  8
1
  6
Continuous
 48
0.25
100
AcDbLine
 10
121.5421415575826
 20
75.09125122008512
 30
0.0
 11
121.5421415575826
 21
76.89125122008508
 31
0.0
  0
ARC
  5
468
330
18
100
AcDbEntity
  8
1
  6
Continuous
 48
0.25
100
AcDbCircle
 10
123.1421415575826
 20
75.09125122008512
 30
0.0
 40
1.6
100
AcDbArc
 50
180.0
 51
0.0
  0
LINE
  5
469
330
18
100
AcDbEntity
  8
4
  6
CENTER
 48
0.25
100
AcDbLine
 10
120.0421415575826
 20
75.9912512200851
 30
0.0
 11
126.2421415575826
 21
75.9912512200851
 31
0.0
  0
ARC
  5
46A
330
18
100
AcDbEntity
  8
1
  6
Continuous
 48
0.25
100
AcDbCircle
 10
123.1421415575826
 20
76.89125122008508
 30
0.0
 40
1.6
100
AcDbArc
 50
0.0
 51
180.0
  0
LINE
  5
46B
330
18
100
AcDbEntity
  8
1
  6
Continuous
 48
0.25
100
AcDbLine
 10
124.7421415575826
 20
75.09125122008512
 30
0.0
 11
124.7421415575826
 21
76.89125122008508
 31
0.0
  0
LINE
  5
46C
330
18
100
AcDbEntity
  8
4
  6
CENTER
 48
0.25
100
AcDbLine
 10
120.2421415575825
 20
65.99125122008506
 30
0.0
 11
126.0421415575825
 21
65.99125122008506
 31
0.0
  0
LINE
  5
46D
330
18
100
AcDbEntity
  8
4
  6
CENTER
 48
0.25
100
AcDbLine
 10
86.24214155758261
 20
65.99125122008506
 30
0.0
 11
92.04214155758259
 21
65.99125122008506
 31
0.0
  0
LINE
  5
5AA
330
18
100
AcDbEntity
  8
4
  6
CENTER
 48
0.25
100
AcDbLine
 10
411.9267480654584
 20
113.709830291737
 30
0.0
 11
407.7267480654581
 21
113.709830291737
 31
0.0
  0
LINE
  5
5AB
330
18
100
AcDbEntity
  8
1
  6
Continuous
 48
0.25
100
AcDbLine
 10
413.1298034725252
 20
109.9098302917369
 30
0.0
 11
410.5267480654582
 21
109.9098302917369
 31
0.0
  0
LINE
  5
5AC
330
18
100
AcDbEntity
  8
1
  6
Continuous
 48
0.25
100
AcDbLine
 10
414.2712312191404
 20
111.910516566566
 30
0.0
 11
413.2177674089197
 21
109.9622661677152
 31
0.0
  0
ARC
  5
5AD
330
18
100
AcDbEntity
  8
1
  6
Continuous
 48
0.25
100
AcDbCircle
 10
413.1298034725252
 20
110.009830291737
 30
0.0
 40
0.1
100
AcDbArc
 50
270.0
 51
331.5988906729523
  0
ARC
  5
5AE
330
18
100
AcDbEntity
  8
1
  6
Continuous
 48
0.25
100
AcDbCircle
 10
410.5267480654582
 20
110.009830291737
 30
0.0
 40
0.1
100
AcDbArc
 50
180.0
 51
270.0
  0
ARC
  5
5AF
330
18
100
AcDbEntity
  8
1
  6
Continuous
 48
0.25
100
AcDbCircle
 10
415.5027263286658
 20
111.2446188302616
 30
0.0
 40
1.399999999999999
100
AcDbArc
 50
45.00000000000066
 51
151.5988906729499
  0
LINE
  5
5B0
330
18
100
AcDbEntity
  8
1
  6
Continuous
 48
0.25
100
AcDbLine
 10
409.2267480654582
 20
108.709830291737
 30
0.0
 11
410.4267480654582
 21
108.709830291737
 31
0.0
  0
LINE
  5
5B1
330
18
100
AcDbEntity
  8
1
  6
Continuous
 48
0.25
100
AcDbLine
 10
410.5267480654582
 20
108.709830291737
 30
0.0
 11
413.1298034725252
 21
108.709830291737
 31
0.0
  0
ARC
  5
5B2
330
18
100
AcDbEntity
  8
1
  6
Continuous
 48
0.25
100
AcDbCircle
 10
413.1298034725252
 20
110.009830291737
 30
0.0
 40
1.3
100
AcDbArc
 50
270.0
 51
331.5988906729506
  0
LINE
  5
5B3
330
18
100
AcDbEntity
  8
1
  6
Continuous
 48
0.25
100
AcDbLine
 10
414.273334645656
 20
109.3914966794544
 30
0.0
 11
415.3267984558767
 21
111.339747078305
 31
0.0
  0
ARC
  5
5B4
330
18
100
AcDbEntity
  8
1
  6
Continuous
 48
0.25
100
AcDbCircle
 10
415.5027263286658
 20
111.2446188302616
 30
0.0
 40
0.2
100
AcDbArc
 50
44.99999999999953
 51
151.5988906729497
  0
ARC
  5
5B5
330
18
100
AcDbEntity
  8
1
  6
Continuous
 48
0.25
100
AcDbCircle
 10
410.5267480654582
 20
110.009830291737
 30
0.0
 40
1.3
100
AcDbArc
 50
265.5882742142288
 51
270.0
  0
LINE
  5
5B6
330
18
100
AcDbEntity
  8
1
  6
Continuous
 48
0.25
100
AcDbLine
 10
415.6441476849032
 20
111.386040186499
 30
0.0
 11
418.119021419056
 21
108.911166452346
 31
0.0
  0
LINE
  5
5B7
330
18
100
AcDbEntity
  8
1
  6
Continuous
 48
0.25
100
AcDbLine
 10
417.6494065002059
 20
111.0778376460437
 30
0.0
 11
416.492675822327
 21
112.2345683239229
 31
0.0
  0
LINE
  5
5B8
330
18
100
AcDbEntity
  8
1
  6
Continuous
 48
0.25
100
AcDbLine
 10
418.6143541890425
 20
109.4064992223329
 30
0.0
 11
418.1190214190559
 21
108.9111664523462
 31
0.0
  0
LINE
  5
5B9
330
18
100
AcDbEntity
  8
1
  6
Continuous
 48
0.25
100
AcDbLine
 10
417.6494065002059
 20
111.0778376460437
 30
0.0
 11
418.6143541890427
 21
109.4064992223327
 31
0.0
  0
LINE
  5
5BA
330
18
100
AcDbEntity
  8
1
  6
Continuous
 48
0.25
100
AcDbLine
 10
410.4267480654582
 20
108.709830291737
 30
0.0
 11
410.4267480654582
 21
118.709830291737
 31
0.0
  0
LINE
  5
5BB
330
18
100
AcDbEntity
  8
1
  6
Continuous
 48
0.25
100
AcDbLine
 10
409.2267480654582
 20
118.709830291737
 30
0.0
 11
410.4267480654582
 21
118.709830291737
 31
0.0
  0
LINE
  5
5BC
330
18
100
AcDbEntity
  8
1
  6
Continuous
 48
0.25
100
AcDbLine
 10
409.2267480654582
 20
108.709830291737
 30
0.0
 11
409.2267480654582
 21
118.709830291737
 31
0.0
  0
LINE
  5
60A
330
18
100
AcDbEntity
  8
4
  6
CENTER
 48
0.25
100
AcDbLine
 10
357.5173365462693
 20
120.709830291737
 30
0.0
 11
357.5173365462693
 21
106.709830291737
 31
0.0
  0
LINE
  5
60B
330
18
100
AcDbEntity
  8
1
  6
Continuous
 48
0.25
100
AcDbLine
 10
378.5173365462693
 20
110.709830291737
 30
0.0
 11
378.5173365462693
 21
116.709830291737
 31
0.0
  0
LINE
  5
60C
330
18
100
AcDbEntity
  8
1
  6
Continuous
 48
0.25
100
AcDbLine
 10
336.5173365462694
 20
110.709830291737
 30
0.0
 11
336.5173365462694
 21
116.709830291737
 31
0.0
  0
LINE
  5
60D
330
18
100
AcDbEntity
  8
1
  6
Continuous
 48
0.25
100
AcDbLine
 10
338.5173365462694
 20
118.709830291737
 30
0.0
 11
376.5173365462694
 21
118.709830291737
 31
0.0
  0
LINE
  5
60E
330
18
100
AcDbEntity
  8
1
  6
Continuous
 48
0.25
100
AcDbLine
 10
365.0173365462695
 20
108.709830291737
 30
0.0
 11
365.0173365462694
 21
109.709830291737
 31
0.0
  0
LINE
  5
60F
330
18
100
AcDbEntity
  8
1
  6
Continuous
 48
0.25
100
AcDbLine
 10
350.0173365462694
 20
108.709830291737
 30
0.0
 11
350.0173365462694
 21
109.709830291737
 31
0.0
  0
LINE
  5
612
330
18
100
AcDbEntity
  8
1
  6
Continuous
 48
0.25
100
AcDbLine
 10
367.0173365462695
 20
109.209830291737
 30
0.0
 11
367.0173365462695
 21
109.709830291737
 31
0.0
  0
LINE
  5
613
330
18
100
AcDbEntity
  8
1
  6
Continuous
 48
0.25
100
AcDbLine
 10
376.5173365462695
 20
108.709830291737
 30
0.0
 11
367.5173365462696
 21
108.709830291737
 31
0.0
  0
LINE
  5
614
330
18
100
AcDbEntity
  8
1
  6
Continuous
 48
0.25
100
AcDbLine
 10
365.0173365462695
 20
108.709830291737
 30
0.0
 11
350.0173365462694
 21
108.709830291737
 31
0.0
  0
LINE
  5
615
330
18
100
AcDbEntity
  8
1
  6
Continuous
 48
0.25
100
AcDbLine
 10
338.5173365462694
 20
108.709830291737
 30
0.0
 11
347.5173365462694
 21
108.709830291737
 31
0.0
  0
ARC
  5
616
330
18
100
AcDbEntity
  8
1
  6
Continuous
 48
0.25
100
AcDbCircle
 10
366.0173365462695
 20
109.709830291737
 30
0.0
 40
1.0
100
AcDbArc
 50
0.0
 51
180.0000000000008
  0
ARC
  5
617
330
18
100
AcDbEntity
  8
1
  6
Continuous
 48
0.25
100
AcDbCircle
 10
367.5173365462695
 20
109.209830291737
 30
0.0
 40
0.5
100
AcDbArc
 50
180.0
 51
270.0
  0
LINE
  5
618
330
18
100
AcDbEntity
  8
1
  6
Continuous
 48
0.25
100
AcDbLine
 10
348.0173365462694
 20
109.209830291737
 30
0.0
 11
348.0173365462694
 21
109.709830291737
 31
0.0
  0
ARC
  5
619
330
18
100
AcDbEntity
  8
1
  6
Continuous
 48
0.25
100
AcDbCircle
 10
349.0173365462694
 20
109.709830291737
 30
0.0
 40
1.0
100
AcDbArc
 50
359.9999999999992
 51
180.0
  0
ARC
  5
61A
330
18
100
AcDbEntity
  8
1
  6
Continuous
 48
0.25
100
AcDbCircle
 10
347.5173365462694
 20
109.209830291737
 30
0.0
 40
0.5
100
AcDbArc
 50
270.0
 51
0.0
  0
CIRCLE
  5
61B
330
18
100
AcDbEntity
  8
1
  6
Continuous
 48
0.25
100
AcDbCircle
 10
374.5173365462695
 20
113.709830291737
 30
0.0
 40
1.75
  0
CIRCLE
  5
61C
330
18
100
AcDbEntity
  8
1
  6
Continuous
 48
0.25
100
AcDbCircle
 10
340.5173365462694
 20
113.709830291737
 30
0.0
 40
1.75
  0
ARC
  5
61D
330
18
100
AcDbEntity
  8
1
  6
Continuous
 48
0.25
100
AcDbCircle
 10
338.5173365462694
 20
110.709830291737
 30
0.0
 40
2.0
100
AcDbArc
 50
180.0
 51
270.0
  0
ARC
  5
61E
330
18
100
AcDbEntity
  8
1
  6
Continuous
 48
0.25
100
AcDbCircle
 10
376.5173365462694
 20
110.709830291737
 30
0.0
 40
2.0
100
AcDbArc
 50
270.0
 51
0.0
  0
ARC
  5
61F
330
18
100
AcDbEntity
  8
1
  6
Continuous
 48
0.25
100
AcDbCircle
 10
376.5173365462694
 20
116.709830291737
 30
0.0
 40
2.0
100
AcDbArc
 50
0.0
 51
90.0
  0
ARC
  5
620
330
18
100
AcDbEntity
  8
1
  6
Continuous
 48
0.25
100
AcDbCircle
 10
338.5173365462694
 20
116.709830291737
 30
0.0
 40
2.0
100
AcDbArc
 50
90.0
 51
180.0
  0
LINE
  5
627
330
18
100
AcDbEntity
  8
4
  6
CENTER
 48
0.25
100
AcDbLine
 10
340.5173365462694
 20
116.959830291737
 30
0.0
 11
340.5173365462694
 21
110.459830291737
 31
0.0
  0
LINE
  5
628
330
18
100
AcDbEntity
  8
4
  6
CENTER
 48
0.25
100
AcDbLine
 10
374.5173365462695
 20
116.959830291737
 30
0.0
 11
374.5173365462695
 21
110.459830291737
 31
0.0
  0
LINE
  5
629
330
18
100
AcDbEntity
  8
4
  6
CENTER
 48
0.25
100
AcDbLine
 10
380.5173365462693
 20
113.709830291737
 30
0.0
 11
334.5173365462695
 21
113.709830291737
 31
0.0
  0
LINE
  5
62A
330
18
100
AcDbEntity
  8
4
  6
CENTER
 48
0.25
100
AcDbLine
 10
306.1062867278974
 20
113.709830291737
 30
0.0
 11
310.3062867278976
 21
113.709830291737
 31
0.0
  0
LINE
  5
62B
330
18
100
AcDbEntity
  8
1
  6
Continuous
 48
0.25
100
AcDbLine
 10
304.9032313208306
 20
109.9098302917369
 30
0.0
 11
307.5062867278976
 21
109.9098302917369
 31
0.0
  0
LINE
  5
62C
330
18
100
AcDbEntity
  8
1
  6
Continuous
 48
0.25
100
AcDbLine
 10
303.7618035742153
 20
111.910516566566
 30
0.0
 11
304.815267384436
 21
109.9622661677152
 31
0.0
  0
ARC
  5
62D
330
18
100
AcDbEntity
  8
1
  6
Continuous
 48
0.25
100
AcDbCircle
 10
304.9032313208306
 20
110.009830291737
 30
0.0
 40
0.1
100
AcDbArc
 50
208.4011093270474
 51
270.0
  0
ARC
  5
62E
330
18
100
AcDbEntity
  8
1
  6
Continuous
 48
0.25
100
AcDbCircle
 10
307.5062867278976
 20
110.009830291737
 30
0.0
 40
0.1
100
AcDbArc
 50
270.0
 51
0.0
  0
ARC
  5
62F
330
18
100
AcDbEntity
  8
1
  6
Continuous
 48
0.25
100
AcDbCircle
 10
302.5303084646899
 20
111.2446188302616
 30
0.0
 40
1.399999999999999
100
AcDbArc
 50
28.40110932705044
 51
134.9999999999999
  0
LINE
  5
630
330
18
100
AcDbEntity
  8
1
  6
Continuous
 48
0.25
100
AcDbLine
 10
308.8062867278976
 20
108.709830291737
 30
0.0
 11
307.6062867278976
 21
108.709830291737
 31
0.0
  0
LINE
  5
631
330
18
100
AcDbEntity
  8
1
  6
Continuous
 48
0.25
100
AcDbLine
 10
307.5062867278976
 20
108.709830291737
 30
0.0
 11
304.9032313208306
 21
108.709830291737
 31
0.0
  0
ARC
  5
632
330
18
100
AcDbEntity
  8
1
  6
Continuous
 48
0.25
100
AcDbCircle
 10
304.9032313208306
 20
110.009830291737
 30
0.0
 40
1.3
100
AcDbArc
 50
208.4011093270485
 51
270.0
  0
LINE
  5
633
330
18
100
AcDbEntity
  8
1
  6
Continuous
 48
0.25
100
AcDbLine
 10
303.7597001476998
 20
109.3914966794544
 30
0.0
 11
302.7062363374791
 21
111.339747078305
 31
0.0
  0
ARC
  5
634
330
18
100
AcDbEntity
  8
1
  6
Continuous
 48
0.25
100
AcDbCircle
 10
302.5303084646899
 20
111.2446188302616
 30
0.0
 40
0.2
100
AcDbArc
 50
28.4011093270508
 51
135.0000000000004
  0
ARC
  5
635
330
18
100
AcDbEntity
  8
1
  6
Continuous
 48
0.25
100
AcDbCircle
 10
307.5062867278976
 20
110.009830291737
 30
0.0
 40
1.3
100
AcDbArc
 50
270.0
 51
274.4117257857712
  0
LINE
  5
636
330
18
100
AcDbEntity
  8
1
  6
Continuous
 48
0.25
100
AcDbLine
 10
302.3888871084526
 20
111.386040186499
 30
0.0
 11
299.9140133742998
 21
108.911166452346
 31
0.0
  0
LINE
  5
637
330
18
100
AcDbEntity
  8
1
  6
Continuous
 48
0.25
100
AcDbLine
 10
300.3836282931498
 20
111.0778376460437
 30
0.0
 11
301.5403589710288
 21
112.2345683239229
 31
0.0
  0
LINE
  5
638
330
18
100
AcDbEntity
  8
1
  6
Continuous
 48
0.25
100
AcDbLine
 10
299.4186806043133
 20
109.4064992223329
 30
0.0
 11
299.9140133742999
 21
108.9111664523462
 31
0.0
  0
LINE
  5
639
330
18
100
AcDbEntity
  8
1
  6
Continuous
 48
0.25
100
AcDbLine
 10
300.3836282931498
 20
111.0778376460437
 30
0.0
 11
299.4186806043131
 21
109.4064992223327
 31
0.0
  0
LINE
  5
63A
330
18
100
AcDbEntity
  8
1
  6
Continuous
 48
0.25
100
AcDbLine
 10
307.6062867278976
 20
108.709830291737
 30
0.0
 11
307.6062867278976
 21
118.709830291737
 31
0.0
  0
LINE
  5
63B
330
18
100
AcDbEntity
  8
1
  6
Continuous
 48
0.25
100
AcDbLine
 10
308.8062867278976
 20
118.709830291737
 30
0.0
 11
307.6062867278976
 21
118.709830291737
 31
0.0
  0
LINE
  5
63C
330
18
100
AcDbEntity
  8
1
  6
Continuous
 48
0.25
100
AcDbLine
 10
308.8062867278976
 20
108.709830291737
 30
0.0
 11
308.8062867278976
 21
118.709830291737
 31
0.0
  0
LINE
  5
63D
330
18
100
AcDbEntity
  8
4
  6
CENTER
 48
0.25
100
AcDbLine
 10
374.5173365462694
 20
73.11718669265196
 30
0.0
 11
374.5173365462694
 21
68.91718669265197
 31
0.0
  0
LINE
  5
63E
330
18
100
AcDbEntity
  8
4
  6
CENTER
 48
0.25
100
AcDbLine
 10
340.5173365462693
 20
73.11718669265189
 30
0.0
 11
340.5173365462693
 21
68.91718669265191
 31
0.0
  0
LINE
  5
63F
330
18
100
AcDbEntity
  8
4
  6
CENTER
 48
0.25
100
AcDbLine
 10
357.5173365462693
 20
73.6171866926519
 30
0.0
 11
357.5173365462692
 21
60.22958669265193
 31
0.0
  0
LINE
  5
640
330
18
100
AcDbEntity
  8
1
  6
Continuous
 48
0.25
100
AcDbLine
 10
378.5173365462692
 20
70.41718669265197
 30
0.0
 11
378.5173365462692
 21
71.61718669265195
 31
0.0
  0
LINE
  5
641
330
18
100
AcDbEntity
  8
1
  6
Continuous
 48
0.25
100
AcDbLine
 10
336.5173365462693
 20
70.41718669265191
 30
0.0
 11
336.5173365462693
 21
71.6171866926519
 31
0.0
  0
LINE
  5
642
330
18
100
AcDbEntity
  8
1
  6
Continuous
 48
0.25
100
AcDbLine
 10
378.5173365462692
 20
71.61718669265195
 30
0.0
 11
336.5173365462693
 21
71.6171866926519
 31
0.0
  0
LINE
  5
643
330
18
100
AcDbEntity
  8
1
  6
Continuous
 48
0.25
100
AcDbLine
 10
378.5173365462692
 20
70.41718669265197
 30
0.0
 11
365.0173365462694
 21
70.41718669265195
 31
0.0
  0
LINE
  5
645
330
18
100
AcDbEntity
  8
1
  6
Continuous
 48
0.25
100
AcDbLine
 10
350.0173365462693
 20
71.61718669265191
 30
0.0
 11
350.0173365462694
 21
62.72958669265193
 31
0.0
  0
LINE
  5
646
330
18
100
AcDbEntity
  8
1
  6
Continuous
 48
0.25
100
AcDbLine
 10
365.0173365462693
 20
71.61718669265193
 30
0.0
 11
365.0173365462693
 21
62.72958669265193
 31
0.0
  0
LINE
  5
647
330
18
100
AcDbEntity
  8
1
  6
Continuous
 48
0.25
100
AcDbLine
 10
364.5173365462694
 20
62.22958669265193
 30
0.0
 11
350.5173365462693
 21
62.22958669265193
 31
0.0
  0
ARC
  5
648
330
18
100
AcDbEntity
  8
1
  6
Continuous
 48
0.25
100
AcDbCircle
 10
350.5173365462693
 20
62.72958669265193
 30
0.0
 40
0.5
100
AcDbArc
 50
180.0
 51
270.0
  0
ARC
  5
649
330
18
100
AcDbEntity
  8
1
  6
Continuous
 48
0.25
100
AcDbCircle
 10
364.5173365462694
 20
62.72958669265193
 30
0.0
 40
0.5
100
AcDbArc
 50
270.0
 51
0.0
  0
LINE
  5
64A
330
18
100
AcDbEntity
  8
1
  6
Continuous
 48
0.25
100
AcDbLine
 10
350.0173365462693
 20
70.41718669265192
 30
0.0
 11
336.5173365462693
 21
70.41718669265191
 31
0.0
  0
LINE
  5
64D
330
18
100
AcDbEntity
  8
1
  6
Continuous
 48
0.25
100
AcDbLine
 10
367.0173365462694
 20
70.41718669265195
 30
0.0
 11
367.0173365462694
 21
71.61718669265194
 31
0.0
  0
LINE
  5
64E
330
18
100
AcDbEntity
  8
1
  6
Continuous
 48
0.25
100
AcDbLine
 10
348.0173365462694
 20
70.4171866926519
 30
0.0
 11
348.0173365462694
 21
71.61718669265191
 31
0.0
  0
LINE
  5
663
330
18
100
AcDbEntity
  8
1
  6
Continuous
 48
0.25
100
AcDbLine
 10
364.5173365462694
 20
62.72491333905413
 30
0.0
 11
350.5173365462693
 21
62.72491333905413
 31
0.0
  0
ARC
  5
664
330
18
100
AcDbEntity
  8
1
  6
Continuous
 48
0.25
100
AcDbCircle
 10
350.5173365462693
 20
63.22491333905412
 30
0.0
 40
0.5
100
AcDbArc
 50
180.0
 51
270.0
  0
ARC
  5
665
330
18
100
AcDbEntity
  8
1
  6
Continuous
 48
0.25
100
AcDbCircle
 10
364.5173365462694
 20
63.22491333905412
 30
0.0
 40
0.5
100
AcDbArc
 50
270.0
 51
0.0
  0
LINE
  5
666
330
18
100
AcDbEntity
  8
1
  6
Continuous
100
AcDbLine
 10
364.5173365462694
 20
65.34120842944429
 30
0.0
 11
350.5173365462693
 21
65.34120842944429
 31
0.0
  0
LINE
  5
6AE
330
18
100
AcDbEntity
  8
4
  6
CENTER
 48
0.25
100
AcDbLine
 10
221.0580334684749
 20
108.2065821350182
 30
0.0
 11
221.0580334684749
 21
113.4065821350182
 31
0.0
  0
LINE
  5
6AF
330
18
100
AcDbEntity
  8
4
  6
CENTER
 48
0.25
100
AcDbLine
 10
255.0580334684748
 20
108.2065821350182
 30
0.0
 11
255.0580334684748
 21
113.4065821350182
 31
0.0
  0
LINE
  5
6B0
330
18
100
AcDbEntity
  8
4
  6
CENTER
 48
0.25
100
AcDbLine
 10
238.0580334684748
 20
120.5065821350182
 30
0.0
 11
238.0580334684748
 21
107.7065821350182
 31
0.0
  0
LINE
  5
6B1
330
18
100
AcDbEntity
  8
1
  6
Continuous
 48
0.25
100
AcDbLine
 10
248.6580334684748
 20
118.5065821350182
 30
0.0
 11
227.4580334684748
 21
118.5065821350182
 31
0.0
  0
LINE
  5
6B2
330
18
100
AcDbEntity
  8
1
  6
Continuous
 48
0.25
100
AcDbLine
 10
248.0580334684749
 20
117.3065821350183
 30
0.0
 11
247.5580334684748
 21
117.3065821350183
 31
0.0
  0
LINE
  5
6B3
330
18
100
AcDbEntity
  8
1
  6
Continuous
 48
0.25
100
AcDbLine
 10
225.8580334684748
 20
111.9065821350182
 30
0.0
 11
217.0580334684748
 21
111.9065821350182
 31
0.0
  0
LINE
  5
6B4
330
18
100
AcDbEntity
  8
1
  6
Continuous
 48
0.25
100
AcDbLine
 10
250.2580334684748
 20
111.9065821350182
 30
0.0
 11
259.0580334684748
 21
111.9065821350182
 31
0.0
  0
LINE
  5
6B5
330
18
100
AcDbEntity
  8
1
  6
Continuous
 48
0.25
100
AcDbLine
 10
259.0580334684749
 20
109.7065821350182
 30
0.0
 11
217.0580334684749
 21
109.7065821350182
 31
0.0
  0
LINE
  5
6B6
330
18
100
AcDbEntity
  8
1
  6
Continuous
 48
0.25
100
AcDbLine
 10
259.0580334684749
 20
110.7065821350182
 30
0.0
 11
217.0580334684749
 21
110.7065821350182
 31
0.0
  0
LINE
  5
6B7
330
18
100
AcDbEntity
  8
1
  6
Continuous
 48
0.25
100
AcDbLine
 10
225.3080334684748
 20
113.7565821350182
 30
0.0
 11
225.3080334684748
 21
116.1565821350182
 31
0.0
  0
LINE
  5
6B8
330
18
100
AcDbEntity
  8
1
  6
Continuous
 48
0.25
100
AcDbLine
 10
250.8080334684748
 20
116.1565821350182
 30
0.0
 11
250.8080334684748
 21
113.7565821350182
 31
0.0
  0
ARC
  5
6C2
330
18
100
AcDbEntity
  8
1
  6
Continuous
 48
0.25
100
AcDbCircle
 10
250.2580334684748
 20
112.1065821350183
 30
0.0
 40
0.2
100
AcDbArc
 50
180.0
 51
270.0
  0
ARC
  5
6C3
330
18
100
AcDbEntity
  8
1
  6
Continuous
 48
0.25
100
AcDbCircle
 10
225.8580334684748
 20
112.1065821350183
 30
0.0
 40
0.2
100
AcDbArc
 50
270.0
 51
0.0
  0
ARC
  5
6C4
330
18
100
AcDbEntity
  8
1
  6
Continuous
 48
0.25
100
AcDbCircle
 10
250.2580334684748
 20
112.1065821350183
 30
0.0
 40
1.399999999999999
100
AcDbArc
 50
180.0
 51
270.0
  0
ARC
  5
6C5
330
18
100
AcDbEntity
  8
1
  6
Continuous
 48
0.25
100
AcDbCircle
 10
225.8580334684748
 20
112.1065821350183
 30
0.0
 40
1.399999999999999
100
AcDbArc
 50
270.0
 51
0.0
  0
ARC
  5
6C6
330
18
100
AcDbEntity
  8
1
  6
Continuous
 48
0.25
100
AcDbCircle
 10
249.8080334684748
 20
116.1565821350182
 30
0.0
 40
1.0
100
AcDbArc
 50
0.0
 51
75.82489465970425
  0
ARC
  5
6C7
330
18
100
AcDbEntity
  8
1
  6
Continuous
 48
0.25
100
AcDbCircle
 10
249.8080334684748
 20
113.7565821350182
 30
0.0
 40
1.0
100
AcDbArc
 50
284.4775121859299
 51
0.0
  0
ARC
  5
6C8
330
18
100
AcDbEntity
  8
1
  6
Continuous
 48
0.25
100
AcDbCircle
 10
226.3080334684748
 20
113.7565821350182
 30
0.0
 40
1.0
100
AcDbArc
 50
180.0
 51
255.5224878140701
  0
ARC
  5
6C9
330
18
100
AcDbEntity
  8
1
  6
Continuous
 48
0.25
100
AcDbCircle
 10
226.3080334684748
 20
116.1565821350182
 30
0.0
 40
1.0
100
AcDbArc
 50
104.1751053402972
 51
180.0
  0
LINE
  5
6CA
330
18
100
AcDbEntity
  8
1
  6
Continuous
 48
0.25
100
AcDbLine
 10
259.0580334684748
 20
111.9065821350182
 30
0.0
 11
259.0580334684748
 21
109.7065821350183
 31
0.0
  0
LINE
  5
6CB
330
18
100
AcDbEntity
  8
1
  6
Continuous
 48
0.25
100
AcDbLine
 10
217.0580334684748
 20
109.7065821350183
 30
0.0
 11
217.0580334684748
 21
111.9065821350182
 31
0.0
  0
LINE
  5
6CC
330
18
100
AcDbEntity
  8
1
  6
Continuous
 48
0.25
100
AcDbLine
 10
228.0580334684748
 20
117.3065821350183
 30
0.0
 11
228.0580334684748
 21
117.3565821350183
 31
0.0
  0
LINE
  5
6CD
330
18
100
AcDbEntity
  8
1
  6
Continuous
 48
0.25
100
AcDbLine
 10
227.9080334684749
 20
117.5065821350182
 30
0.0
 11
227.4080334684748
 21
117.5065821350182
 31
0.0
  0
ARC
  5
6CE
330
18
100
AcDbEntity
  8
1
  6
Continuous
 48
0.25
100
AcDbCircle
 10
227.4080334684748
 20
117.3565821350183
 30
0.0
 40
0.15
100
AcDbArc
 50
90.0
 51
180.0
  0
ARC
  5
6CF
330
18
100
AcDbEntity
  8
1
  6
Continuous
 48
0.25
100
AcDbCircle
 10
227.9080334684749
 20
117.3565821350183
 30
0.0
 40
0.15
100
AcDbArc
 50
0.0
 51
90.0
  0
LINE
  5
6D0
330
18
100
AcDbEntity
  8
1
  6
Continuous
 48
0.25
100
AcDbLine
 10
248.0580334684749
 20
117.3065821350183
 30
0.0
 11
248.0580334684749
 21
117.3565821350183
 31
0.0
  0
LINE
  5
6D1
330
18
100
AcDbEntity
  8
1
  6
Continuous
 48
0.25
100
AcDbLine
 10
248.2080334684748
 20
117.5065821350182
 30
0.0
 11
248.7080334684748
 21
117.5065821350182
 31
0.0
  0
ARC
  5
6D2
330
18
100
AcDbEntity
  8
1
  6
Continuous
 48
0.25
100
AcDbCircle
 10
248.7080334684748
 20
117.3565821350183
 30
0.0
 40
0.15
100
AcDbArc
 50
0.0
 51
90.0
  0
ARC
  5
6D3
330
18
100
AcDbEntity
  8
1
  6
Continuous
 48
0.25
100
AcDbCircle
 10
248.2080334684748
 20
117.3565821350183
 30
0.0
 40
0.15
100
AcDbArc
 50
90.0
 51
180.0
  0
LINE
  5
6D4
330
18
100
AcDbEntity
  8
1
  6
Continuous
 48
0.25
100
AcDbLine
 10
248.8580334684748
 20
112.1065821350183
 30
0.0
 11
248.8580334684748
 21
117.3565821350183
 31
0.0
  0
ARC
  5
6D6
330
18
100
AcDbEntity
  8
1
  6
Continuous
 48
0.25
100
AcDbCircle
 10
248.6580334684748
 20
117.1065821350183
 30
0.0
 40
1.399999999999999
100
AcDbArc
 50
0.0
 51
90.0
  0
LINE
  5
6D7
330
18
100
AcDbEntity
  8
1
  6
Continuous
 48
0.25
100
AcDbLine
 10
250.0580334684748
 20
117.1065821350183
 30
0.0
 11
250.0580334684748
 21
112.1065821350183
 31
0.0
  0
ARC
  5
6D8
330
18
100
AcDbEntity
  8
1
  6
Continuous
 48
0.25
100
AcDbCircle
 10
227.4580334684748
 20
117.1065821350183
 30
0.0
 40
1.399999999999999
100
AcDbArc
 50
90.0
 51
180.0
  0
LINE
  5
6D9
330
18
100
AcDbEntity
  8
1
  6
Continuous
 48
0.25
100
AcDbLine
 10
226.0580334684748
 20
117.1065821350183
 30
0.0
 11
226.0580334684748
 21
112.1065821350183
 31
0.0
  0
LINE
  5
6DB
330
18
100
AcDbEntity
  8
1
  6
Continuous
 48
0.25
100
AcDbLine
 10
227.2580334684748
 20
117.3565821350183
 30
0.0
 11
227.2580334684748
 21
112.1065821350183
 31
0.0
  0
LINE
  5
76B
330
18
100
AcDbEntity
  8
1
  6
Continuous
100
AcDbLine
 10
105.2877575774897
 20
175.2918848649339
 30
0.0
 11
105.9877575774897
 21
176.5418848649338
 31
0.0
  0
LINE
  5
76C
330
18
100
AcDbEntity
  8
1
  6
Continuous
100
AcDbLine
 10
105.2877575774897
 20
175.2918848649339
 30
0.0
 11
105.2877575774897
 21
177.2918848649339
 31
0.0
  0
ARC
  5
76D
330
18
100
AcDbEntity
  8
1
  6
Continuous
100
AcDbCircle
 10
101.8247980307421
 20
175.7918848649339
 30
0.0
 40
0.5
100
AcDbArc
 50
90.0
 51
0.0
  0
LINE
  5
76F
330
18
100
AcDbEntity
  8
1
  6
Continuous
100
AcDbLine
 10
103.6343230655382
 20
175.2918848649339
 30
0.0
 11
103.6343230655382
 21
177.2918848649339
 31
0.0
  0
LINE
  5
770
330
18
100
AcDbEntity
  8
1
  6
Continuous
100
AcDbLine
 10
103.6343230655382
 20
175.2918848649339
 30
0.0
 11
103.8783218327186
 21
175.8151419097481
 31
0.0
  0
ARC
  5
771
330
18
100
AcDbEntity
  8
1
  6
Continuous
100
AcDbCircle
 10
101.8247980307421
 20
176.7918848649339
 30
0.0
 40
0.5000000000000004
100
AcDbArc
 50
0.0
 51
270.0
  0
LINE
  5
772
330
18
100
AcDbEntity
  8
1
  6
Continuous
100
AcDbLine
 10
101.8247980307421
 20
176.2918848649339
 30
0.0
 11
101.9749613496651
 21
176.2918848649339
 31
0.0
  0
LINE
  5
778
330
18
100
AcDbEntity
  8
1
  6
Continuous
100
AcDbLine
 10
105.9877575774897
 20
176.5418848649338
 30
0.0
 11
104.9877575774897
 21
176.5418848649338
 31
0.0
  0
LINE
  5
79E
330
18
100
AcDbEntity
  8
1
  6
Continuous
100
AcDbLine
 10
108.1704944655091
 20
177.2918848649339
 30
0.0
 11
109.1704944655091
 21
177.2918848649339
 31
0.0
  0
LINE
  5
79F
330
18
100
AcDbEntity
  8
1
  6
Continuous
100
AcDbLine
 10
109.1704944655091
 20
175.2918848649339
 30
0.0
 11
109.1704944655091
 21
177.2918848649339
 31
0.0
  0
LINE
  5
7A0
330
18
100
AcDbEntity
  8
1
  6
Continuous
100
AcDbLine
 10
110.3944995761073
 20
175.2918848649339
 30
0.0
 11
110.3944995761073
 21
177.2918848649339
 31
0.0
  0
LINE
  5
7A1
330
18
100
AcDbEntity
  8
1
  6
Continuous
100
AcDbLine
 10
109.7944995761073
 20
175.2918848649339
 30
0.0
 11
110.9944995761074
 21
175.2918848649339
 31
0.0
  0
LINE
  5
7A2
330
18
100
AcDbEntity
  8
1
  6
Continuous
100
AcDbLine
 10
106.7952340656415
 20
176.2918848649339
 30
0.0
 11
107.7343526101069
 21
176.2918848649339
 31
0.0
  0
LINE
  5
7BC
330
18
100
AcDbEntity
  8
1
  6
Continuous
 48
0.25
100
AcDbLine
 10
228.5580334684749
 20
118.5065821350182
 30
0.0
 11
228.5580334684748
 21
111.4065821350182
 31
0.0
  0
LINE
  5
7BD
330
18
100
AcDbEntity
  8
1
  6
Continuous
 48
0.25
100
AcDbLine
 10
247.5580334684748
 20
118.5065821350182
 30
0.0
 11
247.5580334684748
 21
111.4065821350182
 31
0.0
  0
LINE
  5
7BE
330
18
100
AcDbEntity
  8
1
  6
Continuous
 48
0.25
100
AcDbLine
 10
228.5580334684749
 20
117.3065821350183
 30
0.0
 11
228.0580334684748
 21
117.3065821350183
 31
0.0
  0
LINE
  5
7BF
330
18
100
AcDbEntity
  8
1
  6
Continuous
 48
0.25
100
AcDbLine
 10
247.0580334684748
 20
110.9065821350182
 30
0.0
 11
229.0580334684748
 21
110.9065821350182
 31
0.0
  0
ARC
  5
7C0
330
18
100
AcDbEntity
  8
1
  6
Continuous
 48
0.25
100
AcDbCircle
 10
229.0580334684748
 20
111.4065821350182
 30
0.0
 40
0.5
100
AcDbArc
 50
179.9999999999998
 51
270.0
  0
ARC
  5
7C1
330
18
100
AcDbEntity
  8
1
  6
Continuous
 48
0.25
100
AcDbCircle
 10
247.0580334684748
 20
111.4065821350182
 30
0.0
 40
0.5
100
AcDbArc
 50
270.0
 51
0.0000000000002036
  0
CIRCLE
  5
7C2
330
18
100
AcDbEntity
  8
1
  6
Continuous
100
AcDbCircle
 10
233.0580334684748
 20
114.0065821350182
 30
0.0
 40
1.5
  0
CIRCLE
  5
7C6
330
18
100
AcDbEntity
  8
1
  6
Continuous
100
AcDbCircle
 10
243.0580334684748
 20
114.0065821350182
 30
0.0
 40
1.5
  0
LINE
  5
805
330
18
100
AcDbEntity
  8
1
  6
Continuous
 48
0.25
100
AcDbLine
 10
228.3080334684748
 20
117.1565821350182
 30
0.0
 11
227.2580334684748
 21
117.1565821350182
 31
0.0
  0
LINE
  5
80A
330
18
100
AcDbEntity
  8
1
  6
Continuous
 48
0.25
100
AcDbLine
 10
247.7085366531065
 20
110.7565821350182
 30
0.0
 11
228.4080334684748
 21
110.7565821350182
 31
0.0
  0
LINE
  5
813
330
18
100
AcDbEntity
  8
1
  6
Continuous
 48
0.25
100
AcDbLine
 10
228.5580334684748
 20
111.6065821350182
 30
0.0
 11
228.4580334684748
 21
111.6065821350182
 31
0.0
  0
LINE
  5
81D
330
18
100
AcDbEntity
  8
1
  6
Continuous
 48
0.25
100
AcDbLine
 10
228.3085366531064
 20
114.6565821350182
 30
0.0
 11
228.5580334684749
 21
114.6565821350182
 31
0.0
  0
LINE
  5
81E
330
18
100
AcDbEntity
  8
1
  6
Continuous
 48
0.25
100
AcDbLine
 10
228.5580334684749
 20
112.6565821350182
 30
0.0
 11
228.3085366531064
 21
112.6565821350182
 31
0.0
  0
LINE
  5
837
330
18
100
AcDbEntity
  8
1
  6
Continuous
 48
0.25
100
AcDbLine
 10
247.5580334684749
 20
111.6065821350182
 30
0.0
 11
247.6575302838432
 21
111.6065821350182
 31
0.0
  0
LINE
  5
839
330
18
100
AcDbEntity
  8
1
  6
Continuous
 48
0.25
100
AcDbLine
 10
247.8075302838432
 20
114.6565821350182
 30
0.0
 11
247.5580334684748
 21
114.6565821350182
 31
0.0
  0
LINE
  5
83A
330
18
100
AcDbEntity
  8
1
  6
Continuous
 48
0.25
100
AcDbLine
 10
247.5580334684748
 20
112.6565821350182
 30
0.0
 11
247.8075302838432
 21
112.6565821350182
 31
0.0
  0
LINE
  5
83B
330
18
100
AcDbEntity
  8
1
  6
Continuous
 48
0.25
100
AcDbLine
 10
227.3085366531065
 20
112.7565821350182
 30
0.0
 11
227.2580334684748
 21
112.7565821350182
 31
0.0
  0
LINE
  5
83C
330
18
100
AcDbEntity
  8
1
  6
Continuous
 48
0.25
100
AcDbLine
 10
248.8075302838432
 20
112.7565821350182
 30
0.0
 11
248.8580334684749
 21
112.7565821350182
 31
0.0
  0
LINE
  5
23DC
330
18
100
AcDbEntity
  8
1
  6
Continuous
 48
0.25
100
AcDbLine
 10
227.3080334684749
 20
117.1565821350182
 30
0.0
 11
227.3080334684749
 21
111.8565821350182
 31
0.0
  0
LINE
  5
23DD
330
18
100
AcDbEntity
  8
1
  6
Continuous
 48
0.25
100
AcDbLine
 10
228.3080334684749
 20
117.1565821350182
 30
0.0
 11
228.3080334684748
 21
111.7565821350182
 31
0.0
  0
ARC
  5
23DE
330
18
100
AcDbEntity
  8
1
  6
Continuous
 48
0.25
100
AcDbCircle
 10
228.4580334684748
 20
111.7565821350182
 30
0.0
 40
0.15
100
AcDbArc
 50
180.0
 51
269.9999999999918
  0
ARC
  5
23DF
330
18
100
AcDbEntity
  8
1
  6
Continuous
 48
0.25
100
AcDbCircle
 10
228.4080334684748
 20
111.8565821350182
 30
0.0
 40
1.1
100
AcDbArc
 50
180.0
 51
270.0
  0
LINE
  5
23E0
330
18
100
AcDbEntity
  8
1
  6
Continuous
 48
0.25
100
AcDbLine
 10
247.8080334684748
 20
117.1565821350182
 30
0.0
 11
248.8580334684749
 21
117.1565821350182
 31
0.0
  0
ARC
  5
23E1
330
18
100
AcDbEntity
  8
1
  6
Continuous
 48
0.25
100
AcDbCircle
 10
247.7080334684748
 20
111.8565821350182
 30
0.0
 40
1.1
100
AcDbArc
 50
270.0
 51
0.000000000000007
  0
LINE
  5
23E2
330
18
100
AcDbEntity
  8
1
  6
Continuous
 48
0.25
100
AcDbLine
 10
248.8080334684748
 20
117.1565821350182
 30
0.0
 11
248.8080334684748
 21
111.8565821350182
 31
0.0
  0
LINE
  5
23E3
330
18
100
AcDbEntity
  8
1
  6
Continuous
 48
0.25
100
AcDbLine
 10
247.8080334684749
 20
117.1565821350182
 30
0.0
 11
247.8080334684748
 21
111.7565821350182
 31
0.0
  0
ARC
  5
23E4
330
18
100
AcDbEntity
  8
1
  6
Continuous
 48
0.25
100
AcDbCircle
 10
247.6580334684748
 20
111.7565821350182
 30
0.0
 40
0.15
100
AcDbArc
 50
270.0000000000098
 51
0.000000000000007
  0
LINE
  5
2423
330
18
100
AcDbEntity
  8
4
  6
CENTER
 48
0.25
100
AcDbLine
 10
38.8192346558908
 20
116.3402668236557
 30
0.0
 11
38.8192346558908
 21
120.5402668236556
 31
0.0
  0
LINE
  5
2424
330
18
100
AcDbEntity
  8
4
  6
CENTER
 48
0.25
100
AcDbLine
 10
48.36923465589086
 20
108.2065821350182
 30
0.0
 11
48.36923465589086
 21
113.4065821350182
 31
0.0
  0
LINE
  5
2425
330
18
100
AcDbEntity
  8
4
  6
CENTER
 48
0.25
100
AcDbLine
 10
38.36923465589086
 20
108.2065821350182
 30
0.0
 11
38.36923465589086
 21
113.4065821350182
 31
0.0
  0
LINE
  5
2426
330
18
100
AcDbEntity
  8
4
  6
CENTER
 48
0.25
100
AcDbLine
 10
28.36923465589089
 20
108.2065821350182
 30
0.0
 11
28.36923465589089
 21
113.4065821350182
 31
0.0
  0
LINE
  5
2427
330
18
100
AcDbEntity
  8
1
  6
Continuous
 48
0.25
100
AcDbLine
 10
53.36923465589086
 20
110.7065821350182
 30
0.0
 11
23.36923465589086
 21
110.7065821350182
 31
0.0
  0
LINE
  5
2428
330
18
100
AcDbEntity
  8
1
  6
Continuous
 48
0.25
100
AcDbLine
 10
24.7692346558909
 20
118.5065821350182
 30
0.0
 11
53.36923465589086
 21
118.5065821350182
 31
0.0
  0
LINE
  5
2429
330
18
100
AcDbEntity
  8
1
  6
Continuous
 48
0.25
100
AcDbLine
 10
53.36923465589086
 20
111.9065821350182
 30
0.0
 11
23.36923465589086
 21
111.9065821350182
 31
0.0
  0
LINE
  5
242A
330
18
100
AcDbEntity
  8
1
  6
Continuous
 48
0.25
100
AcDbLine
 10
53.36923465589086
 20
109.7065821350182
 30
0.0
 11
23.36923465589086
 21
109.7065821350182
 31
0.0
  0
LINE
  5
242B
330
18
100
AcDbEntity
  8
1
  6
Continuous
 48
0.25
100
AcDbLine
 10
53.36923465589086
 20
118.5065821350182
 30
0.0
 11
53.36923465589086
 21
109.7065821350182
 31
0.0
  0
LINE
  5
242C
330
18
100
AcDbEntity
  8
1
  6
Continuous
 48
0.25
100
AcDbLine
 10
23.36923465589086
 20
117.1065821350182
 30
0.0
 11
23.36923465589086
 21
109.7065821350182
 31
0.0
  0
LINE
  5
242D
330
18
100
AcDbEntity
  8
1
  6
Continuous
 48
0.25
100
AcDbLine
 10
55.86923465589075
 20
111.7565821350182
 30
0.0
 11
54.36923465589075
 21
111.7565821350182
 31
0.0
  0
LINE
  5
242E
330
18
100
AcDbEntity
  8
1
  6
Continuous
 48
0.25
100
AcDbLine
 10
55.86923465589075
 20
110.7565821350182
 30
0.0
 11
53.36923465589086
 21
110.7565821350182
 31
0.0
  0
LINE
  5
242F
330
18
100
AcDbEntity
  8
1
  6
Continuous
 48
0.25
100
AcDbLine
 10
55.86923465589075
 20
117.1565821350182
 30
0.0
 11
53.36923465589086
 21
117.1565821350182
 31
0.0
  0
LINE
  5
2430
330
18
100
AcDbEntity
  8
1
  6
Continuous
 48
0.25
100
AcDbLine
 10
55.86923465589075
 20
112.7565821350182
 30
0.0
 11
54.56923465589077
 21
112.7565821350182
 31
0.0
  0
LINE
  5
2431
330
18
100
AcDbEntity
  8
1
  6
Continuous
 48
0.25
100
AcDbLine
 10
55.86923465589075
 20
112.7565821350182
 30
0.0
 11
55.86923465589075
 21
117.1565821350182
 31
0.0
  0
LINE
  5
2432
330
18
100
AcDbEntity
  8
1
  6
Continuous
 48
0.25
100
AcDbLine
 10
54.86923465589075
 20
112.7565821350182
 30
0.0
 11
54.86923465589075
 21
117.1565821350182
 31
0.0
  0
LINE
  5
2433
330
18
100
AcDbEntity
  8
1
  6
Continuous
 48
0.25
100
AcDbLine
 10
54.36923465589075
 20
112.5565821350182
 30
0.0
 11
54.36923465589075
 21
110.7565821350182
 31
0.0
  0
LINE
  5
2434
330
18
100
AcDbEntity
  8
1
  6
Continuous
 48
0.25
100
AcDbLine
 10
25.36923465589087
 20
118.5065821350182
 30
0.0
 11
25.36923465589087
 21
116.8894248474928
 31
0.0
  0
LINE
  5
2435
330
18
100
AcDbEntity
  8
1
  6
Continuous
 48
0.25
100
AcDbLine
 10
25.31065601212828
 20
116.7480034912555
 30
0.0
 11
23.42781329965368
 21
114.8651607787808
 31
0.0
  0
LINE
  5
2436
330
18
100
AcDbEntity
  8
1
  6
Continuous
 48
0.25
100
AcDbLine
 10
24.56923465589091
 20
116.0065821350182
 30
0.0
 11
24.56923465589091
 21
117.1065821350182
 31
0.0
  0
ARC
  5
2437
330
18
100
AcDbEntity
  8
1
  6
Continuous
 48
0.25
100
AcDbCircle
 10
54.56923465589077
 20
112.5565821350182
 30
0.0
 40
0.2
100
AcDbArc
 50
90.0
 51
180.0
  0
LINE
  5
2438
330
18
100
AcDbEntity
  8
1
  6
Continuous
 48
0.25
100
AcDbLine
 10
55.86923465589075
 20
111.7565821350182
 30
0.0
 11
55.86923465589075
 21
110.7565821350182
 31
0.0
  0
ARC
  5
2439
330
18
100
AcDbEntity
  8
1
  6
Continuous
 48
0.25
100
AcDbCircle
 10
24.7692346558909
 20
117.1065821350182
 30
0.0
 40
0.2
100
AcDbArc
 50
90.0
 51
180.0
  0
ARC
  5
243A
330
18
100
AcDbEntity
  8
1
  6
Continuous
 48
0.25
100
AcDbCircle
 10
24.7692346558909
 20
117.1065821350182
 30
0.0
 40
1.399999999999999
100
AcDbArc
 50
90.0
 51
180.0
  0
ARC
  5
243B
330
18
100
AcDbEntity
  8
1
  6
Continuous
 48
0.25
100
AcDbCircle
 10
25.16923465589087
 20
116.8894248474928
 30
0.0
 40
0.2
100
AcDbArc
 50
315.0000000000045
 51
0.000000000000007
  0
ARC
  5
243C
330
18
100
AcDbEntity
  8
1
  6
Continuous
 48
0.25
100
AcDbCircle
 10
23.56923465589091
 20
114.7237394225436
 30
0.0
 40
0.2
100
AcDbArc
 50
135.0000000000045
 51
180.0
  0
LINE
  5
243D
330
18
100
AcDbEntity
  8
1
  6
Continuous
 48
0.25
100
AcDbLine
 10
24.7692346558909
 20
117.3065821350182
 30
0.0
 11
25.36923465589087
 21
117.3065821350182
 31
0.0
  0
LINE
  5
243E
330
18
100
AcDbEntity
  8
5
  6
PHANTOM
 48
0.1
100
AcDbLine
 10
61.86923465589075
 20
112.7565821350182
 30
0.0
 11
60.56923465589076
 21
112.7565821350182
 31
0.0
  0
LINE
  5
243F
330
18
100
AcDbEntity
  8
5
  6
PHANTOM
 48
0.1
100
AcDbLine
 10
61.86923465589075
 20
112.7565821350182
 30
0.0
 11
61.86923465589075
 21
117.1565821350182
 31
0.0
  0
LINE
  5
2440
330
18
100
AcDbEntity
  8
5
  6
PHANTOM
 48
0.1
100
AcDbLine
 10
60.86923465589075
 20
112.7565821350182
 30
0.0
 11
60.86923465589075
 21
117.1565821350182
 31
0.0
  0
LINE
  5
2441
330
18
100
AcDbEntity
  8
5
  6
PHANTOM
 48
0.1
100
AcDbLine
 10
60.36923465589075
 20
112.5565821350182
 30
0.0
 11
60.36923465589075
 21
110.7565821350182
 31
0.0
  0
ARC
  5
2442
330
18
100
AcDbEntity
  8
5
  6
PHANTOM
 48
0.1
100
AcDbCircle
 10
60.56923465589076
 20
112.5565821350182
 30
0.0
 40
0.2
100
AcDbArc
 50
90.0
 51
180.0
  0
LINE
  5
2443
330
18
100
AcDbEntity
  8
5
  6
PHANTOM
 48
0.1
100
AcDbLine
 10
61.86923465589075
 20
111.7565821350182
 30
0.0
 11
61.86923465589075
 21
110.7565821350182
 31
0.0
  0
LINE
  5
2444
330
18
100
AcDbEntity
  8
5
  6
PHANTOM
 48
0.1
100
AcDbLine
 10
60.36923465589072
 20
111.7565821350182
 30
0.0
 11
61.86923465589075
 21
111.7565821350182
 31
0.0
  0
LINE
  5
2445
330
18
100
AcDbEntity
  8
5
  6
PHANTOM
 48
0.1
100
AcDbLine
 10
55.86923465589075
 20
110.7565821350182
 30
0.0
 11
61.86923465589075
 21
110.7565821350182
 31
0.0
  0
LINE
  5
2446
330
18
100
AcDbEntity
  8
5
  6
PHANTOM
 48
0.1
100
AcDbLine
 10
55.86923465589075
 20
117.1565821350182
 30
0.0
 11
61.86923465589075
 21
117.1565821350182
 31
0.0
  0
ARC
  5
2447
330
18
100
AcDbEntity
  8
5
  6
PHANTOM
 48
0.1
100
AcDbCircle
 10
58.53395932425527
 20
117.721800022225
 30
0.0
 40
0.1000000000000001
100
AcDbArc
 50
228.5245439798154
 51
349.4015042090989
  0
LINE
  5
2448
330
18
100
AcDbEntity
  8
5
  6
PHANTOM
 48
0.1
100
AcDbLine
 10
55.85661151638766
 20
118.8886460858514
 30
0.0
 11
53.36923465589098
 21
117.2953622893272
 31
0.0
  0
LINE
  5
2449
330
18
100
AcDbEntity
  8
5
  6
PHANTOM
 48
0.1
100
AcDbLine
 10
56.38497194672928
 20
118.056325865558
 30
0.0
 11
53.35164733441985
 21
116.1133364331381
 31
0.0
  0
LINE
  5
244A
330
18
100
AcDbEntity
  8
5
  6
PHANTOM
 48
0.1
100
AcDbLine
 10
58.46772940877281
 20
117.6468760721479
 30
0.0
 11
57.17845958061596
 21
118.7865414483734
 31
0.0
  0
LINE
  5
244B
330
18
100
AcDbEntity
  8
5
  6
PHANTOM
 48
0.1
100
AcDbLine
 10
57.8054302539471
 20
116.8976365713758
 30
0.0
 11
56.50513995256824
 21
118.0470436257872
 31
0.0
  0
ARC
  5
244C
330
18
100
AcDbEntity
  8
5
  6
PHANTOM
 48
0.1
100
AcDbCircle
 10
58.53395932425517
 20
117.721800022225
 30
0.0
 40
1.1
100
AcDbArc
 50
228.5245439798248
 51
349.4015042090953
  0
ARC
  5
244D
330
18
100
AcDbEntity
  8
5
  6
PHANTOM
 48
0.1
100
AcDbCircle
 10
56.44993051030763
 20
117.9623779975241
 30
0.0
 40
1.1
100
AcDbArc
 50
48.52454397982432
 51
122.6415042090988
  0
ARC
  5
244E
330
18
100
AcDbEntity
  8
5
  6
PHANTOM
 48
0.1
100
AcDbCircle
 10
56.43891003708566
 20
117.97211967571
 30
0.0
 40
0.1
100
AcDbArc
 50
48.52454397982443
 51
122.641504209095
  0
ARC
  5
244F
330
18
100
AcDbEntity
  8
5
  6
PHANTOM
 48
0.1
100
AcDbCircle
 10
58.96824026500815
 20
119.49903938187
 30
0.0
 40
1.0
100
AcDbArc
 50
349.4017404690456
 51
34.40174046904513
  0
LINE
  5
2450
330
18
100
AcDbEntity
  8
5
  6
PHANTOM
 48
0.1
100
AcDbLine
 10
59.79333660095085
 20
120.0640314494372
 30
0.0
 11
59.55930922393136
 21
120.405797542049
 31
0.0
  0
LINE
  5
2451
330
18
100
AcDbEntity
  8
5
  6
PHANTOM
 48
0.1
100
AcDbLine
 10
59.55930922393128
 20
120.405797542049
 30
0.0
 11
59.15216175699185
 21
120.4819803184406
 31
0.0
  0
LINE
  5
2452
330
18
100
AcDbEntity
  8
5
  6
PHANTOM
 48
0.1
100
AcDbLine
 10
59.95118120157878
 20
119.3151178898861
 30
0.0
 11
59.61519435448287
 21
117.5194863810429
 31
0.0
  0
LINE
  5
2453
330
18
100
AcDbEntity
  8
5
  6
PHANTOM
 48
0.1
100
AcDbLine
 10
59.15216175699217
 20
120.4819803184406
 30
0.0
 11
58.63225341791246
 21
117.7034078730267
 31
0.0
  0
ENDSEC
  0
SECTION
  2
OBJECTS
  0
DICTIONARY
  5
C
330
0
100
AcDbDictionary
281
     1
  3
ACAD_CIP_PREVIOUS_PRODUCT_INFO
350
E7
  3
ACAD_COLOR
350
C6
  3
ACAD_DETAILVIEWSTYLE
350
DF
  3
ACAD_GROUP
350
D
  3
ACAD_LAYOUT
350
E1
  3
ACAD_MATERIAL
350
94
  3
ACAD_MLEADERSTYLE
350
DB
  3
ACAD_MLINESTYLE
350
1B
  3
ACAD_PLOTSETTINGS
350
E2
  3
ACAD_PLOTSTYLENAME
350
92
  3
ACAD_SCALELIST
350
C9
  3
ACAD_SECTIONVIEWSTYLE
350
DD
  3
ACAD_TABLESTYLE
350
C7
  3
ACAD_VISUALSTYLE
350
AD
  3
ACDB_RECOMPOSE_DATA
350
284F
  3
AcDbVariableDictionary
350
F0
  3
CONTENTDICTIONARY
350
3D
  3
DWGPROPS
350
2850
  0
DICTIONARY
  5
1FB5
330
8
100
AcDbDictionary
280
     1
281
     1
  0
DICTIONARY
  5
472
330
E
100
AcDbDictionary
280
     1
281
     1
  3
ADSK_XREC_LAYER_RECONCILED
360
473
  0
DICTIONARY
  5
476
330
4E
100
AcDbDictionary
280
     1
281
     1
  3
ADSK_XREC_LAYER_RECONCILED
360
477
  0
DICTIONARY
  5
478
330
4F
100
AcDbDictionary
280
     1
281
     1
  3
ADSK_XREC_LAYER_RECONCILED
360
479
  0
DICTIONARY
  5
47A
330
50
100
AcDbDictionary
280
     1
281
     1
  3
ADSK_XREC_LAYER_RECONCILED
360
47B
  0
DICTIONARY
  5
47C
330
51
100
AcDbDictionary
280
     1
281
     1
  3
ADSK_XREC_LAYER_RECONCILED
360
47D
  0
DICTIONARY
  5
47E
330
52
100
AcDbDictionary
280
     1
281
     1
  3
ADSK_XREC_LAYER_RECONCILED
360
47F
  0
DICTIONARY
  5
480
330
53
100
AcDbDictionary
280
     1
281
     1
  3
ADSK_XREC_LAYER_RECONCILED
360
481
  0
DICTIONARY
  5
482
330
54
100
AcDbDictionary
280
     1
281
     1
  3
ADSK_XREC_LAYER_RECONCILED
360
483
  0
DICTIONARY
  5
64B
330
18
100
AcDbDictionary
280
     1
281
     1
  3
ACAD_SORTENTS
360
64C
  0
XRECORD
  5
E7
102
{ACAD_REACTORS
330
C
102
}
330
C
100
AcDbXrecord
280
     1
300
ACDLT
300
2014
300
ACDLT_F_S
  0
DICTIONARY
  5
C6
102
{ACAD_REACTORS
330
C
102
}
330
C
100
AcDbDictionary
281
     1
  0
DICTIONARY
  5
DF
102
{ACAD_REACTORS
330
C
102
}
330
C
100
AcDbDictionary
281
     1
  3
Metric50
350
E0
  0
DICTIONARY
  5
D
102
{ACAD_REACTORS
330
C
102
}
330
C
100
AcDbDictionary
281
     1
  0
DICTIONARY
  5
E1
102
{ACAD_REACTORS
330
C
102
}
330
C
100
AcDbDictionary
281
     1
  3
Model
350
E3
  3
レイアウト1
350
E4
  0
DICTIONARY
  5
94
102
{ACAD_REACTORS
330
C
102
}
330
C
100
AcDbDictionary
281
     1
  3
ByBlock
350
9D
  3
ByLayer
350
95
  3
Global
350
A5
  0
DICTIONARY
  5
DB
102
{ACAD_REACTORS
330
C
102
}
330
C
100
AcDbDictionary
281
     1
  3
Standard
350
DC
  0
DICTIONARY
  5
1B
102
{ACAD_REACTORS
330
C
102
}
330
C
100
AcDbDictionary
281
     1
  3
STANDARD
350
1C
  0
DICTIONARY
  5
E2
102
{ACAD_REACTORS
330
C
102
}
330
C
100
AcDbDictionary
281
     1
  0
ACDBDICTIONARYWDFLT
  5
92
102
{ACAD_REACTORS
330
C
102
}
330
C
100
AcDbDictionary
281
     1
  3
Normal
350
93
100
AcDbDictionaryWithDefault
340
93
  0
DICTIONARY
  5
C9
102
{ACAD_REACTORS
330
C
102
}
330
C
100
AcDbDictionary
281
     1
  3
A0
350
CA
  3
A1
350
CB
  3
A2
350
CC
  3
A3
350
CD
  3
A4
350
CE
  3
A5
350
CF
  3
A6
350
D0
  3
A7
350
D1
  3
A8
350
D2
  3
A9
350
D3
  3
B0
350
D4
  3
B1
350
D5
  3
B2
350
D6
  3
B3
350
D7
  3
B4
350
D8
  3
B5
350
D9
  3
B6
350
DA
  0
DICTIONARY
  5
DD
102
{ACAD_REACTORS
330
C
102
}
330
C
100
AcDbDictionary
281
     1
  3
Metric50
350
DE
  0
DICTIONARY
  5
C7
102
{ACAD_REACTORS
330
C
102
}
330
C
100
AcDbDictionary
281
     1
  3
Standard
350
C8
  0
DICTIONARY
  5
AD
102
{ACAD_REACTORS
330
C
102
}
330
C
100
AcDbDictionary
281
     1
  3
2dWireframe
350
B3
  3
Basic
350
B2
  3
Brighten
350
B9
  3
ColorChange
350
BD
  3
Conceptual
350
B6
  3
Dim
350
B8
  3
EdgeColorOff
350
C5
  3
Facepattern
350
BC
  3
Flat
350
AE
  3
FlatWithEdges
350
AF
  3
Gouraud
350
B0
  3
GouraudWithEdges
350
B1
  3
Hidden
350
B5
  3
JitterOff
350
C3
  3
Linepattern
350
BB
  3
OverhangOff
350
C4
  3
Realistic
350
B7
  3
Shaded
350
C2
  3
Shaded with edges
350
C1
  3
Shades of Gray
350
BE
  3
Sketchy
350
BF
  3
Thicken
350
BA
  3
Wireframe
350
B4
  3
X-Ray
350
C0
  0
XRECORD
  5
284F
102
{ACAD_REACTORS
330
C
102
}
330
C
100
AcDbXrecord
280
     1
 90
        1
330
C8
  0
DICTIONARY
  5
F0
102
{ACAD_REACTORS
330
C
102
}
330
C
100
AcDbDictionary
281
     1
  3
CANNOSCALE
350
F6
  3
CMLEADERSTYLE
350
F2
  3
CTABLESTYLE
350
F1
  3
CVIEWDETAILSTYLE
350
F3
  3
CVIEWSECTIONSTYLE
350
F4
  3
DIMASSOC
350
1FFE
  3
INDEXCTL
350
1FFD
  3
LAYEREVAL
350
F8
  3
LAYERNOTIFY
350
F9
  3
LIGHTINGUNITS
350
F7
  3
MSLTSCALE
350
F5
  3
SORTENTS
350
1FFC
  3
XCLIPFRAME
350
284D
  0
DICTIONARY
  5
3D
102
{ACAD_REACTORS
330
C
102
}
330
C
100
AcDbDictionary
281
     1
  0
XRECORD
  5
2850
102
{ACAD_REACTORS
330
C
102
}
330
C
100
AcDbXrecord
280
     1
  1
DWGPROPS COOKIE
  2

  3

  4

  6

  7

  8
Yoshitsune
  9

300
=
301
=
302
=
303
=
304
=
305
=
306
=
307
=
308
=
309
=
 40
0.2965134027777778
 41
2457366.444791725
 42
2457381.442228368
  1

 90
        0
  0
XRECORD
  5
473
102
{ACAD_REACTORS
330
472
102
}
330
472
100
AcDbXrecord
280
     1
290
     1
  0
XRECORD
  5
477
102
{ACAD_REACTORS
330
476
102
}
330
476
100
AcDbXrecord
280
     1
290
     1
  0
XRECORD
  5
479
102
{ACAD_REACTORS
330
478
102
}
330
478
100
AcDbXrecord
280
     1
290
     1
  0
XRECORD
  5
47B
102
{ACAD_REACTORS
330
47A
102
}
330
47A
100
AcDbXrecord
280
     1
290
     1
  0
XRECORD
  5
47D
102
{ACAD_REACTORS
330
47C
102
}
330
47C
100
AcDbXrecord
280
     1
290
     1
  0
XRECORD
  5
47F
102
{ACAD_REACTORS
330
47E
102
}
330
47E
100
AcDbXrecord
280
     1
290
     1
  0
XRECORD
  5
481
102
{ACAD_REACTORS
330
480
102
}
330
480
100
AcDbXrecord
280
     1
290
     1
  0
XRECORD
  5
483
102
{ACAD_REACTORS
330
482
102
}
330
482
100
AcDbXrecord
280
     1
290
     1
  0
SORTENTSTABLE
  5
64C
102
{ACAD_REACTORS
330
64B
102
}
330
64B
100
AcDbSortentsTable
330
18
331
6CE
  5
6CF
331
5BC
  5
5BC
331
63F
  5
63F
331
5B8
  5
5B8
331
6CA
  5
6CB
331
41E
  5
41E
331
39C
  5
39C
331
63B
  5
63B
331
6C6
  5
6C7
331
5B4
  5
5B4
331
3DF
  5
3DF
331
41A
  5
41A
331
398
  5
398
331
5B0
  5
5B0
331
6C2
  5
6C3
331
7A1
  5
7A2
331
3DB
  5
3DB
331
45D
  5
45D
331
326
  5
326
331
416
  5
416
331
394
  5
394
331
2E7
  5
2E7
331
322
  5
322
331
412
  5
412
331
390
  5
390
331
35D
  5
35D
331
31E
  5
31E
331
2E3
  5
2E3
331
359
  5
359
331
31A
  5
31A
331
637
  5
637
331
633
  5
633
331
5AC
  5
5AC
331
3D7
  5
3D7
331
62F
  5
62F
331
3D3
  5
3D3
331
455
  5
455
331
23DF
  5
813
331
40E
  5
40E
331
38C
  5
38C
331
62B
  5
62B
331
6B6
  5
6B7
331
451
  5
451
331
2DF
  5
2DF
331
40A
  5
40A
331
388
  5
388
331
3CF
  5
3CF
331
6B2
  5
6B2
331
44D
  5
44D
331
316
  5
316
331
355
  5
355
331
2DB
  5
2DB
331
406
  5
406
331
384
  5
384
331
449
  5
449
331
2D7
  5
2D7
331
312
  5
312
331
351
  5
351
331
402
  5
402
331
380
  5
380
331
34D
  5
34D
331
30E
  5
30E
331
349
  5
349
331
30A
  5
30A
331
627
  5
627
331
6AE
  5
6AE
331
771
  5
772
331
61F
  5
61F
331
445
  5
445
331
3FE
  5
3FE
331
37C
  5
37C
331
76D
  5
76F
331
666
  5
666
331
61B
  5
61B
331
441
  5
441
331
3FA
  5
3FA
331
378
  5
378
331
3B7
  5
3B7
331
43D
  5
43D
331
345
  5
345
331
306
  5
306
331
3F6
  5
3F6
331
374
  5
374
331
3B3
  5
3B3
331
439
  5
439
331
341
  5
341
331
302
  5
302
331
3F2
  5
3F2
331
370
  5
370
331
33D
  5
33D
331
2FE
  5
2FE
331
339
  5
339
331
2FA
  5
2FA
331
6C
  5
6C
331
68
  5
68
331
617
  5
617
331
613
  5
613
331
46C
  5
46C
331
64E
  5
64E
331
3AF
  5
3AF
331
468
  5
468
331
6D9
  5
6DB
331
64A
  5
644
331
60F
  5
60F
331
3EE
  5
3EE
331
42D
  5
42D
331
36C
  5
36C
331
3AB
  5
3AB
331
464
  5
464
331
646
  5
647
331
60B
  5
60B
331
3EA
  5
3EA
331
429
  5
429
331
3A7
  5
3A7
331
460
  5
460
331
642
  5
642
331
6D1
  5
6D2
331
7C0
  5
7C1
331
335
  5
335
331
2F6
  5
2F6
331
3E6
  5
3E6
331
425
  5
425
331
364
  5
364
331
3A3
  5
3A3
331
421
  5
421
331
83B
  5
83C
331
7BC
  5
7BD
331
331
  5
331
331
2F2
  5
2F2
331
3E2
  5
3E2
331
360
  5
360
331
32D
  5
32D
331
2EE
  5
2EE
331
329
  5
329
331
2EA
  5
2EA
331
64
  5
64
331
39F
  5
39F
331
6CD
  5
6CE
331
5BB
  5
5BB
331
63E
  5
63E
331
41D
  5
41D
331
39B
  5
39B
331
837
  5
838
331
6C9
  5
6CA
331
5B7
  5
5B7
331
63A
  5
63A
331
3DE
  5
3DE
331
419
  5
419
331
397
  5
397
331
6C5
  5
6C6
331
5B3
  5
5B3
331
3DA
  5
3DA
331
45C
  5
45C
331
415
  5
415
331
393
  5
393
331
325
  5
325
331
7A0
  5
7A1
331
411
  5
411
331
2E6
  5
2E6
331
321
  5
321
331
2E2
  5
2E2
331
31D
  5
31D
331
35C
  5
35C
331
319
  5
319
331
358
  5
358
331
636
  5
636
331
5AF
  5
5AF
331
632
  5
632
331
3D6
  5
3D6
331
38F
  5
38F
331
5AB
  5
5AB
331
3D2
  5
3D2
331
454
  5
454
331
40D
  5
40D
331
38B
  5
38B
331
23DE
  5
23DF
331
62E
  5
62E
331
62A
  5
62A
331
450
  5
450
331
409
  5
409
331
387
  5
387
331
3CE
  5
3CE
331
2DE
  5
2DE
331
6B5
  5
6B6
331
778
  5
79E
331
44C
  5
44C
331
405
  5
405
331
383
  5
383
331
2DA
  5
2DA
331
315
  5
315
331
354
  5
354
331
6B1
  5
6B1
331
448
  5
448
331
401
  5
401
331
813
  5
81D
331
2D6
  5
2D6
331
311
  5
311
331
350
  5
350
331
34C
  5
34C
331
30D
  5
30D
331
348
  5
348
331
309
  5
309
331
37F
  5
37F
331
444
  5
444
331
3FD
  5
3FD
331
37B
  5
37B
331
770
  5
771
331
61E
  5
61E
331
61A
  5
61A
331
440
  5
440
331
3F9
  5
3F9
331
377
  5
377
331
3B6
  5
3B6
331
665
  5
665
331
76C
  5
76D
331
43C
  5
43C
331
3F5
  5
3F5
331
373
  5
373
331
3B2
  5
3B2
331
344
  5
344
331
305
  5
305
331
438
  5
438
331
3F1
  5
3F1
331
340
  5
340
331
301
  5
301
331
33C
  5
33C
331
2FD
  5
2FD
331
338
  5
338
331
2F9
  5
2F9
331
6B
  5
6B
331
616
  5
616
331
612
  5
612
331
46B
  5
46B
331
36F
  5
36F
331
3AE
  5
3AE
331
64D
  5
64D
331
60E
  5
60E
331
6D8
  5
6D9
331
3ED
  5
3ED
331
42C
  5
42C
331
36B
  5
36B
331
3AA
  5
3AA
331
649
  5
64A
331
467
  5
467
331
60A
  5
60A
331
463
  5
463
331
3E9
  5
3E9
331
428
  5
428
331
367
  5
367
331
3A6
  5
3A6
331
645
  5
646
331
6D4
  5
6D5
331
3E5
  5
3E5
331
424
  5
424
331
363
  5
363
331
3A2
  5
3A2
331
7BF
  5
7C0
331
334
  5
334
331
2F5
  5
2F5
331
641
  5
641
331
6D0
  5
6D1
331
420
  5
420
331
3E1
  5
3E1
331
83A
  5
83B
331
2F1
  5
2F1
331
330
  5
330
331
32C
  5
32C
331
2ED
  5
2ED
331
328
  5
328
331
2E9
  5
2E9
331
67
  5
67
331
63
  5
63
331
39E
  5
39E
331
6CC
  5
6CD
331
5BA
  5
5BA
331
63D
  5
63D
331
41C
  5
41C
331
39A
  5
39A
331
6C8
  5
6C9
331
5B6
  5
5B6
331
639
  5
639
331
3DD
  5
3DD
331
45F
  5
45F
331
418
  5
418
331
396
  5
396
331
6C4
  5
6C5
331
5B2
  5
5B2
331
3D9
  5
3D9
331
45B
  5
45B
331
414
  5
414
331
392
  5
392
331
324
  5
324
331
410
  5
410
331
2E5
  5
2E5
331
320
  5
320
331
35F
  5
35F
331
2E1
  5
2E1
331
31C
  5
31C
331
35B
  5
35B
331
318
  5
318
331
635
  5
635
331
79F
  5
7A0
331
5AE
  5
5AE
331
631
  5
631
331
3D5
  5
3D5
331
38E
  5
38E
331
5AA
  5
5AA
331
62D
  5
62D
331
3D1
  5
3D1
331
453
  5
453
331
40C
  5
40C
331
38A
  5
38A
331
23DD
  5
23DE
331
81E
  5
833
331
6B8
  5
6BD
331
3CD
  5
3CD
331
386
  5
386
331
408
  5
408
331
44F
  5
44F
331
2DD
  5
2DD
331
357
  5
357
331
6B4
  5
6B5
331
629
  5
629
331
382
  5
382
331
404
  5
404
331
44B
  5
44B
331
2D9
  5
2D9
331
353
  5
353
331
6B0
  5
6B0
331
400
  5
400
331
34F
  5
34F
331
310
  5
310
331
34B
  5
34B
331
30C
  5
30C
331
308
  5
308
331
37E
  5
37E
331
447
  5
447
331
61D
  5
61D
331
3B9
  5
3B9
331
37A
  5
37A
331
443
  5
443
331
3FC
  5
3FC
331
76F
  5
770
331
619
  5
619
331
76B
  5
76C
331
3B5
  5
3B5
331
376
  5
376
331
43F
  5
43F
331
3F8
  5
3F8
331
80A
  5
80A
331
347
  5
347
331
664
  5
664
331
3B1
  5
3B1
331
372
  5
372
331
43B
  5
43B
331
3F4
  5
3F4
331
343
  5
343
331
304
  5
304
331
3F0
  5
3F0
331
33F
  5
33F
331
300
  5
300
331
33B
  5
33B
331
2FC
  5
2FC
331
2F8
  5
2F8
331
6A
  5
6A
331
615
  5
615
331
46A
  5
46A
331
3AD
  5
3AD
331
36E
  5
36E
331
42F
  5
42F
331
6DB
  5
6DE
331
60D
  5
60D
331
466
  5
466
331
3A9
  5
3A9
331
36A
  5
36A
331
3EC
  5
3EC
331
42B
  5
42B
331
7C6
  5
7C6
331
648
  5
649
331
6D7
  5
6D8
331
462
  5
462
331
3A5
  5
3A5
331
366
  5
366
331
3E8
  5
3E8
331
427
  5
427
331
7C2
  5
7C2
331
337
  5
337
331
6D3
  5
6D4
331
3A1
  5
3A1
331
362
  5
362
331
3E4
  5
3E4
331
423
  5
423
331
7BE
  5
6B3
331
333
  5
333
331
2F4
  5
2F4
331
640
  5
640
331
3E0
  5
3E0
331
839
  5
83A
331
32F
  5
32F
331
2F0
  5
2F0
331
32B
  5
32B
331
2EC
  5
2EC
331
2E8
  5
2E8
331
66
  5
66
331
6CF
  5
6D0
331
39D
  5
39D
331
41F
  5
41F
331
6CB
  5
6CC
331
5B9
  5
5B9
331
63C
  5
63C
331
399
  5
399
331
41B
  5
41B
331
6C7
  5
6C8
331
5B5
  5
5B5
331
638
  5
638
331
5B1
  5
5B1
331
45E
  5
45E
331
417
  5
417
331
395
  5
395
331
3DC
  5
3DC
331
327
  5
327
331
6C3
  5
6C4
331
7A2
  5
7BC
331
391
  5
391
331
413
  5
413
331
3D8
  5
3D8
331
323
  5
323
331
2E4
  5
2E4
331
31F
  5
31F
331
35E
  5
35E
331
2E0
  5
2E0
331
31B
  5
31B
331
35A
  5
35A
331
5AD
  5
5AD
331
79E
  5
79F
331
634
  5
634
331
40F
  5
40F
331
456
  5
456
331
38D
  5
38D
331
3D4
  5
3D4
331
630
  5
630
331
62C
  5
62C
331
40B
  5
40B
331
452
  5
452
331
389
  5
389
331
3D0
  5
3D0
331
81D
  5
81E
331
23DC
  5
23DD
331
6B7
  5
6B8
331
628
  5
628
331
44E
  5
44E
331
407
  5
407
331
385
  5
385
331
6B3
  5
6B4
331
317
  5
317
331
356
  5
356
331
2DC
  5
2DC
331
44A
  5
44A
331
403
  5
403
331
381
  5
381
331
2D8
  5
2D8
331
313
  5
313
331
352
  5
352
331
30F
  5
30F
331
34E
  5
34E
331
30B
  5
30B
331
34A
  5
34A
331
6AF
  5
6AF
331
620
  5
620
331
446
  5
446
331
3FF
  5
3FF
331
37D
  5
37D
331
772
  5
778
331
442
  5
442
331
3FB
  5
3FB
331
379
  5
379
331
3B8
  5
3B8
331
61C
  5
61C
331
618
  5
618
331
43E
  5
43E
331
3F7
  5
3F7
331
375
  5
375
331
3B4
  5
3B4
331
663
  5
663
331
307
  5
307
331
346
  5
346
331
43A
  5
43A
331
3F3
  5
3F3
331
371
  5
371
331
3B0
  5
3B0
331
805
  5
805
331
303
  5
303
331
342
  5
342
331
2FF
  5
2FF
331
33E
  5
33E
331
2FB
  5
2FB
331
33A
  5
33A
331
69
  5
69
331
614
  5
614
331
46D
  5
46D
331
3EF
  5
3EF
331
42E
  5
42E
331
36D
  5
36D
331
3AC
  5
3AC
331
469
  5
469
331
60C
  5
60C
331
465
  5
465
331
6D6
  5
6D7
331
3EB
  5
3EB
331
42A
  5
42A
331
369
  5
369
331
3A8
  5
3A8
331
647
  5
648
331
461
  5
461
331
3E7
  5
3E7
331
426
  5
426
331
365
  5
365
331
3A4
  5
3A4
331
7C1
  5
7BF
331
643
  5
643
331
2F7
  5
2F7
331
336
  5
336
331
6D2
  5
6D3
331
3E3
  5
3E3
331
422
  5
422
331
361
  5
361
331
3A0
  5
3A0
331
83C
  5
959
331
7BD
  5
7BE
331
2F3
  5
2F3
331
332
  5
332
331
2EF
  5
2EF
331
32E
  5
32E
331
2EB
  5
2EB
331
32A
  5
32A
331
65
  5
65
  0
ACDBDETAILVIEWSTYLE
  5
E0
102
{ACAD_XDICTIONARY
360
2889
102
}
102
{ACAD_REACTORS
330
DF
102
}
330
DF
100
AcDbModelDocViewStyle
 70
     0
  3
Metric50
290
     0
100
AcDbDetailViewStyle
 70
     0
 71
     0
 90
        3
 71
     1
340
F
 40
5.0
340
0
 40
5.0
300

 40
0.0
280
     1
 71
     2
340
14
 90
       25
 71
     3
340
F
 40
5.0
 90
        0
 40
15.0
 90
        1
300
%<\AcVar ViewDetailId>% (%<\AcVar ViewScale \f "%sn">%)
 71
     4
340
14
 90
       25
340
14
 90
       25
280
     0
  0
LAYOUT
  5
E3
102
{ACAD_XDICTIONARY
360
288B
102
}
102
{ACAD_REACTORS
330
E1
102
}
330
E1
100
AcDbPlotSettings
  1

  2
Canon LBP9100C
  4
A4
  6

 40
5.789083003997802
 41
5.7890625
 42
5.789077758789062
 43
5.789093017578125
 44
209.9733276367187
 45
296.9259948730469
 46
0.0
 47
0.0
 48
0.0
 49
0.0
140
0.0
141
0.0
142
1.0
143
1.387779914137312
 70
 11952
 72
     1
 73
     1
 74
     2
  7
std_栃木屋様.ctb
 75
     0
147
0.7205753519077494
148
-0.0000015376081137
149
0.0000001931532552
100
AcDbLayout
  1
Model
 70
     1
 71
     0
 10
0.0
 20
0.0
 11
12.0
 21
9.0
 12
0.0
 22
0.0
 32
0.0
 14
0.0
 24
0.0
 34
0.0
 15
0.0
 25
0.0
 35
0.0
146
0.0
 13
0.0
 23
0.0
 33
0.0
 16
1.0
 26
0.0
 36
0.0
 17
0.0
 27
1.0
 37
0.0
 76
     0
330
18
331
90
1001
ACAD_PSEXT
1000
Canon LBP9100C
1000
Canon LBP9100C
1000
USB001
1000

1070
     0
  0
LAYOUT
  5
E4
102
{ACAD_XDICTIONARY
360
288D
102
}
102
{ACAD_REACTORS
330
E1
102
}
330
E1
100
AcDbPlotSettings
  1

  2
Canon LBP9100C
  4

  6

 40
0.0
 41
0.0
 42
0.0
 43
0.0
 44
0.0
 45
0.0
 46
0.0
 47
0.0
 48
0.0
 49
0.0
140
0.0
141
0.0
142
1.0
143
1.0
 70
   688
 72
     0
 73
     0
 74
     5
  7
std_栃木屋様.ctb
 75
    16
147
1.0
148
0.0
149
0.0
100
AcDbLayout
  1
レイアウト1
 70
     1
 71
     1
 10
0.0
 20
0.0
 11
420.0
 21
297.0
 12
0.0
 22
0.0
 32
0.0
 14
1.000000000000000E+20
 24
1.000000000000000E+20
 34
1.000000000000000E+20
 15
-1.000000000000000E+20
 25
-1.000000000000000E+20
 35
-1.000000000000000E+20
146
0.0
 13
0.0
 23
0.0
 33
0.0
 16
1.0
 26
0.0
 36
0.0
 17
0.0
 27
1.0
 37
0.0
 76
     0
330
15
  0
MATERIAL
  5
9D
102
{ACAD_XDICTIONARY
360
9E
102
}
102
{ACAD_REACTORS
330
94
102
}
330
94
100
AcDbMaterial
  1
ByBlock
 72
     0
 43
0.0208333333333333
 43
0.0
 43
0.0
 43
0.0
 43
0.0
 43
0.0208333333333333
 43
0.0
 43
0.0
 43
0.0
 43
0.0
 43
1.0
 43
0.0
 43
0.0
 43
0.0
 43
0.0
 43
1.0
 77
     0
 47
0.0208333333333333
 47
0.0
 47
0.0
 47
0.0
 47
0.0
 47
0.0208333333333333
 47
0.0
 47
0.0
 47
0.0
 47
0.0
 47
1.0
 47
0.0
 47
0.0
 47
0.0
 47
0.0
 47
1.0
171
     0
 49
0.0208333333333333
 49
0.0
 49
0.0
 49
0.0
 49
0.0
 49
0.0208333333333333
 49
0.0
 49
0.0
 49
0.0
 49
0.0
 49
1.0
 49
0.0
 49
0.0
 49
0.0
 49
0.0
 49
1.0
175
     0
142
0.0208333333333333
142
0.0
142
0.0
142
0.0
142
0.0
142
0.0208333333333333
142
0.0
142
0.0
142
0.0
142
0.0
142
1.0
142
0.0
142
0.0
142
0.0
142
0.0
142
1.0
179
     0
144
0.0208333333333333
144
0.0
144
0.0
144
0.0
144
0.0
144
0.0208333333333333
144
0.0
144
0.0
144
0.0
144
0.0
144
1.0
144
0.0
144
0.0
144
0.0
144
0.0
144
1.0
147
0.0208333333333333
147
0.0
147
0.0
147
0.0
147
0.0
147
0.0208333333333333
147
0.0
147
0.0
147
0.0
147
0.0
147
1.0
147
0.0
147
0.0
147
0.0
147
0.0
147
1.0
  0
MATERIAL
  5
95
102
{ACAD_XDICTIONARY
360
96
102
}
102
{ACAD_REACTORS
330
94
102
}
330
94
100
AcDbMaterial
  1
ByLayer
 72
     0
 43
0.0208333333333333
 43
0.0
 43
0.0
 43
0.0
 43
0.0
 43
0.0208333333333333
 43
0.0
 43
0.0
 43
0.0
 43
0.0
 43
1.0
 43
0.0
 43
0.0
 43
0.0
 43
0.0
 43
1.0
 77
     0
 47
0.0208333333333333
 47
0.0
 47
0.0
 47
0.0
 47
0.0
 47
0.0208333333333333
 47
0.0
 47
0.0
 47
0.0
 47
0.0
 47
1.0
 47
0.0
 47
0.0
 47
0.0
 47
0.0
 47
1.0
171
     0
 49
0.0208333333333333
 49
0.0
 49
0.0
 49
0.0
 49
0.0
 49
0.0208333333333333
 49
0.0
 49
0.0
 49
0.0
 49
0.0
 49
1.0
 49
0.0
 49
0.0
 49
0.0
 49
0.0
 49
1.0
175
     0
142
0.0208333333333333
142
0.0
142
0.0
142
0.0
142
0.0
142
0.0208333333333333
142
0.0
142
0.0
142
0.0
142
0.0
142
1.0
142
0.0
142
0.0
142
0.0
142
0.0
142
1.0
179
     0
144
0.0208333333333333
144
0.0
144
0.0
144
0.0
144
0.0
144
0.0208333333333333
144
0.0
144
0.0
144
0.0
144
0.0
144
1.0
144
0.0
144
0.0
144
0.0
144
0.0
144
1.0
147
0.0208333333333333
147
0.0
147
0.0
147
0.0
147
0.0
147
0.0208333333333333
147
0.0
147
0.0
147
0.0
147
0.0
147
1.0
147
0.0
147
0.0
147
0.0
147
0.0
147
1.0
  0
MATERIAL
  5
A5
102
{ACAD_XDICTIONARY
360
A6
102
}
102
{ACAD_REACTORS
330
94
102
}
330
94
100
AcDbMaterial
  1
Global
 72
     0
 43
0.0208333333333333
 43
0.0
 43
0.0
 43
0.0
 43
0.0
 43
0.0208333333333333
 43
0.0
 43
0.0
 43
0.0
 43
0.0
 43
1.0
 43
0.0
 43
0.0
 43
0.0
 43
0.0
 43
1.0
 77
     0
 47
0.0208333333333333
 47
0.0
 47
0.0
 47
0.0
 47
0.0
 47
0.0208333333333333
 47
0.0
 47
0.0
 47
0.0
 47
0.0
 47
1.0
 47
0.0
 47
0.0
 47
0.0
 47
0.0
 47
1.0
171
     0
 49
0.0208333333333333
 49
0.0
 49
0.0
 49
0.0
 49
0.0
 49
0.0208333333333333
 49
0.0
 49
0.0
 49
0.0
 49
0.0
 49
1.0
 49
0.0
 49
0.0
 49
0.0
 49
0.0
 49
1.0
175
     0
142
0.0208333333333333
142
0.0
142
0.0
142
0.0
142
0.0
142
0.0208333333333333
142
0.0
142
0.0
142
0.0
142
0.0
142
1.0
142
0.0
142
0.0
142
0.0
142
0.0
142
1.0
179
     0
144
0.0208333333333333
144
0.0
144
0.0
144
0.0
144
0.0
144
0.0208333333333333
144
0.0
144
0.0
144
0.0
144
0.0
144
1.0
144
0.0
144
0.0
144
0.0
144
0.0
144
1.0
147
0.0208333333333333
147
0.0
147
0.0
147
0.0
147
0.0
147
0.0208333333333333
147
0.0
147
0.0
147
0.0
147
0.0
147
1.0
147
0.0
147
0.0
147
0.0
147
0.0
147
1.0
  0
MLEADERSTYLE
  5
DC
102
{ACAD_XDICTIONARY
360
2885
102
}
102
{ACAD_REACTORS
330
DB
102
}
330
DB
100
AcDbMLeaderStyle
170
     2
171
     1
172
     0
 90
        2
 40
0.0
 41
0.0
173
     1
 91
-1056964608
340
12
 92
       -2
290
     1
 42
2.0
291
     1
 43
0.36
  3
Standard
 44
4.0
300

342
F
174
     1
178
     6
175
     1
176
     0
 93
-1056964608
 45
4.0
292
     0
297
     0
 46
4.0
 94
-1056964608
 47
1.0
 49
1.0
140
1.0
293
     1
141
0.0
294
     1
177
     0
142
1.0
295
     0
296
     0
143
0.125
1001
ACAD_MLEADERVER
1070
     2
  0
MLINESTYLE
  5
1C
102
{ACAD_REACTORS
330
1B
102
}
330
1B
100
AcDbMlineStyle
  2
STANDARD
 70
     0
  3

 62
   256
 51
90.0
 52
90.0
 71
     2
 49
0.5
 62
   256
  6
BYLAYER
 49
-0.5
 62
   256
  6
BYLAYER
  0
ACDBPLACEHOLDER
  5
93
102
{ACAD_REACTORS
330
92
102
}
330
92
  0
SCALE
  5
CA
102
{ACAD_REACTORS
330
C9
102
}
330
C9
100
AcDbScale
 70
     0
300
1:1
140
1.0
141
1.0
290
     1
  0
SCALE
  5
CB
102
{ACAD_REACTORS
330
C9
102
}
330
C9
100
AcDbScale
 70
     0
300
1:2
140
1.0
141
2.0
290
     0
  0
SCALE
  5
CC
102
{ACAD_REACTORS
330
C9
102
}
330
C9
100
AcDbScale
 70
     0
300
1:4
140
1.0
141
4.0
290
     0
  0
SCALE
  5
CD
102
{ACAD_REACTORS
330
C9
102
}
330
C9
100
AcDbScale
 70
     0
300
1:5
140
1.0
141
5.0
290
     0
  0
SCALE
  5
CE
102
{ACAD_REACTORS
330
C9
102
}
330
C9
100
AcDbScale
 70
     0
300
1:8
140
1.0
141
8.0
290
     0
  0
SCALE
  5
CF
102
{ACAD_REACTORS
330
C9
102
}
330
C9
100
AcDbScale
 70
     0
300
1:10
140
1.0
141
10.0
290
     0
  0
SCALE
  5
D0
102
{ACAD_REACTORS
330
C9
102
}
330
C9
100
AcDbScale
 70
     0
300
1:16
140
1.0
141
16.0
290
     0
  0
SCALE
  5
D1
102
{ACAD_REACTORS
330
C9
102
}
330
C9
100
AcDbScale
 70
     0
300
1:20
140
1.0
141
20.0
290
     0
  0
SCALE
  5
D2
102
{ACAD_REACTORS
330
C9
102
}
330
C9
100
AcDbScale
 70
     0
300
1:30
140
1.0
141
30.0
290
     0
  0
SCALE
  5
D3
102
{ACAD_REACTORS
330
C9
102
}
330
C9
100
AcDbScale
 70
     0
300
1:40
140
1.0
141
40.0
290
     0
  0
SCALE
  5
D4
102
{ACAD_REACTORS
330
C9
102
}
330
C9
100
AcDbScale
 70
     0
300
1:50
140
1.0
141
50.0
290
     0
  0
SCALE
  5
D5
102
{ACAD_REACTORS
330
C9
102
}
330
C9
100
AcDbScale
 70
     0
300
1:100
140
1.0
141
100.0
290
     0
  0
SCALE
  5
D6
102
{ACAD_REACTORS
330
C9
102
}
330
C9
100
AcDbScale
 70
     0
300
2:1
140
2.0
141
1.0
290
     0
  0
SCALE
  5
D7
102
{ACAD_REACTORS
330
C9
102
}
330
C9
100
AcDbScale
 70
     0
300
4:1
140
4.0
141
1.0
290
     0
  0
SCALE
  5
D8
102
{ACAD_REACTORS
330
C9
102
}
330
C9
100
AcDbScale
 70
     0
300
8:1
140
8.0
141
1.0
290
     0
  0
SCALE
  5
D9
102
{ACAD_REACTORS
330
C9
102
}
330
C9
100
AcDbScale
 70
     0
300
10:1
140
10.0
141
1.0
290
     0
  0
SCALE
  5
DA
102
{ACAD_REACTORS
330
C9
102
}
330
C9
100
AcDbScale
 70
     0
300
100:1
140
100.0
141
1.0
290
     0
  0
ACDBSECTIONVIEWSTYLE
  5
DE
102
{ACAD_XDICTIONARY
360
2887
102
}
102
{ACAD_REACTORS
330
DD
102
}
330
DD
100
AcDbModelDocViewStyle
 70
     0
  3
Metric50
290
     0
100
AcDbSectionViewStyle
 70
     0
 71
     0
 90
      102
 71
     1
340
F
 40
5.0
340
0
340
0
 40
5.0
300
I, O, Q, S, X, Z
 40
10.0
 90
        0
 40
2.5
 90
        0
 71
     2
340
14
 90
       25
340
14
 90
       50
 40
5.0
 40
2.5
 40
5.0
 71
     3
340
F
 40
5.0
 90
        0
 40
15.0
 90
        1
300
%<\AcVar ViewSectionStartId>%-%<\AcVar ViewSectionEndId>% (%<\AcVar ViewScale \f "%sn">%)
 71
     4
300
ANSI31
 40
1.0
 90
        0
290
     0
290
     0
 90
        6
 40
0.0
 40
1.570796326794896
 40
0.2617993877991494
 40
1.308996938995747
 40
-0.2617993877991494
 40
1.832595714594046
  0
TABLESTYLE
  5
C8
102
{ACAD_XDICTIONARY
360
1FB1
102
}
102
{ACAD_REACTORS
330
C7
102
}
330
C7
100
AcDbTableStyle
  3
Standard
 70
     0
 71
     0
 40
1.5
 41
1.5
280
     0
281
     0
  7
STANDARD
140
4.5
170
     2
 62
     0
 63
     7
283
     0
274
    -2
284
     1
 64
     0
275
    -2
285
     1
 65
     0
276
    -2
286
     1
 66
     0
277
    -2
287
     1
 67
     0
278
    -2
288
     1
 68
     0
279
    -2
289
     1
 69
     0
  7
STANDARD
140
6.0
170
     5
 62
     0
 63
     7
283
     0
274
    -2
284
     1
 64
     0
275
    -2
285
     1
 65
     0
276
    -2
286
     1
 66
     0
277
    -2
287
     1
 67
     0
278
    -2
288
     1
 68
     0
279
    -2
289
     1
 69
     0
  7
STANDARD
140
4.5
170
     5
 62
     0
 63
     7
283
     0
274
    -2
284
     1
 64
     0
275
    -2
285
     1
 65
     0
276
    -2
286
     1
 66
     0
277
    -2
287
     1
 67
     0
278
    -2
288
     1
 68
     0
279
    -2
289
     1
 69
     0
  0
VISUALSTYLE
  5
B3
102
{ACAD_XDICTIONARY
360
285E
102
}
102
{ACAD_REACTORS
330
AD
102
}
330
AD
100
AcDbVisualStyle
  2
2dWireframe
 70
     4
 71
     0
 72
     2
 73
     0
 90
        0
 40
-0.6
 41
-30.0
 62
     5
 63
     7
 74
     1
 91
        4
 64
     7
 65
   257
 75
     1
175
     1
 42
1.0
 92
        0
 66
   257
 43
1.0
 76
     1
 77
     6
 78
     2
 67
     7
 79
     5
170
     0
171
     0
290
     0
174
     0
 93
        1
 44
0.0
173
     0
291
     0
 45
0.0
1001
ACAD
1000
AcDbSavedByObjectVersion
1070
     0
  0
VISUALSTYLE
  5
B2
102
{ACAD_XDICTIONARY
360
285C
102
}
102
{ACAD_REACTORS
330
AD
102
}
330
AD
100
AcDbVisualStyle
  2
Basic
 70
     7
 71
     1
 72
     0
 73
     1
 90
        0
 40
-0.6
 41
-30.0
 62
     5
 63
     7
 74
     0
 91
        4
 64
     7
 65
   257
 75
     1
175
     1
 42
1.0
 92
        8
 66
     7
 43
1.0
 76
     1
 77
     6
 78
     2
 67
     7
 79
     5
170
     0
171
     0
290
     0
174
     0
 93
        1
 44
0.0
173
     0
291
     1
 45
0.0
1001
ACAD
1000
AcDbSavedByObjectVersion
1070
     0
  0
VISUALSTYLE
  5
B9
102
{ACAD_XDICTIONARY
360
286A
102
}
102
{ACAD_REACTORS
330
AD
102
}
330
AD
100
AcDbVisualStyle
  2
Brighten
 70
    12
 71
     2
 72
     2
 73
     0
 90
        0
 40
-0.6
 41
-30.0
 62
     5
 63
     7
 74
     1
 91
        4
 64
     7
 65
   257
 75
     1
175
     1
 42
1.0
 92
        8
 66
     7
 43
1.0
 76
     1
 77
     6
 78
     2
 67
     7
 79
     5
170
     0
171
     0
290
     0
174
     0
 93
        1
 44
50.0
173
     0
291
     1
 45
0.0
1001
ACAD
1000
AcDbSavedByObjectVersion
1070
     0
  0
VISUALSTYLE
  5
BD
102
{ACAD_XDICTIONARY
360
2872
102
}
102
{ACAD_REACTORS
330
AD
102
}
330
AD
100
AcDbVisualStyle
  2
ColorChange
 70
    16
 71
     2
 72
     2
 73
     3
 90
        0
 40
-0.6
 41
-30.0
 62
     5
 63
     8
 74
     1
 91
        4
 64
     7
 65
   257
 75
     1
175
     1
 42
1.0
 92
        8
 66
     8
 43
1.0
 76
     1
 77
     6
 78
     2
 67
     7
 79
     5
170
     0
171
     0
290
     0
174
     0
 93
        1
 44
0.0
173
     0
291
     1
 45
0.0
1001
ACAD
1000
AcDbSavedByObjectVersion
1070
     0
  0
VISUALSTYLE
  5
B6
102
{ACAD_XDICTIONARY
360
2864
102
}
102
{ACAD_REACTORS
330
AD
102
}
330
AD
100
AcDbVisualStyle
  2
Conceptual
 70
     9
 71
     3
 72
     2
 73
     0
 90
        0
 40
-0.6
 41
-30.0
 62
     5
 63
     7
 74
     2
 91
        2
 64
     7
 65
   257
 75
     1
175
     1
 42
179.0
 92
        8
 66
     7
 43
1.0
 76
     1
 77
     6
 78
     2
 67
     7
 79
     3
170
     0
171
     0
290
     0
174
     0
 93
        1
 44
0.0
173
     0
291
     0
 45
0.0
1001
ACAD
1000
AcDbSavedByObjectVersion
1070
     0
  0
VISUALSTYLE
  5
B8
102
{ACAD_XDICTIONARY
360
2868
102
}
102
{ACAD_REACTORS
330
AD
102
}
330
AD
100
AcDbVisualStyle
  2
Dim
 70
    11
 71
     2
 72
     2
 73
     0
 90
        0
 40
-0.6
 41
-30.0
 62
     5
 63
     7
 74
     1
 91
        4
 64
     7
 65
   257
 75
     1
175
     1
 42
1.0
 92
        8
 66
     7
 43
1.0
 76
     1
 77
     6
 78
     2
 67
     7
 79
     5
170
     0
171
     0
290
     0
174
     0
 93
        1
 44
-50.0
173
     0
291
     1
 45
0.0
1001
ACAD
1000
AcDbSavedByObjectVersion
1070
     0
  0
VISUALSTYLE
  5
C5
102
{ACAD_XDICTIONARY
360
2882
102
}
102
{ACAD_REACTORS
330
AD
102
}
330
AD
100
AcDbVisualStyle
  2
EdgeColorOff
 70
    22
 71
     2
 72
     2
 73
     0
 90
        0
 40
-0.6
 41
-30.0
 62
     5
 63
     7
 74
     1
 91
        4
 64
     7
 65
   257
 75
     1
175
     1
 42
1.0
 92
        8
 66
     7
 43
1.0
 76
     1
 77
     6
 78
     2
 67
     7
 79
     5
170
     0
171
     0
290
     0
174
     0
 93
        1
 44
0.0
173
     0
291
     1
 45
0.0
1001
ACAD
1000
AcDbSavedByObjectVersion
1070
     0
  0
VISUALSTYLE
  5
BC
102
{ACAD_XDICTIONARY
360
2870
102
}
102
{ACAD_REACTORS
330
AD
102
}
330
AD
100
AcDbVisualStyle
  2
Facepattern
 70
    15
 71
     2
 72
     2
 73
     0
 90
        0
 40
-0.6
 41
-30.0
 62
     5
 63
     7
 74
     1
 91
        4
 64
     7
 65
   257
 75
     1
175
     1
 42
1.0
 92
        8
 66
     7
 43
1.0
 76
     1
 77
     6
 78
     2
 67
     7
 79
     5
170
     0
171
     0
290
     0
174
     0
 93
        1
 44
0.0
173
     0
291
     1
 45
0.0
1001
ACAD
1000
AcDbSavedByObjectVersion
1070
     0
  0
VISUALSTYLE
  5
AE
102
{ACAD_XDICTIONARY
360
2854
102
}
102
{ACAD_REACTORS
330
AD
102
}
330
AD
100
AcDbVisualStyle
  2
Flat
 70
     0
 71
     2
 72
     1
 73
     1
 90
        2
 40
-0.6
 41
30.0
 62
     5
 63
     7
 74
     0
 91
        0
 64
     7
 65
   257
 75
     1
175
     1
 42
1.0
 92
        8
 66
     7
 43
1.0
 76
     1
 77
     6
 78
     2
 67
     7
 79
     5
170
     0
171
     0
290
     0
174
     0
 93
       13
 44
0.0
173
     0
291
     1
 45
0.0
1001
ACAD
1000
AcDbSavedByObjectVersion
1070
     0
  0
VISUALSTYLE
  5
AF
102
{ACAD_XDICTIONARY
360
2856
102
}
102
{ACAD_REACTORS
330
AD
102
}
330
AD
100
AcDbVisualStyle
  2
FlatWithEdges
 70
     1
 71
     2
 72
     1
 73
     1
 90
        2
 40
-0.6
 41
30.0
 62
     5
 63
     7
 74
     1
 91
        0
 64
     7
 65
   257
 75
     1
175
     1
 42
1.0
 92
        0
 66
   257
 43
1.0
 76
     1
 77
     6
 78
     2
 67
     7
 79
     5
170
     0
171
     0
290
     0
174
     0
 93
       13
 44
0.0
173
     0
291
     1
 45
0.0
1001
ACAD
1000
AcDbSavedByObjectVersion
1070
     0
  0
VISUALSTYLE
  5
B0
102
{ACAD_XDICTIONARY
360
2858
102
}
102
{ACAD_REACTORS
330
AD
102
}
330
AD
100
AcDbVisualStyle
  2
Gouraud
 70
     2
 71
     2
 72
     2
 73
     1
 90
        2
 40
-0.6
 41
30.0
 62
     5
 63
     7
 74
     0
 91
        0
 64
     7
 65
   257
 75
     1
175
     1
 42
1.0
 92
        0
 66
     7
 43
1.0
 76
     1
 77
     6
 78
     2
 67
     7
 79
     5
170
     0
171
     0
290
     0
174
     0
 93
       13
 44
0.0
173
     0
291
     1
 45
0.0
1001
ACAD
1000
AcDbSavedByObjectVersion
1070
     0
  0
VISUALSTYLE
  5
B1
102
{ACAD_XDICTIONARY
360
285A
102
}
102
{ACAD_REACTORS
330
AD
102
}
330
AD
100
AcDbVisualStyle
  2
GouraudWithEdges
 70
     3
 71
     2
 72
     2
 73
     1
 90
        2
 40
-0.6
 41
30.0
 62
     5
 63
     7
 74
     1
 91
        0
 64
     7
 65
   257
 75
     1
175
     1
 42
1.0
 92
        0
 66
   257
 43
1.0
 76
     1
 77
     6
 78
     2
 67
     7
 79
     5
170
     0
171
     0
290
     0
174
     0
 93
       13
 44
0.0
173
     0
291
     1
 45
0.0
1001
ACAD
1000
AcDbSavedByObjectVersion
1070
     0
  0
VISUALSTYLE
  5
B5
102
{ACAD_XDICTIONARY
360
2862
102
}
102
{ACAD_REACTORS
330
AD
102
}
330
AD
100
AcDbVisualStyle
  2
Hidden
 70
     6
 71
     1
 72
     2
 73
     2
 90
        0
 40
-0.6
 41
-30.0
 62
     5
 63
     7
 74
     2
 91
        2
 64
     7
 65
   257
 75
     2
175
     1
 42
40.0
 92
        0
 66
   257
 43
1.0
 76
     1
 77
     6
 78
     2
 67
     7
 79
     3
170
     0
171
     0
290
     0
174
     0
 93
        1
 44
0.0
173
     0
291
     0
 45
0.0
1001
ACAD
1000
AcDbSavedByObjectVersion
1070
     0
  0
VISUALSTYLE
  5
C3
102
{ACAD_XDICTIONARY
360
287E
102
}
102
{ACAD_REACTORS
330
AD
102
}
330
AD
100
AcDbVisualStyle
  2
JitterOff
 70
    20
 71
     2
 72
     2
 73
     0
 90
        0
 40
-0.6
 41
-30.0
 62
     5
 63
     7
 74
     1
 91
        4
 64
     7
 65
   257
 75
     1
175
     1
 42
1.0
 92
       10
 66
     7
 43
1.0
 76
     1
 77
     6
 78
     2
 67
     7
 79
     5
170
     0
171
     0
290
     0
174
     0
 93
        1
 44
0.0
173
     0
291
     1
 45
0.0
1001
ACAD
1000
AcDbSavedByObjectVersion
1070
     0
  0
VISUALSTYLE
  5
BB
102
{ACAD_XDICTIONARY
360
286E
102
}
102
{ACAD_REACTORS
330
AD
102
}
330
AD
100
AcDbVisualStyle
  2
Linepattern
 70
    14
 71
     2
 72
     2
 73
     0
 90
        0
 40
-0.6
 41
-30.0
 62
     5
 63
     7
 74
     1
 91
        4
 64
     7
 65
   257
 75
     7
175
     7
 42
1.0
 92
        8
 66
     7
 43
1.0
 76
     1
 77
     6
 78
     2
 67
     7
 79
     5
170
     0
171
     0
290
     0
174
     0
 93
        1
 44
0.0
173
     0
291
     1
 45
0.0
1001
ACAD
1000
AcDbSavedByObjectVersion
1070
     0
  0
VISUALSTYLE
  5
C4
102
{ACAD_XDICTIONARY
360
2880
102
}
102
{ACAD_REACTORS
330
AD
102
}
330
AD
100
AcDbVisualStyle
  2
OverhangOff
 70
    21
 71
     2
 72
     2
 73
     0
 90
        0
 40
-0.6
 41
-30.0
 62
     5
 63
     7
 74
     1
 91
        4
 64
     7
 65
   257
 75
     1
175
     1
 42
1.0
 92
        9
 66
     7
 43
1.0
 76
     1
 77
     6
 78
     2
 67
     7
 79
     5
170
     0
171
     0
290
     0
174
     0
 93
        1
 44
0.0
173
     0
291
     1
 45
0.0
1001
ACAD
1000
AcDbSavedByObjectVersion
1070
     0
  0
VISUALSTYLE
  5
B7
102
{ACAD_XDICTIONARY
360
2866
102
}
102
{ACAD_REACTORS
330
AD
102
}
330
AD
100
AcDbVisualStyle
  2
Realistic
 70
     8
 71
     2
 72
     2
 73
     0
 90
        2
 40
-0.6
 41
30.0
 62
     5
 63
     7
 74
     0
 91
        0
 64
     7
 65
   257
 75
     1
175
     1
 42
1.0
 92
        8
 66
   257
 43
1.0
 76
     1
 77
     6
 78
     2
 67
     7
 79
     3
170
     0
171
     0
290
     0
174
     0
 93
       13
 44
0.0
173
     0
291
     0
 45
0.0
1001
ACAD
1000
AcDbSavedByObjectVersion
1070
     0
  0
VISUALSTYLE
  5
C2
102
{ACAD_XDICTIONARY
360
287C
102
}
102
{ACAD_REACTORS
330
AD
102
}
330
AD
100
AcDbVisualStyle
  2
Shaded
 70
    27
 71
     2
 72
     2
 73
     1
 90
        2
 40
-0.6
 41
30.0
 62
     5
 63
     7
 74
     0
 91
        4
 64
     7
 65
   257
 75
     1
175
     1
 42
1.0
 92
        8
 66
   257
 43
1.0
 76
     1
 77
     6
 78
     2
 67
     8
 79
     3
170
     0
171
     0
290
     0
174
     0
 93
        5
 44
0.0
173
     0
291
     0
 45
0.0
1001
ACAD
1000
AcDbSavedByObjectVersion
1070
     0
  0
VISUALSTYLE
  5
C1
102
{ACAD_XDICTIONARY
360
287A
102
}
102
{ACAD_REACTORS
330
AD
102
}
330
AD
100
AcDbVisualStyle
  2
Shaded with edges
 70
    26
 71
     2
 72
     2
 73
     1
 90
        2
 40
-0.6
 41
30.0
 62
     5
 63
     7
 74
     1
 91
       10
 64
     7
 65
   257
 75
     2
175
     1
 42
1.0
 92
        8
 66
   257
 43
1.0
 76
     1
 77
     6
 78
     2
 67
     7
 79
     3
170
     0
171
     0
290
     0
174
     0
 93
        5
 44
0.0
173
     0
291
     0
 45
0.0
1001
ACAD
1000
AcDbSavedByObjectVersion
1070
     0
  0
VISUALSTYLE
  5
BE
102
{ACAD_XDICTIONARY
360
2874
102
}
102
{ACAD_REACTORS
330
AD
102
}
330
AD
100
AcDbVisualStyle
  2
Shades of Gray
 70
    23
 71
     2
 72
     2
 73
     3
 90
        0
 40
-0.6
 41
-30.0
 62
     5
 63
     7
 74
     2
 91
        2
 64
     7
 65
     7
 75
     1
175
     1
 42
40.0
 92
        8
 66
     7
 43
1.0
 76
     1
 77
     6
 78
     2
 67
     7
 79
     3
170
     0
171
     0
290
     0
174
     0
 93
        1
 44
0.0
173
     0
291
     0
 45
0.0
1001
ACAD
1000
AcDbSavedByObjectVersion
1070
     0
  0
VISUALSTYLE
  5
BF
102
{ACAD_XDICTIONARY
360
2876
102
}
102
{ACAD_REACTORS
330
AD
102
}
330
AD
100
AcDbVisualStyle
  2
Sketchy
 70
    24
 71
     1
 72
     2
 73
     2
 90
        0
 40
-0.6
 41
-30.0
 62
     5
 63
     7
 74
     2
 91
        2
 64
     7
 65
     7
 75
     1
175
     1
 42
40.0
 92
       11
 66
     7
 43
1.0
 76
     1
 77
     6
 78
     2
 67
     7
 79
     6
170
     0
171
     0
290
     0
174
     0
 93
        1
 44
0.0
173
     0
291
     0
 45
0.0
1001
ACAD
1000
AcDbSavedByObjectVersion
1070
     0
  0
VISUALSTYLE
  5
BA
102
{ACAD_XDICTIONARY
360
286C
102
}
102
{ACAD_REACTORS
330
AD
102
}
330
AD
100
AcDbVisualStyle
  2
Thicken
 70
    13
 71
     2
 72
     2
 73
     0
 90
        0
 40
-0.6
 41
-30.0
 62
     5
 63
     7
 74
     1
 91
        4
 64
     7
 65
   257
 75
     1
175
     1
 42
1.0
 92
       12
 66
     7
 43
1.0
 76
     1
 77
     6
 78
     2
 67
     7
 79
     5
170
     0
171
     0
290
     0
174
     0
 93
        1
 44
0.0
173
     0
291
     1
 45
0.0
1001
ACAD
1000
AcDbSavedByObjectVersion
1070
     0
  0
VISUALSTYLE
  5
B4
102
{ACAD_XDICTIONARY
360
2860
102
}
102
{ACAD_REACTORS
330
AD
102
}
330
AD
100
AcDbVisualStyle
  2
Wireframe
 70
     5
 71
     0
 72
     2
 73
     0
 90
        0
 40
-0.6
 41
-30.0
 62
     5
 63
     7
 74
     1
 91
        4
 64
     7
 65
   257
 75
     1
175
     1
 42
1.0
 92
        0
 66
   257
 43
1.0
 76
     1
 77
     6
 78
     2
 67
     7
 79
     3
170
     0
171
     0
290
     0
174
     0
 93
        1
 44
0.0
173
     0
291
     0
 45
0.0
1001
ACAD
1000
AcDbSavedByObjectVersion
1070
     0
  0
VISUALSTYLE
  5
C0
102
{ACAD_XDICTIONARY
360
2878
102
}
102
{ACAD_REACTORS
330
AD
102
}
330
AD
100
AcDbVisualStyle
  2
X-Ray
 70
    25
 71
     2
 72
     2
 73
     1
 90
        1
 40
0.5
 41
-30.0
 62
     5
 63
     7
 74
     1
 91
        0
 64
     7
 65
   257
 75
     1
175
     1
 42
1.0
 92
        8
 66
     7
 43
1.0
 76
     1
 77
     6
 78
     2
 67
     7
 79
     3
170
     0
171
     0
290
     0
174
     0
 93
       13
 44
0.0
173
     0
291
     0
 45
0.0
1001
ACAD
1000
AcDbSavedByObjectVersion
1070
     0
  0
DICTIONARYVAR
  5
F6
102
{ACAD_REACTORS
330
F0
102
}
330
F0
100
DictionaryVariables
280
     0
  1
1:1
  0
DICTIONARYVAR
  5
F2
102
{ACAD_REACTORS
330
F0
102
}
330
F0
100
DictionaryVariables
280
     0
  1
STANDARD
  0
DICTIONARYVAR
  5
F1
102
{ACAD_REACTORS
330
F0
102
}
330
F0
100
DictionaryVariables
280
     0
  1
STANDARD
  0
DICTIONARYVAR
  5
F3
102
{ACAD_REACTORS
330
F0
102
}
330
F0
100
DictionaryVariables
280
     0
  1
Metric50
  0
DICTIONARYVAR
  5
F4
102
{ACAD_REACTORS
330
F0
102
}
330
F0
100
DictionaryVariables
280
     0
  1
Metric50
  0
DICTIONARYVAR
  5
1FFE
102
{ACAD_REACTORS
330
F0
102
}
330
F0
100
DictionaryVariables
280
     0
  1
1
  0
DICTIONARYVAR
  5
1FFD
102
{ACAD_REACTORS
330
F0
102
}
330
F0
100
DictionaryVariables
280
     0
  1
0
  0
DICTIONARYVAR
  5
F8
102
{ACAD_REACTORS
330
F0
102
}
330
F0
100
DictionaryVariables
280
     0
  1
1
  0
DICTIONARYVAR
  5
F9
102
{ACAD_REACTORS
330
F0
102
}
330
F0
100
DictionaryVariables
280
     0
  1
15
  0
DICTIONARYVAR
  5
F7
102
{ACAD_REACTORS
330
F0
102
}
330
F0
100
DictionaryVariables
280
     0
  1
0
  0
DICTIONARYVAR
  5
F5
102
{ACAD_REACTORS
330
F0
102
}
330
F0
100
DictionaryVariables
280
     0
  1
0
  0
DICTIONARYVAR
  5
1FFC
102
{ACAD_REACTORS
330
F0
102
}
330
F0
100
DictionaryVariables
280
     0
  1
127
  0
DICTIONARYVAR
  5
284D
102
{ACAD_REACTORS
330
F0
102
}
330
F0
100
DictionaryVariables
280
     0
  1
2
  0
DICTIONARY
  5
2889
330
E0
100
AcDbDictionary
280
     1
281
     1
  3
ACAD_XREC_ROUNDTRIP
360
288A
  0
DICTIONARY
  5
288B
330
E3
100
AcDbDictionary
280
     1
281
     1
  3
ACAD_XREC_ROUNDTRIP
360
288C
  0
DICTIONARY
  5
288D
330
E4
100
AcDbDictionary
280
     1
281
     1
  3
ACAD_XREC_ROUNDTRIP
360
288E
  0
DICTIONARY
  5
9E
330
9D
100
AcDbDictionary
280
     1
281
     1
  3
ACAD_XREC_ROUNDTRIP
360
2852
  3
BUMPTILE
360
A0
  3
DIFFUSETILE
360
9F
  3
OPACITYTILE
360
A3
  3
REFLECTIONTILE
360
A2
  3
REFRACTIONTILE
360
A4
  3
SPECULARTILE
360
A1
  0
DICTIONARY
  5
96
330
95
100
AcDbDictionary
280
     1
281
     1
  3
ACAD_XREC_ROUNDTRIP
360
2851
  3
BUMPTILE
360
98
  3
DIFFUSETILE
360
97
  3
OPACITYTILE
360
9B
  3
REFLECTIONTILE
360
9A
  3
REFRACTIONTILE
360
9C
  3
SPECULARTILE
360
99
  0
DICTIONARY
  5
A6
330
A5
100
AcDbDictionary
280
     1
281
     1
  3
ACAD_XREC_ROUNDTRIP
360
2853
  3
BUMPTILE
360
A8
  3
DIFFUSETILE
360
A7
  3
OPACITYTILE
360
AB
  3
REFLECTIONTILE
360
AA
  3
REFRACTIONTILE
360
AC
  3
SPECULARTILE
360
A9
  0
DICTIONARY
  5
2885
330
DC
100
AcDbDictionary
280
     1
281
     1
  3
ACAD_XREC_ROUNDTRIP
360
2886
  0
DICTIONARY
  5
2887
330
DE
100
AcDbDictionary
280
     1
281
     1
  3
ACAD_XREC_ROUNDTRIP
360
2888
  0
DICTIONARY
  5
1FB1
330
C8
100
AcDbDictionary
280
     1
281
     1
  3
ACAD_ROUNDTRIP_2008_TABLESTYLE_CELLSTYLEMAP
360
284E
  3
ACAD_XREC_ROUNDTRIP
360
2884
  0
DICTIONARY
  5
285E
330
B3
100
AcDbDictionary
280
     1
281
     1
  3
ACAD_XREC_ROUNDTRIP
360
285F
  0
DICTIONARY
  5
285C
330
B2
100
AcDbDictionary
280
     1
281
     1
  3
ACAD_XREC_ROUNDTRIP
360
285D
  0
DICTIONARY
  5
286A
330
B9
100
AcDbDictionary
280
     1
281
     1
  3
ACAD_XREC_ROUNDTRIP
360
286B
  0
DICTIONARY
  5
2872
330
BD
100
AcDbDictionary
280
     1
281
     1
  3
ACAD_XREC_ROUNDTRIP
360
2873
  0
DICTIONARY
  5
2864
330
B6
100
AcDbDictionary
280
     1
281
     1
  3
ACAD_XREC_ROUNDTRIP
360
2865
  0
DICTIONARY
  5
2868
330
B8
100
AcDbDictionary
280
     1
281
     1
  3
ACAD_XREC_ROUNDTRIP
360
2869
  0
DICTIONARY
  5
2882
330
C5
100
AcDbDictionary
280
     1
281
     1
  3
ACAD_XREC_ROUNDTRIP
360
2883
  0
DICTIONARY
  5
2870
330
BC
100
AcDbDictionary
280
     1
281
     1
  3
ACAD_XREC_ROUNDTRIP
360
2871
  0
DICTIONARY
  5
2854
330
AE
100
AcDbDictionary
280
     1
281
     1
  3
ACAD_XREC_ROUNDTRIP
360
2855
  0
DICTIONARY
  5
2856
330
AF
100
AcDbDictionary
280
     1
281
     1
  3
ACAD_XREC_ROUNDTRIP
360
2857
  0
DICTIONARY
  5
2858
330
B0
100
AcDbDictionary
280
     1
281
     1
  3
ACAD_XREC_ROUNDTRIP
360
2859
  0
DICTIONARY
  5
285A
330
B1
100
AcDbDictionary
280
     1
281
     1
  3
ACAD_XREC_ROUNDTRIP
360
285B
  0
DICTIONARY
  5
2862
330
B5
100
AcDbDictionary
280
     1
281
     1
  3
ACAD_XREC_ROUNDTRIP
360
2863
  0
DICTIONARY
  5
287E
330
C3
100
AcDbDictionary
280
     1
281
     1
  3
ACAD_XREC_ROUNDTRIP
360
287F
  0
DICTIONARY
  5
286E
330
BB
100
AcDbDictionary
280
     1
281
     1
  3
ACAD_XREC_ROUNDTRIP
360
286F
  0
DICTIONARY
  5
2880
330
C4
100
AcDbDictionary
280
     1
281
     1
  3
ACAD_XREC_ROUNDTRIP
360
2881
  0
DICTIONARY
  5
2866
330
B7
100
AcDbDictionary
280
     1
281
     1
  3
ACAD_XREC_ROUNDTRIP
360
2867
  0
DICTIONARY
  5
287C
330
C2
100
AcDbDictionary
280
     1
281
     1
  3
ACAD_XREC_ROUNDTRIP
360
287D
  0
DICTIONARY
  5
287A
330
C1
100
AcDbDictionary
280
     1
281
     1
  3
ACAD_XREC_ROUNDTRIP
360
287B
  0
DICTIONARY
  5
2874
330
BE
100
AcDbDictionary
280
     1
281
     1
  3
ACAD_XREC_ROUNDTRIP
360
2875
  0
DICTIONARY
  5
2876
330
BF
100
AcDbDictionary
280
     1
281
     1
  3
ACAD_XREC_ROUNDTRIP
360
2877
  0
DICTIONARY
  5
286C
330
BA
100
AcDbDictionary
280
     1
281
     1
  3
ACAD_XREC_ROUNDTRIP
360
286D
  0
DICTIONARY
  5
2860
330
B4
100
AcDbDictionary
280
     1
281
     1
  3
ACAD_XREC_ROUNDTRIP
360
2861
  0
DICTIONARY
  5
2878
330
C0
100
AcDbDictionary
280
     1
281
     1
  3
ACAD_XREC_ROUNDTRIP
360
2879
  0
XRECORD
  5
288A
102
{ACAD_REACTORS
330
2889
102
}
330
2889
100
AcDbXrecord
280
     1
102
DISPLAYNAME
  1
Metric50
102
FLAGS
 90
        0
  0
XRECORD
  5
288C
102
{ACAD_REACTORS
330
288B
102
}
330
288B
100
AcDbXrecord
280
     1
102
SHADEPLOT
 70
     0
102
SHADEPLOTRESLEVEL
 70
     2
102
SHADEPLOTCUSTOMDPI
 70
   300
  0
XRECORD
  5
288E
102
{ACAD_REACTORS
330
288D
102
}
330
288D
100
AcDbXrecord
280
     1
102
SHADEPLOT
 70
     0
102
SHADEPLOTRESLEVEL
 70
     2
102
SHADEPLOTCUSTOMDPI
 70
   300
  0
XRECORD
  5
2852
102
{ACAD_REACTORS
330
9E
102
}
330
9E
100
AcDbXrecord
280
     1
102
MATERIAL
148
0.0
149
0.0
149
0.0
 93
        0
 94
      127
282
     0
 72
     0
 77
     0
171
     0
175
     0
179
     0
273
     0
  0
XRECORD
  5
A0
102
{ACAD_REACTORS
330
9E
102
}
330
9E
100
AcDbXrecord
280
     1
270
     1
271
     1
  0
XRECORD
  5
9F
102
{ACAD_REACTORS
330
9E
102
}
330
9E
100
AcDbXrecord
280
     1
270
     1
271
     1
  0
XRECORD
  5
A3
102
{ACAD_REACTORS
330
9E
102
}
330
9E
100
AcDbXrecord
280
     1
270
     1
271
     1
  0
XRECORD
  5
A2
102
{ACAD_REACTORS
330
9E
102
}
330
9E
100
AcDbXrecord
280
     1
270
     1
271
     1
  0
XRECORD
  5
A4
102
{ACAD_REACTORS
330
9E
102
}
330
9E
100
AcDbXrecord
280
     1
270
     1
271
     1
  0
XRECORD
  5
A1
102
{ACAD_REACTORS
330
9E
102
}
330
9E
100
AcDbXrecord
280
     1
270
     1
271
     1
  0
XRECORD
  5
2851
102
{ACAD_REACTORS
330
96
102
}
330
96
100
AcDbXrecord
280
     1
102
MATERIAL
148
0.0
149
0.0
149
0.0
 93
        0
 94
      127
282
     0
 72
     0
 77
     0
171
     0
175
     0
179
     0
273
     0
  0
XRECORD
  5
98
102
{ACAD_REACTORS
330
96
102
}
330
96
100
AcDbXrecord
280
     1
270
     1
271
     1
  0
XRECORD
  5
97
102
{ACAD_REACTORS
330
96
102
}
330
96
100
AcDbXrecord
280
     1
270
     1
271
     1
  0
XRECORD
  5
9B
102
{ACAD_REACTORS
330
96
102
}
330
96
100
AcDbXrecord
280
     1
270
     1
271
     1
  0
XRECORD
  5
9A
102
{ACAD_REACTORS
330
96
102
}
330
96
100
AcDbXrecord
280
     1
270
     1
271
     1
  0
XRECORD
  5
9C
102
{ACAD_REACTORS
330
96
102
}
330
96
100
AcDbXrecord
280
     1
270
     1
271
     1
  0
XRECORD
  5
99
102
{ACAD_REACTORS
330
96
102
}
330
96
100
AcDbXrecord
280
     1
270
     1
271
     1
  0
XRECORD
  5
2853
102
{ACAD_REACTORS
330
A6
102
}
330
A6
100
AcDbXrecord
280
     1
102
MATERIAL
148
0.0
149
0.0
149
0.0
 93
        0
 94
      127
282
     0
 72
     0
 77
     0
171
     0
175
     0
179
     0
273
     0
  0
XRECORD
  5
A8
102
{ACAD_REACTORS
330
A6
102
}
330
A6
100
AcDbXrecord
280
     1
270
     1
271
     1
  0
XRECORD
  5
A7
102
{ACAD_REACTORS
330
A6
102
}
330
A6
100
AcDbXrecord
280
     1
270
     1
271
     1
  0
XRECORD
  5
AB
102
{ACAD_REACTORS
330
A6
102
}
330
A6
100
AcDbXrecord
280
     1
270
     1
271
     1
  0
XRECORD
  5
AA
102
{ACAD_REACTORS
330
A6
102
}
330
A6
100
AcDbXrecord
280
     1
270
     1
271
     1
  0
XRECORD
  5
AC
102
{ACAD_REACTORS
330
A6
102
}
330
A6
100
AcDbXrecord
280
     1
270
     1
271
     1
  0
XRECORD
  5
A9
102
{ACAD_REACTORS
330
A6
102
}
330
A6
100
AcDbXrecord
280
     1
270
     1
271
     1
  0
XRECORD
  5
2886
102
{ACAD_REACTORS
330
2885
102
}
330
2885
100
AcDbXrecord
280
     1
102
ACAD_ROUNDTRIP_2012_MLEADER_STYLE
298
     1
  0
XRECORD
  5
2888
102
{ACAD_REACTORS
330
2887
102
}
330
2887
100
AcDbXrecord
280
     1
102
DISPLAYNAME
  1
Metric50
102
FLAGS
 90
        0
  0
CELLSTYLEMAP
  5
284E
102
{ACAD_REACTORS
330
1FB1
102
}
330
1FB1
100
AcDbCellStyleMap
 90
        3
300
CELLSTYLE
  1
TABLEFORMAT_BEGIN
 90
        5
170
     1
 91
        0
 92
    32768
 62
   257
 93
        1
300
CONTENTFORMAT
  1
CONTENTFORMAT_BEGIN
 90
        0
 91
        0
 92
      512
 93
        0
300

 40
0.0
140
1.0
 94
        5
 62
     0
340
F
144
6.0
309
CONTENTFORMAT_END
171
     1
301
MARGIN
  1
CELLMARGIN_BEGIN
 40
1.5
 40
1.5
 40
1.5
 40
1.5
 40
4.5
 40
4.5
309
CELLMARGIN_END
 94
        6
 95
        1
302
GRIDFORMAT
  1
GRIDFORMAT_BEGIN
 90
        0
 91
        1
 62
     0
 92
       -2
340
0
 93
        0
 40
1.125
309
GRIDFORMAT_END
 95
        2
302
GRIDFORMAT
  1
GRIDFORMAT_BEGIN
 90
        0
 91
        1
 62
     0
 92
       -2
340
0
 93
        0
 40
1.125
309
GRIDFORMAT_END
 95
        4
302
GRIDFORMAT
  1
GRIDFORMAT_BEGIN
 90
        0
 91
        1
 62
     0
 92
       -2
340
0
 93
        0
 40
1.125
309
GRIDFORMAT_END
 95
        8
302
GRIDFORMAT
  1
GRIDFORMAT_BEGIN
 90
        0
 91
        1
 62
     0
 92
       -2
340
0
 93
        0
 40
1.125
309
GRIDFORMAT_END
 95
       16
302
GRIDFORMAT
  1
GRIDFORMAT_BEGIN
 90
        0
 91
        1
 62
     0
 92
       -2
340
0
 93
        0
 40
1.125
309
GRIDFORMAT_END
 95
       32
302
GRIDFORMAT
  1
GRIDFORMAT_BEGIN
 90
        0
 91
        1
 62
     0
 92
       -2
340
0
 93
        0
 40
1.125
309
GRIDFORMAT_END
309
TABLEFORMAT_END
  1
CELLSTYLE_BEGIN
 90
        1
 91
        1
300
_TITLE
309
CELLSTYLE_END
300
CELLSTYLE
  1
TABLEFORMAT_BEGIN
 90
        5
170
     1
 91
        0
 92
        0
 62
   257
 93
        1
300
CONTENTFORMAT
  1
CONTENTFORMAT_BEGIN
 90
        0
 91
        0
 92
      512
 93
        0
300

 40
0.0
140
1.0
 94
        5
 62
     0
340
F
144
4.5
309
CONTENTFORMAT_END
171
     1
301
MARGIN
  1
CELLMARGIN_BEGIN
 40
1.5
 40
1.5
 40
1.5
 40
1.5
 40
4.5
 40
4.5
309
CELLMARGIN_END
 94
        6
 95
        1
302
GRIDFORMAT
  1
GRIDFORMAT_BEGIN
 90
        0
 91
        1
 62
     0
 92
       -2
340
0
 93
        0
 40
1.125
309
GRIDFORMAT_END
 95
        2
302
GRIDFORMAT
  1
GRIDFORMAT_BEGIN
 90
        0
 91
        1
 62
     0
 92
       -2
340
0
 93
        0
 40
1.125
309
GRIDFORMAT_END
 95
        4
302
GRIDFORMAT
  1
GRIDFORMAT_BEGIN
 90
        0
 91
        1
 62
     0
 92
       -2
340
0
 93
        0
 40
1.125
309
GRIDFORMAT_END
 95
        8
302
GRIDFORMAT
  1
GRIDFORMAT_BEGIN
 90
        0
 91
        1
 62
     0
 92
       -2
340
0
 93
        0
 40
1.125
309
GRIDFORMAT_END
 95
       16
302
GRIDFORMAT
  1
GRIDFORMAT_BEGIN
 90
        0
 91
        1
 62
     0
 92
       -2
340
0
 93
        0
 40
1.125
309
GRIDFORMAT_END
 95
       32
302
GRIDFORMAT
  1
GRIDFORMAT_BEGIN
 90
        0
 91
        1
 62
     0
 92
       -2
340
0
 93
        0
 40
1.125
309
GRIDFORMAT_END
309
TABLEFORMAT_END
  1
CELLSTYLE_BEGIN
 90
        2
 91
        1
300
_HEADER
309
CELLSTYLE_END
300
CELLSTYLE
  1
TABLEFORMAT_BEGIN
 90
        5
170
     1
 91
        0
 92
        0
 62
   257
 93
        1
300
CONTENTFORMAT
  1
CONTENTFORMAT_BEGIN
 90
        0
 91
        0
 92
      512
 93
        0
300

 40
0.0
140
1.0
 94
        2
 62
     0
340
F
144
4.5
309
CONTENTFORMAT_END
171
     1
301
MARGIN
  1
CELLMARGIN_BEGIN
 40
1.5
 40
1.5
 40
1.5
 40
1.5
 40
4.5
 40
4.5
309
CELLMARGIN_END
 94
        6
 95
        1
302
GRIDFORMAT
  1
GRIDFORMAT_BEGIN
 90
        0
 91
        1
 62
     0
 92
       -2
340
0
 93
        0
 40
1.125
309
GRIDFORMAT_END
 95
        2
302
GRIDFORMAT
  1
GRIDFORMAT_BEGIN
 90
        0
 91
        1
 62
     0
 92
       -2
340
0
 93
        0
 40
1.125
309
GRIDFORMAT_END
 95
        4
302
GRIDFORMAT
  1
GRIDFORMAT_BEGIN
 90
        0
 91
        1
 62
     0
 92
       -2
340
0
 93
        0
 40
1.125
309
GRIDFORMAT_END
 95
        8
302
GRIDFORMAT
  1
GRIDFORMAT_BEGIN
 90
        0
 91
        1
 62
     0
 92
       -2
340
0
 93
        0
 40
1.125
309
GRIDFORMAT_END
 95
       16
302
GRIDFORMAT
  1
GRIDFORMAT_BEGIN
 90
        0
 91
        1
 62
     0
 92
       -2
340
0
 93
        0
 40
1.125
309
GRIDFORMAT_END
 95
       32
302
GRIDFORMAT
  1
GRIDFORMAT_BEGIN
 90
        0
 91
        1
 62
     0
 92
       -2
340
0
 93
        0
 40
1.125
309
GRIDFORMAT_END
309
TABLEFORMAT_END
  1
CELLSTYLE_BEGIN
 90
        3
 91
        2
300
_DATA
309
CELLSTYLE_END
  0
XRECORD
  5
2884
102
{ACAD_REACTORS
330
1FB1
102
}
330
1FB1
100
AcDbXrecord
280
     1
102
ACAD_ROUNDTRIP_PRE2007_TABLESTYLE
 90
      512
 91
        0
  1

 92
      512
 93
        0
  2

 94
      512
 95
        0
  3

  0
XRECORD
  5
285F
102
{ACAD_REACTORS
330
285E
102
}
330
285E
100
AcDbXrecord
280
     1
102
RTVSPost2010Prop28
280
     1
102
RTVSPost2010PropOp28
 70
     1
102
RTVSPost2010Prop29
280
     1
102
RTVSPost2010PropOp29
 70
     1
102
RTVSPost2010Prop30
280
     0
102
RTVSPost2010PropOp30
 70
     1
102
RTVSPost2010Prop31
280
     0
102
RTVSPost2010PropOp31
 70
     1
102
RTVSPost2010Prop32
280
     0
102
RTVSPost2010PropOp32
 70
     1
102
RTVSPost2010Prop33
280
     0
102
RTVSPost2010PropOp33
 70
     1
102
RTVSPost2010Prop34
280
     0
102
RTVSPost2010PropOp34
 70
     1
102
RTVSPost2010Prop35
280
     0
102
RTVSPost2010PropOp35
 70
     1
102
RTVSPost2010Prop36
280
     0
102
RTVSPost2010PropOp36
 70
     1
102
RTVSPost2010Prop37
 90
       50
102
RTVSPost2010PropOp37
 70
     1
102
RTVSPost2010Prop38
140
0.0
102
RTVSPost2010PropOp38
 70
     1
102
RTVSPost2010Prop39
140
1.0
102
RTVSPost2010PropOp39
 70
     1
102
RTVSPost2010Prop40
 90
        0
102
RTVSPost2010PropOp40
 70
     1
102
RTVSPost2010Prop41ColorIndex
 90
       18
102
RTVSPost2010Prop41ColorRGB
 90
        0
102
RTVSPost2010PropOp41
 70
     1
102
RTVSPost2010Prop42
 90
       50
102
RTVSPost2010PropOp42
 70
     1
102
RTVSPost2010Prop43
 90
        3
102
RTVSPost2010PropOp43
 70
     1
102
RTVSPost2010Prop44ColorIndex
 90
        5
102
RTVSPost2010Prop44ColorRGB
 90
      255
102
RTVSPost2010PropOp44
 70
     1
102
RTVSPost2010Prop45
280
     0
102
RTVSPost2010PropOp45
 70
     1
102
RTVSPost2010Prop46
 90
       50
102
RTVSPost2010PropOp46
 70
     1
102
RTVSPost2010Prop47
 90
       50
102
RTVSPost2010PropOp47
 70
     1
102
RTVSPost2010Prop48
 90
       50
102
RTVSPost2010PropOp48
 70
     1
102
RTVSPost2010Prop49
280
     0
102
RTVSPost2010PropOp49
 70
     1
102
RTVSPost2010Prop50
 90
       50
102
RTVSPost2010PropOp50
 70
     1
102
RTVSPost2010Prop51ColorIndex
 90
      256
102
RTVSPost2010Prop51ColorRGB
 90
-16777216
102
RTVSPost2010PropOp51
 70
     0
102
RTVSPost2010Prop52
140
1.0
102
RTVSPost2010PropOp52
 70
     0
102
RTVSPost2010Prop53
 90
        2
102
RTVSPost2010PropOp53
 70
     1
102
RTVSPost2010Prop54
  1
strokes_ogs.tif
102
RTVSPost2010PropOp54
 70
     1
102
RTVSPost2010Prop55
280
     0
102
RTVSPost2010PropOp55
 70
     1
102
RTVSPost2010Prop56
140
1.0
102
RTVSPost2010PropOp56
 70
     1
102
RTVSPost2010Prop57
140
1.0
102
RTVSPost2010PropOp57
 70
     1
102
RTVSPropertyOp0
 70
     1
102
RTVSPropertyOp1
 70
     1
102
RTVSPropertyOp2
 70
     1
102
RTVSPropertyOp3
 70
     1
102
RTVSPropertyOp4
 70
     1
102
RTVSPropertyOp5
 70
     1
102
RTVSPropertyOp6
 70
     1
102
RTVSPropertyOp7
 70
     1
102
RTVSPropertyOp8
 70
     1
102
RTVSPropertyOp9
 70
     1
102
RTVSPropertyOp10
 70
     1
102
RTVSPropertyOp11
 70
     1
102
RTVSPropertyOp12
 70
     1
102
RTVSPropertyOp13
 70
     1
102
RTVSPropertyOp14
 70
     1
102
RTVSPropertyOp15
 70
     1
102
RTVSPropertyOp16
 70
     1
102
RTVSPropertyOp17
 70
     1
102
RTVSPropertyOp18
 70
     1
102
RTVSPropertyOp19
 70
     1
102
RTVSPropertyOp20
 70
     1
102
RTVSPropertyOp21
 70
     1
102
RTVSPropertyOp22
 70
     1
102
RTVSPropertyOp23
 70
     1
102
RTVSPropertyOp24
 70
     1
102
RTVSPropertyOp25
 70
     1
102
RTVSPropertyOp26
 70
     1
102
RTVSPropertyOp27
 70
     1
102
RTVSPropertyOp28
 70
     1
102
RTVSPropertyOp29
 70
     1
102
RTVSPropertyOp30
 70
     1
102
RTVSPropertyOp31
 70
     1
102
RTVSPropertyOp32
 70
     1
102
RTVSPropertyOp33
 70
     1
102
RTVSPropertyOp34
 70
     1
102
RTVSPropertyOp35
 70
     1
102
RTVSPropertyOp36
 70
     1
102
RTVSPropertyOp37
 70
     1
102
RTVSPropertyOp38
 70
     1
102
RTVSPropertyOp39
 70
     1
102
RTVSPropertyOp40
 70
     1
102
RTVSPropertyOp41
 70
     1
102
RTVSPropertyOp42
 70
     1
102
RTVSPropertyOp43
 70
     1
102
RTVSPropertyOp44
 70
     1
102
RTVSPropertyOp45
 70
     1
102
RTVSPropertyOp46
 70
     1
102
RTVSPropertyOp47
 70
     1
102
RTVSPropertyOp48
 70
     1
102
RTVSPropertyOp49
 70
     1
102
RTVSPropertyOp50
 70
     1
102
RTVSPropertyOp51
 70
     0
102
RTVSPropertyOp52
 70
     0
102
RTVSPropertyOp53
 70
     1
102
RTVSPropertyOp54
 70
     1
102
RTVSPropertyOp55
 70
     1
102
RTVSPropertyOp56
 70
     1
102
RTVSPropertyOp57
 70
     1
102
RTVSPropertyOp58
 70
     1
102
RTVSPropertyOp59
 70
     1
102
RTVSPropertyOp60
 70
     1
102
RTVSPropertyOp61
 70
     1
102
RTVSPropertyOp62
 70
     1
  0
XRECORD
  5
285D
102
{ACAD_REACTORS
330
285C
102
}
330
285C
100
AcDbXrecord
280
     1
102
RTVSPost2010Prop28
280
     0
102
RTVSPost2010PropOp28
 70
     1
102
RTVSPost2010Prop29
280
     1
102
RTVSPost2010PropOp29
 70
     1
102
RTVSPost2010Prop30
280
     1
102
RTVSPost2010PropOp30
 70
     1
102
RTVSPost2010Prop31
280
     0
102
RTVSPost2010PropOp31
 70
     1
102
RTVSPost2010Prop32
280
     0
102
RTVSPost2010PropOp32
 70
     1
102
RTVSPost2010Prop33
280
     0
102
RTVSPost2010PropOp33
 70
     1
102
RTVSPost2010Prop34
280
     0
102
RTVSPost2010PropOp34
 70
     1
102
RTVSPost2010Prop35
280
     0
102
RTVSPost2010PropOp35
 70
     1
102
RTVSPost2010Prop36
280
     0
102
RTVSPost2010PropOp36
 70
     1
102
RTVSPost2010Prop37
 90
       50
102
RTVSPost2010PropOp37
 70
     1
102
RTVSPost2010Prop38
140
0.0
102
RTVSPost2010PropOp38
 70
     1
102
RTVSPost2010Prop39
140
1.0
102
RTVSPost2010PropOp39
 70
     1
102
RTVSPost2010Prop40
 90
        0
102
RTVSPost2010PropOp40
 70
     1
102
RTVSPost2010Prop41ColorIndex
 90
       18
102
RTVSPost2010Prop41ColorRGB
 90
        0
102
RTVSPost2010PropOp41
 70
     1
102
RTVSPost2010Prop42
 90
       50
102
RTVSPost2010PropOp42
 70
     1
102
RTVSPost2010Prop43
 90
        3
102
RTVSPost2010PropOp43
 70
     1
102
RTVSPost2010Prop44ColorIndex
 90
        5
102
RTVSPost2010Prop44ColorRGB
 90
      255
102
RTVSPost2010PropOp44
 70
     1
102
RTVSPost2010Prop45
280
     0
102
RTVSPost2010PropOp45
 70
     1
102
RTVSPost2010Prop46
 90
       50
102
RTVSPost2010PropOp46
 70
     1
102
RTVSPost2010Prop47
 90
       50
102
RTVSPost2010PropOp47
 70
     1
102
RTVSPost2010Prop48
 90
       50
102
RTVSPost2010PropOp48
 70
     1
102
RTVSPost2010Prop49
280
     0
102
RTVSPost2010PropOp49
 70
     1
102
RTVSPost2010Prop50
 90
       50
102
RTVSPost2010PropOp50
 70
     1
102
RTVSPost2010Prop51ColorIndex
 90
      256
102
RTVSPost2010Prop51ColorRGB
 90
-16777216
102
RTVSPost2010PropOp51
 70
     0
102
RTVSPost2010Prop52
140
1.0
102
RTVSPost2010PropOp52
 70
     0
102
RTVSPost2010Prop53
 90
        2
102
RTVSPost2010PropOp53
 70
     1
102
RTVSPost2010Prop54
  1
strokes_ogs.tif
102
RTVSPost2010PropOp54
 70
     1
102
RTVSPost2010Prop55
280
     0
102
RTVSPost2010PropOp55
 70
     1
102
RTVSPost2010Prop56
140
1.0
102
RTVSPost2010PropOp56
 70
     1
102
RTVSPost2010Prop57
140
1.0
102
RTVSPost2010PropOp57
 70
     1
102
RTVSPropertyOp0
 70
     1
102
RTVSPropertyOp1
 70
     1
102
RTVSPropertyOp2
 70
     1
102
RTVSPropertyOp3
 70
     1
102
RTVSPropertyOp4
 70
     1
102
RTVSPropertyOp5
 70
     1
102
RTVSPropertyOp6
 70
     1
102
RTVSPropertyOp7
 70
     1
102
RTVSPropertyOp8
 70
     1
102
RTVSPropertyOp9
 70
     1
102
RTVSPropertyOp10
 70
     1
102
RTVSPropertyOp11
 70
     1
102
RTVSPropertyOp12
 70
     1
102
RTVSPropertyOp13
 70
     1
102
RTVSPropertyOp14
 70
     1
102
RTVSPropertyOp15
 70
     1
102
RTVSPropertyOp16
 70
     1
102
RTVSPropertyOp17
 70
     1
102
RTVSPropertyOp18
 70
     1
102
RTVSPropertyOp19
 70
     1
102
RTVSPropertyOp20
 70
     1
102
RTVSPropertyOp21
 70
     1
102
RTVSPropertyOp22
 70
     1
102
RTVSPropertyOp23
 70
     1
102
RTVSPropertyOp24
 70
     1
102
RTVSPropertyOp25
 70
     1
102
RTVSPropertyOp26
 70
     1
102
RTVSPropertyOp27
 70
     1
102
RTVSPropertyOp28
 70
     1
102
RTVSPropertyOp29
 70
     1
102
RTVSPropertyOp30
 70
     1
102
RTVSPropertyOp31
 70
     1
102
RTVSPropertyOp32
 70
     1
102
RTVSPropertyOp33
 70
     1
102
RTVSPropertyOp34
 70
     1
102
RTVSPropertyOp35
 70
     1
102
RTVSPropertyOp36
 70
     1
102
RTVSPropertyOp37
 70
     1
102
RTVSPropertyOp38
 70
     1
102
RTVSPropertyOp39
 70
     1
102
RTVSPropertyOp40
 70
     1
102
RTVSPropertyOp41
 70
     1
102
RTVSPropertyOp42
 70
     1
102
RTVSPropertyOp43
 70
     1
102
RTVSPropertyOp44
 70
     1
102
RTVSPropertyOp45
 70
     1
102
RTVSPropertyOp46
 70
     1
102
RTVSPropertyOp47
 70
     1
102
RTVSPropertyOp48
 70
     1
102
RTVSPropertyOp49
 70
     1
102
RTVSPropertyOp50
 70
     1
102
RTVSPropertyOp51
 70
     0
102
RTVSPropertyOp52
 70
     0
102
RTVSPropertyOp53
 70
     1
102
RTVSPropertyOp54
 70
     1
102
RTVSPropertyOp55
 70
     1
102
RTVSPropertyOp56
 70
     1
102
RTVSPropertyOp57
 70
     1
102
RTVSPropertyOp58
 70
     1
102
RTVSPropertyOp59
 70
     1
102
RTVSPropertyOp60
 70
     1
102
RTVSPropertyOp61
 70
     1
102
RTVSPropertyOp62
 70
     1
  0
XRECORD
  5
286B
102
{ACAD_REACTORS
330
286A
102
}
330
286A
100
AcDbXrecord
280
     1
102
RTVSPost2010Prop28
280
     0
102
RTVSPost2010PropOp28
 70
     1
102
RTVSPost2010Prop29
280
     1
102
RTVSPost2010PropOp29
 70
     1
102
RTVSPost2010Prop30
280
     1
102
RTVSPost2010PropOp30
 70
     1
102
RTVSPost2010Prop31
280
     0
102
RTVSPost2010PropOp31
 70
     1
102
RTVSPost2010Prop32
280
     0
102
RTVSPost2010PropOp32
 70
     1
102
RTVSPost2010Prop33
280
     0
102
RTVSPost2010PropOp33
 70
     1
102
RTVSPost2010Prop34
280
     0
102
RTVSPost2010PropOp34
 70
     1
102
RTVSPost2010Prop35
280
     0
102
RTVSPost2010PropOp35
 70
     1
102
RTVSPost2010Prop36
280
     0
102
RTVSPost2010PropOp36
 70
     1
102
RTVSPost2010Prop37
 90
       50
102
RTVSPost2010PropOp37
 70
     1
102
RTVSPost2010Prop38
140
0.0
102
RTVSPost2010PropOp38
 70
     1
102
RTVSPost2010Prop39
140
1.0
102
RTVSPost2010PropOp39
 70
     1
102
RTVSPost2010Prop40
 90
        0
102
RTVSPost2010PropOp40
 70
     1
102
RTVSPost2010Prop41ColorIndex
 90
       18
102
RTVSPost2010Prop41ColorRGB
 90
        0
102
RTVSPost2010PropOp41
 70
     1
102
RTVSPost2010Prop42
 90
       50
102
RTVSPost2010PropOp42
 70
     1
102
RTVSPost2010Prop43
 90
        3
102
RTVSPost2010PropOp43
 70
     1
102
RTVSPost2010Prop44ColorIndex
 90
        5
102
RTVSPost2010Prop44ColorRGB
 90
      255
102
RTVSPost2010PropOp44
 70
     1
102
RTVSPost2010Prop45
280
     0
102
RTVSPost2010PropOp45
 70
     1
102
RTVSPost2010Prop46
 90
       50
102
RTVSPost2010PropOp46
 70
     1
102
RTVSPost2010Prop47
 90
       50
102
RTVSPost2010PropOp47
 70
     1
102
RTVSPost2010Prop48
 90
       50
102
RTVSPost2010PropOp48
 70
     1
102
RTVSPost2010Prop49
280
     0
102
RTVSPost2010PropOp49
 70
     1
102
RTVSPost2010Prop50
 90
       50
102
RTVSPost2010PropOp50
 70
     1
102
RTVSPost2010Prop51ColorIndex
 90
      256
102
RTVSPost2010Prop51ColorRGB
 90
-16777216
102
RTVSPost2010PropOp51
 70
     0
102
RTVSPost2010Prop52
140
1.0
102
RTVSPost2010PropOp52
 70
     0
102
RTVSPost2010Prop53
 90
        2
102
RTVSPost2010PropOp53
 70
     1
102
RTVSPost2010Prop54
  1
strokes_ogs.tif
102
RTVSPost2010PropOp54
 70
     1
102
RTVSPost2010Prop55
280
     0
102
RTVSPost2010PropOp55
 70
     1
102
RTVSPost2010Prop56
140
1.0
102
RTVSPost2010PropOp56
 70
     1
102
RTVSPost2010Prop57
140
1.0
102
RTVSPost2010PropOp57
 70
     1
102
RTVSPropertyOp0
 70
     1
102
RTVSPropertyOp1
 70
     1
102
RTVSPropertyOp2
 70
     1
102
RTVSPropertyOp3
 70
     1
102
RTVSPropertyOp4
 70
     1
102
RTVSPropertyOp5
 70
     1
102
RTVSPropertyOp6
 70
     1
102
RTVSPropertyOp7
 70
     1
102
RTVSPropertyOp8
 70
     1
102
RTVSPropertyOp9
 70
     1
102
RTVSPropertyOp10
 70
     1
102
RTVSPropertyOp11
 70
     1
102
RTVSPropertyOp12
 70
     1
102
RTVSPropertyOp13
 70
     1
102
RTVSPropertyOp14
 70
     1
102
RTVSPropertyOp15
 70
     1
102
RTVSPropertyOp16
 70
     1
102
RTVSPropertyOp17
 70
     1
102
RTVSPropertyOp18
 70
     1
102
RTVSPropertyOp19
 70
     1
102
RTVSPropertyOp20
 70
     1
102
RTVSPropertyOp21
 70
     1
102
RTVSPropertyOp22
 70
     1
102
RTVSPropertyOp23
 70
     1
102
RTVSPropertyOp24
 70
     1
102
RTVSPropertyOp25
 70
     1
102
RTVSPropertyOp26
 70
     1
102
RTVSPropertyOp27
 70
     1
102
RTVSPropertyOp28
 70
     1
102
RTVSPropertyOp29
 70
     1
102
RTVSPropertyOp30
 70
     1
102
RTVSPropertyOp31
 70
     1
102
RTVSPropertyOp32
 70
     1
102
RTVSPropertyOp33
 70
     1
102
RTVSPropertyOp34
 70
     1
102
RTVSPropertyOp35
 70
     1
102
RTVSPropertyOp36
 70
     1
102
RTVSPropertyOp37
 70
     1
102
RTVSPropertyOp38
 70
     1
102
RTVSPropertyOp39
 70
     1
102
RTVSPropertyOp40
 70
     1
102
RTVSPropertyOp41
 70
     1
102
RTVSPropertyOp42
 70
     1
102
RTVSPropertyOp43
 70
     1
102
RTVSPropertyOp44
 70
     1
102
RTVSPropertyOp45
 70
     1
102
RTVSPropertyOp46
 70
     1
102
RTVSPropertyOp47
 70
     1
102
RTVSPropertyOp48
 70
     1
102
RTVSPropertyOp49
 70
     1
102
RTVSPropertyOp50
 70
     1
102
RTVSPropertyOp51
 70
     0
102
RTVSPropertyOp52
 70
     0
102
RTVSPropertyOp53
 70
     1
102
RTVSPropertyOp54
 70
     1
102
RTVSPropertyOp55
 70
     1
102
RTVSPropertyOp56
 70
     1
102
RTVSPropertyOp57
 70
     1
102
RTVSPropertyOp58
 70
     1
102
RTVSPropertyOp59
 70
     1
102
RTVSPropertyOp60
 70
     1
102
RTVSPropertyOp61
 70
     1
102
RTVSPropertyOp62
 70
     1
  0
XRECORD
  5
2873
102
{ACAD_REACTORS
330
2872
102
}
330
2872
100
AcDbXrecord
280
     1
102
RTVSPost2010Prop28
280
     0
102
RTVSPost2010PropOp28
 70
     1
102
RTVSPost2010Prop29
280
     1
102
RTVSPost2010PropOp29
 70
     1
102
RTVSPost2010Prop30
280
     1
102
RTVSPost2010PropOp30
 70
     1
102
RTVSPost2010Prop31
280
     0
102
RTVSPost2010PropOp31
 70
     1
102
RTVSPost2010Prop32
280
     0
102
RTVSPost2010PropOp32
 70
     1
102
RTVSPost2010Prop33
280
     0
102
RTVSPost2010PropOp33
 70
     1
102
RTVSPost2010Prop34
280
     0
102
RTVSPost2010PropOp34
 70
     1
102
RTVSPost2010Prop35
280
     0
102
RTVSPost2010PropOp35
 70
     1
102
RTVSPost2010Prop36
280
     0
102
RTVSPost2010PropOp36
 70
     1
102
RTVSPost2010Prop37
 90
       50
102
RTVSPost2010PropOp37
 70
     1
102
RTVSPost2010Prop38
140
0.0
102
RTVSPost2010PropOp38
 70
     1
102
RTVSPost2010Prop39
140
1.0
102
RTVSPost2010PropOp39
 70
     1
102
RTVSPost2010Prop40
 90
        0
102
RTVSPost2010PropOp40
 70
     1
102
RTVSPost2010Prop41ColorIndex
 90
       18
102
RTVSPost2010Prop41ColorRGB
 90
        0
102
RTVSPost2010PropOp41
 70
     1
102
RTVSPost2010Prop42
 90
       50
102
RTVSPost2010PropOp42
 70
     1
102
RTVSPost2010Prop43
 90
        3
102
RTVSPost2010PropOp43
 70
     1
102
RTVSPost2010Prop44ColorIndex
 90
        5
102
RTVSPost2010Prop44ColorRGB
 90
      255
102
RTVSPost2010PropOp44
 70
     1
102
RTVSPost2010Prop45
280
     0
102
RTVSPost2010PropOp45
 70
     1
102
RTVSPost2010Prop46
 90
       50
102
RTVSPost2010PropOp46
 70
     1
102
RTVSPost2010Prop47
 90
       50
102
RTVSPost2010PropOp47
 70
     1
102
RTVSPost2010Prop48
 90
       50
102
RTVSPost2010PropOp48
 70
     1
102
RTVSPost2010Prop49
280
     0
102
RTVSPost2010PropOp49
 70
     1
102
RTVSPost2010Prop50
 90
       50
102
RTVSPost2010PropOp50
 70
     1
102
RTVSPost2010Prop51ColorIndex
 90
      256
102
RTVSPost2010Prop51ColorRGB
 90
-16777216
102
RTVSPost2010PropOp51
 70
     0
102
RTVSPost2010Prop52
140
1.0
102
RTVSPost2010PropOp52
 70
     0
102
RTVSPost2010Prop53
 90
        2
102
RTVSPost2010PropOp53
 70
     1
102
RTVSPost2010Prop54
  1
strokes_ogs.tif
102
RTVSPost2010PropOp54
 70
     1
102
RTVSPost2010Prop55
280
     0
102
RTVSPost2010PropOp55
 70
     1
102
RTVSPost2010Prop56
140
1.0
102
RTVSPost2010PropOp56
 70
     1
102
RTVSPost2010Prop57
140
1.0
102
RTVSPost2010PropOp57
 70
     1
102
RTVSPropertyOp0
 70
     1
102
RTVSPropertyOp1
 70
     1
102
RTVSPropertyOp2
 70
     1
102
RTVSPropertyOp3
 70
     1
102
RTVSPropertyOp4
 70
     1
102
RTVSPropertyOp5
 70
     1
102
RTVSPropertyOp6
 70
     1
102
RTVSPropertyOp7
 70
     1
102
RTVSPropertyOp8
 70
     1
102
RTVSPropertyOp9
 70
     1
102
RTVSPropertyOp10
 70
     1
102
RTVSPropertyOp11
 70
     1
102
RTVSPropertyOp12
 70
     1
102
RTVSPropertyOp13
 70
     1
102
RTVSPropertyOp14
 70
     1
102
RTVSPropertyOp15
 70
     1
102
RTVSPropertyOp16
 70
     1
102
RTVSPropertyOp17
 70
     1
102
RTVSPropertyOp18
 70
     1
102
RTVSPropertyOp19
 70
     1
102
RTVSPropertyOp20
 70
     1
102
RTVSPropertyOp21
 70
     1
102
RTVSPropertyOp22
 70
     1
102
RTVSPropertyOp23
 70
     1
102
RTVSPropertyOp24
 70
     1
102
RTVSPropertyOp25
 70
     1
102
RTVSPropertyOp26
 70
     1
102
RTVSPropertyOp27
 70
     1
102
RTVSPropertyOp28
 70
     1
102
RTVSPropertyOp29
 70
     1
102
RTVSPropertyOp30
 70
     1
102
RTVSPropertyOp31
 70
     1
102
RTVSPropertyOp32
 70
     1
102
RTVSPropertyOp33
 70
     1
102
RTVSPropertyOp34
 70
     1
102
RTVSPropertyOp35
 70
     1
102
RTVSPropertyOp36
 70
     1
102
RTVSPropertyOp37
 70
     1
102
RTVSPropertyOp38
 70
     1
102
RTVSPropertyOp39
 70
     1
102
RTVSPropertyOp40
 70
     1
102
RTVSPropertyOp41
 70
     1
102
RTVSPropertyOp42
 70
     1
102
RTVSPropertyOp43
 70
     1
102
RTVSPropertyOp44
 70
     1
102
RTVSPropertyOp45
 70
     1
102
RTVSPropertyOp46
 70
     1
102
RTVSPropertyOp47
 70
     1
102
RTVSPropertyOp48
 70
     1
102
RTVSPropertyOp49
 70
     1
102
RTVSPropertyOp50
 70
     1
102
RTVSPropertyOp51
 70
     0
102
RTVSPropertyOp52
 70
     0
102
RTVSPropertyOp53
 70
     1
102
RTVSPropertyOp54
 70
     1
102
RTVSPropertyOp55
 70
     1
102
RTVSPropertyOp56
 70
     1
102
RTVSPropertyOp57
 70
     1
102
RTVSPropertyOp58
 70
     1
102
RTVSPropertyOp59
 70
     1
102
RTVSPropertyOp60
 70
     1
102
RTVSPropertyOp61
 70
     1
102
RTVSPropertyOp62
 70
     1
  0
XRECORD
  5
2865
102
{ACAD_REACTORS
330
2864
102
}
330
2864
100
AcDbXrecord
280
     1
102
RTVSPost2010Prop28
280
     0
102
RTVSPost2010PropOp28
 70
     1
102
RTVSPost2010Prop29
280
     1
102
RTVSPost2010PropOp29
 70
     1
102
RTVSPost2010Prop30
280
     1
102
RTVSPost2010PropOp30
 70
     1
102
RTVSPost2010Prop31
280
     0
102
RTVSPost2010PropOp31
 70
     1
102
RTVSPost2010Prop32
280
     0
102
RTVSPost2010PropOp32
 70
     1
102
RTVSPost2010Prop33
280
     0
102
RTVSPost2010PropOp33
 70
     1
102
RTVSPost2010Prop34
280
     0
102
RTVSPost2010PropOp34
 70
     1
102
RTVSPost2010Prop35
280
     0
102
RTVSPost2010PropOp35
 70
     1
102
RTVSPost2010Prop36
280
     0
102
RTVSPost2010PropOp36
 70
     1
102
RTVSPost2010Prop37
 90
       50
102
RTVSPost2010PropOp37
 70
     1
102
RTVSPost2010Prop38
140
0.0
102
RTVSPost2010PropOp38
 70
     1
102
RTVSPost2010Prop39
140
1.0
102
RTVSPost2010PropOp39
 70
     1
102
RTVSPost2010Prop40
 90
        0
102
RTVSPost2010PropOp40
 70
     1
102
RTVSPost2010Prop41ColorIndex
 90
       18
102
RTVSPost2010Prop41ColorRGB
 90
        0
102
RTVSPost2010PropOp41
 70
     1
102
RTVSPost2010Prop42
 90
       50
102
RTVSPost2010PropOp42
 70
     1
102
RTVSPost2010Prop43
 90
        3
102
RTVSPost2010PropOp43
 70
     1
102
RTVSPost2010Prop44ColorIndex
 90
        5
102
RTVSPost2010Prop44ColorRGB
 90
      255
102
RTVSPost2010PropOp44
 70
     1
102
RTVSPost2010Prop45
280
     0
102
RTVSPost2010PropOp45
 70
     1
102
RTVSPost2010Prop46
 90
       50
102
RTVSPost2010PropOp46
 70
     1
102
RTVSPost2010Prop47
 90
       50
102
RTVSPost2010PropOp47
 70
     1
102
RTVSPost2010Prop48
 90
       50
102
RTVSPost2010PropOp48
 70
     1
102
RTVSPost2010Prop49
280
     0
102
RTVSPost2010PropOp49
 70
     1
102
RTVSPost2010Prop50
 90
       50
102
RTVSPost2010PropOp50
 70
     1
102
RTVSPost2010Prop51ColorIndex
 90
      256
102
RTVSPost2010Prop51ColorRGB
 90
-16777216
102
RTVSPost2010PropOp51
 70
     0
102
RTVSPost2010Prop52
140
1.0
102
RTVSPost2010PropOp52
 70
     0
102
RTVSPost2010Prop53
 90
        2
102
RTVSPost2010PropOp53
 70
     1
102
RTVSPost2010Prop54
  1
strokes_ogs.tif
102
RTVSPost2010PropOp54
 70
     1
102
RTVSPost2010Prop55
280
     0
102
RTVSPost2010PropOp55
 70
     1
102
RTVSPost2010Prop56
140
1.0
102
RTVSPost2010PropOp56
 70
     1
102
RTVSPost2010Prop57
140
1.0
102
RTVSPost2010PropOp57
 70
     1
102
RTVSPropertyOp0
 70
     1
102
RTVSPropertyOp1
 70
     1
102
RTVSPropertyOp2
 70
     1
102
RTVSPropertyOp3
 70
     1
102
RTVSPropertyOp4
 70
     1
102
RTVSPropertyOp5
 70
     1
102
RTVSPropertyOp6
 70
     1
102
RTVSPropertyOp7
 70
     1
102
RTVSPropertyOp8
 70
     1
102
RTVSPropertyOp9
 70
     1
102
RTVSPropertyOp10
 70
     1
102
RTVSPropertyOp11
 70
     1
102
RTVSPropertyOp12
 70
     1
102
RTVSPropertyOp13
 70
     1
102
RTVSPropertyOp14
 70
     1
102
RTVSPropertyOp15
 70
     1
102
RTVSPropertyOp16
 70
     1
102
RTVSPropertyOp17
 70
     1
102
RTVSPropertyOp18
 70
     1
102
RTVSPropertyOp19
 70
     1
102
RTVSPropertyOp20
 70
     1
102
RTVSPropertyOp21
 70
     1
102
RTVSPropertyOp22
 70
     1
102
RTVSPropertyOp23
 70
     1
102
RTVSPropertyOp24
 70
     1
102
RTVSPropertyOp25
 70
     1
102
RTVSPropertyOp26
 70
     1
102
RTVSPropertyOp27
 70
     1
102
RTVSPropertyOp28
 70
     1
102
RTVSPropertyOp29
 70
     1
102
RTVSPropertyOp30
 70
     1
102
RTVSPropertyOp31
 70
     1
102
RTVSPropertyOp32
 70
     1
102
RTVSPropertyOp33
 70
     1
102
RTVSPropertyOp34
 70
     1
102
RTVSPropertyOp35
 70
     1
102
RTVSPropertyOp36
 70
     1
102
RTVSPropertyOp37
 70
     1
102
RTVSPropertyOp38
 70
     1
102
RTVSPropertyOp39
 70
     1
102
RTVSPropertyOp40
 70
     1
102
RTVSPropertyOp41
 70
     1
102
RTVSPropertyOp42
 70
     1
102
RTVSPropertyOp43
 70
     1
102
RTVSPropertyOp44
 70
     1
102
RTVSPropertyOp45
 70
     1
102
RTVSPropertyOp46
 70
     1
102
RTVSPropertyOp47
 70
     1
102
RTVSPropertyOp48
 70
     1
102
RTVSPropertyOp49
 70
     1
102
RTVSPropertyOp50
 70
     1
102
RTVSPropertyOp51
 70
     0
102
RTVSPropertyOp52
 70
     0
102
RTVSPropertyOp53
 70
     1
102
RTVSPropertyOp54
 70
     1
102
RTVSPropertyOp55
 70
     1
102
RTVSPropertyOp56
 70
     1
102
RTVSPropertyOp57
 70
     1
102
RTVSPropertyOp58
 70
     1
102
RTVSPropertyOp59
 70
     1
102
RTVSPropertyOp60
 70
     1
102
RTVSPropertyOp61
 70
     1
102
RTVSPropertyOp62
 70
     1
  0
XRECORD
  5
2869
102
{ACAD_REACTORS
330
2868
102
}
330
2868
100
AcDbXrecord
280
     1
102
RTVSPost2010Prop28
280
     0
102
RTVSPost2010PropOp28
 70
     1
102
RTVSPost2010Prop29
280
     1
102
RTVSPost2010PropOp29
 70
     1
102
RTVSPost2010Prop30
280
     1
102
RTVSPost2010PropOp30
 70
     1
102
RTVSPost2010Prop31
280
     0
102
RTVSPost2010PropOp31
 70
     1
102
RTVSPost2010Prop32
280
     0
102
RTVSPost2010PropOp32
 70
     1
102
RTVSPost2010Prop33
280
     0
102
RTVSPost2010PropOp33
 70
     1
102
RTVSPost2010Prop34
280
     0
102
RTVSPost2010PropOp34
 70
     1
102
RTVSPost2010Prop35
280
     0
102
RTVSPost2010PropOp35
 70
     1
102
RTVSPost2010Prop36
280
     0
102
RTVSPost2010PropOp36
 70
     1
102
RTVSPost2010Prop37
 90
       50
102
RTVSPost2010PropOp37
 70
     1
102
RTVSPost2010Prop38
140
0.0
102
RTVSPost2010PropOp38
 70
     1
102
RTVSPost2010Prop39
140
1.0
102
RTVSPost2010PropOp39
 70
     1
102
RTVSPost2010Prop40
 90
        0
102
RTVSPost2010PropOp40
 70
     1
102
RTVSPost2010Prop41ColorIndex
 90
       18
102
RTVSPost2010Prop41ColorRGB
 90
        0
102
RTVSPost2010PropOp41
 70
     1
102
RTVSPost2010Prop42
 90
       50
102
RTVSPost2010PropOp42
 70
     1
102
RTVSPost2010Prop43
 90
        3
102
RTVSPost2010PropOp43
 70
     1
102
RTVSPost2010Prop44ColorIndex
 90
        5
102
RTVSPost2010Prop44ColorRGB
 90
      255
102
RTVSPost2010PropOp44
 70
     1
102
RTVSPost2010Prop45
280
     0
102
RTVSPost2010PropOp45
 70
     1
102
RTVSPost2010Prop46
 90
       50
102
RTVSPost2010PropOp46
 70
     1
102
RTVSPost2010Prop47
 90
       50
102
RTVSPost2010PropOp47
 70
     1
102
RTVSPost2010Prop48
 90
       50
102
RTVSPost2010PropOp48
 70
     1
102
RTVSPost2010Prop49
280
     0
102
RTVSPost2010PropOp49
 70
     1
102
RTVSPost2010Prop50
 90
       50
102
RTVSPost2010PropOp50
 70
     1
102
RTVSPost2010Prop51ColorIndex
 90
      256
102
RTVSPost2010Prop51ColorRGB
 90
-16777216
102
RTVSPost2010PropOp51
 70
     0
102
RTVSPost2010Prop52
140
1.0
102
RTVSPost2010PropOp52
 70
     0
102
RTVSPost2010Prop53
 90
        2
102
RTVSPost2010PropOp53
 70
     1
102
RTVSPost2010Prop54
  1
strokes_ogs.tif
102
RTVSPost2010PropOp54
 70
     1
102
RTVSPost2010Prop55
280
     0
102
RTVSPost2010PropOp55
 70
     1
102
RTVSPost2010Prop56
140
1.0
102
RTVSPost2010PropOp56
 70
     1
102
RTVSPost2010Prop57
140
1.0
102
RTVSPost2010PropOp57
 70
     1
102
RTVSPropertyOp0
 70
     1
102
RTVSPropertyOp1
 70
     1
102
RTVSPropertyOp2
 70
     1
102
RTVSPropertyOp3
 70
     1
102
RTVSPropertyOp4
 70
     1
102
RTVSPropertyOp5
 70
     1
102
RTVSPropertyOp6
 70
     1
102
RTVSPropertyOp7
 70
     1
102
RTVSPropertyOp8
 70
     1
102
RTVSPropertyOp9
 70
     1
102
RTVSPropertyOp10
 70
     1
102
RTVSPropertyOp11
 70
     1
102
RTVSPropertyOp12
 70
     1
102
RTVSPropertyOp13
 70
     1
102
RTVSPropertyOp14
 70
     1
102
RTVSPropertyOp15
 70
     1
102
RTVSPropertyOp16
 70
     1
102
RTVSPropertyOp17
 70
     1
102
RTVSPropertyOp18
 70
     1
102
RTVSPropertyOp19
 70
     1
102
RTVSPropertyOp20
 70
     1
102
RTVSPropertyOp21
 70
     1
102
RTVSPropertyOp22
 70
     1
102
RTVSPropertyOp23
 70
     1
102
RTVSPropertyOp24
 70
     1
102
RTVSPropertyOp25
 70
     1
102
RTVSPropertyOp26
 70
     1
102
RTVSPropertyOp27
 70
     1
102
RTVSPropertyOp28
 70
     1
102
RTVSPropertyOp29
 70
     1
102
RTVSPropertyOp30
 70
     1
102
RTVSPropertyOp31
 70
     1
102
RTVSPropertyOp32
 70
     1
102
RTVSPropertyOp33
 70
     1
102
RTVSPropertyOp34
 70
     1
102
RTVSPropertyOp35
 70
     1
102
RTVSPropertyOp36
 70
     1
102
RTVSPropertyOp37
 70
     1
102
RTVSPropertyOp38
 70
     1
102
RTVSPropertyOp39
 70
     1
102
RTVSPropertyOp40
 70
     1
102
RTVSPropertyOp41
 70
     1
102
RTVSPropertyOp42
 70
     1
102
RTVSPropertyOp43
 70
     1
102
RTVSPropertyOp44
 70
     1
102
RTVSPropertyOp45
 70
     1
102
RTVSPropertyOp46
 70
     1
102
RTVSPropertyOp47
 70
     1
102
RTVSPropertyOp48
 70
     1
102
RTVSPropertyOp49
 70
     1
102
RTVSPropertyOp50
 70
     1
102
RTVSPropertyOp51
 70
     0
102
RTVSPropertyOp52
 70
     0
102
RTVSPropertyOp53
 70
     1
102
RTVSPropertyOp54
 70
     1
102
RTVSPropertyOp55
 70
     1
102
RTVSPropertyOp56
 70
     1
102
RTVSPropertyOp57
 70
     1
102
RTVSPropertyOp58
 70
     1
102
RTVSPropertyOp59
 70
     1
102
RTVSPropertyOp60
 70
     1
102
RTVSPropertyOp61
 70
     1
102
RTVSPropertyOp62
 70
     1
  0
XRECORD
  5
2883
102
{ACAD_REACTORS
330
2882
102
}
330
2882
100
AcDbXrecord
280
     1
102
RTVSPost2010Prop28
280
     0
102
RTVSPost2010PropOp28
 70
     0
102
RTVSPost2010Prop29
280
     1
102
RTVSPost2010PropOp29
 70
     0
102
RTVSPost2010Prop30
280
     1
102
RTVSPost2010PropOp30
 70
     0
102
RTVSPost2010Prop31
280
     0
102
RTVSPost2010PropOp31
 70
     0
102
RTVSPost2010Prop32
280
     0
102
RTVSPost2010PropOp32
 70
     0
102
RTVSPost2010Prop33
280
     0
102
RTVSPost2010PropOp33
 70
     0
102
RTVSPost2010Prop34
280
     0
102
RTVSPost2010PropOp34
 70
     0
102
RTVSPost2010Prop35
280
     0
102
RTVSPost2010PropOp35
 70
     0
102
RTVSPost2010Prop36
280
     0
102
RTVSPost2010PropOp36
 70
     0
102
RTVSPost2010Prop37
 90
       50
102
RTVSPost2010PropOp37
 70
     0
102
RTVSPost2010Prop38
140
0.0
102
RTVSPost2010PropOp38
 70
     0
102
RTVSPost2010Prop39
140
1.0
102
RTVSPost2010PropOp39
 70
     0
102
RTVSPost2010Prop40
 90
        0
102
RTVSPost2010PropOp40
 70
     0
102
RTVSPost2010Prop41ColorIndex
 90
       18
102
RTVSPost2010Prop41ColorRGB
 90
        0
102
RTVSPost2010PropOp41
 70
     0
102
RTVSPost2010Prop42
 90
       50
102
RTVSPost2010PropOp42
 70
     0
102
RTVSPost2010Prop43
 90
        3
102
RTVSPost2010PropOp43
 70
     0
102
RTVSPost2010Prop44ColorIndex
 90
        5
102
RTVSPost2010Prop44ColorRGB
 90
      255
102
RTVSPost2010PropOp44
 70
     0
102
RTVSPost2010Prop45
280
     0
102
RTVSPost2010PropOp45
 70
     0
102
RTVSPost2010Prop46
 90
       50
102
RTVSPost2010PropOp46
 70
     0
102
RTVSPost2010Prop47
 90
       50
102
RTVSPost2010PropOp47
 70
     0
102
RTVSPost2010Prop48
 90
       50
102
RTVSPost2010PropOp48
 70
     0
102
RTVSPost2010Prop49
280
     0
102
RTVSPost2010PropOp49
 70
     0
102
RTVSPost2010Prop50
 90
       50
102
RTVSPost2010PropOp50
 70
     0
102
RTVSPost2010Prop51ColorIndex
 90
      256
102
RTVSPost2010Prop51ColorRGB
 90
-16777216
102
RTVSPost2010PropOp51
 70
     0
102
RTVSPost2010Prop52
140
1.0
102
RTVSPost2010PropOp52
 70
     0
102
RTVSPost2010Prop53
 90
        2
102
RTVSPost2010PropOp53
 70
     0
102
RTVSPost2010Prop54
  1
strokes_ogs.tif
102
RTVSPost2010PropOp54
 70
     0
102
RTVSPost2010Prop55
280
     0
102
RTVSPost2010PropOp55
 70
     0
102
RTVSPost2010Prop56
140
1.0
102
RTVSPost2010PropOp56
 70
     0
102
RTVSPost2010Prop57
140
1.0
102
RTVSPost2010PropOp57
 70
     0
102
RTVSPropertyOp0
 70
     0
102
RTVSPropertyOp1
 70
     0
102
RTVSPropertyOp2
 70
     0
102
RTVSPropertyOp3
 70
     0
102
RTVSPropertyOp4
 70
     0
102
RTVSPropertyOp5
 70
     0
102
RTVSPropertyOp6
 70
     0
102
RTVSPropertyOp7
 70
     0
102
RTVSPropertyOp8
 70
     0
102
RTVSPropertyOp9
 70
     0
102
RTVSPropertyOp10
 70
     0
102
RTVSPropertyOp11
 70
     0
102
RTVSPropertyOp12
 70
     0
102
RTVSPropertyOp13
 70
     0
102
RTVSPropertyOp14
 70
     2
102
RTVSPropertyOp15
 70
     0
102
RTVSPropertyOp16
 70
     0
102
RTVSPropertyOp17
 70
     0
102
RTVSPropertyOp18
 70
     0
102
RTVSPropertyOp19
 70
     0
102
RTVSPropertyOp20
 70
     0
102
RTVSPropertyOp21
 70
     0
102
RTVSPropertyOp22
 70
     0
102
RTVSPropertyOp23
 70
     0
102
RTVSPropertyOp24
 70
     0
102
RTVSPropertyOp25
 70
     0
102
RTVSPropertyOp26
 70
     0
102
RTVSPropertyOp27
 70
     0
102
RTVSPropertyOp28
 70
     0
102
RTVSPropertyOp29
 70
     0
102
RTVSPropertyOp30
 70
     0
102
RTVSPropertyOp31
 70
     0
102
RTVSPropertyOp32
 70
     0
102
RTVSPropertyOp33
 70
     0
102
RTVSPropertyOp34
 70
     0
102
RTVSPropertyOp35
 70
     0
102
RTVSPropertyOp36
 70
     0
102
RTVSPropertyOp37
 70
     0
102
RTVSPropertyOp38
 70
     0
102
RTVSPropertyOp39
 70
     0
102
RTVSPropertyOp40
 70
     0
102
RTVSPropertyOp41
 70
     0
102
RTVSPropertyOp42
 70
     0
102
RTVSPropertyOp43
 70
     0
102
RTVSPropertyOp44
 70
     0
102
RTVSPropertyOp45
 70
     0
102
RTVSPropertyOp46
 70
     0
102
RTVSPropertyOp47
 70
     0
102
RTVSPropertyOp48
 70
     0
102
RTVSPropertyOp49
 70
     0
102
RTVSPropertyOp50
 70
     0
102
RTVSPropertyOp51
 70
     0
102
RTVSPropertyOp52
 70
     0
102
RTVSPropertyOp53
 70
     0
102
RTVSPropertyOp54
 70
     0
102
RTVSPropertyOp55
 70
     0
102
RTVSPropertyOp56
 70
     0
102
RTVSPropertyOp57
 70
     0
102
RTVSPropertyOp58
 70
     1
102
RTVSPropertyOp59
 70
     1
102
RTVSPropertyOp60
 70
     1
102
RTVSPropertyOp61
 70
     1
102
RTVSPropertyOp62
 70
     1
  0
XRECORD
  5
2871
102
{ACAD_REACTORS
330
2870
102
}
330
2870
100
AcDbXrecord
280
     1
102
RTVSPost2010Prop28
280
     0
102
RTVSPost2010PropOp28
 70
     1
102
RTVSPost2010Prop29
280
     1
102
RTVSPost2010PropOp29
 70
     1
102
RTVSPost2010Prop30
280
     1
102
RTVSPost2010PropOp30
 70
     1
102
RTVSPost2010Prop31
280
     0
102
RTVSPost2010PropOp31
 70
     1
102
RTVSPost2010Prop32
280
     0
102
RTVSPost2010PropOp32
 70
     1
102
RTVSPost2010Prop33
280
     0
102
RTVSPost2010PropOp33
 70
     1
102
RTVSPost2010Prop34
280
     0
102
RTVSPost2010PropOp34
 70
     1
102
RTVSPost2010Prop35
280
     0
102
RTVSPost2010PropOp35
 70
     1
102
RTVSPost2010Prop36
280
     0
102
RTVSPost2010PropOp36
 70
     1
102
RTVSPost2010Prop37
 90
       50
102
RTVSPost2010PropOp37
 70
     1
102
RTVSPost2010Prop38
140
0.0
102
RTVSPost2010PropOp38
 70
     1
102
RTVSPost2010Prop39
140
1.0
102
RTVSPost2010PropOp39
 70
     1
102
RTVSPost2010Prop40
 90
        0
102
RTVSPost2010PropOp40
 70
     1
102
RTVSPost2010Prop41ColorIndex
 90
       18
102
RTVSPost2010Prop41ColorRGB
 90
        0
102
RTVSPost2010PropOp41
 70
     1
102
RTVSPost2010Prop42
 90
       50
102
RTVSPost2010PropOp42
 70
     1
102
RTVSPost2010Prop43
 90
        3
102
RTVSPost2010PropOp43
 70
     1
102
RTVSPost2010Prop44ColorIndex
 90
        5
102
RTVSPost2010Prop44ColorRGB
 90
      255
102
RTVSPost2010PropOp44
 70
     1
102
RTVSPost2010Prop45
280
     0
102
RTVSPost2010PropOp45
 70
     1
102
RTVSPost2010Prop46
 90
       50
102
RTVSPost2010PropOp46
 70
     1
102
RTVSPost2010Prop47
 90
       50
102
RTVSPost2010PropOp47
 70
     1
102
RTVSPost2010Prop48
 90
       50
102
RTVSPost2010PropOp48
 70
     1
102
RTVSPost2010Prop49
280
     0
102
RTVSPost2010PropOp49
 70
     1
102
RTVSPost2010Prop50
 90
       50
102
RTVSPost2010PropOp50
 70
     1
102
RTVSPost2010Prop51ColorIndex
 90
      256
102
RTVSPost2010Prop51ColorRGB
 90
-16777216
102
RTVSPost2010PropOp51
 70
     0
102
RTVSPost2010Prop52
140
1.0
102
RTVSPost2010PropOp52
 70
     0
102
RTVSPost2010Prop53
 90
        2
102
RTVSPost2010PropOp53
 70
     1
102
RTVSPost2010Prop54
  1
strokes_ogs.tif
102
RTVSPost2010PropOp54
 70
     1
102
RTVSPost2010Prop55
280
     0
102
RTVSPost2010PropOp55
 70
     1
102
RTVSPost2010Prop56
140
1.0
102
RTVSPost2010PropOp56
 70
     1
102
RTVSPost2010Prop57
140
1.0
102
RTVSPost2010PropOp57
 70
     1
102
RTVSPropertyOp0
 70
     1
102
RTVSPropertyOp1
 70
     1
102
RTVSPropertyOp2
 70
     1
102
RTVSPropertyOp3
 70
     1
102
RTVSPropertyOp4
 70
     1
102
RTVSPropertyOp5
 70
     1
102
RTVSPropertyOp6
 70
     1
102
RTVSPropertyOp7
 70
     1
102
RTVSPropertyOp8
 70
     1
102
RTVSPropertyOp9
 70
     1
102
RTVSPropertyOp10
 70
     1
102
RTVSPropertyOp11
 70
     1
102
RTVSPropertyOp12
 70
     1
102
RTVSPropertyOp13
 70
     1
102
RTVSPropertyOp14
 70
     1
102
RTVSPropertyOp15
 70
     1
102
RTVSPropertyOp16
 70
     1
102
RTVSPropertyOp17
 70
     1
102
RTVSPropertyOp18
 70
     1
102
RTVSPropertyOp19
 70
     1
102
RTVSPropertyOp20
 70
     1
102
RTVSPropertyOp21
 70
     1
102
RTVSPropertyOp22
 70
     1
102
RTVSPropertyOp23
 70
     1
102
RTVSPropertyOp24
 70
     1
102
RTVSPropertyOp25
 70
     1
102
RTVSPropertyOp26
 70
     1
102
RTVSPropertyOp27
 70
     1
102
RTVSPropertyOp28
 70
     1
102
RTVSPropertyOp29
 70
     1
102
RTVSPropertyOp30
 70
     1
102
RTVSPropertyOp31
 70
     1
102
RTVSPropertyOp32
 70
     1
102
RTVSPropertyOp33
 70
     1
102
RTVSPropertyOp34
 70
     1
102
RTVSPropertyOp35
 70
     1
102
RTVSPropertyOp36
 70
     1
102
RTVSPropertyOp37
 70
     1
102
RTVSPropertyOp38
 70
     1
102
RTVSPropertyOp39
 70
     1
102
RTVSPropertyOp40
 70
     1
102
RTVSPropertyOp41
 70
     1
102
RTVSPropertyOp42
 70
     1
102
RTVSPropertyOp43
 70
     1
102
RTVSPropertyOp44
 70
     1
102
RTVSPropertyOp45
 70
     1
102
RTVSPropertyOp46
 70
     1
102
RTVSPropertyOp47
 70
     1
102
RTVSPropertyOp48
 70
     1
102
RTVSPropertyOp49
 70
     1
102
RTVSPropertyOp50
 70
     1
102
RTVSPropertyOp51
 70
     0
102
RTVSPropertyOp52
 70
     0
102
RTVSPropertyOp53
 70
     1
102
RTVSPropertyOp54
 70
     1
102
RTVSPropertyOp55
 70
     1
102
RTVSPropertyOp56
 70
     1
102
RTVSPropertyOp57
 70
     1
102
RTVSPropertyOp58
 70
     1
102
RTVSPropertyOp59
 70
     1
102
RTVSPropertyOp60
 70
     1
102
RTVSPropertyOp61
 70
     1
102
RTVSPropertyOp62
 70
     1
  0
XRECORD
  5
2855
102
{ACAD_REACTORS
330
2854
102
}
330
2854
100
AcDbXrecord
280
     1
102
RTVSPost2010Prop28
280
     0
102
RTVSPost2010PropOp28
 70
     1
102
RTVSPost2010Prop29
280
     1
102
RTVSPost2010PropOp29
 70
     1
102
RTVSPost2010Prop30
280
     1
102
RTVSPost2010PropOp30
 70
     1
102
RTVSPost2010Prop31
280
     0
102
RTVSPost2010PropOp31
 70
     1
102
RTVSPost2010Prop32
280
     0
102
RTVSPost2010PropOp32
 70
     1
102
RTVSPost2010Prop33
280
     0
102
RTVSPost2010PropOp33
 70
     1
102
RTVSPost2010Prop34
280
     0
102
RTVSPost2010PropOp34
 70
     1
102
RTVSPost2010Prop35
280
     0
102
RTVSPost2010PropOp35
 70
     1
102
RTVSPost2010Prop36
280
     0
102
RTVSPost2010PropOp36
 70
     1
102
RTVSPost2010Prop37
 90
       50
102
RTVSPost2010PropOp37
 70
     1
102
RTVSPost2010Prop38
140
0.0
102
RTVSPost2010PropOp38
 70
     1
102
RTVSPost2010Prop39
140
1.0
102
RTVSPost2010PropOp39
 70
     1
102
RTVSPost2010Prop40
 90
        0
102
RTVSPost2010PropOp40
 70
     1
102
RTVSPost2010Prop41ColorIndex
 90
       18
102
RTVSPost2010Prop41ColorRGB
 90
        0
102
RTVSPost2010PropOp41
 70
     1
102
RTVSPost2010Prop42
 90
       50
102
RTVSPost2010PropOp42
 70
     1
102
RTVSPost2010Prop43
 90
        3
102
RTVSPost2010PropOp43
 70
     1
102
RTVSPost2010Prop44ColorIndex
 90
        5
102
RTVSPost2010Prop44ColorRGB
 90
      255
102
RTVSPost2010PropOp44
 70
     1
102
RTVSPost2010Prop45
280
     0
102
RTVSPost2010PropOp45
 70
     1
102
RTVSPost2010Prop46
 90
       50
102
RTVSPost2010PropOp46
 70
     1
102
RTVSPost2010Prop47
 90
       50
102
RTVSPost2010PropOp47
 70
     1
102
RTVSPost2010Prop48
 90
       50
102
RTVSPost2010PropOp48
 70
     1
102
RTVSPost2010Prop49
280
     0
102
RTVSPost2010PropOp49
 70
     1
102
RTVSPost2010Prop50
 90
       50
102
RTVSPost2010PropOp50
 70
     1
102
RTVSPost2010Prop51ColorIndex
 90
      256
102
RTVSPost2010Prop51ColorRGB
 90
-16777216
102
RTVSPost2010PropOp51
 70
     0
102
RTVSPost2010Prop52
140
1.0
102
RTVSPost2010PropOp52
 70
     0
102
RTVSPost2010Prop53
 90
        2
102
RTVSPost2010PropOp53
 70
     1
102
RTVSPost2010Prop54
  1
strokes_ogs.tif
102
RTVSPost2010PropOp54
 70
     1
102
RTVSPost2010Prop55
280
     0
102
RTVSPost2010PropOp55
 70
     1
102
RTVSPost2010Prop56
140
1.0
102
RTVSPost2010PropOp56
 70
     1
102
RTVSPost2010Prop57
140
1.0
102
RTVSPost2010PropOp57
 70
     1
102
RTVSPropertyOp0
 70
     1
102
RTVSPropertyOp1
 70
     1
102
RTVSPropertyOp2
 70
     1
102
RTVSPropertyOp3
 70
     1
102
RTVSPropertyOp4
 70
     1
102
RTVSPropertyOp5
 70
     1
102
RTVSPropertyOp6
 70
     1
102
RTVSPropertyOp7
 70
     1
102
RTVSPropertyOp8
 70
     1
102
RTVSPropertyOp9
 70
     1
102
RTVSPropertyOp10
 70
     1
102
RTVSPropertyOp11
 70
     1
102
RTVSPropertyOp12
 70
     1
102
RTVSPropertyOp13
 70
     1
102
RTVSPropertyOp14
 70
     1
102
RTVSPropertyOp15
 70
     1
102
RTVSPropertyOp16
 70
     1
102
RTVSPropertyOp17
 70
     1
102
RTVSPropertyOp18
 70
     1
102
RTVSPropertyOp19
 70
     1
102
RTVSPropertyOp20
 70
     1
102
RTVSPropertyOp21
 70
     1
102
RTVSPropertyOp22
 70
     1
102
RTVSPropertyOp23
 70
     1
102
RTVSPropertyOp24
 70
     1
102
RTVSPropertyOp25
 70
     1
102
RTVSPropertyOp26
 70
     1
102
RTVSPropertyOp27
 70
     1
102
RTVSPropertyOp28
 70
     1
102
RTVSPropertyOp29
 70
     1
102
RTVSPropertyOp30
 70
     1
102
RTVSPropertyOp31
 70
     1
102
RTVSPropertyOp32
 70
     1
102
RTVSPropertyOp33
 70
     1
102
RTVSPropertyOp34
 70
     1
102
RTVSPropertyOp35
 70
     1
102
RTVSPropertyOp36
 70
     1
102
RTVSPropertyOp37
 70
     1
102
RTVSPropertyOp38
 70
     1
102
RTVSPropertyOp39
 70
     1
102
RTVSPropertyOp40
 70
     1
102
RTVSPropertyOp41
 70
     1
102
RTVSPropertyOp42
 70
     1
102
RTVSPropertyOp43
 70
     1
102
RTVSPropertyOp44
 70
     1
102
RTVSPropertyOp45
 70
     1
102
RTVSPropertyOp46
 70
     1
102
RTVSPropertyOp47
 70
     1
102
RTVSPropertyOp48
 70
     1
102
RTVSPropertyOp49
 70
     1
102
RTVSPropertyOp50
 70
     1
102
RTVSPropertyOp51
 70
     0
102
RTVSPropertyOp52
 70
     0
102
RTVSPropertyOp53
 70
     1
102
RTVSPropertyOp54
 70
     1
102
RTVSPropertyOp55
 70
     1
102
RTVSPropertyOp56
 70
     1
102
RTVSPropertyOp57
 70
     1
102
RTVSPropertyOp58
 70
     1
102
RTVSPropertyOp59
 70
     1
102
RTVSPropertyOp60
 70
     1
102
RTVSPropertyOp61
 70
     1
102
RTVSPropertyOp62
 70
     1
  0
XRECORD
  5
2857
102
{ACAD_REACTORS
330
2856
102
}
330
2856
100
AcDbXrecord
280
     1
102
RTVSPost2010Prop28
280
     0
102
RTVSPost2010PropOp28
 70
     1
102
RTVSPost2010Prop29
280
     1
102
RTVSPost2010PropOp29
 70
     1
102
RTVSPost2010Prop30
280
     1
102
RTVSPost2010PropOp30
 70
     1
102
RTVSPost2010Prop31
280
     0
102
RTVSPost2010PropOp31
 70
     1
102
RTVSPost2010Prop32
280
     0
102
RTVSPost2010PropOp32
 70
     1
102
RTVSPost2010Prop33
280
     0
102
RTVSPost2010PropOp33
 70
     1
102
RTVSPost2010Prop34
280
     0
102
RTVSPost2010PropOp34
 70
     1
102
RTVSPost2010Prop35
280
     0
102
RTVSPost2010PropOp35
 70
     1
102
RTVSPost2010Prop36
280
     0
102
RTVSPost2010PropOp36
 70
     1
102
RTVSPost2010Prop37
 90
       50
102
RTVSPost2010PropOp37
 70
     1
102
RTVSPost2010Prop38
140
0.0
102
RTVSPost2010PropOp38
 70
     1
102
RTVSPost2010Prop39
140
1.0
102
RTVSPost2010PropOp39
 70
     1
102
RTVSPost2010Prop40
 90
        0
102
RTVSPost2010PropOp40
 70
     1
102
RTVSPost2010Prop41ColorIndex
 90
       18
102
RTVSPost2010Prop41ColorRGB
 90
        0
102
RTVSPost2010PropOp41
 70
     1
102
RTVSPost2010Prop42
 90
       50
102
RTVSPost2010PropOp42
 70
     1
102
RTVSPost2010Prop43
 90
        3
102
RTVSPost2010PropOp43
 70
     1
102
RTVSPost2010Prop44ColorIndex
 90
        5
102
RTVSPost2010Prop44ColorRGB
 90
      255
102
RTVSPost2010PropOp44
 70
     1
102
RTVSPost2010Prop45
280
     0
102
RTVSPost2010PropOp45
 70
     1
102
RTVSPost2010Prop46
 90
       50
102
RTVSPost2010PropOp46
 70
     1
102
RTVSPost2010Prop47
 90
       50
102
RTVSPost2010PropOp47
 70
     1
102
RTVSPost2010Prop48
 90
       50
102
RTVSPost2010PropOp48
 70
     1
102
RTVSPost2010Prop49
280
     0
102
RTVSPost2010PropOp49
 70
     1
102
RTVSPost2010Prop50
 90
       50
102
RTVSPost2010PropOp50
 70
     1
102
RTVSPost2010Prop51ColorIndex
 90
      256
102
RTVSPost2010Prop51ColorRGB
 90
-16777216
102
RTVSPost2010PropOp51
 70
     0
102
RTVSPost2010Prop52
140
1.0
102
RTVSPost2010PropOp52
 70
     0
102
RTVSPost2010Prop53
 90
        2
102
RTVSPost2010PropOp53
 70
     1
102
RTVSPost2010Prop54
  1
strokes_ogs.tif
102
RTVSPost2010PropOp54
 70
     1
102
RTVSPost2010Prop55
280
     0
102
RTVSPost2010PropOp55
 70
     1
102
RTVSPost2010Prop56
140
1.0
102
RTVSPost2010PropOp56
 70
     1
102
RTVSPost2010Prop57
140
1.0
102
RTVSPost2010PropOp57
 70
     1
102
RTVSPropertyOp0
 70
     1
102
RTVSPropertyOp1
 70
     1
102
RTVSPropertyOp2
 70
     1
102
RTVSPropertyOp3
 70
     1
102
RTVSPropertyOp4
 70
     1
102
RTVSPropertyOp5
 70
     1
102
RTVSPropertyOp6
 70
     1
102
RTVSPropertyOp7
 70
     1
102
RTVSPropertyOp8
 70
     1
102
RTVSPropertyOp9
 70
     1
102
RTVSPropertyOp10
 70
     1
102
RTVSPropertyOp11
 70
     1
102
RTVSPropertyOp12
 70
     1
102
RTVSPropertyOp13
 70
     1
102
RTVSPropertyOp14
 70
     1
102
RTVSPropertyOp15
 70
     1
102
RTVSPropertyOp16
 70
     1
102
RTVSPropertyOp17
 70
     1
102
RTVSPropertyOp18
 70
     1
102
RTVSPropertyOp19
 70
     1
102
RTVSPropertyOp20
 70
     1
102
RTVSPropertyOp21
 70
     1
102
RTVSPropertyOp22
 70
     1
102
RTVSPropertyOp23
 70
     1
102
RTVSPropertyOp24
 70
     1
102
RTVSPropertyOp25
 70
     1
102
RTVSPropertyOp26
 70
     1
102
RTVSPropertyOp27
 70
     1
102
RTVSPropertyOp28
 70
     1
102
RTVSPropertyOp29
 70
     1
102
RTVSPropertyOp30
 70
     1
102
RTVSPropertyOp31
 70
     1
102
RTVSPropertyOp32
 70
     1
102
RTVSPropertyOp33
 70
     1
102
RTVSPropertyOp34
 70
     1
102
RTVSPropertyOp35
 70
     1
102
RTVSPropertyOp36
 70
     1
102
RTVSPropertyOp37
 70
     1
102
RTVSPropertyOp38
 70
     1
102
RTVSPropertyOp39
 70
     1
102
RTVSPropertyOp40
 70
     1
102
RTVSPropertyOp41
 70
     1
102
RTVSPropertyOp42
 70
     1
102
RTVSPropertyOp43
 70
     1
102
RTVSPropertyOp44
 70
     1
102
RTVSPropertyOp45
 70
     1
102
RTVSPropertyOp46
 70
     1
102
RTVSPropertyOp47
 70
     1
102
RTVSPropertyOp48
 70
     1
102
RTVSPropertyOp49
 70
     1
102
RTVSPropertyOp50
 70
     1
102
RTVSPropertyOp51
 70
     0
102
RTVSPropertyOp52
 70
     0
102
RTVSPropertyOp53
 70
     1
102
RTVSPropertyOp54
 70
     1
102
RTVSPropertyOp55
 70
     1
102
RTVSPropertyOp56
 70
     1
102
RTVSPropertyOp57
 70
     1
102
RTVSPropertyOp58
 70
     1
102
RTVSPropertyOp59
 70
     1
102
RTVSPropertyOp60
 70
     1
102
RTVSPropertyOp61
 70
     1
102
RTVSPropertyOp62
 70
     1
  0
XRECORD
  5
2859
102
{ACAD_REACTORS
330
2858
102
}
330
2858
100
AcDbXrecord
280
     1
102
RTVSPost2010Prop28
280
     0
102
RTVSPost2010PropOp28
 70
     1
102
RTVSPost2010Prop29
280
     1
102
RTVSPost2010PropOp29
 70
     1
102
RTVSPost2010Prop30
280
     1
102
RTVSPost2010PropOp30
 70
     1
102
RTVSPost2010Prop31
280
     0
102
RTVSPost2010PropOp31
 70
     1
102
RTVSPost2010Prop32
280
     0
102
RTVSPost2010PropOp32
 70
     1
102
RTVSPost2010Prop33
280
     0
102
RTVSPost2010PropOp33
 70
     1
102
RTVSPost2010Prop34
280
     0
102
RTVSPost2010PropOp34
 70
     1
102
RTVSPost2010Prop35
280
     0
102
RTVSPost2010PropOp35
 70
     1
102
RTVSPost2010Prop36
280
     0
102
RTVSPost2010PropOp36
 70
     1
102
RTVSPost2010Prop37
 90
       50
102
RTVSPost2010PropOp37
 70
     1
102
RTVSPost2010Prop38
140
0.0
102
RTVSPost2010PropOp38
 70
     1
102
RTVSPost2010Prop39
140
1.0
102
RTVSPost2010PropOp39
 70
     1
102
RTVSPost2010Prop40
 90
        0
102
RTVSPost2010PropOp40
 70
     1
102
RTVSPost2010Prop41ColorIndex
 90
       18
102
RTVSPost2010Prop41ColorRGB
 90
        0
102
RTVSPost2010PropOp41
 70
     1
102
RTVSPost2010Prop42
 90
       50
102
RTVSPost2010PropOp42
 70
     1
102
RTVSPost2010Prop43
 90
        3
102
RTVSPost2010PropOp43
 70
     1
102
RTVSPost2010Prop44ColorIndex
 90
        5
102
RTVSPost2010Prop44ColorRGB
 90
      255
102
RTVSPost2010PropOp44
 70
     1
102
RTVSPost2010Prop45
280
     0
102
RTVSPost2010PropOp45
 70
     1
102
RTVSPost2010Prop46
 90
       50
102
RTVSPost2010PropOp46
 70
     1
102
RTVSPost2010Prop47
 90
       50
102
RTVSPost2010PropOp47
 70
     1
102
RTVSPost2010Prop48
 90
       50
102
RTVSPost2010PropOp48
 70
     1
102
RTVSPost2010Prop49
280
     0
102
RTVSPost2010PropOp49
 70
     1
102
RTVSPost2010Prop50
 90
       50
102
RTVSPost2010PropOp50
 70
     1
102
RTVSPost2010Prop51ColorIndex
 90
      256
102
RTVSPost2010Prop51ColorRGB
 90
-16777216
102
RTVSPost2010PropOp51
 70
     0
102
RTVSPost2010Prop52
140
1.0
102
RTVSPost2010PropOp52
 70
     0
102
RTVSPost2010Prop53
 90
        2
102
RTVSPost2010PropOp53
 70
     1
102
RTVSPost2010Prop54
  1
strokes_ogs.tif
102
RTVSPost2010PropOp54
 70
     1
102
RTVSPost2010Prop55
280
     0
102
RTVSPost2010PropOp55
 70
     1
102
RTVSPost2010Prop56
140
1.0
102
RTVSPost2010PropOp56
 70
     1
102
RTVSPost2010Prop57
140
1.0
102
RTVSPost2010PropOp57
 70
     1
102
RTVSPropertyOp0
 70
     1
102
RTVSPropertyOp1
 70
     1
102
RTVSPropertyOp2
 70
     1
102
RTVSPropertyOp3
 70
     1
102
RTVSPropertyOp4
 70
     1
102
RTVSPropertyOp5
 70
     1
102
RTVSPropertyOp6
 70
     1
102
RTVSPropertyOp7
 70
     1
102
RTVSPropertyOp8
 70
     1
102
RTVSPropertyOp9
 70
     1
102
RTVSPropertyOp10
 70
     1
102
RTVSPropertyOp11
 70
     1
102
RTVSPropertyOp12
 70
     1
102
RTVSPropertyOp13
 70
     1
102
RTVSPropertyOp14
 70
     1
102
RTVSPropertyOp15
 70
     1
102
RTVSPropertyOp16
 70
     1
102
RTVSPropertyOp17
 70
     1
102
RTVSPropertyOp18
 70
     1
102
RTVSPropertyOp19
 70
     1
102
RTVSPropertyOp20
 70
     1
102
RTVSPropertyOp21
 70
     1
102
RTVSPropertyOp22
 70
     1
102
RTVSPropertyOp23
 70
     1
102
RTVSPropertyOp24
 70
     1
102
RTVSPropertyOp25
 70
     1
102
RTVSPropertyOp26
 70
     1
102
RTVSPropertyOp27
 70
     1
102
RTVSPropertyOp28
 70
     1
102
RTVSPropertyOp29
 70
     1
102
RTVSPropertyOp30
 70
     1
102
RTVSPropertyOp31
 70
     1
102
RTVSPropertyOp32
 70
     1
102
RTVSPropertyOp33
 70
     1
102
RTVSPropertyOp34
 70
     1
102
RTVSPropertyOp35
 70
     1
102
RTVSPropertyOp36
 70
     1
102
RTVSPropertyOp37
 70
     1
102
RTVSPropertyOp38
 70
     1
102
RTVSPropertyOp39
 70
     1
102
RTVSPropertyOp40
 70
     1
102
RTVSPropertyOp41
 70
     1
102
RTVSPropertyOp42
 70
     1
102
RTVSPropertyOp43
 70
     1
102
RTVSPropertyOp44
 70
     1
102
RTVSPropertyOp45
 70
     1
102
RTVSPropertyOp46
 70
     1
102
RTVSPropertyOp47
 70
     1
102
RTVSPropertyOp48
 70
     1
102
RTVSPropertyOp49
 70
     1
102
RTVSPropertyOp50
 70
     1
102
RTVSPropertyOp51
 70
     0
102
RTVSPropertyOp52
 70
     0
102
RTVSPropertyOp53
 70
     1
102
RTVSPropertyOp54
 70
     1
102
RTVSPropertyOp55
 70
     1
102
RTVSPropertyOp56
 70
     1
102
RTVSPropertyOp57
 70
     1
102
RTVSPropertyOp58
 70
     1
102
RTVSPropertyOp59
 70
     1
102
RTVSPropertyOp60
 70
     1
102
RTVSPropertyOp61
 70
     1
102
RTVSPropertyOp62
 70
     1
  0
XRECORD
  5
285B
102
{ACAD_REACTORS
330
285A
102
}
330
285A
100
AcDbXrecord
280
     1
102
RTVSPost2010Prop28
280
     0
102
RTVSPost2010PropOp28
 70
     1
102
RTVSPost2010Prop29
280
     1
102
RTVSPost2010PropOp29
 70
     1
102
RTVSPost2010Prop30
280
     1
102
RTVSPost2010PropOp30
 70
     1
102
RTVSPost2010Prop31
280
     0
102
RTVSPost2010PropOp31
 70
     1
102
RTVSPost2010Prop32
280
     0
102
RTVSPost2010PropOp32
 70
     1
102
RTVSPost2010Prop33
280
     0
102
RTVSPost2010PropOp33
 70
     1
102
RTVSPost2010Prop34
280
     0
102
RTVSPost2010PropOp34
 70
     1
102
RTVSPost2010Prop35
280
     0
102
RTVSPost2010PropOp35
 70
     1
102
RTVSPost2010Prop36
280
     0
102
RTVSPost2010PropOp36
 70
     1
102
RTVSPost2010Prop37
 90
       50
102
RTVSPost2010PropOp37
 70
     1
102
RTVSPost2010Prop38
140
0.0
102
RTVSPost2010PropOp38
 70
     1
102
RTVSPost2010Prop39
140
1.0
102
RTVSPost2010PropOp39
 70
     1
102
RTVSPost2010Prop40
 90
        0
102
RTVSPost2010PropOp40
 70
     1
102
RTVSPost2010Prop41ColorIndex
 90
       18
102
RTVSPost2010Prop41ColorRGB
 90
        0
102
RTVSPost2010PropOp41
 70
     1
102
RTVSPost2010Prop42
 90
       50
102
RTVSPost2010PropOp42
 70
     1
102
RTVSPost2010Prop43
 90
        3
102
RTVSPost2010PropOp43
 70
     1
102
RTVSPost2010Prop44ColorIndex
 90
        5
102
RTVSPost2010Prop44ColorRGB
 90
      255
102
RTVSPost2010PropOp44
 70
     1
102
RTVSPost2010Prop45
280
     0
102
RTVSPost2010PropOp45
 70
     1
102
RTVSPost2010Prop46
 90
       50
102
RTVSPost2010PropOp46
 70
     1
102
RTVSPost2010Prop47
 90
       50
102
RTVSPost2010PropOp47
 70
     1
102
RTVSPost2010Prop48
 90
       50
102
RTVSPost2010PropOp48
 70
     1
102
RTVSPost2010Prop49
280
     0
102
RTVSPost2010PropOp49
 70
     1
102
RTVSPost2010Prop50
 90
       50
102
RTVSPost2010PropOp50
 70
     1
102
RTVSPost2010Prop51ColorIndex
 90
      256
102
RTVSPost2010Prop51ColorRGB
 90
-16777216
102
RTVSPost2010PropOp51
 70
     0
102
RTVSPost2010Prop52
140
1.0
102
RTVSPost2010PropOp52
 70
     0
102
RTVSPost2010Prop53
 90
        2
102
RTVSPost2010PropOp53
 70
     1
102
RTVSPost2010Prop54
  1
strokes_ogs.tif
102
RTVSPost2010PropOp54
 70
     1
102
RTVSPost2010Prop55
280
     0
102
RTVSPost2010PropOp55
 70
     1
102
RTVSPost2010Prop56
140
1.0
102
RTVSPost2010PropOp56
 70
     1
102
RTVSPost2010Prop57
140
1.0
102
RTVSPost2010PropOp57
 70
     1
102
RTVSPropertyOp0
 70
     1
102
RTVSPropertyOp1
 70
     1
102
RTVSPropertyOp2
 70
     1
102
RTVSPropertyOp3
 70
     1
102
RTVSPropertyOp4
 70
     1
102
RTVSPropertyOp5
 70
     1
102
RTVSPropertyOp6
 70
     1
102
RTVSPropertyOp7
 70
     1
102
RTVSPropertyOp8
 70
     1
102
RTVSPropertyOp9
 70
     1
102
RTVSPropertyOp10
 70
     1
102
RTVSPropertyOp11
 70
     1
102
RTVSPropertyOp12
 70
     1
102
RTVSPropertyOp13
 70
     1
102
RTVSPropertyOp14
 70
     1
102
RTVSPropertyOp15
 70
     1
102
RTVSPropertyOp16
 70
     1
102
RTVSPropertyOp17
 70
     1
102
RTVSPropertyOp18
 70
     1
102
RTVSPropertyOp19
 70
     1
102
RTVSPropertyOp20
 70
     1
102
RTVSPropertyOp21
 70
     1
102
RTVSPropertyOp22
 70
     1
102
RTVSPropertyOp23
 70
     1
102
RTVSPropertyOp24
 70
     1
102
RTVSPropertyOp25
 70
     1
102
RTVSPropertyOp26
 70
     1
102
RTVSPropertyOp27
 70
     1
102
RTVSPropertyOp28
 70
     1
102
RTVSPropertyOp29
 70
     1
102
RTVSPropertyOp30
 70
     1
102
RTVSPropertyOp31
 70
     1
102
RTVSPropertyOp32
 70
     1
102
RTVSPropertyOp33
 70
     1
102
RTVSPropertyOp34
 70
     1
102
RTVSPropertyOp35
 70
     1
102
RTVSPropertyOp36
 70
     1
102
RTVSPropertyOp37
 70
     1
102
RTVSPropertyOp38
 70
     1
102
RTVSPropertyOp39
 70
     1
102
RTVSPropertyOp40
 70
     1
102
RTVSPropertyOp41
 70
     1
102
RTVSPropertyOp42
 70
     1
102
RTVSPropertyOp43
 70
     1
102
RTVSPropertyOp44
 70
     1
102
RTVSPropertyOp45
 70
     1
102
RTVSPropertyOp46
 70
     1
102
RTVSPropertyOp47
 70
     1
102
RTVSPropertyOp48
 70
     1
102
RTVSPropertyOp49
 70
     1
102
RTVSPropertyOp50
 70
     1
102
RTVSPropertyOp51
 70
     0
102
RTVSPropertyOp52
 70
     0
102
RTVSPropertyOp53
 70
     1
102
RTVSPropertyOp54
 70
     1
102
RTVSPropertyOp55
 70
     1
102
RTVSPropertyOp56
 70
     1
102
RTVSPropertyOp57
 70
     1
102
RTVSPropertyOp58
 70
     1
102
RTVSPropertyOp59
 70
     1
102
RTVSPropertyOp60
 70
     1
102
RTVSPropertyOp61
 70
     1
102
RTVSPropertyOp62
 70
     1
  0
XRECORD
  5
2863
102
{ACAD_REACTORS
330
2862
102
}
330
2862
100
AcDbXrecord
280
     1
102
RTVSPost2010Prop28
280
     0
102
RTVSPost2010PropOp28
 70
     1
102
RTVSPost2010Prop29
280
     1
102
RTVSPost2010PropOp29
 70
     1
102
RTVSPost2010Prop30
280
     1
102
RTVSPost2010PropOp30
 70
     1
102
RTVSPost2010Prop31
280
     0
102
RTVSPost2010PropOp31
 70
     1
102
RTVSPost2010Prop32
280
     0
102
RTVSPost2010PropOp32
 70
     1
102
RTVSPost2010Prop33
280
     0
102
RTVSPost2010PropOp33
 70
     1
102
RTVSPost2010Prop34
280
     0
102
RTVSPost2010PropOp34
 70
     1
102
RTVSPost2010Prop35
280
     0
102
RTVSPost2010PropOp35
 70
     1
102
RTVSPost2010Prop36
280
     0
102
RTVSPost2010PropOp36
 70
     1
102
RTVSPost2010Prop37
 90
       50
102
RTVSPost2010PropOp37
 70
     1
102
RTVSPost2010Prop38
140
0.0
102
RTVSPost2010PropOp38
 70
     1
102
RTVSPost2010Prop39
140
1.0
102
RTVSPost2010PropOp39
 70
     1
102
RTVSPost2010Prop40
 90
        0
102
RTVSPost2010PropOp40
 70
     1
102
RTVSPost2010Prop41ColorIndex
 90
       18
102
RTVSPost2010Prop41ColorRGB
 90
        0
102
RTVSPost2010PropOp41
 70
     1
102
RTVSPost2010Prop42
 90
       50
102
RTVSPost2010PropOp42
 70
     1
102
RTVSPost2010Prop43
 90
        3
102
RTVSPost2010PropOp43
 70
     1
102
RTVSPost2010Prop44ColorIndex
 90
        5
102
RTVSPost2010Prop44ColorRGB
 90
      255
102
RTVSPost2010PropOp44
 70
     1
102
RTVSPost2010Prop45
280
     0
102
RTVSPost2010PropOp45
 70
     1
102
RTVSPost2010Prop46
 90
       50
102
RTVSPost2010PropOp46
 70
     1
102
RTVSPost2010Prop47
 90
       50
102
RTVSPost2010PropOp47
 70
     1
102
RTVSPost2010Prop48
 90
       50
102
RTVSPost2010PropOp48
 70
     1
102
RTVSPost2010Prop49
280
     0
102
RTVSPost2010PropOp49
 70
     1
102
RTVSPost2010Prop50
 90
       50
102
RTVSPost2010PropOp50
 70
     1
102
RTVSPost2010Prop51ColorIndex
 90
      256
102
RTVSPost2010Prop51ColorRGB
 90
-16777216
102
RTVSPost2010PropOp51
 70
     0
102
RTVSPost2010Prop52
140
1.0
102
RTVSPost2010PropOp52
 70
     0
102
RTVSPost2010Prop53
 90
        2
102
RTVSPost2010PropOp53
 70
     1
102
RTVSPost2010Prop54
  1
strokes_ogs.tif
102
RTVSPost2010PropOp54
 70
     1
102
RTVSPost2010Prop55
280
     0
102
RTVSPost2010PropOp55
 70
     1
102
RTVSPost2010Prop56
140
1.0
102
RTVSPost2010PropOp56
 70
     1
102
RTVSPost2010Prop57
140
1.0
102
RTVSPost2010PropOp57
 70
     1
102
RTVSPropertyOp0
 70
     1
102
RTVSPropertyOp1
 70
     1
102
RTVSPropertyOp2
 70
     1
102
RTVSPropertyOp3
 70
     1
102
RTVSPropertyOp4
 70
     1
102
RTVSPropertyOp5
 70
     1
102
RTVSPropertyOp6
 70
     1
102
RTVSPropertyOp7
 70
     1
102
RTVSPropertyOp8
 70
     1
102
RTVSPropertyOp9
 70
     1
102
RTVSPropertyOp10
 70
     1
102
RTVSPropertyOp11
 70
     1
102
RTVSPropertyOp12
 70
     1
102
RTVSPropertyOp13
 70
     1
102
RTVSPropertyOp14
 70
     1
102
RTVSPropertyOp15
 70
     1
102
RTVSPropertyOp16
 70
     1
102
RTVSPropertyOp17
 70
     1
102
RTVSPropertyOp18
 70
     1
102
RTVSPropertyOp19
 70
     1
102
RTVSPropertyOp20
 70
     1
102
RTVSPropertyOp21
 70
     1
102
RTVSPropertyOp22
 70
     1
102
RTVSPropertyOp23
 70
     1
102
RTVSPropertyOp24
 70
     1
102
RTVSPropertyOp25
 70
     1
102
RTVSPropertyOp26
 70
     1
102
RTVSPropertyOp27
 70
     1
102
RTVSPropertyOp28
 70
     1
102
RTVSPropertyOp29
 70
     1
102
RTVSPropertyOp30
 70
     1
102
RTVSPropertyOp31
 70
     1
102
RTVSPropertyOp32
 70
     1
102
RTVSPropertyOp33
 70
     1
102
RTVSPropertyOp34
 70
     1
102
RTVSPropertyOp35
 70
     1
102
RTVSPropertyOp36
 70
     1
102
RTVSPropertyOp37
 70
     1
102
RTVSPropertyOp38
 70
     1
102
RTVSPropertyOp39
 70
     1
102
RTVSPropertyOp40
 70
     1
102
RTVSPropertyOp41
 70
     1
102
RTVSPropertyOp42
 70
     1
102
RTVSPropertyOp43
 70
     1
102
RTVSPropertyOp44
 70
     1
102
RTVSPropertyOp45
 70
     1
102
RTVSPropertyOp46
 70
     1
102
RTVSPropertyOp47
 70
     1
102
RTVSPropertyOp48
 70
     1
102
RTVSPropertyOp49
 70
     1
102
RTVSPropertyOp50
 70
     1
102
RTVSPropertyOp51
 70
     0
102
RTVSPropertyOp52
 70
     0
102
RTVSPropertyOp53
 70
     1
102
RTVSPropertyOp54
 70
     1
102
RTVSPropertyOp55
 70
     1
102
RTVSPropertyOp56
 70
     1
102
RTVSPropertyOp57
 70
     1
102
RTVSPropertyOp58
 70
     1
102
RTVSPropertyOp59
 70
     1
102
RTVSPropertyOp60
 70
     1
102
RTVSPropertyOp61
 70
     1
102
RTVSPropertyOp62
 70
     1
  0
XRECORD
  5
287F
102
{ACAD_REACTORS
330
287E
102
}
330
287E
100
AcDbXrecord
280
     1
102
RTVSPost2010Prop28
280
     0
102
RTVSPost2010PropOp28
 70
     0
102
RTVSPost2010Prop29
280
     1
102
RTVSPost2010PropOp29
 70
     0
102
RTVSPost2010Prop30
280
     1
102
RTVSPost2010PropOp30
 70
     0
102
RTVSPost2010Prop31
280
     0
102
RTVSPost2010PropOp31
 70
     0
102
RTVSPost2010Prop32
280
     0
102
RTVSPost2010PropOp32
 70
     0
102
RTVSPost2010Prop33
280
     0
102
RTVSPost2010PropOp33
 70
     0
102
RTVSPost2010Prop34
280
     0
102
RTVSPost2010PropOp34
 70
     0
102
RTVSPost2010Prop35
280
     0
102
RTVSPost2010PropOp35
 70
     0
102
RTVSPost2010Prop36
280
     0
102
RTVSPost2010PropOp36
 70
     0
102
RTVSPost2010Prop37
 90
       50
102
RTVSPost2010PropOp37
 70
     0
102
RTVSPost2010Prop38
140
0.0
102
RTVSPost2010PropOp38
 70
     0
102
RTVSPost2010Prop39
140
1.0
102
RTVSPost2010PropOp39
 70
     0
102
RTVSPost2010Prop40
 90
        0
102
RTVSPost2010PropOp40
 70
     0
102
RTVSPost2010Prop41ColorIndex
 90
       18
102
RTVSPost2010Prop41ColorRGB
 90
        0
102
RTVSPost2010PropOp41
 70
     0
102
RTVSPost2010Prop42
 90
       50
102
RTVSPost2010PropOp42
 70
     0
102
RTVSPost2010Prop43
 90
        3
102
RTVSPost2010PropOp43
 70
     0
102
RTVSPost2010Prop44ColorIndex
 90
        5
102
RTVSPost2010Prop44ColorRGB
 90
      255
102
RTVSPost2010PropOp44
 70
     0
102
RTVSPost2010Prop45
280
     0
102
RTVSPost2010PropOp45
 70
     0
102
RTVSPost2010Prop46
 90
       50
102
RTVSPost2010PropOp46
 70
     0
102
RTVSPost2010Prop47
 90
       50
102
RTVSPost2010PropOp47
 70
     0
102
RTVSPost2010Prop48
 90
       50
102
RTVSPost2010PropOp48
 70
     0
102
RTVSPost2010Prop49
280
     0
102
RTVSPost2010PropOp49
 70
     0
102
RTVSPost2010Prop50
 90
       50
102
RTVSPost2010PropOp50
 70
     0
102
RTVSPost2010Prop51ColorIndex
 90
      256
102
RTVSPost2010Prop51ColorRGB
 90
-16777216
102
RTVSPost2010PropOp51
 70
     0
102
RTVSPost2010Prop52
140
1.0
102
RTVSPost2010PropOp52
 70
     0
102
RTVSPost2010Prop53
 90
        2
102
RTVSPost2010PropOp53
 70
     0
102
RTVSPost2010Prop54
  1
strokes_ogs.tif
102
RTVSPost2010PropOp54
 70
     0
102
RTVSPost2010Prop55
280
     0
102
RTVSPost2010PropOp55
 70
     0
102
RTVSPost2010Prop56
140
1.0
102
RTVSPost2010PropOp56
 70
     0
102
RTVSPost2010Prop57
140
1.0
102
RTVSPost2010PropOp57
 70
     0
102
RTVSPropertyOp0
 70
     0
102
RTVSPropertyOp1
 70
     0
102
RTVSPropertyOp2
 70
     0
102
RTVSPropertyOp3
 70
     0
102
RTVSPropertyOp4
 70
     0
102
RTVSPropertyOp5
 70
     0
102
RTVSPropertyOp6
 70
     0
102
RTVSPropertyOp7
 70
     0
102
RTVSPropertyOp8
 70
     0
102
RTVSPropertyOp9
 70
     0
102
RTVSPropertyOp10
 70
     0
102
RTVSPropertyOp11
 70
     0
102
RTVSPropertyOp12
 70
     0
102
RTVSPropertyOp13
 70
     0
102
RTVSPropertyOp14
 70
     2
102
RTVSPropertyOp15
 70
     0
102
RTVSPropertyOp16
 70
     0
102
RTVSPropertyOp17
 70
     0
102
RTVSPropertyOp18
 70
     0
102
RTVSPropertyOp19
 70
     0
102
RTVSPropertyOp20
 70
     0
102
RTVSPropertyOp21
 70
     0
102
RTVSPropertyOp22
 70
     0
102
RTVSPropertyOp23
 70
     0
102
RTVSPropertyOp24
 70
     0
102
RTVSPropertyOp25
 70
     0
102
RTVSPropertyOp26
 70
     0
102
RTVSPropertyOp27
 70
     0
102
RTVSPropertyOp28
 70
     0
102
RTVSPropertyOp29
 70
     0
102
RTVSPropertyOp30
 70
     0
102
RTVSPropertyOp31
 70
     0
102
RTVSPropertyOp32
 70
     0
102
RTVSPropertyOp33
 70
     0
102
RTVSPropertyOp34
 70
     0
102
RTVSPropertyOp35
 70
     0
102
RTVSPropertyOp36
 70
     0
102
RTVSPropertyOp37
 70
     0
102
RTVSPropertyOp38
 70
     0
102
RTVSPropertyOp39
 70
     0
102
RTVSPropertyOp40
 70
     0
102
RTVSPropertyOp41
 70
     0
102
RTVSPropertyOp42
 70
     0
102
RTVSPropertyOp43
 70
     0
102
RTVSPropertyOp44
 70
     0
102
RTVSPropertyOp45
 70
     0
102
RTVSPropertyOp46
 70
     0
102
RTVSPropertyOp47
 70
     0
102
RTVSPropertyOp48
 70
     0
102
RTVSPropertyOp49
 70
     0
102
RTVSPropertyOp50
 70
     0
102
RTVSPropertyOp51
 70
     0
102
RTVSPropertyOp52
 70
     0
102
RTVSPropertyOp53
 70
     0
102
RTVSPropertyOp54
 70
     0
102
RTVSPropertyOp55
 70
     0
102
RTVSPropertyOp56
 70
     0
102
RTVSPropertyOp57
 70
     0
102
RTVSPropertyOp58
 70
     1
102
RTVSPropertyOp59
 70
     1
102
RTVSPropertyOp60
 70
     1
102
RTVSPropertyOp61
 70
     1
102
RTVSPropertyOp62
 70
     1
  0
XRECORD
  5
286F
102
{ACAD_REACTORS
330
286E
102
}
330
286E
100
AcDbXrecord
280
     1
102
RTVSPost2010Prop28
280
     0
102
RTVSPost2010PropOp28
 70
     1
102
RTVSPost2010Prop29
280
     1
102
RTVSPost2010PropOp29
 70
     1
102
RTVSPost2010Prop30
280
     1
102
RTVSPost2010PropOp30
 70
     1
102
RTVSPost2010Prop31
280
     0
102
RTVSPost2010PropOp31
 70
     1
102
RTVSPost2010Prop32
280
     0
102
RTVSPost2010PropOp32
 70
     1
102
RTVSPost2010Prop33
280
     0
102
RTVSPost2010PropOp33
 70
     1
102
RTVSPost2010Prop34
280
     0
102
RTVSPost2010PropOp34
 70
     1
102
RTVSPost2010Prop35
280
     0
102
RTVSPost2010PropOp35
 70
     1
102
RTVSPost2010Prop36
280
     0
102
RTVSPost2010PropOp36
 70
     1
102
RTVSPost2010Prop37
 90
       50
102
RTVSPost2010PropOp37
 70
     1
102
RTVSPost2010Prop38
140
0.0
102
RTVSPost2010PropOp38
 70
     1
102
RTVSPost2010Prop39
140
1.0
102
RTVSPost2010PropOp39
 70
     1
102
RTVSPost2010Prop40
 90
        0
102
RTVSPost2010PropOp40
 70
     1
102
RTVSPost2010Prop41ColorIndex
 90
       18
102
RTVSPost2010Prop41ColorRGB
 90
        0
102
RTVSPost2010PropOp41
 70
     1
102
RTVSPost2010Prop42
 90
       50
102
RTVSPost2010PropOp42
 70
     1
102
RTVSPost2010Prop43
 90
        3
102
RTVSPost2010PropOp43
 70
     1
102
RTVSPost2010Prop44ColorIndex
 90
        5
102
RTVSPost2010Prop44ColorRGB
 90
      255
102
RTVSPost2010PropOp44
 70
     1
102
RTVSPost2010Prop45
280
     0
102
RTVSPost2010PropOp45
 70
     1
102
RTVSPost2010Prop46
 90
       50
102
RTVSPost2010PropOp46
 70
     1
102
RTVSPost2010Prop47
 90
       50
102
RTVSPost2010PropOp47
 70
     1
102
RTVSPost2010Prop48
 90
       50
102
RTVSPost2010PropOp48
 70
     1
102
RTVSPost2010Prop49
280
     0
102
RTVSPost2010PropOp49
 70
     1
102
RTVSPost2010Prop50
 90
       50
102
RTVSPost2010PropOp50
 70
     1
102
RTVSPost2010Prop51ColorIndex
 90
      256
102
RTVSPost2010Prop51ColorRGB
 90
-16777216
102
RTVSPost2010PropOp51
 70
     0
102
RTVSPost2010Prop52
140
1.0
102
RTVSPost2010PropOp52
 70
     0
102
RTVSPost2010Prop53
 90
        2
102
RTVSPost2010PropOp53
 70
     1
102
RTVSPost2010Prop54
  1
strokes_ogs.tif
102
RTVSPost2010PropOp54
 70
     1
102
RTVSPost2010Prop55
280
     0
102
RTVSPost2010PropOp55
 70
     1
102
RTVSPost2010Prop56
140
1.0
102
RTVSPost2010PropOp56
 70
     1
102
RTVSPost2010Prop57
140
1.0
102
RTVSPost2010PropOp57
 70
     1
102
RTVSPropertyOp0
 70
     1
102
RTVSPropertyOp1
 70
     1
102
RTVSPropertyOp2
 70
     1
102
RTVSPropertyOp3
 70
     1
102
RTVSPropertyOp4
 70
     1
102
RTVSPropertyOp5
 70
     1
102
RTVSPropertyOp6
 70
     1
102
RTVSPropertyOp7
 70
     1
102
RTVSPropertyOp8
 70
     1
102
RTVSPropertyOp9
 70
     1
102
RTVSPropertyOp10
 70
     1
102
RTVSPropertyOp11
 70
     1
102
RTVSPropertyOp12
 70
     1
102
RTVSPropertyOp13
 70
     1
102
RTVSPropertyOp14
 70
     1
102
RTVSPropertyOp15
 70
     1
102
RTVSPropertyOp16
 70
     1
102
RTVSPropertyOp17
 70
     1
102
RTVSPropertyOp18
 70
     1
102
RTVSPropertyOp19
 70
     1
102
RTVSPropertyOp20
 70
     1
102
RTVSPropertyOp21
 70
     1
102
RTVSPropertyOp22
 70
     1
102
RTVSPropertyOp23
 70
     1
102
RTVSPropertyOp24
 70
     1
102
RTVSPropertyOp25
 70
     1
102
RTVSPropertyOp26
 70
     1
102
RTVSPropertyOp27
 70
     1
102
RTVSPropertyOp28
 70
     1
102
RTVSPropertyOp29
 70
     1
102
RTVSPropertyOp30
 70
     1
102
RTVSPropertyOp31
 70
     1
102
RTVSPropertyOp32
 70
     1
102
RTVSPropertyOp33
 70
     1
102
RTVSPropertyOp34
 70
     1
102
RTVSPropertyOp35
 70
     1
102
RTVSPropertyOp36
 70
     1
102
RTVSPropertyOp37
 70
     1
102
RTVSPropertyOp38
 70
     1
102
RTVSPropertyOp39
 70
     1
102
RTVSPropertyOp40
 70
     1
102
RTVSPropertyOp41
 70
     1
102
RTVSPropertyOp42
 70
     1
102
RTVSPropertyOp43
 70
     1
102
RTVSPropertyOp44
 70
     1
102
RTVSPropertyOp45
 70
     1
102
RTVSPropertyOp46
 70
     1
102
RTVSPropertyOp47
 70
     1
102
RTVSPropertyOp48
 70
     1
102
RTVSPropertyOp49
 70
     1
102
RTVSPropertyOp50
 70
     1
102
RTVSPropertyOp51
 70
     0
102
RTVSPropertyOp52
 70
     0
102
RTVSPropertyOp53
 70
     1
102
RTVSPropertyOp54
 70
     1
102
RTVSPropertyOp55
 70
     1
102
RTVSPropertyOp56
 70
     1
102
RTVSPropertyOp57
 70
     1
102
RTVSPropertyOp58
 70
     1
102
RTVSPropertyOp59
 70
     1
102
RTVSPropertyOp60
 70
     1
102
RTVSPropertyOp61
 70
     1
102
RTVSPropertyOp62
 70
     1
  0
XRECORD
  5
2881
102
{ACAD_REACTORS
330
2880
102
}
330
2880
100
AcDbXrecord
280
     1
102
RTVSPost2010Prop28
280
     0
102
RTVSPost2010PropOp28
 70
     0
102
RTVSPost2010Prop29
280
     1
102
RTVSPost2010PropOp29
 70
     0
102
RTVSPost2010Prop30
280
     1
102
RTVSPost2010PropOp30
 70
     0
102
RTVSPost2010Prop31
280
     0
102
RTVSPost2010PropOp31
 70
     0
102
RTVSPost2010Prop32
280
     0
102
RTVSPost2010PropOp32
 70
     0
102
RTVSPost2010Prop33
280
     0
102
RTVSPost2010PropOp33
 70
     0
102
RTVSPost2010Prop34
280
     0
102
RTVSPost2010PropOp34
 70
     0
102
RTVSPost2010Prop35
280
     0
102
RTVSPost2010PropOp35
 70
     0
102
RTVSPost2010Prop36
280
     0
102
RTVSPost2010PropOp36
 70
     0
102
RTVSPost2010Prop37
 90
       50
102
RTVSPost2010PropOp37
 70
     0
102
RTVSPost2010Prop38
140
0.0
102
RTVSPost2010PropOp38
 70
     0
102
RTVSPost2010Prop39
140
1.0
102
RTVSPost2010PropOp39
 70
     0
102
RTVSPost2010Prop40
 90
        0
102
RTVSPost2010PropOp40
 70
     0
102
RTVSPost2010Prop41ColorIndex
 90
       18
102
RTVSPost2010Prop41ColorRGB
 90
        0
102
RTVSPost2010PropOp41
 70
     0
102
RTVSPost2010Prop42
 90
       50
102
RTVSPost2010PropOp42
 70
     0
102
RTVSPost2010Prop43
 90
        3
102
RTVSPost2010PropOp43
 70
     0
102
RTVSPost2010Prop44ColorIndex
 90
        5
102
RTVSPost2010Prop44ColorRGB
 90
      255
102
RTVSPost2010PropOp44
 70
     0
102
RTVSPost2010Prop45
280
     0
102
RTVSPost2010PropOp45
 70
     0
102
RTVSPost2010Prop46
 90
       50
102
RTVSPost2010PropOp46
 70
     0
102
RTVSPost2010Prop47
 90
       50
102
RTVSPost2010PropOp47
 70
     0
102
RTVSPost2010Prop48
 90
       50
102
RTVSPost2010PropOp48
 70
     0
102
RTVSPost2010Prop49
280
     0
102
RTVSPost2010PropOp49
 70
     0
102
RTVSPost2010Prop50
 90
       50
102
RTVSPost2010PropOp50
 70
     0
102
RTVSPost2010Prop51ColorIndex
 90
      256
102
RTVSPost2010Prop51ColorRGB
 90
-16777216
102
RTVSPost2010PropOp51
 70
     0
102
RTVSPost2010Prop52
140
1.0
102
RTVSPost2010PropOp52
 70
     0
102
RTVSPost2010Prop53
 90
        2
102
RTVSPost2010PropOp53
 70
     0
102
RTVSPost2010Prop54
  1
strokes_ogs.tif
102
RTVSPost2010PropOp54
 70
     0
102
RTVSPost2010Prop55
280
     0
102
RTVSPost2010PropOp55
 70
     0
102
RTVSPost2010Prop56
140
1.0
102
RTVSPost2010PropOp56
 70
     0
102
RTVSPost2010Prop57
140
1.0
102
RTVSPost2010PropOp57
 70
     0
102
RTVSPropertyOp0
 70
     0
102
RTVSPropertyOp1
 70
     0
102
RTVSPropertyOp2
 70
     0
102
RTVSPropertyOp3
 70
     0
102
RTVSPropertyOp4
 70
     0
102
RTVSPropertyOp5
 70
     0
102
RTVSPropertyOp6
 70
     0
102
RTVSPropertyOp7
 70
     0
102
RTVSPropertyOp8
 70
     0
102
RTVSPropertyOp9
 70
     0
102
RTVSPropertyOp10
 70
     0
102
RTVSPropertyOp11
 70
     0
102
RTVSPropertyOp12
 70
     0
102
RTVSPropertyOp13
 70
     0
102
RTVSPropertyOp14
 70
     2
102
RTVSPropertyOp15
 70
     0
102
RTVSPropertyOp16
 70
     0
102
RTVSPropertyOp17
 70
     0
102
RTVSPropertyOp18
 70
     0
102
RTVSPropertyOp19
 70
     0
102
RTVSPropertyOp20
 70
     0
102
RTVSPropertyOp21
 70
     0
102
RTVSPropertyOp22
 70
     0
102
RTVSPropertyOp23
 70
     0
102
RTVSPropertyOp24
 70
     0
102
RTVSPropertyOp25
 70
     0
102
RTVSPropertyOp26
 70
     0
102
RTVSPropertyOp27
 70
     0
102
RTVSPropertyOp28
 70
     0
102
RTVSPropertyOp29
 70
     0
102
RTVSPropertyOp30
 70
     0
102
RTVSPropertyOp31
 70
     0
102
RTVSPropertyOp32
 70
     0
102
RTVSPropertyOp33
 70
     0
102
RTVSPropertyOp34
 70
     0
102
RTVSPropertyOp35
 70
     0
102
RTVSPropertyOp36
 70
     0
102
RTVSPropertyOp37
 70
     0
102
RTVSPropertyOp38
 70
     0
102
RTVSPropertyOp39
 70
     0
102
RTVSPropertyOp40
 70
     0
102
RTVSPropertyOp41
 70
     0
102
RTVSPropertyOp42
 70
     0
102
RTVSPropertyOp43
 70
     0
102
RTVSPropertyOp44
 70
     0
102
RTVSPropertyOp45
 70
     0
102
RTVSPropertyOp46
 70
     0
102
RTVSPropertyOp47
 70
     0
102
RTVSPropertyOp48
 70
     0
102
RTVSPropertyOp49
 70
     0
102
RTVSPropertyOp50
 70
     0
102
RTVSPropertyOp51
 70
     0
102
RTVSPropertyOp52
 70
     0
102
RTVSPropertyOp53
 70
     0
102
RTVSPropertyOp54
 70
     0
102
RTVSPropertyOp55
 70
     0
102
RTVSPropertyOp56
 70
     0
102
RTVSPropertyOp57
 70
     0
102
RTVSPropertyOp58
 70
     1
102
RTVSPropertyOp59
 70
     1
102
RTVSPropertyOp60
 70
     1
102
RTVSPropertyOp61
 70
     1
102
RTVSPropertyOp62
 70
     1
  0
XRECORD
  5
2867
102
{ACAD_REACTORS
330
2866
102
}
330
2866
100
AcDbXrecord
280
     1
102
RTVSPost2010Prop28
280
     0
102
RTVSPost2010PropOp28
 70
     1
102
RTVSPost2010Prop29
280
     1
102
RTVSPost2010PropOp29
 70
     1
102
RTVSPost2010Prop30
280
     1
102
RTVSPost2010PropOp30
 70
     1
102
RTVSPost2010Prop31
280
     0
102
RTVSPost2010PropOp31
 70
     1
102
RTVSPost2010Prop32
280
     0
102
RTVSPost2010PropOp32
 70
     1
102
RTVSPost2010Prop33
280
     0
102
RTVSPost2010PropOp33
 70
     1
102
RTVSPost2010Prop34
280
     0
102
RTVSPost2010PropOp34
 70
     1
102
RTVSPost2010Prop35
280
     0
102
RTVSPost2010PropOp35
 70
     1
102
RTVSPost2010Prop36
280
     0
102
RTVSPost2010PropOp36
 70
     1
102
RTVSPost2010Prop37
 90
       50
102
RTVSPost2010PropOp37
 70
     1
102
RTVSPost2010Prop38
140
0.0
102
RTVSPost2010PropOp38
 70
     1
102
RTVSPost2010Prop39
140
1.0
102
RTVSPost2010PropOp39
 70
     1
102
RTVSPost2010Prop40
 90
        0
102
RTVSPost2010PropOp40
 70
     1
102
RTVSPost2010Prop41ColorIndex
 90
       18
102
RTVSPost2010Prop41ColorRGB
 90
        0
102
RTVSPost2010PropOp41
 70
     1
102
RTVSPost2010Prop42
 90
       50
102
RTVSPost2010PropOp42
 70
     1
102
RTVSPost2010Prop43
 90
        3
102
RTVSPost2010PropOp43
 70
     1
102
RTVSPost2010Prop44ColorIndex
 90
        5
102
RTVSPost2010Prop44ColorRGB
 90
      255
102
RTVSPost2010PropOp44
 70
     1
102
RTVSPost2010Prop45
280
     0
102
RTVSPost2010PropOp45
 70
     1
102
RTVSPost2010Prop46
 90
       50
102
RTVSPost2010PropOp46
 70
     1
102
RTVSPost2010Prop47
 90
       50
102
RTVSPost2010PropOp47
 70
     1
102
RTVSPost2010Prop48
 90
       50
102
RTVSPost2010PropOp48
 70
     1
102
RTVSPost2010Prop49
280
     0
102
RTVSPost2010PropOp49
 70
     1
102
RTVSPost2010Prop50
 90
       50
102
RTVSPost2010PropOp50
 70
     1
102
RTVSPost2010Prop51ColorIndex
 90
      256
102
RTVSPost2010Prop51ColorRGB
 90
-16777216
102
RTVSPost2010PropOp51
 70
     0
102
RTVSPost2010Prop52
140
1.0
102
RTVSPost2010PropOp52
 70
     0
102
RTVSPost2010Prop53
 90
        2
102
RTVSPost2010PropOp53
 70
     1
102
RTVSPost2010Prop54
  1
strokes_ogs.tif
102
RTVSPost2010PropOp54
 70
     1
102
RTVSPost2010Prop55
280
     0
102
RTVSPost2010PropOp55
 70
     1
102
RTVSPost2010Prop56
140
1.0
102
RTVSPost2010PropOp56
 70
     1
102
RTVSPost2010Prop57
140
1.0
102
RTVSPost2010PropOp57
 70
     1
102
RTVSPropertyOp0
 70
     1
102
RTVSPropertyOp1
 70
     1
102
RTVSPropertyOp2
 70
     1
102
RTVSPropertyOp3
 70
     1
102
RTVSPropertyOp4
 70
     1
102
RTVSPropertyOp5
 70
     1
102
RTVSPropertyOp6
 70
     1
102
RTVSPropertyOp7
 70
     1
102
RTVSPropertyOp8
 70
     1
102
RTVSPropertyOp9
 70
     1
102
RTVSPropertyOp10
 70
     1
102
RTVSPropertyOp11
 70
     1
102
RTVSPropertyOp12
 70
     1
102
RTVSPropertyOp13
 70
     1
102
RTVSPropertyOp14
 70
     1
102
RTVSPropertyOp15
 70
     1
102
RTVSPropertyOp16
 70
     1
102
RTVSPropertyOp17
 70
     1
102
RTVSPropertyOp18
 70
     1
102
RTVSPropertyOp19
 70
     1
102
RTVSPropertyOp20
 70
     1
102
RTVSPropertyOp21
 70
     1
102
RTVSPropertyOp22
 70
     1
102
RTVSPropertyOp23
 70
     1
102
RTVSPropertyOp24
 70
     1
102
RTVSPropertyOp25
 70
     1
102
RTVSPropertyOp26
 70
     1
102
RTVSPropertyOp27
 70
     1
102
RTVSPropertyOp28
 70
     1
102
RTVSPropertyOp29
 70
     1
102
RTVSPropertyOp30
 70
     1
102
RTVSPropertyOp31
 70
     1
102
RTVSPropertyOp32
 70
     1
102
RTVSPropertyOp33
 70
     1
102
RTVSPropertyOp34
 70
     1
102
RTVSPropertyOp35
 70
     1
102
RTVSPropertyOp36
 70
     1
102
RTVSPropertyOp37
 70
     1
102
RTVSPropertyOp38
 70
     1
102
RTVSPropertyOp39
 70
     1
102
RTVSPropertyOp40
 70
     1
102
RTVSPropertyOp41
 70
     1
102
RTVSPropertyOp42
 70
     1
102
RTVSPropertyOp43
 70
     1
102
RTVSPropertyOp44
 70
     1
102
RTVSPropertyOp45
 70
     1
102
RTVSPropertyOp46
 70
     1
102
RTVSPropertyOp47
 70
     1
102
RTVSPropertyOp48
 70
     1
102
RTVSPropertyOp49
 70
     1
102
RTVSPropertyOp50
 70
     1
102
RTVSPropertyOp51
 70
     0
102
RTVSPropertyOp52
 70
     0
102
RTVSPropertyOp53
 70
     1
102
RTVSPropertyOp54
 70
     1
102
RTVSPropertyOp55
 70
     1
102
RTVSPropertyOp56
 70
     1
102
RTVSPropertyOp57
 70
     1
102
RTVSPropertyOp58
 70
     1
102
RTVSPropertyOp59
 70
     1
102
RTVSPropertyOp60
 70
     1
102
RTVSPropertyOp61
 70
     1
102
RTVSPropertyOp62
 70
     1
  0
XRECORD
  5
287D
102
{ACAD_REACTORS
330
287C
102
}
330
287C
100
AcDbXrecord
280
     1
102
RTVSPost2010Prop28
280
     0
102
RTVSPost2010PropOp28
 70
     1
102
RTVSPost2010Prop29
280
     1
102
RTVSPost2010PropOp29
 70
     1
102
RTVSPost2010Prop30
280
     1
102
RTVSPost2010PropOp30
 70
     1
102
RTVSPost2010Prop31
280
     0
102
RTVSPost2010PropOp31
 70
     1
102
RTVSPost2010Prop32
280
     0
102
RTVSPost2010PropOp32
 70
     1
102
RTVSPost2010Prop33
280
     0
102
RTVSPost2010PropOp33
 70
     1
102
RTVSPost2010Prop34
280
     0
102
RTVSPost2010PropOp34
 70
     1
102
RTVSPost2010Prop35
280
     0
102
RTVSPost2010PropOp35
 70
     1
102
RTVSPost2010Prop36
280
     0
102
RTVSPost2010PropOp36
 70
     1
102
RTVSPost2010Prop37
 90
       50
102
RTVSPost2010PropOp37
 70
     1
102
RTVSPost2010Prop38
140
0.0
102
RTVSPost2010PropOp38
 70
     1
102
RTVSPost2010Prop39
140
1.0
102
RTVSPost2010PropOp39
 70
     1
102
RTVSPost2010Prop40
 90
        0
102
RTVSPost2010PropOp40
 70
     1
102
RTVSPost2010Prop41ColorIndex
 90
       18
102
RTVSPost2010Prop41ColorRGB
 90
        0
102
RTVSPost2010PropOp41
 70
     1
102
RTVSPost2010Prop42
 90
       50
102
RTVSPost2010PropOp42
 70
     1
102
RTVSPost2010Prop43
 90
        3
102
RTVSPost2010PropOp43
 70
     1
102
RTVSPost2010Prop44ColorIndex
 90
        5
102
RTVSPost2010Prop44ColorRGB
 90
      255
102
RTVSPost2010PropOp44
 70
     1
102
RTVSPost2010Prop45
280
     0
102
RTVSPost2010PropOp45
 70
     1
102
RTVSPost2010Prop46
 90
       50
102
RTVSPost2010PropOp46
 70
     1
102
RTVSPost2010Prop47
 90
       50
102
RTVSPost2010PropOp47
 70
     1
102
RTVSPost2010Prop48
 90
       50
102
RTVSPost2010PropOp48
 70
     1
102
RTVSPost2010Prop49
280
     0
102
RTVSPost2010PropOp49
 70
     1
102
RTVSPost2010Prop50
 90
       50
102
RTVSPost2010PropOp50
 70
     1
102
RTVSPost2010Prop51ColorIndex
 90
      256
102
RTVSPost2010Prop51ColorRGB
 90
-16777216
102
RTVSPost2010PropOp51
 70
     0
102
RTVSPost2010Prop52
140
1.0
102
RTVSPost2010PropOp52
 70
     0
102
RTVSPost2010Prop53
 90
        2
102
RTVSPost2010PropOp53
 70
     1
102
RTVSPost2010Prop54
  1
strokes_ogs.tif
102
RTVSPost2010PropOp54
 70
     1
102
RTVSPost2010Prop55
280
     0
102
RTVSPost2010PropOp55
 70
     1
102
RTVSPost2010Prop56
140
1.0
102
RTVSPost2010PropOp56
 70
     1
102
RTVSPost2010Prop57
140
1.0
102
RTVSPost2010PropOp57
 70
     1
102
RTVSPropertyOp0
 70
     1
102
RTVSPropertyOp1
 70
     1
102
RTVSPropertyOp2
 70
     1
102
RTVSPropertyOp3
 70
     1
102
RTVSPropertyOp4
 70
     1
102
RTVSPropertyOp5
 70
     1
102
RTVSPropertyOp6
 70
     1
102
RTVSPropertyOp7
 70
     1
102
RTVSPropertyOp8
 70
     1
102
RTVSPropertyOp9
 70
     1
102
RTVSPropertyOp10
 70
     1
102
RTVSPropertyOp11
 70
     1
102
RTVSPropertyOp12
 70
     1
102
RTVSPropertyOp13
 70
     1
102
RTVSPropertyOp14
 70
     1
102
RTVSPropertyOp15
 70
     1
102
RTVSPropertyOp16
 70
     1
102
RTVSPropertyOp17
 70
     1
102
RTVSPropertyOp18
 70
     1
102
RTVSPropertyOp19
 70
     1
102
RTVSPropertyOp20
 70
     1
102
RTVSPropertyOp21
 70
     1
102
RTVSPropertyOp22
 70
     1
102
RTVSPropertyOp23
 70
     1
102
RTVSPropertyOp24
 70
     1
102
RTVSPropertyOp25
 70
     1
102
RTVSPropertyOp26
 70
     1
102
RTVSPropertyOp27
 70
     1
102
RTVSPropertyOp28
 70
     1
102
RTVSPropertyOp29
 70
     1
102
RTVSPropertyOp30
 70
     1
102
RTVSPropertyOp31
 70
     1
102
RTVSPropertyOp32
 70
     1
102
RTVSPropertyOp33
 70
     1
102
RTVSPropertyOp34
 70
     1
102
RTVSPropertyOp35
 70
     1
102
RTVSPropertyOp36
 70
     1
102
RTVSPropertyOp37
 70
     1
102
RTVSPropertyOp38
 70
     1
102
RTVSPropertyOp39
 70
     1
102
RTVSPropertyOp40
 70
     1
102
RTVSPropertyOp41
 70
     1
102
RTVSPropertyOp42
 70
     1
102
RTVSPropertyOp43
 70
     1
102
RTVSPropertyOp44
 70
     1
102
RTVSPropertyOp45
 70
     1
102
RTVSPropertyOp46
 70
     1
102
RTVSPropertyOp47
 70
     1
102
RTVSPropertyOp48
 70
     1
102
RTVSPropertyOp49
 70
     1
102
RTVSPropertyOp50
 70
     1
102
RTVSPropertyOp51
 70
     0
102
RTVSPropertyOp52
 70
     0
102
RTVSPropertyOp53
 70
     1
102
RTVSPropertyOp54
 70
     1
102
RTVSPropertyOp55
 70
     1
102
RTVSPropertyOp56
 70
     1
102
RTVSPropertyOp57
 70
     1
102
RTVSPropertyOp58
 70
     1
102
RTVSPropertyOp59
 70
     1
102
RTVSPropertyOp60
 70
     1
102
RTVSPropertyOp61
 70
     1
102
RTVSPropertyOp62
 70
     1
  0
XRECORD
  5
287B
102
{ACAD_REACTORS
330
287A
102
}
330
287A
100
AcDbXrecord
280
     1
102
RTVSPost2010Prop28
280
     0
102
RTVSPost2010PropOp28
 70
     1
102
RTVSPost2010Prop29
280
     1
102
RTVSPost2010PropOp29
 70
     1
102
RTVSPost2010Prop30
280
     1
102
RTVSPost2010PropOp30
 70
     1
102
RTVSPost2010Prop31
280
     0
102
RTVSPost2010PropOp31
 70
     1
102
RTVSPost2010Prop32
280
     0
102
RTVSPost2010PropOp32
 70
     1
102
RTVSPost2010Prop33
280
     0
102
RTVSPost2010PropOp33
 70
     1
102
RTVSPost2010Prop34
280
     0
102
RTVSPost2010PropOp34
 70
     1
102
RTVSPost2010Prop35
280
     0
102
RTVSPost2010PropOp35
 70
     1
102
RTVSPost2010Prop36
280
     0
102
RTVSPost2010PropOp36
 70
     1
102
RTVSPost2010Prop37
 90
       50
102
RTVSPost2010PropOp37
 70
     1
102
RTVSPost2010Prop38
140
0.0
102
RTVSPost2010PropOp38
 70
     1
102
RTVSPost2010Prop39
140
1.0
102
RTVSPost2010PropOp39
 70
     1
102
RTVSPost2010Prop40
 90
        0
102
RTVSPost2010PropOp40
 70
     1
102
RTVSPost2010Prop41ColorIndex
 90
       18
102
RTVSPost2010Prop41ColorRGB
 90
        0
102
RTVSPost2010PropOp41
 70
     1
102
RTVSPost2010Prop42
 90
       50
102
RTVSPost2010PropOp42
 70
     1
102
RTVSPost2010Prop43
 90
        3
102
RTVSPost2010PropOp43
 70
     1
102
RTVSPost2010Prop44ColorIndex
 90
        5
102
RTVSPost2010Prop44ColorRGB
 90
      255
102
RTVSPost2010PropOp44
 70
     1
102
RTVSPost2010Prop45
280
     0
102
RTVSPost2010PropOp45
 70
     1
102
RTVSPost2010Prop46
 90
       50
102
RTVSPost2010PropOp46
 70
     1
102
RTVSPost2010Prop47
 90
       50
102
RTVSPost2010PropOp47
 70
     1
102
RTVSPost2010Prop48
 90
       50
102
RTVSPost2010PropOp48
 70
     1
102
RTVSPost2010Prop49
280
     0
102
RTVSPost2010PropOp49
 70
     1
102
RTVSPost2010Prop50
 90
       50
102
RTVSPost2010PropOp50
 70
     1
102
RTVSPost2010Prop51ColorIndex
 90
      256
102
RTVSPost2010Prop51ColorRGB
 90
-16777216
102
RTVSPost2010PropOp51
 70
     0
102
RTVSPost2010Prop52
140
1.0
102
RTVSPost2010PropOp52
 70
     0
102
RTVSPost2010Prop53
 90
        2
102
RTVSPost2010PropOp53
 70
     1
102
RTVSPost2010Prop54
  1
strokes_ogs.tif
102
RTVSPost2010PropOp54
 70
     1
102
RTVSPost2010Prop55
280
     0
102
RTVSPost2010PropOp55
 70
     1
102
RTVSPost2010Prop56
140
1.0
102
RTVSPost2010PropOp56
 70
     1
102
RTVSPost2010Prop57
140
1.0
102
RTVSPost2010PropOp57
 70
     1
102
RTVSPropertyOp0
 70
     1
102
RTVSPropertyOp1
 70
     1
102
RTVSPropertyOp2
 70
     1
102
RTVSPropertyOp3
 70
     1
102
RTVSPropertyOp4
 70
     1
102
RTVSPropertyOp5
 70
     1
102
RTVSPropertyOp6
 70
     1
102
RTVSPropertyOp7
 70
     1
102
RTVSPropertyOp8
 70
     1
102
RTVSPropertyOp9
 70
     1
102
RTVSPropertyOp10
 70
     1
102
RTVSPropertyOp11
 70
     1
102
RTVSPropertyOp12
 70
     1
102
RTVSPropertyOp13
 70
     1
102
RTVSPropertyOp14
 70
     1
102
RTVSPropertyOp15
 70
     1
102
RTVSPropertyOp16
 70
     1
102
RTVSPropertyOp17
 70
     1
102
RTVSPropertyOp18
 70
     1
102
RTVSPropertyOp19
 70
     1
102
RTVSPropertyOp20
 70
     1
102
RTVSPropertyOp21
 70
     1
102
RTVSPropertyOp22
 70
     1
102
RTVSPropertyOp23
 70
     1
102
RTVSPropertyOp24
 70
     1
102
RTVSPropertyOp25
 70
     1
102
RTVSPropertyOp26
 70
     1
102
RTVSPropertyOp27
 70
     1
102
RTVSPropertyOp28
 70
     1
102
RTVSPropertyOp29
 70
     1
102
RTVSPropertyOp30
 70
     1
102
RTVSPropertyOp31
 70
     1
102
RTVSPropertyOp32
 70
     1
102
RTVSPropertyOp33
 70
     1
102
RTVSPropertyOp34
 70
     1
102
RTVSPropertyOp35
 70
     1
102
RTVSPropertyOp36
 70
     1
102
RTVSPropertyOp37
 70
     1
102
RTVSPropertyOp38
 70
     1
102
RTVSPropertyOp39
 70
     1
102
RTVSPropertyOp40
 70
     1
102
RTVSPropertyOp41
 70
     1
102
RTVSPropertyOp42
 70
     1
102
RTVSPropertyOp43
 70
     1
102
RTVSPropertyOp44
 70
     1
102
RTVSPropertyOp45
 70
     1
102
RTVSPropertyOp46
 70
     1
102
RTVSPropertyOp47
 70
     1
102
RTVSPropertyOp48
 70
     1
102
RTVSPropertyOp49
 70
     1
102
RTVSPropertyOp50
 70
     1
102
RTVSPropertyOp51
 70
     0
102
RTVSPropertyOp52
 70
     0
102
RTVSPropertyOp53
 70
     1
102
RTVSPropertyOp54
 70
     1
102
RTVSPropertyOp55
 70
     1
102
RTVSPropertyOp56
 70
     1
102
RTVSPropertyOp57
 70
     1
102
RTVSPropertyOp58
 70
     1
102
RTVSPropertyOp59
 70
     1
102
RTVSPropertyOp60
 70
     1
102
RTVSPropertyOp61
 70
     1
102
RTVSPropertyOp62
 70
     1
  0
XRECORD
  5
2875
102
{ACAD_REACTORS
330
2874
102
}
330
2874
100
AcDbXrecord
280
     1
102
RTVSPost2010Prop28
280
     0
102
RTVSPost2010PropOp28
 70
     1
102
RTVSPost2010Prop29
280
     1
102
RTVSPost2010PropOp29
 70
     1
102
RTVSPost2010Prop30
280
     1
102
RTVSPost2010PropOp30
 70
     1
102
RTVSPost2010Prop31
280
     0
102
RTVSPost2010PropOp31
 70
     1
102
RTVSPost2010Prop32
280
     0
102
RTVSPost2010PropOp32
 70
     1
102
RTVSPost2010Prop33
280
     0
102
RTVSPost2010PropOp33
 70
     1
102
RTVSPost2010Prop34
280
     0
102
RTVSPost2010PropOp34
 70
     1
102
RTVSPost2010Prop35
280
     0
102
RTVSPost2010PropOp35
 70
     1
102
RTVSPost2010Prop36
280
     0
102
RTVSPost2010PropOp36
 70
     1
102
RTVSPost2010Prop37
 90
       50
102
RTVSPost2010PropOp37
 70
     1
102
RTVSPost2010Prop38
140
0.0
102
RTVSPost2010PropOp38
 70
     1
102
RTVSPost2010Prop39
140
1.0
102
RTVSPost2010PropOp39
 70
     1
102
RTVSPost2010Prop40
 90
        0
102
RTVSPost2010PropOp40
 70
     1
102
RTVSPost2010Prop41ColorIndex
 90
       18
102
RTVSPost2010Prop41ColorRGB
 90
        0
102
RTVSPost2010PropOp41
 70
     1
102
RTVSPost2010Prop42
 90
       50
102
RTVSPost2010PropOp42
 70
     1
102
RTVSPost2010Prop43
 90
        3
102
RTVSPost2010PropOp43
 70
     1
102
RTVSPost2010Prop44ColorIndex
 90
        5
102
RTVSPost2010Prop44ColorRGB
 90
      255
102
RTVSPost2010PropOp44
 70
     1
102
RTVSPost2010Prop45
280
     0
102
RTVSPost2010PropOp45
 70
     1
102
RTVSPost2010Prop46
 90
       50
102
RTVSPost2010PropOp46
 70
     1
102
RTVSPost2010Prop47
 90
       50
102
RTVSPost2010PropOp47
 70
     1
102
RTVSPost2010Prop48
 90
       50
102
RTVSPost2010PropOp48
 70
     1
102
RTVSPost2010Prop49
280
     0
102
RTVSPost2010PropOp49
 70
     1
102
RTVSPost2010Prop50
 90
       50
102
RTVSPost2010PropOp50
 70
     1
102
RTVSPost2010Prop51ColorIndex
 90
      256
102
RTVSPost2010Prop51ColorRGB
 90
-16777216
102
RTVSPost2010PropOp51
 70
     0
102
RTVSPost2010Prop52
140
1.0
102
RTVSPost2010PropOp52
 70
     0
102
RTVSPost2010Prop53
 90
        2
102
RTVSPost2010PropOp53
 70
     1
102
RTVSPost2010Prop54
  1
strokes_ogs.tif
102
RTVSPost2010PropOp54
 70
     1
102
RTVSPost2010Prop55
280
     0
102
RTVSPost2010PropOp55
 70
     1
102
RTVSPost2010Prop56
140
1.0
102
RTVSPost2010PropOp56
 70
     1
102
RTVSPost2010Prop57
140
1.0
102
RTVSPost2010PropOp57
 70
     1
102
RTVSPropertyOp0
 70
     1
102
RTVSPropertyOp1
 70
     1
102
RTVSPropertyOp2
 70
     1
102
RTVSPropertyOp3
 70
     1
102
RTVSPropertyOp4
 70
     1
102
RTVSPropertyOp5
 70
     1
102
RTVSPropertyOp6
 70
     1
102
RTVSPropertyOp7
 70
     1
102
RTVSPropertyOp8
 70
     1
102
RTVSPropertyOp9
 70
     1
102
RTVSPropertyOp10
 70
     1
102
RTVSPropertyOp11
 70
     1
102
RTVSPropertyOp12
 70
     1
102
RTVSPropertyOp13
 70
     1
102
RTVSPropertyOp14
 70
     1
102
RTVSPropertyOp15
 70
     1
102
RTVSPropertyOp16
 70
     1
102
RTVSPropertyOp17
 70
     1
102
RTVSPropertyOp18
 70
     1
102
RTVSPropertyOp19
 70
     1
102
RTVSPropertyOp20
 70
     1
102
RTVSPropertyOp21
 70
     1
102
RTVSPropertyOp22
 70
     1
102
RTVSPropertyOp23
 70
     1
102
RTVSPropertyOp24
 70
     1
102
RTVSPropertyOp25
 70
     1
102
RTVSPropertyOp26
 70
     1
102
RTVSPropertyOp27
 70
     1
102
RTVSPropertyOp28
 70
     1
102
RTVSPropertyOp29
 70
     1
102
RTVSPropertyOp30
 70
     1
102
RTVSPropertyOp31
 70
     1
102
RTVSPropertyOp32
 70
     1
102
RTVSPropertyOp33
 70
     1
102
RTVSPropertyOp34
 70
     1
102
RTVSPropertyOp35
 70
     1
102
RTVSPropertyOp36
 70
     1
102
RTVSPropertyOp37
 70
     1
102
RTVSPropertyOp38
 70
     1
102
RTVSPropertyOp39
 70
     1
102
RTVSPropertyOp40
 70
     1
102
RTVSPropertyOp41
 70
     1
102
RTVSPropertyOp42
 70
     1
102
RTVSPropertyOp43
 70
     1
102
RTVSPropertyOp44
 70
     1
102
RTVSPropertyOp45
 70
     1
102
RTVSPropertyOp46
 70
     1
102
RTVSPropertyOp47
 70
     1
102
RTVSPropertyOp48
 70
     1
102
RTVSPropertyOp49
 70
     1
102
RTVSPropertyOp50
 70
     1
102
RTVSPropertyOp51
 70
     0
102
RTVSPropertyOp52
 70
     0
102
RTVSPropertyOp53
 70
     1
102
RTVSPropertyOp54
 70
     1
102
RTVSPropertyOp55
 70
     1
102
RTVSPropertyOp56
 70
     1
102
RTVSPropertyOp57
 70
     1
102
RTVSPropertyOp58
 70
     1
102
RTVSPropertyOp59
 70
     1
102
RTVSPropertyOp60
 70
     1
102
RTVSPropertyOp61
 70
     1
102
RTVSPropertyOp62
 70
     1
  0
XRECORD
  5
2877
102
{ACAD_REACTORS
330
2876
102
}
330
2876
100
AcDbXrecord
280
     1
102
RTVSPost2010Prop28
280
     0
102
RTVSPost2010PropOp28
 70
     1
102
RTVSPost2010Prop29
280
     1
102
RTVSPost2010PropOp29
 70
     1
102
RTVSPost2010Prop30
280
     1
102
RTVSPost2010PropOp30
 70
     1
102
RTVSPost2010Prop31
280
     0
102
RTVSPost2010PropOp31
 70
     1
102
RTVSPost2010Prop32
280
     0
102
RTVSPost2010PropOp32
 70
     1
102
RTVSPost2010Prop33
280
     0
102
RTVSPost2010PropOp33
 70
     1
102
RTVSPost2010Prop34
280
     0
102
RTVSPost2010PropOp34
 70
     1
102
RTVSPost2010Prop35
280
     0
102
RTVSPost2010PropOp35
 70
     1
102
RTVSPost2010Prop36
280
     0
102
RTVSPost2010PropOp36
 70
     1
102
RTVSPost2010Prop37
 90
       50
102
RTVSPost2010PropOp37
 70
     1
102
RTVSPost2010Prop38
140
0.0
102
RTVSPost2010PropOp38
 70
     1
102
RTVSPost2010Prop39
140
1.0
102
RTVSPost2010PropOp39
 70
     1
102
RTVSPost2010Prop40
 90
        0
102
RTVSPost2010PropOp40
 70
     1
102
RTVSPost2010Prop41ColorIndex
 90
       18
102
RTVSPost2010Prop41ColorRGB
 90
        0
102
RTVSPost2010PropOp41
 70
     1
102
RTVSPost2010Prop42
 90
       50
102
RTVSPost2010PropOp42
 70
     1
102
RTVSPost2010Prop43
 90
        3
102
RTVSPost2010PropOp43
 70
     1
102
RTVSPost2010Prop44ColorIndex
 90
        5
102
RTVSPost2010Prop44ColorRGB
 90
      255
102
RTVSPost2010PropOp44
 70
     1
102
RTVSPost2010Prop45
280
     0
102
RTVSPost2010PropOp45
 70
     1
102
RTVSPost2010Prop46
 90
       50
102
RTVSPost2010PropOp46
 70
     1
102
RTVSPost2010Prop47
 90
       50
102
RTVSPost2010PropOp47
 70
     1
102
RTVSPost2010Prop48
 90
       50
102
RTVSPost2010PropOp48
 70
     1
102
RTVSPost2010Prop49
280
     0
102
RTVSPost2010PropOp49
 70
     1
102
RTVSPost2010Prop50
 90
       50
102
RTVSPost2010PropOp50
 70
     1
102
RTVSPost2010Prop51ColorIndex
 90
      256
102
RTVSPost2010Prop51ColorRGB
 90
-16777216
102
RTVSPost2010PropOp51
 70
     0
102
RTVSPost2010Prop52
140
1.0
102
RTVSPost2010PropOp52
 70
     0
102
RTVSPost2010Prop53
 90
        2
102
RTVSPost2010PropOp53
 70
     1
102
RTVSPost2010Prop54
  1
strokes_ogs.tif
102
RTVSPost2010PropOp54
 70
     1
102
RTVSPost2010Prop55
280
     0
102
RTVSPost2010PropOp55
 70
     1
102
RTVSPost2010Prop56
140
1.0
102
RTVSPost2010PropOp56
 70
     1
102
RTVSPost2010Prop57
140
1.0
102
RTVSPost2010PropOp57
 70
     1
102
RTVSPropertyOp0
 70
     1
102
RTVSPropertyOp1
 70
     1
102
RTVSPropertyOp2
 70
     1
102
RTVSPropertyOp3
 70
     1
102
RTVSPropertyOp4
 70
     1
102
RTVSPropertyOp5
 70
     1
102
RTVSPropertyOp6
 70
     1
102
RTVSPropertyOp7
 70
     1
102
RTVSPropertyOp8
 70
     1
102
RTVSPropertyOp9
 70
     1
102
RTVSPropertyOp10
 70
     1
102
RTVSPropertyOp11
 70
     1
102
RTVSPropertyOp12
 70
     1
102
RTVSPropertyOp13
 70
     1
102
RTVSPropertyOp14
 70
     1
102
RTVSPropertyOp15
 70
     1
102
RTVSPropertyOp16
 70
     1
102
RTVSPropertyOp17
 70
     1
102
RTVSPropertyOp18
 70
     1
102
RTVSPropertyOp19
 70
     1
102
RTVSPropertyOp20
 70
     1
102
RTVSPropertyOp21
 70
     1
102
RTVSPropertyOp22
 70
     1
102
RTVSPropertyOp23
 70
     1
102
RTVSPropertyOp24
 70
     1
102
RTVSPropertyOp25
 70
     1
102
RTVSPropertyOp26
 70
     1
102
RTVSPropertyOp27
 70
     1
102
RTVSPropertyOp28
 70
     1
102
RTVSPropertyOp29
 70
     1
102
RTVSPropertyOp30
 70
     1
102
RTVSPropertyOp31
 70
     1
102
RTVSPropertyOp32
 70
     1
102
RTVSPropertyOp33
 70
     1
102
RTVSPropertyOp34
 70
     1
102
RTVSPropertyOp35
 70
     1
102
RTVSPropertyOp36
 70
     1
102
RTVSPropertyOp37
 70
     1
102
RTVSPropertyOp38
 70
     1
102
RTVSPropertyOp39
 70
     1
102
RTVSPropertyOp40
 70
     1
102
RTVSPropertyOp41
 70
     1
102
RTVSPropertyOp42
 70
     1
102
RTVSPropertyOp43
 70
     1
102
RTVSPropertyOp44
 70
     1
102
RTVSPropertyOp45
 70
     1
102
RTVSPropertyOp46
 70
     1
102
RTVSPropertyOp47
 70
     1
102
RTVSPropertyOp48
 70
     1
102
RTVSPropertyOp49
 70
     1
102
RTVSPropertyOp50
 70
     1
102
RTVSPropertyOp51
 70
     0
102
RTVSPropertyOp52
 70
     0
102
RTVSPropertyOp53
 70
     1
102
RTVSPropertyOp54
 70
     1
102
RTVSPropertyOp55
 70
     1
102
RTVSPropertyOp56
 70
     1
102
RTVSPropertyOp57
 70
     1
102
RTVSPropertyOp58
 70
     1
102
RTVSPropertyOp59
 70
     1
102
RTVSPropertyOp60
 70
     1
102
RTVSPropertyOp61
 70
     1
102
RTVSPropertyOp62
 70
     1
  0
XRECORD
  5
286D
102
{ACAD_REACTORS
330
286C
102
}
330
286C
100
AcDbXrecord
280
     1
102
RTVSPost2010Prop28
280
     0
102
RTVSPost2010PropOp28
 70
     1
102
RTVSPost2010Prop29
280
     1
102
RTVSPost2010PropOp29
 70
     1
102
RTVSPost2010Prop30
280
     1
102
RTVSPost2010PropOp30
 70
     1
102
RTVSPost2010Prop31
280
     0
102
RTVSPost2010PropOp31
 70
     1
102
RTVSPost2010Prop32
280
     0
102
RTVSPost2010PropOp32
 70
     1
102
RTVSPost2010Prop33
280
     0
102
RTVSPost2010PropOp33
 70
     1
102
RTVSPost2010Prop34
280
     0
102
RTVSPost2010PropOp34
 70
     1
102
RTVSPost2010Prop35
280
     0
102
RTVSPost2010PropOp35
 70
     1
102
RTVSPost2010Prop36
280
     0
102
RTVSPost2010PropOp36
 70
     1
102
RTVSPost2010Prop37
 90
       50
102
RTVSPost2010PropOp37
 70
     1
102
RTVSPost2010Prop38
140
0.0
102
RTVSPost2010PropOp38
 70
     1
102
RTVSPost2010Prop39
140
1.0
102
RTVSPost2010PropOp39
 70
     1
102
RTVSPost2010Prop40
 90
        0
102
RTVSPost2010PropOp40
 70
     1
102
RTVSPost2010Prop41ColorIndex
 90
       18
102
RTVSPost2010Prop41ColorRGB
 90
        0
102
RTVSPost2010PropOp41
 70
     1
102
RTVSPost2010Prop42
 90
       50
102
RTVSPost2010PropOp42
 70
     1
102
RTVSPost2010Prop43
 90
        3
102
RTVSPost2010PropOp43
 70
     1
102
RTVSPost2010Prop44ColorIndex
 90
        5
102
RTVSPost2010Prop44ColorRGB
 90
      255
102
RTVSPost2010PropOp44
 70
     1
102
RTVSPost2010Prop45
280
     0
102
RTVSPost2010PropOp45
 70
     1
102
RTVSPost2010Prop46
 90
       50
102
RTVSPost2010PropOp46
 70
     1
102
RTVSPost2010Prop47
 90
       50
102
RTVSPost2010PropOp47
 70
     1
102
RTVSPost2010Prop48
 90
       50
102
RTVSPost2010PropOp48
 70
     1
102
RTVSPost2010Prop49
280
     0
102
RTVSPost2010PropOp49
 70
     1
102
RTVSPost2010Prop50
 90
       50
102
RTVSPost2010PropOp50
 70
     1
102
RTVSPost2010Prop51ColorIndex
 90
      256
102
RTVSPost2010Prop51ColorRGB
 90
-16777216
102
RTVSPost2010PropOp51
 70
     0
102
RTVSPost2010Prop52
140
1.0
102
RTVSPost2010PropOp52
 70
     0
102
RTVSPost2010Prop53
 90
        2
102
RTVSPost2010PropOp53
 70
     1
102
RTVSPost2010Prop54
  1
strokes_ogs.tif
102
RTVSPost2010PropOp54
 70
     1
102
RTVSPost2010Prop55
280
     0
102
RTVSPost2010PropOp55
 70
     1
102
RTVSPost2010Prop56
140
1.0
102
RTVSPost2010PropOp56
 70
     1
102
RTVSPost2010Prop57
140
1.0
102
RTVSPost2010PropOp57
 70
     1
102
RTVSPropertyOp0
 70
     1
102
RTVSPropertyOp1
 70
     1
102
RTVSPropertyOp2
 70
     1
102
RTVSPropertyOp3
 70
     1
102
RTVSPropertyOp4
 70
     1
102
RTVSPropertyOp5
 70
     1
102
RTVSPropertyOp6
 70
     1
102
RTVSPropertyOp7
 70
     1
102
RTVSPropertyOp8
 70
     1
102
RTVSPropertyOp9
 70
     1
102
RTVSPropertyOp10
 70
     1
102
RTVSPropertyOp11
 70
     1
102
RTVSPropertyOp12
 70
     1
102
RTVSPropertyOp13
 70
     1
102
RTVSPropertyOp14
 70
     1
102
RTVSPropertyOp15
 70
     1
102
RTVSPropertyOp16
 70
     1
102
RTVSPropertyOp17
 70
     1
102
RTVSPropertyOp18
 70
     1
102
RTVSPropertyOp19
 70
     1
102
RTVSPropertyOp20
 70
     1
102
RTVSPropertyOp21
 70
     1
102
RTVSPropertyOp22
 70
     1
102
RTVSPropertyOp23
 70
     1
102
RTVSPropertyOp24
 70
     1
102
RTVSPropertyOp25
 70
     1
102
RTVSPropertyOp26
 70
     1
102
RTVSPropertyOp27
 70
     1
102
RTVSPropertyOp28
 70
     1
102
RTVSPropertyOp29
 70
     1
102
RTVSPropertyOp30
 70
     1
102
RTVSPropertyOp31
 70
     1
102
RTVSPropertyOp32
 70
     1
102
RTVSPropertyOp33
 70
     1
102
RTVSPropertyOp34
 70
     1
102
RTVSPropertyOp35
 70
     1
102
RTVSPropertyOp36
 70
     1
102
RTVSPropertyOp37
 70
     1
102
RTVSPropertyOp38
 70
     1
102
RTVSPropertyOp39
 70
     1
102
RTVSPropertyOp40
 70
     1
102
RTVSPropertyOp41
 70
     1
102
RTVSPropertyOp42
 70
     1
102
RTVSPropertyOp43
 70
     1
102
RTVSPropertyOp44
 70
     1
102
RTVSPropertyOp45
 70
     1
102
RTVSPropertyOp46
 70
     1
102
RTVSPropertyOp47
 70
     1
102
RTVSPropertyOp48
 70
     1
102
RTVSPropertyOp49
 70
     1
102
RTVSPropertyOp50
 70
     1
102
RTVSPropertyOp51
 70
     0
102
RTVSPropertyOp52
 70
     0
102
RTVSPropertyOp53
 70
     1
102
RTVSPropertyOp54
 70
     1
102
RTVSPropertyOp55
 70
     1
102
RTVSPropertyOp56
 70
     1
102
RTVSPropertyOp57
 70
     1
102
RTVSPropertyOp58
 70
     1
102
RTVSPropertyOp59
 70
     1
102
RTVSPropertyOp60
 70
     1
102
RTVSPropertyOp61
 70
     1
102
RTVSPropertyOp62
 70
     1
  0
XRECORD
  5
2861
102
{ACAD_REACTORS
330
2860
102
}
330
2860
100
AcDbXrecord
280
     1
102
RTVSPost2010Prop28
280
     0
102
RTVSPost2010PropOp28
 70
     1
102
RTVSPost2010Prop29
280
     1
102
RTVSPost2010PropOp29
 70
     1
102
RTVSPost2010Prop30
280
     1
102
RTVSPost2010PropOp30
 70
     1
102
RTVSPost2010Prop31
280
     0
102
RTVSPost2010PropOp31
 70
     1
102
RTVSPost2010Prop32
280
     0
102
RTVSPost2010PropOp32
 70
     1
102
RTVSPost2010Prop33
280
     0
102
RTVSPost2010PropOp33
 70
     1
102
RTVSPost2010Prop34
280
     0
102
RTVSPost2010PropOp34
 70
     1
102
RTVSPost2010Prop35
280
     0
102
RTVSPost2010PropOp35
 70
     1
102
RTVSPost2010Prop36
280
     0
102
RTVSPost2010PropOp36
 70
     1
102
RTVSPost2010Prop37
 90
       50
102
RTVSPost2010PropOp37
 70
     1
102
RTVSPost2010Prop38
140
0.0
102
RTVSPost2010PropOp38
 70
     1
102
RTVSPost2010Prop39
140
1.0
102
RTVSPost2010PropOp39
 70
     1
102
RTVSPost2010Prop40
 90
        0
102
RTVSPost2010PropOp40
 70
     1
102
RTVSPost2010Prop41ColorIndex
 90
       18
102
RTVSPost2010Prop41ColorRGB
 90
        0
102
RTVSPost2010PropOp41
 70
     1
102
RTVSPost2010Prop42
 90
       50
102
RTVSPost2010PropOp42
 70
     1
102
RTVSPost2010Prop43
 90
        3
102
RTVSPost2010PropOp43
 70
     1
102
RTVSPost2010Prop44ColorIndex
 90
        5
102
RTVSPost2010Prop44ColorRGB
 90
      255
102
RTVSPost2010PropOp44
 70
     1
102
RTVSPost2010Prop45
280
     0
102
RTVSPost2010PropOp45
 70
     1
102
RTVSPost2010Prop46
 90
       50
102
RTVSPost2010PropOp46
 70
     1
102
RTVSPost2010Prop47
 90
       50
102
RTVSPost2010PropOp47
 70
     1
102
RTVSPost2010Prop48
 90
       50
102
RTVSPost2010PropOp48
 70
     1
102
RTVSPost2010Prop49
280
     0
102
RTVSPost2010PropOp49
 70
     1
102
RTVSPost2010Prop50
 90
       50
102
RTVSPost2010PropOp50
 70
     1
102
RTVSPost2010Prop51ColorIndex
 90
      256
102
RTVSPost2010Prop51ColorRGB
 90
-16777216
102
RTVSPost2010PropOp51
 70
     0
102
RTVSPost2010Prop52
140
1.0
102
RTVSPost2010PropOp52
 70
     0
102
RTVSPost2010Prop53
 90
        2
102
RTVSPost2010PropOp53
 70
     1
102
RTVSPost2010Prop54
  1
strokes_ogs.tif
102
RTVSPost2010PropOp54
 70
     1
102
RTVSPost2010Prop55
280
     0
102
RTVSPost2010PropOp55
 70
     1
102
RTVSPost2010Prop56
140
1.0
102
RTVSPost2010PropOp56
 70
     1
102
RTVSPost2010Prop57
140
1.0
102
RTVSPost2010PropOp57
 70
     1
102
RTVSPropertyOp0
 70
     1
102
RTVSPropertyOp1
 70
     1
102
RTVSPropertyOp2
 70
     1
102
RTVSPropertyOp3
 70
     1
102
RTVSPropertyOp4
 70
     1
102
RTVSPropertyOp5
 70
     1
102
RTVSPropertyOp6
 70
     1
102
RTVSPropertyOp7
 70
     1
102
RTVSPropertyOp8
 70
     1
102
RTVSPropertyOp9
 70
     1
102
RTVSPropertyOp10
 70
     1
102
RTVSPropertyOp11
 70
     1
102
RTVSPropertyOp12
 70
     1
102
RTVSPropertyOp13
 70
     1
102
RTVSPropertyOp14
 70
     1
102
RTVSPropertyOp15
 70
     1
102
RTVSPropertyOp16
 70
     1
102
RTVSPropertyOp17
 70
     1
102
RTVSPropertyOp18
 70
     1
102
RTVSPropertyOp19
 70
     1
102
RTVSPropertyOp20
 70
     1
102
RTVSPropertyOp21
 70
     1
102
RTVSPropertyOp22
 70
     1
102
RTVSPropertyOp23
 70
     1
102
RTVSPropertyOp24
 70
     1
102
RTVSPropertyOp25
 70
     1
102
RTVSPropertyOp26
 70
     1
102
RTVSPropertyOp27
 70
     1
102
RTVSPropertyOp28
 70
     1
102
RTVSPropertyOp29
 70
     1
102
RTVSPropertyOp30
 70
     1
102
RTVSPropertyOp31
 70
     1
102
RTVSPropertyOp32
 70
     1
102
RTVSPropertyOp33
 70
     1
102
RTVSPropertyOp34
 70
     1
102
RTVSPropertyOp35
 70
     1
102
RTVSPropertyOp36
 70
     1
102
RTVSPropertyOp37
 70
     1
102
RTVSPropertyOp38
 70
     1
102
RTVSPropertyOp39
 70
     1
102
RTVSPropertyOp40
 70
     1
102
RTVSPropertyOp41
 70
     1
102
RTVSPropertyOp42
 70
     1
102
RTVSPropertyOp43
 70
     1
102
RTVSPropertyOp44
 70
     1
102
RTVSPropertyOp45
 70
     1
102
RTVSPropertyOp46
 70
     1
102
RTVSPropertyOp47
 70
     1
102
RTVSPropertyOp48
 70
     1
102
RTVSPropertyOp49
 70
     1
102
RTVSPropertyOp50
 70
     1
102
RTVSPropertyOp51
 70
     0
102
RTVSPropertyOp52
 70
     0
102
RTVSPropertyOp53
 70
     1
102
RTVSPropertyOp54
 70
     1
102
RTVSPropertyOp55
 70
     1
102
RTVSPropertyOp56
 70
     1
102
RTVSPropertyOp57
 70
     1
102
RTVSPropertyOp58
 70
     1
102
RTVSPropertyOp59
 70
     1
102
RTVSPropertyOp60
 70
     1
102
RTVSPropertyOp61
 70
     1
102
RTVSPropertyOp62
 70
     1
  0
XRECORD
  5
2879
102
{ACAD_REACTORS
330
2878
102
}
330
2878
100
AcDbXrecord
280
     1
102
RTVSPost2010Prop28
280
     0
102
RTVSPost2010PropOp28
 70
     1
102
RTVSPost2010Prop29
280
     1
102
RTVSPost2010PropOp29
 70
     1
102
RTVSPost2010Prop30
280
     1
102
RTVSPost2010PropOp30
 70
     1
102
RTVSPost2010Prop31
280
     0
102
RTVSPost2010PropOp31
 70
     1
102
RTVSPost2010Prop32
280
     0
102
RTVSPost2010PropOp32
 70
     1
102
RTVSPost2010Prop33
280
     0
102
RTVSPost2010PropOp33
 70
     1
102
RTVSPost2010Prop34
280
     0
102
RTVSPost2010PropOp34
 70
     1
102
RTVSPost2010Prop35
280
     0
102
RTVSPost2010PropOp35
 70
     1
102
RTVSPost2010Prop36
280
     0
102
RTVSPost2010PropOp36
 70
     1
102
RTVSPost2010Prop37
 90
       50
102
RTVSPost2010PropOp37
 70
     1
102
RTVSPost2010Prop38
140
0.0
102
RTVSPost2010PropOp38
 70
     1
102
RTVSPost2010Prop39
140
1.0
102
RTVSPost2010PropOp39
 70
     1
102
RTVSPost2010Prop40
 90
        0
102
RTVSPost2010PropOp40
 70
     1
102
RTVSPost2010Prop41ColorIndex
 90
       18
102
RTVSPost2010Prop41ColorRGB
 90
        0
102
RTVSPost2010PropOp41
 70
     1
102
RTVSPost2010Prop42
 90
       50
102
RTVSPost2010PropOp42
 70
     1
102
RTVSPost2010Prop43
 90
        3
102
RTVSPost2010PropOp43
 70
     1
102
RTVSPost2010Prop44ColorIndex
 90
        5
102
RTVSPost2010Prop44ColorRGB
 90
      255
102
RTVSPost2010PropOp44
 70
     1
102
RTVSPost2010Prop45
280
     0
102
RTVSPost2010PropOp45
 70
     1
102
RTVSPost2010Prop46
 90
       50
102
RTVSPost2010PropOp46
 70
     1
102
RTVSPost2010Prop47
 90
       50
102
RTVSPost2010PropOp47
 70
     1
102
RTVSPost2010Prop48
 90
       50
102
RTVSPost2010PropOp48
 70
     1
102
RTVSPost2010Prop49
280
     0
102
RTVSPost2010PropOp49
 70
     1
102
RTVSPost2010Prop50
 90
       50
102
RTVSPost2010PropOp50
 70
     1
102
RTVSPost2010Prop51ColorIndex
 90
      256
102
RTVSPost2010Prop51ColorRGB
 90
-16777216
102
RTVSPost2010PropOp51
 70
     0
102
RTVSPost2010Prop52
140
1.0
102
RTVSPost2010PropOp52
 70
     0
102
RTVSPost2010Prop53
 90
        2
102
RTVSPost2010PropOp53
 70
     1
102
RTVSPost2010Prop54
  1
strokes_ogs.tif
102
RTVSPost2010PropOp54
 70
     1
102
RTVSPost2010Prop55
280
     0
102
RTVSPost2010PropOp55
 70
     1
102
RTVSPost2010Prop56
140
1.0
102
RTVSPost2010PropOp56
 70
     1
102
RTVSPost2010Prop57
140
1.0
102
RTVSPost2010PropOp57
 70
     1
102
RTVSPropertyOp0
 70
     1
102
RTVSPropertyOp1
 70
     1
102
RTVSPropertyOp2
 70
     1
102
RTVSPropertyOp3
 70
     1
102
RTVSPropertyOp4
 70
     1
102
RTVSPropertyOp5
 70
     1
102
RTVSPropertyOp6
 70
     1
102
RTVSPropertyOp7
 70
     1
102
RTVSPropertyOp8
 70
     1
102
RTVSPropertyOp9
 70
     1
102
RTVSPropertyOp10
 70
     1
102
RTVSPropertyOp11
 70
     1
102
RTVSPropertyOp12
 70
     1
102
RTVSPropertyOp13
 70
     1
102
RTVSPropertyOp14
 70
     1
102
RTVSPropertyOp15
 70
     1
102
RTVSPropertyOp16
 70
     1
102
RTVSPropertyOp17
 70
     1
102
RTVSPropertyOp18
 70
     1
102
RTVSPropertyOp19
 70
     1
102
RTVSPropertyOp20
 70
     1
102
RTVSPropertyOp21
 70
     1
102
RTVSPropertyOp22
 70
     1
102
RTVSPropertyOp23
 70
     1
102
RTVSPropertyOp24
 70
     1
102
RTVSPropertyOp25
 70
     1
102
RTVSPropertyOp26
 70
     1
102
RTVSPropertyOp27
 70
     1
102
RTVSPropertyOp28
 70
     1
102
RTVSPropertyOp29
 70
     1
102
RTVSPropertyOp30
 70
     1
102
RTVSPropertyOp31
 70
     1
102
RTVSPropertyOp32
 70
     1
102
RTVSPropertyOp33
 70
     1
102
RTVSPropertyOp34
 70
     1
102
RTVSPropertyOp35
 70
     1
102
RTVSPropertyOp36
 70
     1
102
RTVSPropertyOp37
 70
     1
102
RTVSPropertyOp38
 70
     1
102
RTVSPropertyOp39
 70
     1
102
RTVSPropertyOp40
 70
     1
102
RTVSPropertyOp41
 70
     1
102
RTVSPropertyOp42
 70
     1
102
RTVSPropertyOp43
 70
     1
102
RTVSPropertyOp44
 70
     1
102
RTVSPropertyOp45
 70
     1
102
RTVSPropertyOp46
 70
     1
102
RTVSPropertyOp47
 70
     1
102
RTVSPropertyOp48
 70
     1
102
RTVSPropertyOp49
 70
     1
102
RTVSPropertyOp50
 70
     1
102
RTVSPropertyOp51
 70
     0
102
RTVSPropertyOp52
 70
     0
102
RTVSPropertyOp53
 70
     1
102
RTVSPropertyOp54
 70
     1
102
RTVSPropertyOp55
 70
     1
102
RTVSPropertyOp56
 70
     1
102
RTVSPropertyOp57
 70
     1
102
RTVSPropertyOp58
 70
     1
102
RTVSPropertyOp59
 70
     1
102
RTVSPropertyOp60
 70
     1
102
RTVSPropertyOp61
 70
     1
102
RTVSPropertyOp62
 70
     1
  0
ENDSEC
  0
EOF
