  0
SECTION
  2
HEADER
  9
$ACADVER
  1
AC1032
  9
$DWGCODEPAGE
  3
ANSI_932
  9
$LTSCALE
 40
20.0
  9
$FILLMODE
 70
     1
  9
$CLAYER
  8
0
  9
$PDMODE
 70
     0
  9
$SPLFRAME
 70
     0
  9
$SPLINETYPE
 70
     6
  9
$SPLINESEGS
 70
     8
  9
$DIMASZ
 40
2.000000
  9
$DIMEXE
 40
1.500000
  9
$DIMEXO
 40
0.800000
  9
$DIMTAD
 70
     1
  9
$DIMTIH
 70
     0
  9
$DIMTOH
 70
     0
  9
$DIMTVP
 40
0.500000
  9
$DIMTXT
 40
3.100000
  9
$EXTMIN
 10
0.000000
 20
0.000000
 30
0.000000
  9
$EXTMAX
 10
297.000000
 20
420.000000
 30
0.000000
  9
$MEASUREMENT
 70
  1
  9
$LIMMIN
 10
0.000000
 20
0.000000
  9
$LIMMAX
 10
297.000000
 20
420.000000
  9
$HANDSEED
  5
171
  9
$LWDISPLAY
290
     0
  9
$DIMBLK
  1
_OPEN
  9
$DIMDEC
 70
     2
  9
$DIMADEC
 70
     2
  9
$DIMAUNIT
 70
     0
  9
$DIMZIN
 70
     8
  9
$DIMAZIN
 70
     2
  9
$DIMTOFL
 70
     1
  0
ENDSEC
  0
SECTION
  2
CLASSES
  0
ENDSEC
  0
SECTION
  2
TABLES
  0
TABLE
  2
VPORT
  5
13D
100
AcDbSymbolTable
 70
     1
  0
VPORT
  5
13E
100
AcDbSymbolTableRecord
100
AcDbViewportTableRecord
  2
*ACTIVE
 70
     0
 12
144.094517
 22
104.246631
 40
172.493261
 41
1.554780
  0
ENDTAB
  0
TABLE
  2
LTYPE
  5
13F
100
AcDbSymbolTable
 70
     3
  0
LTYPE
  5
140
100
AcDbSymbolTableRecord
100
AcDbLinetypeTableRecord
  2
BYBLOCK
 70
     0
  3

 72
    65
 73
     0
 40
0.0
  0
LTYPE
  5
141
100
AcDbSymbolTableRecord
100
AcDbLinetypeTableRecord
  2
BYLAYER
 70
     0
  3

 72
    65
 73
     0
 40
0.0
  0
LTYPE
  5
142
100
AcDbSymbolTableRecord
100
AcDbLinetypeTableRecord
  2
CONTINUOUS
 70
     0
  3
Solid line (NEC CAE2D for Win R18.0 : 2025.08.19)
 72
    65
 73
     0
 40
0.0
  0
LTYPE
  5
143
100
AcDbSymbolTableRecord
100
AcDbLinetypeTableRecord
  2
CENTER
 70
     0
  3
____ _ ____ _ ____ _ ____ _ ____ _ ____
 72
    65
 73
     4
 40
2.0
 49
1.25
 74
     0
 49
-0.25
 74
     0
 49
0.25
 74
     0
 49
-0.25
 74
     0
  0
LTYPE
  5
144
100
AcDbSymbolTableRecord
100
AcDbLinetypeTableRecord
  2
PHANTOM
 70
     0
  3
______  __  __  ______  __  __  ______ 
 72
    65
 73
     6
 40
2.5
 49
1.25
 74
     0
 49
-0.25
 74
     0
 49
0.25
 74
     0
 49
-0.25
 74
     0
 49
0.25
 74
     0
 49
-0.25
 74
     0
  0
ENDTAB
  0
TABLE
  2
LAYER
  5
145
100
AcDbSymbolTable
 70
    13
  0
LAYER
  5
146
100
AcDbSymbolTableRecord
100
AcDbLayerTableRecord
  2
0
 70
     0
 62
     7
  6
CONTINUOUS
370
    -3
390

  0
LAYER
  5
147
100
AcDbSymbolTableRecord
100
AcDbLayerTableRecord
  2
DXF0
 70
     0
 62
     7
  6
CONTINUOUS
370
    -3
390

  0
LAYER
  5
148
100
AcDbSymbolTableRecord
100
AcDbLayerTableRecord
  2
DXF0
 70
     0
 62
     7
  6
CONTINUOUS
370
    -3
390

  0
LAYER
  5
149
100
AcDbSymbolTableRecord
100
AcDbLayerTableRecord
  2
4
 70
     0
 62
     1
  6
CONTINUOUS
370
    -3
390

  0
LAYER
  5
14A
100
AcDbSymbolTableRecord
100
AcDbLayerTableRecord
  2
5
 70
     0
 62
     6
  6
CONTINUOUS
370
    -3
390

  0
LAYER
  5
14B
100
AcDbSymbolTableRecord
100
AcDbLayerTableRecord
  2
1
 70
     0
 62
     7
  6
CONTINUOUS
370
    -3
390

  0
LAYER
  5
14C
100
AcDbSymbolTableRecord
100
AcDbLayerTableRecord
  2
2
 70
     0
 62
     4
  6
CONTINUOUS
370
    -3
390

  0
LAYER
  5
14D
100
AcDbSymbolTableRecord
100
AcDbLayerTableRecord
  2
3
 70
     0
 62
     2
  6
CONTINUOUS
370
    -3
390

  0
LAYER
  5
14E
100
AcDbSymbolTableRecord
100
AcDbLayerTableRecord
  2
6
 70
     0
 62
     5
  6
CONTINUOUS
370
    -3
390

  0
LAYER
  5
14F
100
AcDbSymbolTableRecord
100
AcDbLayerTableRecord
  2
7
 70
     0
 62
     3
  6
CONTINUOUS
370
    -3
390

  0
LAYER
  5
150
100
AcDbSymbolTableRecord
100
AcDbLayerTableRecord
  2
DXF10
 70
     0
 62
    12
  6
CONTINUOUS
370
    -3
390

  0
LAYER
  5
151
100
AcDbSymbolTableRecord
100
AcDbLayerTableRecord
  2
DXF1023
 70
     0
 62
     8
  6
CONTINUOUS
370
    -3
390

  0
LAYER
  5
152
100
AcDbSymbolTableRecord
100
AcDbLayerTableRecord
  2
DXF1023
 70
     0
 62
    16
  6
CONTINUOUS
370
    -3
390

  0
ENDTAB
  0
TABLE
  2
STYLE
  5
153
100
AcDbSymbolTable
 70
     4
  0
STYLE
  5
154
100
AcDbSymbolTableRecord
100
AcDbTextStyleTableRecord
  2
STANDARD
 70
    64
 40
0.0
 41
1.0
 50
0.0
 71
     0
 42
3.000000000000000
  3
TXT
  4

  0
STYLE
  5
155
100
AcDbSymbolTableRecord
100
AcDbTextStyleTableRecord
  2
ANKTATE
 70
    68
 40
0.0
 41
1.0
 50
0.0
 71
     0
 42
3.000000000000000
  3
TXT
  4

  0
STYLE
  5
156
100
AcDbSymbolTableRecord
100
AcDbTextStyleTableRecord
  2
KNJYOKO
 70
    64
 40
0.0
 41
1.0
 50
0.0
 71
     0
 42
3.000000000000000
  3
TXT
  4
BIGFONT
  0
STYLE
  5
157
100
AcDbSymbolTableRecord
100
AcDbTextStyleTableRecord
  2
KNJTATE
 70
    68
 40
0.0
 41
1.0
 50
0.0
 71
     0
 42
3.000000000000000
  3
TXT
  4
BIGFONT
  0
ENDTAB
  0
TABLE
  2
VIEW
  5
158
100
AcDbSymbolTable
 70
     0
  0
ENDTAB
  0
TABLE
  2
UCS
  5
159
100
AcDbSymbolTable
 70
     0
  0
ENDTAB
  0
TABLE
  2
APPID
  5
15A
100
AcDbSymbolTable
 70
     1
  0
APPID
  5
15B
100
AcDbSymbolTableRecord
100
AcDbRegAppTableRecord
  2
ACAD
 70
     0
  0
ENDTAB
  0
TABLE
  2
DIMSTYLE
  5
15C
100
AcDbSymbolTable
 70
     2
100
AcDbDimStyleTable
  0
DIMSTYLE
105
15D
100
AcDbSymbolTableRecord
100
AcDbDimStyleTableRecord
  2
STANDARD
 70
     0
 41
2.000000
 44
1.500000
 42
0.800000
145
0.661290
140
3.100000
144
1.000000
146
0.645161
340
154
  0
DIMSTYLE
105
15E
100
AcDbSymbolTableRecord
100
AcDbDimStyleTableRecord
  2
DXF001
 70
     0
 41
2.000000
 44
1.500000
 42
0.800000
145
0.661290
140
3.100000
144
1.000000
146
0.645161
 77
     1
 73
     0
 74
     0
271
     2
179
     2
275
     0
 78
     8
 79
     2
172
     1
340
154
  0
ENDTAB
  0
TABLE
  2
BLOCK_RECORD
  5
15F
100
AcDbSymbolTable
 70
    12
  0
BLOCK_RECORD
  5
160
100
AcDbSymbolTableRecord
100
AcDbBlockTableRecord
  2
*MODEL_SPACE
  0
BLOCK_RECORD
  5
161
100
AcDbSymbolTableRecord
100
AcDbBlockTableRecord
  2
*PAPER_SPACE
  0
BLOCK_RECORD
  5
162
100
AcDbSymbolTableRecord
100
AcDbBlockTableRecord
  2
*PAPER_SPACE0
  0
BLOCK_RECORD
  5
1
100
AcDbSymbolTableRecord
100
AcDbBlockTableRecord
  2
_NONE
  0
BLOCK_RECORD
  5
4
100
AcDbSymbolTableRecord
100
AcDbBlockTableRecord
  2
_CLOSED
  0
BLOCK_RECORD
  5
B
100
AcDbSymbolTableRecord
100
AcDbBlockTableRecord
  2
_DOT
  0
BLOCK_RECORD
  5
13
100
AcDbSymbolTableRecord
100
AcDbBlockTableRecord
  2
_OPEN
  0
BLOCK_RECORD
  5
19
100
AcDbSymbolTableRecord
100
AcDbBlockTableRecord
  2
_ORIGIN
  0
BLOCK_RECORD
  5
1E
100
AcDbSymbolTableRecord
100
AcDbBlockTableRecord
  2
_OPEN30
  0
BLOCK_RECORD
  5
24
100
AcDbSymbolTableRecord
100
AcDbBlockTableRecord
  2
_BOXFILLED
  0
BLOCK_RECORD
  5
29
100
AcDbSymbolTableRecord
100
AcDbBlockTableRecord
  2
_BOXBLANK
  0
BLOCK_RECORD
  5
31
100
AcDbSymbolTableRecord
100
AcDbBlockTableRecord
  2
_OBLIQUE
  0
BLOCK_RECORD
  5
35
100
AcDbSymbolTableRecord
100
AcDbBlockTableRecord
  2
_OPEN90
  0
BLOCK_RECORD
  5
3B
100
AcDbSymbolTableRecord
100
AcDbBlockTableRecord
  2
_CLOSEDBLANK
  0
BLOCK_RECORD
  5
41
100
AcDbSymbolTableRecord
100
AcDbBlockTableRecord
  2
_DOTBLANK
  0
ENDTAB
  0
ENDSEC
  0
SECTION
  2
BLOCKS
  0
BLOCK
  5
163
100
AcDbEntity
  8
0
100
AcDbBlockBegin
  2
*MODEL_SPACE
 70
     0
 10
0.0
 20
0.0
 30
0.0
  3
*MODEL_SPACE
  1

  0
ENDBLK
  5
164
100
AcDbEntity
  8
0
100
AcDbBlockEnd
  0
BLOCK
  5
165
100
AcDbEntity
  8
0
100
AcDbBlockBegin
  2
*PAPER_SPACE
 70
     0
 10
0.0
 20
0.0
 30
0.0
  3
*PAPER_SPACE
  1

  0
ENDBLK
  5
166
100
AcDbEntity
  8
0
100
AcDbBlockEnd
  0
BLOCK
  5
167
100
AcDbEntity
  8
0
100
AcDbBlockBegin
  2
*PAPER_SPACE0
 70
     0
 10
0.0
 20
0.0
 30
0.0
  3
*PAPER_SPACE0
  1

  0
ENDBLK
  5
168
100
AcDbEntity
  8
0
100
AcDbBlockEnd
  0
BLOCK
  5
2
330
1
100
AcDbEntity
  8
0
100
AcDbBlockBegin
  2
_NONE
 70
     0
 10
0.0
 20
0.0
 30
0.0
  3
_NONE
  1

  0
ENDBLK
  5
3
330
1
100
AcDbEntity
  8
0
100
AcDbBlockEnd
  0
BLOCK
  5
5
330
4
100
AcDbEntity
  8
0
100
AcDbBlockBegin
  2
_CLOSED
 70
     0
 10
0.0
 20
0.0
 30
0.0
  3
_CLOSED
  1

  0
LINE
  5
6
330
4
100
AcDbEntity
  8
0
  6
BYBLOCK
 62
     0
370
    -2
100
AcDbLine
 10
-1.0
 20
0.166667
 30
0.0
 11
0.0
 21
0.0
 31
0.0
  0
LINE
  5
7
330
4
100
AcDbEntity
  8
0
  6
BYBLOCK
 62
     0
370
    -2
100
AcDbLine
 10
0.0
 20
0.0
 30
0.0
 11
-1.0
 21
-0.166667
 31
0.0
  0
LINE
  5
8
330
4
100
AcDbEntity
  8
0
  6
BYBLOCK
 62
     0
370
    -2
100
AcDbLine
 10
-1.0
 20
0.166667
 30
0.0
 11
-1.0
 21
-0.166667
 31
0.0
  0
LINE
  5
9
330
4
100
AcDbEntity
  8
0
  6
BYBLOCK
 62
     0
370
    -2
100
AcDbLine
 10
0.0
 20
0.0
 30
0.0
 11
-1.0
 21
0.0
 31
0.0
  0
ENDBLK
  5
A
330
4
100
AcDbEntity
  8
0
100
AcDbBlockEnd
  0
BLOCK
  5
C
330
B
100
AcDbEntity
  8
0
100
AcDbBlockBegin
  2
_DOT
 70
     0
 10
0.0
 20
0.0
 30
0.0
  3
_DOT
  1

  0
POLYLINE
  5
D
330
B
100
AcDbEntity
  8
0
  6
BYBLOCK
 62
     0
370
    -2
100
AcDb2dPolyline
 66
     1
 10
0.0
 20
0.0
 30
0.0
 70
     1
 40
0.5
 41
0.5
  0
VERTEX
  5
E
330
B
100
AcDbEntity
  8
0
  6
BYBLOCK
 62
     0
370
    -2
100
AcDbVertex
100
AcDb2dVertex
 10
-0.25
 20
0.0
 30
0.0
 42
1.0
  0
VERTEX
  5
F
330
B
100
AcDbEntity
  8
0
  6
BYBLOCK
 62
     0
370
    -2
100
AcDbVertex
100
AcDb2dVertex
 10
0.25
 20
0.0
 30
0.0
 42
1.0
  0
SEQEND
  5
10
330
B
100
AcDbEntity
  8
0
  6
BYBLOCK
 62
     0
370
    -2
  0
LINE
  5
11
330
B
100
AcDbEntity
  8
0
  6
BYBLOCK
 62
     0
370
    -2
100
AcDbLine
 10
-0.5
 20
0.0
 30
0.0
 11
-1.0
 21
0.0
 31
0.0
  0
ENDBLK
  5
12
330
B
100
AcDbEntity
  8
0
100
AcDbBlockEnd
  0
BLOCK
  5
14
330
13
100
AcDbEntity
  8
0
100
AcDbBlockBegin
  2
_OPEN
 70
     0
 10
0.0
 20
0.0
 30
0.0
  3
_OPEN
  1

  0
LINE
  5
15
330
13
100
AcDbEntity
  8
0
  6
BYBLOCK
 62
     0
370
    -2
100
AcDbLine
 10
-1.0
 20
0.166667
 30
0.0
 11
0.0
 21
0.0
 31
0.0
  0
LINE
  5
16
330
13
100
AcDbEntity
  8
0
  6
BYBLOCK
 62
     0
370
    -2
100
AcDbLine
 10
0.0
 20
0.0
 30
0.0
 11
-1.0
 21
-0.166667
 31
0.0
  0
LINE
  5
17
330
13
100
AcDbEntity
  8
0
  6
BYBLOCK
 62
     0
370
    -2
100
AcDbLine
 10
0.0
 20
0.0
 30
0.0
 11
-1.0
 21
0.0
 31
0.0
  0
ENDBLK
  5
18
330
13
100
AcDbEntity
  8
0
100
AcDbBlockEnd
  0
BLOCK
  5
1A
330
19
100
AcDbEntity
  8
0
100
AcDbBlockBegin
  2
_ORIGIN
 70
     0
 10
0.0
 20
0.0
 30
0.0
  3
_ORIGIN
  1

  0
CIRCLE
  5
1B
330
19
100
AcDbEntity
  8
0
  6
BYBLOCK
 62
     0
370
    -2
100
AcDbCircle
 10
0.0
 20
0.0
 30
0.0
 40
0.5
  0
LINE
  5
1C
330
19
100
AcDbEntity
  8
0
  6
BYBLOCK
 62
     0
370
    -2
100
AcDbLine
 10
0.0
 20
0.0
 30
0.0
 11
-1.0
 21
0.0
 31
0.0
  0
ENDBLK
  5
1D
330
19
100
AcDbEntity
  8
0
100
AcDbBlockEnd
  0
BLOCK
  5
1F
330
1E
100
AcDbEntity
  8
0
100
AcDbBlockBegin
  2
_OPEN30
 70
     0
 10
0.0
 20
0.0
 30
0.0
  3
_OPEN30
  1

  0
LINE
  5
20
330
1E
100
AcDbEntity
  8
0
  6
BYBLOCK
 62
     0
370
    -2
100
AcDbLine
 10
-1.0
 20
0.267949
 30
0.0
 11
0.0
 21
0.0
 31
0.0
  0
LINE
  5
21
330
1E
100
AcDbEntity
  8
0
  6
BYBLOCK
 62
     0
370
    -2
100
AcDbLine
 10
0.0
 20
0.0
 30
0.0
 11
-1.0
 21
-0.267949
 31
0.0
  0
LINE
  5
22
330
1E
100
AcDbEntity
  8
0
  6
BYBLOCK
 62
     0
370
    -2
100
AcDbLine
 10
0.0
 20
0.0
 30
0.0
 11
-1.0
 21
0.0
 31
0.0
  0
ENDBLK
  5
23
330
1E
100
AcDbEntity
  8
0
100
AcDbBlockEnd
  0
BLOCK
  5
25
330
24
100
AcDbEntity
  8
0
100
AcDbBlockBegin
  2
_BOXFILLED
 70
     0
 10
0.0
 20
0.0
 30
0.0
  3
_BOXFILLED
  1

  0
SOLID
  5
26
330
24
100
AcDbEntity
  8
0
  6
BYBLOCK
 62
     0
370
    -2
100
AcDbTrace
 10
-0.5
 20
0.5
 30
0.0
 11
0.5
 21
0.5
 31
0.0
 12
-0.5
 22
-0.5
 32
0.0
 13
0.5
 23
-0.5
 33
0.0
  0
LINE
  5
27
330
24
100
AcDbEntity
  8
0
  6
BYBLOCK
 62
     0
370
    -2
100
AcDbLine
 10
-0.5
 20
0.0
 30
0.0
 11
-1.0
 21
0.0
 31
0.0
  0
ENDBLK
  5
28
330
24
100
AcDbEntity
  8
0
100
AcDbBlockEnd
  0
BLOCK
  5
2A
330
29
100
AcDbEntity
  8
0
100
AcDbBlockBegin
  2
_BOXBLANK
 70
     0
 10
0.0
 20
0.0
 30
0.0
  3
_BOXBLANK
  1

  0
LINE
  5
2B
330
29
100
AcDbEntity
  8
0
  6
BYBLOCK
 62
     0
370
    -2
100
AcDbLine
 10
-0.5
 20
-0.5
 30
0.0
 11
0.5
 21
-0.5
 31
0.0
  0
LINE
  5
2C
330
29
100
AcDbEntity
  8
0
  6
BYBLOCK
 62
     0
370
    -2
100
AcDbLine
 10
0.5
 20
-0.5
 30
0.0
 11
0.5
 21
0.5
 31
0.0
  0
LINE
  5
2D
330
29
100
AcDbEntity
  8
0
  6
BYBLOCK
 62
     0
370
    -2
100
AcDbLine
 10
0.5
 20
0.5
 30
0.0
 11
-0.5
 21
0.5
 31
0.0
  0
LINE
  5
2E
330
29
100
AcDbEntity
  8
0
  6
BYBLOCK
 62
     0
370
    -2
100
AcDbLine
 10
-0.5
 20
0.5
 30
0.0
 11
-0.5
 21
-0.5
 31
0.0
  0
LINE
  5
2F
330
29
100
AcDbEntity
  8
0
  6
BYBLOCK
 62
     0
370
    -2
100
AcDbLine
 10
-0.5
 20
0.0
 30
0.0
 11
-1.0
 21
0.0
 31
0.0
  0
ENDBLK
  5
30
330
29
100
AcDbEntity
  8
0
100
AcDbBlockEnd
  0
BLOCK
  5
32
330
31
100
AcDbEntity
  8
0
100
AcDbBlockBegin
  2
_OBLIQUE
 70
     0
 10
0.0
 20
0.0
 30
0.0
  3
_OBLIQUE
  1

  0
LINE
  5
33
330
31
100
AcDbEntity
  8
0
  6
BYBLOCK
 62
     0
370
    -2
100
AcDbLine
 10
-0.5
 20
-0.5
 30
0.0
 11
0.5
 21
0.5
 31
0.0
  0
ENDBLK
  5
34
330
31
100
AcDbEntity
  8
0
100
AcDbBlockEnd
  0
BLOCK
  5
36
330
35
100
AcDbEntity
  8
0
100
AcDbBlockBegin
  2
_OPEN90
 70
     0
 10
0.0
 20
0.0
 30
0.0
  3
_OPEN90
  1

  0
LINE
  5
37
330
35
100
AcDbEntity
  8
0
  6
BYBLOCK
 62
     0
370
    -2
100
AcDbLine
 10
-0.5
 20
0.5
 30
0.0
 11
0.0
 21
0.0
 31
0.0
  0
LINE
  5
38
330
35
100
AcDbEntity
  8
0
  6
BYBLOCK
 62
     0
370
    -2
100
AcDbLine
 10
0.0
 20
0.0
 30
0.0
 11
-0.5
 21
-0.5
 31
0.0
  0
LINE
  5
39
330
35
100
AcDbEntity
  8
0
  6
BYBLOCK
 62
     0
370
    -2
100
AcDbLine
 10
0.0
 20
0.0
 30
0.0
 11
-1.0
 21
0.0
 31
0.0
  0
ENDBLK
  5
3A
330
35
100
AcDbEntity
  8
0
100
AcDbBlockEnd
  0
BLOCK
  5
3C
330
3B
100
AcDbEntity
  8
0
100
AcDbBlockBegin
  2
_CLOSEDBLANK
 70
     0
 10
0.0
 20
0.0
 30
0.0
  3
_CLOSEDBLANK
  1

  0
LINE
  5
3D
330
3B
100
AcDbEntity
  8
0
  6
BYBLOCK
 62
     0
370
    -2
100
AcDbLine
 10
-1.0
 20
0.1666666666666666
 30
0.0
 11
0.0
 21
0.0
 31
0.0
  0
LINE
  5
3E
330
3B
100
AcDbEntity
  8
0
  6
BYBLOCK
 62
     0
370
    -2
100
AcDbLine
 10
0.0
 20
0.0
 30
0.0
 11
-1.0
 21
-0.1666666666666666
 31
0.0
  0
LINE
  5
3F
330
3B
100
AcDbEntity
  8
0
  6
BYBLOCK
 62
     0
370
    -2
100
AcDbLine
 10
-1.0
 20
0.1666666666666666
 30
0.0
 11
-1.0
 21
-0.1666666666666666
 31
0.0
  0
ENDBLK
  5
40
330
3B
100
AcDbEntity
  8
0
100
AcDbBlockEnd
  0
BLOCK
  5
42
330
41
100
AcDbEntity
  8
0
100
AcDbBlockBegin
  2
_DOTBLANK
 70
     0
 10
0.0
 20
0.0
 30
0.0
  3
_DOTBLANK
  1

  0
CIRCLE
  5
43
330
41
100
AcDbEntity
  8
0
  6
BYBLOCK
 62
     0
370
    -2
100
AcDbCircle
 10
0.0
 20
0.0
 30
0.0
 40
0.5
  0
LINE
  5
44
330
41
100
AcDbEntity
  8
0
  6
BYBLOCK
 62
     0
370
    -2
100
AcDbLine
 10
-0.5
 20
0.0
 30
0.0
 11
-1.0
 21
0.0
 31
0.0
  0
ENDBLK
  5
45
330
41
100
AcDbEntity
  8
0
100
AcDbBlockEnd
  0
ENDSEC
  0
SECTION
  2
ENTITIES
  0
MTEXT
  5
46
100
AcDbEntity
  8
7
  6
CONTINUOUS
 62
3
100
AcDbMText
 10
9.999999064246616
 20
18.00000056761564
 30
0.000000000000000
 40
3.000000000000000
 41
0.000000000000000
 44
0.6739999771118164
 71
     7
 72
     1
  1
{\H0.94x;{TYPE No.TL-428-R-H}}
 11
1.000000000000000
 21
0.000000000000000
 31
0.000000000000000
  7
STANDARD
  0
LINE
  5
47
100
AcDbEntity
  8
DXF10
  6
CONTINUOUS
 62
7
100
AcDbLine
 10
262.2890358066679
 20
167.1727536569963
 30
0.000000000000000
 11
262.2890358066679
 21
166.9516203197336
 31
0.000000000000000
  0
LINE
  5
48
100
AcDbEntity
  8
DXF10
  6
CONTINUOUS
 62
7
100
AcDbLine
 10
261.0890358066679
 20
166.9516203197337
 30
0.000000000000000
 11
261.0890358066679
 21
167.1727536569963
 31
0.000000000000000
  0
ARC
  5
49
100
AcDbEntity
  8
DXF10
  6
CONTINUOUS
 62
7
100
AcDbCircle
 10
261.6890358066680
 20
173.1727536569963
 30
0.000000000000000
 40
6.250000000000000
100
AcDbArc
 50
264.4911213287959
 51
275.5088786712013
  0
CIRCLE
  5
4A
100
AcDbEntity
  8
DXF10
  6
CONTINUOUS
 62
7
100
AcDbCircle
 10
261.6890358066680
 20
173.1727536569963
 30
0.000000000000000
 40
15.00000000000000
  0
LINE
  5
4B
100
AcDbEntity
  8
DXF10
  6
CONTINUOUS
 62
7
100
AcDbLine
 10
262.2890358066680
 20
179.1727536569963
 30
0.000000000000000
 11
262.2890358066680
 21
179.3938869942589
 31
0.000000000000000
  0
LINE
  5
4C
100
AcDbEntity
  8
DXF10
  6
CONTINUOUS
 62
7
100
AcDbLine
 10
261.0890358066681
 20
179.3938869942589
 30
0.000000000000000
 11
261.0890358066681
 21
179.1727536569963
 31
0.000000000000000
  0
ARC
  5
4D
100
AcDbEntity
  8
DXF10
  6
CONTINUOUS
 62
7
100
AcDbCircle
 10
261.6890358066680
 20
173.1727536569963
 30
0.000000000000000
 40
6.250000000000000
100
AcDbArc
 50
84.49112132879713
 51
95.50887867120242
  0
ARC
  5
4E
100
AcDbEntity
  8
DXF10
  6
CONTINUOUS
 62
7
100
AcDbCircle
 10
261.6890358066680
 20
173.1727536569961
 30
0.000000000000000
 40
4.499999999987949
100
AcDbArc
 50
308.9424412687864
 51
321.0575587312857
  0
ARC
  5
4F
100
AcDbEntity
  8
DXF10
  6
CONTINUOUS
 62
7
100
AcDbCircle
 10
261.6890358066680
 20
173.1727536569961
 30
0.000000000000000
 40
4.499999999987949
100
AcDbArc
 50
38.94244126871240
 51
51.05755873128654
  0
ARC
  5
50
100
AcDbEntity
  8
DXF10
  6
CONTINUOUS
 62
7
100
AcDbCircle
 10
261.6890358066680
 20
173.1727536569961
 30
0.000000000000000
 40
4.499999999987949
100
AcDbArc
 50
128.9424412687121
 51
141.0575587312123
  0
ARC
  5
51
100
AcDbEntity
  8
DXF10
  6
CONTINUOUS
 62
7
100
AcDbCircle
 10
261.6890358066680
 20
173.1727536569961
 30
0.000000000000000
 40
4.499999999987949
100
AcDbArc
 50
218.9424412687864
 51
231.0575587312120
  0
LINE
  5
52
100
AcDbEntity
  8
DXF10
  6
CONTINUOUS
 62
7
100
AcDbLine
 10
264.3554941318579
 20
176.6727536569999
 30
0.000000000000000
 11
259.0225774814782
 21
176.6727536570000
 31
0.000000000000000
  0
LINE
  5
53
100
AcDbEntity
  8
DXF10
  6
CONTINUOUS
 62
7
100
AcDbLine
 10
258.1890358066678
 20
175.8392119821907
 30
0.000000000000000
 11
258.1890358066677
 21
170.5062953318019
 31
0.000000000000000
  0
LINE
  5
54
100
AcDbEntity
  8
DXF10
  6
CONTINUOUS
 62
7
100
AcDbLine
 10
259.0225774814738
 20
169.6727536569959
 30
0.000000000000000
 11
264.3554941318621
 21
169.6727536569958
 31
0.000000000000000
  0
LINE
  5
55
100
AcDbEntity
  8
DXF10
  6
CONTINUOUS
 62
7
100
AcDbLine
 10
265.1890358066718
 20
170.5062953318066
 30
0.000000000000000
 11
265.1890358066719
 21
175.8392119821858
 31
0.000000000000000
  0
LINE
  5
56
100
AcDbEntity
  8
DXF10
  6
CONTINUOUS
 62
7
100
AcDbLine
 10
267.6890358066680
 20
175.6727536569962
 30
0.000000000000000
 11
267.6890358066678
 21
170.6727536569962
 31
0.000000000000000
  0
LINE
  5
57
100
AcDbEntity
  8
DXF10
  6
CONTINUOUS
 62
7
100
AcDbLine
 10
255.6890358066680
 20
175.6727536569964
 30
0.000000000000000
 11
255.6890358066678
 21
170.6727536569964
 31
0.000000000000000
  0
LINE
  5
58
100
AcDbEntity
  8
DXF10
  6
CONTINUOUS
 62
7
100
AcDbLine
 10
264.1890358066680
 20
167.1727536569963
 30
0.000000000000000
 11
259.1890358066678
 21
167.1727536569963
 31
0.000000000000000
  0
LINE
  5
59
100
AcDbEntity
  8
DXF10
  6
CONTINUOUS
 62
7
100
AcDbLine
 10
264.1890358066681
 20
179.1727536569963
 30
0.000000000000000
 11
259.1890358066680
 21
179.1727536569963
 31
0.000000000000000
  0
ARC
  5
5A
100
AcDbEntity
  8
DXF10
  6
CONTINUOUS
 62
7
100
AcDbCircle
 10
261.6890358066679
 20
173.1727536569963
 30
0.000000000000000
 40
6.500000000000000
100
AcDbArc
 50
202.6198649480397
 51
247.3801350519587
  0
ARC
  5
5B
100
AcDbEntity
  8
DXF10
  6
CONTINUOUS
 62
7
100
AcDbCircle
 10
261.6890358066679
 20
173.1727536569963
 30
0.000000000000000
 40
6.500000000000000
100
AcDbArc
 50
112.6198649480394
 51
157.3801350519586
  0
ARC
  5
5C
100
AcDbEntity
  8
DXF10
  6
CONTINUOUS
 62
7
100
AcDbCircle
 10
261.6890358066679
 20
173.1727536569963
 30
0.000000000000000
 40
6.500000000000000
100
AcDbArc
 50
22.61986494803969
 51
67.38013505195855
  0
ARC
  5
5D
100
AcDbEntity
  8
DXF10
  6
CONTINUOUS
 62
7
100
AcDbCircle
 10
261.6890358066679
 20
173.1727536569963
 30
0.000000000000000
 40
6.500000000000000
100
AcDbArc
 50
292.6198649480395
 51
337.3801350519585
  0
LINE
  5
5E
100
AcDbEntity
  8
DXF10
  6
CONTINUOUS
 62
7
100
AcDbLine
 10
260.1467552150630
 20
169.6727536569958
 30
0.000000000000000
 11
259.6890358066677
 21
168.5901779620405
 31
0.000000000000000
  0
LINE
  5
5F
100
AcDbEntity
  8
DXF10
  6
CONTINUOUS
 62
7
100
AcDbLine
 10
263.2313163982727
 20
169.6727536569959
 30
0.000000000000000
 11
263.6890358066677
 21
168.5901779620403
 31
0.000000000000000
  0
LINE
  5
60
100
AcDbEntity
  8
DXF10
  6
CONTINUOUS
 62
7
100
AcDbLine
 10
263.2313163982741
 20
176.6727536569998
 30
0.000000000000000
 11
263.6890358066680
 21
177.7553293519520
 31
0.000000000000000
  0
LINE
  5
61
100
AcDbEntity
  8
DXF10
  6
CONTINUOUS
 62
7
100
AcDbLine
 10
260.1467552150618
 20
176.6727536570000
 30
0.000000000000000
 11
259.6890358066680
 21
177.7553293519522
 31
0.000000000000000
  0
LINE
  5
62
100
AcDbEntity
  8
DXF10
  6
CONTINUOUS
 62
7
100
AcDbLine
 10
258.1890358066681
 20
171.6304730653914
 30
0.000000000000000
 11
257.1064601117124
 21
171.1727536569962
 31
0.000000000000000
  0
LINE
  5
63
100
AcDbEntity
  8
DXF10
  6
CONTINUOUS
 62
7
100
AcDbLine
 10
258.1890358066677
 20
174.7150342486008
 30
0.000000000000000
 11
257.1064601117121
 21
175.1727536569962
 31
0.000000000000000
  0
LINE
  5
64
100
AcDbEntity
  8
DXF10
  6
CONTINUOUS
 62
7
100
AcDbLine
 10
265.1890358066721
 20
174.7150342486026
 30
0.000000000000000
 11
266.2716115016239
 21
175.1727536569963
 31
0.000000000000000
  0
LINE
  5
65
100
AcDbEntity
  8
DXF10
  6
CONTINUOUS
 62
7
100
AcDbLine
 10
265.1890358066719
 20
171.6304730653900
 30
0.000000000000000
 11
266.2716115016238
 21
171.1727536569963
 31
0.000000000000000
  0
ARC
  5
66
100
AcDbEntity
  8
DXF10
  6
CONTINUOUS
 62
7
100
AcDbCircle
 10
261.6890358066679
 20
173.1727536569963
 30
0.000000000000000
 40
5.000000000000000
100
AcDbArc
 50
203.5781784782012
 51
246.4218215217974
  0
ARC
  5
67
100
AcDbEntity
  8
DXF10
  6
CONTINUOUS
 62
7
100
AcDbCircle
 10
261.6890358066679
 20
173.1727536569963
 30
0.000000000000000
 40
5.000000000000000
100
AcDbArc
 50
113.5781784782012
 51
156.4218215217978
  0
ARC
  5
68
100
AcDbEntity
  8
DXF10
  6
CONTINUOUS
 62
7
100
AcDbCircle
 10
261.6890358066679
 20
173.1727536569963
 30
0.000000000000000
 40
5.000000000000000
100
AcDbArc
 50
23.57817847820130
 51
66.42182152179737
  0
ARC
  5
69
100
AcDbEntity
  8
DXF10
  6
CONTINUOUS
 62
7
100
AcDbCircle
 10
261.6890358066679
 20
173.1727536569963
 30
0.000000000000000
 40
5.000000000000000
100
AcDbArc
 50
293.5781784782013
 51
336.4218215217978
  0
ARC
  5
6A
100
AcDbEntity
  8
DXF10
  6
CONTINUOUS
 62
7
100
AcDbCircle
 10
261.6890358066680
 20
173.1727536569961
 30
0.000000000000000
 40
4.499999999987949
100
AcDbArc
 50
113.6514322137741
 51
128.9424412687121
  0
ARC
  5
6B
100
AcDbEntity
  8
DXF10
  6
CONTINUOUS
 62
7
100
AcDbCircle
 10
261.6890358066680
 20
173.1727536569961
 30
0.000000000000000
 40
4.499999999987949
100
AcDbArc
 50
51.05755873128654
 51
66.34856778622635
  0
ARC
  5
6C
100
AcDbEntity
  8
DXF10
  6
CONTINUOUS
 62
7
100
AcDbCircle
 10
261.6890358066680
 20
173.1727536569961
 30
0.000000000000000
 40
4.499999999987949
100
AcDbArc
 50
23.65143221377587
 51
38.94244126871240
  0
ARC
  5
6D
100
AcDbEntity
  8
DXF10
  6
CONTINUOUS
 62
7
100
AcDbCircle
 10
261.6890358066680
 20
173.1727536569961
 30
0.000000000000000
 40
4.499999999987949
100
AcDbArc
 50
321.0575587312857
 51
336.3485677862276
  0
ARC
  5
6E
100
AcDbEntity
  8
DXF10
  6
CONTINUOUS
 62
7
100
AcDbCircle
 10
261.6890358066680
 20
173.1727536569963
 30
0.000000000000000
 40
4.600000000000008
100
AcDbArc
 50
23.63550739092130
 51
66.36449260907847
  0
ARC
  5
6F
100
AcDbEntity
  8
DXF10
  6
CONTINUOUS
 62
7
100
AcDbCircle
 10
261.6890358066680
 20
173.1727536569963
 30
0.000000000000000
 40
4.600000000000008
100
AcDbArc
 50
293.6355073909208
 51
336.3644926090778
  0
ARC
  5
70
100
AcDbEntity
  8
DXF10
  6
CONTINUOUS
 62
7
100
AcDbCircle
 10
261.6890358066680
 20
173.1727536569961
 30
0.000000000000000
 40
4.499999999987949
100
AcDbArc
 50
293.6514322137735
 51
308.9424412687864
  0
ARC
  5
71
100
AcDbEntity
  8
DXF10
  6
CONTINUOUS
 62
7
100
AcDbCircle
 10
261.6890358066680
 20
173.1727536569961
 30
0.000000000000000
 40
4.499999999987949
100
AcDbArc
 50
231.0575587312120
 51
246.3485677862209
  0
ARC
  5
72
100
AcDbEntity
  8
DXF10
  6
CONTINUOUS
 62
7
100
AcDbCircle
 10
261.6890358066680
 20
173.1727536569961
 30
0.000000000000000
 40
4.499999999987949
100
AcDbArc
 50
203.6514322137723
 51
218.9424412687864
  0
ARC
  5
73
100
AcDbEntity
  8
DXF10
  6
CONTINUOUS
 62
7
100
AcDbCircle
 10
261.6890358066680
 20
173.1727536569961
 30
0.000000000000000
 40
4.499999999987949
100
AcDbArc
 50
141.0575587312123
 51
156.3485677862232
  0
ARC
  5
74
100
AcDbEntity
  8
DXF10
  6
CONTINUOUS
 62
7
100
AcDbCircle
 10
261.6890358066680
 20
173.1727536569963
 30
0.000000000000000
 40
4.600000000000008
100
AcDbArc
 50
203.6355073909222
 51
246.3644926090752
  0
ARC
  5
75
100
AcDbEntity
  8
DXF10
  6
CONTINUOUS
 62
7
100
AcDbCircle
 10
261.6890358066680
 20
173.1727536569963
 30
0.000000000000000
 40
4.600000000000008
100
AcDbArc
 50
113.6355073909219
 51
156.3644926090778
  0
LINE
  5
76
100
AcDbEntity
  8
1
  6
CENTER
 62
1
100
AcDbLine
 10
245.1890358066680
 20
173.1727536569965
 30
0.000000000000000
 11
278.1890358066680
 21
173.1727536569961
 31
0.000000000000000
  0
LINE
  5
77
100
AcDbEntity
  8
1
  6
CENTER
 62
1
100
AcDbLine
 10
261.6890358066683
 20
189.6727536569963
 30
0.000000000000000
 11
261.6890358066678
 21
156.6727536569963
 31
0.000000000000000
  0
LINE
  5
78
100
AcDbEntity
  8
DXF10
  6
PHANTOM
 62
6
100
AcDbLine
 10
276.6890358066684
 20
181.8330076948405
 30
0.000000000000000
 11
261.6890358066681
 21
190.4932617326853
 31
0.000000000000000
  0
LINE
  5
79
100
AcDbEntity
  8
DXF10
  6
PHANTOM
 62
6
100
AcDbLine
 10
246.6890358066681
 20
181.8330076948411
 30
0.000000000000000
 11
261.6890358066681
 21
190.4932617326851
 31
0.000000000000000
  0
LINE
  5
7A
100
AcDbEntity
  8
DXF10
  6
PHANTOM
 62
6
100
AcDbLine
 10
276.6890358066681
 20
164.5124996191516
 30
0.000000000000000
 11
276.6890358066683
 21
181.8330076948405
 31
0.000000000000000
  0
LINE
  5
7B
100
AcDbEntity
  8
DXF10
  6
PHANTOM
 62
6
100
AcDbLine
 10
261.6890358066680
 20
155.8522455813074
 30
0.000000000000000
 11
276.6890358066682
 21
164.5124996191515
 31
0.000000000000000
  0
LINE
  5
7C
100
AcDbEntity
  8
DXF10
  6
PHANTOM
 62
6
100
AcDbLine
 10
261.6890358066679
 20
155.8522455813073
 30
0.000000000000000
 11
246.6890358066680
 21
164.5124996191518
 31
0.000000000000000
  0
LINE
  5
7D
100
AcDbEntity
  8
DXF10
  6
PHANTOM
 62
6
100
AcDbLine
 10
246.6890358066678
 20
164.5124996191520
 30
0.000000000000000
 11
246.6890358066681
 21
181.8330076948411
 31
0.000000000000000
  0
ARC
  5
7E
100
AcDbEntity
  8
DXF10
  6
CONTINUOUS
 62
7
100
AcDbCircle
 10
261.6890358066680
 20
173.1727536569963
 30
0.000000000000000
 40
4.400000000000000
100
AcDbArc
 50
23.66808095273297
 51
66.33191904726591
  0
ARC
  5
7F
100
AcDbEntity
  8
DXF10
  6
CONTINUOUS
 62
7
100
AcDbCircle
 10
261.6890358066680
 20
173.1727536569963
 30
0.000000000000000
 40
4.400000000000000
100
AcDbArc
 50
203.6680809527321
 51
246.3319190472656
  0
ARC
  5
80
100
AcDbEntity
  8
DXF10
  6
CONTINUOUS
 62
7
100
AcDbCircle
 10
261.6890358066680
 20
173.1727536569963
 30
0.000000000000000
 40
4.400000000000000
100
AcDbArc
 50
293.6680809527310
 51
336.3319190472661
  0
ARC
  5
81
100
AcDbEntity
  8
DXF10
  6
CONTINUOUS
 62
7
100
AcDbCircle
 10
261.6890358066680
 20
173.1727536569963
 30
0.000000000000000
 40
4.400000000000000
100
AcDbArc
 50
113.6680809527338
 51
156.3319190472661
  0
CIRCLE
  5
82
100
AcDbEntity
  8
DXF10
  6
CONTINUOUS
 62
7
100
AcDbCircle
 10
261.6890358066680
 20
173.1727536569963
 30
0.000000000000000
 40
1.700000000000000
  0
CIRCLE
  5
83
100
AcDbEntity
  8
DXF10
  6
CONTINUOUS
 62
7
100
AcDbCircle
 10
261.6890358066680
 20
173.1727536569963
 30
0.000000000000000
 40
2.200000000000000
  0
LINE
  5
84
100
AcDbEntity
  8
DXF10
  6
CONTINUOUS
 62
7
100
AcDbLine
 10
89.81591853632005
 20
163.1816691678342
 30
0.000000000000000
 11
89.70991159366370
 21
173.1727536569962
 31
0.000000000000000
  0
LINE
  5
85
100
AcDbEntity
  8
DXF10
  6
CONTINUOUS
 62
7
100
AcDbLine
 10
89.70991159366370
 20
173.1727536569962
 30
0.000000000000000
 11
89.81591853632007
 21
183.1638381461581
 31
0.000000000000000
  0
LINE
  5
86
100
AcDbEntity
  8
DXF10
  6
CONTINUOUS
 62
7
100
AcDbLine
 10
79.83045063424316
 20
183.1638381461582
 30
0.000000000000000
 11
79.93645757689941
 21
173.1727536569963
 31
0.000000000000000
  0
LINE
  5
87
100
AcDbEntity
  8
DXF10
  6
CONTINUOUS
 62
7
100
AcDbLine
 10
79.93645757689956
 20
173.1727536569963
 30
0.000000000000000
 11
79.83045063424331
 21
163.1816691678343
 31
0.000000000000000
  0
CIRCLE
  5
88
100
AcDbEntity
  8
DXF10
  6
CONTINUOUS
 62
7
100
AcDbCircle
 10
84.82318458528169
 20
173.1727536569962
 30
0.000000000000000
 40
11.40000000000755
  0
ARC
  5
89
100
AcDbEntity
  8
DXF10
  6
CONTINUOUS
 62
7
100
AcDbCircle
 10
80.23042812107151
 20
163.1774253451986
 30
0.000000000000000
 40
0.4000000000000000
100
AcDbArc
 50
179.3921057802007
 51
245.3216775368407
  0
ARC
  5
8A
100
AcDbEntity
  8
DXF10
  6
CONTINUOUS
 62
7
100
AcDbCircle
 10
89.41594104949183
 20
163.1774253451985
 30
0.000000000000000
 40
0.4000000000000000
100
AcDbArc
 50
294.6783224631575
 51
360.6078942197992
  0
ARC
  5
8B
100
AcDbEntity
  8
DXF10
  6
PHANTOM
 62
6
100
AcDbCircle
 10
80.11848582438147
 20
163.2296248954166
 30
0.000000000000000
 40
0.4000000000000000
100
AcDbArc
 50
244.6783224631599
 51
310.6078942197971
  0
ARC
  5
8C
100
AcDbEntity
  8
DXF10
  6
PHANTOM
 62
6
100
AcDbCircle
 10
95.43221724518618
 20
176.0793712825616
 30
0.000000000000000
 40
0.4000000000000000
100
AcDbArc
 50
309.3921057802030
 51
375.3216775368402
  0
ARC
  5
8D
100
AcDbEntity
  8
DXF10
  6
PHANTOM
 62
6
100
AcDbCircle
 10
74.21415192537727
 20
170.2661360314306
 30
0.000000000000000
 40
0.4000000000000000
100
AcDbArc
 50
129.3921057802061
 51
195.3216775368399
  0
ARC
  5
8E
100
AcDbEntity
  8
DXF10
  6
PHANTOM
 62
6
100
AcDbCircle
 10
89.52788334618207
 20
183.1158824185757
 30
0.000000000000000
 40
0.4000000000000000
100
AcDbArc
 50
64.67832246315893
 51
130.6078942197991
  0
ARC
  5
8F
100
AcDbEntity
  8
DXF10
  6
CONTINUOUS
 62
7
100
AcDbCircle
 10
80.23042812107140
 20
183.1680819687937
 30
0.000000000000000
 40
0.4000000000000000
100
AcDbArc
 50
114.6783224631602
 51
180.6078942197992
  0
ARC
  5
90
100
AcDbEntity
  8
DXF10
  6
CONTINUOUS
 62
7
100
AcDbCircle
 10
89.41594104949183
 20
183.1680819687938
 30
0.000000000000000
 40
0.4000000000000000
100
AcDbArc
 50
359.3921057802008
 51
425.3216775368416
  0
LINE
  5
91
100
AcDbEntity
  8
DXF10
  6
CONTINUOUS
 62
7
100
AcDbLine
 10
88.82318458528169
 20
182.5402506544704
 30
0.000000000000000
 11
88.82318458528169
 21
163.8052566595219
 31
0.000000000000000
  0
LINE
  5
92
100
AcDbEntity
  8
DXF10
  6
CONTINUOUS
 62
7
100
AcDbLine
 10
80.82318458528169
 20
182.5402506544704
 30
0.000000000000000
 11
80.82318458528169
 21
163.8052566595219
 31
0.000000000000000
  0
ARC
  5
93
100
AcDbEntity
  8
DXF10
  6
CONTINUOUS
 62
7
100
AcDbCircle
 10
84.82318458528169
 20
173.1727536569962
 30
0.000000000000000
 40
10.49999999988444
100
AcDbArc
 50
69.51268488502996
 51
110.4873151149700
  0
ARC
  5
94
100
AcDbEntity
  8
DXF10
  6
CONTINUOUS
 62
7
100
AcDbCircle
 10
84.82318458528169
 20
173.1727536569962
 30
0.000000000000000
 40
10.49999999988444
100
AcDbArc
 50
249.5126848850300
 51
290.4873151149701
  0
LINE
  5
95
100
AcDbEntity
  8
DXF10
  6
CONTINUOUS
 62
7
100
AcDbLine
 10
80.82318458528168
 20
182.8809975763450
 30
0.000000000000000
 11
79.99941905126116
 21
183.3270140028379
 31
0.000000000000000
  0
LINE
  5
96
100
AcDbEntity
  8
DXF10
  6
CONTINUOUS
 62
7
100
AcDbLine
 10
88.82318458528162
 20
182.8809975763449
 30
0.000000000000000
 11
89.64695011930216
 21
183.3270140028378
 31
0.000000000000000
  0
LINE
  5
97
100
AcDbEntity
  8
DXF10
  6
CONTINUOUS
 62
7
100
AcDbLine
 10
88.82318458528165
 20
163.4645097376475
 30
0.000000000000000
 11
89.64695011930215
 21
163.0184933111546
 31
0.000000000000000
  0
LINE
  5
98
100
AcDbEntity
  8
DXF10
  6
CONTINUOUS
 62
7
100
AcDbLine
 10
80.82318458528164
 20
163.4645097376474
 30
0.000000000000000
 11
79.99941905126113
 21
163.0184933111544
 31
0.000000000000000
  0
CIRCLE
  5
99
100
AcDbEntity
  8
DXF10
  6
CONTINUOUS
 62
7
100
AcDbCircle
 10
84.82318458528169
 20
173.1727536569962
 30
0.000000000000000
 40
15.00000000000000
  0
CIRCLE
  5
9A
100
AcDbEntity
  8
DXF10
  6
CONTINUOUS
 62
7
100
AcDbCircle
 10
84.82318458528169
 20
173.1727536569962
 30
0.000000000000000
 40
11.50000000000000
  0
CIRCLE
  5
9B
100
AcDbEntity
  8
DXF10
  6
CONTINUOUS
 62
7
100
AcDbCircle
 10
84.82318458528169
 20
173.1727536569962
 30
0.000000000000000
 40
12.99999999999997
  0
LINE
  5
9C
100
AcDbEntity
  8
1
  6
CENTER
 62
1
100
AcDbLine
 10
84.82318458528169
 20
189.6727536569962
 30
0.000000000000000
 11
84.82318458528169
 21
156.6727536569962
 31
0.000000000000000
  0
LINE
  5
9D
100
AcDbEntity
  8
DXF10
  6
CONTINUOUS
 62
7
100
AcDbLine
 10
172.8612272444474
 20
188.1727536569962
 30
0.000000000000000
 11
170.3612272444474
 21
188.1727536569962
 31
0.000000000000000
  0
LINE
  5
9E
100
AcDbEntity
  8
DXF10
  6
CONTINUOUS
 62
7
100
AcDbLine
 10
168.3612272444474
 20
160.1727536569951
 30
0.000000000000000
 11
168.3612272444474
 21
186.1727536569962
 31
0.000000000000000
  0
LINE
  5
9F
100
AcDbEntity
  8
DXF10
  6
CONTINUOUS
 62
7
100
AcDbLine
 10
172.8612272444474
 20
158.1727536569951
 30
0.000000000000000
 11
172.8612272444474
 21
188.1727536569962
 31
0.000000000000000
  0
LINE
  5
A0
100
AcDbEntity
  8
DXF10
  6
CONTINUOUS
 62
7
100
AcDbLine
 10
172.8612272444474
 20
158.1727536569951
 30
0.000000000000000
 11
170.3612272444474
 21
158.1727536569951
 31
0.000000000000000
  0
LINE
  5
A1
100
AcDbEntity
  8
DXF10
  6
CONTINUOUS
 62
7
100
AcDbLine
 10
180.3612272444473
 20
184.1727536571330
 30
0.000000000000000
 11
180.9612272444474
 21
183.5727536571312
 31
0.000000000000000
  0
LINE
  5
A2
100
AcDbEntity
  8
DXF10
  6
CONTINUOUS
 62
7
100
AcDbLine
 10
180.9612272444474
 20
162.7727536571314
 30
0.000000000000000
 11
180.3612272444475
 21
162.1727536571331
 31
0.000000000000000
  0
LINE
  5
A3
100
AcDbEntity
  8
DXF10
  6
CONTINUOUS
 62
7
100
AcDbLine
 10
168.3612272444474
 20
186.1727536569962
 30
0.000000000000000
 11
170.3612272444475
 21
188.1727536569963
 31
0.000000000000000
  0
LINE
  5
A4
100
AcDbEntity
  8
DXF10
  6
CONTINUOUS
 62
7
100
AcDbLine
 10
168.3612272444474
 20
160.1727536569950
 30
0.000000000000000
 11
170.3612272444474
 21
158.1727536569952
 31
0.000000000000000
  0
LINE
  5
A5
100
AcDbEntity
  8
DXF10
  6
CONTINUOUS
 62
7
100
AcDbLine
 10
170.3612272444474
 20
188.1727536569962
 30
0.000000000000000
 11
170.3612272444474
 21
158.1727536569951
 31
0.000000000000000
  0
LINE
  5
A6
100
AcDbEntity
  8
DXF10
  6
CONTINUOUS
 62
7
100
AcDbLine
 10
180.3612272444464
 20
162.1727536571331
 30
0.000000000000000
 11
180.3612272444464
 21
168.0798664601475
 31
0.000000000000000
  0
LINE
  5
A7
100
AcDbEntity
  8
DXF10
  6
CONTINUOUS
 62
7
100
AcDbLine
 10
180.3612272444464
 20
178.2656408538793
 30
0.000000000000000
 11
180.3612272444464
 21
184.1727536571331
 31
0.000000000000000
  0
LINE
  5
A8
100
AcDbEntity
  8
1
  6
CENTER
 62
1
100
AcDbLine
 10
154.8612272444771
 20
173.1727536569962
 30
0.000000000000000
 11
188.1612272444463
 21
173.1727536569962
 31
0.000000000000000
  0
LINE
  5
A9
100
AcDbEntity
  8
DXF10
  6
CONTINUOUS
 62
7
100
AcDbLine
 10
168.2554409732204
 20
183.0178012762244
 30
0.000000000000000
 11
167.0019513450634
 21
173.1727536568707
 31
0.000000000000000
  0
LINE
  5
AA
100
AcDbEntity
  8
DXF10
  6
CONTINUOUS
 62
7
100
AcDbLine
 10
167.0019513450634
 20
173.1727536568708
 30
0.000000000000000
 11
168.2554409732204
 21
163.3277060375170
 31
0.000000000000000
  0
ARC
  5
AB
100
AcDbEntity
  8
DXF10
  6
CONTINUOUS
 62
7
100
AcDbCircle
 10
156.8612272444772
 20
163.1366579348737
 30
0.000000000000000
 40
0.5000000000000000
100
AcDbArc
 50
180.0000000000000
 51
265.7108466711445
  0
ARC
  5
AC
100
AcDbEntity
  8
DXF10
  6
CONTINUOUS
 62
7
100
AcDbCircle
 10
156.8612272444772
 20
183.2088493788677
 30
0.000000000000000
 40
0.5000000000000000
100
AcDbArc
 50
94.28915332885551
 51
180.0000000000000
  0
ARC
  5
AD
100
AcDbEntity
  8
DXF10
  6
CONTINUOUS
 62
7
100
AcDbCircle
 10
287.3355276127031
 20
-2557.328030499798
 30
0.000000000000000
 40
2743.464502538874
100
AcDbArc
 50
92.48549369950824
 51
92.72669562746184
  0
ARC
  5
AE
100
AcDbEntity
  8
DXF10
  6
CONTINUOUS
 62
7
100
AcDbCircle
 10
289.1360640692693
 20
2943.231573609399
 30
0.000000000000000
 40
2783.063407561412
100
AcDbArc
 50
267.2750203496184
 51
267.5127903234109
  0
LINE
  5
AF
100
AcDbEntity
  8
DXF10
  6
CONTINUOUS
 62
7
100
AcDbLine
 10
168.3612272444779
 20
184.5727536568782
 30
0.000000000000000
 11
156.8238322703561
 21
183.7074490338119
 31
0.000000000000000
  0
LINE
  5
B0
100
AcDbEntity
  8
DXF10
  6
CONTINUOUS
 62
7
100
AcDbLine
 10
156.8238322703562
 20
162.6380582799295
 30
0.000000000000000
 11
168.3612272444779
 21
161.7727536568632
 31
0.000000000000000
  0
LINE
  5
B1
100
AcDbEntity
  8
DXF10
  6
CONTINUOUS
 62
7
100
AcDbLine
 10
168.2554409732204
 20
183.0178012762244
 30
0.000000000000000
 11
168.2825677049030
 21
183.0980804969930
 31
0.000000000000000
  0
LINE
  5
B2
100
AcDbEntity
  8
DXF10
  6
CONTINUOUS
 62
7
100
AcDbLine
 10
168.2825677049032
 20
163.2474268167485
 30
0.000000000000000
 11
168.2554409732204
 21
163.3277060375169
 31
0.000000000000000
  0
LINE
  5
B3
100
AcDbEntity
  8
DXF10
  6
CONTINUOUS
 62
7
100
AcDbLine
 10
156.3612272444772
 20
163.1366579348737
 30
0.000000000000000
 11
156.3612272444772
 21
183.2088493788677
 31
0.000000000000000
  0
ARC
  5
B4
100
AcDbEntity
  8
DXF10
  6
CONTINUOUS
 62
4
100
AcDbCircle
 10
261.6890358066681
 20
173.1727536569962
 30
0.000000000000000
 40
10.18799999999955
100
AcDbArc
 50
16.86159104000480
 51
163.1384089599952
  0
ARC
  5
B5
100
AcDbEntity
  8
DXF10
  6
CONTINUOUS
 62
7
100
AcDbCircle
 10
261.6890358066681
 20
173.1727536569962
 30
0.000000000000000
 40
11.00000000000279
100
AcDbArc
 50
27.58019920361552
 51
152.4198007963836
  0
ARC
  5
B6
100
AcDbEntity
  8
DXF10
  6
CONTINUOUS
 62
4
100
AcDbCircle
 10
261.6890358066681
 20
173.1727536569962
 30
0.000000000000000
 40
10.18799999999955
100
AcDbArc
 50
196.8615910400031
 51
343.1384089599944
  0
ARC
  5
B7
100
AcDbEntity
  8
DXF10
  6
CONTINUOUS
 62
7
100
AcDbCircle
 10
261.6890358066681
 20
173.1727536569962
 30
0.000000000000000
 40
11.00000000000279
100
AcDbArc
 50
207.5801992036146
 51
332.4198007963827
  0
LINE
  5
B8
100
AcDbEntity
  8
0
  6
CONTINUOUS
 62
7
100
AcDbLine
 10
183.6612272444462
 20
169.6727536568802
 30
0.000000000000000
 11
181.8612272444464
 21
169.6727536568802
 31
0.000000000000000
  0
LINE
  5
B9
100
AcDbEntity
  8
0
  6
CONTINUOUS
 62
7
100
AcDbLine
 10
183.6612272444462
 20
176.6727536568844
 30
0.000000000000000
 11
181.8612272444463
 21
176.6727536568844
 31
0.000000000000000
  0
LINE
  5
BA
100
AcDbEntity
  8
DXF10
  6
CONTINUOUS
 62
7
100
AcDbLine
 10
181.8612272444463
 20
167.1727536569736
 30
0.000000000000000
 11
181.7112272444463
 21
167.1727536569736
 31
0.000000000000000
  0
LINE
  5
BB
100
AcDbEntity
  8
DXF10
  6
CONTINUOUS
 62
7
100
AcDbLine
 10
181.8612272444463
 20
167.1727536569736
 30
0.000000000000000
 11
181.8612272444463
 21
179.1727536570189
 31
0.000000000000000
  0
LINE
  5
BC
100
AcDbEntity
  8
DXF10
  6
CONTINUOUS
 62
7
100
AcDbLine
 10
181.7112272444463
 20
167.1727536569736
 30
0.000000000000000
 11
181.7112272444463
 21
179.1727536570189
 31
0.000000000000000
  0
LINE
  5
BD
100
AcDbEntity
  8
DXF10
  6
CONTINUOUS
 62
7
100
AcDbLine
 10
181.8612272444463
 20
179.1727536570189
 30
0.000000000000000
 11
181.7112272444463
 21
179.1727536570189
 31
0.000000000000000
  0
LINE
  5
BE
100
AcDbEntity
  8
DXF10
  6
CONTINUOUS
 62
7
100
AcDbLine
 10
177.5214812822018
 20
190.4932617326850
 30
0.000000000000000
 11
178.8612272444473
 21
188.1727536568406
 31
0.000000000000000
  0
LINE
  5
BF
100
AcDbEntity
  8
DXF10
  6
CONTINUOUS
 62
7
100
AcDbLine
 10
173.8612272444473
 20
190.4932617326848
 30
0.000000000000000
 11
177.5214812822018
 21
190.4932617326850
 31
0.000000000000000
  0
LINE
  5
C0
100
AcDbEntity
  8
DXF10
  6
CONTINUOUS
 62
7
100
AcDbLine
 10
173.8612272444474
 20
181.8330076948405
 30
0.000000000000000
 11
177.5214812822019
 21
181.8330076948405
 31
0.000000000000000
  0
LINE
  5
C1
100
AcDbEntity
  8
DXF10
  6
CONTINUOUS
 62
7
100
AcDbLine
 10
177.5214812822018
 20
155.8522455813077
 30
0.000000000000000
 11
178.8612272444473
 21
158.1727536571520
 31
0.000000000000000
  0
LINE
  5
C2
100
AcDbEntity
  8
DXF10
  6
CONTINUOUS
 62
7
100
AcDbLine
 10
173.8612272444474
 20
155.8522455813078
 30
0.000000000000000
 11
177.5214812822019
 21
155.8522455813077
 31
0.000000000000000
  0
LINE
  5
C3
100
AcDbEntity
  8
DXF10
  6
CONTINUOUS
 62
7
100
AcDbLine
 10
178.8612272444474
 20
188.1727536568407
 30
0.000000000000000
 11
178.8612272444474
 21
158.1727536571519
 31
0.000000000000000
  0
LINE
  5
C4
100
AcDbEntity
  8
DXF10
  6
CONTINUOUS
 62
7
100
AcDbLine
 10
173.8612272444474
 20
190.4932617326849
 30
0.000000000000000
 11
173.8612272444474
 21
155.8522455813077
 31
0.000000000000000
  0
LINE
  5
C5
100
AcDbEntity
  8
DXF10
  6
CONTINUOUS
 62
7
100
AcDbLine
 10
173.8612272444474
 20
162.1727536571512
 30
0.000000000000000
 11
172.8612272444474
 21
162.1727536571539
 31
0.000000000000000
  0
LINE
  5
C6
100
AcDbEntity
  8
DXF10
  6
CONTINUOUS
 62
7
100
AcDbLine
 10
180.3612272444465
 20
162.1727536571331
 30
0.000000000000000
 11
178.8612272444474
 21
162.1727536571373
 31
0.000000000000000
  0
LINE
  5
C7
100
AcDbEntity
  8
DXF10
  6
CONTINUOUS
 62
4
100
AcDbLine
 10
172.8612272444474
 20
162.9847536569962
 30
0.000000000000000
 11
173.8612272444474
 21
162.9847536569962
 31
0.000000000000000
  0
LINE
  5
C8
100
AcDbEntity
  8
DXF10
  6
CONTINUOUS
 62
4
100
AcDbLine
 10
178.8612272444473
 20
162.9847536569962
 30
0.000000000000000
 11
180.9612272444474
 21
162.9847536569962
 31
0.000000000000000
  0
LINE
  5
C9
100
AcDbEntity
  8
DXF10
  6
CONTINUOUS
 62
7
100
AcDbLine
 10
173.8612272444474
 20
168.0798664601521
 30
0.000000000000000
 11
172.8612272445149
 21
168.0798664601528
 31
0.000000000000000
  0
LINE
  5
CA
100
AcDbEntity
  8
DXF10
  6
CONTINUOUS
 62
7
100
AcDbLine
 10
180.3612272444464
 20
168.0798664601475
 30
0.000000000000000
 11
178.8612272444474
 21
168.0798664601486
 31
0.000000000000000
  0
LINE
  5
CB
100
AcDbEntity
  8
DXF10
  6
CONTINUOUS
 62
4
100
AcDbLine
 10
172.8612272445149
 20
178.2656408538817
 30
0.000000000000000
 11
173.8612272444473
 21
176.9075376014630
 31
0.000000000000000
  0
LINE
  5
CC
100
AcDbEntity
  8
DXF10
  6
CONTINUOUS
 62
4
100
AcDbLine
 10
178.8612272444474
 20
170.1170213389117
 30
0.000000000000000
 11
180.3612272444464
 21
168.0798664601475
 31
0.000000000000000
  0
LINE
  5
CD
100
AcDbEntity
  8
DXF10
  6
CONTINUOUS
 62
4
100
AcDbLine
 10
172.8612272445149
 20
168.0798664601528
 30
0.000000000000000
 11
173.8612272444474
 21
169.4379697125706
 31
0.000000000000000
  0
LINE
  5
CE
100
AcDbEntity
  8
DXF10
  6
CONTINUOUS
 62
4
100
AcDbLine
 10
178.8612272444473
 20
176.2284859751168
 30
0.000000000000000
 11
180.3612272444463
 21
178.2656408538791
 31
0.000000000000000
  0
LINE
  5
CF
100
AcDbEntity
  8
DXF10
  6
CONTINUOUS
 62
7
100
AcDbLine
 10
173.8612272444474
 20
178.2656408538814
 30
0.000000000000000
 11
172.8612272445149
 21
178.2656408538817
 31
0.000000000000000
  0
LINE
  5
D0
100
AcDbEntity
  8
DXF10
  6
CONTINUOUS
 62
7
100
AcDbLine
 10
180.3612272444464
 20
178.2656408538793
 30
0.000000000000000
 11
178.8612272444474
 21
178.2656408538798
 31
0.000000000000000
  0
LINE
  5
D1
100
AcDbEntity
  8
DXF10
  6
CONTINUOUS
 62
4
100
AcDbLine
 10
172.8612272444474
 20
183.3607536569962
 30
0.000000000000000
 11
173.8612272444474
 21
183.3607536569962
 31
0.000000000000000
  0
LINE
  5
D2
100
AcDbEntity
  8
DXF10
  6
CONTINUOUS
 62
4
100
AcDbLine
 10
178.8612272444474
 20
183.3607536569962
 30
0.000000000000000
 11
180.9612272444474
 21
183.3607536569962
 31
0.000000000000000
  0
LINE
  5
D3
100
AcDbEntity
  8
DXF10
  6
CONTINUOUS
 62
7
100
AcDbLine
 10
173.8612272444474
 20
184.1727536571512
 30
0.000000000000000
 11
172.8612272444474
 21
184.1727536571540
 31
0.000000000000000
  0
LINE
  5
D4
100
AcDbEntity
  8
DXF10
  6
CONTINUOUS
 62
7
100
AcDbLine
 10
180.3612272444465
 20
184.1727536571331
 30
0.000000000000000
 11
178.8612272444496
 21
184.1727536571373
 31
0.000000000000000
  0
LINE
  5
D5
100
AcDbEntity
  8
DXF10
  6
CONTINUOUS
 62
7
100
AcDbLine
 10
184.4496716634911
 20
177.8727536569961
 30
0.000000000000000
 11
184.4496716634911
 21
168.4727536569961
 31
0.000000000000000
  0
LINE
  5
D6
100
AcDbEntity
  8
DXF10
  6
CONTINUOUS
 62
7
100
AcDbLine
 10
184.4496716634911
 20
177.8727536569961
 30
0.000000000000000
 11
184.1612272444463
 21
177.8727536569961
 31
0.000000000000000
  0
ARC
  5
D7
100
AcDbEntity
  8
DXF10
  6
CONTINUOUS
 62
7
100
AcDbCircle
 10
180.5612272444463
 20
173.1727536569962
 30
0.000000000000000
 40
6.099999999999999
100
AcDbArc
 50
309.6019270811078
 51
410.3980729188918
  0
LINE
  5
D8
100
AcDbEntity
  8
DXF10
  6
CONTINUOUS
 62
7
100
AcDbLine
 10
184.4496716634910
 20
168.4727536569961
 30
0.000000000000000
 11
184.1612272444463
 21
168.4727536569961
 31
0.000000000000000
  0
LINE
  5
D9
100
AcDbEntity
  8
0
  6
CONTINUOUS
 62
7
100
AcDbLine
 10
183.6612272444462
 20
169.6727536568802
 30
0.000000000000000
 11
183.6612272444462
 21
176.6727536568844
 31
0.000000000000000
  0
LINE
  5
DA
100
AcDbEntity
  8
DXF10
  6
CONTINUOUS
 62
7
100
AcDbLine
 10
251.9390358066680
 20
168.0798664601245
 30
0.000000000000000
 11
251.9390358066681
 21
178.2656408538681
 31
0.000000000000000
  0
LINE
  5
DB
100
AcDbEntity
  8
DXF10
  6
CONTINUOUS
 62
7
100
AcDbLine
 10
271.4390358066680
 20
168.0798664601241
 30
0.000000000000000
 11
271.4390358066681
 21
178.2656408538681
 31
0.000000000000000
  0
LINE
  5
DC
100
AcDbEntity
  8
DXF10
  6
CONTINUOUS
 62
7
100
AcDbLine
 10
173.8612272444474
 20
71.02492192395047
 30
0.000000000000000
 11
177.5214812822019
 21
71.02492192395047
 31
0.000000000000000
  0
LINE
  5
DD
100
AcDbEntity
  8
DXF10
  6
CONTINUOUS
 62
7
100
AcDbLine
 10
181.8612272444048
 20
73.52492192395255
 30
0.000000000000000
 11
181.8612272444048
 21
77.02492192395236
 31
0.000000000000000
  0
LINE
  5
DE
100
AcDbEntity
  8
DXF10
  6
CONTINUOUS
 62
7
100
AcDbLine
 10
172.8612272444474
 20
86.02492192395057
 30
0.000000000000000
 11
170.3612272444475
 21
86.02492192395057
 31
0.000000000000000
  0
LINE
  5
DF
100
AcDbEntity
  8
DXF10
  6
CONTINUOUS
 62
7
100
AcDbLine
 10
170.3612272444474
 20
56.02492192395054
 30
0.000000000000000
 11
172.8612272444474
 21
56.02492192395054
 31
0.000000000000000
  0
LINE
  5
E0
100
AcDbEntity
  8
DXF10
  6
CONTINUOUS
 62
7
100
AcDbLine
 10
168.3612272444475
 20
58.02492192395054
 30
0.000000000000000
 11
168.3612272444475
 21
84.02492192395056
 31
0.000000000000000
  0
LINE
  5
E1
100
AcDbEntity
  8
DXF10
  6
CONTINUOUS
 62
7
100
AcDbLine
 10
172.8612272444474
 20
56.02492192395054
 30
0.000000000000000
 11
172.8612272444474
 21
86.02492192395057
 31
0.000000000000000
  0
LINE
  5
E2
100
AcDbEntity
  8
DXF10
  6
CONTINUOUS
 62
7
100
AcDbLine
 10
178.8612272444474
 20
56.02492192410595
 30
0.000000000000000
 11
178.8612272444474
 21
86.02492192379508
 31
0.000000000000000
  0
LINE
  5
E3
100
AcDbEntity
  8
DXF10
  6
CONTINUOUS
 62
7
100
AcDbLine
 10
173.8612272444474
 20
56.02492192395049
 30
0.000000000000000
 11
173.8612272444474
 21
86.02492192395057
 31
0.000000000000000
  0
LINE
  5
E4
100
AcDbEntity
  8
1
  6
CENTER
 62
1
100
AcDbLine
 10
154.8612272444773
 20
71.02492192399114
 30
0.000000000000000
 11
188.1612272443233
 21
71.02492192395403
 31
0.000000000000000
  0
LINE
  5
E5
100
AcDbEntity
  8
DXF10
  6
CONTINUOUS
 62
7
100
AcDbLine
 10
173.8612272444474
 20
86.02492192395057
 30
0.000000000000000
 11
178.8612272444473
 21
86.02492192379518
 31
0.000000000000000
  0
LINE
  5
E6
100
AcDbEntity
  8
DXF10
  6
CONTINUOUS
 62
7
100
AcDbLine
 10
173.8612272444474
 20
56.02492192395046
 30
0.000000000000000
 11
178.8612272444474
 21
56.02492192410595
 31
0.000000000000000
  0
LINE
  5
E7
100
AcDbEntity
  8
DXF10
  6
CONTINUOUS
 62
7
100
AcDbLine
 10
168.3612272444474
 20
84.02492192395057
 30
0.000000000000000
 11
170.3612272444475
 21
86.02492192395057
 31
0.000000000000000
  0
LINE
  5
E8
100
AcDbEntity
  8
DXF10
  6
CONTINUOUS
 62
7
100
AcDbLine
 10
168.3612272444474
 20
58.02492192395053
 30
0.000000000000000
 11
170.3612272444474
 21
56.02492192395058
 31
0.000000000000000
  0
LINE
  5
E9
100
AcDbEntity
  8
DXF10
  6
CONTINUOUS
 62
7
100
AcDbLine
 10
170.3612272444475
 20
86.02492192395057
 30
0.000000000000000
 11
170.3612272444475
 21
56.02492192395053
 31
0.000000000000000
  0
LINE
  5
EA
100
AcDbEntity
  8
DXF10
  6
CONTINUOUS
 62
7
100
AcDbLine
 10
184.1612272444048
 20
75.72492192395849
 30
0.000000000000000
 11
184.1612272444048
 21
66.32492192395851
 31
0.000000000000000
  0
ARC
  5
EB
100
AcDbEntity
  8
DXF10
  6
CONTINUOUS
 62
7
100
AcDbCircle
 10
180.5612272444049
 20
71.02492192395850
 30
0.000000000000000
 40
6.099999999999999
100
AcDbArc
 50
309.6019270811078
 51
410.3980729188918
  0
LINE
  5
EC
100
AcDbEntity
  8
DXF10
  6
CONTINUOUS
 62
7
100
AcDbLine
 10
184.4496716634496
 20
75.72492192395849
 30
0.000000000000000
 11
184.1612272444048
 21
75.72492192395849
 31
0.000000000000000
  0
LINE
  5
ED
100
AcDbEntity
  8
DXF10
  6
CONTINUOUS
 62
7
100
AcDbLine
 10
184.4496716634496
 20
66.32492192395847
 30
0.000000000000000
 11
184.1612272444048
 21
66.32492192395850
 31
0.000000000000000
  0
LINE
  5
EE
100
AcDbEntity
  8
DXF10
  6
CONTINUOUS
 62
7
100
AcDbLine
 10
184.4496716634496
 20
75.72492192395850
 30
0.000000000000000
 11
184.4496716634496
 21
66.32492192395853
 31
0.000000000000000
  0
LINE
  5
EF
100
AcDbEntity
  8
DXF10
  6
CONTINUOUS
 62
7
100
AcDbLine
 10
180.3612272444474
 20
80.77492192397106
 30
0.000000000000000
 11
180.3612272444474
 21
61.27492192397108
 31
0.000000000000000
  0
LINE
  5
F0
100
AcDbEntity
  8
DXF10
  6
CONTINUOUS
 62
7
100
AcDbLine
 10
172.8612272444474
 20
61.27492192397108
 30
0.000000000000000
 11
173.8612272444474
 21
61.27492192397108
 31
0.000000000000000
  0
LINE
  5
F1
100
AcDbEntity
  8
DXF10
  6
CONTINUOUS
 62
7
100
AcDbLine
 10
178.8612272444474
 20
61.27492192397108
 30
0.000000000000000
 11
180.9612272444017
 21
61.27492192397108
 31
0.000000000000000
  0
LINE
  5
F2
100
AcDbEntity
  8
DXF10
  6
CONTINUOUS
 62
7
100
AcDbLine
 10
172.8612272444474
 20
80.77492192397106
 30
0.000000000000000
 11
173.8612272444474
 21
80.77492192397106
 31
0.000000000000000
  0
LINE
  5
F3
100
AcDbEntity
  8
DXF10
  6
CONTINUOUS
 62
7
100
AcDbLine
 10
178.8612272444474
 20
80.77492192397106
 30
0.000000000000000
 11
180.9612272444017
 21
80.77492192397106
 31
0.000000000000000
  0
LINE
  5
F4
100
AcDbEntity
  8
DXF10
  6
CONTINUOUS
 62
7
100
AcDbLine
 10
156.8167487534219
 20
66.99266474504479
 30
0.000000000000000
 11
156.8197045045503
 21
66.98671548563433
 31
0.000000000000000
  0
LINE
  5
F5
100
AcDbEntity
  8
DXF10
  6
CONTINUOUS
 62
7
100
AcDbLine
 10
156.8197045045504
 20
75.06312836231319
 30
0.000000000000000
 11
156.8167487534221
 21
75.05717910290281
 31
0.000000000000000
  0
LINE
  5
F6
100
AcDbEntity
  8
DXF10
  6
CONTINUOUS
 62
7
100
AcDbLine
 10
156.8167487534218
 20
75.05717910290278
 30
0.000000000000000
 11
156.8148041313787
 21
75.04003785564858
 31
0.000000000000000
  0
LINE
  5
F7
100
AcDbEntity
  8
DXF10
  6
CONTINUOUS
 62
7
100
AcDbLine
 10
156.3612272444772
 20
67.48498836475687
 30
0.000000000000000
 11
156.3668311853916
 21
67.45873855143959
 31
0.000000000000000
  0
LINE
  5
F8
100
AcDbEntity
  8
DXF10
  6
CONTINUOUS
 62
7
100
AcDbLine
 10
156.3668311853917
 20
67.45873855143947
 30
0.000000000000000
 11
156.3835173915199
 21
67.43307714773353
 31
0.000000000000000
  0
LINE
  5
F9
100
AcDbEntity
  8
DXF10
  6
CONTINUOUS
 62
7
100
AcDbLine
 10
156.3668311853916
 20
74.59110529650812
 30
0.000000000000000
 11
156.3612272444772
 21
74.56485548319078
 31
0.000000000000000
  0
ARC
  5
FA
100
AcDbEntity
  8
DXF10
  6
CONTINUOUS
 62
7
100
AcDbCircle
 10
206.7023279068235
 20
71.02492192397376
 30
0.000000000000000
 40
40.00000000000000
100
AcDbArc
 50
163.9814017749444
 51
172.9827492979609
  0
ARC
  5
FB
100
AcDbEntity
  8
DXF10
  6
CONTINUOUS
 62
7
100
AcDbCircle
 10
156.8612272444772
 20
67.48498836475677
 30
0.000000000000000
 40
0.5000000000000000
100
AcDbArc
 50
180.0000000000000
 51
265.2363583092740
  0
ARC
  5
FC
100
AcDbEntity
  8
DXF10
  6
CONTINUOUS
 62
7
100
AcDbCircle
 10
156.8612272444772
 20
74.56485548319075
 30
0.000000000000000
 40
0.5000000000000000
100
AcDbArc
 50
94.76364169072556
 51
180.0000000000000
  0
ARC
  5
FD
100
AcDbEntity
  8
DXF10
  6
CONTINUOUS
 62
7
100
AcDbCircle
 10
168.7360270598904
 20
60.12492192396623
 30
0.000000000000000
 40
0.5000000000000000
100
AcDbArc
 50
196.0185982250369
 51
221.4442914222612
  0
ARC
  5
FE
100
AcDbEntity
  8
DXF10
  6
CONTINUOUS
 62
7
100
AcDbCircle
 10
168.7360270598904
 20
81.92492192398132
 30
0.000000000000000
 40
0.5000000000000000
100
AcDbArc
 50
138.5557085777189
 51
163.9814017749283
  0
LINE
  5
FF
100
AcDbEntity
  8
DXF10
  6
CONTINUOUS
 62
7
100
AcDbLine
 10
168.2826608175734
 20
66.03146912621582
 30
0.000000000000000
 11
156.8197045045504
 21
66.98671548563433
 31
0.000000000000000
  0
LINE
  5
100
100
AcDbEntity
  8
DXF10
  6
CONTINUOUS
 62
7
100
AcDbLine
 10
156.8197045045504
 20
75.06312836231325
 30
0.000000000000000
 11
168.2826608175734
 21
76.01837472173180
 31
0.000000000000000
  0
LINE
  5
101
100
AcDbEntity
  8
DXF10
  6
CONTINUOUS
 62
7
100
AcDbLine
 10
156.3612272444772
 20
67.48498836475677
 30
0.000000000000000
 11
156.3612272444772
 21
74.56485548319075
 31
0.000000000000000
  0
LINE
  5
102
100
AcDbEntity
  8
DXF10
  6
CONTINUOUS
 62
7
100
AcDbLine
 10
168.3612272444817
 20
59.98694724042197
 30
0.000000000000000
 11
168.3612272444817
 21
82.06289660752589
 31
0.000000000000000
  0
ARC
  5
103
100
AcDbEntity
  8
DXF10
  6
CONTINUOUS
 62
7
100
AcDbCircle
 10
206.7023279068235
 20
71.02492192397376
 30
0.000000000000000
 40
40.00000000000000
100
AcDbArc
 50
187.0172507020390
 51
196.0185982250556
  0
LINE
  5
104
100
AcDbEntity
  8
DXF10
  6
CONTINUOUS
 62
7
100
AcDbLine
 10
180.9612272444473
 20
177.5790827709289
 30
0.000000000000000
 11
181.7112272444461
 21
177.5727536570054
 31
0.000000000000000
  0
LINE
  5
105
100
AcDbEntity
  8
DXF10
  6
CONTINUOUS
 62
7
100
AcDbLine
 10
180.9612272444474
 20
168.7664245430510
 30
0.000000000000000
 11
181.7112272444463
 21
168.7727536569735
 31
0.000000000000000
  0
LINE
  5
106
100
AcDbEntity
  8
DXF10
  6
CONTINUOUS
 62
7
100
AcDbLine
 10
181.8612272444463
 20
175.6727536569174
 30
0.000000000000000
 11
181.7112272444763
 21
175.6727536569172
 31
0.000000000000000
  0
LINE
  5
107
100
AcDbEntity
  8
DXF10
  6
CONTINUOUS
 62
7
100
AcDbLine
 10
181.8612272444463
 20
170.6727536570752
 30
0.000000000000000
 11
181.7112272444763
 21
170.6727536570753
 31
0.000000000000000
  0
LINE
  5
108
100
AcDbEntity
  8
DXF10
  6
CONTINUOUS
 62
7
100
AcDbLine
 10
181.8612272444007
 20
65.02492192393903
 30
0.000000000000000
 11
181.7112272444007
 21
65.02492192393903
 31
0.000000000000000
  0
LINE
  5
109
100
AcDbEntity
  8
DXF10
  6
CONTINUOUS
 62
7
100
AcDbLine
 10
181.8612272444007
 20
65.02492192393903
 30
0.000000000000000
 11
181.8612272444007
 21
77.02492192398427
 31
0.000000000000000
  0
LINE
  5
10A
100
AcDbEntity
  8
DXF10
  6
CONTINUOUS
 62
7
100
AcDbLine
 10
181.7112272444007
 20
65.02492192393900
 30
0.000000000000000
 11
181.7112272444007
 21
77.02492192398432
 31
0.000000000000000
  0
LINE
  5
10B
100
AcDbEntity
  8
DXF10
  6
CONTINUOUS
 62
7
100
AcDbLine
 10
181.8612272444007
 20
77.02492192398427
 30
0.000000000000000
 11
181.7112272444007
 21
77.02492192398427
 31
0.000000000000000
  0
LINE
  5
10C
100
AcDbEntity
  8
DXF10
  6
CONTINUOUS
 62
7
100
AcDbLine
 10
181.8612272444007
 20
73.52492192388284
 30
0.000000000000000
 11
181.7112272444306
 21
73.52492192388269
 31
0.000000000000000
  0
LINE
  5
10D
100
AcDbEntity
  8
DXF10
  6
CONTINUOUS
 62
7
100
AcDbLine
 10
181.8612272444007
 20
68.52492192404060
 30
0.000000000000000
 11
181.7112272444306
 21
68.52492192404077
 31
0.000000000000000
  0
LINE
  5
10E
100
AcDbEntity
  8
DXF10
  6
CONTINUOUS
 62
7
100
AcDbLine
 10
180.9612272444020
 20
75.43125103789129
 30
0.000000000000000
 11
181.7112272444050
 21
75.42492192396782
 31
0.000000000000000
  0
LINE
  5
10F
100
AcDbEntity
  8
DXF10
  6
CONTINUOUS
 62
7
100
AcDbLine
 10
180.9612272444018
 20
66.61859281001320
 30
0.000000000000000
 11
181.7112272444049
 21
66.62492192393583
 31
0.000000000000000
  0
LINE
  5
110
100
AcDbEntity
  8
DXF10
  6
CONTINUOUS
 62
7
100
AcDbLine
 10
180.3612272444463
 20
178.2656408538792
 30
0.000000000000000
 11
180.9612272444763
 21
176.7918004930774
 31
0.000000000000000
  0
LINE
  5
111
100
AcDbEntity
  8
DXF10
  6
CONTINUOUS
 62
7
100
AcDbLine
 10
180.3612272444463
 20
168.0798664601135
 30
0.000000000000000
 11
180.9612272444763
 21
169.5537068209153
 31
0.000000000000000
  0
LINE
  5
112
100
AcDbEntity
  8
DXF10
  6
CONTINUOUS
 62
7
100
AcDbLine
 10
180.9612272444474
 20
162.7727536571314
 30
0.000000000000000
 11
180.9612272444474
 21
183.5727536571313
 31
0.000000000000000
  0
LINE
  5
113
100
AcDbEntity
  8
DXF10
  6
CONTINUOUS
 62
7
100
AcDbLine
 10
180.9612272444017
 20
80.77492192397106
 30
0.000000000000000
 11
180.9612272444017
 21
61.27492192397108
 31
0.000000000000000
  0
ARC
  5
114
100
AcDbEntity
  8
DXF10
  6
CONTINUOUS
 62
7
100
AcDbCircle
 10
261.6890358066680
 20
173.1727536569963
 30
0.000000000000000
 40
10.40000000013470
100
AcDbArc
 50
20.36413480831818
 51
159.6358651916827
  0
ARC
  5
115
100
AcDbEntity
  8
DXF10
  6
CONTINUOUS
 62
7
100
AcDbCircle
 10
261.6890358066680
 20
173.1727536569963
 30
0.000000000000000
 40
10.40000000013470
100
AcDbArc
 50
200.3641348083172
 51
339.6358651916817
  0
LINE
  5
116
100
AcDbEntity
  8
DXF10
  6
PHANTOM
 62
6
100
AcDbLine
 10
74.81508783967493
 20
169.9965925263000
 30
0.000000000000000
 11
73.94391315606504
 21
170.3409397034030
 31
0.000000000000000
  0
LINE
  5
117
100
AcDbEntity
  8
DXF10
  6
PHANTOM
 62
6
100
AcDbLine
 10
79.95738871716723
 20
163.8682369813482
 30
0.000000000000000
 11
80.14522659066770
 21
162.9505021389125
 31
0.000000000000000
  0
LINE
  5
118
100
AcDbEntity
  8
DXF10
  6
PHANTOM
 62
6
100
AcDbLine
 10
73.96030230943816
 20
170.5752644391959
 30
0.000000000000000
 11
81.68205701237309
 21
176.9162037268067
 31
0.000000000000000
  0
LINE
  5
119
100
AcDbEntity
  8
DXF10
  6
PHANTOM
 62
6
100
AcDbLine
 10
81.68205701237318
 20
176.9162037268067
 30
0.000000000000000
 11
89.26753181674766
 21
183.4195550731253
 31
0.000000000000000
  0
LINE
  5
11A
100
AcDbEntity
  8
DXF10
  6
PHANTOM
 62
6
100
AcDbLine
 10
95.68606686112524
 20
175.7702428747962
 30
0.000000000000000
 11
87.96431215819045
 21
169.4293035871855
 31
0.000000000000000
  0
LINE
  5
11B
100
AcDbEntity
  8
DXF10
  6
PHANTOM
 62
6
100
AcDbLine
 10
87.96431215819035
 20
169.4293035871855
 30
0.000000000000000
 11
80.37883735381587
 21
162.9259522408672
 31
0.000000000000000
  0
LINE
  5
11C
100
AcDbEntity
  8
DXF10
  6
PHANTOM
 62
6
100
AcDbLine
 10
89.42795316738442
 20
182.2582424332245
 30
0.000000000000000
 11
75.07611512568670
 21
170.2156204257198
 31
0.000000000000000
  0
LINE
  5
11D
100
AcDbEntity
  8
DXF10
  6
PHANTOM
 62
6
100
AcDbLine
 10
94.57025404487666
 20
176.1298868882726
 30
0.000000000000000
 11
80.21841600317904
 21
164.0872648807680
 31
0.000000000000000
  0
ARC
  5
11E
100
AcDbEntity
  8
DXF10
  6
PHANTOM
 62
6
100
AcDbCircle
 10
84.82318458528169
 20
173.1727536569962
 30
0.000000000000000
 40
10.49999999988444
100
AcDbArc
 50
19.51268488502978
 51
60.48731511496975
  0
ARC
  5
11F
100
AcDbEntity
  8
DXF10
  6
PHANTOM
 62
6
100
AcDbCircle
 10
84.82318458528169
 20
173.1727536569962
 30
0.000000000000000
 40
10.49999999988444
100
AcDbArc
 50
199.5126848850302
 51
240.4873151149697
  0
LINE
  5
120
100
AcDbEntity
  8
DXF10
  6
PHANTOM
 62
6
100
AcDbLine
 10
94.83128133088866
 20
176.3489147876923
 30
0.000000000000000
 11
95.70245601449852
 21
176.0045676105893
 31
0.000000000000000
  0
LINE
  5
121
100
AcDbEntity
  8
DXF10
  6
PHANTOM
 62
6
100
AcDbLine
 10
89.68898045339631
 20
182.4772703326440
 30
0.000000000000000
 11
89.50114257989580
 21
183.3950051750797
 31
0.000000000000000
  0
ARC
  5
122
100
AcDbEntity
  8
DXF10
  6
CONTINUOUS
 62
7
100
AcDbCircle
 10
157.1985684719633
 20
63.52492192397058
 30
0.000000000000000
 40
21.66265877248412
100
AcDbArc
 50
339.7438419987071
 51
380.2561580015438
  0
ARC
  5
123
100
AcDbEntity
  8
DXF10
  6
CONTINUOUS
 62
7
100
AcDbCircle
 10
157.1985684719633
 20
78.52492192396117
 30
0.000000000000000
 40
21.66265877248412
100
AcDbArc
 50
339.7438419984566
 51
380.2561580012925
  0
LINE
  5
124
100
AcDbEntity
  8
DXF10
  6
CONTINUOUS
 62
7
100
AcDbLine
 10
177.5214812822019
 20
164.5124996191522
 30
0.000000000000000
 11
173.8612272444474
 21
164.5124996191522
 31
0.000000000000000
  0
ARC
  5
125
100
AcDbEntity
  8
DXF10
  6
CONTINUOUS
 62
7
100
AcDbCircle
 10
150.2009732084381
 20
173.1727536569963
 30
0.000000000000000
 40
28.66025403600927
100
AcDbArc
 50
342.4120462248438
 51
377.5879537751562
  0
ARC
  5
126
100
AcDbEntity
  8
DXF10
  6
CONTINUOUS
 62
7
100
AcDbCircle
 10
171.2060410927797
 20
160.1861726931080
 30
0.000000000000000
 40
7.655187094851664
100
AcDbArc
 50
334.0261215869672
 51
394.4126895301411
  0
ARC
  5
127
100
AcDbEntity
  8
DXF10
  6
CONTINUOUS
 62
7
100
AcDbCircle
 10
171.2060410927797
 20
186.1593346208843
 30
0.000000000000000
 40
7.655187094851664
100
AcDbArc
 50
325.5873104698580
 51
385.9738784130321
  0
LINE
  5
128
100
AcDbEntity
  8
0
  6
CONTINUOUS
 62
7
100
AcDbLine
 10
184.1612272444463
 20
177.8727536569961
 30
0.000000000000000
 11
184.1612272444463
 21
168.4727536569961
 31
0.000000000000000
  0
LINE
  5
129
100
AcDbEntity
  8
0
  6
CONTINUOUS
 62
7
100
AcDbLine
 10
183.6612272444462
 20
175.1727536569962
 30
0.000000000000000
 11
184.1612272444463
 21
175.1727536569962
 31
0.000000000000000
  0
LINE
  5
12A
100
AcDbEntity
  8
0
  6
CONTINUOUS
 62
7
100
AcDbLine
 10
183.6612272444462
 20
171.1727536569962
 30
0.000000000000000
 11
184.1612272444463
 21
171.1727536569962
 31
0.000000000000000
  0
LINE
  5
12B
100
AcDbEntity
  8
0
  6
CONTINUOUS
 62
7
100
AcDbLine
 10
183.6612272444462
 20
170.5062953315612
 30
0.000000000000000
 11
181.8612272444462
 21
170.5062953315612
 31
0.000000000000000
  0
LINE
  5
12C
100
AcDbEntity
  8
0
  6
CONTINUOUS
 62
7
100
AcDbLine
 10
183.6612272444462
 20
175.8392119819404
 30
0.000000000000000
 11
181.8612272444462
 21
175.8392119819404
 31
0.000000000000000
  0
LINE
  5
12D
100
AcDbEntity
  8
4
  6
CONTINUOUS
 62
4
100
AcDbLine
 10
181.8612272444462
 20
170.9165196892828
 30
0.000000000000000
 11
183.6612272444462
 21
175.8392119819404
 31
0.000000000000000
  0
LINE
  5
12E
100
AcDbEntity
  8
4
  6
CONTINUOUS
 62
4
100
AcDbLine
 10
181.8612272444463
 20
175.4289876242190
 30
0.000000000000000
 11
183.6612272444463
 21
170.5062953315613
 31
0.000000000000000
  0
LINE
  5
12F
100
AcDbEntity
  8
4
  6
CONTINUOUS
 62
4
100
AcDbLine
 10
183.6612272444462
 20
174.8227536569659
 30
0.000000000000000
 11
184.1612272445045
 21
174.8227536569654
 31
0.000000000000000
  0
LINE
  5
130
100
AcDbEntity
  8
4
  6
CONTINUOUS
 62
4
100
AcDbLine
 10
183.6612272444462
 20
171.5227536570265
 30
0.000000000000000
 11
184.1612272445044
 21
171.5227536570270
 31
0.000000000000000
  0
LINE
  5
131
100
AcDbEntity
  8
0
  6
CONTINUOUS
 62
7
100
AcDbLine
 10
183.6612272444047
 20
67.52492192384247
 30
0.000000000000000
 11
181.8612272444049
 21
67.52492192384247
 31
0.000000000000000
  0
LINE
  5
132
100
AcDbEntity
  8
0
  6
CONTINUOUS
 62
7
100
AcDbLine
 10
183.6612272444047
 20
74.52492192384668
 30
0.000000000000000
 11
181.8612272444048
 21
74.52492192384668
 31
0.000000000000000
  0
LINE
  5
133
100
AcDbEntity
  8
0
  6
CONTINUOUS
 62
7
100
AcDbLine
 10
183.6612272444047
 20
67.52492192384247
 30
0.000000000000000
 11
183.6612272444047
 21
74.52492192384668
 31
0.000000000000000
  0
LINE
  5
134
100
AcDbEntity
  8
0
  6
CONTINUOUS
 62
7
100
AcDbLine
 10
183.6612272444047
 20
73.02492192395849
 30
0.000000000000000
 11
184.1612272444048
 21
73.02492192395849
 31
0.000000000000000
  0
LINE
  5
135
100
AcDbEntity
  8
0
  6
CONTINUOUS
 62
7
100
AcDbLine
 10
183.6612272444047
 20
69.02492192395849
 30
0.000000000000000
 11
184.1612272444048
 21
69.02492192395849
 31
0.000000000000000
  0
LINE
  5
136
100
AcDbEntity
  8
0
  6
CONTINUOUS
 62
7
100
AcDbLine
 10
183.6612272444047
 20
68.35846359852349
 30
0.000000000000000
 11
181.8612272444047
 21
68.35846359852349
 31
0.000000000000000
  0
LINE
  5
137
100
AcDbEntity
  8
0
  6
CONTINUOUS
 62
7
100
AcDbLine
 10
183.6612272444047
 20
73.69138024890270
 30
0.000000000000000
 11
181.8612272444047
 21
73.69138024890270
 31
0.000000000000000
  0
LINE
  5
138
100
AcDbEntity
  8
4
  6
CONTINUOUS
 62
4
100
AcDbLine
 10
181.8612272444047
 20
68.76868795624509
 30
0.000000000000000
 11
183.6612272444047
 21
73.69138024890270
 31
0.000000000000000
  0
LINE
  5
139
100
AcDbEntity
  8
4
  6
CONTINUOUS
 62
4
100
AcDbLine
 10
181.8612272444048
 20
73.28115589118129
 30
0.000000000000000
 11
183.6612272444048
 21
68.35846359852360
 31
0.000000000000000
  0
LINE
  5
13A
100
AcDbEntity
  8
4
  6
CONTINUOUS
 62
4
100
AcDbLine
 10
183.6612272444047
 20
72.67492192392820
 30
0.000000000000000
 11
184.1612272444630
 21
72.67492192392766
 31
0.000000000000000
  0
LINE
  5
13B
100
AcDbEntity
  8
4
  6
CONTINUOUS
 62
4
100
AcDbLine
 10
183.6612272444047
 20
69.37492192398878
 30
0.000000000000000
 11
184.1612272444629
 21
69.37492192398932
 31
0.000000000000000
  0
LINE
  5
13C
100
AcDbEntity
  8
1
  6
CENTER
 62
1
100
AcDbLine
 10
101.3231845852817
 20
173.1727536569962
 30
0.000000000000000
 11
68.32318458528169
 21
173.1727536569962
 31
0.000000000000000
  0
ENDSEC
  0
SECTION
  2
OBJECTS
  0
DICTIONARY
  5
169
100
AcDbDictionary
  3
ACAD_GROUP
350
16A
  3
ACAD_LAYOUT
350
16B
  3
ACAD_MLINESTYLE
350
16C
  0
DICTIONARY
  5
16A
102
{ACAD_REACTORS
330
169
102
}
330
169
100
AcDbDictionary
  0
DICTIONARY
  5
16B
102
{ACAD_REACTORS
330
169
102
}
330
169
100
AcDbDictionary
  3
Model
350
16D
  3
ﾚｲｱｳﾄ1
350
16E
  3
ﾚｲｱｳﾄ2
350
16F
  0
DICTIONARY
  5
16C
102
{ACAD_REACTORS
330
169
102
}
330
169
100
AcDbDictionary
  3
STANDARD
350
170
  0
LAYOUT
  5
16D
102
{ACAD_REACTORS
330
16B
102
}
330
16B
100
AcDbPlotSettings
 70
11952
  4
A3
 44
297.000000
 45
420.000000
 73
  1
 72
  1
100
AcDbLayout
  1
Model
 71
0
330
160
  0
LAYOUT
  5
16E
102
{ACAD_REACTORS
330
16B
102
}
330
16B
100
AcDbPlotSettings
100
AcDbLayout
  1
ﾚｲｱｳﾄ1
 71
1
330
161
  0
LAYOUT
  5
16F
102
{ACAD_REACTORS
330
16B
102
}
330
16B
100
AcDbPlotSettings
100
AcDbLayout
  1
ﾚｲｱｳﾄ2
 71
2
330
162
  0
MLINESTYLE
  5
170
102
{ACAD_REACTORS
330
16C
102
}
330
16C
100
AcDbMlineStyle
  2
STANDARD
 70
     0
  3

 62
   256
 51
90.00
 52
90.00
 71
     2
 49
0.50
 62
   256
  6
BYLAYER
 49
-0.50
 62
   256
  6
BYLAYER
  0
ENDSEC
  0
EOF
