  0
SECTION
  2
HEADER
  9
$ACADVER
  1
AC1027
  9
$DWGCODEPAGE
  3
ANSI_932
  9
$LTSCALE
 40
20.0
  9
$FILLMODE
 70
     1
  9
$CLAYER
  8
0
  9
$PDMODE
 70
     0
  9
$SPLFRAME
 70
     0
  9
$SPLINETYPE
 70
     6
  9
$SPLINESEGS
 70
     8
  9
$DIMASZ
 40
2.000000
  9
$DIMEXE
 40
1.500000
  9
$DIMEXO
 40
0.800000
  9
$DIMTAD
 70
     1
  9
$DIMTIH
 70
     0
  9
$DIMTOH
 70
     0
  9
$DIMTVP
 40
0.500000
  9
$DIMTXT
 40
3.100000
  9
$EXTMIN
 10
0.000000
 20
0.000000
 30
0.000000
  9
$EXTMAX
 10
297.000000
 20
420.000000
 30
0.000000
  9
$MEASUREMENT
 70
  1
  9
$LIMMIN
 10
0.000000
 20
0.000000
  9
$LIMMAX
 10
297.000000
 20
420.000000
  9
$HANDSEED
  5
315
  9
$LWDISPLAY
290
     0
  9
$DIMBLK
  1
_OPEN
  9
$DIMDEC
 70
     2
  9
$DIMADEC
 70
     2
  9
$DIMAUNIT
 70
     0
  9
$DIMZIN
 70
     8
  9
$DIMAZIN
 70
     2
  9
$DIMTOFL
 70
     1
  0
ENDSEC
  0
SECTION
  2
CLASSES
  0
ENDSEC
  0
SECTION
  2
TABLES
  0
TABLE
  2
VPORT
  5
2D7
100
AcDbSymbolTable
 70
     1
  0
VPORT
  5
2D8
100
AcDbSymbolTableRecord
100
AcDbViewportTableRecord
  2
*ACTIVE
 70
     0
 12
198.413605
 22
140.115863
 40
244.231725
 41
1.542909
  0
ENDTAB
  0
TABLE
  2
LTYPE
  5
2D9
100
AcDbSymbolTable
 70
     2
  0
LTYPE
  5
2DA
100
AcDbSymbolTableRecord
100
AcDbLinetypeTableRecord
  2
BYBLOCK
 70
     0
  3

 72
    65
 73
     0
 40
0.0
  0
LTYPE
  5
2DB
100
AcDbSymbolTableRecord
100
AcDbLinetypeTableRecord
  2
BYLAYER
 70
     0
  3

 72
    65
 73
     0
 40
0.0
  0
LTYPE
  5
2DC
100
AcDbSymbolTableRecord
100
AcDbLinetypeTableRecord
  2
CONTINUOUS
 70
     0
  3
Solid line (NEC CAE2D for Win R18.0 : 2024.07.04)
 72
    65
 73
     0
 40
0.0
  0
LTYPE
  5
2DD
100
AcDbSymbolTableRecord
100
AcDbLinetypeTableRecord
  2
CENTER
 70
     0
  3
____ _ ____ _ ____ _ ____ _ ____ _ ____
 72
    65
 73
     4
 40
2.0
 49
1.25
 74
     0
 49
-0.25
 74
     0
 49
0.25
 74
     0
 49
-0.25
 74
     0
  0
ENDTAB
  0
TABLE
  2
LAYER
  5
2DE
100
AcDbSymbolTable
 70
    24
  0
LAYER
  5
2DF
100
AcDbSymbolTableRecord
100
AcDbLayerTableRecord
  2
0
 70
     0
 62
     7
  6
CONTINUOUS
370
    -3
390

  0
LAYER
  5
2E0
100
AcDbSymbolTableRecord
100
AcDbLayerTableRecord
  2
A0
 70
     0
 62
     9
  6
CONTINUOUS
370
    -3
390

  0
LAYER
  5
2E1
100
AcDbSymbolTableRecord
100
AcDbLayerTableRecord
  2
A1
 70
     0
 62
    12
  6
CONTINUOUS
370
    -3
390

  0
LAYER
  5
2E2
100
AcDbSymbolTableRecord
100
AcDbLayerTableRecord
  2
A2
 70
     0
 62
     9
  6
CONTINUOUS
370
    -3
390

  0
LAYER
  5
2E3
100
AcDbSymbolTableRecord
100
AcDbLayerTableRecord
  2
A4
 70
     0
 62
     9
  6
CONTINUOUS
370
    -3
390

  0
LAYER
  5
2E4
100
AcDbSymbolTableRecord
100
AcDbLayerTableRecord
  2
A5
 70
     0
 62
     8
  6
CONTINUOUS
370
    -3
390

  0
LAYER
  5
2E5
100
AcDbSymbolTableRecord
100
AcDbLayerTableRecord
  2
A6
 70
     0
 62
    12
  6
CONTINUOUS
370
    -3
390

  0
LAYER
  5
2E6
100
AcDbSymbolTableRecord
100
AcDbLayerTableRecord
  2
A7
 70
     0
 62
    12
  6
CONTINUOUS
370
    -3
390

  0
LAYER
  5
2E7
100
AcDbSymbolTableRecord
100
AcDbLayerTableRecord
  2
A8
 70
     0
 62
    10
  6
CONTINUOUS
370
    -3
390

  0
LAYER
  5
2E8
100
AcDbSymbolTableRecord
100
AcDbLayerTableRecord
  2
A9
 70
     0
 62
     9
  6
CONTINUOUS
370
    -3
390

  0
LAYER
  5
2E9
100
AcDbSymbolTableRecord
100
AcDbLayerTableRecord
  2
A10
 70
     0
 62
     6
  6
CONTINUOUS
370
    -3
390

  0
LAYER
  5
2EA
100
AcDbSymbolTableRecord
100
AcDbLayerTableRecord
  2
A11
 70
     0
 62
    10
  6
CONTINUOUS
370
    -3
390

  0
LAYER
  5
2EB
100
AcDbSymbolTableRecord
100
AcDbLayerTableRecord
  2
A12
 70
     0
 62
    13
  6
CONTINUOUS
370
    -3
390

  0
LAYER
  5
2EC
100
AcDbSymbolTableRecord
100
AcDbLayerTableRecord
  2
A14
 70
     0
 62
     5
  6
CONTINUOUS
370
    -3
390

  0
LAYER
  5
2ED
100
AcDbSymbolTableRecord
100
AcDbLayerTableRecord
  2
A15
 70
     0
 62
    14
  6
CONTINUOUS
370
    -3
390

  0
LAYER
  5
2EE
100
AcDbSymbolTableRecord
100
AcDbLayerTableRecord
  2
A16
 70
     0
 62
     5
  6
CONTINUOUS
370
    -3
390

  0
LAYER
  5
2EF
100
AcDbSymbolTableRecord
100
AcDbLayerTableRecord
  2
A17
 70
     0
 62
     9
  6
CONTINUOUS
370
    -3
390

  0
LAYER
  5
2F0
100
AcDbSymbolTableRecord
100
AcDbLayerTableRecord
  2
A18
 70
     0
 62
     7
  6
CONTINUOUS
370
    -3
390

  0
LAYER
  5
2F1
100
AcDbSymbolTableRecord
100
AcDbLayerTableRecord
  2
A19
 70
     0
 62
     5
  6
CONTINUOUS
370
    -3
390

  0
LAYER
  5
2F2
100
AcDbSymbolTableRecord
100
AcDbLayerTableRecord
  2
A20
 70
     0
 62
     1
  6
CONTINUOUS
370
    -3
390

  0
LAYER
  5
2F3
100
AcDbSymbolTableRecord
100
AcDbLayerTableRecord
  2
A30
 70
     0
 62
     1
  6
CONTINUOUS
370
    -3
390

  0
LAYER
  5
2F4
100
AcDbSymbolTableRecord
100
AcDbLayerTableRecord
  2
A40
 70
     0
 62
     9
  6
CONTINUOUS
370
    -3
390

  0
LAYER
  5
2F5
100
AcDbSymbolTableRecord
100
AcDbLayerTableRecord
  2
A50
 70
     0
 62
    12
  6
CONTINUOUS
370
    -3
390

  0
LAYER
  5
2F6
100
AcDbSymbolTableRecord
100
AcDbLayerTableRecord
  2
A1023
 70
     0
 62
    16
  6
CONTINUOUS
370
    -3
390

  0
ENDTAB
  0
TABLE
  2
STYLE
  5
2F7
100
AcDbSymbolTable
 70
     4
  0
STYLE
  5
2F8
100
AcDbSymbolTableRecord
100
AcDbTextStyleTableRecord
  2
STANDARD
 70
    64
 40
0.0
 41
1.0
 50
0.0
 71
     0
 42
3.000000000000000
  3
TXT
  4

  0
STYLE
  5
2F9
100
AcDbSymbolTableRecord
100
AcDbTextStyleTableRecord
  2
ANKTATE
 70
    68
 40
0.0
 41
1.0
 50
0.0
 71
     0
 42
3.000000000000000
  3
TXT
  4

  0
STYLE
  5
2FA
100
AcDbSymbolTableRecord
100
AcDbTextStyleTableRecord
  2
KNJYOKO
 70
    64
 40
0.0
 41
1.0
 50
0.0
 71
     0
 42
3.000000000000000
  3
TXT
  4
BIGFONT
  0
STYLE
  5
2FB
100
AcDbSymbolTableRecord
100
AcDbTextStyleTableRecord
  2
KNJTATE
 70
    68
 40
0.0
 41
1.0
 50
0.0
 71
     0
 42
3.000000000000000
  3
TXT
  4
BIGFONT
  0
ENDTAB
  0
TABLE
  2
VIEW
  5
2FC
100
AcDbSymbolTable
 70
     0
  0
ENDTAB
  0
TABLE
  2
UCS
  5
2FD
100
AcDbSymbolTable
 70
     0
  0
ENDTAB
  0
TABLE
  2
APPID
  5
2FE
100
AcDbSymbolTable
 70
     1
  0
APPID
  5
2FF
100
AcDbSymbolTableRecord
100
AcDbRegAppTableRecord
  2
ACAD
 70
     0
  0
ENDTAB
  0
TABLE
  2
DIMSTYLE
  5
300
100
AcDbSymbolTable
 70
     2
100
AcDbDimStyleTable
  0
DIMSTYLE
105
301
100
AcDbSymbolTableRecord
100
AcDbDimStyleTableRecord
  2
STANDARD
 70
     0
 41
2.000000
 44
1.500000
 42
0.800000
145
0.661290
140
3.100000
144
1.000000
146
0.645161
340
2F8
  0
DIMSTYLE
105
302
100
AcDbSymbolTableRecord
100
AcDbDimStyleTableRecord
  2
A001
 70
     0
 41
2.000000
 44
1.500000
 42
0.800000
145
0.661290
140
3.100000
144
1.000000
146
0.645161
 77
     1
 73
     0
 74
     0
271
     2
179
     2
275
     0
 78
     8
 79
     2
172
     1
340
2F8
  0
ENDTAB
  0
TABLE
  2
BLOCK_RECORD
  5
303
100
AcDbSymbolTable
 70
    12
  0
BLOCK_RECORD
  5
304
100
AcDbSymbolTableRecord
100
AcDbBlockTableRecord
  2
*MODEL_SPACE
  0
BLOCK_RECORD
  5
305
100
AcDbSymbolTableRecord
100
AcDbBlockTableRecord
  2
*PAPER_SPACE
  0
BLOCK_RECORD
  5
306
100
AcDbSymbolTableRecord
100
AcDbBlockTableRecord
  2
*PAPER_SPACE0
  0
BLOCK_RECORD
  5
1
100
AcDbSymbolTableRecord
100
AcDbBlockTableRecord
  2
_NONE
  0
BLOCK_RECORD
  5
4
100
AcDbSymbolTableRecord
100
AcDbBlockTableRecord
  2
_CLOSED
  0
BLOCK_RECORD
  5
B
100
AcDbSymbolTableRecord
100
AcDbBlockTableRecord
  2
_DOT
  0
BLOCK_RECORD
  5
13
100
AcDbSymbolTableRecord
100
AcDbBlockTableRecord
  2
_OPEN
  0
BLOCK_RECORD
  5
19
100
AcDbSymbolTableRecord
100
AcDbBlockTableRecord
  2
_ORIGIN
  0
BLOCK_RECORD
  5
1E
100
AcDbSymbolTableRecord
100
AcDbBlockTableRecord
  2
_OPEN30
  0
BLOCK_RECORD
  5
24
100
AcDbSymbolTableRecord
100
AcDbBlockTableRecord
  2
_BOXFILLED
  0
BLOCK_RECORD
  5
29
100
AcDbSymbolTableRecord
100
AcDbBlockTableRecord
  2
_BOXBLANK
  0
BLOCK_RECORD
  5
31
100
AcDbSymbolTableRecord
100
AcDbBlockTableRecord
  2
_OBLIQUE
  0
BLOCK_RECORD
  5
35
100
AcDbSymbolTableRecord
100
AcDbBlockTableRecord
  2
_OPEN90
  0
BLOCK_RECORD
  5
3B
100
AcDbSymbolTableRecord
100
AcDbBlockTableRecord
  2
_CLOSEDBLANK
  0
BLOCK_RECORD
  5
41
100
AcDbSymbolTableRecord
100
AcDbBlockTableRecord
  2
_DOTBLANK
  0
ENDTAB
  0
ENDSEC
  0
SECTION
  2
BLOCKS
  0
BLOCK
  5
307
100
AcDbEntity
  8
0
100
AcDbBlockBegin
  2
*MODEL_SPACE
 70
     0
 10
0.0
 20
0.0
 30
0.0
  3
*MODEL_SPACE
  1

  0
ENDBLK
  5
308
100
AcDbEntity
  8
0
100
AcDbBlockEnd
  0
BLOCK
  5
309
100
AcDbEntity
  8
0
100
AcDbBlockBegin
  2
*PAPER_SPACE
 70
     0
 10
0.0
 20
0.0
 30
0.0
  3
*PAPER_SPACE
  1

  0
ENDBLK
  5
30A
100
AcDbEntity
  8
0
100
AcDbBlockEnd
  0
BLOCK
  5
30B
100
AcDbEntity
  8
0
100
AcDbBlockBegin
  2
*PAPER_SPACE0
 70
     0
 10
0.0
 20
0.0
 30
0.0
  3
*PAPER_SPACE0
  1

  0
ENDBLK
  5
30C
100
AcDbEntity
  8
0
100
AcDbBlockEnd
  0
BLOCK
  5
2
330
1
100
AcDbEntity
  8
0
100
AcDbBlockBegin
  2
_NONE
 70
     0
 10
0.0
 20
0.0
 30
0.0
  3
_NONE
  1

  0
ENDBLK
  5
3
330
1
100
AcDbEntity
  8
0
100
AcDbBlockEnd
  0
BLOCK
  5
5
330
4
100
AcDbEntity
  8
0
100
AcDbBlockBegin
  2
_CLOSED
 70
     0
 10
0.0
 20
0.0
 30
0.0
  3
_CLOSED
  1

  0
LINE
  5
6
330
4
100
AcDbEntity
  8
0
  6
BYBLOCK
 62
     0
370
    -2
100
AcDbLine
 10
-1.0
 20
0.166667
 30
0.0
 11
0.0
 21
0.0
 31
0.0
  0
LINE
  5
7
330
4
100
AcDbEntity
  8
0
  6
BYBLOCK
 62
     0
370
    -2
100
AcDbLine
 10
0.0
 20
0.0
 30
0.0
 11
-1.0
 21
-0.166667
 31
0.0
  0
LINE
  5
8
330
4
100
AcDbEntity
  8
0
  6
BYBLOCK
 62
     0
370
    -2
100
AcDbLine
 10
-1.0
 20
0.166667
 30
0.0
 11
-1.0
 21
-0.166667
 31
0.0
  0
LINE
  5
9
330
4
100
AcDbEntity
  8
0
  6
BYBLOCK
 62
     0
370
    -2
100
AcDbLine
 10
0.0
 20
0.0
 30
0.0
 11
-1.0
 21
0.0
 31
0.0
  0
ENDBLK
  5
A
330
4
100
AcDbEntity
  8
0
100
AcDbBlockEnd
  0
BLOCK
  5
C
330
B
100
AcDbEntity
  8
0
100
AcDbBlockBegin
  2
_DOT
 70
     0
 10
0.0
 20
0.0
 30
0.0
  3
_DOT
  1

  0
POLYLINE
  5
D
330
B
100
AcDbEntity
  8
0
  6
BYBLOCK
 62
     0
370
    -2
100
AcDb2dPolyline
 66
     1
 10
0.0
 20
0.0
 30
0.0
 70
     1
 40
0.5
 41
0.5
  0
VERTEX
  5
E
330
B
100
AcDbEntity
  8
0
  6
BYBLOCK
 62
     0
370
    -2
100
AcDbVertex
100
AcDb2dVertex
 10
-0.25
 20
0.0
 30
0.0
 42
1.0
  0
VERTEX
  5
F
330
B
100
AcDbEntity
  8
0
  6
BYBLOCK
 62
     0
370
    -2
100
AcDbVertex
100
AcDb2dVertex
 10
0.25
 20
0.0
 30
0.0
 42
1.0
  0
SEQEND
  5
10
330
B
100
AcDbEntity
  8
0
  6
BYBLOCK
 62
     0
370
    -2
  0
LINE
  5
11
330
B
100
AcDbEntity
  8
0
  6
BYBLOCK
 62
     0
370
    -2
100
AcDbLine
 10
-0.5
 20
0.0
 30
0.0
 11
-1.0
 21
0.0
 31
0.0
  0
ENDBLK
  5
12
330
B
100
AcDbEntity
  8
0
100
AcDbBlockEnd
  0
BLOCK
  5
14
330
13
100
AcDbEntity
  8
0
100
AcDbBlockBegin
  2
_OPEN
 70
     0
 10
0.0
 20
0.0
 30
0.0
  3
_OPEN
  1

  0
LINE
  5
15
330
13
100
AcDbEntity
  8
0
  6
BYBLOCK
 62
     0
370
    -2
100
AcDbLine
 10
-1.0
 20
0.166667
 30
0.0
 11
0.0
 21
0.0
 31
0.0
  0
LINE
  5
16
330
13
100
AcDbEntity
  8
0
  6
BYBLOCK
 62
     0
370
    -2
100
AcDbLine
 10
0.0
 20
0.0
 30
0.0
 11
-1.0
 21
-0.166667
 31
0.0
  0
LINE
  5
17
330
13
100
AcDbEntity
  8
0
  6
BYBLOCK
 62
     0
370
    -2
100
AcDbLine
 10
0.0
 20
0.0
 30
0.0
 11
-1.0
 21
0.0
 31
0.0
  0
ENDBLK
  5
18
330
13
100
AcDbEntity
  8
0
100
AcDbBlockEnd
  0
BLOCK
  5
1A
330
19
100
AcDbEntity
  8
0
100
AcDbBlockBegin
  2
_ORIGIN
 70
     0
 10
0.0
 20
0.0
 30
0.0
  3
_ORIGIN
  1

  0
CIRCLE
  5
1B
330
19
100
AcDbEntity
  8
0
  6
BYBLOCK
 62
     0
370
    -2
100
AcDbCircle
 10
0.0
 20
0.0
 30
0.0
 40
0.5
  0
LINE
  5
1C
330
19
100
AcDbEntity
  8
0
  6
BYBLOCK
 62
     0
370
    -2
100
AcDbLine
 10
0.0
 20
0.0
 30
0.0
 11
-1.0
 21
0.0
 31
0.0
  0
ENDBLK
  5
1D
330
19
100
AcDbEntity
  8
0
100
AcDbBlockEnd
  0
BLOCK
  5
1F
330
1E
100
AcDbEntity
  8
0
100
AcDbBlockBegin
  2
_OPEN30
 70
     0
 10
0.0
 20
0.0
 30
0.0
  3
_OPEN30
  1

  0
LINE
  5
20
330
1E
100
AcDbEntity
  8
0
  6
BYBLOCK
 62
     0
370
    -2
100
AcDbLine
 10
-1.0
 20
0.267949
 30
0.0
 11
0.0
 21
0.0
 31
0.0
  0
LINE
  5
21
330
1E
100
AcDbEntity
  8
0
  6
BYBLOCK
 62
     0
370
    -2
100
AcDbLine
 10
0.0
 20
0.0
 30
0.0
 11
-1.0
 21
-0.267949
 31
0.0
  0
LINE
  5
22
330
1E
100
AcDbEntity
  8
0
  6
BYBLOCK
 62
     0
370
    -2
100
AcDbLine
 10
0.0
 20
0.0
 30
0.0
 11
-1.0
 21
0.0
 31
0.0
  0
ENDBLK
  5
23
330
1E
100
AcDbEntity
  8
0
100
AcDbBlockEnd
  0
BLOCK
  5
25
330
24
100
AcDbEntity
  8
0
100
AcDbBlockBegin
  2
_BOXFILLED
 70
     0
 10
0.0
 20
0.0
 30
0.0
  3
_BOXFILLED
  1

  0
SOLID
  5
26
330
24
100
AcDbEntity
  8
0
  6
BYBLOCK
 62
     0
370
    -2
100
AcDbTrace
 10
-0.5
 20
0.5
 30
0.0
 11
0.5
 21
0.5
 31
0.0
 12
-0.5
 22
-0.5
 32
0.0
 13
0.5
 23
-0.5
 33
0.0
  0
LINE
  5
27
330
24
100
AcDbEntity
  8
0
  6
BYBLOCK
 62
     0
370
    -2
100
AcDbLine
 10
-0.5
 20
0.0
 30
0.0
 11
-1.0
 21
0.0
 31
0.0
  0
ENDBLK
  5
28
330
24
100
AcDbEntity
  8
0
100
AcDbBlockEnd
  0
BLOCK
  5
2A
330
29
100
AcDbEntity
  8
0
100
AcDbBlockBegin
  2
_BOXBLANK
 70
     0
 10
0.0
 20
0.0
 30
0.0
  3
_BOXBLANK
  1

  0
LINE
  5
2B
330
29
100
AcDbEntity
  8
0
  6
BYBLOCK
 62
     0
370
    -2
100
AcDbLine
 10
-0.5
 20
-0.5
 30
0.0
 11
0.5
 21
-0.5
 31
0.0
  0
LINE
  5
2C
330
29
100
AcDbEntity
  8
0
  6
BYBLOCK
 62
     0
370
    -2
100
AcDbLine
 10
0.5
 20
-0.5
 30
0.0
 11
0.5
 21
0.5
 31
0.0
  0
LINE
  5
2D
330
29
100
AcDbEntity
  8
0
  6
BYBLOCK
 62
     0
370
    -2
100
AcDbLine
 10
0.5
 20
0.5
 30
0.0
 11
-0.5
 21
0.5
 31
0.0
  0
LINE
  5
2E
330
29
100
AcDbEntity
  8
0
  6
BYBLOCK
 62
     0
370
    -2
100
AcDbLine
 10
-0.5
 20
0.5
 30
0.0
 11
-0.5
 21
-0.5
 31
0.0
  0
LINE
  5
2F
330
29
100
AcDbEntity
  8
0
  6
BYBLOCK
 62
     0
370
    -2
100
AcDbLine
 10
-0.5
 20
0.0
 30
0.0
 11
-1.0
 21
0.0
 31
0.0
  0
ENDBLK
  5
30
330
29
100
AcDbEntity
  8
0
100
AcDbBlockEnd
  0
BLOCK
  5
32
330
31
100
AcDbEntity
  8
0
100
AcDbBlockBegin
  2
_OBLIQUE
 70
     0
 10
0.0
 20
0.0
 30
0.0
  3
_OBLIQUE
  1

  0
LINE
  5
33
330
31
100
AcDbEntity
  8
0
  6
BYBLOCK
 62
     0
370
    -2
100
AcDbLine
 10
-0.5
 20
-0.5
 30
0.0
 11
0.5
 21
0.5
 31
0.0
  0
ENDBLK
  5
34
330
31
100
AcDbEntity
  8
0
100
AcDbBlockEnd
  0
BLOCK
  5
36
330
35
100
AcDbEntity
  8
0
100
AcDbBlockBegin
  2
_OPEN90
 70
     0
 10
0.0
 20
0.0
 30
0.0
  3
_OPEN90
  1

  0
LINE
  5
37
330
35
100
AcDbEntity
  8
0
  6
BYBLOCK
 62
     0
370
    -2
100
AcDbLine
 10
-0.5
 20
0.5
 30
0.0
 11
0.0
 21
0.0
 31
0.0
  0
LINE
  5
38
330
35
100
AcDbEntity
  8
0
  6
BYBLOCK
 62
     0
370
    -2
100
AcDbLine
 10
0.0
 20
0.0
 30
0.0
 11
-0.5
 21
-0.5
 31
0.0
  0
LINE
  5
39
330
35
100
AcDbEntity
  8
0
  6
BYBLOCK
 62
     0
370
    -2
100
AcDbLine
 10
0.0
 20
0.0
 30
0.0
 11
-1.0
 21
0.0
 31
0.0
  0
ENDBLK
  5
3A
330
35
100
AcDbEntity
  8
0
100
AcDbBlockEnd
  0
BLOCK
  5
3C
330
3B
100
AcDbEntity
  8
0
100
AcDbBlockBegin
  2
_CLOSEDBLANK
 70
     0
 10
0.0
 20
0.0
 30
0.0
  3
_CLOSEDBLANK
  1

  0
LINE
  5
3D
330
3B
100
AcDbEntity
  8
0
  6
BYBLOCK
 62
     0
370
    -2
100
AcDbLine
 10
-1.0
 20
0.1666666666666666
 30
0.0
 11
0.0
 21
0.0
 31
0.0
  0
LINE
  5
3E
330
3B
100
AcDbEntity
  8
0
  6
BYBLOCK
 62
     0
370
    -2
100
AcDbLine
 10
0.0
 20
0.0
 30
0.0
 11
-1.0
 21
-0.1666666666666666
 31
0.0
  0
LINE
  5
3F
330
3B
100
AcDbEntity
  8
0
  6
BYBLOCK
 62
     0
370
    -2
100
AcDbLine
 10
-1.0
 20
0.1666666666666666
 30
0.0
 11
-1.0
 21
-0.1666666666666666
 31
0.0
  0
ENDBLK
  5
40
330
3B
100
AcDbEntity
  8
0
100
AcDbBlockEnd
  0
BLOCK
  5
42
330
41
100
AcDbEntity
  8
0
100
AcDbBlockBegin
  2
_DOTBLANK
 70
     0
 10
0.0
 20
0.0
 30
0.0
  3
_DOTBLANK
  1

  0
CIRCLE
  5
43
330
41
100
AcDbEntity
  8
0
  6
BYBLOCK
 62
     0
370
    -2
100
AcDbCircle
 10
0.0
 20
0.0
 30
0.0
 40
0.5
  0
LINE
  5
44
330
41
100
AcDbEntity
  8
0
  6
BYBLOCK
 62
     0
370
    -2
100
AcDbLine
 10
-0.5
 20
0.0
 30
0.0
 11
-1.0
 21
0.0
 31
0.0
  0
ENDBLK
  5
45
330
41
100
AcDbEntity
  8
0
100
AcDbBlockEnd
  0
ENDSEC
  0
SECTION
  2
ENTITIES
  0
MTEXT
  5
46
100
AcDbEntity
  8
A10
  6
CONTINUOUS
 62
3
100
AcDbMText
 10
9.999997526638502
 20
18.00000076076889
 30
0.000000000000000
 40
3.000000000000000
 41
0.000000000000000
 44
0.6739999771118164
 71
     7
 72
     1
  1
{\H0.93x;{TYPE No.TL-437}}
 11
1.000000000000000
 21
0.000000000000000
 31
0.000000000000000
  7
STANDARD
  0
POINT
  5
47
100
AcDbEntity
  8
A10
  6
CONTINUOUS
 62
3
100
AcDbPoint
 10
9.999997526638502
 20
18.00000076076889
 30
0.000000000000000
  0
ARC
  5
48
100
AcDbEntity
  8
A1
  6
CONTINUOUS
 62
7
100
AcDbCircle
 10
186.7264418613516
 20
167.1794576673551
 30
0.000000000000000
 40
4.499999999999997
100
AcDbArc
 50
53.65384788776536
 51
219.5660404718600
  0
ARC
  5
49
100
AcDbEntity
  8
A1
  6
CONTINUOUS
 62
7
100
AcDbCircle
 10
183.5657898613516
 20
164.5678926673551
 30
0.000000000000000
 40
0.4000000000000000
100
AcDbArc
 50
219.5660260000001
 51
329.9994206181249
  0
ARC
  5
4A
100
AcDbEntity
  8
A1
  6
CONTINUOUS
 62
7
100
AcDbCircle
 10
183.7532288613516
 20
167.5794586673551
 30
0.000000000000000
 40
0.3999999999999998
100
AcDbArc
 50
172.3379912295716
 51
269.9999820000000
  0
ARC
  5
4B
100
AcDbEntity
  8
A1
  6
CONTINUOUS
 62
7
100
AcDbCircle
 10
186.7264418613516
 20
167.1794576673551
 30
0.000000000000000
 40
3.399999999999997
100
AcDbArc
 50
117.6622625638204
 51
172.3377550000000
  0
ARC
  5
4C
100
AcDbEntity
  8
A1
  6
CONTINUOUS
 62
7
100
AcDbCircle
 10
185.3336658613516
 20
169.8365546673550
 30
0.000000000000000
 40
0.4000000000000001
100
AcDbArc
 50
20.00016586977502
 51
117.6621890000000
  0
ARC
  5
4D
100
AcDbEntity
  8
A1
  6
CONTINUOUS
 62
7
100
AcDbCircle
 10
188.1192178613516
 20
169.8365546673550
 30
0.000000000000000
 40
0.3999999999999997
100
AcDbArc
 50
62.33770529261700
 51
159.9999700000000
  0
ARC
  5
4E
100
AcDbEntity
  8
A1
  6
CONTINUOUS
 62
7
100
AcDbCircle
 10
186.7264418613516
 20
167.1794576673551
 30
0.000000000000000
 40
3.400000000000000
100
AcDbArc
 50
43.37719995795621
 51
62.33772500000025
  0
LINE
  5
4F
100
AcDbEntity
  8
A1
  6
CONTINUOUS
 62
7
100
AcDbLine
 10
183.7532287356879
 20
167.1794576673551
 30
0.000000000000000
 11
184.2264418613517
 21
167.1794576673551
 31
0.000000000000000
  0
LINE
  5
50
100
AcDbEntity
  8
A1
  6
CONTINUOUS
 62
7
100
AcDbLine
 10
187.7433403029729
 20
169.9733631332132
 30
0.000000000000000
 11
187.5814933254559
 21
169.5286895847897
 31
0.000000000000000
  0
LINE
  5
51
100
AcDbEntity
  8
A1
  6
CONTINUOUS
 62
7
100
AcDbLine
 10
184.6945461713722
 20
165.7229558074125
 30
0.000000000000000
 11
183.9121988613516
 21
164.3678886673550
 31
0.000000000000000
  0
LINE
  5
52
100
AcDbEntity
  8
A1
  6
CONTINUOUS
 62
7
100
AcDbLine
 10
185.8713934134767
 20
169.5286906826069
 30
0.000000000000000
 11
185.7095448613516
 21
169.9733646673551
 31
0.000000000000000
  0
ARC
  5
53
100
AcDbEntity
  8
A1
  6
CONTINUOUS
 62
7
100
AcDbCircle
 10
211.7274418613515
 20
181.6794584352998
 30
0.000000000000000
 40
2.000000000000000
100
AcDbArc
 50
270.0000000000000
 51
334.7217096022376
  0
ARC
  5
54
100
AcDbEntity
  8
A1
  6
CONTINUOUS
 62
7
100
AcDbCircle
 10
184.4694418613515
 20
179.6794584352998
 30
0.000000000000000
 40
2.000000000000000
100
AcDbArc
 50
90.00000000000000
 51
170.3812073229923
  0
ARC
  5
55
100
AcDbEntity
  8
A1
  6
CONTINUOUS
 62
7
100
AcDbCircle
 10
191.7264418613514
 20
176.1794584352998
 30
0.000000000000000
 40
1.550000000000000
100
AcDbArc
 50
336.7774493979613
 51
545.9625506020274
  0
LINE
  5
56
100
AcDbEntity
  8
A1
  6
CONTINUOUS
 62
7
100
AcDbLine
 10
218.5164418613424
 20
190.7844584353043
 30
0.000000000000000
 11
216.2801445898437
 21
186.3127582323475
 31
0.000000000000000
  0
LINE
  5
57
100
AcDbEntity
  8
A1
  6
CONTINUOUS
 62
7
100
AcDbLine
 10
214.4910161344582
 20
187.2075013728963
 30
0.000000000000000
 11
216.7274418613681
 21
191.6794584353037
 31
0.000000000000000
  0
LINE
  5
58
100
AcDbEntity
  8
A1
  6
CONTINUOUS
 62
7
100
AcDbLine
 10
216.7274418613633
 20
191.6794584352940
 30
0.000000000000000
 11
218.5164418613517
 21
190.7844584352998
 31
0.000000000000000
  0
LINE
  5
59
100
AcDbEntity
  8
A1
  6
CONTINUOUS
 62
7
100
AcDbLine
 10
211.7264418613516
 20
181.6794584352998
 30
0.000000000000000
 11
199.7979731223085
 21
181.6794584352998
 31
0.000000000000000
  0
LINE
  5
5A
100
AcDbEntity
  8
A1
  6
CONTINUOUS
 62
7
100
AcDbLine
 10
211.7274418613515
 20
179.6794584352998
 30
0.000000000000000
 11
199.0280919802916
 21
179.6794584352998
 31
0.000000000000000
  0
LINE
  5
5B
100
AcDbEntity
  8
A1
  6
CONTINUOUS
 62
7
100
AcDbLine
 10
213.5359306861083
 20
180.8254278909222
 30
0.000000000000000
 11
216.2801445898482
 21
186.3127582323452
 31
0.000000000000000
  0
LINE
  5
5C
100
AcDbEntity
  8
A1
  6
CONTINUOUS
 62
7
100
AcDbLine
 10
214.4910161344523
 20
187.2075013728993
 30
0.000000000000000
 11
211.7264418613516
 21
181.6794584352998
 31
0.000000000000000
  0
LINE
  5
5D
100
AcDbEntity
  8
A1
  6
CONTINUOUS
 62
7
100
AcDbLine
 10
198.7264418613516
 20
181.6794584352998
 30
0.000000000000000
 11
199.7979731223085
 21
181.6794584352998
 31
0.000000000000000
  0
LINE
  5
5E
100
AcDbEntity
  8
A1
  6
CONTINUOUS
 62
7
100
AcDbLine
 10
199.0280919802916
 20
179.6794584352998
 30
0.000000000000000
 11
197.9565607193345
 21
179.6794584352998
 31
0.000000000000000
  0
LINE
  5
5F
100
AcDbEntity
  8
A1
  6
CONTINUOUS
 62
7
100
AcDbLine
 10
182.4514418613517
 20
179.6794584352999
 30
0.000000000000000
 11
182.4975592916085
 21
180.0136427125234
 31
0.000000000000000
  0
LINE
  5
60
100
AcDbEntity
  8
A1
  6
CONTINUOUS
 62
7
100
AcDbLine
 10
198.7264418613514
 20
181.6794584352998
 30
0.000000000000000
 11
197.9565607193345
 21
179.6794584352998
 31
0.000000000000000
  0
LINE
  5
61
100
AcDbEntity
  8
A1
  6
CONTINUOUS
 62
7
100
AcDbLine
 10
184.4694418613515
 20
181.6794584352998
 30
0.000000000000000
 11
198.7264418613516
 21
181.6794584352998
 31
0.000000000000000
  0
LINE
  5
62
100
AcDbEntity
  8
A1
  6
CONTINUOUS
 62
7
100
AcDbLine
 10
197.9565607193345
 20
179.6794584352998
 30
0.000000000000000
 11
197.1481855202170
 21
177.5794584353003
 31
0.000000000000000
  0
LINE
  5
63
100
AcDbEntity
  8
A1
  6
CONTINUOUS
 62
7
100
AcDbLine
 10
180.9506991063776
 20
168.8045109354883
 30
0.000000000000000
 11
182.4514418613516
 21
179.6794584352999
 31
0.000000000000000
  0
ARC
  5
64
100
AcDbEntity
  8
A1
  6
CONTINUOUS
 62
7
100
AcDbCircle
 10
189.4830729603360
 20
174.5039597113505
 30
0.000000000000000
 40
0.2000000000000001
100
AcDbArc
 50
36.75484843211970
 51
111.5494867688655
  0
ARC
  5
65
100
AcDbEntity
  8
A1
  6
CONTINUOUS
 62
7
100
AcDbCircle
 10
191.7264418613514
 20
176.1794584353002
 30
0.000000000000000
 40
2.600000000000001
100
AcDbArc
 50
296.6044179845819
 51
366.3441251056599
  0
ARC
  5
66
100
AcDbEntity
  8
A1
  6
CONTINUOUS
 62
7
100
AcDbCircle
 10
191.7264418613514
 20
176.1794584353002
 30
0.000000000000000
 40
2.600000000000001
100
AcDbArc
 50
216.7548484321191
 51
226.1355820154194
  0
ARC
  5
67
100
AcDbEntity
  8
A1
  6
CONTINUOUS
 62
7
100
AcDbCircle
 10
186.7264418613514
 20
167.1794584353002
 30
0.000000000000000
 40
6.000000000000000
100
AcDbArc
 50
111.5494867688885
 51
270.0000000000000
  0
ARC
  5
68
100
AcDbEntity
  8
A1
  6
CONTINUOUS
 62
7
100
AcDbCircle
 10
194.5092950847078
 20
176.4888577521304
 30
0.000000000000000
 40
0.2000000000000001
100
AcDbArc
 50
111.5494867688927
 51
186.3441251056676
  0
ARC
  5
69
100
AcDbEntity
  8
A1
  6
CONTINUOUS
 62
7
100
AcDbCircle
 10
186.7264418613516
 20
167.1794584353000
 30
0.000000000000000
 40
2.550000000000000
100
AcDbArc
 50
109.9999553407546
 51
180.0000000000000
  0
ARC
  5
6A
100
AcDbEntity
  8
A1
  6
CONTINUOUS
 62
7
100
AcDbCircle
 10
186.7264418613516
 20
167.1794584353000
 30
0.000000000000000
 40
2.550000000000000
100
AcDbArc
 50
26.21006034719294
 51
69.99997569690065
  0
ARC
  5
6B
100
AcDbEntity
  8
A1
  6
CONTINUOUS
 62
7
100
AcDbCircle
 10
186.7264418613516
 20
167.1794584353000
 30
0.000000000000000
 40
2.550000000000000
100
AcDbArc
 50
216.1415052627660
 51
316.5299396528071
  0
LINE
  5
6C
100
AcDbEntity
  8
A1
  6
CONTINUOUS
 62
7
100
AcDbLine
 10
198.7264418613514
 20
161.1794584353002
 30
0.000000000000000
 11
196.7264418613514
 21
161.1794584353002
 31
0.000000000000000
  0
LINE
  5
6D
100
AcDbEntity
  8
A1
  6
CONTINUOUS
 62
7
100
AcDbLine
 10
196.7264418613515
 20
177.5794584353003
 30
0.000000000000000
 11
198.7264418613514
 21
177.5794584353003
 31
0.000000000000000
  0
LINE
  5
6E
100
AcDbEntity
  8
A1
  6
CONTINUOUS
 62
7
100
AcDbLine
 10
198.7264418613514
 20
177.5794584353003
 30
0.000000000000000
 11
198.7264418613514
 21
161.1794584353002
 31
0.000000000000000
  0
LINE
  5
6F
100
AcDbEntity
  8
A1
  6
CONTINUOUS
 62
7
100
AcDbLine
 10
184.5226136725280
 20
172.7600624630151
 30
0.000000000000000
 11
189.4096120207087
 21
174.6899798456078
 31
0.000000000000000
  0
LINE
  5
70
100
AcDbEntity
  8
A1
  6
CONTINUOUS
 62
7
100
AcDbLine
 10
187.9326933286616
 20
161.1794584353002
 30
0.000000000000000
 11
186.7264418613514
 21
161.1794584353002
 31
0.000000000000000
  0
LINE
  5
71
100
AcDbEntity
  8
A1
  6
CONTINUOUS
 62
7
100
AcDbLine
 10
196.7264418613514
 20
161.1794584353002
 30
0.000000000000000
 11
190.9670484521484
 21
161.1794584353002
 31
0.000000000000000
  0
LINE
  5
72
100
AcDbEntity
  8
A1
  6
CONTINUOUS
 62
7
100
AcDbLine
 10
194.4358341450803
 20
176.6748778863875
 30
0.000000000000000
 11
196.7264418613514
 21
177.5794584353003
 31
0.000000000000000
  0
CIRCLE
  5
73
100
AcDbEntity
  8
A1
  6
CONTINUOUS
 62
7
100
AcDbCircle
 10
186.7264418613516
 20
167.1794584353000
 30
0.000000000000000
 40
2.000000000000002
  0
ARC
  5
74
100
AcDbEntity
  8
A1
  6
CONTINUOUS
 62
7
100
AcDbCircle
 10
186.7264418613516
 20
167.1794584353000
 30
0.000000000000000
 40
2.500000000000002
100
AcDbArc
 50
24.52805235876018
 51
318.2119476412398
  0
ARC
  5
75
100
AcDbEntity
  8
A1
  6
CONTINUOUS
 62
7
100
AcDbCircle
 10
188.7253811703003
 20
156.4058994554748
 30
0.000000000000000
 40
1.500000000000000
100
AcDbArc
 50
261.3699999999999
 51
351.3700000000000
  0
ARC
  5
76
100
AcDbEntity
  8
A1
  6
CONTINUOUS
 62
7
100
AcDbCircle
 10
191.7264418613514
 20
176.1794584353001
 30
0.000000000000000
 40
1.500000000000000
100
AcDbArc
 50
351.3700000000001
 51
441.3700000000001
  0
ARC
  5
77
100
AcDbEntity
  8
A1
  6
CONTINUOUS
 62
7
100
AcDbCircle
 10
188.7253811703003
 20
156.4058994554748
 30
0.000000000000000
 40
1.500000000000000
100
AcDbArc
 50
171.3700000000001
 51
261.3699999999999
  0
ARC
  5
78
100
AcDbEntity
  8
A1
  6
CONTINUOUS
 62
7
100
AcDbCircle
 10
191.7264418613514
 20
176.1794584353001
 30
0.000000000000000
 40
1.500000000000000
100
AcDbArc
 50
81.36999999999999
 51
171.3699999999999
  0
LINE
  5
79
100
AcDbEntity
  8
A1
  6
CONTINUOUS
 62
7
100
AcDbLine
 10
192.6628749328511
 20
177.3512489893673
 30
0.000000000000000
 11
192.6714921621560
 21
177.4080266788050
 31
0.000000000000000
  0
LINE
  5
7A
100
AcDbEntity
  8
A1
  6
CONTINUOUS
 62
7
100
AcDbLine
 10
191.1798580093643
 20
177.5763285411962
 30
0.000000000000000
 11
191.1884752386690
 21
177.6331062306339
 31
0.000000000000000
  0
LINE
  5
7B
100
AcDbEntity
  8
A1
  6
CONTINUOUS
 62
7
100
AcDbLine
 10
190.2083980937871
 20
156.1808199036459
 30
0.000000000000000
 11
193.2094587848382
 21
175.9543788834712
 31
0.000000000000000
  0
LINE
  5
7C
100
AcDbEntity
  8
A1
  6
CONTINUOUS
 62
7
100
AcDbLine
 10
190.2434249378644
 20
176.4045379871289
 30
0.000000000000000
 11
187.2423642468134
 21
156.6309790073036
 31
0.000000000000000
  0
LINE
  5
7D
100
AcDbEntity
  8
A1
  6
CONTINUOUS
 62
7
100
AcDbLine
 10
99.56136302791938
 20
223.1794584352628
 30
0.000000000000000
 11
100.1613690279192
 21
223.1794584352628
 31
0.000000000000000
  0
LINE
  5
7E
100
AcDbEntity
  8
A1
  6
CONTINUOUS
 62
7
100
AcDbLine
 10
100.1613690279192
 20
223.1794584352628
 30
0.000000000000000
 11
100.1613690279192
 21
231.1800134097352
 31
0.000000000000000
  0
LINE
  5
7F
100
AcDbEntity
  8
A1
  6
CONTINUOUS
 62
7
100
AcDbLine
 10
99.56136302791938
 20
231.1851603414885
 30
0.000000000000000
 11
99.56136302791938
 21
223.1794584352628
 31
0.000000000000000
  0
ELLIPSE
  5
80
100
AcDbEntity
  8
A1
  6
CONTINUOUS
 62
7
100
AcDbEllipse
 10
61.76136902791906
 20
238.9095772932457
 30
0.000000000000000
 11
-2.000000000000000
 21
0.000000000000000
 31
0.000000000000000
210
0.000000000000000
220
0.000000000000000
230
1.000000000000000
 40
0.3849405710084546
 41
4.712388980384690
 42
0.000000000000000
  0
ELLIPSE
  5
81
100
AcDbEntity
  8
A1
  6
CONTINUOUS
 62
7
100
AcDbEllipse
 10
61.76136902791906
 20
223.4044584352629
 30
0.000000000000000
 11
-2.000000000000000
 21
0.000000000000000
 31
0.000000000000000
210
0.000000000000000
220
0.000000000000000
230
1.000000000000000
 40
0.1379999999999985
 41
6.115305704899073
 42
0.000000000000000
  0
ELLIPSE
  5
82
100
AcDbEntity
  8
A1
  6
CONTINUOUS
 62
7
100
AcDbEllipse
 10
93.76136902791906
 20
238.9095772932457
 30
0.000000000000000
 11
-2.000000000000000
 21
0.000000000000000
 31
0.000000000000000
210
0.000000000000000
220
0.000000000000000
230
1.000000000000000
 40
0.3849405710084546
 41
3.141592653589793
 42
4.712388980384690
  0
ELLIPSE
  5
83
100
AcDbEntity
  8
A1
  6
CONTINUOUS
 62
7
100
AcDbEllipse
 10
93.76136902791906
 20
223.4044584352628
 30
0.000000000000000
 11
-2.000000000000000
 21
0.000000000000000
 31
0.000000000000000
210
0.000000000000000
220
0.000000000000000
230
1.000000000000000
 40
0.1379999999999985
 41
3.141592653589793
 42
3.309472255870306
  0
ELLIPSE
  5
84
100
AcDbEntity
  8
A1
  6
CONTINUOUS
 62
7
100
AcDbEllipse
 10
61.76136902791906
 20
240.7509896962197
 30
0.000000000000000
 11
0.000000000000000
 21
-1.071531260957101
 31
0.000000000000000
210
0.000000000000000
220
0.000000000000000
230
1.000000000000000
 40
0.9332438879168036
 41
0.000000000000000
 42
1.570796326794897
  0
ELLIPSE
  5
85
100
AcDbEntity
  8
A1
  6
CONTINUOUS
 62
7
100
AcDbEllipse
 10
93.76136902791906
 20
240.7509896962196
 30
0.000000000000000
 11
0.000000000000000
 21
-1.071531260957101
 31
0.000000000000000
210
0.000000000000000
220
0.000000000000000
230
1.000000000000000
 40
0.9332438879168036
 41
4.712388980384690
 42
0.000000000000000
  0
ELLIPSE
  5
86
100
AcDbEntity
  8
A1
  6
CONTINUOUS
 62
7
100
AcDbEllipse
 10
67.76136902791889
 20
255.4440327083694
 30
0.000000000000000
 11
-5.000000000000000
 21
0.000000000000000
 31
0.000000000000000
210
0.000000000000000
220
0.000000000000000
230
1.000000000000000
 40
0.4472851453819919
 41
4.712388980384690
 42
0.000000000000000
  0
ELLIPSE
  5
87
100
AcDbEntity
  8
A1
  6
CONTINUOUS
 62
7
100
AcDbEllipse
 10
67.76136902791889
 20
257.2331611637549
 30
0.000000000000000
 11
5.000000000000000
 21
0.000000000000000
 31
0.000000000000000
210
0.000000000000000
220
0.000000000000000
230
1.000000000000000
 40
0.4472851453819900
 41
1.581514383211999
 42
3.141592653589793
  0
ELLIPSE
  5
88
100
AcDbEntity
  8
A1
  6
CONTINUOUS
 62
7
100
AcDbEllipse
 10
87.76136902791889
 20
255.4440327083693
 30
0.000000000000000
 11
-5.000000000000000
 21
0.000000000000000
 31
0.000000000000000
210
0.000000000000000
220
0.000000000000000
230
1.000000000000000
 40
0.4472851453819919
 41
3.141592653589793
 42
4.712388980384690
  0
ELLIPSE
  5
89
100
AcDbEntity
  8
A1
  6
CONTINUOUS
 62
7
100
AcDbEllipse
 10
87.76136902791889
 20
257.2331611637549
 30
0.000000000000000
 11
5.000000000000000
 21
0.000000000000000
 31
0.000000000000000
210
0.000000000000000
220
0.000000000000000
230
1.000000000000000
 40
0.4472851453819900
 41
0.000000000000000
 42
1.560078270377786
  0
ARC
  5
8A
100
AcDbEntity
  8
A1
  6
CONTINUOUS
 62
7
100
AcDbCircle
 10
92.76136902791855
 20
224.6794584352625
 30
0.000000000000000
 40
1.000000000000488
100
AcDbArc
 50
8.549330983773933e-12
 51
47.98760049003482
  0
ARC
  5
8B
100
AcDbEntity
  8
A1
  6
CONTINUOUS
 62
7
100
AcDbCircle
 10
62.76136902791897
 20
224.6794584352627
 30
0.000000000000000
 40
0.9999999999999412
100
AcDbArc
 50
132.0123995099426
 51
179.9999999999997
  0
ARC
  5
8C
100
AcDbEntity
  8
A1
  6
CONTINUOUS
 62
7
100
AcDbCircle
 10
62.76136902791906
 20
224.6794584352627
 30
0.000000000000000
 40
1.000000000000000
100
AcDbArc
 50
90.00000000000000
 51
132.0123995099457
  0
ARC
  5
8D
100
AcDbEntity
  8
A1
  6
CONTINUOUS
 62
7
100
AcDbCircle
 10
92.76136902791906
 20
224.6794584352627
 30
0.000000000000000
 40
1.000000000000000
100
AcDbArc
 50
47.98760049004963
 51
90.00000000000000
  0
LINE
  5
8E
100
AcDbEntity
  8
A1
  6
CONTINUOUS
 62
7
100
AcDbLine
 10
61.76136902791907
 20
223.4505758655197
 30
0.000000000000000
 11
61.76136902791907
 21
221.6794584352628
 31
0.000000000000000
  0
LINE
  5
8F
100
AcDbEntity
  8
A1
  6
CONTINUOUS
 62
7
100
AcDbLine
 10
59.76136902791907
 20
223.4044584352629
 30
0.000000000000000
 11
59.76136902791907
 21
221.6794584352628
 31
0.000000000000000
  0
LINE
  5
90
100
AcDbEntity
  8
A1
  6
CONTINUOUS
 62
7
100
AcDbLine
 10
61.76136902791907
 20
221.6794584352628
 30
0.000000000000000
 11
59.76136902791907
 21
221.6794584352628
 31
0.000000000000000
  0
LINE
  5
91
100
AcDbEntity
  8
A1
  6
CONTINUOUS
 62
7
100
AcDbLine
 10
93.76136902791907
 20
221.6794584352626
 30
0.000000000000000
 11
93.76136902791907
 21
223.4505758655197
 31
0.000000000000000
  0
LINE
  5
92
100
AcDbEntity
  8
A1
  6
CONTINUOUS
 62
7
100
AcDbLine
 10
95.76136902791907
 20
221.6794584352626
 30
0.000000000000000
 11
95.76136902791907
 21
223.4044584352629
 31
0.000000000000000
  0
LINE
  5
93
100
AcDbEntity
  8
A1
  6
CONTINUOUS
 62
7
100
AcDbLine
 10
95.76136902791907
 20
221.6794584352626
 30
0.000000000000000
 11
93.76136902791907
 21
221.6794584352626
 31
0.000000000000000
  0
LINE
  5
94
100
AcDbEntity
  8
A1
  6
CONTINUOUS
 62
7
100
AcDbLine
 10
93.76136902791907
 20
224.6794584352627
 30
0.000000000000000
 11
93.76136902791907
 21
223.4505758655197
 31
0.000000000000000
  0
LINE
  5
95
100
AcDbEntity
  8
A1
  6
CONTINUOUS
 62
7
100
AcDbLine
 10
59.76136902791907
 20
223.4044584352629
 30
0.000000000000000
 11
59.76136902791907
 21
238.9095772932457
 31
0.000000000000000
  0
LINE
  5
96
100
AcDbEntity
  8
A1
  6
CONTINUOUS
 62
7
100
AcDbLine
 10
95.76136902791907
 20
238.9095772932457
 30
0.000000000000000
 11
95.76136902791907
 21
223.4044584352629
 31
0.000000000000000
  0
LINE
  5
97
100
AcDbEntity
  8
A1
  6
CONTINUOUS
 62
7
100
AcDbLine
 10
95.73325159766210
 20
223.4505758655197
 30
0.000000000000000
 11
93.76136902791899
 21
225.4224584352627
 31
0.000000000000000
  0
LINE
  5
98
100
AcDbEntity
  8
A1
  6
CONTINUOUS
 62
7
100
AcDbLine
 10
61.76136902791914
 20
225.4224584352628
 30
0.000000000000000
 11
59.78948645817589
 21
223.4505758655197
 31
0.000000000000000
  0
LINE
  5
99
100
AcDbEntity
  8
A1
  6
CONTINUOUS
 62
7
100
AcDbLine
 10
61.76136902791907
 20
224.6794584352627
 30
0.000000000000000
 11
61.76136902791907
 21
223.4505758655197
 31
0.000000000000000
  0
LINE
  5
9A
100
AcDbEntity
  8
A1
  6
CONTINUOUS
 62
7
100
AcDbLine
 10
92.76136902791907
 20
252.6794584352628
 30
0.000000000000000
 11
92.76136902791907
 21
240.7509896962197
 31
0.000000000000000
  0
LINE
  5
9B
100
AcDbEntity
  8
A1
  6
CONTINUOUS
 62
7
100
AcDbLine
 10
62.76136902791907
 20
240.7509896962197
 30
0.000000000000000
 11
62.76136902791907
 21
252.6794584352627
 31
0.000000000000000
  0
LINE
  5
9C
100
AcDbEntity
  8
A1
  6
CONTINUOUS
 62
7
100
AcDbLine
 10
62.09207761156887
 20
225.4224584352627
 30
0.000000000000000
 11
61.76136902791907
 21
225.4224584352627
 31
0.000000000000000
  0
LINE
  5
9D
100
AcDbEntity
  8
A1
  6
CONTINUOUS
 62
7
100
AcDbLine
 10
92.76136902791907
 20
225.6794584352627
 30
0.000000000000000
 11
62.76136902791907
 21
225.6794584352627
 31
0.000000000000000
  0
LINE
  5
9E
100
AcDbEntity
  8
A1
  6
CONTINUOUS
 62
7
100
AcDbLine
 10
93.76136902791907
 20
225.4224584352627
 30
0.000000000000000
 11
93.43066044426936
 21
225.4224584352627
 31
0.000000000000000
  0
LINE
  5
9F
100
AcDbEntity
  8
A1
  6
CONTINUOUS
 62
7
100
AcDbLine
 10
62.76136902791907
 20
255.4440327083694
 30
0.000000000000000
 11
62.76136902791907
 21
252.6794584352627
 31
0.000000000000000
  0
LINE
  5
A0
100
AcDbEntity
  8
A1
  6
CONTINUOUS
 62
7
100
AcDbLine
 10
62.76136902791908
 20
252.6794584352627
 30
0.000000000000000
 11
92.76136902791912
 21
252.6794584352628
 31
0.000000000000000
  0
LINE
  5
A1
100
AcDbEntity
  8
A1
  6
CONTINUOUS
 62
7
100
AcDbLine
 10
92.76136902791887
 20
255.4440327083635
 30
0.000000000000000
 11
92.76136902791909
 21
252.6794584352627
 31
0.000000000000000
  0
LINE
  5
A2
100
AcDbEntity
  8
A1
  6
CONTINUOUS
 62
7
100
AcDbLine
 10
62.76136902791887
 20
257.2331611637550
 30
0.000000000000000
 11
62.76136902791907
 21
255.4440327083694
 31
0.000000000000000
  0
LINE
  5
A3
100
AcDbEntity
  8
A1
  6
CONTINUOUS
 62
7
100
AcDbLine
 10
92.76136902791887
 20
257.2331611637594
 30
0.000000000000000
 11
92.76136902791887
 21
255.4440327083635
 31
0.000000000000000
  0
LINE
  5
A4
100
AcDbEntity
  8
A1
  6
CONTINUOUS
 62
7
100
AcDbLine
 10
67.70777977187358
 20
259.4694584352624
 30
0.000000000000000
 11
87.81495828396420
 21
259.4694584352629
 31
0.000000000000000
  0
LINE
  5
A5
100
AcDbEntity
  8
A1
  6
CONTINUOUS
 62
7
100
AcDbLine
 10
67.76136902791878
 20
257.6804584352896
 30
0.000000000000000
 11
87.76136902791889
 21
257.6804584352743
 31
0.000000000000000
  0
ARC
  5
A6
100
AcDbEntity
  8
A1
  6
CONTINUOUS
 62
7
100
AcDbCircle
 10
59.51136902791906
 20
237.6794584352626
 30
0.000000000000000
 40
2.000000000000000
100
AcDbArc
 50
89.99999999999930
 51
179.9999999999968
  0
ARC
  5
A7
100
AcDbEntity
  8
A1
  6
CONTINUOUS
 62
7
100
AcDbCircle
 10
96.01136902791906
 20
237.6794584352625
 30
0.000000000000000
 40
2.000000000000000
100
AcDbArc
 50
3.155110244011809e-12
 51
90.00000000000000
  0
LINE
  5
A8
100
AcDbEntity
  8
A1
  6
CONTINUOUS
 62
7
100
AcDbLine
 10
98.01136902791907
 20
225.4756302464391
 30
0.000000000000000
 11
98.01136902791907
 21
221.6794584352626
 31
0.000000000000000
  0
LINE
  5
A9
100
AcDbEntity
  8
A1
  6
CONTINUOUS
 62
7
100
AcDbLine
 10
96.01136902791907
 20
225.4756302464390
 30
0.000000000000000
 11
96.01136902791907
 21
221.6794584352626
 31
0.000000000000000
  0
LINE
  5
AA
100
AcDbEntity
  8
A1
  6
CONTINUOUS
 62
7
100
AcDbLine
 10
96.01136902791907
 20
221.6794584352626
 30
0.000000000000000
 11
98.01136902791907
 21
221.6794584352626
 31
0.000000000000000
  0
LINE
  5
AB
100
AcDbEntity
  8
A1
  6
CONTINUOUS
 62
7
100
AcDbLine
 10
57.51136902791907
 20
225.4756302464391
 30
0.000000000000000
 11
57.51136902791907
 21
221.6794584352626
 31
0.000000000000000
  0
LINE
  5
AC
100
AcDbEntity
  8
A1
  6
CONTINUOUS
 62
7
100
AcDbLine
 10
57.51136902791907
 20
221.6794584352626
 30
0.000000000000000
 11
59.51136902791907
 21
221.6794584352626
 31
0.000000000000000
  0
LINE
  5
AD
100
AcDbEntity
  8
A1
  6
CONTINUOUS
 62
7
100
AcDbLine
 10
59.51136902791907
 20
221.6794584352626
 30
0.000000000000000
 11
59.51136902791907
 21
225.4756302464390
 31
0.000000000000000
  0
LINE
  5
AE
100
AcDbEntity
  8
A1
  6
CONTINUOUS
 62
7
100
AcDbLine
 10
98.01136902791907
 20
225.4756302464391
 30
0.000000000000000
 11
98.01136902791907
 21
230.3626285946198
 31
0.000000000000000
  0
LINE
  5
AF
100
AcDbEntity
  8
A1
  6
CONTINUOUS
 62
7
100
AcDbLine
 10
96.01136902791907
 20
225.4756302464391
 30
0.000000000000000
 11
96.01136902791907
 21
230.3626285946198
 31
0.000000000000000
  0
LINE
  5
B0
100
AcDbEntity
  8
A1
  6
CONTINUOUS
 62
7
100
AcDbLine
 10
57.51136902791907
 20
225.4756302464391
 30
0.000000000000000
 11
57.51136902791907
 21
230.3626285946198
 31
0.000000000000000
  0
LINE
  5
B1
100
AcDbEntity
  8
A1
  6
CONTINUOUS
 62
7
100
AcDbLine
 10
59.51136902791907
 20
230.3626285946198
 30
0.000000000000000
 11
59.51136902791907
 21
225.4756302464391
 31
0.000000000000000
  0
LINE
  5
B2
100
AcDbEntity
  8
A1
  6
CONTINUOUS
 62
7
100
AcDbLine
 10
98.01136902791907
 20
230.5963301700340
 30
0.000000000000000
 11
98.01136902791907
 21
230.3626285946198
 31
0.000000000000000
  0
LINE
  5
B3
100
AcDbEntity
  8
A1
  6
CONTINUOUS
 62
7
100
AcDbLine
 10
96.01136902791907
 20
230.5963301700340
 30
0.000000000000000
 11
96.01136902791907
 21
230.3626285946198
 31
0.000000000000000
  0
LINE
  5
B4
100
AcDbEntity
  8
A1
  6
CONTINUOUS
 62
7
100
AcDbLine
 10
57.51136902791907
 20
230.5963301700340
 30
0.000000000000000
 11
57.51136902791907
 21
230.3626285946198
 31
0.000000000000000
  0
LINE
  5
B5
100
AcDbEntity
  8
A1
  6
CONTINUOUS
 62
7
100
AcDbLine
 10
59.51136902791907
 20
230.3626285946198
 30
0.000000000000000
 11
59.51136902791907
 21
230.5963301700340
 31
0.000000000000000
  0
LINE
  5
B6
100
AcDbEntity
  8
A1
  6
CONTINUOUS
 62
7
100
AcDbLine
 10
98.01136902791907
 20
235.2623116586190
 30
0.000000000000000
 11
98.01136902791907
 21
234.1794584352626
 31
0.000000000000000
  0
LINE
  5
B7
100
AcDbEntity
  8
A1
  6
CONTINUOUS
 62
7
100
AcDbLine
 10
98.01136902791907
 20
231.1783977442115
 30
0.000000000000000
 11
98.01136902791907
 21
230.5963301700340
 31
0.000000000000000
  0
LINE
  5
B8
100
AcDbEntity
  8
A1
  6
CONTINUOUS
 62
7
100
AcDbLine
 10
96.01136902791907
 20
235.2623116586190
 30
0.000000000000000
 11
96.01136902791907
 21
234.1794584352626
 31
0.000000000000000
  0
LINE
  5
B9
100
AcDbEntity
  8
A1
  6
CONTINUOUS
 62
7
100
AcDbLine
 10
96.01136902791907
 20
231.1783977442115
 30
0.000000000000000
 11
96.01136902791907
 21
230.5963301700340
 31
0.000000000000000
  0
LINE
  5
BA
100
AcDbEntity
  8
A1
  6
CONTINUOUS
 62
7
100
AcDbLine
 10
98.01136902791907
 20
230.5963301700340
 30
0.000000000000000
 11
96.01136902791907
 21
230.5963301700340
 31
0.000000000000000
  0
LINE
  5
BB
100
AcDbEntity
  8
A1
  6
CONTINUOUS
 62
7
100
AcDbLine
 10
57.51136902791907
 20
235.2623116586190
 30
0.000000000000000
 11
57.51136902791907
 21
234.1794584352626
 31
0.000000000000000
  0
LINE
  5
BC
100
AcDbEntity
  8
A1
  6
CONTINUOUS
 62
7
100
AcDbLine
 10
57.51136902791907
 20
231.1783977442115
 30
0.000000000000000
 11
57.51136902791907
 21
230.5963301700340
 31
0.000000000000000
  0
LINE
  5
BD
100
AcDbEntity
  8
A1
  6
CONTINUOUS
 62
7
100
AcDbLine
 10
59.51136902791907
 20
230.5963301700340
 30
0.000000000000000
 11
57.51136902791907
 21
230.5963301700340
 31
0.000000000000000
  0
LINE
  5
BE
100
AcDbEntity
  8
A1
  6
CONTINUOUS
 62
7
100
AcDbLine
 10
59.51136902791907
 20
230.5963301700340
 30
0.000000000000000
 11
59.51136902791907
 21
231.1783977442115
 31
0.000000000000000
  0
LINE
  5
BF
100
AcDbEntity
  8
A1
  6
CONTINUOUS
 62
7
100
AcDbLine
 10
59.51136902791907
 20
234.1794584352626
 30
0.000000000000000
 11
59.51136902791907
 21
235.2623116586190
 31
0.000000000000000
  0
LINE
  5
C0
100
AcDbEntity
  8
A1
  6
CONTINUOUS
 62
7
100
AcDbLine
 10
98.01136902791907
 20
235.3888507189915
 30
0.000000000000000
 11
98.01136902791907
 21
235.2623116586190
 31
0.000000000000000
  0
LINE
  5
C1
100
AcDbEntity
  8
A1
  6
CONTINUOUS
 62
7
100
AcDbLine
 10
96.01136902791907
 20
235.3888507189915
 30
0.000000000000000
 11
96.01136902791907
 21
235.2623116586190
 31
0.000000000000000
  0
LINE
  5
C2
100
AcDbEntity
  8
A1
  6
CONTINUOUS
 62
7
100
AcDbLine
 10
96.01136902791907
 20
235.2623116586190
 30
0.000000000000000
 11
98.01136902791907
 21
235.2623116586190
 31
0.000000000000000
  0
LINE
  5
C3
100
AcDbEntity
  8
A1
  6
CONTINUOUS
 62
7
100
AcDbLine
 10
57.51136902791907
 20
235.3888507189915
 30
0.000000000000000
 11
57.51136902791907
 21
235.2623116586190
 31
0.000000000000000
  0
LINE
  5
C4
100
AcDbEntity
  8
A1
  6
CONTINUOUS
 62
7
100
AcDbLine
 10
57.51136902791907
 20
235.2623116586190
 30
0.000000000000000
 11
59.51136902791907
 21
235.2623116586190
 31
0.000000000000000
  0
LINE
  5
C5
100
AcDbEntity
  8
A1
  6
CONTINUOUS
 62
7
100
AcDbLine
 10
59.51136902791907
 20
235.2623116586190
 30
0.000000000000000
 11
59.51136902791907
 21
235.3888507189915
 31
0.000000000000000
  0
LINE
  5
C6
100
AcDbEntity
  8
A1
  6
CONTINUOUS
 62
7
100
AcDbLine
 10
98.01136902791907
 20
235.3888507189915
 30
0.000000000000000
 11
98.01136902791907
 21
237.6794584352627
 31
0.000000000000000
  0
LINE
  5
C7
100
AcDbEntity
  8
A1
  6
CONTINUOUS
 62
7
100
AcDbLine
 10
96.01136902791907
 20
235.3888507189915
 30
0.000000000000000
 11
96.01136902791907
 21
237.6794584352627
 31
0.000000000000000
  0
LINE
  5
C8
100
AcDbEntity
  8
A1
  6
CONTINUOUS
 62
7
100
AcDbLine
 10
61.76136902791907
 20
239.6794584352626
 30
0.000000000000000
 11
59.51136902791907
 21
239.6794584352626
 31
0.000000000000000
  0
LINE
  5
C9
100
AcDbEntity
  8
A1
  6
CONTINUOUS
 62
7
100
AcDbLine
 10
96.01136902791907
 20
239.6794584352626
 30
0.000000000000000
 11
93.76136902791907
 21
239.6794584352626
 31
0.000000000000000
  0
LINE
  5
CA
100
AcDbEntity
  8
A1
  6
CONTINUOUS
 62
7
100
AcDbLine
 10
59.76136902791907
 20
237.6794584352627
 30
0.000000000000000
 11
59.51136902791907
 21
237.6794584352627
 31
0.000000000000000
  0
LINE
  5
CB
100
AcDbEntity
  8
A1
  6
CONTINUOUS
 62
7
100
AcDbLine
 10
96.01136902791907
 20
237.6794584352627
 30
0.000000000000000
 11
95.76136902791907
 21
237.6794584352627
 31
0.000000000000000
  0
LINE
  5
CC
100
AcDbEntity
  8
A1
  6
CONTINUOUS
 62
7
100
AcDbLine
 10
57.51136902791907
 20
235.3888507189915
 30
0.000000000000000
 11
57.51136902791907
 21
237.6794584352627
 31
0.000000000000000
  0
LINE
  5
CD
100
AcDbEntity
  8
A1
  6
CONTINUOUS
 62
7
100
AcDbLine
 10
59.51136902791907
 20
237.6794584352627
 30
0.000000000000000
 11
59.51136902791907
 21
235.3888507189915
 31
0.000000000000000
  0
ARC
  5
CE
100
AcDbEntity
  8
A1
  6
CONTINUOUS
 62
7
100
AcDbCircle
 10
56.51136902791897
 20
223.6794584352627
 30
0.000000000000000
 40
1.000000000000114
100
AcDbArc
 50
180.0000000000000
 51
360.0000000000000
  0
LINE
  5
CF
100
AcDbEntity
  8
A1
  6
CONTINUOUS
 62
7
100
AcDbLine
 10
100.1613690279192
 20
225.6544584352629
 30
0.000000000000000
 11
100.2113690279192
 21
225.6544584352629
 31
0.000000000000000
  0
LINE
  5
D0
100
AcDbEntity
  8
A1
  6
CONTINUOUS
 62
7
100
AcDbLine
 10
99.51136902791907
 20
225.6544584352629
 30
0.000000000000000
 11
99.56136302791938
 21
225.6544584352629
 31
0.000000000000000
  0
LINE
  5
D1
100
AcDbEntity
  8
A1
  6
CONTINUOUS
 62
7
100
AcDbLine
 10
99.56136302791938
 20
229.7044584352628
 30
0.000000000000000
 11
99.51136902791907
 21
229.7044584352628
 31
0.000000000000000
  0
LINE
  5
D2
100
AcDbEntity
  8
A1
  6
CONTINUOUS
 62
7
100
AcDbLine
 10
100.2113690279192
 20
229.7044584352628
 30
0.000000000000000
 11
100.1613690279192
 21
229.7044584352628
 31
0.000000000000000
  0
LINE
  5
D3
100
AcDbEntity
  8
A1
  6
CONTINUOUS
 62
7
100
AcDbLine
 10
99.51136902791907
 20
230.1794584352628
 30
0.000000000000000
 11
99.51136902791907
 21
225.1794584352628
 31
0.000000000000000
  0
LINE
  5
D4
100
AcDbEntity
  8
A1
  6
CONTINUOUS
 62
7
100
AcDbLine
 10
98.01136902791907
 20
225.1794584352628
 30
0.000000000000000
 11
99.51136902791907
 21
225.1794584352628
 31
0.000000000000000
  0
LINE
  5
D5
100
AcDbEntity
  8
A1
  6
CONTINUOUS
 62
7
100
AcDbLine
 10
95.76136902791907
 20
225.1794584352628
 30
0.000000000000000
 11
96.01136902791907
 21
225.1794584352628
 31
0.000000000000000
  0
LINE
  5
D6
100
AcDbEntity
  8
A1
  6
CONTINUOUS
 62
7
100
AcDbLine
 10
61.89897777916936
 20
225.1794584352627
 30
0.000000000000000
 11
93.62715876928347
 21
225.1794584352628
 31
0.000000000000000
  0
LINE
  5
D7
100
AcDbEntity
  8
A1
  6
CONTINUOUS
 62
7
100
AcDbLine
 10
59.51136902791907
 20
225.1794584352627
 30
0.000000000000000
 11
59.76136902791907
 21
225.1794584352627
 31
0.000000000000000
  0
LINE
  5
D8
100
AcDbEntity
  8
A1
  6
CONTINUOUS
 62
7
100
AcDbLine
 10
59.76136902791907
 20
230.1794584352627
 30
0.000000000000000
 11
59.51136902791907
 21
230.1794584352627
 31
0.000000000000000
  0
LINE
  5
D9
100
AcDbEntity
  8
A1
  6
CONTINUOUS
 62
7
100
AcDbLine
 10
96.01136902791907
 20
230.1794584352628
 30
0.000000000000000
 11
95.76136902791907
 21
230.1794584352628
 31
0.000000000000000
  0
LINE
  5
DA
100
AcDbEntity
  8
A1
  6
CONTINUOUS
 62
7
100
AcDbLine
 10
99.51136902791907
 20
230.1794584352628
 30
0.000000000000000
 11
98.01136902791907
 21
230.1794584352628
 31
0.000000000000000
  0
LINE
  5
DB
100
AcDbEntity
  8
A1
  6
CONTINUOUS
 62
7
100
AcDbLine
 10
102.5113690279191
 20
229.6794584352628
 30
0.000000000000000
 11
102.5113690279191
 21
225.6794584352628
 31
0.000000000000000
  0
LINE
  5
DC
100
AcDbEntity
  8
A1
  6
CONTINUOUS
 62
7
100
AcDbLine
 10
102.5113690279190
 20
229.6794584352628
 30
0.000000000000000
 11
102.0113690279191
 21
230.1794584352628
 31
0.000000000000000
  0
LINE
  5
DD
100
AcDbEntity
  8
A1
  6
CONTINUOUS
 62
7
100
AcDbLine
 10
102.0113690279191
 20
225.1794584352627
 30
0.000000000000000
 11
102.5113690279191
 21
225.6794584352628
 31
0.000000000000000
  0
LINE
  5
DE
100
AcDbEntity
  8
A1
  6
CONTINUOUS
 62
7
100
AcDbLine
 10
100.2113690279192
 20
230.1794584352628
 30
0.000000000000000
 11
100.2113690279192
 21
225.1794584352628
 31
0.000000000000000
  0
LINE
  5
DF
100
AcDbEntity
  8
A1
  6
CONTINUOUS
 62
7
100
AcDbLine
 10
102.0113690279192
 20
230.1794584352628
 30
0.000000000000000
 11
102.0113690279192
 21
225.1794584352628
 31
0.000000000000000
  0
LINE
  5
E0
100
AcDbEntity
  8
A1
  6
CONTINUOUS
 62
7
100
AcDbLine
 10
100.2113690279192
 20
225.1794584352628
 30
0.000000000000000
 11
102.0113690279192
 21
225.1794584352628
 31
0.000000000000000
  0
LINE
  5
E1
100
AcDbEntity
  8
A1
  6
CONTINUOUS
 62
7
100
AcDbLine
 10
102.0113690279192
 20
230.1794584352628
 30
0.000000000000000
 11
100.2113690279192
 21
230.1794584352628
 31
0.000000000000000
  0
LINE
  5
E2
100
AcDbEntity
  8
A1
  6
CONTINUOUS
 62
7
100
AcDbLine
 10
55.51136902791885
 20
231.1836776484954
 30
0.000000000000000
 11
55.51136902791885
 21
223.6794584362939
 31
0.000000000000000
  0
SPLINE
  5
E3
100
AcDbEntity
  8
A1
  6
CONTINUOUS
 62
7
100
AcDbSpline
210
0.000000000000000
220
0.000000000000000
230
1.000000000000000
 70
     8
 71
     3
 72
    91
 73
    87
 74
     0
 42
1.000000000000000e-07
 43
1.000000000000000e-07
 12
-0.9999999999965894
 22
2.254149421787588e-06
 32
0.000000000000000
 13
0.9999392164301071
 23
-0.01102558150523691
 33
0.000000000000000
 40
0.000000000000000
 40
0.000000000000000
 40
0.000000000000000
 40
0.000000000000000
 40
0.2285642137727373
 40
0.6624703022761123
 40
1.095317846225269
 40
1.526404181042479
 40
1.955055002225125
 40
2.380603230034810
 40
2.802391327434336
 40
3.219773726243506
 40
3.632119400290814
 40
4.038814637457654
 40
4.439266077743316
 40
4.832904106032825
 40
5.219186718891176
 40
5.597604028720743
 40
5.967683632699891
 40
6.328997168769985
 40
6.681168523986896
 40
7.023884380880783
 40
7.356908134785998
 40
7.680098776604082
 40
7.993437268144797
 40
8.297064530666866
 40
8.591337964958573
 40
8.876918439508641
 40
9.154908695833033
 40
9.427079243714463
 40
9.696234279090065
 40
9.966718515211509
 40
10.24441032660362
 40
10.47882121355106
 40
10.68029088717363
 40
10.86117417029714
 40
11.02971252562607
 40
11.19123537577129
 40
11.34935978225476
 40
11.50654276069151
 40
11.66438165607239
 40
11.82379823698767
 40
11.98517999737061
 40
12.16633323632962
 40
12.34751185222373
 40
12.52754844404318
 40
12.70577673928167
 40
12.88163163367725
 40
13.05453085878577
 40
13.22410655017376
 40
13.39017820756725
 40
13.55272610610076
 40
13.71196983052964
 40
13.86847270757235
 40
14.02325478652632
 40
14.17790959038168
 40
14.33474810756832
 40
14.49702532469786
 40
14.66932835756400
 40
14.85818088952419
 40
15.07256113656427
 40
15.32193995857263
 40
15.60499898485327
 40
15.89721183740094
 40
16.18817980582886
 40
16.48044712684443
 40
16.77717464885513
 40
17.08048787795692
 40
17.39168628875614
 40
17.71152617402738
 40
18.04040494240733
 40
18.37847387343202
 40
18.72570844401956
 40
19.08195378261351
 40
19.44695517561679
 40
19.82037929631872
 40
20.20182948937656
 40
20.59085713372016
 40
20.98697035030667
 40
21.38964087073628
 40
21.79830960650539
 40
22.21239128455912
 40
22.63127840230988
 40
23.05434468096946
 40
23.48094814597872
 40
23.91043392904438
 40
24.34213686261391
 40
24.59144738613661
 40
24.59144738613661
 40
24.59144738613661
 40
24.59144738613661
 10
56.26136902792793
 20
234.1794584352626
 30
0.000000000000000
 10
56.18518095667061
 20
234.1794586070019
 30
0.000000000000000
 10
55.96435743821606
 20
234.1790869724003
 30
0.000000000000000
 10
55.59925663609864
 20
234.1767000728383
 30
0.000000000000000
 10
55.16667659523297
 20
234.1711040268635
 30
0.000000000000000
 10
54.73589288915129
 20
234.1627557251827
 30
0.000000000000000
 10
54.30760493268185
 20
234.1516651908435
 30
0.000000000000000
 10
53.88249729619169
 20
234.1378457626301
 30
0.000000000000000
 10
53.46124542972076
 20
234.1213133329335
 30
0.000000000000000
 10
53.04451331318025
 20
234.1020862002368
 30
0.000000000000000
 10
52.63295102828717
 20
234.0801846087616
 30
0.000000000000000
 10
52.22719214399736
 20
234.0556302206849
 30
0.000000000000000
 10
51.82785087321419
 20
234.0284454172676
 30
0.000000000000000
 10
51.43551891836093
 20
233.9986524023929
 30
0.000000000000000
 10
51.05076190207321
 20
233.9662720398813
 30
0.000000000000000
 10
50.67411523910415
 20
233.9313223355205
 30
0.000000000000000
 10
50.30607924962193
 20
233.8938164334801
 30
0.000000000000000
 10
49.94711323067794
 20
233.8537599372328
 30
0.000000000000000
 10
49.59762807705927
 20
233.8111472722150
 30
0.000000000000000
 10
49.25797684943849
 20
233.7659566605990
 30
0.000000000000000
 10
48.92844238310848
 20
233.7181430398011
 30
0.000000000000000
 10
48.60922053955967
 20
233.6676278573526
 30
0.000000000000000
 10
48.30039688799879
 20
233.6142839858942
 30
0.000000000000000
 10
48.00191323062565
 20
233.5579127735312
 30
0.000000000000000
 10
47.71351798564525
 20
233.4982079645277
 30
0.000000000000000
 10
47.43469042792448
 20
233.4346968718174
 30
0.000000000000000
 10
47.16452200710718
 20
233.3666405587806
 30
0.000000000000000
 10
46.90153236871346
 20
233.2928584636829
 30
0.000000000000000
 10
46.64341576928383
 20
233.2114175008965
 30
0.000000000000000
 10
46.38697738606096
 20
233.1191567483321
 30
0.000000000000000
 10
46.14619144283053
 20
233.0184032785897
 30
0.000000000000000
 10
45.93264147968758
 20
232.9133027067039
 30
0.000000000000000
 10
45.75422650716679
 20
232.8108679555405
 30
0.000000000000000
 10
45.60121626165939
 20
232.7090948558273
 30
0.000000000000000
 10
45.46604810696898
 20
232.6052532563932
 30
0.000000000000000
 10
45.34425279447193
 20
232.4971205239227
 30
0.000000000000000
 10
45.23343706898505
 20
232.3829661118679
 30
0.000000000000000
 10
45.13258886033135
 20
232.2614914865595
 30
0.000000000000000
 10
45.04167913931475
 20
232.1318649753327
 30
0.000000000000000
 10
44.96136648107667
 20
231.9937755665628
 30
0.000000000000000
 10
44.89021277132515
 20
231.8420991671665
 30
0.000000000000000
 10
44.83147075694343
 20
231.6773767995770
 30
0.000000000000000
 10
44.78855307067927
 20
231.5014211986052
 30
0.000000000000000
 10
44.76427528052456
 20
231.3229246827744
 30
0.000000000000000
 10
44.75867564626266
 20
231.1446552058563
 30
0.000000000000000
 10
44.77121033976768
 20
230.9691368589093
 30
0.000000000000000
 10
44.80085783471510
 20
230.7986319282697
 30
0.000000000000000
 10
44.84623008661727
 20
230.6350256308378
 30
0.000000000000000
 10
44.90572604059618
 20
230.4797241002597
 30
0.000000000000000
 10
44.97767979692880
 20
230.3336431385640
 30
0.000000000000000
 10
45.06052015115075
 20
230.1971937494471
 30
0.000000000000000
 10
45.15295822147745
 20
230.0702701220816
 30
0.000000000000000
 10
45.25418757671800
 20
229.9522743319554
 30
0.000000000000000
 10
45.36408775801398
 20
229.8421737187323
 30
0.000000000000000
 10
45.48344406221078
 20
229.7385690250763
 30
0.000000000000000
 10
45.61423065168709
 20
229.6397450634229
 30
0.000000000000000
 10
45.76002663969957
 20
229.5436930298421
 30
0.000000000000000
 10
45.92653739417064
 20
229.4481775115727
 30
0.000000000000000
 10
46.12142384739145
 20
229.3512526167254
 30
0.000000000000000
 10
46.35034444611451
 20
229.2531290129801
 30
0.000000000000000
 10
46.60837574650465
 20
229.1580437570648
 30
0.000000000000000
 10
46.88349061582797
 20
229.0701298510627
 30
0.000000000000000
 10
47.16444502392825
 20
228.9910811526642
 30
0.000000000000000
 10
47.44896969316837
 20
228.9196553061474
 30
0.000000000000000
 10
47.73910581815666
 20
228.8540576057854
 30
0.000000000000000
 10
48.03668412811943
 20
228.7930670131041
 30
0.000000000000000
 10
48.34286199323221
 20
228.7359234030006
 30
0.000000000000000
 10
48.65829547740096
 20
228.6821507038555
 30
0.000000000000000
 10
48.98330307969987
 20
228.6314462269328
 30
0.000000000000000
 10
49.31797171070328
 20
228.5836164230762
 30
0.000000000000000
 10
49.66222323075125
 20
228.5385386723233
 30
0.000000000000000
 10
50.01585729404697
 20
228.4961376522557
 30
0.000000000000000
 10
50.37857995188126
 20
228.4563701554564
 30
0.000000000000000
 10
50.75002346943127
 20
228.4192149997535
 30
0.000000000000000
 10
51.12976055170704
 20
228.3846661225024
 30
0.000000000000000
 10
51.51731490507287
 20
228.3527277318834
 30
0.000000000000000
 10
51.91216933180898
 20
228.3234108264794
 30
0.000000000000000
 10
52.31377212412788
 20
228.2967306482645
 30
0.000000000000000
 10
52.72154226199224
 20
228.2727047900818
 30
0.000000000000000
 10
53.13487375343807
 20
228.2513517620512
 30
0.000000000000000
 10
53.55313935561857
 20
228.2326899247919
 30
0.000000000000000
 10
53.97569382609727
 20
228.2167365723649
 30
0.000000000000000
 10
54.40187688051118
 20
228.2035075966929
 30
0.000000000000000
 10
54.83101572431157
 20
228.1930158278691
 30
0.000000000000000
 10
55.20112528652420
 20
228.1863749925524
 30
0.000000000000000
 10
55.42811142454327
 20
228.1834485546217
 30
0.000000000000000
 10
55.51120988105630
 20
228.1825322901226
 30
0.000000000000000
  0
SPLINE
  5
E4
100
AcDbEntity
  8
A1
  6
CONTINUOUS
 62
7
100
AcDbSpline
210
0.000000000000000
220
0.000000000000000
230
1.000000000000000
 70
     8
 71
     3
 72
    41
 73
    37
 74
     0
 42
1.000000000000000e-07
 43
1.000000000000000e-07
 12
0.5317903578579717
 22
0.3188075682046474
 32
0.000000000000000
 13
0.9709493379485821
 23
-6.905742338858545e-06
 33
0.000000000000000
 40
0.000000000000000
 40
0.000000000000000
 40
0.000000000000000
 40
0.000000000000000
 40
0.01460029509792947
 40
0.04061018021613039
 40
0.08421474385996974
 40
0.1461907022307019
 40
0.2271821356758539
 40
0.3276108240519488
 40
0.4476724824580586
 40
0.5873325281636338
 40
0.7463560244102512
 40
0.9243432145090331
 40
1.120769602149357
 40
1.335021625891606
 40
1.566425919428265
 40
1.814271072007741
 40
2.077822715416404
 40
2.356333227752724
 40
2.649047492334289
 40
2.955205955772951
 40
3.274045961359410
 40
3.604802062668207
 40
3.946705798470987
 40
4.298985240471413
 40
4.660864505315645
 40
5.031563341088141
 40
5.410296845628548
 40
5.796275340836155
 40
6.188704406926431
 40
6.586785069539707
 40
6.989714124485669
 40
7.396684589172782
 40
7.806886241246465
 40
8.219506309140110
 40
8.622088744060576
 40
9.013826470903240
 40
9.013826470903240
 40
9.013826470903240
 40
9.013826470903240
 10
47.33188390852298
 20
230.2567385337078
 30
0.000000000000000
 10
47.33447200724130
 20
230.2582900952329
 30
0.000000000000000
 10
47.34465045249603
 20
230.2638181395569
 30
0.000000000000000
 10
47.36787083433457
 20
230.2755368421786
 30
0.000000000000000
 10
47.40755538773927
 20
230.2936059924531
 30
0.000000000000000
 10
47.46480719695593
 20
230.3173388759143
 30
0.000000000000000
 10
47.54059873481607
 20
230.3458915479486
 30
0.000000000000000
 10
47.63558453191480
 20
230.3785047323756
 30
0.000000000000000
 10
47.75015091204024
 20
230.4144122018515
 30
0.000000000000000
 10
47.88440315584820
 20
230.4528993867191
 30
0.000000000000000
 10
48.03820868485037
 20
230.4933015105104
 30
0.000000000000000
 10
48.21123804550338
 20
230.5350181761403
 30
0.000000000000000
 10
48.40301222087096
 20
230.5775151339550
 30
0.000000000000000
 10
48.61294397850635
 20
230.6203238575257
 30
0.000000000000000
 10
48.84037205986478
 20
230.6630370273547
 30
0.000000000000000
 10
49.08458683695814
 20
230.7053024068794
 30
0.000000000000000
 10
49.34484842711630
 20
230.7468159399955
 30
0.000000000000000
 10
49.62039866553256
 20
230.7873149719663
 30
0.000000000000000
 10
49.91046852639018
 20
230.8265720288041
 30
0.000000000000000
 10
50.21428237178181
 20
230.8643893804233
 30
0.000000000000000
 10
50.53106012203757
 20
230.9005944367725
 30
0.000000000000000
 10
50.86001814627157
 20
230.9350359356519
 30
0.000000000000000
 10
51.20036942675127
 20
230.9675808343571
 30
0.000000000000000
 10
51.55132336283408
 20
230.9981118023098
 30
0.000000000000000
 10
51.91208544564849
 20
231.0265252133619
 30
0.000000000000000
 10
52.28185694235573
 20
231.0527295463228
 30
0.000000000000000
 10
52.65983466770275
 20
231.0766441151663
 30
0.000000000000000
 10
53.04521088138456
 20
231.0981980635517
 30
0.000000000000000
 10
53.43717332519385
 20
231.1173295704326
 30
0.000000000000000
 10
53.83490539978386
 20
231.1339852237957
 30
0.000000000000000
 10
54.23758647052183
 20
231.1481195291888
 30
0.000000000000000
 10
54.64439229475410
 20
231.1596945237201
 30
0.000000000000000
 10
55.05449553279074
 20
231.1686794842539
 30
0.000000000000000
 10
55.46706640952335
 20
231.1750506772866
 30
0.000000000000000
 10
55.86963242925300
 20
231.1786861505081
 30
0.000000000000000
 10
56.13458319908547
 20
231.1794593370092
 30
0.000000000000000
 10
56.26136902792793
 20
231.1794584352626
 30
0.000000000000000
  0
SPLINE
  5
E5
100
AcDbEntity
  8
A1
  6
CONTINUOUS
 62
7
100
AcDbSpline
210
0.000000000000000
220
0.000000000000000
230
1.000000000000000
 70
     8
 71
     3
 72
    85
 73
    81
 74
     0
 42
1.000000000000000e-07
 43
1.000000000000000e-07
 12
0.9987451399450720
 22
0.05008138812877405
 32
0.000000000000000
 13
-1.000000000000000
 23
-8.737224561627954e-07
 33
0.000000000000000
 40
0.000000000000000
 40
0.000000000000000
 40
0.000000000000000
 40
0.000000000000000
 40
0.3806151096293795
 40
0.7873103493550480
 40
1.187761791708682
 40
1.581399821928727
 40
1.967682436644540
 40
2.346099748277658
 40
2.716179354013011
 40
3.077492891794589
 40
3.429664248678392
 40
3.772380107194324
 40
4.105403862676476
 40
4.428594506025394
 40
4.741932999050389
 40
5.045560263009790
 40
5.339833698691775
 40
5.625414174584916
 40
5.903404432205243
 40
6.175574981335542
 40
6.444730017911606
 40
6.715214255179225
 40
6.992906067639503
 40
7.227316955347686
 40
7.428786629468174
 40
7.609669912870674
 40
7.778208268278403
 40
7.939731118303307
 40
8.097855524456953
 40
8.255038502336751
 40
8.412877396912100
 40
8.572293976751265
 40
8.733675735768440
 40
8.914828972858572
 40
9.096007586529165
 40
9.276044175794075
 40
9.454272468175883
 40
9.630127359449148
 40
9.803026581214166
 40
9.972602269084149
 40
10.13867392283241
 40
10.30122181763816
 40
10.46046553829678
 40
10.61696841155579
 40
10.77175048672799
 40
10.92640528680118
 40
11.08324380018300
 40
11.24552101344013
 40
11.41782404229378
 40
11.60667656999451
 40
11.82105681238464
 40
12.07043562922246
 40
12.35349464990854
 40
12.64570749693336
 40
12.93667546006320
 40
13.22894277591457
 40
13.52567029280717
 40
13.82898351677813
 40
14.14018192239461
 40
14.46002180240527
 40
14.78890056542907
 40
15.12696949099030
 40
15.47420405599948
 40
15.83044938889602
 40
16.19545077608127
 40
16.56887489084504
 40
16.95032507784732
 40
17.33935271602220
 40
17.73546592633246
 40
18.13813644038551
 40
18.54680516968591
 40
18.96088684118777
 40
19.37977395231339
 40
19.80284022428385
 40
20.22944368254675
 40
20.65892945880297
 40
21.09063238536261
 40
21.52387943594349
 40
21.95799205540813
 40
22.09011608563514
 40
22.09011608563514
 40
22.09011608563514
 40
22.09011608563514
 10
102.5115685754761
 20
228.2579239525810
 30
0.000000000000000
 10
102.6382810724534
 20
228.2642778635920
 30
0.000000000000000
 10
102.9003443770557
 20
228.2783165466626
 30
0.000000000000000
 10
103.2955459263192
 20
228.3022241599160
 30
0.000000000000000
 10
103.6948871181375
 20
228.3294110854848
 30
0.000000000000000
 10
104.0872190959576
 20
228.3592035485933
 30
0.000000000000000
 10
104.4719761084506
 20
228.3915840571801
 30
0.000000000000000
 10
104.8486227745066
 20
228.4265337257651
 30
0.000000000000000
 10
105.2166587652181
 20
228.4640396391441
 30
0.000000000000000
 10
105.5756247858088
 20
228.5040961344137
 30
0.000000000000000
 10
105.9251099409057
 20
228.5467088015232
 30
0.000000000000000
 10
106.2647611699895
 20
228.5918994143207
 30
0.000000000000000
 10
106.5942956377297
 20
228.6397130364076
 30
0.000000000000000
 10
106.9135174826487
 20
228.6902282199809
 30
0.000000000000000
 10
107.2223411355396
 20
228.7435720924579
 30
0.000000000000000
 10
107.5208247942076
 20
228.7999433057052
 30
0.000000000000000
 10
107.8092200404533
 20
228.8596481154503
 30
0.000000000000000
 10
108.0880475994179
 20
228.9231592087422
 30
0.000000000000000
 10
108.3582160214689
 20
228.9912155221803
 30
0.000000000000000
 10
108.6212056611029
 20
229.0649976174701
 30
0.000000000000000
 10
108.8793222618049
 20
229.1464385801949
 30
0.000000000000000
 10
109.1357606463706
 20
229.2386993323722
 30
0.000000000000000
 10
109.3765465909886
 20
229.3394528013417
 30
0.000000000000000
 10
109.5900965555400
 20
229.4445533721006
 30
0.000000000000000
 10
109.7685115294102
 20
229.5469881219258
 30
0.000000000000000
 10
109.9215217762529
 20
229.6487612201333
 30
0.000000000000000
 10
110.0566899323140
 20
229.7526028179022
 30
0.000000000000000
 10
110.1784852462587
 20
229.8607355485462
 30
0.000000000000000
 10
110.2893009733061
 20
229.9748899586102
 30
0.000000000000000
 10
110.3901491836633
 20
230.0963645817640
 30
0.000000000000000
 10
110.4810589065527
 20
230.2259910906783
 30
0.000000000000000
 10
110.5613715668527
 20
230.3640804969916
 30
0.000000000000000
 10
110.6325252789433
 20
230.5157568936989
 30
0.000000000000000
 10
110.6912672959729
 20
230.6804792584076
 30
0.000000000000000
 10
110.7341849851964
 20
230.8564348563741
 30
0.000000000000000
 10
110.7584627784873
 20
231.0349313692084
 30
0.000000000000000
 10
110.7640624160239
 20
231.2132008431772
 30
0.000000000000000
 10
110.7515277258921
 20
231.3887191872507
 30
0.000000000000000
 10
110.7218802343754
 20
231.5592241151109
 30
0.000000000000000
 10
110.6765079859225
 20
231.7228304098679
 30
0.000000000000000
 10
110.6170120353774
 20
231.8781319378774
 30
0.000000000000000
 10
110.5450582824345
 20
232.0242128971067
 30
0.000000000000000
 10
110.4622179315387
 20
232.1606622838487
 30
0.000000000000000
 10
110.3697798644655
 20
232.2875859089146
 30
0.000000000000000
 10
110.2685505124088
 20
232.4055816967939
 30
0.000000000000000
 10
110.1586503342436
 20
232.5156823077934
 30
0.000000000000000
 10
110.0392940331569
 20
232.6192869992111
 30
0.000000000000000
 10
109.9085074468189
 20
232.7181109585605
 30
0.000000000000000
 10
109.7627114620435
 20
232.8141629897031
 30
0.000000000000000
 10
109.5962007110050
 20
232.9096785053077
 30
0.000000000000000
 10
109.4013142615271
 20
233.0066033971493
 30
0.000000000000000
 10
109.1723936669236
 20
233.1047269974713
 30
0.000000000000000
 10
108.9143623709307
 20
233.1998122496253
 30
0.000000000000000
 10
108.6392475060968
 20
233.2877261517046
 30
0.000000000000000
 10
108.3582931024257
 20
233.3667748461749
 30
0.000000000000000
 10
108.0737684375580
 20
233.4382006887805
 30
0.000000000000000
 10
107.7836323169490
 20
233.5037983852150
 30
0.000000000000000
 10
107.4860540114231
 20
233.5647889739259
 30
0.000000000000000
 10
107.1798761508396
 20
233.6219325800014
 30
0.000000000000000
 10
106.8644426713159
 20
233.6757052750551
 30
0.000000000000000
 10
106.5394350737937
 20
233.7264097478227
 30
0.000000000000000
 10
106.2047664477095
 20
233.7742395474637
 30
0.000000000000000
 10
105.8605149327299
 20
233.8193172939472
 30
0.000000000000000
 10
105.5068808746557
 20
233.8617183096993
 30
0.000000000000000
 10
105.1441582221971
 20
233.9014858021471
 30
0.000000000000000
 10
104.7727147101762
 20
233.9386409534717
 30
0.000000000000000
 10
104.3929776335804
 20
233.9731898263331
 30
0.000000000000000
 10
104.0054232860393
 20
234.0051282125472
 30
0.000000000000000
 10
103.6105688652728
 20
234.0344451136011
 30
0.000000000000000
 10
103.2089660790363
 20
234.0611252873101
 30
0.000000000000000
 10
102.8011959474532
 20
234.0851511416892
 30
0.000000000000000
 10
102.3878644621164
 20
234.1065041634038
 30
0.000000000000000
 10
101.9695988672358
 20
234.1251660040991
 30
0.000000000000000
 10
101.5470444000324
 20
234.1411193232601
 30
0.000000000000000
 10
101.1208613645531
 20
234.1543484046720
 30
0.000000000000000
 10
100.6917224811090
 20
234.1648397553041
 30
0.000000000000000
 10
100.2603103387090
 20
234.1725820922703
 30
0.000000000000000
 10
99.82731530819397
 20
234.1775680913510
 30
0.000000000000000
 10
99.49415590591185
 20
234.1792734938660
 30
0.000000000000000
 10
99.30541037133698
 20
234.1794584737425
 30
0.000000000000000
 10
99.26136902792798
 20
234.1794584352625
 30
0.000000000000000
  0
SPLINE
  5
E6
100
AcDbEntity
  8
A1
  6
CONTINUOUS
 62
7
100
AcDbSpline
210
0.000000000000000
220
0.000000000000000
230
1.000000000000000
 70
     8
 71
     3
 72
    41
 73
    37
 74
     0
 42
1.000000000000000e-07
 43
1.000000000000000e-07
 12
0.9999999999959073
 22
2.360021881031571e-06
 32
0.000000000000000
 13
0.8664224627282238
 23
-0.4993116421974264
 33
0.000000000000000
 40
0.000000000000000
 40
0.000000000000000
 40
0.000000000000000
 40
0.000000000000000
 40
0.2185004668634609
 40
0.6334554104817300
 40
1.047214416464676
 40
1.458939052973719
 40
1.867817951391172
 40
2.273042928553944
 40
2.673809711336787
 40
3.069318597789024
 40
3.458775030919466
 40
3.841390063673726
 40
4.216380691336962
 40
4.582970025064411
 40
4.940387277715351
 40
5.287867531075027
 40
5.624651252643110
 40
5.949983531767252
 40
6.263113011182336
 40
6.563290504575928
 40
6.849767319362004
 40
7.121793355352507
 40
7.378615137975617
 40
7.619474088623701
 40
7.843605560949979
 40
8.050239511880193
 40
8.238604157836916
 40
8.407934592138872
 40
8.557489034852017
 40
8.686575911769896
 40
8.794594780749378
 40
8.881092312788374
 40
8.945829914084417
 40
8.985349800529072
 40
9.007639787053369
 40
9.013599829235163
 40
9.013599829235163
 40
9.013599829235163
 40
9.013599829235163
 10
99.26136902792798
 20
231.1794584352625
 30
0.000000000000000
 10
99.33420251688217
 20
231.1794586071512
 30
0.000000000000000
 10
99.54535440543286
 20
231.1791059327247
 30
0.000000000000000
 10
99.89442095393157
 20
231.1768217345676
 30
0.000000000000000
 10
100.3078686558114
 20
231.1714721562216
 30
0.000000000000000
 10
100.7192484400044
 20
231.1634975045233
 30
0.000000000000000
 10
101.1277238840394
 20
231.1529179781783
 30
0.000000000000000
 10
101.5324699381184
 20
231.1397598355155
 30
0.000000000000000
 10
101.9326652535148
 20
231.1240564324900
 30
0.000000000000000
 10
102.3274928379181
 20
231.1058482240637
 30
0.000000000000000
 10
102.7161405774905
 20
231.0851830966984
 30
0.000000000000000
 10
103.0978016631233
 20
231.0621167172099
 30
0.000000000000000
 10
103.4716748831071
 20
231.0367130070420
 30
0.000000000000000
 10
103.8369647628855
 20
231.0090447471216
 30
0.000000000000000
 10
104.1928815264946
 20
230.9791943561111
 30
0.000000000000000
 10
104.5386408561060
 20
230.9472548882612
 30
0.000000000000000
 10
104.8734634286121
 20
230.9133313132747
 30
0.000000000000000
 10
105.1965742155200
 20
230.8775421583174
 30
0.000000000000000
 10
105.5072015470931
 20
230.8400216156882
 30
0.000000000000000
 10
105.8045759686610
 20
230.8009222486529
 30
0.000000000000000
 10
106.0879289640495
 20
230.7604184636097
 30
0.000000000000000
 10
106.3564916989844
 20
230.7187109574481
 30
0.000000000000000
 10
106.6094940651472
 20
230.6760323957207
 30
0.000000000000000
 10
106.8461644987436
 20
230.6326546097239
 30
0.000000000000000
 10
107.0657313625857
 20
230.5888976481035
 30
0.000000000000000
 10
107.2674270584087
 20
230.5451409000834
 30
0.000000000000000
 10
107.4504968021942
 20
230.5018366799902
 30
0.000000000000000
 10
107.6142141193692
 20
230.4595253734041
 30
0.000000000000000
 10
107.7579077364180
 20
230.4188538240140
 30
0.000000000000000
 10
107.8809989443183
 20
230.3805877306962
 30
0.000000000000000
 10
107.9830661564896
 20
230.3456378489398
 30
0.000000000000000
 10
108.0638971058922
 20
230.3150290808464
 30
0.000000000000000
 10
108.1225566174113
 20
230.2904413101637
 30
0.000000000000000
 10
108.1607876295194
 20
230.2726039862804
 30
0.000000000000000
 10
108.1809426076549
 20
230.2623790685278
 30
0.000000000000000
 10
108.1891328428506
 20
230.2577305063280
 30
0.000000000000000
 10
108.1908541476589
 20
230.2567385335116
 30
0.000000000000000
  0
LINE
  5
E7
100
AcDbEntity
  8
A1
  6
CONTINUOUS
 62
7
100
AcDbLine
 10
59.76136902791907
 20
231.1783977442115
 30
0.000000000000000
 11
59.51136902791907
 21
231.1783977442115
 31
0.000000000000000
  0
LINE
  5
E8
100
AcDbEntity
  8
A1
  6
CONTINUOUS
 62
7
100
AcDbLine
 10
96.01136902791907
 20
231.1783977442115
 30
0.000000000000000
 11
95.76136902791907
 21
231.1783977442115
 31
0.000000000000000
  0
LINE
  5
E9
100
AcDbEntity
  8
A1
  6
CONTINUOUS
 62
7
100
AcDbLine
 10
99.26136902792800
 20
231.1783977442115
 30
0.000000000000000
 11
98.01136902791907
 21
231.1783977442115
 31
0.000000000000000
  0
LINE
  5
EA
100
AcDbEntity
  8
A1
  6
CONTINUOUS
 62
7
100
AcDbLine
 10
56.26136902792794
 20
231.1794584352626
 30
0.000000000000000
 11
59.76136902791907
 21
231.1794584352626
 31
0.000000000000000
  0
LINE
  5
EB
100
AcDbEntity
  8
A1
  6
CONTINUOUS
 62
7
100
AcDbLine
 10
59.76136902791907
 20
234.1794584352626
 30
0.000000000000000
 11
56.26136902792794
 21
234.1794584352626
 31
0.000000000000000
  0
LINE
  5
EC
100
AcDbEntity
  8
A1
  6
CONTINUOUS
 62
7
100
AcDbLine
 10
99.48583085418150
 20
231.1787845073638
 30
0.000000000000000
 11
99.26136902792797
 21
231.1783977442115
 31
0.000000000000000
  0
LINE
  5
ED
100
AcDbEntity
  8
A1
  6
CONTINUOUS
 62
7
100
AcDbLine
 10
99.56139359184957
 20
231.1790888106590
 30
0.000000000000000
 11
99.48583085418146
 21
231.1787845073638
 31
0.000000000000000
  0
LINE
  5
EE
100
AcDbEntity
  8
A1
  6
CONTINUOUS
 62
7
100
AcDbLine
 10
99.26136902792800
 20
231.1783977383631
 30
0.000000000000000
 11
99.26136902792800
 21
230.1794584352628
 31
0.000000000000000
  0
LINE
  5
EF
100
AcDbEntity
  8
A1
  6
CONTINUOUS
 62
7
100
AcDbLine
 10
95.76136902791907
 20
231.1794584352626
 30
0.000000000000000
 11
99.26136902792800
 21
231.1794584352626
 31
0.000000000000000
  0
LINE
  5
F0
100
AcDbEntity
  8
A1
  6
CONTINUOUS
 62
7
100
AcDbLine
 10
99.26136902792800
 20
234.1794584352626
 30
0.000000000000000
 11
95.76136902791907
 21
234.1794584352626
 31
0.000000000000000
  0
LINE
  5
F1
100
AcDbEntity
  8
A1
  6
CONTINUOUS
 62
7
100
AcDbLine
 10
99.56136302791940
 20
164.1678926673567
 30
0.000000000000000
 11
100.1613690279192
 21
164.1678926673567
 31
0.000000000000000
  0
LINE
  5
F2
100
AcDbEntity
  8
A1
  6
CONTINUOUS
 62
7
100
AcDbLine
 10
99.56136302791940
 20
164.1678926673567
 30
0.000000000000000
 11
99.56136302791940
 21
164.3131058691160
 31
0.000000000000000
  0
LINE
  5
F3
100
AcDbEntity
  8
A1
  6
CONTINUOUS
 62
7
100
AcDbLine
 10
100.1613690279192
 20
164.1678926673567
 30
0.000000000000000
 11
100.1613690279192
 21
164.3131058691160
 31
0.000000000000000
  0
LINE
  5
F4
100
AcDbEntity
  8
A1
  6
CONTINUOUS
 62
7
100
AcDbLine
 10
100.1613690279192
 20
164.3131053109407
 30
0.000000000000000
 11
100.1613690279192
 21
171.6794576673567
 31
0.000000000000000
  0
LINE
  5
F5
100
AcDbEntity
  8
A1
  6
CONTINUOUS
 62
7
100
AcDbLine
 10
100.1613690279192
 20
171.6794576673567
 30
0.000000000000000
 11
99.56136302791940
 21
171.6794576673567
 31
0.000000000000000
  0
LINE
  5
F6
100
AcDbEntity
  8
A1
  6
CONTINUOUS
 62
7
100
AcDbLine
 10
99.56136302791940
 20
171.6794576673567
 30
0.000000000000000
 11
99.56136302791940
 21
164.3131053109407
 31
0.000000000000000
  0
SPLINE
  5
F7
100
AcDbEntity
  8
A1
  6
CONTINUOUS
 62
7
100
AcDbSpline
210
0.000000000000000
220
0.000000000000000
230
1.000000000000000
 70
     8
 71
     3
 72
    12
 73
     8
 74
     0
 42
1.000000000000000e-07
 43
1.000000000000000e-07
 12
0.9997046832472734
 22
0.02430115831339208
 32
0.000000000000000
 13
0.02118905581164654
 23
-0.9997754867536059
 33
0.000000000000000
 40
0.000000000000000
 40
0.000000000000000
 40
0.000000000000000
 40
0.000000000000000
 40
0.1074938029891628
 40
0.1987891272065597
 40
0.2687815368472261
 40
0.3257964010912481
 40
0.3993184937309452
 40
0.3993184937309452
 40
0.3993184937309452
 40
0.3993184937309452
 10
93.43066044426938
 20
181.6794584353013
 30
0.000000000000000
 10
93.46648113035882
 20
181.6803291766094
 30
0.000000000000000
 10
93.53276987325647
 20
181.6777925627057
 30
0.000000000000000
 10
93.62209793666391
 20
181.6682032089994
 30
0.000000000000000
 10
93.69231885822107
 20
181.6474668780526
 30
0.000000000000000
 10
93.74896083231089
 20
181.6069680781464
 30
0.000000000000000
 10
93.76084974001098
 20
181.5608262052079
 30
0.000000000000000
 10
93.76136902791909
 20
181.5363243432226
 30
0.000000000000000
  0
SPLINE
  5
F8
100
AcDbEntity
  8
A1
  6
CONTINUOUS
 62
7
100
AcDbSpline
210
0.000000000000000
220
0.000000000000000
230
1.000000000000000
 70
     8
 71
     3
 72
    12
 73
     8
 74
     0
 42
1.000000000000000e-07
 43
1.000000000000000e-07
 12
-0.01683976189269742
 22
0.9998582011521648
 32
0.000000000000000
 13
0.9988751610017061
 23
-0.04741743068962023
 33
0.000000000000000
 40
0.000000000000000
 40
0.000000000000000
 40
0.000000000000000
 40
0.000000000000000
 40
0.05325620100013140
 40
0.1067290269545779
 40
0.1697927861001746
 40
0.2531256114656041
 40
0.3999737846369479
 40
0.3999737846369479
 40
0.3999737846369479
 40
0.3999737846369479
 10
61.76136902791909
 20
181.5363243432226
 30
0.000000000000000
 10
61.76107008733770
 20
181.5540738930000
 30
0.000000000000000
 10
61.76770005680849
 20
181.5907773547617
 30
0.000000000000000
 10
61.80693661342478
 20
181.6349165680122
 30
0.000000000000000
 10
61.86955506151172
 20
181.6612327585314
 30
0.000000000000000
 10
61.96615122407472
 20
181.6771054593161
 30
0.000000000000000
 10
62.04318328069580
 20
181.6817794896591
 30
0.000000000000000
 10
62.09207761156891
 20
181.6794584353013
 30
0.000000000000000
  0
ELLIPSE
  5
F9
100
AcDbEntity
  8
A1
  6
CONTINUOUS
 62
7
100
AcDbEllipse
 10
67.76136902791892
 20
187.2075013728979
 30
0.000000000000000
 11
5.000000000000000
 21
0.000000000000000
 31
0.000000000000000
210
0.000000000000000
220
0.000000000000000
230
1.000000000000000
 40
0.8943914124814765
 41
1.570796326794897
 42
3.141592653589793
  0
ELLIPSE
  5
FA
100
AcDbEntity
  8
A1
  6
CONTINUOUS
 62
7
100
AcDbEllipse
 10
87.76136902791892
 20
187.2075013728979
 30
0.000000000000000
 11
5.000000000000000
 21
0.000000000000000
 31
0.000000000000000
210
0.000000000000000
220
0.000000000000000
230
1.000000000000000
 40
0.8943914124814765
 41
0.000000000000000
 42
1.570796326794897
  0
ARC
  5
FB
100
AcDbEntity
  8
A1
  6
CONTINUOUS
 62
7
100
AcDbCircle
 10
93.76136902791909
 20
179.6794584353013
 30
0.000000000000000
 40
2.000000000000000
100
AcDbArc
 50
9.618792677007443
 51
89.99999999999990
  0
ARC
  5
FC
100
AcDbEntity
  8
A1
  6
CONTINUOUS
 62
7
100
AcDbCircle
 10
61.76136902791909
 20
179.6794584353013
 30
0.000000000000000
 40
2.000000000000000
100
AcDbArc
 50
90.00000000000010
 51
170.3812073229929
  0
ARC
  5
FD
100
AcDbEntity
  8
A1
  6
CONTINUOUS
 62
7
100
AcDbCircle
 10
61.76136902791909
 20
179.6794584353013
 30
0.000000000000000
 40
2.000000000000000
100
AcDbArc
 50
170.3812073229929
 51
180.0000000000000
  0
ARC
  5
FE
100
AcDbEntity
  8
A1
  6
CONTINUOUS
 62
7
100
AcDbCircle
 10
93.76136902791909
 20
179.6794584353013
 30
0.000000000000000
 40
2.000000000000000
100
AcDbArc
 50
5.090000000000000e-14
 51
9.618792677007393
  0
LINE
  5
FF
100
AcDbEntity
  8
A1
  6
CONTINUOUS
 62
7
100
AcDbLine
 10
92.76136902791892
 20
187.2075013729008
 30
0.000000000000000
 11
92.76136902791912
 21
181.6794584353013
 31
0.000000000000000
  0
LINE
  5
100
100
AcDbEntity
  8
A1
  6
CONTINUOUS
 62
7
100
AcDbLine
 10
62.76136902791909
 20
187.2075013728979
 30
0.000000000000000
 11
62.76136902791909
 21
181.6794584353015
 31
0.000000000000000
  0
LINE
  5
101
100
AcDbEntity
  8
A1
  6
CONTINUOUS
 62
7
100
AcDbLine
 10
67.76136902791889
 20
191.6794584353046
 30
0.000000000000000
 11
87.76136902791889
 21
191.6794584352954
 31
0.000000000000000
  0
LINE
  5
102
100
AcDbEntity
  8
A1
  6
CONTINUOUS
 62
7
100
AcDbLine
 10
92.76136902791912
 20
179.6794584353013
 30
0.000000000000000
 11
62.76136902791909
 21
179.6794584353013
 31
0.000000000000000
  0
LINE
  5
103
100
AcDbEntity
  8
A1
  6
CONTINUOUS
 62
7
100
AcDbLine
 10
92.76136902791912
 20
181.6794584353013
 30
0.000000000000000
 11
62.76136902791909
 21
181.6794584353013
 31
0.000000000000000
  0
LINE
  5
104
100
AcDbEntity
  8
A1
  6
CONTINUOUS
 62
7
100
AcDbLine
 10
61.76136902791909
 20
179.6794584353013
 30
0.000000000000000
 11
62.76136902791909
 21
179.6794584353013
 31
0.000000000000000
  0
LINE
  5
105
100
AcDbEntity
  8
A1
  6
CONTINUOUS
 62
7
100
AcDbLine
 10
62.76136902791909
 20
181.6794584353013
 30
0.000000000000000
 11
62.09207761156891
 21
181.6794584353013
 31
0.000000000000000
  0
LINE
  5
106
100
AcDbEntity
  8
A1
  6
CONTINUOUS
 62
7
100
AcDbLine
 10
92.76136902791909
 20
179.6794584353013
 30
0.000000000000000
 11
93.76136902791909
 21
179.6794584353013
 31
0.000000000000000
  0
LINE
  5
107
100
AcDbEntity
  8
A1
  6
CONTINUOUS
 62
7
100
AcDbLine
 10
93.43066044426938
 20
181.6794584353013
 30
0.000000000000000
 11
92.76136902791909
 21
181.6794584353013
 31
0.000000000000000
  0
LINE
  5
108
100
AcDbEntity
  8
A1
  6
CONTINUOUS
 62
7
100
AcDbLine
 10
93.76136902791909
 20
181.5363243432226
 30
0.000000000000000
 11
93.76136902791909
 21
180.0136427125249
 31
0.000000000000000
  0
LINE
  5
109
100
AcDbEntity
  8
A1
  6
CONTINUOUS
 62
7
100
AcDbLine
 10
93.76136902791909
 20
181.6794584353013
 30
0.000000000000000
 11
93.43066044426938
 21
181.6794584353013
 31
0.000000000000000
  0
LINE
  5
10A
100
AcDbEntity
  8
A1
  6
CONTINUOUS
 62
7
100
AcDbLine
 10
61.76136902791909
 20
181.5363243432226
 30
0.000000000000000
 11
61.76136902791909
 21
180.0136427125249
 31
0.000000000000000
  0
LINE
  5
10B
100
AcDbEntity
  8
A1
  6
CONTINUOUS
 62
7
100
AcDbLine
 10
62.09207761156891
 20
181.6794584353013
 30
0.000000000000000
 11
61.76136902791909
 21
181.6794584353013
 31
0.000000000000000
  0
LINE
  5
10C
100
AcDbEntity
  8
A1
  6
CONTINUOUS
 62
7
100
AcDbLine
 10
61.76136902791909
 20
180.0136427125249
 30
0.000000000000000
 11
61.76136902791909
 21
167.1794584353015
 31
0.000000000000000
  0
LINE
  5
10D
100
AcDbEntity
  8
A1
  6
CONTINUOUS
 62
7
100
AcDbLine
 10
59.76136902791909
 20
179.6794584353013
 30
0.000000000000000
 11
59.76136902791909
 21
167.1794584353015
 31
0.000000000000000
  0
LINE
  5
10E
100
AcDbEntity
  8
A1
  6
CONTINUOUS
 62
7
100
AcDbLine
 10
61.76136902791909
 20
167.1794584353015
 30
0.000000000000000
 11
61.76136902791909
 21
161.1794584353013
 31
0.000000000000000
  0
LINE
  5
10F
100
AcDbEntity
  8
A1
  6
CONTINUOUS
 62
7
100
AcDbLine
 10
59.76136902791909
 20
167.1794584353015
 30
0.000000000000000
 11
59.76136902791909
 21
161.1794584353013
 31
0.000000000000000
  0
LINE
  5
110
100
AcDbEntity
  8
A1
  6
CONTINUOUS
 62
7
100
AcDbLine
 10
59.76136902791911
 20
161.1794584353013
 30
0.000000000000000
 11
61.76136902791911
 21
161.1794584353013
 31
0.000000000000000
  0
LINE
  5
111
100
AcDbEntity
  8
A1
  6
CONTINUOUS
 62
7
100
AcDbLine
 10
93.76136902791909
 20
167.1794584353013
 30
0.000000000000000
 11
93.76136902791909
 21
161.1794584353013
 31
0.000000000000000
  0
LINE
  5
112
100
AcDbEntity
  8
A1
  6
CONTINUOUS
 62
7
100
AcDbLine
 10
95.76136902791909
 20
167.1794584353013
 30
0.000000000000000
 11
95.76136902791909
 21
161.1794584353013
 31
0.000000000000000
  0
LINE
  5
113
100
AcDbEntity
  8
A1
  6
CONTINUOUS
 62
7
100
AcDbLine
 10
93.76136902791909
 20
161.1794584353013
 30
0.000000000000000
 11
95.76136902791909
 21
161.1794584353013
 31
0.000000000000000
  0
LINE
  5
114
100
AcDbEntity
  8
A1
  6
CONTINUOUS
 62
7
100
AcDbLine
 10
95.76136902791909
 20
167.1794584353013
 30
0.000000000000000
 11
95.76136902791909
 21
179.6794584353013
 31
0.000000000000000
  0
LINE
  5
115
100
AcDbEntity
  8
A1
  6
CONTINUOUS
 62
7
100
AcDbLine
 10
93.76136902791909
 20
167.1794584353013
 30
0.000000000000000
 11
93.76136902791909
 21
180.0136427125249
 31
0.000000000000000
  0
LINE
  5
116
100
AcDbEntity
  8
A1
  6
CONTINUOUS
 62
7
100
AcDbLine
 10
95.76136902791912
 20
161.1794584353018
 30
0.000000000000000
 11
96.01136902791912
 21
161.1794584352974
 31
0.000000000000000
  0
LINE
  5
117
100
AcDbEntity
  8
A1
  6
CONTINUOUS
 62
7
100
AcDbLine
 10
93.76136902791910
 20
161.1794584352974
 30
0.000000000000000
 11
95.76136902791910
 21
161.1794584353017
 31
0.000000000000000
  0
LINE
  5
118
100
AcDbEntity
  8
A1
  6
CONTINUOUS
 62
7
100
AcDbLine
 10
61.76136902791909
 20
161.1794584353017
 30
0.000000000000000
 11
93.76136902791912
 21
161.1794584352974
 31
0.000000000000000
  0
LINE
  5
119
100
AcDbEntity
  8
A1
  6
CONTINUOUS
 62
7
100
AcDbLine
 10
59.76136902791911
 20
161.1794584352974
 30
0.000000000000000
 11
61.76136902791911
 21
161.1794584353017
 31
0.000000000000000
  0
LINE
  5
11A
100
AcDbEntity
  8
A1
  6
CONTINUOUS
 62
7
100
AcDbLine
 10
59.51136902791909
 20
161.1794584352974
 30
0.000000000000000
 11
59.76136902791909
 21
161.1794584352974
 31
0.000000000000000
  0
LINE
  5
11B
100
AcDbEntity
  8
A1
  6
CONTINUOUS
 62
7
100
AcDbLine
 10
87.76136902792801
 20
177.5794584353018
 30
0.000000000000000
 11
67.76136902792801
 21
177.5794584353018
 31
0.000000000000000
  0
LINE
  5
11C
100
AcDbEntity
  8
A1
  6
CONTINUOUS
 62
7
100
AcDbLine
 10
98.01136902791909
 20
174.7039597113521
 30
0.000000000000000
 11
96.01136902791909
 21
174.7039597113521
 31
0.000000000000000
  0
LINE
  5
11D
100
AcDbEntity
  8
A1
  6
CONTINUOUS
 62
7
100
AcDbLine
 10
96.01136902791909
 20
174.7039597113521
 30
0.000000000000000
 11
96.01136902791909
 21
174.6899798456092
 31
0.000000000000000
  0
LINE
  5
11E
100
AcDbEntity
  8
A1
  6
CONTINUOUS
 62
7
100
AcDbLine
 10
98.01136902791909
 20
174.7039597113521
 30
0.000000000000000
 11
98.01136902791909
 21
174.6899798456092
 31
0.000000000000000
  0
LINE
  5
11F
100
AcDbEntity
  8
A1
  6
CONTINUOUS
 62
7
100
AcDbLine
 10
59.51136902791909
 20
174.6899798456092
 30
0.000000000000000
 11
59.51136902791909
 21
174.7039597113521
 31
0.000000000000000
  0
LINE
  5
120
100
AcDbEntity
  8
A1
  6
CONTINUOUS
 62
7
100
AcDbLine
 10
59.51136902791909
 20
174.7039597113521
 30
0.000000000000000
 11
57.51136902791909
 21
174.7039597113521
 31
0.000000000000000
  0
LINE
  5
121
100
AcDbEntity
  8
A1
  6
CONTINUOUS
 62
7
100
AcDbLine
 10
57.51136902791909
 20
174.7039597113521
 30
0.000000000000000
 11
57.51136902791909
 21
174.6899798456092
 31
0.000000000000000
  0
LINE
  5
122
100
AcDbEntity
  8
A1
  6
CONTINUOUS
 62
7
100
AcDbLine
 10
96.01136902791909
 20
172.7600624630165
 30
0.000000000000000
 11
96.01136902791909
 21
174.6899798456092
 31
0.000000000000000
  0
LINE
  5
123
100
AcDbEntity
  8
A1
  6
CONTINUOUS
 62
7
100
AcDbLine
 10
98.01136902791909
 20
172.7600624630166
 30
0.000000000000000
 11
98.01136902791909
 21
174.6899798456092
 31
0.000000000000000
  0
LINE
  5
124
100
AcDbEntity
  8
A1
  6
CONTINUOUS
 62
7
100
AcDbLine
 10
98.01136902791910
 20
174.6899798456093
 30
0.000000000000000
 11
96.01136902791910
 21
174.6899798456092
 31
0.000000000000000
  0
LINE
  5
125
100
AcDbEntity
  8
A1
  6
CONTINUOUS
 62
7
100
AcDbLine
 10
59.51136902791909
 20
174.6899798456092
 30
0.000000000000000
 11
59.51136902791909
 21
172.7600624630165
 31
0.000000000000000
  0
LINE
  5
126
100
AcDbEntity
  8
A1
  6
CONTINUOUS
 62
7
100
AcDbLine
 10
57.51136902791909
 20
172.7600624630166
 30
0.000000000000000
 11
57.51136902791909
 21
174.6899798456092
 31
0.000000000000000
  0
LINE
  5
127
100
AcDbEntity
  8
A1
  6
CONTINUOUS
 62
7
100
AcDbLine
 10
59.51136902791911
 20
174.6899798456093
 30
0.000000000000000
 11
57.51136902791911
 21
174.6899798456093
 31
0.000000000000000
  0
LINE
  5
128
100
AcDbEntity
  8
A1
  6
CONTINUOUS
 62
7
100
AcDbLine
 10
98.01136902791910
 20
172.7600624630167
 30
0.000000000000000
 11
96.01136902791910
 21
172.7600624630165
 31
0.000000000000000
  0
LINE
  5
129
100
AcDbEntity
  8
A1
  6
CONTINUOUS
 62
7
100
AcDbLine
 10
96.01136902791909
 20
172.7600624630165
 30
0.000000000000000
 11
96.01136902791909
 21
161.1794584353017
 31
0.000000000000000
  0
LINE
  5
12A
100
AcDbEntity
  8
A1
  6
CONTINUOUS
 62
7
100
AcDbLine
 10
98.01136902791909
 20
161.1794584353017
 30
0.000000000000000
 11
96.01136902791909
 21
161.1794584353017
 31
0.000000000000000
  0
LINE
  5
12B
100
AcDbEntity
  8
A1
  6
CONTINUOUS
 62
7
100
AcDbLine
 10
98.01136902791909
 20
172.7600624630166
 30
0.000000000000000
 11
98.01136902791909
 21
161.1794584353017
 31
0.000000000000000
  0
LINE
  5
12C
100
AcDbEntity
  8
A1
  6
CONTINUOUS
 62
7
100
AcDbLine
 10
59.51136902791909
 20
161.1794584353017
 30
0.000000000000000
 11
59.51136902791909
 21
172.7600624630165
 31
0.000000000000000
  0
LINE
  5
12D
100
AcDbEntity
  8
A1
  6
CONTINUOUS
 62
7
100
AcDbLine
 10
57.51136902791909
 20
172.7600624630166
 30
0.000000000000000
 11
57.51136902791909
 21
161.1794584353017
 31
0.000000000000000
  0
LINE
  5
12E
100
AcDbEntity
  8
A1
  6
CONTINUOUS
 62
7
100
AcDbLine
 10
59.51136902791909
 20
161.1794584353017
 30
0.000000000000000
 11
57.51136902791909
 21
161.1794584353017
 31
0.000000000000000
  0
LINE
  5
12F
100
AcDbEntity
  8
A1
  6
CONTINUOUS
 62
7
100
AcDbLine
 10
59.51136902791909
 20
172.7600624630165
 30
0.000000000000000
 11
57.51136902791909
 21
172.7600624630166
 31
0.000000000000000
  0
ARC
  5
130
100
AcDbEntity
  8
A1
  6
CONTINUOUS
 62
7
100
AcDbCircle
 10
56.51136902791897
 20
163.1794584353016
 30
0.000000000000000
 40
1.000000000000114
100
AcDbArc
 50
180.0000000000000
 51
360.0000000000000
  0
ARC
  5
131
100
AcDbEntity
  8
A1
  6
CONTINUOUS
 62
7
100
AcDbCircle
 10
56.51136902791897
 20
171.1794584353016
 30
0.000000000000000
 40
1.000000000000114
100
AcDbArc
 50
0.000000000000000
 51
180.0000000000000
  0
LINE
  5
132
100
AcDbEntity
  8
A1
  6
CONTINUOUS
 62
7
100
AcDbLine
 10
100.1613690279193
 20
165.1544584353015
 30
0.000000000000000
 11
100.2113690279192
 21
165.1544584353015
 31
0.000000000000000
  0
LINE
  5
133
100
AcDbEntity
  8
A1
  6
CONTINUOUS
 62
7
100
AcDbLine
 10
99.51136902791909
 20
165.1544584353015
 30
0.000000000000000
 11
99.56136302791940
 21
165.1544584353015
 31
0.000000000000000
  0
LINE
  5
134
100
AcDbEntity
  8
A1
  6
CONTINUOUS
 62
7
100
AcDbLine
 10
99.56136302791940
 20
169.2044584353015
 30
0.000000000000000
 11
99.51136902791909
 21
169.2044584353015
 31
0.000000000000000
  0
LINE
  5
135
100
AcDbEntity
  8
A1
  6
CONTINUOUS
 62
7
100
AcDbLine
 10
100.2113690279192
 20
169.2044584353015
 30
0.000000000000000
 11
100.1613690279192
 21
169.2044584353015
 31
0.000000000000000
  0
LINE
  5
136
100
AcDbEntity
  8
A1
  6
CONTINUOUS
 62
7
100
AcDbLine
 10
102.5113690279191
 20
169.1794584353016
 30
0.000000000000000
 11
102.0113690279192
 21
169.6794584353016
 31
0.000000000000000
  0
LINE
  5
137
100
AcDbEntity
  8
A1
  6
CONTINUOUS
 62
7
100
AcDbLine
 10
102.0113690279192
 20
164.6794584353015
 30
0.000000000000000
 11
102.5113690279191
 21
165.1794584353015
 31
0.000000000000000
  0
LINE
  5
138
100
AcDbEntity
  8
A1
  6
CONTINUOUS
 62
7
100
AcDbLine
 10
102.5113690279191
 20
169.1794584353016
 30
0.000000000000000
 11
102.5113690279191
 21
165.1794584353016
 31
0.000000000000000
  0
LINE
  5
139
100
AcDbEntity
  8
A1
  6
CONTINUOUS
 62
7
100
AcDbLine
 10
100.2113690279192
 20
164.6794584353016
 30
0.000000000000000
 11
102.0113690279192
 21
164.6794584353016
 31
0.000000000000000
  0
LINE
  5
13A
100
AcDbEntity
  8
A1
  6
CONTINUOUS
 62
7
100
AcDbLine
 10
102.0113690279192
 20
169.6794584353016
 30
0.000000000000000
 11
100.2113690279192
 21
169.6794584353016
 31
0.000000000000000
  0
LINE
  5
13B
100
AcDbEntity
  8
A1
  6
CONTINUOUS
 62
7
100
AcDbLine
 10
100.2113690279192
 20
169.6794584353016
 30
0.000000000000000
 11
100.2113690279192
 21
164.6794584353016
 31
0.000000000000000
  0
LINE
  5
13C
100
AcDbEntity
  8
A1
  6
CONTINUOUS
 62
7
100
AcDbLine
 10
102.0113690279192
 20
169.6794584353016
 30
0.000000000000000
 11
102.0113690279192
 21
164.6794584353016
 31
0.000000000000000
  0
LINE
  5
13D
100
AcDbEntity
  8
A1
  6
CONTINUOUS
 62
7
100
AcDbLine
 10
98.01136902791909
 20
164.6794584353016
 30
0.000000000000000
 11
99.51136902791909
 21
164.6794584353016
 31
0.000000000000000
  0
LINE
  5
13E
100
AcDbEntity
  8
A1
  6
CONTINUOUS
 62
7
100
AcDbLine
 10
95.76136902791909
 20
164.6794584353016
 30
0.000000000000000
 11
96.01136902791909
 21
164.6794584353016
 31
0.000000000000000
  0
LINE
  5
13F
100
AcDbEntity
  8
A1
  6
CONTINUOUS
 62
7
100
AcDbLine
 10
61.76136902791910
 20
164.6794584353015
 30
0.000000000000000
 11
93.76136902791910
 21
164.6794584353015
 31
0.000000000000000
  0
LINE
  5
140
100
AcDbEntity
  8
A1
  6
CONTINUOUS
 62
7
100
AcDbLine
 10
59.51136902791909
 20
164.6794584353016
 30
0.000000000000000
 11
59.76136902791909
 21
164.6794584353016
 31
0.000000000000000
  0
LINE
  5
141
100
AcDbEntity
  8
A1
  6
CONTINUOUS
 62
7
100
AcDbLine
 10
59.76136902791909
 20
169.6794584353016
 30
0.000000000000000
 11
59.51136902791909
 21
169.6794584353016
 31
0.000000000000000
  0
LINE
  5
142
100
AcDbEntity
  8
A1
  6
CONTINUOUS
 62
7
100
AcDbLine
 10
93.76136902791909
 20
169.6794584353016
 30
0.000000000000000
 11
61.76136902791909
 21
169.6794584353016
 31
0.000000000000000
  0
LINE
  5
143
100
AcDbEntity
  8
A1
  6
CONTINUOUS
 62
7
100
AcDbLine
 10
96.01136902791909
 20
169.6794584353016
 30
0.000000000000000
 11
95.76136902791909
 21
169.6794584353016
 31
0.000000000000000
  0
LINE
  5
144
100
AcDbEntity
  8
A1
  6
CONTINUOUS
 62
7
100
AcDbLine
 10
99.51136902791909
 20
169.6794584353016
 30
0.000000000000000
 11
98.01136902791909
 21
169.6794584353016
 31
0.000000000000000
  0
LINE
  5
145
100
AcDbEntity
  8
A1
  6
CONTINUOUS
 62
7
100
AcDbLine
 10
99.51136902791909
 20
169.6794584353016
 30
0.000000000000000
 11
99.51136902791909
 21
164.6794584353016
 31
0.000000000000000
  0
LINE
  5
146
100
AcDbEntity
  8
A1
  6
CONTINUOUS
 62
7
100
AcDbLine
 10
55.51136902791892
 20
171.1794584353016
 30
0.000000000000000
 11
55.51136902791892
 21
163.1794584353016
 31
0.000000000000000
  0
SPLINE
  5
147
100
AcDbEntity
  8
A1
  6
CONTINUOUS
 62
7
100
AcDbSpline
210
0.000000000000000
220
0.000000000000000
230
1.000000000000000
 70
     8
 71
     3
 72
    87
 73
    83
 74
     0
 42
1.000000000000000e-07
 43
1.000000000000000e-07
 12
0.9999999999940883
 22
3.461935421000817e-06
 32
0.000000000000000
 13
-0.9999999999813554
 23
5.955255346634658e-06
 33
0.000000000000000
 40
0.000000000000000
 40
0.000000000000000
 40
0.000000000000000
 40
0.000000000000000
 40
0.2566974034521592
 40
0.7125599971033080
 40
1.168424361577916
 40
1.624255399197432
 40
2.080038632785556
 40
2.535759882048692
 40
2.991405347617749
 40
3.446961695654086
 40
3.902416139789202
 40
4.357756519923356
 40
4.812971377430055
 40
5.268050026319132
 40
5.722982619936631
 40
6.177760212788878
 40
6.632374817107399
 40
7.086819453788338
 40
7.541088197370777
 40
7.995176214741113
 40
8.449079797287320
 40
8.902796386255130
 40
9.356324591097243
 40
9.809664200644004
 40
10.26281618696407
 40
10.71578270182870
 40
11.16856706573621
 40
11.62117374950323
 40
12.07360834847421
 40
12.52587754945556
 40
12.97798909052586
 40
13.42995171393124
 40
13.88177511232057
 40
14.33346986863087
 40
14.78504738997622
 40
15.23651983595057
 40
15.68790004179117
 40
16.13920143689892
 40
16.59043795924687
 40
17.04162396624857
 40
17.49277414268314
 40
17.94390340630679
 40
18.39502681179653
 40
18.84615903105352
 40
19.29731455047602
 40
19.74850826272038
 40
20.19975481700083
 40
20.65106852452150
 40
21.10246326625986
 40
21.55395240366868
 40
22.00554869291368
 40
22.45726420322861
 40
22.90911023994430
 40
23.36109727270068
 40
23.81323486931430
 40
24.26553163572548
 40
24.71799516240040
 40
25.17063197751187
 40
25.62344750717179
 40
26.07644604293165
 40
26.52963071671437
 40
26.98300348328660
 40
27.43656511032675
 40
27.89031517609115
 40
28.34425207462924
 40
28.79837302845094
 40
29.25267410850177
 40
29.70715026125600
 40
30.16179534269804
 40
30.61660215892377
 40
31.07156251305582
 40
31.52666725813774
 40
31.98190635563856
 40
32.43726893917746
 40
32.89274338305059
 40
33.34831737512521
 40
33.80397799364692
 40
34.25971178749137
 40
34.71550485938010
 40
35.17134295156906
 40
35.62721153342599
 40
35.94838867326848
 40
35.94838867326848
 40
35.94838867326848
 40
35.94838867326848
 10
99.26136902792801
 20
154.9058994554763
 30
0.000000000000000
 10
99.34693482907822
 20
154.9058997516996
 30
0.000000000000000
 10
99.58445945556302
 20
154.9085245910806
 30
0.000000000000000
 10
99.97370160962082
 20
154.9247760636804
 30
0.000000000000000
 10
100.4281749564324
 20
154.9616620989858
 30
0.000000000000000
 10
100.8808265355469
 20
155.0163556573945
 30
0.000000000000000
 10
101.3309341384521
 20
155.0887704265065
 30
0.000000000000000
 10
101.7777904537552
 20
155.1787926440966
 30
0.000000000000000
 10
102.2206921793701
 20
155.2862807591775
 30
0.000000000000000
 10
102.6589425429148
 20
155.4110656457646
 30
0.000000000000000
 10
103.0918520363653
 20
155.5529508731815
 30
0.000000000000000
 10
103.5187396150988
 20
155.7117130178688
 30
0.000000000000000
 10
103.9389337558756
 20
155.8871020201324
 30
0.000000000000000
 10
104.3517735335509
 20
156.0788415842495
 30
0.000000000000000
 10
104.7566096713250
 20
156.2866296215752
 30
0.000000000000000
 10
105.1528055742709
 20
156.5101387358514
 30
0.000000000000000
 10
105.5397383411917
 20
156.7490167499201
 30
0.000000000000000
 10
105.9167997538293
 20
157.0028872729207
 30
0.000000000000000
 10
106.2833972414315
 20
157.2713503069623
 30
0.000000000000000
 10
106.6389548190077
 20
157.5539828921640
 30
0.000000000000000
 10
106.9829139975879
 20
157.8503397888611
 30
0.000000000000000
 10
107.3147346648773
 20
158.1599541956826
 30
0.000000000000000
 10
107.6338959347733
 20
158.4823385021170
 30
0.000000000000000
 10
107.9398969642825
 20
158.8169850740999
 30
0.000000000000000
 10
108.2322577364762
 20
159.1633670710779
 30
0.000000000000000
 10
108.5105198082088
 20
159.5209392929376
 30
0.000000000000000
 10
108.7742470214331
 20
159.8891390551243
 30
0.000000000000000
 10
109.0230261770479
 20
160.2673870902265
 30
0.000000000000000
 10
109.2564676703323
 20
160.6550884742638
 30
0.000000000000000
 10
109.4742060871257
 20
161.0516335758839
 30
0.000000000000000
 10
109.6759007600349
 20
161.4563990266626
 30
0.000000000000000
 10
109.8612362840557
 20
161.8687487106905
 30
0.000000000000000
 10
110.0299229911111
 20
162.2880347716436
 30
0.000000000000000
 10
110.1816973831079
 20
162.7135986355430
 30
0.000000000000000
 10
110.3163225232184
 20
163.1447720474449
 30
0.000000000000000
 10
110.4335883851758
 20
163.5808781203305
 30
0.000000000000000
 10
110.5333121604625
 20
164.0212323945126
 30
0.000000000000000
 10
110.6153385233352
 20
164.4651439059190
 30
0.000000000000000
 10
110.6795398536961
 20
164.9119162616682
 30
0.000000000000000
 10
110.7258164178674
 20
165.3608487213995
 30
0.000000000000000
 10
110.7540965073701
 20
165.8112372828822
 30
0.000000000000000
 10
110.7643365358326
 20
166.2623757704559
 30
0.000000000000000
 10
110.7565210966224
 20
166.7135567840647
 30
0.000000000000000
 10
110.7306630099216
 20
167.1640727477243
 30
0.000000000000000
 10
110.6868033169055
 20
167.6132171906364
 30
0.000000000000000
 10
110.6250111811748
 20
168.0602859808226
 30
0.000000000000000
 10
110.5453837353577
 20
168.5045784505602
 30
0.000000000000000
 10
110.4480459388783
 20
168.9453982888764
 30
0.000000000000000
 10
110.3331503845818
 20
169.3820546117097
 30
0.000000000000000
 10
110.2008770649827
 20
169.8138630243063
 30
0.000000000000000
 10
110.0514330983477
 20
170.2401466745456
 30
0.000000000000000
 10
109.8850524148247
 20
170.6602372959147
 30
0.000000000000000
 10
109.7019954028486
 20
171.0734762388250
 30
0.000000000000000
 10
109.5025485160694
 20
171.4792154889325
 30
0.000000000000000
 10
109.2870238410856
 20
171.8768186710909
 30
0.000000000000000
 10
109.0557586263018
 20
172.2656620375389
 30
0.000000000000000
 10
108.8091147722743
 20
172.6451354388826
 30
0.000000000000000
 10
108.5474782839744
 20
173.0146432764107
 30
0.000000000000000
 10
108.2712586854559
 20
173.3736054342520
 30
0.000000000000000
 10
107.9808883974914
 20
173.7214581898652
 30
0.000000000000000
 10
107.6768220788191
 20
174.0576551013356
 30
0.000000000000000
 10
107.3595359317279
 20
174.3816678699520
 30
0.000000000000000
 10
107.0295269727960
 20
174.6929871765381
 30
0.000000000000000
 10
106.6873122696879
 20
174.9911234900243
 30
0.000000000000000
 10
106.3334281450080
 20
175.2756078467709
 30
0.000000000000000
 10
105.9684293482990
 20
175.5459925991813
 30
0.000000000000000
 10
105.5928881973581
 20
175.8018521321866
 30
0.000000000000000
 10
105.2073936901373
 20
176.0427835462303
 30
0.000000000000000
 10
104.8125505885647
 20
176.2684073054374
 30
0.000000000000000
 10
104.4089784757140
 20
176.4783678497157
 30
0.000000000000000
 10
103.9973107877786
 20
176.6723341696066
 30
0.000000000000000
 10
103.5781938225073
 20
176.8500003427667
 30
0.000000000000000
 10
103.1522857253257
 20
177.0110860310778
 30
0.000000000000000
 10
102.7202554562063
 20
177.1553369373080
 30
0.000000000000000
 10
102.2827817337534
 20
177.2825252209034
 30
0.000000000000000
 10
101.8405519777630
 20
177.3924498704278
 30
0.000000000000000
 10
101.3942611791464
 20
177.4849370382358
 30
0.000000000000000
 10
100.9446109710666
 20
177.5598403132466
 30
0.000000000000000
 10
100.4923078875310
 20
177.6170410189887
 30
0.000000000000000
 10
100.0380646022264
 20
177.6564482090014
 30
0.000000000000000
 10
99.62745408138839
 20
177.6758767790756
 30
0.000000000000000
 10
99.36842807454018
 20
177.6794577977377
 30
0.000000000000000
 10
99.26136902792801
 20
177.6794584353016
 30
0.000000000000000
  0
SPLINE
  5
148
100
AcDbEntity
  8
A1
  6
CONTINUOUS
 62
7
100
AcDbSpline
210
0.000000000000000
220
0.000000000000000
230
1.000000000000000
 70
     8
 71
     3
 72
    76
 73
    72
 74
     0
 42
1.000000000000000e-07
 43
1.000000000000000e-07
 12
0.9999999999927240
 22
-3.670155820145737e-06
 32
0.000000000000000
 13
-0.9999999999538431
 23
-9.585241286913515e-06
 33
0.000000000000000
 40
0.000000000000000
 40
0.000000000000000
 40
0.000000000000000
 40
0.000000000000000
 40
0.1903925554841178
 40
0.5816074538938505
 40
0.9728100060911061
 40
1.363953670439194
 40
1.755018997554039
 40
2.145987199920244
 40
2.536840309614013
 40
2.927561333730868
 40
3.318134401650411
 40
3.708544902796195
 40
4.098779613624364
 40
4.488826812661418
 40
4.878676382511711
 40
5.268319897870336
 40
5.657750698700206
 40
6.046963947872302
 40
6.435956672712951
 40
6.824727790060450
 40
7.213278114594869
 40
7.601610350373580
 40
7.989729065677484
 40
8.377640651439627
 40
8.765353263699335
 40
9.152876750683793
 40
9.540222565273176
 40
9.927403663745181
 40
10.31443439182391
 40
10.70133035916709
 40
11.08810830351882
 40
11.47478594583319
 40
11.86138183772378
 40
12.24791520263808
 40
12.63440577217149
 40
13.02087361893849
 40
13.40733898741376
 40
13.79382212412805
 40
14.18034124426739
 40
14.56691584948164
 40
14.95356522936886
 40
15.34030803851477
 40
15.72716214190917
 40
16.11414446693089
 40
16.50127086297037
 40
16.88855596976541
 40
17.27601309547080
 40
17.66365410543045
 40
18.05148932255779
 40
18.43952744015828
 40
18.82777544795172
 40
19.21623857195934
 40
19.60492022882710
 40
19.99382199504590
 40
20.38294359141410
 40
20.77228288296497
 40
21.16183589445339
 40
21.55159684135772
 40
21.94155817622216
 40
22.33171065002396
 40
22.72204338811475
 40
23.11254398015270
 40
23.50319858331478
 40
23.89399203795474
 40
24.28490799475980
 40
24.67592905235220
 40
25.06703690418544
 40
25.45821249350196
 40
25.84943617503734
 40
26.24068788200356
 40
26.52362146018857
 40
26.52362146018857
 40
26.52362146018857
 40
26.52362146018857
 10
99.26136902792801
 20
174.6794584353016
 30
0.000000000000000
 10
99.32483321308892
 20
174.6794582023782
 30
0.000000000000000
 10
99.51870509493817
 20
174.6773156893101
 30
0.000000000000000
 10
99.84277024342377
 20
174.6627848757802
 30
0.000000000000000
 10
100.2324968063804
 20
174.6275217293776
 30
0.000000000000000
 10
100.6201739756501
 20
174.5746003824906
 30
0.000000000000000
 10
101.0049685876188
 20
174.5041339904342
 30
0.000000000000000
 10
101.3860685334027
 20
174.4162718525917
 30
0.000000000000000
 10
101.7626678748869
 20
174.3111997804240
 30
0.000000000000000
 10
102.1339705789063
 20
174.1891397367364
 30
0.000000000000000
 10
102.4991916067540
 20
174.0503493650683
 30
0.000000000000000
 10
102.8575586836968
 20
173.8951214590830
 30
0.000000000000000
 10
103.2083138539798
 20
173.7237833603338
 30
0.000000000000000
 10
103.5507150574653
 20
173.5366962893140
 30
0.000000000000000
 10
103.8840376614167
 20
173.3342546103450
 30
0.000000000000000
 10
104.2075759621619
 20
173.1168850320599
 30
0.000000000000000
 10
104.5206446497867
 20
172.8850457449153
 30
0.000000000000000
 10
104.8225802349285
 20
172.6392254972230
 30
0.000000000000000
 10
105.1127424352660
 20
172.3799426111157
 30
0.000000000000000
 10
105.3905155197628
 20
172.1077439398016
 30
0.000000000000000
 10
105.6553096086281
 20
171.8232037673890
 30
0.000000000000000
 10
105.9065619269590
 20
171.5269226524925
 30
0.000000000000000
 10
106.1437380099522
 20
171.2195262167730
 30
0.000000000000000
 10
106.3663328574760
 20
170.9016638795308
 30
0.000000000000000
 10
106.5738720356490
 20
170.5740075394684
 30
0.000000000000000
 10
106.7659127229087
 20
170.2372502047839
 30
0.000000000000000
 10
106.9420446978710
 20
169.8921045728503
 30
0.000000000000000
 10
107.1018912660902
 20
169.5393015608904
 30
0.000000000000000
 10
107.2451101226475
 20
169.1795887892767
 30
0.000000000000000
 10
107.3713941473429
 20
168.8137290193649
 30
0.000000000000000
 10
107.4804721291403
 20
168.4424985481132
 30
0.000000000000000
 10
107.5721094164543
 20
168.0666855621373
 30
0.000000000000000
 10
107.6461084898705
 20
167.6870884542869
 30
0.000000000000000
 10
107.7023094539703
 20
167.3045141063003
 30
0.000000000000000
 10
107.7405904451056
 20
166.9197761415758
 30
0.000000000000000
 10
107.7608679522208
 20
166.5336931525396
 30
0.000000000000000
 10
107.7630970481872
 20
166.1470869076596
 30
0.000000000000000
 10
107.7472715549390
 20
165.7607811641964
 30
0.000000000000000
 10
107.7134242021179
 20
165.3755993029618
 30
0.000000000000000
 10
107.6616265854667
 20
164.9923623908829
 30
0.000000000000000
 10
107.5919888610289
 20
164.6118867355496
 30
0.000000000000000
 10
107.5046595003995
 20
164.2349826116083
 30
0.000000000000000
 10
107.3998249611988
 20
163.8624525568475
 30
0.000000000000000
 10
107.2777092583494
 20
163.4950896024841
 30
0.000000000000000
 10
107.1385734459376
 20
163.1336755305614
 30
0.000000000000000
 10
106.9827150122516
 20
162.7789791636035
 30
0.000000000000000
 10
106.8104671909608
 20
162.4317546912712
 30
0.000000000000000
 10
106.6221981917104
 20
162.0927400383250
 30
0.000000000000000
 10
106.4183103536225
 20
161.7626552777499
 30
0.000000000000000
 10
106.1992392253335
 20
161.4422010924448
 30
0.000000000000000
 10
105.9654525752641
 20
161.1320572884541
 30
0.000000000000000
 10
105.7174493358111
 20
160.8328813623114
 30
0.000000000000000
 10
105.4557584851063
 20
160.5453071247176
 30
0.000000000000000
 10
105.1809378698823
 20
160.2699433824616
 30
0.000000000000000
 10
104.8935729728783
 20
160.0073726802414
 30
0.000000000000000
 10
104.5942756280770
 20
159.7581501038364
 30
0.000000000000000
 10
104.2836826869402
 20
159.5228021459349
 30
0.000000000000000
 10
103.9624546386811
 20
159.3018256358034
 30
0.000000000000000
 10
103.6312741875175
 20
159.0956867339201
 30
0.000000000000000
 10
103.2908447897406
 20
158.9048199926411
 30
0.000000000000000
 10
102.9418891534978
 20
158.7296274839632
 30
0.000000000000000
 10
102.5851477037130
 20
158.5704779953612
 30
0.000000000000000
 10
102.2213770162752
 20
158.4277062949388
 30
0.000000000000000
 10
101.8513482192877
 20
158.3016124660824
 30
0.000000000000000
 10
101.4758453829966
 20
158.1924613156411
 30
0.000000000000000
 10
101.0956638313311
 20
158.1004818451855
 30
0.000000000000000
 10
100.7116086394173
 20
158.0258668286847
 30
0.000000000000000
 10
100.3244923444861
 20
157.9687723388082
 30
0.000000000000000
 10
99.93513551565677
 20
157.9293178144776
 30
0.000000000000000
 10
99.58042219364357
 20
157.9095902660868
 30
0.000000000000000
 10
99.35568022065199
 20
157.9059003594719
 30
0.000000000000000
 10
99.26136902792801
 20
157.9058994554763
 30
0.000000000000000
  0
SPLINE
  5
149
100
AcDbEntity
  8
A1
  6
CONTINUOUS
 62
7
100
AcDbSpline
210
0.000000000000000
220
0.000000000000000
230
1.000000000000000
 70
     8
 71
     3
 72
    87
 73
    83
 74
     0
 42
1.000000000000000e-07
 43
1.000000000000000e-07
 12
-0.9999999999942020
 22
-3.461936103121843e-06
 32
0.000000000000000
 13
0.9999999999820375
 23
-5.955254891887307e-06
 33
0.000000000000000
 40
0.000000000000000
 40
0.000000000000000
 40
0.000000000000000
 40
0.000000000000000
 40
0.2566974034521309
 40
0.7125599971031371
 40
1.168424361577744
 40
1.624255399197347
 40
2.080038632785381
 40
2.535759882048515
 40
2.991405347617428
 40
3.446961695653816
 40
3.902416139788876
 40
4.357756519923170
 40
4.812971377429746
 40
5.268050026318884
 40
5.722982619936372
 40
6.177760212788651
 40
6.632374817107097
 40
7.086819453788134
 40
7.541088197370578
 40
7.995176214740972
 40
8.449079797287169
 40
8.902796386254899
 40
9.356324591097032
 40
9.809664200643782
 40
10.26281618696382
 40
10.71578270182836
 40
11.16856706573584
 40
11.62117374950282
 40
12.07360834847399
 40
12.52587754945529
 40
12.97798909052554
 40
13.42995171393067
 40
13.88177511232016
 40
14.33346986863041
 40
14.78504738997574
 40
15.23651983595008
 40
15.68790004179064
 40
16.13920143689821
 40
16.59043795924614
 40
17.04162396624782
 40
17.49277414268219
 40
17.94390340630601
 40
18.39502681179589
 40
18.84615903105304
 40
19.29731455047551
 40
19.74850826271969
 40
20.19975481700012
 40
20.65106852452078
 40
21.10246326625896
 40
21.55395240366778
 40
22.00554869291276
 40
22.45726420322769
 40
22.90911023994338
 40
23.36109727269977
 40
23.81323486931342
 40
24.26553163572481
 40
24.71799516239977
 40
25.17063197751109
 40
25.62344750717106
 40
26.07644604293091
 40
26.52963071671364
 40
26.98300348328583
 40
27.43656511032608
 40
27.89031517609049
 40
28.34425207462855
 40
28.79837302845023
 40
29.25267410850111
 40
29.70715026125529
 40
30.16179534269738
 40
30.61660215892303
 40
31.07156251305516
 40
31.52666725813715
 40
31.98190635563798
 40
32.43726893917690
 40
32.89274338304991
 40
33.34831737512453
 40
33.80397799364623
 40
34.25971178749059
 40
34.71550485937939
 40
35.17134295156836
 40
35.62721153342524
 40
35.94838867326849
 40
35.94838867326849
 40
35.94838867326849
 40
35.94838867326849
 10
56.26136902792801
 20
177.6794584353016
 30
0.000000000000000
 10
56.17580322677780
 20
177.6794581390783
 30
0.000000000000000
 10
55.93827860029312
 20
177.6768332996973
 30
0.000000000000000
 10
55.54903644623532
 20
177.6605818270976
 30
0.000000000000000
 10
55.09456309942372
 20
177.6236957917922
 30
0.000000000000000
 10
54.64191152030922
 20
177.5690022333835
 30
0.000000000000000
 10
54.19180391740399
 20
177.4965874642714
 30
0.000000000000000
 10
53.74494760210091
 20
177.4065652466814
 30
0.000000000000000
 10
53.30204587648619
 20
177.2990771316005
 30
0.000000000000000
 10
52.86379551294151
 20
177.1742922450135
 30
0.000000000000000
 10
52.43088601949090
 20
177.0324070175964
 30
0.000000000000000
 10
52.00399844075729
 20
176.8736448729093
 30
0.000000000000000
 10
51.58380429998060
 20
176.6982558706457
 30
0.000000000000000
 10
51.17096452230520
 20
176.5065163065285
 30
0.000000000000000
 10
50.76612838453109
 20
176.2987282692028
 30
0.000000000000000
 10
50.36993248158528
 20
176.0752191549267
 30
0.000000000000000
 10
49.98299971466450
 20
175.8363411408580
 30
0.000000000000000
 10
49.60593830202690
 20
175.5824706178574
 30
0.000000000000000
 10
49.23934081442461
 20
175.3140075838157
 30
0.000000000000000
 10
48.88378323684832
 20
175.0313749986140
 30
0.000000000000000
 10
48.53982405826820
 20
174.7350181019169
 30
0.000000000000000
 10
48.20800339097882
 20
174.4254036950955
 30
0.000000000000000
 10
47.88884212108279
 20
174.1030193886611
 30
0.000000000000000
 10
47.58284109157357
 20
173.7683728166783
 30
0.000000000000000
 10
47.29048031938002
 20
173.4219908197002
 30
0.000000000000000
 10
47.01221824764717
 20
173.0644185978406
 30
0.000000000000000
 10
46.74849103442311
 20
172.6962188356540
 30
0.000000000000000
 10
46.49971187880821
 20
172.3179708005517
 30
0.000000000000000
 10
46.26627038552390
 20
171.9302694165144
 30
0.000000000000000
 10
46.04853196873027
 20
171.5337243148942
 30
0.000000000000000
 10
45.84683729582132
 20
171.1289588641158
 30
0.000000000000000
 10
45.66150177180047
 20
170.7166091800879
 30
0.000000000000000
 10
45.49281506474499
 20
170.2973231191348
 30
0.000000000000000
 10
45.34104067274829
 20
169.8717592552354
 30
0.000000000000000
 10
45.20641553263759
 20
169.4405858433335
 30
0.000000000000000
 10
45.08914967068021
 20
169.0044797704480
 30
0.000000000000000
 10
44.98942589539358
 20
168.5641254962659
 30
0.000000000000000
 10
44.90739953252078
 20
168.1202139848595
 30
0.000000000000000
 10
44.84319820216011
 20
167.6734416291105
 30
0.000000000000000
 10
44.79692163798852
 20
167.2245091693792
 30
0.000000000000000
 10
44.76864154848589
 20
166.7741206078965
 30
0.000000000000000
 10
44.75840152002341
 20
166.3229821203229
 30
0.000000000000000
 10
44.76621695923352
 20
165.8718011067138
 30
0.000000000000000
 10
44.79207504593420
 20
165.4212851430542
 30
0.000000000000000
 10
44.83593473895051
 20
164.9721407001421
 30
0.000000000000000
 10
44.89772687468097
 20
164.5250719099559
 30
0.000000000000000
 10
44.97735432049812
 20
164.0807794402184
 30
0.000000000000000
 10
45.07469211697757
 20
163.6399596019023
 30
0.000000000000000
 10
45.18958767127388
 20
163.2033032790691
 30
0.000000000000000
 10
45.32186099087288
 20
162.7714948664725
 30
0.000000000000000
 10
45.47130495750791
 20
162.3452112162332
 30
0.000000000000000
 10
45.63768564103087
 20
161.9251205948642
 30
0.000000000000000
 10
45.82074265300689
 20
161.5118816519537
 30
0.000000000000000
 10
46.02018953978607
 20
161.1061424018463
 30
0.000000000000000
 10
46.23571421476980
 20
160.7085392196878
 30
0.000000000000000
 10
46.46697942955369
 20
160.3196958532396
 30
0.000000000000000
 10
46.71362328358127
 20
159.9402224518960
 30
0.000000000000000
 10
46.97525977188120
 20
159.5707146143679
 30
0.000000000000000
 10
47.25147937039951
 20
159.2117524565265
 30
0.000000000000000
 10
47.54184965836400
 20
158.8638997009132
 30
0.000000000000000
 10
47.84591597703631
 20
158.5277027894429
 30
0.000000000000000
 10
48.16320212412749
 20
158.2036900208265
 30
0.000000000000000
 10
48.49321108305951
 20
157.8923707142403
 30
0.000000000000000
 10
48.83542578616770
 20
157.5942344007541
 30
0.000000000000000
 10
49.18930991084731
 20
157.3097500440074
 30
0.000000000000000
 10
49.55430870755639
 20
157.0393652915971
 30
0.000000000000000
 10
49.92984985849732
 20
156.7835057585917
 30
0.000000000000000
 10
50.31534436571808
 20
156.5425743445480
 30
0.000000000000000
 10
50.71018746729060
 20
156.3169505853409
 30
0.000000000000000
 10
51.11375958014132
 20
156.1069900410625
 30
0.000000000000000
 10
51.52542726807671
 20
155.9130237211716
 30
0.000000000000000
 10
51.94454423334797
 20
155.7353575480114
 30
0.000000000000000
 10
52.37045233052969
 20
155.5742718597004
 30
0.000000000000000
 10
52.80248259964911
 20
155.4300209534701
 30
0.000000000000000
 10
53.23995632210192
 20
155.3028326698748
 30
0.000000000000000
 10
53.68218607809222
 20
155.1929080203503
 30
0.000000000000000
 10
54.12847687670892
 20
155.1004208525423
 30
0.000000000000000
 10
54.57812708478859
 20
155.0255175775314
 30
0.000000000000000
 10
55.03043016832417
 20
154.9683168717893
 30
0.000000000000000
 10
55.48467345362882
 20
154.9289096817765
 30
0.000000000000000
 10
55.89528397446701
 20
154.9094811117023
 30
0.000000000000000
 10
56.15430998131551
 20
154.9059000930403
 30
0.000000000000000
 10
56.26136902792801
 20
154.9058994554763
 30
0.000000000000000
  0
SPLINE
  5
14A
100
AcDbEntity
  8
A1
  6
CONTINUOUS
 62
7
100
AcDbSpline
210
0.000000000000000
220
0.000000000000000
230
1.000000000000000
 70
     8
 71
     3
 72
    76
 73
    72
 74
     0
 42
1.000000000000000e-07
 43
1.000000000000000e-07
 12
-0.9999999999945430
 22
3.670156274893088e-06
 32
0.000000000000000
 13
0.9999999999542979
 23
9.585241514287191e-06
 33
0.000000000000000
 40
0.000000000000000
 40
0.000000000000000
 40
0.000000000000000
 40
0.000000000000000
 40
0.1903925554841179
 40
0.5816074538938224
 40
0.9728100060910472
 40
1.363953670439135
 40
1.755018997553923
 40
2.145987199920154
 40
2.536840309613894
 40
2.927561333730744
 40
3.318134401650287
 40
3.708544902796072
 40
4.098779613624266
 40
4.488826812661362
 40
4.878676382511707
 40
5.268319897870305
 40
5.657750698700171
 40
6.046963947872236
 40
6.435956672712880
 40
6.824727790060415
 40
7.213278114594778
 40
7.601610350373584
 40
7.989729065677404
 40
8.377640651439592
 40
8.765353263699257
 40
9.152876750683753
 40
9.540222565273016
 40
9.927403663745059
 40
10.31443439182388
 40
10.70133035916699
 40
11.08810830351883
 40
11.47478594583314
 40
11.86138183772360
 40
12.24791520263807
 40
12.63440577217149
 40
13.02087361893852
 40
13.40733898741381
 40
13.79382212412796
 40
14.18034124426718
 40
14.56691584948167
 40
14.95356522936874
 40
15.34030803851474
 40
15.72716214190915
 40
16.11414446693072
 40
16.50127086297022
 40
16.88855596976520
 40
17.27601309547059
 40
17.66365410543019
 40
18.05148932255755
 40
18.43952744015805
 40
18.82777544795143
 40
19.21623857195911
 40
19.60492022882678
 40
19.99382199504565
 40
20.38294359141389
 40
20.77228288296475
 40
21.16183589445321
 40
21.55159684135744
 40
21.94155817622192
 40
22.33171065002383
 40
22.72204338811456
 40
23.11254398015248
 40
23.50319858331456
 40
23.89399203795447
 40
24.28490799475961
 40
24.67592905235196
 40
25.06703690418528
 40
25.45821249350172
 40
25.84943617503704
 40
26.24068788200335
 40
26.52362146018856
 40
26.52362146018856
 40
26.52362146018856
 40
26.52362146018856
 10
56.26136902792801
 20
157.9058994554763
 30
0.000000000000000
 10
56.19790484276699
 20
157.9058996883998
 30
0.000000000000000
 10
56.00403296091780
 20
157.9080422014678
 30
0.000000000000000
 10
55.67996781243220
 20
157.9225730149977
 30
0.000000000000000
 10
55.29024124947561
 20
157.9578361614003
 30
0.000000000000000
 10
54.90256408020592
 20
158.0107575082873
 30
0.000000000000000
 10
54.51776946823718
 20
158.0812239003437
 30
0.000000000000000
 10
54.13666952245340
 20
158.1690860381862
 30
0.000000000000000
 10
53.76007018096912
 20
158.2741581103539
 30
0.000000000000000
 10
53.38876747694978
 20
158.3962181540415
 30
0.000000000000000
 10
53.02354644910211
 20
158.5350085257096
 30
0.000000000000000
 10
52.66517937215910
 20
158.6902364316948
 30
0.000000000000000
 10
52.31442420187629
 20
158.8615745304440
 30
0.000000000000000
 10
51.97202299839061
 20
159.0486616014639
 30
0.000000000000000
 10
51.63870039443928
 20
159.2511032804329
 30
0.000000000000000
 10
51.31516209369401
 20
159.4684728587180
 30
0.000000000000000
 10
51.00209340606942
 20
159.7003121458627
 30
0.000000000000000
 10
50.70015782092740
 20
159.9461323935549
 30
0.000000000000000
 10
50.40999562058998
 20
160.2054152796622
 30
0.000000000000000
 10
50.13222253609329
 20
160.4776139509763
 30
0.000000000000000
 10
49.86742844722782
 20
160.7621541233889
 30
0.000000000000000
 10
49.61617612889698
 20
161.0584352382854
 30
0.000000000000000
 10
49.37900004590379
 20
161.3658316740050
 30
0.000000000000000
 10
49.15640519838000
 20
161.6836940112472
 30
0.000000000000000
 10
48.94886602020698
 20
162.0113503513095
 30
0.000000000000000
 10
48.75682533294740
 20
162.3481076859939
 30
0.000000000000000
 10
48.58069335798477
 20
162.6932533179275
 30
0.000000000000000
 10
48.42084678976572
 20
163.0460563298874
 30
0.000000000000000
 10
48.27762793320851
 20
163.4057691015012
 30
0.000000000000000
 10
48.15134390851300
 20
163.7716288714130
 30
0.000000000000000
 10
48.04226592671567
 20
164.1428593426647
 30
0.000000000000000
 10
47.95062863940170
 20
164.5186723286406
 30
0.000000000000000
 10
47.87662956598551
 20
164.8982694364909
 30
0.000000000000000
 10
47.82042860188572
 20
165.2808437844776
 30
0.000000000000000
 10
47.78214761075041
 20
165.6655817492021
 30
0.000000000000000
 10
47.76187010363519
 20
166.0516647382384
 30
0.000000000000000
 10
47.75964100766872
 20
166.4382709831183
 30
0.000000000000000
 10
47.77546650091692
 20
166.8245767265815
 30
0.000000000000000
 10
47.80931385373809
 20
167.2097585878161
 30
0.000000000000000
 10
47.86111147038928
 20
167.5929954998949
 30
0.000000000000000
 10
47.93074919482687
 20
167.9734711552283
 30
0.000000000000000
 10
48.01807855545648
 20
168.3503752791696
 30
0.000000000000000
 10
48.12291309465711
 20
168.7229053339304
 30
0.000000000000000
 10
48.24502879750661
 20
169.0902682882938
 30
0.000000000000000
 10
48.38416460991822
 20
169.4516823602164
 30
0.000000000000000
 10
48.54002304360431
 20
169.8063787271743
 30
0.000000000000000
 10
48.71227086489499
 20
170.1536031995066
 30
0.000000000000000
 10
48.90053986414539
 20
170.4926178524527
 30
0.000000000000000
 10
49.10442770223328
 20
170.8227026130279
 30
0.000000000000000
 10
49.32349883052221
 20
171.1431567983329
 30
0.000000000000000
 10
49.55728548059180
 20
171.4533006023237
 30
0.000000000000000
 10
49.80528872004457
 20
171.7524765284664
 30
0.000000000000000
 10
50.06697957074941
 20
172.0400507660602
 30
0.000000000000000
 10
50.34180018597350
 20
172.3154145083162
 30
0.000000000000000
 10
50.62916508297751
 20
172.5779852105364
 30
0.000000000000000
 10
50.92846242777891
 20
172.8272077869414
 30
0.000000000000000
 10
51.23905536891549
 20
173.0625557448429
 30
0.000000000000000
 10
51.56028341717472
 20
173.2835322549745
 30
0.000000000000000
 10
51.89146386833822
 20
173.4896711568578
 30
0.000000000000000
 10
52.23189326611519
 20
173.6805378981368
 30
0.000000000000000
 10
52.58084890235800
 20
173.8557304068146
 30
0.000000000000000
 10
52.93759035214269
 20
174.0148798954166
 30
0.000000000000000
 10
53.30136103958067
 20
174.1576515958391
 30
0.000000000000000
 10
53.67138983656791
 20
174.2837454246955
 30
0.000000000000000
 10
54.04689267285907
 20
174.3928965751368
 30
0.000000000000000
 10
54.42707422452467
 20
174.4848760455924
 30
0.000000000000000
 10
54.81112941643850
 20
174.5594910620932
 30
0.000000000000000
 10
55.19824571136961
 20
174.6165855519698
 30
0.000000000000000
 10
55.58760254019892
 20
174.6560400763003
 30
0.000000000000000
 10
55.94231586221217
 20
174.6757676246912
 30
0.000000000000000
 10
56.16705783520392
 20
174.6794575313061
 30
0.000000000000000
 10
56.26136902792801
 20
174.6794584353016
 30
0.000000000000000
  0
ELLIPSE
  5
14B
100
AcDbEntity
  8
A1
  6
CONTINUOUS
 62
7
100
AcDbEllipse
 10
92.26136902792801
 20
174.0895627614044
 30
0.000000000000000
 11
0.5000000000000000
 21
0.000000000000000
 31
0.000000000000000
210
0.000000000000000
220
0.000000000000000
230
1.000000000000000
 40
0.9886779489912637
 41
4.712388980384690
 42
0.000000000000000
  0
ELLIPSE
  5
14C
100
AcDbEntity
  8
A1
  6
CONTINUOUS
 62
7
100
AcDbEllipse
 10
92.26136902792801
 20
174.3146423132333
 30
0.000000000000000
 11
0.5000000000000000
 21
0.000000000000000
 31
0.000000000000000
210
0.000000000000000
220
0.000000000000000
230
1.000000000000000
 40
0.9886779489912637
 41
4.712388980384690
 42
0.000000000000000
  0
ELLIPSE
  5
14D
100
AcDbEntity
  8
A1
  6
CONTINUOUS
 62
7
100
AcDbEllipse
 10
92.26136902792801
 20
178.2693541091983
 30
0.000000000000000
 11
0.5000000000000000
 21
0.000000000000000
 31
0.000000000000000
210
0.000000000000000
220
0.000000000000000
230
1.000000000000000
 40
0.9886779489912637
 41
0.000000000000000
 42
1.570796326794897
  0
ELLIPSE
  5
14E
100
AcDbEntity
  8
A1
  6
CONTINUOUS
 62
7
100
AcDbEllipse
 10
63.26136902792801
 20
174.0895627614044
 30
0.000000000000000
 11
0.5000000000000000
 21
0.000000000000000
 31
0.000000000000000
210
0.000000000000000
220
0.000000000000000
230
1.000000000000000
 40
0.9886779489912637
 41
3.141592653589793
 42
4.712388980384690
  0
ELLIPSE
  5
14F
100
AcDbEntity
  8
A1
  6
CONTINUOUS
 62
7
100
AcDbEllipse
 10
63.26136902792801
 20
174.3146423132333
 30
0.000000000000000
 11
0.5000000000000000
 21
0.000000000000000
 31
0.000000000000000
210
0.000000000000000
220
0.000000000000000
230
1.000000000000000
 40
0.9886779489912637
 41
3.141592653589793
 42
4.712388980384690
  0
ELLIPSE
  5
150
100
AcDbEntity
  8
A1
  6
CONTINUOUS
 62
7
100
AcDbEllipse
 10
63.26136902792801
 20
178.2693541091983
 30
0.000000000000000
 11
0.5000000000000000
 21
0.000000000000000
 31
0.000000000000000
210
0.000000000000000
220
0.000000000000000
230
1.000000000000000
 40
0.9886779489912637
 41
1.570796326794897
 42
3.141592653589793
  0
LINE
  5
151
100
AcDbEntity
  8
A1
  6
CONTINUOUS
 62
7
100
AcDbLine
 10
92.76136902792801
 20
174.3146423132333
 30
0.000000000000000
 11
92.76136902792801
 21
174.0895627614044
 31
0.000000000000000
  0
LINE
  5
152
100
AcDbEntity
  8
A1
  6
CONTINUOUS
 62
7
100
AcDbLine
 10
87.76136902792801
 20
173.8203033387376
 30
0.000000000000000
 11
87.76136902792801
 21
173.5952237869088
 31
0.000000000000000
  0
LINE
  5
153
100
AcDbEntity
  8
A1
  6
CONTINUOUS
 62
7
100
AcDbLine
 10
87.76136902792801
 20
173.5952237869088
 30
0.000000000000000
 11
92.26136902792801
 21
173.5952237869088
 31
0.000000000000000
  0
LINE
  5
154
100
AcDbEntity
  8
A1
  6
CONTINUOUS
 62
7
100
AcDbLine
 10
92.76136902792801
 20
174.3146423132333
 30
0.000000000000000
 11
92.76136902792801
 21
175.0076678812338
 31
0.000000000000000
  0
LINE
  5
155
100
AcDbEntity
  8
A1
  6
CONTINUOUS
 62
7
100
AcDbLine
 10
92.76136902792801
 20
177.5763285411978
 30
0.000000000000000
 11
92.76136902792801
 21
178.2693541091983
 31
0.000000000000000
  0
LINE
  5
156
100
AcDbEntity
  8
A1
  6
CONTINUOUS
 62
7
100
AcDbLine
 10
92.26136902792801
 20
178.7636930836939
 30
0.000000000000000
 11
87.76136902792801
 21
178.7636930836939
 31
0.000000000000000
  0
LINE
  5
157
100
AcDbEntity
  8
A1
  6
CONTINUOUS
 62
7
100
AcDbLine
 10
87.76136902792801
 20
178.7636930836939
 30
0.000000000000000
 11
87.76136902792801
 21
173.8203033387376
 31
0.000000000000000
  0
LINE
  5
158
100
AcDbEntity
  8
A1
  6
CONTINUOUS
 62
7
100
AcDbLine
 10
87.76136902792801
 20
173.8203033387376
 30
0.000000000000000
 11
92.26136902792801
 21
173.8203033387376
 31
0.000000000000000
  0
LINE
  5
159
100
AcDbEntity
  8
A1
  6
CONTINUOUS
 62
7
100
AcDbLine
 10
62.76136902792801
 20
174.0895627614044
 30
0.000000000000000
 11
62.76136902792801
 21
174.3146423132333
 31
0.000000000000000
  0
LINE
  5
15A
100
AcDbEntity
  8
A1
  6
CONTINUOUS
 62
7
100
AcDbLine
 10
63.26136902792801
 20
173.5952237869088
 30
0.000000000000000
 11
67.76136902792801
 21
173.5952237869088
 31
0.000000000000000
  0
LINE
  5
15B
100
AcDbEntity
  8
A1
  6
CONTINUOUS
 62
7
100
AcDbLine
 10
67.76136902792801
 20
173.5952237869088
 30
0.000000000000000
 11
67.76136902792801
 21
173.8203033387376
 31
0.000000000000000
  0
LINE
  5
15C
100
AcDbEntity
  8
A1
  6
CONTINUOUS
 62
7
100
AcDbLine
 10
63.26136902792801
 20
173.8203033387376
 30
0.000000000000000
 11
67.76136902792801
 21
173.8203033387376
 31
0.000000000000000
  0
LINE
  5
15D
100
AcDbEntity
  8
A1
  6
CONTINUOUS
 62
7
100
AcDbLine
 10
67.76136902792801
 20
173.8203033387376
 30
0.000000000000000
 11
67.76136902792801
 21
178.7636930836939
 31
0.000000000000000
  0
LINE
  5
15E
100
AcDbEntity
  8
A1
  6
CONTINUOUS
 62
7
100
AcDbLine
 10
67.76136902792801
 20
178.7636930836939
 30
0.000000000000000
 11
63.26136902792801
 21
178.7636930836939
 31
0.000000000000000
  0
LINE
  5
15F
100
AcDbEntity
  8
A1
  6
CONTINUOUS
 62
7
100
AcDbLine
 10
62.76136902792801
 20
178.2693541091983
 30
0.000000000000000
 11
62.76136902792801
 21
177.5763285411977
 31
0.000000000000000
  0
LINE
  5
160
100
AcDbEntity
  8
A1
  6
CONTINUOUS
 62
7
100
AcDbLine
 10
62.76136902792801
 20
175.0076678812338
 30
0.000000000000000
 11
62.76136902792801
 21
174.3146423132333
 31
0.000000000000000
  0
LINE
  5
161
100
AcDbEntity
  8
A1
  6
CONTINUOUS
 62
7
100
AcDbLine
 10
62.76136902792801
 20
177.5763285411977
 30
0.000000000000000
 11
62.76136902792801
 21
175.0076678812338
 31
0.000000000000000
  0
LINE
  5
162
100
AcDbEntity
  8
A1
  6
CONTINUOUS
 62
7
100
AcDbLine
 10
61.76136902791909
 20
174.6794584353014
 30
0.000000000000000
 11
62.76136902792801
 21
174.6794584353014
 31
0.000000000000000
  0
LINE
  5
163
100
AcDbEntity
  8
A1
  6
CONTINUOUS
 62
7
100
AcDbLine
 10
59.51136902791909
 20
174.6794584353014
 30
0.000000000000000
 11
59.76136902791909
 21
174.6794584353014
 31
0.000000000000000
  0
LINE
  5
164
100
AcDbEntity
  8
A1
  6
CONTINUOUS
 62
7
100
AcDbLine
 10
56.26136902792801
 20
174.6794584353014
 30
0.000000000000000
 11
57.51136902791909
 21
174.6794584353014
 31
0.000000000000000
  0
LINE
  5
165
100
AcDbEntity
  8
A1
  6
CONTINUOUS
 62
7
100
AcDbLine
 10
59.76136902791909
 20
177.6794584353014
 30
0.000000000000000
 11
56.26136902792801
 21
177.6794584353014
 31
0.000000000000000
  0
LINE
  5
166
100
AcDbEntity
  8
A1
  6
CONTINUOUS
 62
7
100
AcDbLine
 10
62.76136902792801
 20
177.6794584353014
 30
0.000000000000000
 11
61.76136902791909
 21
177.6794584353014
 31
0.000000000000000
  0
LINE
  5
167
100
AcDbEntity
  8
A1
  6
CONTINUOUS
 62
7
100
AcDbLine
 10
92.76136902792801
 20
175.0076678812338
 30
0.000000000000000
 11
92.76136902792801
 21
177.5763285411978
 31
0.000000000000000
  0
LINE
  5
168
100
AcDbEntity
  8
A1
  6
CONTINUOUS
 62
7
100
AcDbLine
 10
98.01136902791909
 20
174.6794584353014
 30
0.000000000000000
 11
99.26136902792801
 21
174.6794584353014
 31
0.000000000000000
  0
LINE
  5
169
100
AcDbEntity
  8
A1
  6
CONTINUOUS
 62
7
100
AcDbLine
 10
95.76136902791909
 20
174.6794584353014
 30
0.000000000000000
 11
96.01136902791909
 21
174.6794584353014
 31
0.000000000000000
  0
LINE
  5
16A
100
AcDbEntity
  8
A1
  6
CONTINUOUS
 62
7
100
AcDbLine
 10
92.76136902792801
 20
174.6794584353014
 30
0.000000000000000
 11
93.76136902791909
 21
174.6794584353014
 31
0.000000000000000
  0
LINE
  5
16B
100
AcDbEntity
  8
A1
  6
CONTINUOUS
 62
7
100
AcDbLine
 10
93.76136902791909
 20
177.6794584353014
 30
0.000000000000000
 11
92.76136902792801
 21
177.6794584353014
 31
0.000000000000000
  0
LINE
  5
16C
100
AcDbEntity
  8
A1
  6
CONTINUOUS
 62
7
100
AcDbLine
 10
99.26136902792801
 20
177.6794584353014
 30
0.000000000000000
 11
95.76136902791909
 21
177.6794584353014
 31
0.000000000000000
  0
LINE
  5
16D
100
AcDbEntity
  8
A1
  6
CONTINUOUS
 62
7
100
AcDbLine
 10
99.26136902792801
 20
154.9228825319894
 30
0.000000000000000
 11
99.26136902792801
 21
154.9058994554763
 31
0.000000000000000
  0
LINE
  5
16E
100
AcDbEntity
  8
A1
  6
CONTINUOUS
 62
7
100
AcDbLine
 10
99.26136902792798
 20
157.9058994554763
 30
0.000000000000000
 11
56.26136902792799
 21
157.9058994554763
 31
0.000000000000000
  0
LINE
  5
16F
100
AcDbEntity
  8
A1
  6
CONTINUOUS
 62
7
100
AcDbLine
 10
56.26136902792801
 20
154.9058994554763
 30
0.000000000000000
 11
99.26136902792801
 21
154.9058994554763
 31
0.000000000000000
  0
LINE
  5
170
100
AcDbEntity
  8
A1
  6
CONTINUOUS
 62
7
100
AcDbLine
 10
56.26136902792801
 20
154.9228825319894
 30
0.000000000000000
 11
56.26136902792801
 21
154.9058994554763
 31
0.000000000000000
  0
LINE
  5
171
100
AcDbEntity
  8
A1
  6
CONTINUOUS
 62
7
100
AcDbLine
 10
291.4621395330655
 20
164.1678927477584
 30
0.000000000000000
 11
292.0621455330653
 21
164.1678927477584
 31
0.000000000000000
  0
LINE
  5
172
100
AcDbEntity
  8
A1
  6
CONTINUOUS
 62
7
100
AcDbLine
 10
292.0621455330653
 20
164.1678927477584
 30
0.000000000000000
 11
292.0621455330653
 21
164.3131051530070
 31
0.000000000000000
  0
LINE
  5
173
100
AcDbEntity
  8
A1
  6
CONTINUOUS
 62
7
100
AcDbLine
 10
291.4621395330655
 20
164.1678927477584
 30
0.000000000000000
 11
291.4621395330655
 21
164.3131051530070
 31
0.000000000000000
  0
LINE
  5
174
100
AcDbEntity
  8
A1
  6
CONTINUOUS
 62
7
100
AcDbLine
 10
292.0621455330653
 20
164.3131055768955
 30
0.000000000000000
 11
292.0621455330653
 21
171.6794577477584
 31
0.000000000000000
  0
LINE
  5
175
100
AcDbEntity
  8
A1
  6
CONTINUOUS
 62
7
100
AcDbLine
 10
292.0621455330653
 20
171.6794577477584
 30
0.000000000000000
 11
291.4621395330655
 21
171.6794577477584
 31
0.000000000000000
  0
LINE
  5
176
100
AcDbEntity
  8
A1
  6
CONTINUOUS
 62
7
100
AcDbLine
 10
291.4621395330655
 20
171.6794577477584
 30
0.000000000000000
 11
291.4621395330655
 21
164.3131055768955
 31
0.000000000000000
  0
ELLIPSE
  5
177
100
AcDbEntity
  8
A1
  6
CONTINUOUS
 62
7
100
AcDbEllipse
 10
323.8621395330658
 20
187.2075014532996
 30
0.000000000000000
 11
5.000000000000000
 21
0.000000000000000
 31
0.000000000000000
210
0.000000000000000
220
0.000000000000000
230
1.000000000000000
 40
0.8943914124814765
 41
0.000000000000000
 42
1.570796326794897
  0
ELLIPSE
  5
178
100
AcDbEntity
  8
A1
  6
CONTINUOUS
 62
7
100
AcDbEllipse
 10
323.8621395330658
 20
186.3127583127508
 30
0.000000000000000
 11
-5.000000000000000
 21
0.000000000000000
 31
0.000000000000000
210
0.000000000000000
220
0.000000000000000
230
1.000000000000000
 40
0.8943914124814774
 41
3.141592653589793
 42
4.701670923967588
  0
ELLIPSE
  5
179
100
AcDbEntity
  8
A1
  6
CONTINUOUS
 62
7
100
AcDbEllipse
 10
303.8621395330658
 20
187.2075014532996
 30
0.000000000000000
 11
5.000000000000000
 21
0.000000000000000
 31
0.000000000000000
210
0.000000000000000
220
0.000000000000000
230
1.000000000000000
 40
0.8943914124814765
 41
1.570796326794897
 42
3.141592653589793
  0
ELLIPSE
  5
17A
100
AcDbEntity
  8
A1
  6
CONTINUOUS
 62
7
100
AcDbEllipse
 10
303.8621395330658
 20
186.3127583127508
 30
0.000000000000000
 11
-5.000000000000000
 21
0.000000000000000
 31
0.000000000000000
210
0.000000000000000
220
0.000000000000000
230
1.000000000000000
 40
0.8943914124814774
 41
4.723107036801803
 42
0.000000000000000
  0
ARC
  5
17B
100
AcDbEntity
  8
A1
  6
CONTINUOUS
 62
7
100
AcDbCircle
 10
329.8621395330656
 20
179.6794585157031
 30
0.000000000000000
 40
2.000000000000000
100
AcDbArc
 50
1.018000000000000e-13
 51
89.99999999999982
  0
ARC
  5
17C
100
AcDbEntity
  8
A1
  6
CONTINUOUS
 62
7
100
AcDbCircle
 10
297.8621395330656
 20
179.6794585157031
 30
0.000000000000000
 40
2.000000000000000
100
AcDbArc
 50
89.99999999999982
 51
180.0000000000000
  0
LINE
  5
17D
100
AcDbEntity
  8
A1
  6
CONTINUOUS
 62
7
100
AcDbLine
 10
331.8621395330656
 20
177.5794585157036
 30
0.000000000000000
 11
331.8621395330656
 21
179.6794585157031
 31
0.000000000000000
  0
LINE
  5
17E
100
AcDbEntity
  8
A1
  6
CONTINUOUS
 62
7
100
AcDbLine
 10
329.8621395330656
 20
177.5794585157036
 30
0.000000000000000
 11
329.8621395330656
 21
179.6794585157031
 31
0.000000000000000
  0
LINE
  5
17F
100
AcDbEntity
  8
A1
  6
CONTINUOUS
 62
7
100
AcDbLine
 10
295.8621395330656
 20
179.6794585157031
 30
0.000000000000000
 11
295.8621395330656
 21
177.5794585157036
 31
0.000000000000000
  0
LINE
  5
180
100
AcDbEntity
  8
A1
  6
CONTINUOUS
 62
7
100
AcDbLine
 10
297.8621395330746
 20
179.6794585157030
 30
0.000000000000000
 11
297.8621395330733
 21
177.5794585157036
 31
0.000000000000000
  0
LINE
  5
181
100
AcDbEntity
  8
A1
  6
CONTINUOUS
 62
7
100
AcDbLine
 10
298.8621395330656
 20
179.6794585157030
 30
0.000000000000000
 11
297.8621395330745
 21
179.6794585157030
 31
0.000000000000000
  0
LINE
  5
182
100
AcDbEntity
  8
A1
  6
CONTINUOUS
 62
7
100
AcDbLine
 10
298.8621395330656
 20
181.6794585157031
 30
0.000000000000000
 11
297.8621395330656
 21
181.6794585157031
 31
0.000000000000000
  0
LINE
  5
183
100
AcDbEntity
  8
A1
  6
CONTINUOUS
 62
7
100
AcDbLine
 10
329.8621395330656
 20
179.6794585157030
 30
0.000000000000000
 11
328.8621395330656
 21
179.6794585157031
 31
0.000000000000000
  0
LINE
  5
184
100
AcDbEntity
  8
A1
  6
CONTINUOUS
 62
7
100
AcDbLine
 10
328.8621395330656
 20
181.6794585157031
 30
0.000000000000000
 11
329.8621395330656
 21
181.6794585157031
 31
0.000000000000000
  0
LINE
  5
185
100
AcDbEntity
  8
A1
  6
CONTINUOUS
 62
7
100
AcDbLine
 10
298.8621395330656
 20
179.6794585157031
 30
0.000000000000000
 11
298.8621395330656
 21
180.8254279713255
 31
0.000000000000000
  0
LINE
  5
186
100
AcDbEntity
  8
A1
  6
CONTINUOUS
 62
7
100
AcDbLine
 10
328.8621395330656
 20
179.6794585157031
 30
0.000000000000000
 11
328.8621395330656
 21
180.8254279713255
 31
0.000000000000000
  0
LINE
  5
187
100
AcDbEntity
  8
A1
  6
CONTINUOUS
 62
7
100
AcDbLine
 10
328.8621395330657
 20
179.6794585157030
 30
0.000000000000000
 11
298.8621395330657
 21
179.6794585157030
 31
0.000000000000000
  0
LINE
  5
188
100
AcDbEntity
  8
A1
  6
CONTINUOUS
 62
7
100
AcDbLine
 10
328.8621395330656
 20
180.8254279713255
 30
0.000000000000000
 11
328.8621395330658
 21
186.3127583127508
 31
0.000000000000000
  0
LINE
  5
189
100
AcDbEntity
  8
A1
  6
CONTINUOUS
 62
7
100
AcDbLine
 10
298.8621395330656
 20
180.8254279713255
 30
0.000000000000000
 11
298.8621395330658
 21
186.3127583127485
 31
0.000000000000000
  0
LINE
  5
18A
100
AcDbEntity
  8
A1
  6
CONTINUOUS
 62
7
100
AcDbLine
 10
328.8621395330658
 20
186.3127583127508
 30
0.000000000000000
 11
328.8621395330656
 21
187.2075014532996
 31
0.000000000000000
  0
LINE
  5
18B
100
AcDbEntity
  8
A1
  6
CONTINUOUS
 62
7
100
AcDbLine
 10
298.8621395330658
 20
186.3127583127485
 30
0.000000000000000
 11
298.8621395330658
 21
187.2075014533025
 31
0.000000000000000
  0
LINE
  5
18C
100
AcDbEntity
  8
A1
  6
CONTINUOUS
 62
7
100
AcDbLine
 10
323.9157287891111
 20
190.7844585157032
 30
0.000000000000000
 11
303.8085502770205
 21
190.7844585157030
 31
0.000000000000000
  0
LINE
  5
18D
100
AcDbEntity
  8
A1
  6
CONTINUOUS
 62
7
100
AcDbLine
 10
323.8621395330658
 20
191.6794585157064
 30
0.000000000000000
 11
303.8621395330658
 21
191.6794585156972
 31
0.000000000000000
  0
CIRCLE
  5
18E
100
AcDbEntity
  8
A1
  6
CONTINUOUS
 62
7
100
AcDbCircle
 10
320.8621395330854
 20
167.1794585157035
 30
0.000000000000000
 40
2.100000000000000
  0
CIRCLE
  5
18F
100
AcDbEntity
  8
A1
  6
CONTINUOUS
 62
7
100
AcDbCircle
 10
306.8621395330854
 20
167.1794585157035
 30
0.000000000000000
 40
2.100000000000000
  0
LINE
  5
190
100
AcDbEntity
  8
A1
  6
CONTINUOUS
 62
7
100
AcDbLine
 10
334.1121395330656
 20
161.1794585157035
 30
0.000000000000000
 11
332.1121395330656
 21
161.1794585157035
 31
0.000000000000000
  0
LINE
  5
191
100
AcDbEntity
  8
A1
  6
CONTINUOUS
 62
7
100
AcDbLine
 10
332.1121395330656
 20
177.5794585157036
 30
0.000000000000000
 11
334.1121395330656
 21
177.5794585157036
 31
0.000000000000000
  0
LINE
  5
192
100
AcDbEntity
  8
A1
  6
CONTINUOUS
 62
7
100
AcDbLine
 10
334.1121395330656
 20
177.5794585157036
 30
0.000000000000000
 11
334.1121395330656
 21
161.1794585157035
 31
0.000000000000000
  0
LINE
  5
193
100
AcDbEntity
  8
A1
  6
CONTINUOUS
 62
7
100
AcDbLine
 10
293.6121395330656
 20
177.5794585157036
 30
0.000000000000000
 11
295.6121395330656
 21
177.5794585157036
 31
0.000000000000000
  0
LINE
  5
194
100
AcDbEntity
  8
A1
  6
CONTINUOUS
 62
7
100
AcDbLine
 10
293.6121395330656
 20
161.1794585157035
 30
0.000000000000000
 11
293.6121395330656
 21
177.5794585157036
 31
0.000000000000000
  0
LINE
  5
195
100
AcDbEntity
  8
A1
  6
CONTINUOUS
 62
7
100
AcDbLine
 10
295.6121395330656
 20
161.1794585157035
 30
0.000000000000000
 11
293.6121395330656
 21
161.1794585157035
 31
0.000000000000000
  0
LINE
  5
196
100
AcDbEntity
  8
A1
  6
CONTINUOUS
 62
7
100
AcDbLine
 10
295.6121395330656
 20
161.1794585157034
 30
0.000000000000000
 11
332.1121395330656
 21
161.1794585157035
 31
0.000000000000000
  0
LINE
  5
197
100
AcDbEntity
  8
A1
  6
CONTINUOUS
 62
7
100
AcDbLine
 10
332.1121395330656
 20
161.1794585157035
 30
0.000000000000000
 11
332.1121395330656
 21
177.5794585157036
 31
0.000000000000000
  0
LINE
  5
198
100
AcDbEntity
  8
A1
  6
CONTINUOUS
 62
7
100
AcDbLine
 10
295.6121395330656
 20
177.5794585157036
 30
0.000000000000000
 11
332.1121395330656
 21
177.5794585157036
 31
0.000000000000000
  0
LINE
  5
199
100
AcDbEntity
  8
A1
  6
CONTINUOUS
 62
7
100
AcDbLine
 10
295.6121395330656
 20
177.5794585157036
 30
0.000000000000000
 11
295.6121395330656
 21
161.1794585157035
 31
0.000000000000000
  0
ARC
  5
19A
100
AcDbEntity
  8
A1
  6
CONTINUOUS
 62
7
100
AcDbCircle
 10
335.1121395330656
 20
171.1794585157033
 30
0.000000000000000
 40
1.000000000000114
100
AcDbArc
 50
5.090000000000000e-14
 51
180.0000000000000
  0
ARC
  5
19B
100
AcDbEntity
  8
A1
  6
CONTINUOUS
 62
7
100
AcDbCircle
 10
335.1121395330656
 20
163.1794585157033
 30
0.000000000000000
 40
1.000000000000114
100
AcDbArc
 50
180.0000000000000
 51
360.0000000000000
  0
LINE
  5
19C
100
AcDbEntity
  8
A1
  6
CONTINUOUS
 62
7
100
AcDbLine
 10
291.4621395330655
 20
169.2044585157033
 30
0.000000000000000
 11
291.4121395330654
 21
169.2044585157033
 31
0.000000000000000
  0
LINE
  5
19D
100
AcDbEntity
  8
A1
  6
CONTINUOUS
 62
7
100
AcDbLine
 10
292.1121395330656
 20
169.2044585157033
 30
0.000000000000000
 11
292.0621455330653
 21
169.2044585157033
 31
0.000000000000000
  0
LINE
  5
19E
100
AcDbEntity
  8
A1
  6
CONTINUOUS
 62
7
100
AcDbLine
 10
292.0621455330653
 20
165.1544585157033
 30
0.000000000000000
 11
292.1121395330656
 21
165.1544585157033
 31
0.000000000000000
  0
LINE
  5
19F
100
AcDbEntity
  8
A1
  6
CONTINUOUS
 62
7
100
AcDbLine
 10
291.4121395330654
 20
165.1544585157033
 30
0.000000000000000
 11
291.4621395330655
 21
165.1544585157033
 31
0.000000000000000
  0
LINE
  5
1A0
100
AcDbEntity
  8
A1
  6
CONTINUOUS
 62
7
100
AcDbLine
 10
289.1121395330656
 20
167.1794585157033
 30
0.000000000000000
 11
289.1121395330656
 21
169.1794585157033
 31
0.000000000000000
  0
LINE
  5
1A1
100
AcDbEntity
  8
A1
  6
CONTINUOUS
 62
7
100
AcDbLine
 10
289.1121395330657
 20
165.1794585157033
 30
0.000000000000000
 11
289.6121395330655
 21
164.6794585157033
 31
0.000000000000000
  0
LINE
  5
1A2
100
AcDbEntity
  8
A1
  6
CONTINUOUS
 62
7
100
AcDbLine
 10
289.6121395330654
 20
169.6794585157032
 30
0.000000000000000
 11
289.1121395330656
 21
169.1794585157033
 31
0.000000000000000
  0
LINE
  5
1A3
100
AcDbEntity
  8
A1
  6
CONTINUOUS
 62
7
100
AcDbLine
 10
289.1121395330656
 20
165.1794585157033
 30
0.000000000000000
 11
289.1121395330656
 21
167.1794585157033
 31
0.000000000000000
  0
LINE
  5
1A4
100
AcDbEntity
  8
A1
  6
CONTINUOUS
 62
7
100
AcDbLine
 10
292.1121395330656
 20
167.1794585157033
 30
0.000000000000000
 11
292.1121395330656
 21
169.6794585157033
 31
0.000000000000000
  0
LINE
  5
1A5
100
AcDbEntity
  8
A1
  6
CONTINUOUS
 62
7
100
AcDbLine
 10
293.6121395330656
 20
169.6794585157033
 30
0.000000000000000
 11
292.1121395330656
 21
169.6794585157033
 31
0.000000000000000
  0
LINE
  5
1A6
100
AcDbEntity
  8
A1
  6
CONTINUOUS
 62
7
100
AcDbLine
 10
292.1121395330656
 20
164.6794585157033
 30
0.000000000000000
 11
293.6121395330656
 21
164.6794585157033
 31
0.000000000000000
  0
LINE
  5
1A7
100
AcDbEntity
  8
A1
  6
CONTINUOUS
 62
7
100
AcDbLine
 10
292.1121395330656
 20
164.6794585157033
 30
0.000000000000000
 11
292.1121395330656
 21
167.1794585157033
 31
0.000000000000000
  0
LINE
  5
1A8
100
AcDbEntity
  8
A1
  6
CONTINUOUS
 62
7
100
AcDbLine
 10
291.4121395330654
 20
167.1794585157033
 30
0.000000000000000
 11
291.4121395330654
 21
169.6794585157033
 31
0.000000000000000
  0
LINE
  5
1A9
100
AcDbEntity
  8
A1
  6
CONTINUOUS
 62
7
100
AcDbLine
 10
289.6121395330655
 20
167.1794585157033
 30
0.000000000000000
 11
289.6121395330655
 21
169.6794585157033
 31
0.000000000000000
  0
LINE
  5
1AA
100
AcDbEntity
  8
A1
  6
CONTINUOUS
 62
7
100
AcDbLine
 10
291.4121395330654
 20
169.6794585157033
 30
0.000000000000000
 11
289.6121395330655
 21
169.6794585157033
 31
0.000000000000000
  0
LINE
  5
1AB
100
AcDbEntity
  8
A1
  6
CONTINUOUS
 62
7
100
AcDbLine
 10
289.6121395330655
 20
164.6794585157033
 30
0.000000000000000
 11
291.4121395330654
 21
164.6794585157033
 31
0.000000000000000
  0
LINE
  5
1AC
100
AcDbEntity
  8
A1
  6
CONTINUOUS
 62
7
100
AcDbLine
 10
291.4121395330654
 20
164.6794585157033
 30
0.000000000000000
 11
291.4121395330654
 21
167.1794585157033
 31
0.000000000000000
  0
LINE
  5
1AD
100
AcDbEntity
  8
A1
  6
CONTINUOUS
 62
7
100
AcDbLine
 10
289.6121395330655
 20
164.6794585157033
 30
0.000000000000000
 11
289.6121395330655
 21
167.1794585157033
 31
0.000000000000000
  0
LINE
  5
1AE
100
AcDbEntity
  8
A1
  6
CONTINUOUS
 62
7
100
AcDbLine
 10
336.1121395330658
 20
167.1794585157033
 30
0.000000000000000
 11
336.1121395330658
 21
171.1794585157033
 31
0.000000000000000
  0
LINE
  5
1AF
100
AcDbEntity
  8
A1
  6
CONTINUOUS
 62
7
100
AcDbLine
 10
336.1121395330658
 20
163.1794585157033
 30
0.000000000000000
 11
336.1121395330658
 21
167.1794585157033
 31
0.000000000000000
  0
SPLINE
  5
1B0
100
AcDbEntity
  8
A1
  6
CONTINUOUS
 62
7
100
AcDbSpline
210
0.000000000000000
220
0.000000000000000
230
1.000000000000000
 70
     8
 71
     3
 72
    76
 73
    72
 74
     0
 42
1.000000000000000e-07
 43
1.000000000000000e-07
 12
0.9999999999936335
 22
-3.670156274893088e-06
 32
0.000000000000000
 13
-0.9999999999545253
 23
-9.585241286913515e-06
 33
0.000000000000000
 40
0.000000000000000
 40
0.000000000000000
 40
0.000000000000000
 40
0.000000000000000
 40
0.1903925554841462
 40
0.5816074538938221
 40
0.9728100060911343
 40
1.363953670439194
 40
1.755018997554039
 40
2.145987199920216
 40
2.536840309614013
 40
2.927561333730863
 40
3.318134401650406
 40
3.708544902796165
 40
4.098779613624341
 40
4.488826812661356
 40
4.878676382511649
 40
5.268319897870266
 40
5.657750698700167
 40
6.046963947872149
 40
6.435956672712830
 40
6.824727790060460
 40
7.213278114594760
 40
7.601610350373471
 40
7.989729065677365
 40
8.377640651439467
 40
8.765353263699263
 40
9.152876750683612
 40
9.540222565272950
 40
9.927403663744954
 40
10.31443439182379
 40
10.70133035916692
 40
11.08810830351869
 40
11.47478594583311
 40
11.86138183772365
 40
12.24791520263814
 40
12.63440577217155
 40
13.02087361893859
 40
13.40733898741374
 40
13.79382212412797
 40
14.18034124426728
 40
14.56691584948164
 40
14.95356522936872
 40
15.34030803851474
 40
15.72716214190907
 40
16.11414446693068
 40
16.50127086297011
 40
16.88855596976525
 40
17.27601309547057
 40
17.66365410543027
 40
18.05148932255750
 40
18.43952744015811
 40
18.82777544795148
 40
19.21623857195904
 40
19.60492022882682
 40
19.99382199504576
 40
20.38294359141391
 40
20.77228288296490
 40
21.16183589445319
 40
21.55159684135743
 40
21.94155817622177
 40
22.33171065002377
 40
22.72204338811449
 40
23.11254398015239
 40
23.50319858331444
 40
23.89399203795455
 40
24.28490799475970
 40
24.67592905235195
 40
25.06703690418522
 40
25.45821249350178
 40
25.84943617503710
 40
26.24068788200332
 40
26.52362146018856
 40
26.52362146018856
 40
26.52362146018856
 40
26.52362146018856
 10
335.3621395330567
 20
174.6794585157033
 30
0.000000000000000
 10
335.4256037182177
 20
174.6794582827799
 30
0.000000000000000
 10
335.6194756000668
 20
174.6773157697119
 30
0.000000000000000
 10
335.9435407485526
 20
174.6627849561820
 30
0.000000000000000
 10
336.3332673115091
 20
174.6275218097794
 30
0.000000000000000
 10
336.7209444807788
 20
174.5746004628923
 30
0.000000000000000
 10
337.1057390927476
 20
174.5041340708360
 30
0.000000000000000
 10
337.4868390385314
 20
174.4162719329935
 30
0.000000000000000
 10
337.8634383800157
 20
174.3111998608258
 30
0.000000000000000
 10
338.2347410840349
 20
174.1891398171381
 30
0.000000000000000
 10
338.5999621118829
 20
174.0503494454701
 30
0.000000000000000
 10
338.9583291888256
 20
173.8951215394848
 30
0.000000000000000
 10
339.3090843591085
 20
173.7237834407356
 30
0.000000000000000
 10
339.6514855625939
 20
173.5366963697157
 30
0.000000000000000
 10
339.9848081665455
 20
173.3342546907468
 30
0.000000000000000
 10
340.3083464672905
 20
173.1168851124617
 30
0.000000000000000
 10
340.6214151549154
 20
172.8850458253171
 30
0.000000000000000
 10
340.9233507400572
 20
172.6392255776248
 30
0.000000000000000
 10
341.2135129403948
 20
172.3799426915176
 30
0.000000000000000
 10
341.4912860248914
 20
172.1077440202034
 30
0.000000000000000
 10
341.7560801137569
 20
171.8232038477908
 30
0.000000000000000
 10
342.0073324320876
 20
171.5269227328943
 30
0.000000000000000
 10
342.2445085150808
 20
171.2195262971748
 30
0.000000000000000
 10
342.4671033626047
 20
170.9016639599326
 30
0.000000000000000
 10
342.6746425407776
 20
170.5740076198702
 30
0.000000000000000
 10
342.8666832280374
 20
170.2372502851859
 30
0.000000000000000
 10
343.0428152029997
 20
169.8921046532522
 30
0.000000000000000
 10
343.2026617712190
 20
169.5393016412924
 30
0.000000000000000
 10
343.3458806277762
 20
169.1795888696786
 30
0.000000000000000
 10
343.4721646524716
 20
168.8137290997667
 30
0.000000000000000
 10
343.5812426342690
 20
168.4424986285151
 30
0.000000000000000
 10
343.6728799215831
 20
168.0666856425391
 30
0.000000000000000
 10
343.7468789949991
 20
167.6870885346887
 30
0.000000000000000
 10
343.8030799590989
 20
167.3045141867020
 30
0.000000000000000
 10
343.8413609502344
 20
166.9197762219775
 30
0.000000000000000
 10
343.8616384573493
 20
166.5336932329413
 30
0.000000000000000
 10
343.8638675533160
 20
166.1470869880613
 30
0.000000000000000
 10
343.8480420600678
 20
165.7607812445982
 30
0.000000000000000
 10
343.8141947072467
 20
165.3755993833636
 30
0.000000000000000
 10
343.7623970905954
 20
164.9923624712848
 30
0.000000000000000
 10
343.6927593661577
 20
164.6118868159514
 30
0.000000000000000
 10
343.6054300055283
 20
164.2349826920101
 30
0.000000000000000
 10
343.5005954663276
 20
163.8624526372493
 30
0.000000000000000
 10
343.3784797634781
 20
163.4950896828860
 30
0.000000000000000
 10
343.2393439510664
 20
163.1336756109633
 30
0.000000000000000
 10
343.0834855173804
 20
162.7789792440054
 30
0.000000000000000
 10
342.9112376960897
 20
162.4317547716731
 30
0.000000000000000
 10
342.7229686968393
 20
162.0927401187270
 30
0.000000000000000
 10
342.5190808587514
 20
161.7626553581518
 30
0.000000000000000
 10
342.3000097304624
 20
161.4422011728467
 30
0.000000000000000
 10
342.0662230803930
 20
161.1320573688560
 30
0.000000000000000
 10
341.8182198409402
 20
160.8328814427133
 30
0.000000000000000
 10
341.5565289902352
 20
160.5453072051195
 30
0.000000000000000
 10
341.2817083750112
 20
160.2699434628636
 30
0.000000000000000
 10
340.9943434780072
 20
160.0073727606432
 30
0.000000000000000
 10
340.6950461332057
 20
159.7581501842383
 30
0.000000000000000
 10
340.3844531920691
 20
159.5228022263366
 30
0.000000000000000
 10
340.0632251438102
 20
159.3018257162052
 30
0.000000000000000
 10
339.7320446926465
 20
159.0956868143219
 30
0.000000000000000
 10
339.3916152948696
 20
158.9048200730429
 30
0.000000000000000
 10
339.0426596586267
 20
158.7296275643650
 30
0.000000000000000
 10
338.6859182088420
 20
158.5704780757630
 30
0.000000000000000
 10
338.3221475214041
 20
158.4277063753406
 30
0.000000000000000
 10
337.9521187244167
 20
158.3016125464841
 30
0.000000000000000
 10
337.5766158881255
 20
158.1924613960429
 30
0.000000000000000
 10
337.1964343364600
 20
158.1004819255873
 30
0.000000000000000
 10
336.8123791445462
 20
158.0258669090865
 30
0.000000000000000
 10
336.4252628496150
 20
157.9687724192099
 30
0.000000000000000
 10
336.0359060207860
 20
157.9293178948794
 30
0.000000000000000
 10
335.6811926987724
 20
157.9095903464885
 30
0.000000000000000
 10
335.4564507257808
 20
157.9059004398736
 30
0.000000000000000
 10
335.3621395330567
 20
157.9058995358781
 30
0.000000000000000
  0
SPLINE
  5
1B1
100
AcDbEntity
  8
A1
  6
CONTINUOUS
 62
7
100
AcDbSpline
210
0.000000000000000
220
0.000000000000000
230
1.000000000000000
 70
     8
 71
     3
 72
    87
 73
    83
 74
     0
 42
1.000000000000000e-07
 43
1.000000000000000e-07
 12
0.9999999999931788
 22
3.461935421000817e-06
 32
0.000000000000000
 13
-0.9999999999822649
 23
5.955254664513632e-06
 33
0.000000000000000
 40
0.000000000000000
 40
0.000000000000000
 40
0.000000000000000
 40
0.000000000000000
 40
0.2566974034521878
 40
0.7125599971032510
 40
1.168424361577888
 40
1.624255399197432
 40
2.080038632785526
 40
2.535759882048545
 40
2.991405347617514
 40
3.446961695653882
 40
3.902416139788962
 40
4.357756519923145
 40
4.812971377429768
 40
5.268050026318920
 40
5.722982619936467
 40
6.177760212788717
 40
6.632374817107167
 40
7.086819453788216
 40
7.541088197370605
 40
7.995176214740919
 40
8.449079797287073
 40
8.902796386254854
 40
9.356324591096937
 40
9.809664200643716
 40
10.26281618696379
 40
10.71578270182828
 40
11.16856706573581
 40
11.62117374950286
 40
12.07360834847393
 40
12.52587754945534
 40
12.97798909052552
 40
13.42995171393078
 40
13.88177511232034
 40
14.33346986863049
 40
14.78504738997570
 40
15.23651983595012
 40
15.68790004179075
 40
16.13920143689854
 40
16.59043795924654
 40
17.04162396624810
 40
17.49277414268253
 40
17.94390340630640
 40
18.39502681179635
 40
18.84615903105354
 40
19.29731455047591
 40
19.74850826272013
 40
20.19975481700061
 40
20.65106852452132
 40
21.10246326625957
 40
21.55395240366843
 40
22.00554869291348
 40
22.45726420322843
 40
22.90911023994416
 40
23.36109727270060
 40
23.81323486931423
 40
24.26553163572541
 40
24.71799516240040
 40
25.17063197751169
 40
25.62344750717171
 40
26.07644604293162
 40
26.52963071671426
 40
26.98300348328654
 40
27.43656511032669
 40
27.89031517609111
 40
28.34425207462914
 40
28.79837302845084
 40
29.25267410850172
 40
29.70715026125593
 40
30.16179534269798
 40
30.61660215892369
 40
31.07156251305581
 40
31.52666725813762
 40
31.98190635563853
 40
32.43726893917741
 40
32.89274338305059
 40
33.34831737512515
 40
33.80397799364687
 40
34.25971178749126
 40
34.71550485938007
 40
35.17134295156900
 40
35.62721153342596
 40
35.94838867326848
 40
35.94838867326848
 40
35.94838867326848
 40
35.94838867326848
 10
335.3621395330567
 20
154.9058995358781
 30
0.000000000000000
 10
335.4477053342069
 20
154.9058998321013
 30
0.000000000000000
 10
335.6852299606918
 20
154.9085246714824
 30
0.000000000000000
 10
336.0744721147494
 20
154.9247761440821
 30
0.000000000000000
 10
336.5289454615612
 20
154.9616621793875
 30
0.000000000000000
 10
336.9815970406756
 20
155.0163557377962
 30
0.000000000000000
 10
337.4317046435808
 20
155.0887705069083
 30
0.000000000000000
 10
337.8785609588838
 20
155.1787927244982
 30
0.000000000000000
 10
338.3214626844987
 20
155.2862808395792
 30
0.000000000000000
 10
338.7597130480432
 20
155.4110657261662
 30
0.000000000000000
 10
339.1926225414938
 20
155.5529509535832
 30
0.000000000000000
 10
339.6195101202274
 20
155.7117130982705
 30
0.000000000000000
 10
340.0397042610043
 20
155.8871021005340
 30
0.000000000000000
 10
340.4525440386794
 20
156.0788416646512
 30
0.000000000000000
 10
340.8573801764536
 20
156.2866297019768
 30
0.000000000000000
 10
341.2535760793996
 20
156.5101388162530
 30
0.000000000000000
 10
341.6405088463202
 20
156.7490168303217
 30
0.000000000000000
 10
342.0175702589578
 20
157.0028873533223
 30
0.000000000000000
 10
342.3841677465601
 20
157.2713503873639
 30
0.000000000000000
 10
342.7397253241364
 20
157.5539829725656
 30
0.000000000000000
 10
343.0836845027163
 20
157.8503398692627
 30
0.000000000000000
 10
343.4155051700058
 20
158.1599542760841
 30
0.000000000000000
 10
343.7346664399019
 20
158.4823385825186
 30
0.000000000000000
 10
344.0406674694112
 20
158.8169851545014
 30
0.000000000000000
 10
344.3330282416046
 20
159.1633671514794
 30
0.000000000000000
 10
344.6112903133374
 20
159.5209393733391
 30
0.000000000000000
 10
344.8750175265615
 20
159.8891391355257
 30
0.000000000000000
 10
345.1237966821765
 20
160.2673871706280
 30
0.000000000000000
 10
345.3572381754608
 20
160.6550885546652
 30
0.000000000000000
 10
345.5749765922542
 20
161.0516336562854
 30
0.000000000000000
 10
345.7766712651635
 20
161.4563991070640
 30
0.000000000000000
 10
345.9620067891843
 20
161.8687487910919
 30
0.000000000000000
 10
346.1306934962397
 20
162.2880348520450
 30
0.000000000000000
 10
346.2824678882366
 20
162.7135987159444
 30
0.000000000000000
 10
346.4170930283470
 20
163.1447721278462
 30
0.000000000000000
 10
346.5343588903045
 20
163.5808782007318
 30
0.000000000000000
 10
346.6340826655911
 20
164.0212324749139
 30
0.000000000000000
 10
346.7161090284639
 20
164.4651439863205
 30
0.000000000000000
 10
346.7803103588247
 20
164.9119163420695
 30
0.000000000000000
 10
346.8265869229961
 20
165.3608488018008
 30
0.000000000000000
 10
346.8548670124988
 20
165.8112373632835
 30
0.000000000000000
 10
346.8651070409613
 20
166.2623758508572
 30
0.000000000000000
 10
346.8572916017512
 20
166.7135568644663
 30
0.000000000000000
 10
346.8314335150504
 20
167.1640728281259
 30
0.000000000000000
 10
346.7875738220342
 20
167.6132172710380
 30
0.000000000000000
 10
346.7257816863037
 20
168.0602860612242
 30
0.000000000000000
 10
346.6461542404867
 20
168.5045785309618
 30
0.000000000000000
 10
346.5488164440071
 20
168.9453983692779
 30
0.000000000000000
 10
346.4339208897105
 20
169.3820546921111
 30
0.000000000000000
 10
346.3016475701115
 20
169.8138631047079
 30
0.000000000000000
 10
346.1522036034764
 20
170.2401467549471
 30
0.000000000000000
 10
345.9858229199536
 20
170.6602373763163
 30
0.000000000000000
 10
345.8027659079776
 20
171.0734763192267
 30
0.000000000000000
 10
345.6033190211981
 20
171.4792155693341
 30
0.000000000000000
 10
345.3877943462144
 20
171.8768187514925
 30
0.000000000000000
 10
345.1565291314306
 20
172.2656621179407
 30
0.000000000000000
 10
344.9098852774030
 20
172.6451355192843
 30
0.000000000000000
 10
344.6482487891033
 20
173.0146433568123
 30
0.000000000000000
 10
344.3720291905846
 20
173.3736055146536
 30
0.000000000000000
 10
344.0816589026202
 20
173.7214582702669
 30
0.000000000000000
 10
343.7775925839479
 20
174.0576551817373
 30
0.000000000000000
 10
343.4603064368567
 20
174.3816679503537
 30
0.000000000000000
 10
343.1302974779248
 20
174.6929872569398
 30
0.000000000000000
 10
342.7880827748167
 20
174.9911235704261
 30
0.000000000000000
 10
342.4341986501370
 20
175.2756079271726
 30
0.000000000000000
 10
342.0691998534277
 20
175.5459926795830
 30
0.000000000000000
 10
341.6936587024869
 20
175.8018522125882
 30
0.000000000000000
 10
341.3081641952660
 20
176.0427836266320
 30
0.000000000000000
 10
340.9133210936937
 20
176.2684073858392
 30
0.000000000000000
 10
340.5097489808426
 20
176.4783679301174
 30
0.000000000000000
 10
340.0980812929075
 20
176.6723342500083
 30
0.000000000000000
 10
339.6789643276361
 20
176.8500004231685
 30
0.000000000000000
 10
339.2530562304545
 20
177.0110861114795
 30
0.000000000000000
 10
338.8210259613350
 20
177.1553370177097
 30
0.000000000000000
 10
338.3835522388822
 20
177.2825253013051
 30
0.000000000000000
 10
337.9413224828918
 20
177.3924499508296
 30
0.000000000000000
 10
337.4950316842753
 20
177.4849371186375
 30
0.000000000000000
 10
337.0453814761954
 20
177.5598403936484
 30
0.000000000000000
 10
336.5930783926598
 20
177.6170410993904
 30
0.000000000000000
 10
336.1388351073552
 20
177.6564482894032
 30
0.000000000000000
 10
335.7282245865172
 20
177.6758768594773
 30
0.000000000000000
 10
335.4691985796690
 20
177.6794578781394
 30
0.000000000000000
 10
335.3621395330567
 20
177.6794585157033
 30
0.000000000000000
  0
SPLINE
  5
1B2
100
AcDbEntity
  8
A1
  6
CONTINUOUS
 62
7
100
AcDbSpline
210
0.000000000000000
220
0.000000000000000
230
1.000000000000000
 70
     8
 71
     3
 72
    76
 73
    72
 74
     0
 42
1.000000000000000e-07
 43
1.000000000000000e-07
 12
-0.9999999999927240
 22
3.670156274893088e-06
 32
0.000000000000000
 13
0.9999999999540705
 23
9.585241514287191e-06
 33
0.000000000000000
 40
0.000000000000000
 40
0.000000000000000
 40
0.000000000000000
 40
0.000000000000000
 40
0.1903925554841463
 40
0.5816074538938224
 40
0.9728100060910755
 40
1.363953670439136
 40
1.755018997553925
 40
2.145987199920155
 40
2.536840309613954
 40
2.927561333730748
 40
3.318134401650345
 40
3.708544902796158
 40
4.098779613624338
 40
4.488826812661306
 40
4.878676382511517
 40
5.268319897870198
 40
5.657750698700149
 40
6.046963947872215
 40
6.435956672712901
 40
6.824727790060461
 40
7.213278114594766
 40
7.601610350373539
 40
7.989729065677535
 40
8.377640651439656
 40
8.765353263699277
 40
9.152876750683825
 40
9.540222565273075
 40
9.927403663745068
 40
10.31443439182394
 40
10.70133035916707
 40
11.08810830351885
 40
11.47478594583317
 40
11.86138183772379
 40
12.24791520263812
 40
12.63440577217146
 40
13.02087361893856
 40
13.40733898741371
 40
13.79382212412801
 40
14.18034124426724
 40
14.56691584948159
 40
14.95356522936884
 40
15.34030803851484
 40
15.72716214190919
 40
16.11414446693086
 40
16.50127086297023
 40
16.88855596976522
 40
17.27601309547072
 40
17.66365410543034
 40
18.05148932255762
 40
18.43952744015818
 40
18.82777544795156
 40
19.21623857195913
 40
19.60492022882694
 40
19.99382199504578
 40
20.38294359141392
 40
20.77228288296492
 40
21.16183589445333
 40
21.55159684135764
 40
21.94155817622203
 40
22.33171065002390
 40
22.72204338811470
 40
23.11254398015265
 40
23.50319858331476
 40
23.89399203795475
 40
24.28490799475989
 40
24.67592905235221
 40
25.06703690418552
 40
25.45821249350190
 40
25.84943617503723
 40
26.24068788200351
 40
26.52362146018857
 40
26.52362146018857
 40
26.52362146018857
 40
26.52362146018857
 10
292.3621395330567
 20
157.9058995358781
 30
0.000000000000000
 10
292.2986753478958
 20
157.9058997688015
 30
0.000000000000000
 10
292.1048034660466
 20
157.9080422818695
 30
0.000000000000000
 10
291.7807383175609
 20
157.9225730953995
 30
0.000000000000000
 10
291.3910117546044
 20
157.9578362418020
 30
0.000000000000000
 10
291.0033345853345
 20
158.0107575886890
 30
0.000000000000000
 10
290.6185399733659
 20
158.0812239807454
 30
0.000000000000000
 10
290.2374400275821
 20
158.1690861185880
 30
0.000000000000000
 10
289.8608406860978
 20
158.2741581907556
 30
0.000000000000000
 10
289.4895379820785
 20
158.3962182344433
 30
0.000000000000000
 10
289.1243169542307
 20
158.5350086061113
 30
0.000000000000000
 10
288.7659498772879
 20
158.6902365120966
 30
0.000000000000000
 10
288.4151947070050
 20
158.8615746108458
 30
0.000000000000000
 10
288.0727935035196
 20
159.0486616818657
 30
0.000000000000000
 10
287.7394708995681
 20
159.2511033608346
 30
0.000000000000000
 10
287.4159325988230
 20
159.4684729391197
 30
0.000000000000000
 10
287.1028639111980
 20
159.7003122262643
 30
0.000000000000000
 10
286.8009283260562
 20
159.9461324739567
 30
0.000000000000000
 10
286.5107661257188
 20
160.2054153600639
 30
0.000000000000000
 10
286.2329930412219
 20
160.4776140313780
 30
0.000000000000000
 10
285.9681989523566
 20
160.7621542037907
 30
0.000000000000000
 10
285.7169466340257
 20
161.0584353186872
 30
0.000000000000000
 10
285.4797705510325
 20
161.3658317544067
 30
0.000000000000000
 10
285.2571757035086
 20
161.6836940916489
 30
0.000000000000000
 10
285.0496365253358
 20
162.0113504317113
 30
0.000000000000000
 10
284.8575958380759
 20
162.3481077663956
 30
0.000000000000000
 10
284.6814638631138
 20
162.6932533983293
 30
0.000000000000000
 10
284.5216172948945
 20
163.0460564102892
 30
0.000000000000000
 10
284.3783984383372
 20
163.4057691819029
 30
0.000000000000000
 10
284.2521144136418
 20
163.7716289518148
 30
0.000000000000000
 10
284.1430364318444
 20
164.1428594230665
 30
0.000000000000000
 10
284.0513991445305
 20
164.5186724090424
 30
0.000000000000000
 10
283.9774000711142
 20
164.8982695168928
 30
0.000000000000000
 10
283.9211991070145
 20
165.2808438648794
 30
0.000000000000000
 10
283.8829181158792
 20
165.6655818296039
 30
0.000000000000000
 10
283.8626406087641
 20
166.0516648186401
 30
0.000000000000000
 10
283.8604115127974
 20
166.4382710635201
 30
0.000000000000000
 10
283.8762370060457
 20
166.8245768069832
 30
0.000000000000000
 10
283.9100843588667
 20
167.2097586682178
 30
0.000000000000000
 10
283.9618819755180
 20
167.5929955802967
 30
0.000000000000000
 10
284.0315196999558
 20
167.9734712356301
 30
0.000000000000000
 10
284.1188490605853
 20
168.3503753595714
 30
0.000000000000000
 10
284.2236835997859
 20
168.7229054143322
 30
0.000000000000000
 10
284.3457993026354
 20
169.0902683686956
 30
0.000000000000000
 10
284.4849351150472
 20
169.4516824406182
 30
0.000000000000000
 10
284.6407935487330
 20
169.8063788075761
 30
0.000000000000000
 10
284.8130413700238
 20
170.1536032799084
 30
0.000000000000000
 10
285.0013103692740
 20
170.4926179328545
 30
0.000000000000000
 10
285.2051982073622
 20
170.8227026934298
 30
0.000000000000000
 10
285.4242693356509
 20
171.1431568787347
 30
0.000000000000000
 10
285.6580559857207
 20
171.4533006827255
 30
0.000000000000000
 10
285.9060592251734
 20
171.7524766088682
 30
0.000000000000000
 10
286.1677500758782
 20
172.0400508464620
 30
0.000000000000000
 10
286.4425706911023
 20
172.3154145887179
 30
0.000000000000000
 10
286.7299355881063
 20
172.5779852909382
 30
0.000000000000000
 10
287.0292329329077
 20
172.8272078673432
 30
0.000000000000000
 10
287.3398258740443
 20
173.0625558252448
 30
0.000000000000000
 10
287.6610539223036
 20
173.2835323353763
 30
0.000000000000000
 10
287.9922343734671
 20
173.4896712372595
 30
0.000000000000000
 10
288.3326637712440
 20
173.6805379785386
 30
0.000000000000000
 10
288.6816194074869
 20
173.8557304872165
 30
0.000000000000000
 10
289.0383608572716
 20
174.0148799758185
 30
0.000000000000000
 10
289.4021315447096
 20
174.1576516762410
 30
0.000000000000000
 10
289.7721603416969
 20
174.2837455050973
 30
0.000000000000000
 10
290.1476631779882
 20
174.3928966555386
 30
0.000000000000000
 10
290.5278447296536
 20
174.4848761259942
 30
0.000000000000000
 10
290.9118999215675
 20
174.5594911424949
 30
0.000000000000000
 10
291.2990162164985
 20
174.6165856323715
 30
0.000000000000000
 10
291.6883730453278
 20
174.6560401567021
 30
0.000000000000000
 10
292.0430863673411
 20
174.6757677050930
 30
0.000000000000000
 10
292.2678283403327
 20
174.6794576117078
 30
0.000000000000000
 10
292.3621395330567
 20
174.6794585157033
 30
0.000000000000000
  0
SPLINE
  5
1B3
100
AcDbEntity
  8
A1
  6
CONTINUOUS
 62
7
100
AcDbSpline
210
0.000000000000000
220
0.000000000000000
230
1.000000000000000
 70
     8
 71
     3
 72
    87
 73
    83
 74
     0
 42
1.000000000000000e-07
 43
1.000000000000000e-07
 12
-0.9999999999940883
 22
-3.461935193627141e-06
 32
0.000000000000000
 13
0.9999999999827196
 23
-5.955255346634658e-06
 33
0.000000000000000
 40
0.000000000000000
 40
0.000000000000000
 40
0.000000000000000
 40
0.000000000000000
 40
0.2566974034521878
 40
0.7125599971030804
 40
1.168424361577715
 40
1.624255399197318
 40
2.080038632785296
 40
2.535759882048600
 40
2.991405347617455
 40
3.446961695653815
 40
3.902416139788848
 40
4.357756519923142
 40
4.812971377429776
 40
5.268050026318913
 40
5.722982619936389
 40
6.177760212788664
 40
6.632374817107103
 40
7.086819453788157
 40
7.541088197370609
 40
7.995176214740932
 40
8.449079797287059
 40
8.902796386254860
 40
9.356324591097064
 40
9.809664200643725
 40
10.26281618696383
 40
10.71578270182830
 40
11.16856706573579
 40
11.62117374950284
 40
12.07360834847378
 40
12.52587754945505
 40
12.97798909052552
 40
13.42995171393066
 40
13.88177511232014
 40
14.33346986863038
 40
14.78504738997570
 40
15.23651983595002
 40
15.68790004179074
 40
16.13920143689828
 40
16.59043795924619
 40
17.04162396624767
 40
17.49277414268219
 40
17.94390340630614
 40
18.39502681179600
 40
18.84615903105328
 40
19.29731455047557
 40
19.74850826271989
 40
20.19975481700027
 40
20.65106852452108
 40
21.10246326625923
 40
21.55395240366835
 40
22.00554869291332
 40
22.45726420322816
 40
22.90911023994401
 40
23.36109727270036
 40
23.81323486931391
 40
24.26553163572517
 40
24.71799516240001
 40
25.17063197751141
 40
25.62344750717137
 40
26.07644604293123
 40
26.52963071671396
 40
26.98300348328619
 40
27.43656511032649
 40
27.89031517609083
 40
28.34425207462880
 40
28.79837302845051
 40
29.25267410850133
 40
29.70715026125553
 40
30.16179534269753
 40
30.61660215892327
 40
31.07156251305539
 40
31.52666725813715
 40
31.98190635563801
 40
32.43726893917700
 40
32.89274338305002
 40
33.34831737512470
 40
33.80397799364636
 40
34.25971178749076
 40
34.71550485937946
 40
35.17134295156841
 40
35.62721153342537
 40
35.94838867326850
 40
35.94838867326850
 40
35.94838867326850
 40
35.94838867326850
 10
292.3621395330567
 20
177.6794585157033
 30
0.000000000000000
 10
292.2765737319065
 20
177.6794582194801
 30
0.000000000000000
 10
292.0390491054218
 20
177.6768333800991
 30
0.000000000000000
 10
291.6498069513640
 20
177.6605819074993
 30
0.000000000000000
 10
291.1953336045525
 20
177.6236958721939
 30
0.000000000000000
 10
290.7426820254379
 20
177.5690023137853
 30
0.000000000000000
 10
290.2925744225328
 20
177.4965875446732
 30
0.000000000000000
 10
289.8457181072297
 20
177.4065653270832
 30
0.000000000000000
 10
289.4028163816148
 20
177.2990772120022
 30
0.000000000000000
 10
288.9645660180702
 20
177.1742923254153
 30
0.000000000000000
 10
288.5316565246198
 20
177.0324070979982
 30
0.000000000000000
 10
288.1047689458862
 20
176.8736449533110
 30
0.000000000000000
 10
287.6845748051093
 20
176.6982559510474
 30
0.000000000000000
 10
287.2717350274340
 20
176.5065163869302
 30
0.000000000000000
 10
286.8668988896599
 20
176.2987283496046
 30
0.000000000000000
 10
286.4707029867139
 20
176.0752192353283
 30
0.000000000000000
 10
286.0837702197933
 20
175.8363412212597
 30
0.000000000000000
 10
285.7067088071555
 20
175.5824706982591
 30
0.000000000000000
 10
285.3401113195534
 20
175.3140076642175
 30
0.000000000000000
 10
284.9845537419770
 20
175.0313750790158
 30
0.000000000000000
 10
284.6405945633971
 20
174.7350181823187
 30
0.000000000000000
 10
284.3087738961075
 20
174.4254037754973
 30
0.000000000000000
 10
283.9896126262116
 20
174.1030194690629
 30
0.000000000000000
 10
283.6836115967024
 20
173.7683728970800
 30
0.000000000000000
 10
283.3912508245087
 20
173.4219909001020
 30
0.000000000000000
 10
283.1129887527761
 20
173.0644186782423
 30
0.000000000000000
 10
282.8492615395518
 20
172.6962189160557
 30
0.000000000000000
 10
282.6004823839370
 20
172.3179708809535
 30
0.000000000000000
 10
282.3670408906527
 20
171.9302694969163
 30
0.000000000000000
 10
282.1493024738593
 20
171.5337243952961
 30
0.000000000000000
 10
281.9476078009500
 20
171.1289589445176
 30
0.000000000000000
 10
281.7622722769292
 20
170.7166092604896
 30
0.000000000000000
 10
281.5935855698738
 20
170.2973231995365
 30
0.000000000000000
 10
281.4418111778769
 20
169.8717593356371
 30
0.000000000000000
 10
281.3071860377664
 20
169.4405859237353
 30
0.000000000000000
 10
281.1899201758090
 20
169.0044798508497
 30
0.000000000000000
 10
281.0901964005222
 20
168.5641255766676
 30
0.000000000000000
 10
281.0081700376496
 20
168.1202140652612
 30
0.000000000000000
 10
280.9439687072887
 20
167.6734417095122
 30
0.000000000000000
 10
280.8976921431173
 20
167.2245092497811
 30
0.000000000000000
 10
280.8694120536147
 20
166.7741206882983
 30
0.000000000000000
 10
280.8591720251520
 20
166.3229822007245
 30
0.000000000000000
 10
280.8669874643622
 20
165.8718011871154
 30
0.000000000000000
 10
280.8928455510630
 20
165.4212852234558
 30
0.000000000000000
 10
280.9367052440792
 20
164.9721407805437
 30
0.000000000000000
 10
280.9984973798098
 20
164.5250719903575
 30
0.000000000000000
 10
281.0781248256269
 20
164.0807795206199
 30
0.000000000000000
 10
281.1754626221063
 20
163.6399596823038
 30
0.000000000000000
 10
281.2903581764028
 20
163.2033033594705
 30
0.000000000000000
 10
281.4226314960017
 20
162.7714949468738
 30
0.000000000000000
 10
281.5720754626370
 20
162.3452112966345
 30
0.000000000000000
 10
281.7384561461598
 20
161.9251206752653
 30
0.000000000000000
 10
281.9215131581359
 20
161.5118817323549
 30
0.000000000000000
 10
282.1209600449153
 20
161.1061424822476
 30
0.000000000000000
 10
282.3364847198988
 20
160.7085393000891
 30
0.000000000000000
 10
282.5677499346827
 20
160.3196959336411
 30
0.000000000000000
 10
282.8143937887102
 20
159.9402225322974
 30
0.000000000000000
 10
283.0760302770101
 20
159.5707146947694
 30
0.000000000000000
 10
283.3522498755285
 20
159.2117525369280
 30
0.000000000000000
 10
283.6426201634931
 20
158.8638997813147
 30
0.000000000000000
 10
283.9466864821652
 20
158.5277028698443
 30
0.000000000000000
 10
284.2639726292564
 20
158.2036901012279
 30
0.000000000000000
 10
284.5939815881886
 20
157.8923707946419
 30
0.000000000000000
 10
284.9361962912965
 20
157.5942344811556
 30
0.000000000000000
 10
285.2900804159763
 20
157.3097501244090
 30
0.000000000000000
 10
285.6550792126853
 20
157.0393653719987
 30
0.000000000000000
 10
286.0306203636262
 20
156.7835058389934
 30
0.000000000000000
 10
286.4161148708471
 20
156.5425744249497
 30
0.000000000000000
 10
286.8109579724195
 20
156.3169506657425
 30
0.000000000000000
 10
287.2145300852703
 20
156.1069901214642
 30
0.000000000000000
 10
287.6261977732056
 20
155.9130238015733
 30
0.000000000000000
 10
288.0453147384768
 20
155.7353576284131
 30
0.000000000000000
 10
288.4712228356585
 20
155.5742719401021
 30
0.000000000000000
 10
288.9032531047779
 20
155.4300210338719
 30
0.000000000000000
 10
289.3407268272307
 20
155.3028327502764
 30
0.000000000000000
 10
289.7829565832212
 20
155.1929081007520
 30
0.000000000000000
 10
290.2292473818377
 20
155.1004209329440
 30
0.000000000000000
 10
290.6788975899175
 20
155.0255176579331
 30
0.000000000000000
 10
291.1312006734531
 20
154.9683169521911
 30
0.000000000000000
 10
291.5854439587575
 20
154.9289097621783
 30
0.000000000000000
 10
291.9960544795958
 20
154.9094811921041
 30
0.000000000000000
 10
292.2550804864442
 20
154.9059001734420
 30
0.000000000000000
 10
292.3621395330567
 20
154.9058995358781
 30
0.000000000000000
  0
ELLIPSE
  5
1B4
100
AcDbEntity
  8
A1
  6
CONTINUOUS
 62
7
100
AcDbEllipse
 10
328.3621395330567
 20
178.2693541896001
 30
0.000000000000000
 11
0.5000000000000000
 21
0.000000000000000
 31
0.000000000000000
210
0.000000000000000
220
0.000000000000000
230
1.000000000000000
 40
0.9886779489912637
 41
0.000000000000000
 42
1.570796326794897
  0
ELLIPSE
  5
1B5
100
AcDbEntity
  8
A1
  6
CONTINUOUS
 62
7
100
AcDbEllipse
 10
299.3621395330567
 20
178.2693541896001
 30
0.000000000000000
 11
0.5000000000000000
 21
0.000000000000000
 31
0.000000000000000
210
0.000000000000000
220
0.000000000000000
230
1.000000000000000
 40
0.9886779489912637
 41
1.570796326794897
 42
3.141592653589793
  0
ELLIPSE
  5
1B6
100
AcDbEntity
  8
A1
  6
CONTINUOUS
 62
7
100
AcDbEllipse
 10
299.3621395330567
 20
178.0442746377712
 30
0.000000000000000
 11
0.5000000000000000
 21
0.000000000000000
 31
0.000000000000000
210
0.000000000000000
220
0.000000000000000
230
1.000000000000000
 40
0.9886779489912637
 41
1.570796326794897
 42
3.141592653589793
  0
ELLIPSE
  5
1B7
100
AcDbEntity
  8
A1
  6
CONTINUOUS
 62
7
100
AcDbEllipse
 10
328.3621395330567
 20
178.0442746377712
 30
0.000000000000000
 11
0.5000000000000000
 21
0.000000000000000
 31
0.000000000000000
210
0.000000000000000
220
0.000000000000000
230
1.000000000000000
 40
0.9886779489912637
 41
0.000000000000000
 42
1.570796326794897
  0
LINE
  5
1B8
100
AcDbEntity
  8
A1
  6
CONTINUOUS
 62
7
100
AcDbLine
 10
292.3621395330567
 20
154.9058995358781
 30
0.000000000000000
 11
335.3621395330567
 21
154.9058995358781
 31
0.000000000000000
  0
LINE
  5
1B9
100
AcDbEntity
  8
A1
  6
CONTINUOUS
 62
7
100
AcDbLine
 10
335.3621395330567
 20
157.9058995358781
 30
0.000000000000000
 11
292.3621395330567
 21
157.9058995358781
 31
0.000000000000000
  0
LINE
  5
1BA
100
AcDbEntity
  8
A1
  6
CONTINUOUS
 62
7
100
AcDbLine
 10
328.8621395330567
 20
178.0442746377712
 30
0.000000000000000
 11
328.8621395330567
 21
178.2693541896001
 31
0.000000000000000
  0
LINE
  5
1BB
100
AcDbEntity
  8
A1
  6
CONTINUOUS
 62
7
100
AcDbLine
 10
298.8621395330567
 20
178.2693541896001
 30
0.000000000000000
 11
298.8621395330567
 21
178.0442746377712
 31
0.000000000000000
  0
LINE
  5
1BC
100
AcDbEntity
  8
A1
  6
CONTINUOUS
 62
7
100
AcDbLine
 10
323.8621395330567
 20
178.7636931640957
 30
0.000000000000000
 11
328.3621395330567
 21
178.7636931640957
 31
0.000000000000000
  0
LINE
  5
1BD
100
AcDbEntity
  8
A1
  6
CONTINUOUS
 62
7
100
AcDbLine
 10
323.8621395330567
 20
178.5386136122668
 30
0.000000000000000
 11
323.8621395330567
 21
178.7636931640957
 31
0.000000000000000
  0
LINE
  5
1BE
100
AcDbEntity
  8
A1
  6
CONTINUOUS
 62
7
100
AcDbLine
 10
303.8621395330567
 20
178.5386136122668
 30
0.000000000000000
 11
303.8621395330567
 21
177.5794585157036
 31
0.000000000000000
  0
LINE
  5
1BF
100
AcDbEntity
  8
A1
  6
CONTINUOUS
 62
7
100
AcDbLine
 10
298.8621395330567
 20
177.5794585157036
 30
0.000000000000000
 11
298.8621395330567
 21
178.0442746377712
 31
0.000000000000000
  0
LINE
  5
1C0
100
AcDbEntity
  8
A1
  6
CONTINUOUS
 62
7
100
AcDbLine
 10
328.8621395330567
 20
178.0442746377712
 30
0.000000000000000
 11
328.8621395330567
 21
177.5794585157036
 31
0.000000000000000
  0
LINE
  5
1C1
100
AcDbEntity
  8
A1
  6
CONTINUOUS
 62
7
100
AcDbLine
 10
323.8621395330567
 20
178.5386136122668
 30
0.000000000000000
 11
328.3621395330567
 21
178.5386136122668
 31
0.000000000000000
  0
LINE
  5
1C2
100
AcDbEntity
  8
A1
  6
CONTINUOUS
 62
7
100
AcDbLine
 10
323.8621395330567
 20
177.5794585157036
 30
0.000000000000000
 11
323.8621395330567
 21
178.5386136122668
 31
0.000000000000000
  0
LINE
  5
1C3
100
AcDbEntity
  8
A1
  6
CONTINUOUS
 62
7
100
AcDbLine
 10
303.8621395330567
 20
178.7636931640957
 30
0.000000000000000
 11
303.8621395330567
 21
178.5386136122668
 31
0.000000000000000
  0
LINE
  5
1C4
100
AcDbEntity
  8
A1
  6
CONTINUOUS
 62
7
100
AcDbLine
 10
299.3621395330567
 20
178.5386136122668
 30
0.000000000000000
 11
303.8621395330567
 21
178.5386136122668
 31
0.000000000000000
  0
LINE
  5
1C5
100
AcDbEntity
  8
A1
  6
CONTINUOUS
 62
7
100
AcDbLine
 10
299.3621395330567
 20
178.7636931640957
 30
0.000000000000000
 11
303.8621395330567
 21
178.7636931640957
 31
0.000000000000000
  0
LINE
  5
1C6
100
AcDbEntity
  8
A1
  6
CONTINUOUS
 62
7
100
AcDbLine
 10
335.3621395330567
 20
177.6624754391900
 30
0.000000000000000
 11
335.3621395330567
 21
174.6794585157031
 31
0.000000000000000
  0
LINE
  5
1C7
100
AcDbEntity
  8
A1
  6
CONTINUOUS
 62
7
100
AcDbLine
 10
329.8621395330656
 20
177.6794585157031
 30
0.000000000000000
 11
328.8621395330567
 21
177.6794585157031
 31
0.000000000000000
  0
LINE
  5
1C8
100
AcDbEntity
  8
A1
  6
CONTINUOUS
 62
7
100
AcDbLine
 10
335.3621395330567
 20
177.6794585157031
 30
0.000000000000000
 11
331.8621395330656
 21
177.6794585157031
 31
0.000000000000000
  0
LINE
  5
1C9
100
AcDbEntity
  8
A1
  6
CONTINUOUS
 62
7
100
AcDbLine
 10
334.1121395330656
 20
174.6794585157031
 30
0.000000000000000
 11
335.3621395330567
 21
174.6794585157031
 31
0.000000000000000
  0
LINE
  5
1CA
100
AcDbEntity
  8
A1
  6
CONTINUOUS
 62
7
100
AcDbLine
 10
335.3621395330567
 20
177.6794585157031
 30
0.000000000000000
 11
335.3621395330567
 21
177.6624754391900
 31
0.000000000000000
  0
LINE
  5
1CB
100
AcDbEntity
  8
A1
  6
CONTINUOUS
 62
7
100
AcDbLine
 10
295.8621395330656
 20
177.6794585157031
 30
0.000000000000000
 11
292.3621395330567
 21
177.6794585157031
 31
0.000000000000000
  0
LINE
  5
1CC
100
AcDbEntity
  8
A1
  6
CONTINUOUS
 62
7
100
AcDbLine
 10
298.8621395330567
 20
177.6794585157031
 30
0.000000000000000
 11
297.8621395330732
 21
177.6794585157031
 31
0.000000000000000
  0
LINE
  5
1CD
100
AcDbEntity
  8
A1
  6
CONTINUOUS
 62
7
100
AcDbLine
 10
292.3621395330567
 20
174.6794585157031
 30
0.000000000000000
 11
293.6121395330656
 21
174.6794585157031
 31
0.000000000000000
  0
LINE
  5
1CE
100
AcDbEntity
  8
A1
  6
CONTINUOUS
 62
7
100
AcDbLine
 10
292.3621395330567
 20
177.6794585153926
 30
0.000000000000000
 11
292.3621395330567
 21
177.6624754391902
 31
0.000000000000000
  0
LINE
  5
1CF
100
AcDbEntity
  8
A1
  6
CONTINUOUS
 62
7
100
AcDbLine
 10
99.56136302791940
 20
109.7199815020147
 30
0.000000000000000
 11
99.56136302791940
 21
106.4061379515494
 31
0.000000000000000
  0
LINE
  5
1D0
100
AcDbEntity
  8
A1
  6
CONTINUOUS
 62
7
100
AcDbLine
 10
100.1613690279192
 20
106.4008441060575
 30
0.000000000000000
 11
100.1613690279192
 21
109.7199815020147
 31
0.000000000000000
  0
LINE
  5
1D1
100
AcDbEntity
  8
A1
  6
CONTINUOUS
 62
7
100
AcDbLine
 10
99.56136302791940
 20
103.4040981968126
 30
0.000000000000000
 11
99.56136302791940
 21
102.4057385020147
 31
0.000000000000000
  0
LINE
  5
1D2
100
AcDbEntity
  8
A1
  6
CONTINUOUS
 62
7
100
AcDbLine
 10
100.1613690279192
 20
110.3747476067690
 30
0.000000000000000
 11
100.1613690279192
 21
111.4057385020148
 31
0.000000000000000
  0
LINE
  5
1D3
100
AcDbEntity
  8
A1
  6
CONTINUOUS
 62
7
100
AcDbLine
 10
100.1613690279192
 20
111.4057385020148
 30
0.000000000000000
 11
99.56136302791940
 21
111.4057385020148
 31
0.000000000000000
  0
LINE
  5
1D4
100
AcDbEntity
  8
A1
  6
CONTINUOUS
 62
7
100
AcDbLine
 10
99.56136302791940
 20
102.4057385020147
 30
0.000000000000000
 11
100.1613690279192
 21
102.4057385020147
 31
0.000000000000000
  0
LINE
  5
1D5
100
AcDbEntity
  8
A1
  6
CONTINUOUS
 62
7
100
AcDbLine
 10
100.1613690279192
 20
102.4057385020147
 30
0.000000000000000
 11
100.1613690279192
 21
103.3975885210669
 31
0.000000000000000
  0
LINE
  5
1D6
100
AcDbEntity
  8
A1
  6
CONTINUOUS
 62
7
100
AcDbLine
 10
99.56136302791940
 20
111.4057385020148
 30
0.000000000000000
 11
99.56136302791940
 21
110.3747476067690
 31
0.000000000000000
  0
LINE
  5
1D7
100
AcDbEntity
  8
A1
  6
CONTINUOUS
 62
7
100
AcDbLine
 10
99.56136302791940
 20
109.7199823629430
 30
0.000000000000000
 11
99.56136302791940
 21
110.3747469312363
 31
0.000000000000000
  0
LINE
  5
1D8
100
AcDbEntity
  8
A1
  6
CONTINUOUS
 62
7
100
AcDbLine
 10
100.1613690279192
 20
109.7199823629430
 30
0.000000000000000
 11
100.1613690279192
 21
110.3747469312363
 31
0.000000000000000
  0
ELLIPSE
  5
1D9
100
AcDbEntity
  8
A1
  6
CONTINUOUS
 62
7
100
AcDbEllipse
 10
67.76136902791883
 20
77.35203577352266
 30
0.000000000000000
 11
-5.000000000000000
 21
0.000000000000000
 31
0.000000000000000
210
0.000000000000000
220
0.000000000000000
230
1.000000000000000
 40
0.4472851453819900
 41
0.000000000000000
 42
1.560078270377794
  0
ELLIPSE
  5
1DA
100
AcDbEntity
  8
A1
  6
CONTINUOUS
 62
7
100
AcDbEllipse
 10
87.76136902791883
 20
77.35203577352266
 30
0.000000000000000
 11
-5.000000000000000
 21
0.000000000000000
 31
0.000000000000000
210
0.000000000000000
220
0.000000000000000
230
1.000000000000000
 40
0.4472851453819900
 41
1.581514383212008
 42
3.141592653589793
  0
ELLIPSE
  5
1DB
100
AcDbEntity
  8
A1
  6
CONTINUOUS
 62
7
100
AcDbEllipse
 10
61.76136902791903
 20
93.83420724105778
 30
0.000000000000000
 11
0.000000000000000
 21
-1.071531260957101
 31
0.000000000000000
210
0.000000000000000
220
0.000000000000000
230
1.000000000000000
 40
0.9332438879168036
 41
1.570796326794897
 42
3.141592653589793
  0
ELLIPSE
  5
1DC
100
AcDbEntity
  8
A1
  6
CONTINUOUS
 62
7
100
AcDbEllipse
 10
93.76136902791906
 20
93.83420724105790
 30
0.000000000000000
 11
0.000000000000000
 21
-1.071531260957101
 31
0.000000000000000
210
0.000000000000000
220
0.000000000000000
230
1.000000000000000
 40
0.9332438879168036
 41
3.141592653589793
 42
4.712388980384690
  0
ELLIPSE
  5
1DD
100
AcDbEntity
  8
A1
  6
CONTINUOUS
 62
7
100
AcDbEllipse
 10
61.76136902791903
 20
94.60408838307470
 30
0.000000000000000
 11
0.000000000000000
 21
-1.071531260957101
 31
0.000000000000000
210
0.000000000000000
220
0.000000000000000
230
1.000000000000000
 40
0.9332438879168036
 41
1.570796326794897
 42
1.856166975986772
  0
ELLIPSE
  5
1DE
100
AcDbEntity
  8
A1
  6
CONTINUOUS
 62
7
100
AcDbEllipse
 10
93.76136902791906
 20
94.60408838307475
 30
0.000000000000000
 11
0.000000000000000
 21
-1.071531260957101
 31
0.000000000000000
210
0.000000000000000
220
0.000000000000000
230
1.000000000000000
 40
0.9332438879168036
 41
4.427018331192925
 42
4.712388980384690
  0
ARC
  5
1DF
100
AcDbEntity
  8
A1
  6
CONTINUOUS
 62
7
100
AcDbCircle
 10
92.76136902791906
 20
109.9057385020148
 30
0.000000000000000
 40
1.000000000000000
100
AcDbArc
 50
329.9999999999977
 51
360.0000000000000
  0
ARC
  5
1E0
100
AcDbEntity
  8
A1
  6
CONTINUOUS
 62
7
100
AcDbCircle
 10
62.76136902791906
 20
109.9057385020148
 30
0.000000000000000
 40
1.000000000000000
100
AcDbArc
 50
180.0000000000000
 51
210.0000000000019
  0
LINE
  5
1E1
100
AcDbEntity
  8
A1
  6
CONTINUOUS
 62
7
100
AcDbLine
 10
62.76136902791905
 20
80.09624967725809
 30
0.000000000000000
 11
62.76136902791884
 21
77.35203577352264
 31
0.000000000000000
  0
LINE
  5
1E2
100
AcDbEntity
  8
A1
  6
CONTINUOUS
 62
7
100
AcDbLine
 10
92.76136902791906
 20
80.09624967725813
 30
0.000000000000000
 11
92.76136902791882
 21
77.35203577351808
 31
0.000000000000000
  0
LINE
  5
1E3
100
AcDbEntity
  8
A1
  6
CONTINUOUS
 62
7
100
AcDbLine
 10
67.70777977187352
 20
75.11573850201516
 30
0.000000000000000
 11
87.81495828396420
 21
75.11573850201471
 31
0.000000000000000
  0
LINE
  5
1E4
100
AcDbEntity
  8
A1
  6
CONTINUOUS
 62
7
100
AcDbLine
 10
62.76136902791902
 20
81.90473850201485
 30
0.000000000000000
 11
62.76136902791902
 21
80.09624967725810
 31
0.000000000000000
  0
LINE
  5
1E5
100
AcDbEntity
  8
A1
  6
CONTINUOUS
 62
7
100
AcDbLine
 10
92.76136902791909
 20
81.90473850201485
 30
0.000000000000000
 11
92.76136902791909
 21
80.09624967725810
 31
0.000000000000000
  0
LINE
  5
1E6
100
AcDbEntity
  8
A1
  6
CONTINUOUS
 62
7
100
AcDbLine
 10
62.76136902791905
 20
94.60408838307470
 30
0.000000000000000
 11
62.76136902791902
 21
81.90473850201485
 31
0.000000000000000
  0
LINE
  5
1E7
100
AcDbEntity
  8
A1
  6
CONTINUOUS
 62
7
100
AcDbLine
 10
92.76136902791909
 20
81.90473850201482
 30
0.000000000000000
 11
92.76136902791907
 21
94.60408838307475
 31
0.000000000000000
  0
LINE
  5
1E8
100
AcDbEntity
  8
A1
  6
CONTINUOUS
 62
7
100
AcDbLine
 10
59.76136902791902
 20
101.1906707663620
 30
0.000000000000000
 11
59.76136902791902
 21
96.90573850201488
 31
0.000000000000000
  0
LINE
  5
1E9
100
AcDbEntity
  8
A1
  6
CONTINUOUS
 62
7
100
AcDbLine
 10
61.76136902791902
 20
101.1906707663620
 30
0.000000000000000
 11
61.76136902791902
 21
96.90573850201488
 31
0.000000000000000
  0
LINE
  5
1EA
100
AcDbEntity
  8
A1
  6
CONTINUOUS
 62
7
100
AcDbLine
 10
95.76136902791909
 20
96.90573850201488
 30
0.000000000000000
 11
95.76136902791909
 21
101.1906714532670
 31
0.000000000000000
  0
LINE
  5
1EB
100
AcDbEntity
  8
A1
  6
CONTINUOUS
 62
7
100
AcDbLine
 10
93.76136902791215
 20
96.90573850201487
 30
0.000000000000000
 11
93.76136902791906
 21
101.1906714532669
 31
0.000000000000000
  0
LINE
  5
1EC
100
AcDbEntity
  8
A1
  6
CONTINUOUS
 62
7
100
AcDbLine
 10
95.76136902791909
 20
103.4057385020150
 30
0.000000000000000
 11
95.76136902791909
 21
101.1906713476189
 31
0.000000000000000
  0
LINE
  5
1ED
100
AcDbEntity
  8
A1
  6
CONTINUOUS
 62
7
100
AcDbLine
 10
95.76136902791909
 20
112.9057385020149
 30
0.000000000000000
 11
95.76136902791909
 21
106.4067991930660
 31
0.000000000000000
  0
LINE
  5
1EE
100
AcDbEntity
  8
A1
  6
CONTINUOUS
 62
7
100
AcDbLine
 10
93.76136902791909
 20
103.4057385020150
 30
0.000000000000000
 11
93.76136902791909
 21
101.1906713476189
 31
0.000000000000000
  0
LINE
  5
1EF
100
AcDbEntity
  8
A1
  6
CONTINUOUS
 62
7
100
AcDbLine
 10
93.76136902791909
 20
112.9057385020149
 30
0.000000000000000
 11
93.76136902791909
 21
106.4067991930660
 31
0.000000000000000
  0
LINE
  5
1F0
100
AcDbEntity
  8
A1
  6
CONTINUOUS
 62
7
100
AcDbLine
 10
95.76136902791909
 20
112.9057385020149
 30
0.000000000000000
 11
93.76136902791909
 21
112.9057385020149
 31
0.000000000000000
  0
LINE
  5
1F1
100
AcDbEntity
  8
A1
  6
CONTINUOUS
 62
7
100
AcDbLine
 10
59.76136902791902
 20
103.4057385020150
 30
0.000000000000000
 11
59.76136902791902
 21
101.1906707663620
 31
0.000000000000000
  0
LINE
  5
1F2
100
AcDbEntity
  8
A1
  6
CONTINUOUS
 62
7
100
AcDbLine
 10
59.76136902791902
 20
112.9057385020149
 30
0.000000000000000
 11
59.76136902791902
 21
106.4067991930660
 31
0.000000000000000
  0
LINE
  5
1F3
100
AcDbEntity
  8
A1
  6
CONTINUOUS
 62
7
100
AcDbLine
 10
61.76136902791902
 20
103.4057385020150
 30
0.000000000000000
 11
61.76136902791902
 21
101.1906707663620
 31
0.000000000000000
  0
LINE
  5
1F4
100
AcDbEntity
  8
A1
  6
CONTINUOUS
 62
7
100
AcDbLine
 10
61.76136902791902
 20
112.9057385020149
 30
0.000000000000000
 11
61.76136902791902
 21
106.4067991930660
 31
0.000000000000000
  0
LINE
  5
1F5
100
AcDbEntity
  8
A1
  6
CONTINUOUS
 62
7
100
AcDbLine
 10
61.76136902791902
 20
112.9057385020147
 30
0.000000000000000
 11
59.76136902791902
 21
112.9057385020147
 31
0.000000000000000
  0
ARC
  5
1F6
100
AcDbEntity
  8
A1
  6
CONTINUOUS
 62
7
100
AcDbCircle
 10
59.51136902791906
 20
96.90573850201500
 30
0.000000000000000
 40
2.000000000000000
100
AcDbArc
 50
180.0000000000000
 51
270.0000000000007
  0
ARC
  5
1F7
100
AcDbEntity
  8
A1
  6
CONTINUOUS
 62
7
100
AcDbCircle
 10
96.01136902791906
 20
96.90573850201500
 30
0.000000000000000
 40
2.000000000000000
100
AcDbArc
 50
270.0000000000000
 51
360.0000000000000
  0
LINE
  5
1F8
100
AcDbEntity
  8
A1
  6
CONTINUOUS
 62
7
100
AcDbLine
 10
59.51136902791908
 20
106.9057385020150
 30
0.000000000000000
 11
59.51136902791908
 21
112.9057385020149
 31
0.000000000000000
  0
LINE
  5
1F9
100
AcDbEntity
  8
A1
  6
CONTINUOUS
 62
7
100
AcDbLine
 10
59.51136902791908
 20
112.9057385020149
 30
0.000000000000000
 11
57.51136902791908
 21
112.9057385020149
 31
0.000000000000000
  0
LINE
  5
1FA
100
AcDbEntity
  8
A1
  6
CONTINUOUS
 62
7
100
AcDbLine
 10
57.51136902791908
 20
112.9057385020149
 30
0.000000000000000
 11
57.51136902791908
 21
106.9057385020150
 31
0.000000000000000
  0
LINE
  5
1FB
100
AcDbEntity
  8
A1
  6
CONTINUOUS
 62
7
100
AcDbLine
 10
98.01136902791906
 20
112.9057385020149
 30
0.000000000000000
 11
96.01136902791906
 21
112.9057385020149
 31
0.000000000000000
  0
LINE
  5
1FC
100
AcDbEntity
  8
A1
  6
CONTINUOUS
 62
7
100
AcDbLine
 10
96.01136902791906
 20
112.9057385020149
 30
0.000000000000000
 11
96.01136902791906
 21
106.9057385020150
 31
0.000000000000000
  0
LINE
  5
1FD
100
AcDbEntity
  8
A1
  6
CONTINUOUS
 62
7
100
AcDbLine
 10
98.01136902791906
 20
112.9057385020149
 30
0.000000000000000
 11
98.01136902791906
 21
106.9057385020150
 31
0.000000000000000
  0
LINE
  5
1FE
100
AcDbEntity
  8
A1
  6
CONTINUOUS
 62
7
100
AcDbLine
 10
57.51136902791908
 20
106.4067991930660
 30
0.000000000000000
 11
57.51136902791908
 21
106.9057385020150
 31
0.000000000000000
  0
LINE
  5
1FF
100
AcDbEntity
  8
A1
  6
CONTINUOUS
 62
7
100
AcDbLine
 10
57.51136902791908
 20
96.90573850201500
 30
0.000000000000000
 11
57.51136902791908
 21
103.4067991930660
 31
0.000000000000000
  0
LINE
  5
200
100
AcDbEntity
  8
A1
  6
CONTINUOUS
 62
7
100
AcDbLine
 10
96.01136902791906
 20
94.90573850201500
 30
0.000000000000000
 11
59.51136902791908
 21
94.90573850201500
 31
0.000000000000000
  0
LINE
  5
201
100
AcDbEntity
  8
A1
  6
CONTINUOUS
 62
7
100
AcDbLine
 10
98.01136902791906
 20
106.4067991930660
 30
0.000000000000000
 11
98.01136902791906
 21
106.9057385020150
 31
0.000000000000000
  0
LINE
  5
202
100
AcDbEntity
  8
A1
  6
CONTINUOUS
 62
7
100
AcDbLine
 10
98.01136902791906
 20
96.90573850201500
 30
0.000000000000000
 11
98.01136902791906
 21
103.4067991930660
 31
0.000000000000000
  0
LINE
  5
203
100
AcDbEntity
  8
A1
  6
CONTINUOUS
 62
7
100
AcDbLine
 10
96.01136902791906
 20
106.4067991930660
 30
0.000000000000000
 11
96.01136902791906
 21
106.9057385020150
 31
0.000000000000000
  0
LINE
  5
204
100
AcDbEntity
  8
A1
  6
CONTINUOUS
 62
7
100
AcDbLine
 10
96.01136902791905
 20
96.90573850201484
 30
0.000000000000000
 11
96.01136902791905
 21
103.4067991930659
 31
0.000000000000000
  0
LINE
  5
205
100
AcDbEntity
  8
A1
  6
CONTINUOUS
 62
7
100
AcDbLine
 10
59.51136902791905
 20
96.90573850201488
 30
0.000000000000000
 11
96.01136902791903
 21
96.90573850201488
 31
0.000000000000000
  0
LINE
  5
206
100
AcDbEntity
  8
A1
  6
CONTINUOUS
 62
7
100
AcDbLine
 10
59.51136902791905
 20
103.4067991930660
 30
0.000000000000000
 11
59.51136902791903
 21
96.90573850201490
 31
0.000000000000000
  0
LINE
  5
207
100
AcDbEntity
  8
A1
  6
CONTINUOUS
 62
7
100
AcDbLine
 10
59.51136902791908
 20
106.9057385020150
 30
0.000000000000000
 11
59.51136902791908
 21
106.4067991930660
 31
0.000000000000000
  0
ARC
  5
208
100
AcDbEntity
  8
A1
  6
CONTINUOUS
 62
7
100
AcDbCircle
 10
56.51136902791897
 20
102.9057385020147
 30
0.000000000000000
 40
1.000000000000114
100
AcDbArc
 50
180.0000000000000
 51
360.0000000000000
  0
ARC
  5
209
100
AcDbEntity
  8
A1
  6
CONTINUOUS
 62
7
100
AcDbCircle
 10
56.51136902791897
 20
110.9057385020148
 30
0.000000000000000
 40
1.000000000000114
100
AcDbArc
 50
0.000000000000000
 51
180.0000000000000
  0
LINE
  5
20A
100
AcDbEntity
  8
A1
  6
CONTINUOUS
 62
7
100
AcDbLine
 10
99.56136302791940
 20
108.9307385020147
 30
0.000000000000000
 11
99.51136902791909
 21
108.9307385020147
 31
0.000000000000000
  0
LINE
  5
20B
100
AcDbEntity
  8
A1
  6
CONTINUOUS
 62
7
100
AcDbLine
 10
100.2113690279192
 20
108.9307385020147
 30
0.000000000000000
 11
100.1613690279192
 21
108.9307385020147
 31
0.000000000000000
  0
LINE
  5
20C
100
AcDbEntity
  8
A1
  6
CONTINUOUS
 62
7
100
AcDbLine
 10
59.76136902791902
 20
109.4057385020147
 30
0.000000000000000
 11
59.51136902791908
 21
109.4057385020147
 31
0.000000000000000
  0
LINE
  5
20D
100
AcDbEntity
  8
A1
  6
CONTINUOUS
 62
7
100
AcDbLine
 10
93.76136902791909
 20
109.4057385020147
 30
0.000000000000000
 11
61.76136902791902
 21
109.4057385020147
 31
0.000000000000000
  0
LINE
  5
20E
100
AcDbEntity
  8
A1
  6
CONTINUOUS
 62
7
100
AcDbLine
 10
96.01136902791906
 20
109.4057385020147
 30
0.000000000000000
 11
95.76136902791909
 21
109.4057385020147
 31
0.000000000000000
  0
LINE
  5
20F
100
AcDbEntity
  8
A1
  6
CONTINUOUS
 62
7
100
AcDbLine
 10
99.51136902791909
 20
109.4057385020147
 30
0.000000000000000
 11
98.01136902791906
 21
109.4057385020147
 31
0.000000000000000
  0
LINE
  5
210
100
AcDbEntity
  8
A1
  6
CONTINUOUS
 62
7
100
AcDbLine
 10
99.51136902791909
 20
109.4057385020147
 30
0.000000000000000
 11
99.51136902791909
 21
106.4040280090089
 31
0.000000000000000
  0
LINE
  5
211
100
AcDbEntity
  8
A1
  6
CONTINUOUS
 62
7
100
AcDbLine
 10
102.5113690279190
 20
108.9057385020146
 30
0.000000000000000
 11
102.0113690279192
 21
109.4057385020146
 31
0.000000000000000
  0
LINE
  5
212
100
AcDbEntity
  8
A1
  6
CONTINUOUS
 62
7
100
AcDbLine
 10
102.5113690279191
 20
108.9057385020147
 30
0.000000000000000
 11
102.5113690279191
 21
106.3267001836734
 31
0.000000000000000
  0
LINE
  5
213
100
AcDbEntity
  8
A1
  6
CONTINUOUS
 62
7
100
AcDbLine
 10
102.0113690279192
 20
109.4057385020147
 30
0.000000000000000
 11
100.2113690279192
 21
109.4057385020147
 31
0.000000000000000
  0
LINE
  5
214
100
AcDbEntity
  8
A1
  6
CONTINUOUS
 62
7
100
AcDbLine
 10
100.2113690279192
 20
109.4057385020147
 30
0.000000000000000
 11
100.2113690279192
 21
106.3979690273094
 31
0.000000000000000
  0
LINE
  5
215
100
AcDbEntity
  8
A1
  6
CONTINUOUS
 62
7
100
AcDbLine
 10
102.0113690279192
 20
109.4057385020147
 30
0.000000000000000
 11
102.0113690279192
 21
106.3481123709600
 31
0.000000000000000
  0
LINE
  5
216
100
AcDbEntity
  8
A1
  6
CONTINUOUS
 62
7
100
AcDbLine
 10
55.51136902791885
 20
103.3985425225736
 30
0.000000000000000
 11
55.51136902791885
 21
102.9057385020147
 31
0.000000000000000
  0
LINE
  5
217
100
AcDbEntity
  8
A1
  6
CONTINUOUS
 62
7
100
AcDbLine
 10
55.51136902791885
 20
110.9057385020148
 30
0.000000000000000
 11
55.51136902791885
 21
106.4014309429544
 31
0.000000000000000
  0
SPLINE
  5
218
100
AcDbEntity
  8
A1
  6
CONTINUOUS
 62
7
100
AcDbSpline
210
0.000000000000000
220
0.000000000000000
230
1.000000000000000
 70
     8
 71
     3
 72
    41
 73
    37
 74
     0
 42
1.000000000000000e-07
 43
1.000000000000000e-07
 12
0.5317903790546552
 22
0.3188075996877160
 32
0.000000000000000
 13
0.9709493379483547
 23
-6.905743248353247e-06
 33
0.000000000000000
 40
0.000000000000000
 40
0.000000000000000
 40
0.000000000000000
 40
0.000000000000000
 40
0.01460029549250432
 40
0.04061018058800483
 40
0.08421474424869244
 40
0.1461907026104206
 40
0.2271821360596394
 40
0.3276108244339884
 40
0.4476724828407203
 40
0.5873325285460633
 40
0.7463560247927543
 40
0.9243432148915358
 40
1.120769602531952
 40
1.335021626274143
 40
1.566425919810795
 40
1.814271072390291
 40
2.077822715798936
 40
2.356333228135306
 40
2.649047492716877
 40
2.955205956155524
 40
3.274045961742007
 40
3.604802063050806
 40
3.946705798853601
 40
4.298985240854036
 40
4.660864505698246
 40
5.031563341470652
 40
5.410296846011166
 40
5.796275341218729
 40
6.188704407309049
 40
6.586785069922296
 40
6.989714124868239
 40
7.396684589555366
 40
7.806886241629121
 40
8.219506309522711
 40
8.622088744443166
 40
9.013826471285759
 40
9.013826471285759
 40
9.013826471285759
 40
9.013826471285759
 10
47.33188390819693
 20
102.4840792913150
 30
0.000000000000000
 10
47.33447200708837
 20
102.4856308530352
 30
0.000000000000000
 10
47.34465045255241
 20
102.4911588972793
 30
0.000000000000000
 10
47.36787083429847
 20
102.5028776000339
 30
0.000000000000000
 10
47.40755538775643
 20
102.5209467502319
 30
0.000000000000000
 10
47.46480719694900
 20
102.5446796337279
 30
0.000000000000000
 10
47.54059873481869
 20
102.5732323057483
 30
0.000000000000000
 10
47.63558453191378
 20
102.6058454901804
 30
0.000000000000000
 10
47.75015091204055
 20
102.6417529596544
 30
0.000000000000000
 10
47.88440315584803
 20
102.6802401445226
 30
0.000000000000000
 10
48.03820868485035
 20
102.7206422683138
 30
0.000000000000000
 10
48.21123804550332
 20
102.7623589339437
 30
0.000000000000000
 10
48.40301222087096
 20
102.8048558917586
 30
0.000000000000000
 10
48.61294397850635
 20
102.8476646153292
 30
0.000000000000000
 10
48.84037205986475
 20
102.8903777851582
 30
0.000000000000000
 10
49.08458683695820
 20
102.9326431646828
 30
0.000000000000000
 10
49.34484842711625
 20
102.9741566977989
 30
0.000000000000000
 10
49.62039866553259
 20
103.0146557297697
 30
0.000000000000000
 10
49.91046852639020
 20
103.0539127866076
 30
0.000000000000000
 10
50.21428237178181
 20
103.0917301382268
 30
0.000000000000000
 10
50.53106012203763
 20
103.1279351945760
 30
0.000000000000000
 10
50.86001814627163
 20
103.1623766934552
 30
0.000000000000000
 10
51.20036942675132
 20
103.1949215921605
 30
0.000000000000000
 10
51.55132336283414
 20
103.2254525601132
 30
0.000000000000000
 10
51.91208544564849
 20
103.2538659711654
 30
0.000000000000000
 10
52.28185694235573
 20
103.2800703041262
 30
0.000000000000000
 10
52.65983466770281
 20
103.3039848729697
 30
0.000000000000000
 10
53.04521088138456
 20
103.3255388213552
 30
0.000000000000000
 10
53.43717332519391
 20
103.3446703282360
 30
0.000000000000000
 10
53.83490539978392
 20
103.3613259815992
 30
0.000000000000000
 10
54.23758647052189
 20
103.3754602869922
 30
0.000000000000000
 10
54.64439229475410
 20
103.3870352815236
 30
0.000000000000000
 10
55.05449553279085
 20
103.3960202420573
 30
0.000000000000000
 10
55.46706640952341
 20
103.4023914350902
 30
0.000000000000000
 10
55.86963242925300
 20
103.4060269083115
 30
0.000000000000000
 10
56.13458319908553
 20
103.4068000948127
 30
0.000000000000000
 10
56.26136902792793
 20
103.4067991930660
 30
0.000000000000000
  0
SPLINE
  5
219
100
AcDbEntity
  8
A1
  6
CONTINUOUS
 62
7
100
AcDbSpline
210
0.000000000000000
220
0.000000000000000
230
1.000000000000000
 70
     8
 71
     3
 72
    93
 73
    89
 74
     0
 42
1.000000000000000e-07
 43
1.000000000000000e-07
 12
-0.9999999999972715
 22
2.254150103908614e-06
 32
0.000000000000000
 13
0.9999999999995453
 23
8.737238204048481e-07
 33
0.000000000000000
 40
0.000000000000000
 40
0.000000000000000
 40
0.000000000000000
 40
0.000000000000000
 40
0.2285641881091253
 40
0.6624702773986818
 40
1.095317822141077
 40
1.526404157753774
 40
1.955054979731596
 40
2.380603208334866
 40
2.802391306524816
 40
3.219773706120041
 40
3.632119380947609
 40
4.038814618888273
 40
4.439266059940067
 40
4.832904088987076
 40
5.219186702594035
 40
5.597604013162421
 40
5.967683617870368
 40
6.328997154659116
 40
6.681168510584572
 40
7.023884368176891
 40
7.356908122771323
 40
7.680098765270184
 40
7.993437257484512
 40
8.297064520675109
 40
8.591337955633026
 40
8.876918430850830
 40
9.154908687850220
 40
9.427079236422495
 40
9.696234272517508
 40
9.966718509407668
 40
10.24441032164771
 40
10.47882120936604
 40
10.68029088369576
 40
10.86117416748996
 40
11.02971252347255
 40
11.19123537426667
 40
11.34935978140177
 40
11.50654276049645
 40
11.66438165654176
 40
11.82379823812475
 40
11.98517999917341
 40
12.16633323885921
 40
12.34751185544979
 40
12.52754844792405
 40
12.70577674376785
 40
12.88163163871363
 40
13.05453086431391
 40
13.22410655613368
 40
13.39017821389993
 40
13.55272611274872
 40
13.71196983743883
 40
13.86847271469255
 40
14.02325479381197
 40
14.17790959779189
 40
14.33474811506623
 40
14.49702533224988
 40
14.66932836513822
 40
14.85818089708843
 40
15.07256114408302
 40
15.32193996600541
 40
15.60499899215893
 40
15.89721184455417
 40
16.18817981281624
 40
16.48044713365583
 40
16.77717465548135
 40
17.08048788438902
 40
17.39168629498539
 40
17.71152618004525
 40
18.04040494820544
 40
18.37847387900227
 40
18.72570844935403
 40
19.08195378770479
 40
19.44695518045758
 40
19.82037930090206
 40
20.20182949369597
 40
20.59085713776967
 40
20.98697035408048
 40
21.38964087422926
 40
21.79830960971258
 40
22.21239128747566
 40
22.63127840493090
 40
23.05434468328859
 40
23.48094814798458
 40
23.91043393070730
 40
24.34213686375308
 40
24.77538392082293
 40
25.20949654677237
 40
25.34162038026102
 40
25.34162038026102
 40
25.34162038026102
 40
25.34162038026102
 10
56.26136902792793
 20
106.4067991930660
 30
0.000000000000000
 10
56.18518096522509
 20
106.4067993648053
 30
0.000000000000000
 10
55.96435745491517
 20
106.4064278181258
 30
0.000000000000000
 10
55.59925666092353
 20
106.4040408621330
 30
0.000000000000000
 10
55.16667661924528
 20
106.3984448331951
 30
0.000000000000000
 10
54.73589291239036
 20
106.3900965260882
 30
0.000000000000000
 10
54.30760495514217
 20
106.3790059922956
 30
0.000000000000000
 10
53.88249731788223
 20
106.3651865630364
 30
0.000000000000000
 10
53.46124545064866
 20
106.3486541327112
 30
0.000000000000000
 10
53.04451333335489
 20
106.3294269992722
 30
0.000000000000000
 10
52.63295104771892
 20
106.3075254070833
 30
0.000000000000000
 10
52.22719216269793
 20
106.2829710182852
 30
0.000000000000000
 10
51.82785089119604
 20
106.2557862141502
 30
0.000000000000000
 10
51.43551893563746
 20
106.2259931985606
 30
0.000000000000000
 10
51.05076191865852
 20
106.1936128353381
 30
0.000000000000000
 10
50.67411525501292
 20
106.1586631302719
 30
0.000000000000000
 10
50.30607926486938
 20
106.1211572275332
 30
0.000000000000000
 10
49.94711324527945
 20
106.0811007305950
 30
0.000000000000000
 10
49.59762809102996
 20
106.0384880648957
 30
0.000000000000000
 10
49.25797686279363
 20
105.9932974526081
 30
0.000000000000000
 10
48.92844239586294
 20
105.9454838311487
 30
0.000000000000000
 10
48.60922055172718
 20
105.8949686480502
 30
0.000000000000000
 10
48.30039689959240
 20
105.8416247759526
 30
0.000000000000000
 10
48.00191324165668
 20
105.7852535629617
 30
0.000000000000000
 10
47.71351799612263
 20
105.7255487533396
 30
0.000000000000000
 10
47.43469043785403
 20
105.6620376600193
 30
0.000000000000000
 10
47.16452201649004
 20
105.5939813463774
 30
0.000000000000000
 10
46.90153237754437
 20
105.5201992506741
 30
0.000000000000000
 10
46.64341577754693
 20
105.4387582872737
 30
0.000000000000000
 10
46.38697739372533
 20
105.3464975340736
 30
0.000000000000000
 10
46.14619144989514
 20
105.2457440637040
 30
0.000000000000000
 10
45.93264148617804
 20
105.1406434912295
 30
0.000000000000000
 10
45.75422651313376
 20
105.0382087395405
 30
0.000000000000000
 10
45.60121626713534
 20
104.9364356393438
 30
0.000000000000000
 10
45.46604811197081
 20
104.8325940394478
 30
0.000000000000000
 10
45.34425279900582
 20
104.7244613065241
 30
0.000000000000000
 10
45.23343707305004
 20
104.6103068940158
 30
0.000000000000000
 10
45.13258886392286
 20
104.4888322682459
 30
0.000000000000000
 10
45.04167914242682
 20
104.3592057565461
 30
0.000000000000000
 10
44.96136648370397
 20
104.2211163472882
 30
0.000000000000000
 10
44.89021277344803
 20
104.0694399473710
 30
0.000000000000000
 10
44.83147075854824
 20
103.9047175792277
 30
0.000000000000000
 10
44.78855307176140
 20
103.7287619776710
 30
0.000000000000000
 10
44.76427528110663
 20
103.5502654612503
 30
0.000000000000000
 10
44.75867564637313
 20
103.3719959837436
 30
0.000000000000000
 10
44.77121033943969
 20
103.1964776362146
 30
0.000000000000000
 10
44.80085783398464
 20
103.0259727050064
 30
0.000000000000000
 10
44.84623008552173
 20
102.8623664070244
 30
0.000000000000000
 10
44.90572603917225
 20
102.7070648759203
 30
0.000000000000000
 10
44.97767979521218
 20
102.5609839137271
 30
0.000000000000000
 10
45.06052014917437
 20
102.4245345241443
 30
0.000000000000000
 10
45.15295821927039
 20
102.2976108963471
 30
0.000000000000000
 10
45.25418757430576
 20
102.1796151058235
 30
0.000000000000000
 10
45.36408775541723
 20
102.0695144922374
 30
0.000000000000000
 10
45.48344405944535
 20
101.9659097982504
 30
0.000000000000000
 10
45.61423064876404
 20
101.8670858362960
 30
0.000000000000000
 10
45.76002663662454
 20
101.7710338024428
 30
0.000000000000000
 10
45.92653739094347
 20
101.6755182839278
 30
0.000000000000000
 10
46.12142384400643
 20
101.5785933888664
 30
0.000000000000000
 10
46.35034444256304
 20
101.4804697849482
 30
0.000000000000000
 10
46.60837574278175
 20
101.3853845289165
 30
0.000000000000000
 10
46.88349061193220
 20
101.2974706228589
 30
0.000000000000000
 10
47.16444501986076
 20
101.2184219244561
 30
0.000000000000000
 10
47.44896968892927
 20
101.1469960779759
 30
0.000000000000000
 10
47.73910581374362
 20
101.0813983776833
 30
0.000000000000000
 10
48.03668412352845
 20
101.0204077850993
 30
0.000000000000000
 10
48.34286198845778
 20
100.9632641751177
 30
0.000000000000000
 10
48.65829547243671
 20
100.9094914761162
 30
0.000000000000000
 10
48.98330307453899
 20
100.8587869993572
 30
0.000000000000000
 10
49.31797170533822
 20
100.8109571956822
 30
0.000000000000000
 10
49.66222322517463
 20
100.7658794451273
 30
0.000000000000000
 10
50.01585728825098
 20
100.7234784252727
 30
0.000000000000000
 10
50.37857994585825
 20
100.6837109286997
 30
0.000000000000000
 10
50.75002346317360
 20
100.6465557732359
 30
0.000000000000000
 10
51.12976054520699
 20
100.6120068962317
 30
0.000000000000000
 10
51.51731489832447
 20
100.5800685058819
 30
0.000000000000000
 10
51.91216932480022
 20
100.5507516007079
 30
0.000000000000000
 10
52.31377211687162
 20
100.5240714229126
 30
0.000000000000000
 10
52.72154225440677
 20
100.5000455644623
 30
0.000000000000000
 10
53.13487374580320
 20
100.4786925388126
 30
0.000000000000000
 10
53.55313934683996
 20
100.4600306939079
 30
0.000000000000000
 10
53.97569382028594
 20
100.4440773718608
 30
0.000000000000000
 10
54.40187686207572
 20
100.4308482828890
 30
0.000000000000000
 10
54.83101575190661
 20
100.4203569426863
 30
0.000000000000000
 10
55.26242790067126
 20
100.4126145488737
 30
0.000000000000000
 10
55.69542293782747
 20
100.4076287458671
 30
0.000000000000000
 10
56.02858227828206
 20
100.4059227674364
 30
0.000000000000000
 10
56.21732775009839
 20
100.4057384635351
 30
0.000000000000000
 10
56.26136902792793
 20
100.4057385020150
 30
0.000000000000000
  0
SPLINE
  5
21A
100
AcDbEntity
  8
A1
  6
CONTINUOUS
 62
7
100
AcDbSpline
210
0.000000000000000
220
0.000000000000000
230
1.000000000000000
 70
     8
 71
     3
 72
    41
 73
    37
 74
     0
 42
1.000000000000000e-07
 43
1.000000000000000e-07
 12
0.9999999999974989
 22
2.360022790526273e-06
 32
0.000000000000000
 13
0.8664224627063959
 23
-0.4993116422556341
 33
0.000000000000000
 40
0.000000000000000
 40
0.000000000000000
 40
0.000000000000000
 40
0.000000000000000
 40
0.2185004668634573
 40
0.6334554104818686
 40
1.047214416464761
 40
1.458939052973882
 40
1.867817951391206
 40
2.273042928554025
 40
2.673809711336812
 40
3.069318597788967
 40
3.458775030919434
 40
3.841390063673800
 40
4.216380691337053
 40
4.582970025064425
 40
4.940387277715468
 40
5.287867531075062
 40
5.624651252643277
 40
5.949983531767377
 40
6.263113011182391
 40
6.563290504576021
 40
6.849767319362116
 40
7.121793355352577
 40
7.378615137975709
 40
7.619474088623793
 40
7.843605560950096
 40
8.050239511880317
 40
8.238604157836985
 40
8.407934592138865
 40
8.557489034852010
 40
8.686575911769927
 40
8.794594780749396
 40
8.881092312788375
 40
8.945829914084404
 40
8.985349800529043
 40
9.007639787053350
 40
9.013599829235156
 40
9.013599829235156
 40
9.013599829235156
 40
9.013599829235156
 10
99.26136902792793
 20
103.4067991930660
 30
0.000000000000000
 10
99.33420251688223
 20
103.4067993649547
 30
0.000000000000000
 10
99.54535440543300
 20
103.4064466905281
 30
0.000000000000000
 10
99.89442095393160
 20
103.4041624923713
 30
0.000000000000000
 10
100.3078686558115
 20
103.3988129140249
 30
0.000000000000000
 10
100.7192484400045
 20
103.3908382623269
 30
0.000000000000000
 10
101.1277238840394
 20
103.3802587359817
 30
0.000000000000000
 10
101.5324699381184
 20
103.3671005933191
 30
0.000000000000000
 10
101.9326652535148
 20
103.3513971902935
 30
0.000000000000000
 10
102.3274928379180
 20
103.3331889818673
 30
0.000000000000000
 10
102.7161405774906
 20
103.3125238545018
 30
0.000000000000000
 10
103.0978016631233
 20
103.2894574750134
 30
0.000000000000000
 10
103.4716748831071
 20
103.2640537648455
 30
0.000000000000000
 10
103.8369647628855
 20
103.2363855049251
 30
0.000000000000000
 10
104.1928815264946
 20
103.2065351139144
 30
0.000000000000000
 10
104.5386408561060
 20
103.1745956460647
 30
0.000000000000000
 10
104.8734634286121
 20
103.1406720710781
 30
0.000000000000000
 10
105.1965742155201
 20
103.1048829161208
 30
0.000000000000000
 10
105.5072015470932
 20
103.0673623734916
 30
0.000000000000000
 10
105.8045759686611
 20
103.0282630064564
 30
0.000000000000000
 10
106.0879289640496
 20
102.9877592214130
 30
0.000000000000000
 10
106.3564916989844
 20
102.9460517152515
 30
0.000000000000000
 10
106.6094940651473
 20
102.9033731535241
 30
0.000000000000000
 10
106.8461644987437
 20
102.8599953675273
 30
0.000000000000000
 10
107.0657313625859
 20
102.8162384059067
 30
0.000000000000000
 10
107.2674270584088
 20
102.7724816578869
 30
0.000000000000000
 10
107.4504968021942
 20
102.7291774377935
 30
0.000000000000000
 10
107.6142141193692
 20
102.6868661312076
 30
0.000000000000000
 10
107.7579077364180
 20
102.6461945818174
 30
0.000000000000000
 10
107.8809989443183
 20
102.6079284884997
 30
0.000000000000000
 10
107.9830661564896
 20
102.5729786067432
 30
0.000000000000000
 10
108.0638971058922
 20
102.5423698386500
 30
0.000000000000000
 10
108.1225566174113
 20
102.5177820679670
 30
0.000000000000000
 10
108.1607876295193
 20
102.4999447440840
 30
0.000000000000000
 10
108.1809426076549
 20
102.4897198263312
 30
0.000000000000000
 10
108.1891328428506
 20
102.4850712641316
 30
0.000000000000000
 10
108.1908541476589
 20
102.4840792913150
 30
0.000000000000000
  0
SPLINE
  5
21B
100
AcDbEntity
  8
A1
  6
CONTINUOUS
 62
7
100
AcDbSpline
210
0.000000000000000
220
0.000000000000000
230
1.000000000000000
 70
     8
 71
     3
 72
    93
 73
    89
 74
     0
 42
1.000000000000000e-07
 43
1.000000000000000e-07
 12
0.9999999999972715
 22
-2.254149876534939e-06
 32
0.000000000000000
 13
-0.9999999999990905
 23
-8.737238204048481e-07
 33
0.000000000000000
 40
0.000000000000000
 40
0.000000000000000
 40
0.000000000000000
 40
0.000000000000000
 40
0.2285641881091182
 40
0.6624702773987813
 40
1.095317822141241
 40
1.526404157753923
 40
1.955054979731788
 40
2.380603208335029
 40
2.802391306524979
 40
3.219773706120116
 40
3.632119380947823
 40
4.038814618888351
 40
4.439266059940152
 40
4.832904088987253
 40
5.219186702594159
 40
5.597604013162590
 40
5.967683617870589
 40
6.328997154659386
 40
6.681168510584733
 40
7.023884368177080
 40
7.356908122771499
 40
7.680098765270325
 40
7.993437257484687
 40
8.297064520675319
 40
8.591337955633195
 40
8.876918430850978
 40
9.154908687850281
 40
9.427079236422582
 40
9.696234272517643
 40
9.966718509407754
 40
10.24441032164773
 40
10.47882120936606
 40
10.68029088369577
 40
10.86117416748996
 40
11.02971252347255
 40
11.19123537426668
 40
11.34935978140182
 40
11.50654276049645
 40
11.66438165654175
 40
11.82379823812475
 40
11.98517999917340
 40
12.16633323885921
 40
12.34751185544978
 40
12.52754844792410
 40
12.70577674376779
 40
12.88163163871357
 40
13.05453086431385
 40
13.22410655613361
 40
13.39017821389993
 40
13.55272611274872
 40
13.71196983743882
 40
13.86847271469255
 40
14.02325479381190
 40
14.17790959779187
 40
14.33474811506618
 40
14.49702533224986
 40
14.66932836513820
 40
14.85818089708837
 40
15.07256114408299
 40
15.32193996600541
 40
15.60499899215893
 40
15.89721184455409
 40
16.18817981281614
 40
16.48044713365582
 40
16.77717465548129
 40
17.08048788438898
 40
17.39168629498539
 40
17.71152618004521
 40
18.04040494820543
 40
18.37847387900221
 40
18.72570844935396
 40
19.08195378770468
 40
19.44695518045750
 40
19.82037930090202
 40
20.20182949369590
 40
20.59085713776951
 40
20.98697035408037
 40
21.38964087422910
 40
21.79830960971248
 40
22.21239128747561
 40
22.63127840493078
 40
23.05434468328853
 40
23.48094814798456
 40
23.91043393070723
 40
24.34213686375298
 40
24.77538392082285
 40
25.20949654677229
 40
25.34162038026099
 40
25.34162038026099
 40
25.34162038026099
 40
25.34162038026099
 10
99.26136902792793
 20
100.4057385020150
 30
0.000000000000000
 10
99.33755709063077
 20
100.4057383302757
 30
0.000000000000000
 10
99.55838060094074
 20
100.4061098769550
 30
0.000000000000000
 10
99.92348139493238
 20
100.4084968329481
 30
0.000000000000000
 10
100.3560614366107
 20
100.4140928618858
 30
0.000000000000000
 10
100.7868451434657
 20
100.4224411689929
 30
0.000000000000000
 10
101.2151331007139
 20
100.4335317027853
 30
0.000000000000000
 10
101.6402407379738
 20
100.4473511320447
 30
0.000000000000000
 10
102.0614926052073
 20
100.4638835623698
 30
0.000000000000000
 10
102.4782247225011
 20
100.4831106958088
 30
0.000000000000000
 10
102.8897870081370
 20
100.5050122879977
 30
0.000000000000000
 10
103.2955458931581
 20
100.5295666767958
 30
0.000000000000000
 10
103.6948871646599
 20
100.5567514809306
 30
0.000000000000000
 10
104.0872191202185
 20
100.5865444965205
 30
0.000000000000000
 10
104.4719761371975
 20
100.6189248597429
 30
0.000000000000000
 10
104.8486228008431
 20
100.6538745648090
 30
0.000000000000000
 10
105.2166587909867
 20
100.6913804675479
 30
0.000000000000000
 10
105.5756248105766
 20
100.7314369644859
 30
0.000000000000000
 10
105.9251099648261
 20
100.7740496301853
 30
0.000000000000000
 10
106.2647611930624
 20
100.8192402424729
 30
0.000000000000000
 10
106.5942956599931
 20
100.8670538639322
 30
0.000000000000000
 10
106.9135175041288
 20
100.9175690470308
 30
0.000000000000000
 10
107.2223411562636
 20
100.9709129191283
 30
0.000000000000000
 10
107.5208248141993
 20
101.0272841321195
 30
0.000000000000000
 10
107.8092200597334
 20
101.0869889417413
 30
0.000000000000000
 10
108.0880476180019
 20
101.1505000350619
 30
0.000000000000000
 10
108.3582160393659
 20
101.2185563487034
 30
0.000000000000000
 10
108.6212056783115
 20
101.2923384444072
 30
0.000000000000000
 10
108.8793222783090
 20
101.3737794078073
 30
0.000000000000000
 10
109.1357606621306
 20
101.4660401610075
 30
0.000000000000000
 10
109.3765466059608
 20
101.5667936313771
 30
0.000000000000000
 10
109.5900965696778
 20
101.6718942038515
 30
0.000000000000000
 10
109.7685115427221
 20
101.7743289555405
 30
0.000000000000000
 10
109.9215217887205
 20
101.8761020557372
 30
0.000000000000000
 10
110.0566899438850
 20
101.9799436556332
 30
0.000000000000000
 10
110.1784852568500
 20
102.0880763885568
 30
0.000000000000000
 10
110.2893009828058
 20
102.2022308010654
 30
0.000000000000000
 10
110.3901491919330
 20
102.3237054268351
 30
0.000000000000000
 10
110.4810589134290
 20
102.4533319385349
 30
0.000000000000000
 10
110.5613715721519
 20
102.5914213477926
 30
0.000000000000000
 10
110.6325252824078
 20
102.7430977477101
 30
0.000000000000000
 10
110.6912672973076
 20
102.9078201158533
 30
0.000000000000000
 10
110.7341849840944
 20
103.0837757174100
 30
0.000000000000000
 10
110.7584627747492
 20
103.2622722338307
 30
0.000000000000000
 10
110.7640624094827
 20
103.4405417113373
 30
0.000000000000000
 10
110.7515277164162
 20
103.6160600588664
 30
0.000000000000000
 10
110.7218802218712
 20
103.7865649900745
 30
0.000000000000000
 10
110.6765079703341
 20
103.9501712880566
 30
0.000000000000000
 10
110.6170120166836
 20
104.1054728191607
 30
0.000000000000000
 10
110.5450582606436
 20
104.2515537813539
 30
0.000000000000000
 10
110.4622179066815
 20
104.3880031709367
 30
0.000000000000000
 10
110.3697798365854
 20
104.5149267987339
 30
0.000000000000000
 10
110.2685504815500
 20
104.6329225892573
 30
0.000000000000000
 10
110.1586503004387
 20
104.7430232028437
 30
0.000000000000000
 10
110.0392939964104
 20
104.8466278968305
 30
0.000000000000000
 10
109.9085074070918
 20
104.9454518587849
 30
0.000000000000000
 10
109.7627114192313
 20
105.0415038926382
 30
0.000000000000000
 10
109.5962006649123
 20
105.1370194111531
 30
0.000000000000000
 10
109.4013142118494
 20
105.2339443062145
 30
0.000000000000000
 10
109.1723936132928
 20
105.3320679101328
 30
0.000000000000000
 10
108.9143623130741
 20
105.4271531661643
 30
0.000000000000000
 10
108.6392474439237
 20
105.5150670722221
 30
0.000000000000000
 10
108.3582930359951
 20
105.5941157706248
 30
0.000000000000000
 10
108.0737683669266
 20
105.6655416171050
 30
0.000000000000000
 10
107.7836322421122
 20
105.7311393173975
 30
0.000000000000000
 10
107.4860539323274
 20
105.7921299099819
 30
0.000000000000000
 10
107.1798760673981
 20
105.8492735199632
 30
0.000000000000000
 10
106.8644425834191
 20
105.9030462189646
 30
0.000000000000000
 10
106.5394349813169
 20
105.9537506957239
 30
0.000000000000000
 10
106.2047663505176
 20
106.0015804993988
 30
0.000000000000000
 10
105.8605148306813
 20
106.0466582499535
 30
0.000000000000000
 10
105.5068807676049
 20
106.0890592698084
 30
0.000000000000000
 10
105.1441581099976
 20
106.1288267663812
 30
0.000000000000000
 10
104.7727145926822
 20
106.1659819218451
 30
0.000000000000000
 10
104.3929775106489
 20
106.2005307988492
 30
0.000000000000000
 10
104.0054231575315
 20
106.2324691891990
 30
0.000000000000000
 10
103.6105687310557
 20
106.2617860943731
 30
0.000000000000000
 10
103.2089659389843
 20
106.2884662721684
 30
0.000000000000000
 10
102.8011958014491
 20
106.3124921306186
 30
0.000000000000000
 10
102.3878643100527
 20
106.3338451562685
 30
0.000000000000000
 10
101.9695987090159
 20
106.3525070011730
 30
0.000000000000000
 10
101.5470442355700
 20
106.3684603232201
 30
0.000000000000000
 10
101.1208611937801
 20
106.3816894121920
 30
0.000000000000000
 10
100.6917223039493
 20
106.3921807523947
 30
0.000000000000000
 10
100.2603101551847
 20
106.3999231462073
 30
0.000000000000000
 10
99.82731511802844
 20
106.4049089492140
 30
0.000000000000000
 10
99.49415577757385
 20
106.4066149276445
 30
0.000000000000000
 10
99.30541030575746
 20
106.4067992315459
 30
0.000000000000000
 10
99.26136902792793
 20
106.4067991930660
 30
0.000000000000000
  0
ELLIPSE
  5
21C
100
AcDbEntity
  8
A1
  6
CONTINUOUS
 62
7
100
AcDbEllipse
 10
63.26136902792793
 20
100.8641239711663
 30
0.000000000000000
 11
0.5000000000000000
 21
0.000000000000000
 31
0.000000000000000
210
0.000000000000000
220
0.000000000000000
230
1.000000000000000
 40
0.1500530345525542
 41
3.141592653589793
 42
4.712388980384690
  0
ELLIPSE
  5
21D
100
AcDbEntity
  8
A1
  6
CONTINUOUS
 62
7
100
AcDbEllipse
 10
63.26136902792793
 20
102.9473530328634
 30
0.000000000000000
 11
0.5000000000000000
 21
0.000000000000000
 31
0.000000000000000
210
0.000000000000000
220
0.000000000000000
230
1.000000000000000
 40
0.1500530345525542
 41
1.570796326794897
 42
3.141592653589793
  0
ELLIPSE
  5
21E
100
AcDbEntity
  8
A1
  6
CONTINUOUS
 62
7
100
AcDbEllipse
 10
63.26136902792793
 20
101.4643361093765
 30
0.000000000000000
 11
0.5000000000000000
 21
0.000000000000000
 31
0.000000000000000
210
0.000000000000000
220
0.000000000000000
230
1.000000000000000
 40
0.1500530345525542
 41
1.570796326794897
 42
3.141592653589793
  0
ELLIPSE
  5
21F
100
AcDbEntity
  8
A1
  6
CONTINUOUS
 62
7
100
AcDbEllipse
 10
92.26136902792793
 20
102.9473530328634
 30
0.000000000000000
 11
0.5000000000000000
 21
0.000000000000000
 31
0.000000000000000
210
0.000000000000000
220
0.000000000000000
230
1.000000000000000
 40
0.1500530345525542
 41
0.000000000000000
 42
1.570796326794897
  0
ELLIPSE
  5
220
100
AcDbEntity
  8
A1
  6
CONTINUOUS
 62
7
100
AcDbEllipse
 10
92.26136902792793
 20
101.4643361093765
 30
0.000000000000000
 11
0.5000000000000000
 21
0.000000000000000
 31
0.000000000000000
210
0.000000000000000
220
0.000000000000000
230
1.000000000000000
 40
0.1500530345525542
 41
0.000000000000000
 42
1.570796326794897
  0
ELLIPSE
  5
221
100
AcDbEntity
  8
A1
  6
CONTINUOUS
 62
7
100
AcDbEllipse
 10
92.26136902792793
 20
100.8641239711663
 30
0.000000000000000
 11
0.5000000000000000
 21
0.000000000000000
 31
0.000000000000000
210
0.000000000000000
220
0.000000000000000
230
1.000000000000000
 40
0.1500530345525542
 41
4.712388980384690
 42
0.000000000000000
  0
LINE
  5
222
100
AcDbEntity
  8
A1
  6
CONTINUOUS
 62
7
100
AcDbLine
 10
62.76136902792795
 20
101.3591546500276
 30
0.000000000000000
 11
62.76136902792795
 21
100.4057385020150
 31
0.000000000000000
  0
LINE
  5
223
100
AcDbEntity
  8
A1
  6
CONTINUOUS
 62
7
100
AcDbLine
 10
61.76136902791902
 20
100.4057385020150
 30
0.000000000000000
 11
62.76136902792795
 21
100.4057385020150
 31
0.000000000000000
  0
LINE
  5
224
100
AcDbEntity
  8
A1
  6
CONTINUOUS
 62
7
100
AcDbLine
 10
59.51136902791905
 20
100.4057385020150
 30
0.000000000000000
 11
59.76136902791902
 21
100.4057385020150
 31
0.000000000000000
  0
LINE
  5
225
100
AcDbEntity
  8
A1
  6
CONTINUOUS
 62
7
100
AcDbLine
 10
56.26136902792795
 20
100.4057385020150
 30
0.000000000000000
 11
57.51136902791908
 21
100.4057385020150
 31
0.000000000000000
  0
LINE
  5
226
100
AcDbEntity
  8
A1
  6
CONTINUOUS
 62
7
100
AcDbLine
 10
59.76136902791902
 20
103.4057385020150
 30
0.000000000000000
 11
59.51136902791908
 21
103.4057385020150
 31
0.000000000000000
  0
LINE
  5
227
100
AcDbEntity
  8
A1
  6
CONTINUOUS
 62
7
100
AcDbLine
 10
62.76136902792795
 20
103.4057385020150
 30
0.000000000000000
 11
61.76136902791902
 21
103.4057385020150
 31
0.000000000000000
  0
LINE
  5
228
100
AcDbEntity
  8
A1
  6
CONTINUOUS
 62
7
100
AcDbLine
 10
62.76136902792795
 20
103.4057385020150
 30
0.000000000000000
 11
62.76136902792795
 21
102.9473530328634
 31
0.000000000000000
  0
LINE
  5
229
100
AcDbEntity
  8
A1
  6
CONTINUOUS
 62
7
100
AcDbLine
 10
92.76136902792796
 20
102.9473530328634
 30
0.000000000000000
 11
92.76136902792796
 21
103.4057385020150
 31
0.000000000000000
  0
LINE
  5
22A
100
AcDbEntity
  8
A1
  6
CONTINUOUS
 62
7
100
AcDbLine
 10
98.01136902791906
 20
100.4057385020150
 30
0.000000000000000
 11
99.26136902792796
 21
100.4057385020150
 31
0.000000000000000
  0
LINE
  5
22B
100
AcDbEntity
  8
A1
  6
CONTINUOUS
 62
7
100
AcDbLine
 10
95.76136902791909
 20
100.4057385020150
 30
0.000000000000000
 11
96.01136902791903
 21
100.4057385020150
 31
0.000000000000000
  0
LINE
  5
22C
100
AcDbEntity
  8
A1
  6
CONTINUOUS
 62
7
100
AcDbLine
 10
92.76136902792796
 20
100.4057385020150
 30
0.000000000000000
 11
93.76136902791784
 21
100.4057385020150
 31
0.000000000000000
  0
LINE
  5
22D
100
AcDbEntity
  8
A1
  6
CONTINUOUS
 62
7
100
AcDbLine
 10
93.76136902791909
 20
103.4057385020150
 30
0.000000000000000
 11
92.76136902792796
 21
103.4057385020150
 31
0.000000000000000
  0
LINE
  5
22E
100
AcDbEntity
  8
A1
  6
CONTINUOUS
 62
7
100
AcDbLine
 10
96.01136902791906
 20
103.4057385020150
 30
0.000000000000000
 11
95.76136902791909
 21
103.4057385020150
 31
0.000000000000000
  0
LINE
  5
22F
100
AcDbEntity
  8
A1
  6
CONTINUOUS
 62
7
100
AcDbLine
 10
99.26136902792796
 20
103.4057385020150
 30
0.000000000000000
 11
98.01136902791906
 21
103.4057385020150
 31
0.000000000000000
  0
LINE
  5
230
100
AcDbEntity
  8
A1
  6
CONTINUOUS
 62
7
100
AcDbLine
 10
92.76136902792796
 20
100.4057385020150
 30
0.000000000000000
 11
92.76136902792796
 21
101.3591546500276
 31
0.000000000000000
  0
LINE
  5
231
100
AcDbEntity
  8
A1
  6
CONTINUOUS
 62
7
100
AcDbLine
 10
67.76136902792796
 20
101.5393626266528
 30
0.000000000000000
 11
67.76136902792796
 21
103.0223795501396
 31
0.000000000000000
  0
LINE
  5
232
100
AcDbEntity
  8
A1
  6
CONTINUOUS
 62
7
100
AcDbLine
 10
63.26136902792795
 20
103.0223795501396
 30
0.000000000000000
 11
67.76136902792796
 21
103.0223795501396
 31
0.000000000000000
  0
LINE
  5
233
100
AcDbEntity
  8
A1
  6
CONTINUOUS
 62
7
100
AcDbLine
 10
67.76136902792796
 20
101.5393626266528
 30
0.000000000000000
 11
67.76136902792796
 21
100.7890974538900
 31
0.000000000000000
  0
LINE
  5
234
100
AcDbEntity
  8
A1
  6
CONTINUOUS
 62
7
100
AcDbLine
 10
62.76136902792795
 20
101.3591546500276
 30
0.000000000000000
 11
62.76136902792795
 21
101.4643361093765
 31
0.000000000000000
  0
LINE
  5
235
100
AcDbEntity
  8
A1
  6
CONTINUOUS
 62
7
100
AcDbLine
 10
67.76136902792796
 20
100.7890974538900
 30
0.000000000000000
 11
63.26136902792795
 21
100.7890974538900
 31
0.000000000000000
  0
LINE
  5
236
100
AcDbEntity
  8
A1
  6
CONTINUOUS
 62
7
100
AcDbLine
 10
63.26136902792795
 20
101.5393626266528
 30
0.000000000000000
 11
67.76136902792796
 21
101.5393626266528
 31
0.000000000000000
  0
LINE
  5
237
100
AcDbEntity
  8
A1
  6
CONTINUOUS
 62
7
100
AcDbLine
 10
62.76136902792795
 20
101.4643361093765
 30
0.000000000000000
 11
62.76136902792795
 21
102.9473530328634
 31
0.000000000000000
  0
LINE
  5
238
100
AcDbEntity
  8
A1
  6
CONTINUOUS
 62
7
100
AcDbLine
 10
92.76136902792796
 20
102.9473530328634
 30
0.000000000000000
 11
92.76136902792796
 21
101.4643361093765
 31
0.000000000000000
  0
LINE
  5
239
100
AcDbEntity
  8
A1
  6
CONTINUOUS
 62
7
100
AcDbLine
 10
87.76136902792793
 20
100.7890974538900
 30
0.000000000000000
 11
87.76136902792793
 21
101.5393626266528
 31
0.000000000000000
  0
LINE
  5
23A
100
AcDbEntity
  8
A1
  6
CONTINUOUS
 62
7
100
AcDbLine
 10
92.26136902792796
 20
100.7890974538900
 30
0.000000000000000
 11
87.76136902792793
 21
100.7890974538900
 31
0.000000000000000
  0
LINE
  5
23B
100
AcDbEntity
  8
A1
  6
CONTINUOUS
 62
7
100
AcDbLine
 10
92.76136902792796
 20
101.4643361093765
 30
0.000000000000000
 11
92.76136902792796
 21
101.3591546500276
 31
0.000000000000000
  0
LINE
  5
23C
100
AcDbEntity
  8
A1
  6
CONTINUOUS
 62
7
100
AcDbLine
 10
87.76136902792793
 20
101.5393626266528
 30
0.000000000000000
 11
92.26136902792796
 21
101.5393626266528
 31
0.000000000000000
  0
LINE
  5
23D
100
AcDbEntity
  8
A1
  6
CONTINUOUS
 62
7
100
AcDbLine
 10
87.76136902792793
 20
103.0223795501396
 30
0.000000000000000
 11
92.26136902792796
 21
103.0223795501396
 31
0.000000000000000
  0
LINE
  5
23E
100
AcDbEntity
  8
A1
  6
CONTINUOUS
 62
7
100
AcDbLine
 10
87.76136902792793
 20
103.0223795501396
 30
0.000000000000000
 11
87.76136902792793
 21
101.5393626266528
 31
0.000000000000000
  0
LINE
  5
23F
100
AcDbEntity
  8
A1
  6
CONTINUOUS
 62
7
100
AcDbLine
 10
99.26136902792796
 20
106.4067991930660
 30
0.000000000000000
 11
56.26136902792795
 21
106.4067991930660
 31
0.000000000000000
  0
LINE
  5
240
100
AcDbEntity
  8
A1
  6
CONTINUOUS
 62
7
100
AcDbLine
 10
56.26136902792795
 20
103.4067991930660
 30
0.000000000000000
 11
99.26136902792796
 21
103.4067991930660
 31
0.000000000000000
  0
LINE
  5
241
100
AcDbEntity
  8
A1
  6
CONTINUOUS
 62
7
100
AcDbLine
 10
99.48583085418150
 20
103.4061252651672
 30
0.000000000000000
 11
99.26136902792794
 21
103.4057385020150
 31
0.000000000000000
  0
LINE
  5
242
100
AcDbEntity
  8
A1
  6
CONTINUOUS
 62
7
100
AcDbLine
 10
99.56139359184952
 20
103.4064295684624
 30
0.000000000000000
 11
99.48583085418151
 21
103.4061252651672
 31
0.000000000000000
  0
LINE
  5
243
100
AcDbEntity
  8
A4
  6
CENTER
 62
1
100
AcDbLine
 10
320.8621395330854
 20
170.7794585157035
 30
0.000000000000000
 11
320.8621395330854
 21
163.5794585157035
 31
0.000000000000000
  0
LINE
  5
244
100
AcDbEntity
  8
A4
  6
CENTER
 62
1
100
AcDbLine
 10
306.8621395330854
 20
170.7794585157035
 30
0.000000000000000
 11
306.8621395330854
 21
163.5794585157035
 31
0.000000000000000
  0
LINE
  5
245
100
AcDbEntity
  8
A4
  6
CENTER
 62
1
100
AcDbLine
 10
104.0113690279191
 20
227.6794584352628
 30
0.000000000000000
 11
54.01136902791892
 21
227.6794584352628
 31
0.000000000000000
  0
LINE
  5
246
100
AcDbEntity
  8
A4
  6
CENTER
 62
1
100
AcDbLine
 10
194.7264418613514
 20
176.1794584353001
 30
0.000000000000000
 11
188.7264418613514
 21
176.1794584353001
 31
0.000000000000000
  0
LINE
  5
247
100
AcDbEntity
  8
A4
  6
CENTER
 62
1
100
AcDbLine
 10
191.7264418613514
 20
179.1794584353001
 30
0.000000000000000
 11
191.7264418613514
 21
173.1794584353001
 31
0.000000000000000
  0
LINE
  5
248
100
AcDbEntity
  8
A4
  6
CENTER
 62
1
100
AcDbLine
 10
191.7253811703003
 20
156.4058994554748
 30
0.000000000000000
 11
185.7253811703003
 21
156.4058994554748
 31
0.000000000000000
  0
LINE
  5
249
100
AcDbEntity
  8
A4
  6
CENTER
 62
1
100
AcDbLine
 10
188.7253811703003
 20
159.4058994554748
 30
0.000000000000000
 11
188.7253811703003
 21
153.4058994554748
 31
0.000000000000000
  0
LINE
  5
24A
100
AcDbEntity
  8
A4
  6
CENTER
 62
1
100
AcDbLine
 10
54.76136902792795
 20
104.9067991930660
 30
0.000000000000000
 11
100.7613690279280
 21
104.9067991930660
 31
0.000000000000000
  0
LINE
  5
24B
100
AcDbEntity
  8
A4
  6
CENTER
 62
1
100
AcDbLine
 10
77.76136902791905
 20
114.4057385020149
 30
0.000000000000000
 11
77.76136902791906
 21
73.61573850201493
 31
0.000000000000000
  0
LINE
  5
24C
100
AcDbEntity
  8
A4
  6
CENTER
 62
1
100
AcDbLine
 10
77.76136902791907
 20
220.1794584352626
 30
0.000000000000000
 11
77.76136902791907
 21
260.9694584352627
 31
0.000000000000000
  0
LINE
  5
24D
100
AcDbEntity
  8
A4
  6
CENTER
 62
1
100
AcDbLine
 10
313.8621395330657
 20
153.4058995358781
 30
0.000000000000000
 11
313.8621395330657
 21
193.1794585157018
 31
0.000000000000000
  0
LINE
  5
24E
100
AcDbEntity
  8
A4
  6
CENTER
 62
1
100
AcDbLine
 10
77.76136902791906
 20
153.4058994554763
 30
0.000000000000000
 11
77.76136902791906
 21
193.1794584353000
 31
0.000000000000000
  0
LINE
  5
24F
100
AcDbEntity
  8
A4
  6
CENTER
 62
1
100
AcDbLine
 10
290.8621395330567
 20
156.4058995358781
 30
0.000000000000000
 11
336.8621395330567
 21
156.4058995358781
 31
0.000000000000000
  0
LINE
  5
250
100
AcDbEntity
  8
A4
  6
CENTER
 62
1
100
AcDbLine
 10
54.76136902792801
 20
156.4058994554763
 30
0.000000000000000
 11
100.7613690279280
 21
156.4058994554763
 31
0.000000000000000
  0
LINE
  5
251
100
AcDbEntity
  8
A4
  6
CENTER
 62
1
100
AcDbLine
 10
84.76136902793876
 20
170.7794584353018
 30
0.000000000000000
 11
84.76136902793876
 21
163.5794584353018
 31
0.000000000000000
  0
LINE
  5
252
100
AcDbEntity
  8
A4
  6
CENTER
 62
1
100
AcDbLine
 10
70.76136902793876
 20
170.7794584353018
 30
0.000000000000000
 11
70.76136902793876
 21
163.5794584353018
 31
0.000000000000000
  0
LINE
  5
253
100
AcDbEntity
  8
A4
  6
CENTER
 62
1
100
AcDbLine
 10
200.2264418613514
 20
167.1794584353002
 30
0.000000000000000
 11
195.2264418613515
 21
167.1794584353002
 31
0.000000000000000
  0
LINE
  5
254
100
AcDbEntity
  8
A4
  6
CENTER
 62
1
100
AcDbLine
 10
84.76136902791909
 20
93.40573850201537
 30
0.000000000000000
 11
84.76136902791909
 21
98.40573850201525
 31
0.000000000000000
  0
LINE
  5
255
100
AcDbEntity
  8
A4
  6
CENTER
 62
1
100
AcDbLine
 10
70.76136902791906
 20
93.40573850201537
 30
0.000000000000000
 11
70.76136902791906
 21
98.40573850201525
 31
0.000000000000000
  0
LINE
  5
256
100
AcDbEntity
  8
A4
  6
CENTER
 62
1
100
AcDbLine
 10
70.76136902791907
 20
239.1805191263134
 30
0.000000000000000
 11
70.76136902791907
 21
234.1805191263135
 31
0.000000000000000
  0
LINE
  5
257
100
AcDbEntity
  8
A4
  6
CENTER
 62
1
100
AcDbLine
 10
84.76136902791907
 20
239.1805191263134
 30
0.000000000000000
 11
84.76136902791907
 21
234.1805191263135
 31
0.000000000000000
  0
LINE
  5
258
100
AcDbEntity
  8
A4
  6
CENTER
 62
1
100
AcDbLine
 10
54.76136902792801
 20
176.1794584353014
 30
0.000000000000000
 11
100.7613690279280
 21
176.1794584353014
 31
0.000000000000000
  0
LINE
  5
259
100
AcDbEntity
  8
A4
  6
CENTER
 62
1
100
AcDbLine
 10
290.8621395330567
 20
176.1794585157031
 30
0.000000000000000
 11
336.8621395330567
 21
176.1794585157031
 31
0.000000000000000
  0
ARC
  5
25A
100
AcDbEntity
  8
A1
  6
CONTINUOUS
 62
7
100
AcDbCircle
 10
238.8970667088357
 20
146.9057385020149
 30
0.000000000000000
 40
2.000000000000000
100
AcDbArc
 50
182.9683431215123
 51
270.0000000000000
  0
ARC
  5
25B
100
AcDbEntity
  8
A1
  6
CONTINUOUS
 62
7
100
AcDbCircle
 10
232.8970667088358
 20
156.4057385020149
 30
0.000000000000000
 40
3.499999999999999
100
AcDbArc
 50
2.968343121512934
 51
160.1040902502241
  0
ARC
  5
25C
100
AcDbEntity
  8
A1
  6
CONTINUOUS
 62
7
100
AcDbCircle
 10
232.8970667088358
 20
156.4057385020149
 30
0.000000000000000
 40
1.499999999999998
100
AcDbArc
 50
2.968343121514832
 51
160.1040902502288
  0
ARC
  5
25D
100
AcDbEntity
  8
A1
  6
CONTINUOUS
 62
7
100
AcDbCircle
 10
238.8970667088357
 20
146.9057385020149
 30
0.000000000000000
 40
3.999999999999943
100
AcDbArc
 50
182.9683431215158
 51
270.0000000000000
  0
LINE
  5
25E
100
AcDbEntity
  8
A1
  6
CONTINUOUS
 62
7
100
AcDbLine
 10
230.3970667088358
 20
153.9057385020150
 30
0.000000000000000
 11
230.7373791325791
 21
154.8460509257583
 31
0.000000000000000
  0
LINE
  5
25F
100
AcDbEntity
  8
A1
  6
CONTINUOUS
 62
7
100
AcDbLine
 10
228.5164418613517
 20
154.5863633495083
 30
0.000000000000000
 11
228.8567542850942
 21
155.5266757732495
 31
0.000000000000000
  0
LINE
  5
260
100
AcDbEntity
  8
A1
  6
CONTINUOUS
 62
7
100
AcDbLine
 10
228.5164418612788
 20
154.5863633495293
 30
0.000000000000000
 11
230.3970667088359
 21
153.9057385020150
 31
0.000000000000000
  0
LINE
  5
261
100
AcDbEntity
  8
A1
  6
CONTINUOUS
 62
7
100
AcDbLine
 10
250.8970667088357
 20
142.9057385020149
 30
0.000000000000000
 11
249.8970667088357
 21
142.9057385020149
 31
0.000000000000000
  0
LINE
  5
262
100
AcDbEntity
  8
A1
  6
CONTINUOUS
 62
7
100
AcDbLine
 10
249.8970667088357
 20
144.9057385020149
 30
0.000000000000000
 11
250.8970667088357
 21
144.9057385020149
 31
0.000000000000000
  0
LINE
  5
263
100
AcDbEntity
  8
A1
  6
CONTINUOUS
 62
7
100
AcDbLine
 10
250.8970667088356
 20
144.9057385020149
 30
0.000000000000000
 11
250.8970667088357
 21
142.9057385020149
 31
0.000000000000000
  0
LINE
  5
264
100
AcDbEntity
  8
A1
  6
CONTINUOUS
 62
7
100
AcDbLine
 10
238.8970667088357
 20
142.9057385020149
 30
0.000000000000000
 11
249.8970667088357
 21
142.9057385020149
 31
0.000000000000000
  0
LINE
  5
265
100
AcDbEntity
  8
A1
  6
CONTINUOUS
 62
7
100
AcDbLine
 10
249.8970667088357
 20
144.9057385020149
 30
0.000000000000000
 11
238.8970667088357
 21
144.9057385020149
 31
0.000000000000000
  0
LINE
  5
266
100
AcDbEntity
  8
A1
  6
CONTINUOUS
 62
7
100
AcDbLine
 10
236.8997501111999
 20
146.8021701245608
 30
0.000000000000000
 11
236.3923707546985
 21
156.5869831625598
 31
0.000000000000000
  0
LINE
  5
267
100
AcDbEntity
  8
A1
  6
CONTINUOUS
 62
7
100
AcDbLine
 10
229.6059732257343
 20
157.5968319851162
 30
0.000000000000000
 11
228.8567542850097
 21
155.5266757732800
 31
0.000000000000000
  0
LINE
  5
268
100
AcDbEntity
  8
A1
  6
CONTINUOUS
 62
7
100
AcDbLine
 10
230.7373791325792
 20
154.8460509257583
 30
0.000000000000000
 11
231.4865980732207
 21
156.9162071376297
 31
0.000000000000000
  0
LINE
  5
269
100
AcDbEntity
  8
A1
  6
CONTINUOUS
 62
7
100
AcDbLine
 10
234.3950541570627
 20
156.4834147851057
 30
0.000000000000000
 11
234.9024335135644
 21
146.6986017471064
 31
0.000000000000000
  0
LINE
  5
26A
100
AcDbEntity
  8
A4
  6
CENTER
 62
1
100
AcDbLine
 10
243.8970667088357
 20
146.4057385020149
 30
0.000000000000000
 11
243.8970667088357
 21
141.4057385020149
 31
0.000000000000000
  0
LINE
  5
26B
100
AcDbEntity
  8
A1
  6
CONTINUOUS
 62
7
100
AcDbLine
 10
386.8272123658972
 20
159.9057385020149
 30
0.000000000000000
 11
356.8272123658972
 21
159.9057385020149
 31
0.000000000000000
  0
LINE
  5
26C
100
AcDbEntity
  8
A1
  6
CONTINUOUS
 62
7
100
AcDbLine
 10
386.8272123658972
 20
159.9057385020149
 30
0.000000000000000
 11
386.8272123658972
 21
156.5869831625598
 31
0.000000000000000
  0
LINE
  5
26D
100
AcDbEntity
  8
A1
  6
CONTINUOUS
 62
7
100
AcDbLine
 10
356.8272123658972
 20
159.9057385020149
 30
0.000000000000000
 11
356.8272123658972
 21
156.5869831625598
 31
0.000000000000000
  0
LINE
  5
26E
100
AcDbEntity
  8
A1
  6
CONTINUOUS
 62
7
100
AcDbLine
 10
386.8272123658972
 20
146.8021701245607
 30
0.000000000000000
 11
386.8272123658972
 21
156.5869831625598
 31
0.000000000000000
  0
LINE
  5
26F
100
AcDbEntity
  8
A1
  6
CONTINUOUS
 62
7
100
AcDbLine
 10
356.8272123658972
 20
146.8021701245607
 30
0.000000000000000
 11
356.8272123658972
 21
156.5869831625598
 31
0.000000000000000
  0
LINE
  5
270
100
AcDbEntity
  8
A1
  6
CONTINUOUS
 62
7
100
AcDbLine
 10
386.8272123658972
 20
146.8021701245607
 30
0.000000000000000
 11
386.8272123658972
 21
144.9057385020149
 31
0.000000000000000
  0
LINE
  5
271
100
AcDbEntity
  8
A1
  6
CONTINUOUS
 62
7
100
AcDbLine
 10
356.8272123658972
 20
146.8021701245607
 30
0.000000000000000
 11
356.8272123658972
 21
144.9057385020149
 31
0.000000000000000
  0
LINE
  5
272
100
AcDbEntity
  8
A1
  6
CONTINUOUS
 62
7
100
AcDbLine
 10
357.8272123658972
 20
142.9057385020149
 30
0.000000000000000
 11
356.8272123658972
 21
142.9057385020149
 31
0.000000000000000
  0
LINE
  5
273
100
AcDbEntity
  8
A1
  6
CONTINUOUS
 62
7
100
AcDbLine
 10
356.8272123658972
 20
144.9057385020149
 30
0.000000000000000
 11
357.8272123658972
 21
144.9057385020149
 31
0.000000000000000
  0
LINE
  5
274
100
AcDbEntity
  8
A1
  6
CONTINUOUS
 62
7
100
AcDbLine
 10
356.8272123658972
 20
142.9057385020149
 30
0.000000000000000
 11
356.8272123658972
 21
144.9057385020149
 31
0.000000000000000
  0
LINE
  5
275
100
AcDbEntity
  8
A1
  6
CONTINUOUS
 62
7
100
AcDbLine
 10
386.8272123658972
 20
142.9057385020149
 30
0.000000000000000
 11
385.8272123658972
 21
142.9057385020149
 31
0.000000000000000
  0
LINE
  5
276
100
AcDbEntity
  8
A1
  6
CONTINUOUS
 62
7
100
AcDbLine
 10
386.8272123658972
 20
144.9057385020149
 30
0.000000000000000
 11
386.8272123658972
 21
142.9057385020149
 31
0.000000000000000
  0
LINE
  5
277
100
AcDbEntity
  8
A1
  6
CONTINUOUS
 62
7
100
AcDbLine
 10
385.8272123658972
 20
144.9057385020149
 30
0.000000000000000
 11
386.8272123658972
 21
144.9057385020149
 31
0.000000000000000
  0
LINE
  5
278
100
AcDbEntity
  8
A1
  6
CONTINUOUS
 62
7
100
AcDbLine
 10
357.8272123658972
 20
144.9057385020149
 30
0.000000000000000
 11
385.8272123658972
 21
144.9057385020149
 31
0.000000000000000
  0
LINE
  5
279
100
AcDbEntity
  8
A1
  6
CONTINUOUS
 62
7
100
AcDbLine
 10
357.8272123658972
 20
142.9057385020149
 30
0.000000000000000
 11
385.8272123658972
 21
142.9057385020149
 31
0.000000000000000
  0
LINE
  5
27A
100
AcDbEntity
  8
A4
  6
CENTER
 62
1
100
AcDbLine
 10
371.8272123658972
 20
141.4057385020149
 30
0.000000000000000
 11
371.8272123658972
 21
161.4057385020149
 31
0.000000000000000
  0
LINE
  5
27B
100
AcDbEntity
  8
A4
  6
CENTER
 62
1
100
AcDbLine
 10
361.8272123658972
 20
146.4057385020149
 30
0.000000000000000
 11
361.8272123658972
 21
141.4057385020149
 31
0.000000000000000
  0
LINE
  5
27C
100
AcDbEntity
  8
A4
  6
CENTER
 62
1
100
AcDbLine
 10
381.8272123658971
 20
146.4057385020149
 30
0.000000000000000
 11
381.8272123658971
 21
141.4057385020149
 31
0.000000000000000
  0
LINE
  5
27D
100
AcDbEntity
  8
A4
  6
CENTER
 62
1
100
AcDbLine
 10
287.6121395330656
 20
167.1794585157033
 30
0.000000000000000
 11
337.6121395330658
 21
167.1794585157033
 31
0.000000000000000
  0
ELLIPSE
  5
27E
100
AcDbEntity
  8
A1
  6
CONTINUOUS
 62
7
100
AcDbEllipse
 10
121.7264418613513
 20
154.8460509257581
 30
0.000000000000000
 11
1.000000000000000
 21
0.000000000000000
 31
0.000000000000000
210
0.000000000000000
220
0.000000000000000
230
1.000000000000000
 40
0.9403124237433026
 41
3.141592653589793
 42
4.712388980384690
  0
ELLIPSE
  5
27F
100
AcDbEntity
  8
A1
  6
CONTINUOUS
 62
7
100
AcDbEllipse
 10
121.7264418613513
 20
155.5266757732517
 30
0.000000000000000
 11
1.000000000000000
 21
0.000000000000000
 31
0.000000000000000
210
0.000000000000000
220
0.000000000000000
230
1.000000000000000
 40
0.9403124237433016
 41
3.141592653589793
 42
4.712388980384690
  0
ELLIPSE
  5
280
100
AcDbEntity
  8
A1
  6
CONTINUOUS
 62
7
100
AcDbEllipse
 10
149.7264418613512
 20
154.8460509257583
 30
0.000000000000000
 11
1.000000000000000
 21
0.000000000000000
 31
0.000000000000000
210
0.000000000000000
220
0.000000000000000
230
1.000000000000000
 40
0.9403124237433026
 41
4.712388980384690
 42
0.000000000000000
  0
ELLIPSE
  5
281
100
AcDbEntity
  8
A1
  6
CONTINUOUS
 62
7
100
AcDbEllipse
 10
149.7264418613512
 20
155.5266757732517
 30
0.000000000000000
 11
1.000000000000000
 21
0.000000000000000
 31
0.000000000000000
210
0.000000000000000
220
0.000000000000000
230
1.000000000000000
 40
0.9403124237433016
 41
4.712388980384690
 42
0.000000000000000
  0
LINE
  5
282
100
AcDbEntity
  8
A1
  6
CONTINUOUS
 62
7
100
AcDbLine
 10
150.7264418613514
 20
142.9057385020150
 30
0.000000000000000
 11
150.7264418613514
 21
146.6986017471064
 31
0.000000000000000
  0
LINE
  5
283
100
AcDbEntity
  8
A1
  6
CONTINUOUS
 62
7
100
AcDbLine
 10
120.7264418613513
 20
142.9057385020150
 30
0.000000000000000
 11
120.7264418613513
 21
146.6986017471064
 31
0.000000000000000
  0
LINE
  5
284
100
AcDbEntity
  8
A1
  6
CONTINUOUS
 62
7
100
AcDbLine
 10
150.7264418613513
 20
142.9057385020149
 30
0.000000000000000
 11
120.7264418613513
 21
142.9057385020149
 31
0.000000000000000
  0
LINE
  5
285
100
AcDbEntity
  8
A1
  6
CONTINUOUS
 62
7
100
AcDbLine
 10
150.7264418613514
 20
154.8460509257583
 30
0.000000000000000
 11
150.7264418613514
 21
146.6986017471064
 31
0.000000000000000
  0
LINE
  5
286
100
AcDbEntity
  8
A1
  6
CONTINUOUS
 62
7
100
AcDbLine
 10
120.7264418613513
 20
154.8460509257581
 30
0.000000000000000
 11
120.7264418613513
 21
146.6986017471064
 31
0.000000000000000
  0
LINE
  5
287
100
AcDbEntity
  8
A1
  6
CONTINUOUS
 62
7
100
AcDbLine
 10
150.7264418613514
 20
157.5968319851163
 30
0.000000000000000
 11
150.7264418613514
 21
159.9057385020150
 31
0.000000000000000
  0
LINE
  5
288
100
AcDbEntity
  8
A1
  6
CONTINUOUS
 62
7
100
AcDbLine
 10
120.7264418613513
 20
157.5968319851163
 30
0.000000000000000
 11
120.7264418613513
 21
159.9057385020150
 31
0.000000000000000
  0
LINE
  5
289
100
AcDbEntity
  8
A1
  6
CONTINUOUS
 62
7
100
AcDbLine
 10
150.7264418613513
 20
159.9057385020149
 30
0.000000000000000
 11
120.7264418613513
 21
159.9057385020149
 31
0.000000000000000
  0
LINE
  5
28A
100
AcDbEntity
  8
A1
  6
CONTINUOUS
 62
7
100
AcDbLine
 10
120.7264418613513
 20
155.5266757732562
 30
0.000000000000000
 11
120.7264418613511
 21
154.8460509257581
 31
0.000000000000000
  0
LINE
  5
28B
100
AcDbEntity
  8
A1
  6
CONTINUOUS
 62
7
100
AcDbLine
 10
149.7264418613513
 20
153.9057385020150
 30
0.000000000000000
 11
121.7264418613513
 21
153.9057385020148
 31
0.000000000000000
  0
LINE
  5
28C
100
AcDbEntity
  8
A1
  6
CONTINUOUS
 62
7
100
AcDbLine
 10
149.7264418613513
 20
154.5863633495293
 30
0.000000000000000
 11
121.7264418613513
 21
154.5863633495009
 31
0.000000000000000
  0
LINE
  5
28D
100
AcDbEntity
  8
A1
  6
CONTINUOUS
 62
7
100
AcDbLine
 10
150.7264418613514
 20
157.5968319851163
 30
0.000000000000000
 11
150.7264418613514
 21
155.5266757732801
 31
0.000000000000000
  0
LINE
  5
28E
100
AcDbEntity
  8
A1
  6
CONTINUOUS
 62
7
100
AcDbLine
 10
120.7264418613513
 20
157.5968319851163
 30
0.000000000000000
 11
120.7264418613513
 21
155.5266757732562
 31
0.000000000000000
  0
LINE
  5
28F
100
AcDbEntity
  8
A1
  6
CONTINUOUS
 62
7
100
AcDbLine
 10
150.7264418613514
 20
155.5266757732801
 30
0.000000000000000
 11
150.7264418613514
 21
154.8460509257583
 31
0.000000000000000
  0
LINE
  5
290
100
AcDbEntity
  8
A4
  6
CENTER
 62
1
100
AcDbLine
 10
135.7264418613514
 20
141.4057385020149
 30
0.000000000000000
 11
135.7264418613514
 21
161.4057385020149
 31
0.000000000000000
  0
LINE
  5
291
100
AcDbEntity
  8
A4
  6
CENTER
 62
1
100
AcDbLine
 10
125.7264418613514
 20
146.4057385020150
 30
0.000000000000000
 11
125.7264418613514
 21
141.4057385020150
 31
0.000000000000000
  0
LINE
  5
292
100
AcDbEntity
  8
A4
  6
CENTER
 62
1
100
AcDbLine
 10
145.7264418613514
 20
146.4057385020150
 30
0.000000000000000
 11
145.7264418613514
 21
141.4057385020150
 31
0.000000000000000
  0
CIRCLE
  5
293
100
AcDbEntity
  8
A1
  6
CONTINUOUS
 62
7
100
AcDbCircle
 10
145.7264418614475
 20
93.90573850198399
 30
0.000000000000000
 40
2.100000000000000
  0
CIRCLE
  5
294
100
AcDbEntity
  8
A1
  6
CONTINUOUS
 62
7
100
AcDbCircle
 10
125.7264418614475
 20
93.90573850198399
 30
0.000000000000000
 40
2.100000000000000
  0
ELLIPSE
  5
295
100
AcDbEntity
  8
A1
  6
CONTINUOUS
 62
7
100
AcDbEllipse
 10
149.7264418614474
 20
108.9460509257248
 30
0.000000000000000
 11
1.000000000000000
 21
0.000000000000000
 31
0.000000000000000
210
0.000000000000000
220
0.000000000000000
230
1.000000000000000
 40
0.3403124237432388
 41
0.000000000000000
 42
1.570796326794897
  0
ELLIPSE
  5
296
100
AcDbEntity
  8
A1
  6
CONTINUOUS
 62
7
100
AcDbEllipse
 10
121.7264418614474
 20
108.9460509257248
 30
0.000000000000000
 11
1.000000000000000
 21
0.000000000000000
 31
0.000000000000000
210
0.000000000000000
220
0.000000000000000
230
1.000000000000000
 40
0.3403124237432388
 41
1.570796326794897
 42
3.141592653589793
  0
ELLIPSE
  5
297
100
AcDbEntity
  8
A1
  6
CONTINUOUS
 62
7
100
AcDbEllipse
 10
149.7264418614474
 20
107.0654260782406
 30
0.000000000000000
 11
1.000000000000000
 21
0.000000000000000
 31
0.000000000000000
210
0.000000000000000
220
0.000000000000000
230
1.000000000000000
 40
0.3403124237432359
 41
0.000000000000000
 42
1.570796326794897
  0
ELLIPSE
  5
298
100
AcDbEntity
  8
A1
  6
CONTINUOUS
 62
7
100
AcDbEllipse
 10
121.7264418614474
 20
107.0654260782406
 30
0.000000000000000
 11
1.000000000000000
 21
0.000000000000000
 31
0.000000000000000
210
0.000000000000000
220
0.000000000000000
230
1.000000000000000
 40
0.3403124237432359
 41
1.570796326794897
 42
3.141592653589793
  0
ARC
  5
299
100
AcDbEntity
  8
A1
  6
CONTINUOUS
 62
7
100
AcDbCircle
 10
149.7264418614475
 20
87.90573850198399
 30
0.000000000000000
 40
1.000000000000000
100
AcDbArc
 50
270.0000000000008
 51
360.0000000000000
  0
ARC
  5
29A
100
AcDbEntity
  8
A1
  6
CONTINUOUS
 62
7
100
AcDbCircle
 10
121.7264418614475
 20
87.90573850198399
 30
0.000000000000000
 40
1.000000000000000
100
AcDbArc
 50
180.0000000000000
 51
270.0000000000000
  0
LINE
  5
29B
100
AcDbEntity
  8
A1
  6
CONTINUOUS
 62
7
100
AcDbLine
 10
150.7264418614475
 20
103.4077510537571
 30
0.000000000000000
 11
150.7264418614475
 21
106.3162071375990
 31
0.000000000000000
  0
LINE
  5
29C
100
AcDbEntity
  8
A1
  6
CONTINUOUS
 62
7
100
AcDbLine
 10
120.7264418614475
 20
103.4077510537571
 30
0.000000000000000
 11
120.7264418614475
 21
106.3162071375990
 31
0.000000000000000
  0
LINE
  5
29D
100
AcDbEntity
  8
A1
  6
CONTINUOUS
 62
7
100
AcDbLine
 10
150.7264418614475
 20
108.9460509258101
 30
0.000000000000000
 11
150.7264418614475
 21
107.0654260782406
 31
0.000000000000000
  0
LINE
  5
29E
100
AcDbEntity
  8
A1
  6
CONTINUOUS
 62
7
100
AcDbLine
 10
149.7264418614475
 20
109.2863633495410
 30
0.000000000000000
 11
149.7264418614475
 21
107.4057385019839
 31
0.000000000000000
  0
LINE
  5
29F
100
AcDbEntity
  8
A1
  6
CONTINUOUS
 62
7
100
AcDbLine
 10
149.7264418614475
 20
109.2863633495409
 30
0.000000000000000
 11
121.7264418614475
 21
109.2863633494556
 31
0.000000000000000
  0
LINE
  5
2A0
100
AcDbEntity
  8
A1
  6
CONTINUOUS
 62
7
100
AcDbLine
 10
120.7264418614475
 20
108.9460509257540
 30
0.000000000000000
 11
120.7264418614474
 21
107.0654260782406
 31
0.000000000000000
  0
LINE
  5
2A1
100
AcDbEntity
  8
A1
  6
CONTINUOUS
 62
7
100
AcDbLine
 10
121.7264418614474
 20
109.2863633494556
 30
0.000000000000000
 11
121.7264418614474
 21
107.4057385019840
 31
0.000000000000000
  0
LINE
  5
2A2
100
AcDbEntity
  8
A1
  6
CONTINUOUS
 62
7
100
AcDbLine
 10
150.7264418614475
 20
107.0654260782407
 30
0.000000000000000
 11
150.7264418614475
 21
106.3162071375990
 31
0.000000000000000
  0
LINE
  5
2A3
100
AcDbEntity
  8
A1
  6
CONTINUOUS
 62
7
100
AcDbLine
 10
120.7264418614474
 20
107.0654260782406
 30
0.000000000000000
 11
120.7264418614475
 21
106.3162071375991
 31
0.000000000000000
  0
LINE
  5
2A4
100
AcDbEntity
  8
A1
  6
CONTINUOUS
 62
7
100
AcDbLine
 10
149.7264418614474
 20
107.4057385019839
 30
0.000000000000000
 11
121.7264418614475
 21
107.4057385019840
 31
0.000000000000000
  0
LINE
  5
2A5
100
AcDbEntity
  8
A1
  6
CONTINUOUS
 62
7
100
AcDbLine
 10
150.7264418614475
 20
106.3162071375991
 30
0.000000000000000
 11
120.7264418614475
 21
106.3162071375991
 31
0.000000000000000
  0
LINE
  5
2A6
100
AcDbEntity
  8
A1
  6
CONTINUOUS
 62
7
100
AcDbLine
 10
150.7264418614475
 20
103.4077510537571
 30
0.000000000000000
 11
150.7264418614475
 21
102.9003716972554
 31
0.000000000000000
  0
LINE
  5
2A7
100
AcDbEntity
  8
A1
  6
CONTINUOUS
 62
7
100
AcDbLine
 10
120.7264418614475
 20
103.4077510537571
 30
0.000000000000000
 11
120.7264418614475
 21
102.9003716972553
 31
0.000000000000000
  0
LINE
  5
2A8
100
AcDbEntity
  8
A1
  6
CONTINUOUS
 62
7
100
AcDbLine
 10
150.7264418614475
 20
103.4077510537571
 30
0.000000000000000
 11
120.7264418614475
 21
103.4077510537571
 31
0.000000000000000
  0
LINE
  5
2A9
100
AcDbEntity
  8
A1
  6
CONTINUOUS
 62
7
100
AcDbLine
 10
150.7264418614475
 20
98.90573850198400
 30
0.000000000000000
 11
150.7264418614475
 21
102.9003716972556
 31
0.000000000000000
  0
LINE
  5
2AA
100
AcDbEntity
  8
A1
  6
CONTINUOUS
 62
7
100
AcDbLine
 10
120.7264418614475
 20
98.90573850198400
 30
0.000000000000000
 11
120.7264418614475
 21
102.9003716972556
 31
0.000000000000000
  0
LINE
  5
2AB
100
AcDbEntity
  8
A1
  6
CONTINUOUS
 62
7
100
AcDbLine
 10
150.7264418614475
 20
102.9003716972554
 30
0.000000000000000
 11
120.7264418614475
 21
102.9003716972552
 31
0.000000000000000
  0
LINE
  5
2AC
100
AcDbEntity
  8
A1
  6
CONTINUOUS
 62
7
100
AcDbLine
 10
149.7264418614475
 20
86.90573850198389
 30
0.000000000000000
 11
121.7264418614475
 21
86.90573850198389
 31
0.000000000000000
  0
LINE
  5
2AD
100
AcDbEntity
  8
A1
  6
CONTINUOUS
 62
7
100
AcDbLine
 10
150.7264418614475
 20
98.90573850198399
 30
0.000000000000000
 11
150.7264418614475
 21
87.90573850198399
 31
0.000000000000000
  0
LINE
  5
2AE
100
AcDbEntity
  8
A1
  6
CONTINUOUS
 62
7
100
AcDbLine
 10
150.7264418614475
 20
98.90573850198400
 30
0.000000000000000
 11
120.7264418614475
 21
98.90573850198400
 31
0.000000000000000
  0
LINE
  5
2AF
100
AcDbEntity
  8
A1
  6
CONTINUOUS
 62
7
100
AcDbLine
 10
120.7264418614475
 20
98.90573850198399
 30
0.000000000000000
 11
120.7264418614475
 21
87.90573850198399
 31
0.000000000000000
  0
LINE
  5
2B0
100
AcDbEntity
  8
A4
  6
CENTER
 62
1
100
AcDbLine
 10
145.7264418614475
 20
90.30573850198398
 30
0.000000000000000
 11
145.7264418614475
 21
97.50573850198403
 31
0.000000000000000
  0
LINE
  5
2B1
100
AcDbEntity
  8
A4
  6
CENTER
 62
1
100
AcDbLine
 10
149.3264418614474
 20
93.90573850198400
 30
0.000000000000000
 11
142.1264418614475
 21
93.90573850198400
 31
0.000000000000000
  0
LINE
  5
2B2
100
AcDbEntity
  8
A4
  6
CENTER
 62
1
100
AcDbLine
 10
125.7264418614475
 20
90.30573850198398
 30
0.000000000000000
 11
125.7264418614475
 21
97.50573850198403
 31
0.000000000000000
  0
LINE
  5
2B3
100
AcDbEntity
  8
A4
  6
CENTER
 62
1
100
AcDbLine
 10
129.3264418614475
 20
93.90573850198400
 30
0.000000000000000
 11
122.1264418614475
 21
93.90573850198400
 31
0.000000000000000
  0
LINE
  5
2B4
100
AcDbEntity
  8
A4
  6
CENTER
 62
1
100
AcDbLine
 10
135.7264418614475
 20
110.7863633494982
 30
0.000000000000000
 11
135.7264418614475
 21
85.40573850198389
 31
0.000000000000000
  0
CIRCLE
  5
2B5
100
AcDbEntity
  8
A1
  6
CONTINUOUS
 62
7
100
AcDbCircle
 10
125.7264418613514
 20
240.6794584352626
 30
0.000000000000000
 40
2.100000000000000
  0
CIRCLE
  5
2B6
100
AcDbEntity
  8
A1
  6
CONTINUOUS
 62
7
100
AcDbCircle
 10
145.7264418613514
 20
240.6794584352626
 30
0.000000000000000
 40
2.100000000000000
  0
ELLIPSE
  5
2B7
100
AcDbEntity
  8
A1
  6
CONTINUOUS
 62
7
100
AcDbEllipse
 10
149.7264418613514
 20
225.6391460115218
 30
0.000000000000000
 11
-1.000000000000000
 21
0.000000000000000
 31
0.000000000000000
210
0.000000000000000
220
0.000000000000000
230
1.000000000000000
 40
0.3403124237432388
 41
1.570796326794897
 42
3.141592653589793
  0
ELLIPSE
  5
2B8
100
AcDbEntity
  8
A1
  6
CONTINUOUS
 62
7
100
AcDbEllipse
 10
121.7264418613513
 20
225.6391460115218
 30
0.000000000000000
 11
-1.000000000000000
 21
0.000000000000000
 31
0.000000000000000
210
0.000000000000000
220
0.000000000000000
230
1.000000000000000
 40
0.3403124237432388
 41
0.000000000000000
 42
1.570796326794897
  0
ARC
  5
2B9
100
AcDbEntity
  8
A1
  6
CONTINUOUS
 62
7
100
AcDbCircle
 10
149.7264418613514
 20
246.6794584352626
 30
0.000000000000000
 40
1.000000000000000
100
AcDbArc
 50
2.544443745170813e-13
 51
89.99999999999930
  0
ARC
  5
2BA
100
AcDbEntity
  8
A1
  6
CONTINUOUS
 62
7
100
AcDbCircle
 10
121.7264418613513
 20
246.6794584352626
 30
0.000000000000000
 40
1.000000000000000
100
AcDbArc
 50
90.00000000000000
 51
180.0000000000002
  0
LINE
  5
2BB
100
AcDbEntity
  8
A1
  6
CONTINUOUS
 62
7
100
AcDbLine
 10
150.7264418613514
 20
246.6794584352626
 30
0.000000000000000
 11
150.7264418613514
 21
235.6794584352626
 31
0.000000000000000
  0
LINE
  5
2BC
100
AcDbEntity
  8
A1
  6
CONTINUOUS
 62
7
100
AcDbLine
 10
120.7264418613513
 20
246.6794584352626
 30
0.000000000000000
 11
120.7264418613513
 21
235.6794584352626
 31
0.000000000000000
  0
LINE
  5
2BD
100
AcDbEntity
  8
A1
  6
CONTINUOUS
 62
7
100
AcDbLine
 10
149.7264418613514
 20
247.6794584352626
 30
0.000000000000000
 11
121.7264418613513
 21
247.6794584352626
 31
0.000000000000000
  0
LINE
  5
2BE
100
AcDbEntity
  8
A1
  6
CONTINUOUS
 62
7
100
AcDbLine
 10
150.7264418613514
 20
233.6821418376269
 30
0.000000000000000
 11
150.7264418613514
 21
235.6794584352626
 31
0.000000000000000
  0
LINE
  5
2BF
100
AcDbEntity
  8
A1
  6
CONTINUOUS
 62
7
100
AcDbLine
 10
120.7264418613513
 20
233.6821418376269
 30
0.000000000000000
 11
120.7264418613513
 21
235.6794584352626
 31
0.000000000000000
  0
LINE
  5
2C0
100
AcDbEntity
  8
A1
  6
CONTINUOUS
 62
7
100
AcDbLine
 10
150.7264418613514
 20
235.6794584352626
 30
0.000000000000000
 11
120.7264418613513
 21
235.6794584352626
 31
0.000000000000000
  0
LINE
  5
2C1
100
AcDbEntity
  8
A1
  6
CONTINUOUS
 62
7
100
AcDbLine
 10
150.7264418613514
 20
233.6821418376269
 30
0.000000000000000
 11
150.7264418613514
 21
233.1747624811254
 31
0.000000000000000
  0
LINE
  5
2C2
100
AcDbEntity
  8
A1
  6
CONTINUOUS
 62
7
100
AcDbLine
 10
120.7264418613513
 20
233.6821418376269
 30
0.000000000000000
 11
120.7264418613513
 21
233.1747624811254
 31
0.000000000000000
  0
LINE
  5
2C3
100
AcDbEntity
  8
A1
  6
CONTINUOUS
 62
7
100
AcDbLine
 10
150.7264418613514
 20
233.6821418376269
 30
0.000000000000000
 11
120.7264418613513
 21
233.6821418376269
 31
0.000000000000000
  0
LINE
  5
2C4
100
AcDbEntity
  8
A1
  6
CONTINUOUS
 62
7
100
AcDbLine
 10
150.7264418613514
 20
226.3883649521612
 30
0.000000000000000
 11
150.7264418613514
 21
225.6391460114366
 31
0.000000000000000
  0
LINE
  5
2C5
100
AcDbEntity
  8
A1
  6
CONTINUOUS
 62
7
100
AcDbLine
 10
120.7264418613513
 20
226.3883649521613
 30
0.000000000000000
 11
120.7264418613513
 21
225.6391460114926
 31
0.000000000000000
  0
LINE
  5
2C6
100
AcDbEntity
  8
A1
  6
CONTINUOUS
 62
7
100
AcDbLine
 10
149.7264418613514
 20
225.2988335877056
 30
0.000000000000000
 11
121.7264418613514
 21
225.2988335877910
 31
0.000000000000000
  0
LINE
  5
2C7
100
AcDbEntity
  8
A1
  6
CONTINUOUS
 62
7
100
AcDbLine
 10
150.7264418613514
 20
226.3883649521613
 30
0.000000000000000
 11
150.7264418613514
 21
233.1747624811254
 31
0.000000000000000
  0
LINE
  5
2C8
100
AcDbEntity
  8
A1
  6
CONTINUOUS
 62
7
100
AcDbLine
 10
120.7264418613513
 20
226.3883649521613
 30
0.000000000000000
 11
120.7264418613513
 21
233.1747624811254
 31
0.000000000000000
  0
LINE
  5
2C9
100
AcDbEntity
  8
A1
  6
CONTINUOUS
 62
7
100
AcDbLine
 10
150.7264418613514
 20
226.3883649521613
 30
0.000000000000000
 11
120.7264418613513
 21
226.3883649521613
 31
0.000000000000000
  0
LINE
  5
2CA
100
AcDbEntity
  8
A1
  6
CONTINUOUS
 62
7
100
AcDbLine
 10
150.7264418613514
 20
233.1747624811254
 30
0.000000000000000
 11
120.7264418613513
 21
233.1747624811254
 31
0.000000000000000
  0
LINE
  5
2CB
100
AcDbEntity
  8
A4
  6
CENTER
 62
1
100
AcDbLine
 10
125.7264418613514
 20
244.2794584352626
 30
0.000000000000000
 11
125.7264418613514
 21
237.0794584352626
 31
0.000000000000000
  0
LINE
  5
2CC
100
AcDbEntity
  8
A4
  6
CENTER
 62
1
100
AcDbLine
 10
122.1264418613514
 20
240.6794584352626
 30
0.000000000000000
 11
129.3264418613514
 21
240.6794584352626
 31
0.000000000000000
  0
LINE
  5
2CD
100
AcDbEntity
  8
A4
  6
CENTER
 62
1
100
AcDbLine
 10
145.7264418613514
 20
244.2794584352626
 30
0.000000000000000
 11
145.7264418613514
 21
237.0794584352626
 31
0.000000000000000
  0
LINE
  5
2CE
100
AcDbEntity
  8
A4
  6
CENTER
 62
1
100
AcDbLine
 10
142.1264418613514
 20
240.6794584352626
 30
0.000000000000000
 11
149.3264418613514
 21
240.6794584352626
 31
0.000000000000000
  0
LINE
  5
2CF
100
AcDbEntity
  8
A4
  6
CENTER
 62
1
100
AcDbLine
 10
135.7264418613514
 20
223.7988335875055
 30
0.000000000000000
 11
135.7264418613514
 21
249.1794584352628
 31
0.000000000000000
  0
LINE
  5
2D0
100
AcDbEntity
  8
A4
  6
CENTER
 62
1
100
AcDbLine
 10
54.01136902791892
 20
167.1794584353018
 30
0.000000000000000
 11
104.0113690279191
 21
167.1794584353016
 31
0.000000000000000
  0
POINT
  5
2D1
100
AcDbEntity
  8
A10
  6
CONTINUOUS
 62
3
100
AcDbPoint
 10
280.8970667088356
 20
167.1794585152307
 30
0.000000000000000
  0
LINE
  5
2D2
100
AcDbEntity
  8
A4
  6
CENTER
 62
1
100
AcDbLine
 10
192.7264418613516
 20
167.1794576673551
 30
0.000000000000000
 11
180.7264418613516
 21
167.1794576673551
 31
0.000000000000000
  0
LINE
  5
2D3
100
AcDbEntity
  8
A4
  6
CENTER
 62
1
100
AcDbLine
 10
186.7264418613516
 20
173.1794576673551
 30
0.000000000000000
 11
186.7264418613516
 21
161.1794576673552
 31
0.000000000000000
  0
LINE
  5
2D4
100
AcDbEntity
  8
A4
  6
CENTER
 62
1
100
AcDbLine
 10
54.76136902792801
 20
232.6794584352626
 30
0.000000000000000
 11
100.7613690279280
 21
232.6794584352626
 31
0.000000000000000
  0
LINE
  5
2D5
100
AcDbEntity
  8
A4
  6
CENTER
 62
1
100
AcDbLine
 10
54.76136902792852
 20
229.4521176775377
 30
0.000000000000000
 11
100.7613690279285
 21
229.4521176775373
 31
0.000000000000000
  0
LINE
  5
2D6
100
AcDbEntity
  8
A4
  6
CENTER
 62
1
100
AcDbLine
 10
54.76136902792742
 20
101.6794584353411
 30
0.000000000000000
 11
100.7613690279274
 21
101.6794584353406
 31
0.000000000000000
  0
ENDSEC
  0
SECTION
  2
OBJECTS
  0
DICTIONARY
  5
30D
100
AcDbDictionary
  3
ACAD_GROUP
350
30E
  3
ACAD_LAYOUT
350
30F
  3
ACAD_MLINESTYLE
350
310
  0
DICTIONARY
  5
30E
102
{ACAD_REACTORS
330
30D
102
}
330
30D
100
AcDbDictionary
  0
DICTIONARY
  5
30F
102
{ACAD_REACTORS
330
30D
102
}
330
30D
100
AcDbDictionary
  3
Model
350
311
  3
ﾚｲｱｳﾄ1
350
312
  3
ﾚｲｱｳﾄ2
350
313
  0
DICTIONARY
  5
310
102
{ACAD_REACTORS
330
30D
102
}
330
30D
100
AcDbDictionary
  3
STANDARD
350
314
  0
LAYOUT
  5
311
102
{ACAD_REACTORS
330
30F
102
}
330
30F
100
AcDbPlotSettings
 70
11952
  4
A3
 44
297.000000
 45
420.000000
 73
  1
 72
  1
100
AcDbLayout
  1
Model
 71
0
330
304
  0
LAYOUT
  5
312
102
{ACAD_REACTORS
330
30F
102
}
330
30F
100
AcDbPlotSettings
100
AcDbLayout
  1
ﾚｲｱｳﾄ1
 71
1
330
305
  0
LAYOUT
  5
313
102
{ACAD_REACTORS
330
30F
102
}
330
30F
100
AcDbPlotSettings
100
AcDbLayout
  1
ﾚｲｱｳﾄ2
 71
2
330
306
  0
MLINESTYLE
  5
314
102
{ACAD_REACTORS
330
310
102
}
330
310
100
AcDbMlineStyle
  2
STANDARD
 70
     0
  3

 62
   256
 51
90.00
 52
90.00
 71
     2
 49
0.50
 62
   256
  6
BYLAYER
 49
-0.50
 62
   256
  6
BYLAYER
  0
ENDSEC
  0
EOF
