  0
SECTION
  2
HEADER
  9
$ACADVER
  1
AC1032
  9
$DWGCODEPAGE
  3
ANSI_932
  9
$LTSCALE
 40
20.0
  9
$FILLMODE
 70
     1
  9
$CLAYER
  8
0
  9
$PDMODE
 70
     0
  9
$SPLFRAME
 70
     0
  9
$SPLINETYPE
 70
     6
  9
$SPLINESEGS
 70
     8
  9
$DIMASZ
 40
2.000000
  9
$DIMEXE
 40
1.500000
  9
$DIMEXO
 40
0.800000
  9
$DIMTAD
 70
     1
  9
$DIMTIH
 70
     0
  9
$DIMTOH
 70
     0
  9
$DIMTVP
 40
0.500000
  9
$DIMTXT
 40
3.100000
  9
$EXTMIN
 10
0.000000
 20
0.000000
 30
0.000000
  9
$EXTMAX
 10
297.000000
 20
420.000000
 30
0.000000
  9
$MEASUREMENT
 70
  1
  9
$LIMMIN
 10
0.000000
 20
0.000000
  9
$LIMMAX
 10
297.000000
 20
420.000000
  9
$HANDSEED
  5
1A6
  9
$LWDISPLAY
290
     0
  9
$DIMBLK
  1
_OPEN
  9
$DIMDEC
 70
     2
  9
$DIMADEC
 70
     2
  9
$DIMAUNIT
 70
     0
  9
$DIMZIN
 70
     8
  9
$DIMAZIN
 70
     2
  9
$DIMTOFL
 70
     1
  0
ENDSEC
  0
SECTION
  2
CLASSES
  0
ENDSEC
  0
SECTION
  2
TABLES
  0
TABLE
  2
VPORT
  5
16F
100
AcDbSymbolTable
 70
     1
  0
VPORT
  5
170
100
AcDbSymbolTableRecord
100
AcDbViewportTableRecord
  2
*ACTIVE
 70
     0
 12
182.917362
 22
94.045065
 40
152.090129
 41
2.273880
  0
ENDTAB
  0
TABLE
  2
LTYPE
  5
171
100
AcDbSymbolTable
 70
     3
  0
LTYPE
  5
172
100
AcDbSymbolTableRecord
100
AcDbLinetypeTableRecord
  2
BYBLOCK
 70
     0
  3

 72
    65
 73
     0
 40
0.0
  0
LTYPE
  5
173
100
AcDbSymbolTableRecord
100
AcDbLinetypeTableRecord
  2
BYLAYER
 70
     0
  3

 72
    65
 73
     0
 40
0.0
  0
LTYPE
  5
174
100
AcDbSymbolTableRecord
100
AcDbLinetypeTableRecord
  2
CONTINUOUS
 70
     0
  3
Solid line (NEC CAE2D for Win R18.0 : 2025.03.03)
 72
    65
 73
     0
 40
0.0
  0
LTYPE
  5
175
100
AcDbSymbolTableRecord
100
AcDbLinetypeTableRecord
  2
CENTER
 70
     0
  3
____ _ ____ _ ____ _ ____ _ ____ _ ____
 72
    65
 73
     4
 40
2.0
 49
1.25
 74
     0
 49
-0.25
 74
     0
 49
0.25
 74
     0
 49
-0.25
 74
     0
  0
LTYPE
  5
176
100
AcDbSymbolTableRecord
100
AcDbLinetypeTableRecord
  2
PHANTOM
 70
     0
  3
______  __  __  ______  __  __  ______ 
 72
    65
 73
     6
 40
2.5
 49
1.25
 74
     0
 49
-0.25
 74
     0
 49
0.25
 74
     0
 49
-0.25
 74
     0
 49
0.25
 74
     0
 49
-0.25
 74
     0
  0
ENDTAB
  0
TABLE
  2
LAYER
  5
177
100
AcDbSymbolTable
 70
    16
  0
LAYER
  5
178
100
AcDbSymbolTableRecord
100
AcDbLayerTableRecord
  2
0
 70
     0
 62
     7
  6
CONTINUOUS
370
    -3
390

  0
LAYER
  5
179
100
AcDbSymbolTableRecord
100
AcDbLayerTableRecord
  2
A0
 70
     0
 62
     9
  6
CONTINUOUS
370
    -3
390

  0
LAYER
  5
17A
100
AcDbSymbolTableRecord
100
AcDbLayerTableRecord
  2
A1
 70
     0
 62
    12
  6
CONTINUOUS
370
    -3
390

  0
LAYER
  5
17B
100
AcDbSymbolTableRecord
100
AcDbLayerTableRecord
  2
A2
 70
     0
 62
     9
  6
CONTINUOUS
370
    -3
390

  0
LAYER
  5
17C
100
AcDbSymbolTableRecord
100
AcDbLayerTableRecord
  2
A3
 70
     0
 62
    12
  6
CONTINUOUS
370
    -3
390

  0
LAYER
  5
17D
100
AcDbSymbolTableRecord
100
AcDbLayerTableRecord
  2
A4
 70
     0
 62
     9
  6
CONTINUOUS
370
    -3
390

  0
LAYER
  5
17E
100
AcDbSymbolTableRecord
100
AcDbLayerTableRecord
  2
A5
 70
     0
 62
     8
  6
CONTINUOUS
370
    -3
390

  0
LAYER
  5
17F
100
AcDbSymbolTableRecord
100
AcDbLayerTableRecord
  2
A6
 70
     0
 62
    12
  6
CONTINUOUS
370
    -3
390

  0
LAYER
  5
180
100
AcDbSymbolTableRecord
100
AcDbLayerTableRecord
  2
A8
 70
     0
 62
    10
  6
CONTINUOUS
370
    -3
390

  0
LAYER
  5
181
100
AcDbSymbolTableRecord
100
AcDbLayerTableRecord
  2
A9
 70
     0
 62
     9
  6
CONTINUOUS
370
    -3
390

  0
LAYER
  5
182
100
AcDbSymbolTableRecord
100
AcDbLayerTableRecord
  2
A10
 70
     0
 62
     6
  6
CONTINUOUS
370
    -3
390

  0
LAYER
  5
183
100
AcDbSymbolTableRecord
100
AcDbLayerTableRecord
  2
A20
 70
     0
 62
     1
  6
CONTINUOUS
370
    -3
390

  0
LAYER
  5
184
100
AcDbSymbolTableRecord
100
AcDbLayerTableRecord
  2
A30
 70
     0
 62
     1
  6
CONTINUOUS
370
    -3
390

  0
LAYER
  5
185
100
AcDbSymbolTableRecord
100
AcDbLayerTableRecord
  2
A40
 70
     0
 62
     9
  6
CONTINUOUS
370
    -3
390

  0
LAYER
  5
186
100
AcDbSymbolTableRecord
100
AcDbLayerTableRecord
  2
A50
 70
     0
 62
    12
  6
CONTINUOUS
370
    -3
390

  0
LAYER
  5
187
100
AcDbSymbolTableRecord
100
AcDbLayerTableRecord
  2
A1023
 70
     0
 62
    16
  6
CONTINUOUS
370
    -3
390

  0
ENDTAB
  0
TABLE
  2
STYLE
  5
188
100
AcDbSymbolTable
 70
     4
  0
STYLE
  5
189
100
AcDbSymbolTableRecord
100
AcDbTextStyleTableRecord
  2
STANDARD
 70
    64
 40
0.0
 41
1.0
 50
0.0
 71
     0
 42
3.000000000000000
  3
TXT
  4

  0
STYLE
  5
18A
100
AcDbSymbolTableRecord
100
AcDbTextStyleTableRecord
  2
ANKTATE
 70
    68
 40
0.0
 41
1.0
 50
0.0
 71
     0
 42
3.000000000000000
  3
TXT
  4

  0
STYLE
  5
18B
100
AcDbSymbolTableRecord
100
AcDbTextStyleTableRecord
  2
KNJYOKO
 70
    64
 40
0.0
 41
1.0
 50
0.0
 71
     0
 42
3.000000000000000
  3
TXT
  4
BIGFONT
  0
STYLE
  5
18C
100
AcDbSymbolTableRecord
100
AcDbTextStyleTableRecord
  2
KNJTATE
 70
    68
 40
0.0
 41
1.0
 50
0.0
 71
     0
 42
3.000000000000000
  3
TXT
  4
BIGFONT
  0
ENDTAB
  0
TABLE
  2
VIEW
  5
18D
100
AcDbSymbolTable
 70
     0
  0
ENDTAB
  0
TABLE
  2
UCS
  5
18E
100
AcDbSymbolTable
 70
     0
  0
ENDTAB
  0
TABLE
  2
APPID
  5
18F
100
AcDbSymbolTable
 70
     1
  0
APPID
  5
190
100
AcDbSymbolTableRecord
100
AcDbRegAppTableRecord
  2
ACAD
 70
     0
  0
ENDTAB
  0
TABLE
  2
DIMSTYLE
  5
191
100
AcDbSymbolTable
 70
     2
100
AcDbDimStyleTable
  0
DIMSTYLE
105
192
100
AcDbSymbolTableRecord
100
AcDbDimStyleTableRecord
  2
STANDARD
 70
     0
 41
2.000000
 44
1.500000
 42
0.800000
145
0.661290
140
3.100000
144
1.000000
146
0.645161
340
189
  0
DIMSTYLE
105
193
100
AcDbSymbolTableRecord
100
AcDbDimStyleTableRecord
  2
A001
 70
     0
 41
2.000000
 44
1.500000
 42
0.800000
145
0.661290
140
3.100000
144
1.000000
146
0.645161
 77
     1
 73
     0
 74
     0
271
     2
179
     2
275
     0
 78
     8
 79
     2
172
     1
340
189
  0
ENDTAB
  0
TABLE
  2
BLOCK_RECORD
  5
194
100
AcDbSymbolTable
 70
    12
  0
BLOCK_RECORD
  5
195
100
AcDbSymbolTableRecord
100
AcDbBlockTableRecord
  2
*MODEL_SPACE
  0
BLOCK_RECORD
  5
196
100
AcDbSymbolTableRecord
100
AcDbBlockTableRecord
  2
*PAPER_SPACE
  0
BLOCK_RECORD
  5
197
100
AcDbSymbolTableRecord
100
AcDbBlockTableRecord
  2
*PAPER_SPACE0
  0
BLOCK_RECORD
  5
1
100
AcDbSymbolTableRecord
100
AcDbBlockTableRecord
  2
_NONE
  0
BLOCK_RECORD
  5
4
100
AcDbSymbolTableRecord
100
AcDbBlockTableRecord
  2
_CLOSED
  0
BLOCK_RECORD
  5
B
100
AcDbSymbolTableRecord
100
AcDbBlockTableRecord
  2
_DOT
  0
BLOCK_RECORD
  5
13
100
AcDbSymbolTableRecord
100
AcDbBlockTableRecord
  2
_OPEN
  0
BLOCK_RECORD
  5
19
100
AcDbSymbolTableRecord
100
AcDbBlockTableRecord
  2
_ORIGIN
  0
BLOCK_RECORD
  5
1E
100
AcDbSymbolTableRecord
100
AcDbBlockTableRecord
  2
_OPEN30
  0
BLOCK_RECORD
  5
24
100
AcDbSymbolTableRecord
100
AcDbBlockTableRecord
  2
_BOXFILLED
  0
BLOCK_RECORD
  5
29
100
AcDbSymbolTableRecord
100
AcDbBlockTableRecord
  2
_BOXBLANK
  0
BLOCK_RECORD
  5
31
100
AcDbSymbolTableRecord
100
AcDbBlockTableRecord
  2
_OBLIQUE
  0
BLOCK_RECORD
  5
35
100
AcDbSymbolTableRecord
100
AcDbBlockTableRecord
  2
_OPEN90
  0
BLOCK_RECORD
  5
3B
100
AcDbSymbolTableRecord
100
AcDbBlockTableRecord
  2
_CLOSEDBLANK
  0
BLOCK_RECORD
  5
41
100
AcDbSymbolTableRecord
100
AcDbBlockTableRecord
  2
_DOTBLANK
  0
ENDTAB
  0
ENDSEC
  0
SECTION
  2
BLOCKS
  0
BLOCK
  5
198
100
AcDbEntity
  8
0
100
AcDbBlockBegin
  2
*MODEL_SPACE
 70
     0
 10
0.0
 20
0.0
 30
0.0
  3
*MODEL_SPACE
  1

  0
ENDBLK
  5
199
100
AcDbEntity
  8
0
100
AcDbBlockEnd
  0
BLOCK
  5
19A
100
AcDbEntity
  8
0
100
AcDbBlockBegin
  2
*PAPER_SPACE
 70
     0
 10
0.0
 20
0.0
 30
0.0
  3
*PAPER_SPACE
  1

  0
ENDBLK
  5
19B
100
AcDbEntity
  8
0
100
AcDbBlockEnd
  0
BLOCK
  5
19C
100
AcDbEntity
  8
0
100
AcDbBlockBegin
  2
*PAPER_SPACE0
 70
     0
 10
0.0
 20
0.0
 30
0.0
  3
*PAPER_SPACE0
  1

  0
ENDBLK
  5
19D
100
AcDbEntity
  8
0
100
AcDbBlockEnd
  0
BLOCK
  5
2
330
1
100
AcDbEntity
  8
0
100
AcDbBlockBegin
  2
_NONE
 70
     0
 10
0.0
 20
0.0
 30
0.0
  3
_NONE
  1

  0
ENDBLK
  5
3
330
1
100
AcDbEntity
  8
0
100
AcDbBlockEnd
  0
BLOCK
  5
5
330
4
100
AcDbEntity
  8
0
100
AcDbBlockBegin
  2
_CLOSED
 70
     0
 10
0.0
 20
0.0
 30
0.0
  3
_CLOSED
  1

  0
LINE
  5
6
330
4
100
AcDbEntity
  8
0
  6
BYBLOCK
 62
     0
370
    -2
100
AcDbLine
 10
-1.0
 20
0.166667
 30
0.0
 11
0.0
 21
0.0
 31
0.0
  0
LINE
  5
7
330
4
100
AcDbEntity
  8
0
  6
BYBLOCK
 62
     0
370
    -2
100
AcDbLine
 10
0.0
 20
0.0
 30
0.0
 11
-1.0
 21
-0.166667
 31
0.0
  0
LINE
  5
8
330
4
100
AcDbEntity
  8
0
  6
BYBLOCK
 62
     0
370
    -2
100
AcDbLine
 10
-1.0
 20
0.166667
 30
0.0
 11
-1.0
 21
-0.166667
 31
0.0
  0
LINE
  5
9
330
4
100
AcDbEntity
  8
0
  6
BYBLOCK
 62
     0
370
    -2
100
AcDbLine
 10
0.0
 20
0.0
 30
0.0
 11
-1.0
 21
0.0
 31
0.0
  0
ENDBLK
  5
A
330
4
100
AcDbEntity
  8
0
100
AcDbBlockEnd
  0
BLOCK
  5
C
330
B
100
AcDbEntity
  8
0
100
AcDbBlockBegin
  2
_DOT
 70
     0
 10
0.0
 20
0.0
 30
0.0
  3
_DOT
  1

  0
POLYLINE
  5
D
330
B
100
AcDbEntity
  8
0
  6
BYBLOCK
 62
     0
370
    -2
100
AcDb2dPolyline
 66
     1
 10
0.0
 20
0.0
 30
0.0
 70
     1
 40
0.5
 41
0.5
  0
VERTEX
  5
E
330
B
100
AcDbEntity
  8
0
  6
BYBLOCK
 62
     0
370
    -2
100
AcDbVertex
100
AcDb2dVertex
 10
-0.25
 20
0.0
 30
0.0
 42
1.0
  0
VERTEX
  5
F
330
B
100
AcDbEntity
  8
0
  6
BYBLOCK
 62
     0
370
    -2
100
AcDbVertex
100
AcDb2dVertex
 10
0.25
 20
0.0
 30
0.0
 42
1.0
  0
SEQEND
  5
10
330
B
100
AcDbEntity
  8
0
  6
BYBLOCK
 62
     0
370
    -2
  0
LINE
  5
11
330
B
100
AcDbEntity
  8
0
  6
BYBLOCK
 62
     0
370
    -2
100
AcDbLine
 10
-0.5
 20
0.0
 30
0.0
 11
-1.0
 21
0.0
 31
0.0
  0
ENDBLK
  5
12
330
B
100
AcDbEntity
  8
0
100
AcDbBlockEnd
  0
BLOCK
  5
14
330
13
100
AcDbEntity
  8
0
100
AcDbBlockBegin
  2
_OPEN
 70
     0
 10
0.0
 20
0.0
 30
0.0
  3
_OPEN
  1

  0
LINE
  5
15
330
13
100
AcDbEntity
  8
0
  6
BYBLOCK
 62
     0
370
    -2
100
AcDbLine
 10
-1.0
 20
0.166667
 30
0.0
 11
0.0
 21
0.0
 31
0.0
  0
LINE
  5
16
330
13
100
AcDbEntity
  8
0
  6
BYBLOCK
 62
     0
370
    -2
100
AcDbLine
 10
0.0
 20
0.0
 30
0.0
 11
-1.0
 21
-0.166667
 31
0.0
  0
LINE
  5
17
330
13
100
AcDbEntity
  8
0
  6
BYBLOCK
 62
     0
370
    -2
100
AcDbLine
 10
0.0
 20
0.0
 30
0.0
 11
-1.0
 21
0.0
 31
0.0
  0
ENDBLK
  5
18
330
13
100
AcDbEntity
  8
0
100
AcDbBlockEnd
  0
BLOCK
  5
1A
330
19
100
AcDbEntity
  8
0
100
AcDbBlockBegin
  2
_ORIGIN
 70
     0
 10
0.0
 20
0.0
 30
0.0
  3
_ORIGIN
  1

  0
CIRCLE
  5
1B
330
19
100
AcDbEntity
  8
0
  6
BYBLOCK
 62
     0
370
    -2
100
AcDbCircle
 10
0.0
 20
0.0
 30
0.0
 40
0.5
  0
LINE
  5
1C
330
19
100
AcDbEntity
  8
0
  6
BYBLOCK
 62
     0
370
    -2
100
AcDbLine
 10
0.0
 20
0.0
 30
0.0
 11
-1.0
 21
0.0
 31
0.0
  0
ENDBLK
  5
1D
330
19
100
AcDbEntity
  8
0
100
AcDbBlockEnd
  0
BLOCK
  5
1F
330
1E
100
AcDbEntity
  8
0
100
AcDbBlockBegin
  2
_OPEN30
 70
     0
 10
0.0
 20
0.0
 30
0.0
  3
_OPEN30
  1

  0
LINE
  5
20
330
1E
100
AcDbEntity
  8
0
  6
BYBLOCK
 62
     0
370
    -2
100
AcDbLine
 10
-1.0
 20
0.267949
 30
0.0
 11
0.0
 21
0.0
 31
0.0
  0
LINE
  5
21
330
1E
100
AcDbEntity
  8
0
  6
BYBLOCK
 62
     0
370
    -2
100
AcDbLine
 10
0.0
 20
0.0
 30
0.0
 11
-1.0
 21
-0.267949
 31
0.0
  0
LINE
  5
22
330
1E
100
AcDbEntity
  8
0
  6
BYBLOCK
 62
     0
370
    -2
100
AcDbLine
 10
0.0
 20
0.0
 30
0.0
 11
-1.0
 21
0.0
 31
0.0
  0
ENDBLK
  5
23
330
1E
100
AcDbEntity
  8
0
100
AcDbBlockEnd
  0
BLOCK
  5
25
330
24
100
AcDbEntity
  8
0
100
AcDbBlockBegin
  2
_BOXFILLED
 70
     0
 10
0.0
 20
0.0
 30
0.0
  3
_BOXFILLED
  1

  0
SOLID
  5
26
330
24
100
AcDbEntity
  8
0
  6
BYBLOCK
 62
     0
370
    -2
100
AcDbTrace
 10
-0.5
 20
0.5
 30
0.0
 11
0.5
 21
0.5
 31
0.0
 12
-0.5
 22
-0.5
 32
0.0
 13
0.5
 23
-0.5
 33
0.0
  0
LINE
  5
27
330
24
100
AcDbEntity
  8
0
  6
BYBLOCK
 62
     0
370
    -2
100
AcDbLine
 10
-0.5
 20
0.0
 30
0.0
 11
-1.0
 21
0.0
 31
0.0
  0
ENDBLK
  5
28
330
24
100
AcDbEntity
  8
0
100
AcDbBlockEnd
  0
BLOCK
  5
2A
330
29
100
AcDbEntity
  8
0
100
AcDbBlockBegin
  2
_BOXBLANK
 70
     0
 10
0.0
 20
0.0
 30
0.0
  3
_BOXBLANK
  1

  0
LINE
  5
2B
330
29
100
AcDbEntity
  8
0
  6
BYBLOCK
 62
     0
370
    -2
100
AcDbLine
 10
-0.5
 20
-0.5
 30
0.0
 11
0.5
 21
-0.5
 31
0.0
  0
LINE
  5
2C
330
29
100
AcDbEntity
  8
0
  6
BYBLOCK
 62
     0
370
    -2
100
AcDbLine
 10
0.5
 20
-0.5
 30
0.0
 11
0.5
 21
0.5
 31
0.0
  0
LINE
  5
2D
330
29
100
AcDbEntity
  8
0
  6
BYBLOCK
 62
     0
370
    -2
100
AcDbLine
 10
0.5
 20
0.5
 30
0.0
 11
-0.5
 21
0.5
 31
0.0
  0
LINE
  5
2E
330
29
100
AcDbEntity
  8
0
  6
BYBLOCK
 62
     0
370
    -2
100
AcDbLine
 10
-0.5
 20
0.5
 30
0.0
 11
-0.5
 21
-0.5
 31
0.0
  0
LINE
  5
2F
330
29
100
AcDbEntity
  8
0
  6
BYBLOCK
 62
     0
370
    -2
100
AcDbLine
 10
-0.5
 20
0.0
 30
0.0
 11
-1.0
 21
0.0
 31
0.0
  0
ENDBLK
  5
30
330
29
100
AcDbEntity
  8
0
100
AcDbBlockEnd
  0
BLOCK
  5
32
330
31
100
AcDbEntity
  8
0
100
AcDbBlockBegin
  2
_OBLIQUE
 70
     0
 10
0.0
 20
0.0
 30
0.0
  3
_OBLIQUE
  1

  0
LINE
  5
33
330
31
100
AcDbEntity
  8
0
  6
BYBLOCK
 62
     0
370
    -2
100
AcDbLine
 10
-0.5
 20
-0.5
 30
0.0
 11
0.5
 21
0.5
 31
0.0
  0
ENDBLK
  5
34
330
31
100
AcDbEntity
  8
0
100
AcDbBlockEnd
  0
BLOCK
  5
36
330
35
100
AcDbEntity
  8
0
100
AcDbBlockBegin
  2
_OPEN90
 70
     0
 10
0.0
 20
0.0
 30
0.0
  3
_OPEN90
  1

  0
LINE
  5
37
330
35
100
AcDbEntity
  8
0
  6
BYBLOCK
 62
     0
370
    -2
100
AcDbLine
 10
-0.5
 20
0.5
 30
0.0
 11
0.0
 21
0.0
 31
0.0
  0
LINE
  5
38
330
35
100
AcDbEntity
  8
0
  6
BYBLOCK
 62
     0
370
    -2
100
AcDbLine
 10
0.0
 20
0.0
 30
0.0
 11
-0.5
 21
-0.5
 31
0.0
  0
LINE
  5
39
330
35
100
AcDbEntity
  8
0
  6
BYBLOCK
 62
     0
370
    -2
100
AcDbLine
 10
0.0
 20
0.0
 30
0.0
 11
-1.0
 21
0.0
 31
0.0
  0
ENDBLK
  5
3A
330
35
100
AcDbEntity
  8
0
100
AcDbBlockEnd
  0
BLOCK
  5
3C
330
3B
100
AcDbEntity
  8
0
100
AcDbBlockBegin
  2
_CLOSEDBLANK
 70
     0
 10
0.0
 20
0.0
 30
0.0
  3
_CLOSEDBLANK
  1

  0
LINE
  5
3D
330
3B
100
AcDbEntity
  8
0
  6
BYBLOCK
 62
     0
370
    -2
100
AcDbLine
 10
-1.0
 20
0.1666666666666666
 30
0.0
 11
0.0
 21
0.0
 31
0.0
  0
LINE
  5
3E
330
3B
100
AcDbEntity
  8
0
  6
BYBLOCK
 62
     0
370
    -2
100
AcDbLine
 10
0.0
 20
0.0
 30
0.0
 11
-1.0
 21
-0.1666666666666666
 31
0.0
  0
LINE
  5
3F
330
3B
100
AcDbEntity
  8
0
  6
BYBLOCK
 62
     0
370
    -2
100
AcDbLine
 10
-1.0
 20
0.1666666666666666
 30
0.0
 11
-1.0
 21
-0.1666666666666666
 31
0.0
  0
ENDBLK
  5
40
330
3B
100
AcDbEntity
  8
0
100
AcDbBlockEnd
  0
BLOCK
  5
42
330
41
100
AcDbEntity
  8
0
100
AcDbBlockBegin
  2
_DOTBLANK
 70
     0
 10
0.0
 20
0.0
 30
0.0
  3
_DOTBLANK
  1

  0
CIRCLE
  5
43
330
41
100
AcDbEntity
  8
0
  6
BYBLOCK
 62
     0
370
    -2
100
AcDbCircle
 10
0.0
 20
0.0
 30
0.0
 40
0.5
  0
LINE
  5
44
330
41
100
AcDbEntity
  8
0
  6
BYBLOCK
 62
     0
370
    -2
100
AcDbLine
 10
-0.5
 20
0.0
 30
0.0
 11
-1.0
 21
0.0
 31
0.0
  0
ENDBLK
  5
45
330
41
100
AcDbEntity
  8
0
100
AcDbBlockEnd
  0
ENDSEC
  0
SECTION
  2
ENTITIES
  0
MTEXT
  5
46
100
AcDbEntity
  8
A8
  6
CONTINUOUS
 62
3
100
AcDbMText
 10
9.999997526638502
 20
18.00000076076889
 30
0.000000000000000
 40
3.000000000000000
 41
0.000000000000000
 44
0.6739999771118164
 71
     7
 72
     1
  1
{\H0.93x;{TYPE No.TL-438-2}}
 11
1.000000000000000
 21
0.000000000000000
 31
0.000000000000000
  7
STANDARD
  0
POINT
  5
47
100
AcDbEntity
  8
A0
  6
CONTINUOUS
 62
3
100
AcDbPoint
 10
9.999997526638502
 20
18.00000076076889
 30
0.000000000000000
  0
POINT
  5
48
100
AcDbEntity
  8
A10
  6
CONTINUOUS
 62
3
100
AcDbPoint
 10
50.00000000000000
 20
50.00000000000000
 30
0.000000000000000
  0
LINE
  5
49
100
AcDbEntity
  8
A1
  6
CONTINUOUS
 62
7
100
AcDbLine
 10
190.3464015121269
 20
166.0901299765377
 30
0.000000000000000
 11
190.3464015121269
 21
149.0901299765377
 31
0.000000000000000
  0
LINE
  5
4A
100
AcDbEntity
  8
A1
  6
CONTINUOUS
 62
7
100
AcDbLine
 10
190.3464015121269
 20
149.1901299765377
 30
0.000000000000000
 11
192.6464015121269
 21
149.1901299765377
 31
0.000000000000000
  0
LINE
  5
4B
100
AcDbEntity
  8
A1
  6
CONTINUOUS
 62
7
100
AcDbLine
 10
190.3464015121269
 20
165.9901299765377
 30
0.000000000000000
 11
192.6464015121269
 21
165.9901299765377
 31
0.000000000000000
  0
LINE
  5
4C
100
AcDbEntity
  8
A1
  6
CONTINUOUS
 62
7
100
AcDbLine
 10
167.1464015121268
 20
167.0901299765376
 30
0.000000000000000
 11
171.1464015121269
 21
170.0901299765376
 31
0.000000000000000
  0
LINE
  5
4D
100
AcDbEntity
  8
A1
  6
CONTINUOUS
 62
7
100
AcDbLine
 10
171.1464015121269
 20
170.0901299765376
 30
0.000000000000000
 11
171.1464015121269
 21
145.0901299765377
 31
0.000000000000000
  0
LINE
  5
4E
100
AcDbEntity
  8
A1
  6
CONTINUOUS
 62
7
100
AcDbLine
 10
173.1464015121269
 20
170.0901299765376
 30
0.000000000000000
 11
173.1464015121269
 21
145.0901299765377
 31
0.000000000000000
  0
LINE
  5
4F
100
AcDbEntity
  8
A1
  6
CONTINUOUS
 62
7
100
AcDbLine
 10
222.4987287256149
 20
170.0901299765385
 30
0.000000000000000
 11
222.4987287256149
 21
145.0901299765386
 31
0.000000000000000
  0
LINE
  5
50
100
AcDbEntity
  8
A1
  6
CONTINUOUS
 62
7
100
AcDbLine
 10
173.1464015121269
 20
170.0901299765376
 30
0.000000000000000
 11
173.1464015121269
 21
145.0901299765377
 31
0.000000000000000
  0
LINE
  5
51
100
AcDbEntity
  8
A1
  6
CONTINUOUS
 62
7
100
AcDbLine
 10
167.1464015121269
 20
148.0901299765377
 30
0.000000000000000
 11
171.1464015121270
 21
145.0901299765377
 31
0.000000000000000
  0
LINE
  5
52
100
AcDbEntity
  8
A1
  6
CONTINUOUS
 62
7
100
AcDbLine
 10
167.1464015121269
 20
167.0901299765377
 30
0.000000000000000
 11
167.1464015121269
 21
148.0901299765377
 31
0.000000000000000
  0
LINE
  5
53
100
AcDbEntity
  8
A1
  6
CONTINUOUS
 62
7
100
AcDbLine
 10
283.3604015120812
 20
163.5901299765377
 30
0.000000000000000
 11
283.3604015120812
 21
151.5901299765377
 31
0.000000000000000
  0
LINE
  5
54
100
AcDbEntity
  8
A1
  6
CONTINUOUS
 62
7
100
AcDbLine
 10
283.3604015120812
 20
151.5901299765377
 30
0.000000000000000
 11
283.7604015120814
 21
151.5901299765377
 31
0.000000000000000
  0
LINE
  5
55
100
AcDbEntity
  8
A1
  6
CONTINUOUS
 62
7
100
AcDbLine
 10
283.7604015120814
 20
163.5901299765377
 30
0.000000000000000
 11
283.7604015120814
 21
151.5901299765377
 31
0.000000000000000
  0
LINE
  5
56
100
AcDbEntity
  8
A1
  6
CONTINUOUS
 62
7
100
AcDbLine
 10
283.3604015120814
 20
151.5901299765377
 30
0.000000000000000
 11
282.8604015121268
 21
152.0901299764909
 31
0.000000000000000
  0
LINE
  5
57
100
AcDbEntity
  8
A1
  6
CONTINUOUS
 62
7
100
AcDbLine
 10
283.3604015120815
 20
163.5901299765377
 30
0.000000000000000
 11
282.8604015121270
 21
163.0901299765835
 31
0.000000000000000
  0
LINE
  5
58
100
AcDbEntity
  8
A1
  6
CONTINUOUS
 62
7
100
AcDbLine
 10
283.3604015120812
 20
163.5901299765377
 30
0.000000000000000
 11
283.7604015120814
 21
163.5901299765377
 31
0.000000000000000
  0
LINE
  5
59
100
AcDbEntity
  8
A1
  6
CONTINUOUS
 62
7
100
AcDbLine
 10
231.6787287256149
 20
145.8174614015933
 30
0.000000000000000
 11
231.6787287256149
 21
169.3627985514749
 31
0.000000000000000
  0
LINE
  5
5A
100
AcDbEntity
  8
A1
  6
CONTINUOUS
 62
7
100
AcDbLine
 10
234.1787287256151
 20
147.2022789022603
 30
0.000000000000000
 11
233.0908018940131
 21
145.0901299765343
 31
0.000000000000000
  0
LINE
  5
5B
100
AcDbEntity
  8
A1
  6
CONTINUOUS
 62
7
100
AcDbLine
 10
233.0908018940130
 20
145.0901299765343
 30
0.000000000000000
 11
231.6684015121019
 21
145.8227807484159
 31
0.000000000000000
  0
LINE
  5
5C
100
AcDbEntity
  8
A1
  6
CONTINUOUS
 62
7
100
AcDbLine
 10
234.1787287256150
 20
167.9779810508081
 30
0.000000000000000
 11
233.0908018940130
 21
170.0901299765341
 31
0.000000000000000
  0
LINE
  5
5D
100
AcDbEntity
  8
A1
  6
CONTINUOUS
 62
7
100
AcDbLine
 10
233.0908018940131
 20
170.0901299765340
 30
0.000000000000000
 11
231.6684015121019
 21
169.3574792046523
 31
0.000000000000000
  0
LINE
  5
5E
100
AcDbEntity
  8
A1
  6
CONTINUOUS
 62
7
100
AcDbLine
 10
233.0908018940130
 20
145.0901299765342
 30
0.000000000000000
 11
233.0908018940130
 21
170.0901299765340
 31
0.000000000000000
  0
LINE
  5
5F
100
AcDbEntity
  8
A1
  6
CONTINUOUS
 62
7
100
AcDbLine
 10
280.8604015121268
 20
165.5901299765377
 30
0.000000000000000
 11
276.3604015121268
 21
165.5901299765377
 31
0.000000000000000
  0
ARC
  5
60
100
AcDbEntity
  8
A1
  6
CONTINUOUS
 62
7
100
AcDbCircle
 10
280.8604015121268
 20
163.5901299765377
 30
0.000000000000000
 40
2.000000000000000
100
AcDbArc
 50
0.000000000000000
 51
90.00000000000000
  0
LINE
  5
61
100
AcDbEntity
  8
A1
  6
CONTINUOUS
 62
7
100
AcDbLine
 10
282.8604015121268
 20
163.5901299765377
 30
0.000000000000000
 11
282.8604015121268
 21
151.5901299765377
 31
0.000000000000000
  0
ARC
  5
62
100
AcDbEntity
  8
A1
  6
CONTINUOUS
 62
7
100
AcDbCircle
 10
280.8604015121268
 20
151.5901299765377
 30
0.000000000000000
 40
2.000000000000000
100
AcDbArc
 50
270.0000000000000
 51
360.0000000000000
  0
LINE
  5
63
100
AcDbEntity
  8
A1
  6
CONTINUOUS
 62
7
100
AcDbLine
 10
280.8604015121268
 20
149.5901299765377
 30
0.000000000000000
 11
276.3604015121268
 21
149.5901299765377
 31
0.000000000000000
  0
LINE
  5
64
100
AcDbEntity
  8
A1
  6
CONTINUOUS
 62
7
100
AcDbLine
 10
192.6464015121269
 20
150.4070343734221
 30
0.000000000000000
 11
190.3464015121269
 21
150.4070343734221
 31
0.000000000000000
  0
LINE
  5
65
100
AcDbEntity
  8
A1
  6
CONTINUOUS
 62
7
100
AcDbLine
 10
192.6464015121269
 20
151.9515821470877
 30
0.000000000000000
 11
190.3464015121269
 21
151.9515821470877
 31
0.000000000000000
  0
LINE
  5
66
100
AcDbEntity
  8
A1
  6
CONTINUOUS
 62
7
100
AcDbLine
 10
192.6464015121269
 20
164.7732255796531
 30
0.000000000000000
 11
190.3464015121269
 21
164.7732255796531
 31
0.000000000000000
  0
LINE
  5
67
100
AcDbEntity
  8
A1
  6
CONTINUOUS
 62
7
100
AcDbLine
 10
192.6464015121269
 20
163.2286778059877
 30
0.000000000000000
 11
190.3464015121269
 21
163.2286778059877
 31
0.000000000000000
  0
LINE
  5
68
100
AcDbEntity
  8
A1
  6
CONTINUOUS
 62
7
100
AcDbLine
 10
247.3604015121154
 20
168.5901299765319
 30
0.000000000000000
 11
243.3604015121124
 21
168.5901299765304
 31
0.000000000000000
  0
LINE
  5
69
100
AcDbEntity
  8
A1
  6
CONTINUOUS
 62
7
100
AcDbLine
 10
243.3604015121269
 20
146.5901299765377
 30
0.000000000000000
 11
243.3604015121269
 21
168.5901299765377
 31
0.000000000000000
  0
ARC
  5
6A
100
AcDbEntity
  8
A1
  6
CONTINUOUS
 62
7
100
AcDbCircle
 10
231.4744517448831
 20
163.0901299765346
 30
0.000000000000000
 40
15.88594976723220
100
AcDbArc
 50
339.7438419994448
 51
380.2561580005552
  0
LINE
  5
6B
100
AcDbEntity
  8
A1
  6
CONTINUOUS
 62
7
100
AcDbLine
 10
247.3604015121153
 20
168.5901299765319
 30
0.000000000000000
 11
247.3604015121153
 21
146.5901299765319
 31
0.000000000000000
  0
LINE
  5
6C
100
AcDbEntity
  8
A1
  6
CONTINUOUS
 62
7
100
AcDbLine
 10
246.3779211398620
 20
157.5901299765376
 30
0.000000000000000
 11
243.3604015121268
 21
157.5901299765376
 31
0.000000000000000
  0
ARC
  5
6D
100
AcDbEntity
  8
A1
  6
CONTINUOUS
 62
7
100
AcDbCircle
 10
231.4744517448828
 20
152.0901299765412
 30
0.000000000000000
 40
15.88594976723220
100
AcDbArc
 50
339.7438419994417
 51
380.2561580005522
  0
LINE
  5
6E
100
AcDbEntity
  8
A1
  6
CONTINUOUS
 62
7
100
AcDbLine
 10
247.3604015121153
 20
146.5901299765319
 30
0.000000000000000
 11
243.3604015121124
 21
146.5901299765304
 31
0.000000000000000
  0
LINE
  5
6F
100
AcDbEntity
  8
A4
  6
CENTER
 62
1
100
AcDbLine
 10
165.6464015121269
 20
157.5901299765377
 30
0.000000000000000
 11
201.1464015121269
 21
157.5901299765377
 31
0.000000000000000
  0
LINE
  5
70
100
AcDbEntity
  8
A4
  6
CENTER
 62
1
100
AcDbLine
 10
219.4987287256149
 20
157.5901299765377
 30
0.000000000000000
 11
285.2604015120814
 21
157.5901299765377
 31
0.000000000000000
  0
LINE
  5
71
100
AcDbEntity
  8
A1
  6
CONTINUOUS
 62
7
100
AcDbLine
 10
192.6464015121269
 20
149.1901299765377
 30
0.000000000000000
 11
192.6464015121269
 21
165.9901299765377
 31
0.000000000000000
  0
LINE
  5
72
100
AcDbEntity
  8
A1
  6
CONTINUOUS
 62
7
100
AcDbLine
 10
199.6464015121270
 20
160.7524076366469
 30
0.000000000000000
 11
192.6464015121434
 21
160.7524076366391
 31
0.000000000000000
  0
LINE
  5
73
100
AcDbEntity
  8
A1
  6
CONTINUOUS
 62
7
100
AcDbLine
 10
192.6464015121269
 20
162.0901299765377
 30
0.000000000000000
 11
199.6464015121269
 21
162.0901299765377
 31
0.000000000000000
  0
LINE
  5
74
100
AcDbEntity
  8
A1
  6
CONTINUOUS
 62
7
100
AcDbLine
 10
199.6464015121269
 20
162.0901299765377
 30
0.000000000000000
 11
199.6464015121269
 21
153.0901299765377
 31
0.000000000000000
  0
LINE
  5
75
100
AcDbEntity
  8
A1
  6
CONTINUOUS
 62
7
100
AcDbLine
 10
199.6464015121269
 20
154.4278523163284
 30
0.000000000000000
 11
192.6464015121433
 21
154.4278523163230
 31
0.000000000000000
  0
LINE
  5
76
100
AcDbEntity
  8
A1
  6
CONTINUOUS
 62
7
100
AcDbLine
 10
192.6464015121269
 20
153.0901299765377
 30
0.000000000000000
 11
199.6464015121269
 21
153.0901299765377
 31
0.000000000000000
  0
LINE
  5
77
100
AcDbEntity
  8
A1
  6
CONTINUOUS
 62
7
100
AcDbLine
 10
234.1787287256150
 20
167.9779810508081
 30
0.000000000000000
 11
234.1787287256150
 21
147.2022789022603
 31
0.000000000000000
  0
LINE
  5
78
100
AcDbEntity
  8
A1
  6
CONTINUOUS
 62
7
100
AcDbLine
 10
173.1464015121269
 20
166.0901299765377
 30
0.000000000000000
 11
190.3464015121269
 21
166.0901299765377
 31
0.000000000000000
  0
LINE
  5
79
100
AcDbEntity
  8
A1
  6
CONTINUOUS
 62
7
100
AcDbLine
 10
173.1464015121269
 20
149.0901299765377
 30
0.000000000000000
 11
190.3464015121269
 21
149.0901299765377
 31
0.000000000000000
  0
LINE
  5
7A
100
AcDbEntity
  8
A1
  6
CONTINUOUS
 62
7
100
AcDbLine
 10
171.1464015121269
 20
170.0901299765376
 30
0.000000000000000
 11
173.1464015121269
 21
170.0901299765376
 31
0.000000000000000
  0
LINE
  5
7B
100
AcDbEntity
  8
A1
  6
CONTINUOUS
 62
7
100
AcDbLine
 10
220.9987287256149
 20
170.0901299765385
 30
0.000000000000000
 11
222.4987287256149
 21
170.0901299765385
 31
0.000000000000000
  0
LINE
  5
7C
100
AcDbEntity
  8
A1
  6
CONTINUOUS
 62
7
100
AcDbLine
 10
171.1464015121269
 20
145.0901299765377
 30
0.000000000000000
 11
173.1464015121269
 21
145.0901299765377
 31
0.000000000000000
  0
LINE
  5
7D
100
AcDbEntity
  8
A1
  6
CONTINUOUS
 62
7
100
AcDbLine
 10
220.9987287256149
 20
145.0901299765386
 30
0.000000000000000
 11
222.4987287256149
 21
145.0901299765386
 31
0.000000000000000
  0
LINE
  5
7E
100
AcDbEntity
  8
A1
  6
CONTINUOUS
 62
7
100
AcDbLine
 10
220.9987287256149
 20
170.0901299765385
 30
0.000000000000000
 11
220.9987287256149
 21
145.0901299765386
 31
0.000000000000000
  0
LINE
  5
7F
100
AcDbEntity
  8
A2
  6
CONTINUOUS
 62
4
100
AcDbLine
 10
199.6464015121270
 20
160.7524076366469
 30
0.000000000000000
 11
192.6464015121433
 21
154.4278523163230
 31
0.000000000000000
  0
LINE
  5
80
100
AcDbEntity
  8
A2
  6
CONTINUOUS
 62
4
100
AcDbLine
 10
192.6464015121434
 20
160.7524076366391
 30
0.000000000000000
 11
199.6464015121269
 21
154.4278523163284
 31
0.000000000000000
  0
LINE
  5
81
100
AcDbEntity
  8
A1
  6
CONTINUOUS
 62
7
100
AcDbLine
 10
86.81942821347292
 20
161.6901299765374
 30
0.000000000000000
 11
90.66060151212690
 21
161.6901299765374
 31
0.000000000000000
  0
LINE
  5
82
100
AcDbEntity
  8
A1
  6
CONTINUOUS
 62
7
100
AcDbLine
 10
87.10669458069333
 20
153.9901299765374
 30
0.000000000000000
 11
105.6606015121269
 21
153.9901299765374
 31
0.000000000000000
  0
LINE
  5
83
100
AcDbEntity
  8
A1
  6
CONTINUOUS
 62
7
100
AcDbLine
 10
90.66060151212690
 20
159.9901299765374
 30
0.000000000000000
 11
90.66060151212690
 21
161.6901299765374
 31
0.000000000000000
  0
LINE
  5
84
100
AcDbEntity
  8
A1
  6
CONTINUOUS
 62
7
100
AcDbLine
 10
90.66060151212690
 20
159.9901299765374
 30
0.000000000000000
 11
106.6606015121269
 21
159.9901299765374
 31
0.000000000000000
  0
LINE
  5
85
100
AcDbEntity
  8
A1
  6
CONTINUOUS
 62
7
100
AcDbLine
 10
105.6606015121270
 20
153.9901299765374
 30
0.000000000000000
 11
108.6606015121270
 21
157.5901299765375
 31
0.000000000000000
  0
LINE
  5
86
100
AcDbEntity
  8
A1
  6
CONTINUOUS
 62
7
100
AcDbLine
 10
106.6606015121270
 20
159.9901299765374
 30
0.000000000000000
 11
108.6606015121270
 21
157.5901299765375
 31
0.000000000000000
  0
CIRCLE
  5
87
100
AcDbEntity
  8
A1
  6
CONTINUOUS
 62
7
100
AcDbCircle
 10
70.16060151212699
 20
157.5901299765374
 30
0.000000000000000
 40
2.500000000000000
  0
ARC
  5
88
100
AcDbEntity
  8
A1
  6
CONTINUOUS
 62
7
100
AcDbCircle
 10
87.10669458069336
 20
151.4901299765374
 30
0.000000000000000
 40
2.500000000000000
100
AcDbArc
 50
89.99999999999993
 51
151.4169974900363
  0
ARC
  5
89
100
AcDbEntity
  8
A1
  6
CONTINUOUS
 62
7
100
AcDbCircle
 10
86.81942821347300
 20
164.1901299765374
 30
0.000000000000000
 40
2.500000000000000
100
AcDbArc
 50
211.1745527873238
 51
269.9999999999999
  0
LINE
  5
8A
100
AcDbEntity
  8
A1
  6
CONTINUOUS
 62
7
100
AcDbLine
 10
83.47287340689876
 20
154.5901299765374
 30
0.000000000000000
 11
83.47287340689877
 21
160.5901299765374
 31
0.000000000000000
  0
LINE
  5
8B
100
AcDbEntity
  8
A1
  6
CONTINUOUS
 62
7
100
AcDbLine
 10
83.47287340689880
 20
154.5901299765375
 30
0.000000000000000
 11
84.47287340689877
 21
154.0901299765375
 31
0.000000000000000
  0
LINE
  5
8C
100
AcDbEntity
  8
A1
  6
CONTINUOUS
 62
7
100
AcDbLine
 10
83.47287340689898
 20
160.5901299765374
 30
0.000000000000000
 11
84.47287340689890
 21
161.0901299765374
 31
0.000000000000000
  0
LINE
  5
8D
100
AcDbEntity
  8
A1
  6
CONTINUOUS
 62
7
100
AcDbLine
 10
88.66060151212690
 20
158.6901299765375
 30
0.000000000000000
 11
107.7439348454603
 21
158.6901299765375
 31
0.000000000000000
  0
LINE
  5
8E
100
AcDbEntity
  8
A1
  6
CONTINUOUS
 62
7
100
AcDbLine
 10
88.66060151212689
 20
157.0901299765375
 30
0.000000000000000
 11
108.2439348454603
 21
157.0901299765374
 31
0.000000000000000
  0
LINE
  5
8F
100
AcDbEntity
  8
A1
  6
CONTINUOUS
 62
7
100
AcDbLine
 10
88.66060151212690
 20
155.5901299765375
 30
0.000000000000000
 11
106.9939348454603
 21
155.5901299765374
 31
0.000000000000000
  0
LINE
  5
90
100
AcDbEntity
  8
A1
  6
CONTINUOUS
 62
7
100
AcDbLine
 10
88.66060151212690
 20
153.9901299765374
 30
0.000000000000000
 11
88.66060151212690
 21
155.5901299765375
 31
0.000000000000000
  0
LINE
  5
91
100
AcDbEntity
  8
A1
  6
CONTINUOUS
 62
7
100
AcDbLine
 10
88.66060151212690
 20
157.0901299765375
 30
0.000000000000000
 11
88.66060151212690
 21
158.6901299765375
 31
0.000000000000000
  0
ARC
  5
92
100
AcDbEntity
  8
A2
  6
CONTINUOUS
 62
4
100
AcDbCircle
 10
77.66060151212693
 20
153.5901781516329
 30
0.000000000000000
 40
1.718119093483294
100
AcDbArc
 50
215.5376777920008
 51
256.5374393917330
  0
ARC
  5
93
100
AcDbEntity
  8
A2
  6
CONTINUOUS
 62
4
100
AcDbCircle
 10
83.26053406698773
 20
157.5901299765374
 30
0.000000000000000
 40
8.599896423544767
100
AcDbArc
 50
144.4623222079990
 51
215.5376777920007
  0
ARC
  5
94
100
AcDbEntity
  8
A2
  6
CONTINUOUS
 62
4
100
AcDbCircle
 10
77.66060151212699
 20
161.5900818014420
 30
0.000000000000000
 40
1.718119093483296
100
AcDbArc
 50
62.24965455462803
 51
144.4623222079991
  0
ARC
  5
95
100
AcDbEntity
  8
A2
  6
CONTINUOUS
 62
4
100
AcDbCircle
 10
77.66060151212693
 20
153.5901781516329
 30
0.000000000000000
 40
1.718119093483294
100
AcDbArc
 50
269.9999999999999
 51
324.4623222080519
  0
ARC
  5
96
100
AcDbEntity
  8
A2
  6
CONTINUOUS
 62
4
100
AcDbCircle
 10
72.06066895725516
 20
157.5901299765374
 30
0.000000000000000
 40
8.599896423544767
100
AcDbArc
 50
324.4623222080519
 51
395.5376777919478
  0
ARC
  5
97
100
AcDbEntity
  8
A2
  6
CONTINUOUS
 62
4
100
AcDbCircle
 10
77.66060151212699
 20
161.5900818014420
 30
0.000000000000000
 40
1.718119093483296
100
AcDbArc
 50
35.53767779194781
 51
45.69883927961708
  0
LINE
  5
98
100
AcDbEntity
  8
A2
  6
CONTINUOUS
 62
4
100
AcDbLine
 10
75.83214978601421
 20
153.2568488328908
 30
0.000000000000000
 11
78.70588801311001
 21
153.2568488328908
 31
0.000000000000000
  0
LINE
  5
99
100
AcDbEntity
  8
A2
  6
CONTINUOUS
 62
4
100
AcDbLine
 10
78.89058588488439
 20
153.9235074703749
 30
0.000000000000000
 11
76.43061713935852
 21
153.9235074703750
 31
0.000000000000000
  0
ARC
  5
9A
100
AcDbEntity
  8
A2
  6
CONTINUOUS
 62
4
100
AcDbCircle
 10
76.43061713935853
 20
154.2568367891169
 30
0.000000000000000
 40
0.3333293187420452
100
AcDbArc
 50
206.0143659996365
 51
269.9999999999999
  0
ARC
  5
9B
100
AcDbEntity
  8
A2
  6
CONTINUOUS
 62
4
100
AcDbCircle
 10
83.26053406698773
 20
157.5901299765374
 30
0.000000000000000
 40
7.933237786060675
100
AcDbArc
 50
202.9439535565377
 51
206.0143659996365
  0
ARC
  5
9C
100
AcDbEntity
  8
A2
  6
CONTINUOUS
 62
4
100
AcDbCircle
 10
76.01631320528654
 20
154.5235002441106
 30
0.000000000000000
 40
0.06666586374840902
100
AcDbArc
 50
89.99999999999993
 51
202.9439535565375
  0
LINE
  5
9D
100
AcDbEntity
  8
A2
  6
CONTINUOUS
 62
4
100
AcDbLine
 10
76.01631320528651
 20
154.5901661078590
 30
0.000000000000000
 11
79.30488981895643
 21
154.5901661078590
 31
0.000000000000000
  0
ARC
  5
9E
100
AcDbEntity
  8
A2
  6
CONTINUOUS
 62
4
100
AcDbCircle
 10
79.30488981895647
 20
154.5235002441106
 30
0.000000000000000
 40
0.06666586374840902
100
AcDbArc
 50
337.0560464434623
 51
449.9999999999999
  0
ARC
  5
9F
100
AcDbEntity
  8
A2
  6
CONTINUOUS
 62
4
100
AcDbCircle
 10
72.06066895725516
 20
157.5901299765374
 30
0.000000000000000
 40
7.933237786060675
100
AcDbArc
 50
333.9856340003633
 51
337.0560464434621
  0
ARC
  5
A0
100
AcDbEntity
  8
A2
  6
CONTINUOUS
 62
4
100
AcDbCircle
 10
78.89058588488436
 20
154.2568367891169
 30
0.000000000000000
 40
0.3333293187420452
100
AcDbArc
 50
269.9999999999999
 51
333.9856340003633
  0
LINE
  5
A1
100
AcDbEntity
  8
A2
  6
CONTINUOUS
 62
4
100
AcDbLine
 10
76.86061114714610
 20
155.9234833828272
 30
0.000000000000000
 11
75.58729604554406
 21
155.9234833828272
 31
0.000000000000000
  0
ARC
  5
A2
100
AcDbEntity
  8
A2
  6
CONTINUOUS
 62
4
100
AcDbCircle
 10
75.58729604554404
 20
155.8568175190788
 30
0.000000000000000
 40
0.06666586374840902
100
AcDbArc
 50
89.99999999999993
 51
192.7289438731226
  0
ARC
  5
A3
100
AcDbEntity
  8
A2
  6
CONTINUOUS
 62
4
100
AcDbCircle
 10
83.26053406698773
 20
157.5901299765374
 30
0.000000000000000
 40
7.933237786060675
100
AcDbArc
 50
192.7289438731225
 51
193.2681189705561
  0
ARC
  5
A4
100
AcDbEntity
  8
A2
  6
CONTINUOUS
 62
4
100
AcDbCircle
 10
83.26053406698773
 20
157.5901299765374
 30
0.000000000000000
 40
7.933237786060675
100
AcDbArc
 50
193.2681189705562
 51
195.2575232904563
  0
ARC
  5
A5
100
AcDbEntity
  8
A2
  6
CONTINUOUS
 62
4
100
AcDbCircle
 10
75.92850126146712
 20
155.5901540640851
 30
0.000000000000000
 40
0.3333293187420452
100
AcDbArc
 50
195.2575232904563
 51
269.9999999999999
  0
LINE
  5
A6
100
AcDbEntity
  8
A2
  6
CONTINUOUS
 62
4
100
AcDbLine
 10
75.92850126146716
 20
155.2568247453431
 30
0.000000000000000
 11
79.39270176277586
 21
155.2568247453431
 31
0.000000000000000
  0
ARC
  5
A7
100
AcDbEntity
  8
A2
  6
CONTINUOUS
 62
4
100
AcDbCircle
 10
79.39270176277583
 20
155.5901540640851
 30
0.000000000000000
 40
0.3333293187420452
100
AcDbArc
 50
269.9999999999999
 51
344.7424767095436
  0
ARC
  5
A8
100
AcDbEntity
  8
A2
  6
CONTINUOUS
 62
4
100
AcDbCircle
 10
72.06066895725516
 20
157.5901299765374
 30
0.000000000000000
 40
7.933237786060675
100
AcDbArc
 50
344.7424767095436
 51
344.7937121239419
  0
ARC
  5
A9
100
AcDbEntity
  8
A2
  6
CONTINUOUS
 62
4
100
AcDbCircle
 10
72.06066895725516
 20
157.5901299765374
 30
0.000000000000000
 40
7.933237786060675
100
AcDbArc
 50
344.7937121239419
 51
347.2710561268773
  0
ARC
  5
AA
100
AcDbEntity
  8
A2
  6
CONTINUOUS
 62
4
100
AcDbCircle
 10
79.73390697869891
 20
155.8568175190788
 30
0.000000000000000
 40
0.06666586374840902
100
AcDbArc
 50
347.2710561268774
 51
449.9999999999999
  0
LINE
  5
AB
100
AcDbEntity
  8
A2
  6
CONTINUOUS
 62
4
100
AcDbLine
 10
79.73390697869893
 20
155.9234833828272
 30
0.000000000000000
 11
78.46059187710782
 21
155.9234833828272
 31
0.000000000000000
  0
LINE
  5
AC
100
AcDbEntity
  8
A2
  6
CONTINUOUS
 62
4
100
AcDbLine
 10
75.39057308502709
 20
156.5901420203113
 30
0.000000000000000
 11
79.93062993921569
 21
156.5901420203113
 31
0.000000000000000
  0
LINE
  5
AD
100
AcDbEntity
  8
A2
  6
CONTINUOUS
 62
4
100
AcDbLine
 10
75.33430209110873
 20
157.2568006577955
 30
0.000000000000000
 11
79.98690093313411
 21
157.2568006577955
 31
0.000000000000000
  0
LINE
  5
AE
100
AcDbEntity
  8
A2
  6
CONTINUOUS
 62
4
100
AcDbLine
 10
77.66060151212693
 20
157.2568006577955
 30
0.000000000000000
 11
77.66060151212693
 21
156.5901420203113
 31
0.000000000000000
  0
LINE
  5
AF
100
AcDbEntity
  8
A2
  6
CONTINUOUS
 62
4
100
AcDbLine
 10
75.33430209110874
 20
157.9234592952795
 30
0.000000000000000
 11
79.98690093313411
 21
157.9234592952795
 31
0.000000000000000
  0
LINE
  5
B0
100
AcDbEntity
  8
A2
  6
CONTINUOUS
 62
4
100
AcDbLine
 10
76.86061114714610
 20
159.2567765702477
 30
0.000000000000000
 11
75.77849732851253
 21
159.2567765702477
 31
0.000000000000000
  0
ARC
  5
B1
100
AcDbEntity
  8
A2
  6
CONTINUOUS
 62
4
100
AcDbCircle
 10
75.77849732851254
 20
158.9234472515056
 30
0.000000000000000
 40
0.3333293187420452
100
AcDbArc
 50
89.99999999999993
 51
169.8958172838748
  0
ARC
  5
B2
100
AcDbEntity
  8
A2
  6
CONTINUOUS
 62
4
100
AcDbCircle
 10
83.26053406698773
 20
157.5901299765374
 30
0.000000000000000
 40
7.933237786060675
100
AcDbArc
 50
169.8958172838749
 51
172.2070756645775
  0
ARC
  5
B3
100
AcDbEntity
  8
A2
  6
CONTINUOUS
 62
4
100
AcDbCircle
 10
75.46661313864595
 20
158.6567837965119
 30
0.000000000000000
 40
0.06666586374840902
100
AcDbArc
 50
172.2070756645772
 51
269.9999999999999
  0
LINE
  5
B4
100
AcDbEntity
  8
A2
  6
CONTINUOUS
 62
4
100
AcDbLine
 10
75.46661313864594
 20
158.5901179327636
 30
0.000000000000000
 11
79.85458988559691
 21
158.5901179327636
 31
0.000000000000000
  0
ARC
  5
B5
100
AcDbEntity
  8
A2
  6
CONTINUOUS
 62
4
100
AcDbCircle
 10
79.85458988559699
 20
158.6567837965119
 30
0.000000000000000
 40
0.06666586374840902
100
AcDbArc
 50
269.9999999999999
 51
367.7929243354226
  0
ARC
  5
B6
100
AcDbEntity
  8
A2
  6
CONTINUOUS
 62
4
100
AcDbCircle
 10
72.06066895725516
 20
157.5901299765374
 30
0.000000000000000
 40
7.933237786060675
100
AcDbArc
 50
7.792924335422247
 51
10.10418271612492
  0
ARC
  5
B7
100
AcDbEntity
  8
A2
  6
CONTINUOUS
 62
4
100
AcDbCircle
 10
79.54270569573029
 20
158.9234472515056
 30
0.000000000000000
 40
0.3333293187420452
100
AcDbArc
 50
10.10418271612492
 51
89.99999999999990
  0
LINE
  5
B8
100
AcDbEntity
  8
A2
  6
CONTINUOUS
 62
4
100
AcDbLine
 10
79.54270569573026
 20
159.2567765702477
 30
0.000000000000000
 11
77.66060151212693
 21
159.2567765702477
 31
0.000000000000000
  0
LINE
  5
B9
100
AcDbEntity
  8
A2
  6
CONTINUOUS
 62
4
100
AcDbLine
 10
77.66060151212693
 20
159.2567765702477
 30
0.000000000000000
 11
77.66060151212693
 21
158.9234472515057
 31
0.000000000000000
  0
LINE
  5
BA
100
AcDbEntity
  8
A2
  6
CONTINUOUS
 62
4
100
AcDbLine
 10
75.46917960189373
 20
159.9234352077318
 30
0.000000000000000
 11
79.64301348043938
 21
159.9234352077318
 31
0.000000000000000
  0
LINE
  5
BB
100
AcDbEntity
  8
A2
  6
CONTINUOUS
 62
4
100
AcDbLine
 10
75.78325084661529
 20
160.5900938452159
 30
0.000000000000000
 11
77.32727219338486
 21
160.5900938452159
 31
0.000000000000000
  0
ARC
  5
BC
100
AcDbEntity
  8
A2
  6
CONTINUOUS
 62
4
100
AcDbCircle
 10
77.32727219338486
 20
160.9234231639579
 30
0.000000000000000
 40
0.3333293187420467
100
AcDbArc
 50
269.9999999999999
 51
449.9999999999999
  0
LINE
  5
BD
100
AcDbEntity
  8
A2
  6
CONTINUOUS
 62
4
100
AcDbLine
 10
77.32727219338486
 20
161.2567524827000
 30
0.000000000000000
 11
75.90308686011402
 21
161.2567524827000
 31
0.000000000000000
  0
LINE
  5
BE
100
AcDbEntity
  8
A2
  6
CONTINUOUS
 62
4
100
AcDbLine
 10
77.66060151212693
 20
160.9234231639579
 30
0.000000000000000
 11
79.25965626776457
 21
160.9234231639579
 31
0.000000000000000
  0
LINE
  5
BF
100
AcDbEntity
  8
A2
  6
CONTINUOUS
 62
4
100
AcDbLine
 10
78.90813051426380
 20
161.5961918826327
 30
0.000000000000000
 11
76.09753077585910
 21
162.3492898127878
 31
0.000000000000000
  0
LINE
  5
C0
100
AcDbEntity
  8
A2
  6
CONTINUOUS
 62
4
100
AcDbLine
 10
77.66060151212695
 20
163.3082008949252
 30
0.000000000000000
 11
77.66060151212695
 21
161.9304662712908
 31
0.000000000000000
  0
LINE
  5
C1
100
AcDbEntity
  8
A4
  6
CENTER
 62
1
100
AcDbLine
 10
110.1606015121270
 20
157.5901299765374
 30
0.000000000000000
 11
80.66056538079987
 21
157.5901299765375
 31
0.000000000000000
  0
LINE
  5
C2
100
AcDbEntity
  8
A4
  6
CENTER
 62
1
100
AcDbLine
 10
74.66063764344295
 20
157.5901299765375
 30
0.000000000000000
 11
64.16060151212700
 21
157.5901299765375
 31
0.000000000000000
  0
ARC
  5
C3
100
AcDbEntity
  8
A1
  6
CONTINUOUS
 62
7
100
AcDbCircle
 10
75.91060151212699
 20
157.5901299765374
 30
0.000000000000000
 40
9.250000000000000
100
AcDbArc
 50
22.23327179829981
 51
337.7667282017001
  0
ARC
  5
C4
100
AcDbEntity
  8
A1
  6
CONTINUOUS
 62
7
100
AcDbCircle
 10
75.91060151212699
 20
157.5901299765374
 30
0.000000000000000
 40
10.25000000000000
100
AcDbArc
 50
31.17455278732380
 51
331.4169974900360
  0
LINE
  5
C5
100
AcDbEntity
  8
A4
  6
CENTER
 62
1
100
AcDbLine
 10
70.16060151212687
 20
153.5901299765374
 30
0.000000000000000
 11
70.16060151212687
 21
161.5901299765374
 31
0.000000000000000
  0
LINE
  5
C6
100
AcDbEntity
  8
A1
  6
CONTINUOUS
 62
7
100
AcDbLine
 10
190.3464015121269
 20
78.84711780649099
 30
0.000000000000000
 11
192.6464015121270
 21
78.84711780649099
 31
0.000000000000000
  0
LINE
  5
C7
100
AcDbEntity
  8
A1
  6
CONTINUOUS
 62
7
100
AcDbLine
 10
167.1464015121269
 20
82.09711780649104
 30
0.000000000000000
 11
167.1464015121269
 21
63.09711780649101
 31
0.000000000000000
  0
LINE
  5
C8
100
AcDbEntity
  8
A1
  6
CONTINUOUS
 62
7
100
AcDbLine
 10
173.1464015121269
 20
85.09711780649099
 30
0.000000000000000
 11
173.1464015121269
 21
60.09711780649096
 31
0.000000000000000
  0
LINE
  5
C9
100
AcDbEntity
  8
A1
  6
CONTINUOUS
 62
7
100
AcDbLine
 10
171.1464015121269
 20
85.09711780649099
 30
0.000000000000000
 11
171.1464015121269
 21
60.09711780649096
 31
0.000000000000000
  0
LINE
  5
CA
100
AcDbEntity
  8
A1
  6
CONTINUOUS
 62
7
100
AcDbLine
 10
167.1464015121269
 20
82.09711780649101
 30
0.000000000000000
 11
171.1464015121269
 21
85.09711780649099
 31
0.000000000000000
  0
LINE
  5
CB
100
AcDbEntity
  8
A1
  6
CONTINUOUS
 62
7
100
AcDbLine
 10
167.1464015121269
 20
63.09711780649101
 30
0.000000000000000
 11
171.1464015121269
 21
60.09711780649097
 31
0.000000000000000
  0
LINE
  5
CC
100
AcDbEntity
  8
A1
  6
CONTINUOUS
 62
7
100
AcDbLine
 10
173.1464015121269
 20
85.09711780649099
 30
0.000000000000000
 11
173.1464015121269
 21
60.09711780649096
 31
0.000000000000000
  0
LINE
  5
CD
100
AcDbEntity
  8
A1
  6
CONTINUOUS
 62
7
100
AcDbLine
 10
171.1464015121268
 20
85.09711780649096
 30
0.000000000000000
 11
173.1464015121269
 21
85.09711780649097
 31
0.000000000000000
  0
LINE
  5
CE
100
AcDbEntity
  8
A1
  6
CONTINUOUS
 62
7
100
AcDbLine
 10
171.1464015121269
 20
60.09711780649096
 30
0.000000000000000
 11
173.1464015121269
 21
60.09711780649096
 31
0.000000000000000
  0
LINE
  5
CF
100
AcDbEntity
  8
A1
  6
CONTINUOUS
 62
7
100
AcDbLine
 10
192.6464015121269
 20
64.19711780649092
 30
0.000000000000000
 11
192.6464015121269
 21
78.84711780649099
 31
0.000000000000000
  0
LINE
  5
D0
100
AcDbEntity
  8
A1
  6
CONTINUOUS
 62
7
100
AcDbLine
 10
234.1787287256399
 20
82.98496888076487
 30
0.000000000000000
 11
233.0908018940379
 21
85.09711780649083
 31
0.000000000000000
  0
LINE
  5
D1
100
AcDbEntity
  8
A1
  6
CONTINUOUS
 62
7
100
AcDbLine
 10
233.0908018940380
 20
85.09711780649081
 30
0.000000000000000
 11
231.6684015121268
 21
84.36446703460922
 31
0.000000000000000
  0
LINE
  5
D2
100
AcDbEntity
  8
A1
  6
CONTINUOUS
 62
7
100
AcDbLine
 10
231.6787287256400
 20
60.82444923155006
 30
0.000000000000000
 11
231.6787287256400
 21
84.36978638143171
 31
0.000000000000000
  0
LINE
  5
D3
100
AcDbEntity
  8
A1
  6
CONTINUOUS
 62
7
100
AcDbLine
 10
233.0908018940380
 20
60.09711780649101
 30
0.000000000000000
 11
233.0908018940380
 21
85.09711780649081
 31
0.000000000000000
  0
LINE
  5
D4
100
AcDbEntity
  8
A1
  6
CONTINUOUS
 62
7
100
AcDbLine
 10
233.0908018940382
 20
60.09711780649107
 30
0.000000000000000
 11
231.6684015121269
 21
60.82976857837265
 31
0.000000000000000
  0
LINE
  5
D5
100
AcDbEntity
  8
A1
  6
CONTINUOUS
 62
7
100
AcDbLine
 10
234.1787287256401
 20
62.20926673221696
 30
0.000000000000000
 11
233.0908018940380
 21
60.09711780649100
 31
0.000000000000000
  0
LINE
  5
D6
100
AcDbEntity
  8
A1
  6
CONTINUOUS
 62
7
100
AcDbLine
 10
190.3464015121269
 20
81.09711780645534
 30
0.000000000000000
 11
190.3464015121269
 21
64.09711780645520
 31
0.000000000000000
  0
LINE
  5
D7
100
AcDbEntity
  8
A1
  6
CONTINUOUS
 62
7
100
AcDbLine
 10
190.3464015121270
 20
64.19711780649092
 30
0.000000000000000
 11
192.6464015121269
 21
64.19711780649092
 31
0.000000000000000
  0
LINE
  5
D8
100
AcDbEntity
  8
A1
  6
CONTINUOUS
 62
7
100
AcDbLine
 10
189.3464015121269
 20
82.09711780645482
 30
0.000000000000000
 11
190.3464015121268
 21
81.09711780645524
 31
0.000000000000000
  0
LINE
  5
D9
100
AcDbEntity
  8
A1
  6
CONTINUOUS
 62
7
100
AcDbLine
 10
189.3464015121364
 20
76.83975849359753
 30
0.000000000000000
 11
190.3464015121364
 21
75.83975849359793
 31
0.000000000000000
  0
LINE
  5
DA
100
AcDbEntity
  8
A1
  6
CONTINUOUS
 62
7
100
AcDbLine
 10
189.3464015121269
 20
82.09711780645485
 30
0.000000000000000
 11
189.3464015121364
 21
76.83975849359753
 31
0.000000000000000
  0
LINE
  5
DB
100
AcDbEntity
  8
A1
  6
CONTINUOUS
 62
7
100
AcDbLine
 10
192.6464015121269
 20
76.95178628486036
 30
0.000000000000000
 11
190.3464015121269
 21
76.95178628486036
 31
0.000000000000000
  0
LINE
  5
DC
100
AcDbEntity
  8
A1
  6
CONTINUOUS
 62
7
100
AcDbLine
 10
190.3464015121269
 20
64.09711780645522
 30
0.000000000000000
 11
189.3464015121269
 21
63.09711780645479
 31
0.000000000000000
  0
LINE
  5
DD
100
AcDbEntity
  8
A1
  6
CONTINUOUS
 62
7
100
AcDbLine
 10
190.3464015121516
 20
69.35447711937371
 30
0.000000000000000
 11
189.3464015121516
 21
68.35447711937329
 31
0.000000000000000
  0
LINE
  5
DE
100
AcDbEntity
  8
A1
  6
CONTINUOUS
 62
7
100
AcDbLine
 10
189.3464015121517
 20
68.35447711937336
 30
0.000000000000000
 11
189.3464015121611
 21
63.09711780646125
 31
0.000000000000000
  0
LINE
  5
DF
100
AcDbEntity
  8
A1
  6
CONTINUOUS
 62
7
100
AcDbLine
 10
246.3779211398770
 20
85.29882372866274
 30
0.000000000000000
 11
243.3604015121268
 21
85.29882372866274
 31
0.000000000000000
  0
LINE
  5
E0
100
AcDbEntity
  8
A1
  6
CONTINUOUS
 62
7
100
AcDbLine
 10
246.3779211398771
 20
59.89541188431921
 30
0.000000000000000
 11
243.3604015121268
 21
59.89541188431921
 31
0.000000000000000
  0
LINE
  5
E1
100
AcDbEntity
  8
A1
  6
CONTINUOUS
 62
7
100
AcDbLine
 10
246.3779211398765
 20
78.94797076757686
 30
0.000000000000000
 11
243.3604015121268
 21
78.94797076757686
 31
0.000000000000000
  0
LINE
  5
E2
100
AcDbEntity
  8
A1
  6
CONTINUOUS
 62
7
100
AcDbLine
 10
246.3779211398765
 20
66.24626484540502
 30
0.000000000000000
 11
243.3604015121268
 21
66.24626484540502
 31
0.000000000000000
  0
LINE
  5
E3
100
AcDbEntity
  8
A1
  6
CONTINUOUS
 62
7
100
AcDbLine
 10
243.3604015121268
 20
85.29882372866274
 30
0.000000000000000
 11
243.3604015121268
 21
59.89541188431921
 31
0.000000000000000
  0
LINE
  5
E4
100
AcDbEntity
  8
A1
  6
CONTINUOUS
 62
7
100
AcDbLine
 10
247.3604015121268
 20
83.59711780649099
 30
0.000000000000000
 11
247.3604015121268
 21
61.59711780649079
 31
0.000000000000000
  0
LINE
  5
E5
100
AcDbEntity
  8
A1
  6
CONTINUOUS
 62
7
100
AcDbLine
 10
247.3604015121268
 20
61.59711780649084
 30
0.000000000000000
 11
246.3779211398765
 21
59.89541188431835
 31
0.000000000000000
  0
ARC
  5
E6
100
AcDbEntity
  8
A1
  6
CONTINUOUS
 62
7
100
AcDbCircle
 10
226.3428818844332
 20
72.59711780649093
 30
0.000000000000000
 40
21.01751962769367
100
AcDbArc
 50
342.4120462259552
 51
377.5879537740447
  0
ARC
  5
E7
100
AcDbEntity
  8
A1
  6
CONTINUOUS
 62
7
100
AcDbCircle
 10
235.8691613260328
 20
61.59711780649067
 30
0.000000000000000
 40
11.49124018609405
100
AcDbArc
 50
0.000000000000000
 51
23.86492541611641
  0
LINE
  5
E8
100
AcDbEntity
  8
A1
  6
CONTINUOUS
 62
7
100
AcDbLine
 10
247.3604015121269
 20
83.59711780649099
 30
0.000000000000000
 11
246.3779211398766
 21
85.29882372866351
 31
0.000000000000000
  0
ARC
  5
E9
100
AcDbEntity
  8
A1
  6
CONTINUOUS
 62
7
100
AcDbCircle
 10
235.8691613260328
 20
83.59711780649116
 30
0.000000000000000
 40
11.49124018609405
100
AcDbArc
 50
336.1350745838836
 51
360.0000000000000
  0
LINE
  5
EA
100
AcDbEntity
  8
A4
  6
CENTER
 62
1
100
AcDbLine
 10
165.6464015121269
 20
72.59711780649099
 30
0.000000000000000
 11
201.1464015121269
 21
72.59711780649099
 31
0.000000000000000
  0
LINE
  5
EB
100
AcDbEntity
  8
A1
  6
CONTINUOUS
 62
7
100
AcDbLine
 10
276.3604015121268
 20
80.59711780649099
 30
0.000000000000000
 11
276.3604015121268
 21
64.59711780649096
 31
0.000000000000000
  0
LINE
  5
EC
100
AcDbEntity
  8
A1
  6
CONTINUOUS
 62
7
100
AcDbLine
 10
276.3604015121268
 20
80.59711780649099
 30
0.000000000000000
 11
280.8604015121268
 21
80.59711780649099
 31
0.000000000000000
  0
LINE
  5
ED
100
AcDbEntity
  8
A1
  6
CONTINUOUS
 62
7
100
AcDbLine
 10
276.3604015121268
 20
64.59711780649096
 30
0.000000000000000
 11
280.8604015121268
 21
64.59711780649096
 31
0.000000000000000
  0
LINE
  5
EE
100
AcDbEntity
  8
A1
  6
CONTINUOUS
 62
7
100
AcDbLine
 10
282.8604015121268
 20
78.59711780649099
 30
0.000000000000000
 11
282.8604015121268
 21
66.59711780649096
 31
0.000000000000000
  0
ARC
  5
EF
100
AcDbEntity
  8
A1
  6
CONTINUOUS
 62
7
100
AcDbCircle
 10
280.8604015121268
 20
78.59711780649099
 30
0.000000000000000
 40
2.000000000000000
100
AcDbArc
 50
0.000000000000000
 51
90.00000000000000
  0
ARC
  5
F0
100
AcDbEntity
  8
A1
  6
CONTINUOUS
 62
7
100
AcDbCircle
 10
280.8604015121268
 20
66.59711780649096
 30
0.000000000000000
 40
2.000000000000000
100
AcDbArc
 50
270.0000000000000
 51
360.0000000000000
  0
LINE
  5
F1
100
AcDbEntity
  8
A1
  6
CONTINUOUS
 62
7
100
AcDbLine
 10
283.7604015120814
 20
78.59711780649150
 30
0.000000000000000
 11
283.7604015120814
 21
66.59711780649153
 31
0.000000000000000
  0
LINE
  5
F2
100
AcDbEntity
  8
A1
  6
CONTINUOUS
 62
7
100
AcDbLine
 10
283.3604015120815
 20
78.59711780649150
 30
0.000000000000000
 11
283.3604015120815
 21
66.59711780649153
 31
0.000000000000000
  0
LINE
  5
F3
100
AcDbEntity
  8
A1
  6
CONTINUOUS
 62
7
100
AcDbLine
 10
283.3604015120813
 20
78.59711780649141
 30
0.000000000000000
 11
282.8604015121267
 21
78.09711780653706
 31
0.000000000000000
  0
LINE
  5
F4
100
AcDbEntity
  8
A1
  6
CONTINUOUS
 62
7
100
AcDbLine
 10
283.3604015120816
 20
66.59711780649155
 30
0.000000000000000
 11
282.8604015121269
 21
67.09711780644503
 31
0.000000000000000
  0
LINE
  5
F5
100
AcDbEntity
  8
A1
  6
CONTINUOUS
 62
7
100
AcDbLine
 10
283.3604015120815
 20
66.59711780649153
 30
0.000000000000000
 11
283.7604015120814
 21
66.59711780649153
 31
0.000000000000000
  0
LINE
  5
F6
100
AcDbEntity
  8
A1
  6
CONTINUOUS
 62
7
100
AcDbLine
 10
283.3604015120815
 20
78.59711780649150
 30
0.000000000000000
 11
283.7604015120814
 21
78.59711780649150
 31
0.000000000000000
  0
LINE
  5
F7
100
AcDbEntity
  8
A4
  6
CENTER
 62
1
100
AcDbLine
 10
219.4987287256149
 20
72.59711780649099
 30
0.000000000000000
 11
285.2604015120814
 21
72.59711780649099
 31
0.000000000000000
  0
LINE
  5
F8
100
AcDbEntity
  8
A1
  6
CONTINUOUS
 62
7
100
AcDbLine
 10
199.6464015121269
 20
69.43484014628173
 30
0.000000000000000
 11
192.6464015121433
 21
69.43484014627636
 31
0.000000000000000
  0
LINE
  5
F9
100
AcDbEntity
  8
A1
  6
CONTINUOUS
 62
7
100
AcDbLine
 10
199.6464015121269
 20
77.09711780649099
 30
0.000000000000000
 11
199.6464015121269
 21
68.09711780649099
 31
0.000000000000000
  0
LINE
  5
FA
100
AcDbEntity
  8
A1
  6
CONTINUOUS
 62
7
100
AcDbLine
 10
192.6464015121269
 20
68.09711780649099
 30
0.000000000000000
 11
199.6464015121269
 21
68.09711780649099
 31
0.000000000000000
  0
LINE
  5
FB
100
AcDbEntity
  8
A1
  6
CONTINUOUS
 62
7
100
AcDbLine
 10
192.6464015121269
 20
77.09711780649099
 30
0.000000000000000
 11
199.6464015121269
 21
77.09711780649099
 31
0.000000000000000
  0
LINE
  5
FC
100
AcDbEntity
  8
A1
  6
CONTINUOUS
 62
7
100
AcDbLine
 10
199.6464015121270
 20
75.75939546660014
 30
0.000000000000000
 11
192.6464015121434
 21
75.75939546659238
 31
0.000000000000000
  0
LINE
  5
FD
100
AcDbEntity
  8
A1
  6
CONTINUOUS
 62
7
100
AcDbLine
 10
173.1464015121269
 20
82.09711780649099
 30
0.000000000000000
 11
189.3464015121269
 21
82.09711780649099
 31
0.000000000000000
  0
LINE
  5
FE
100
AcDbEntity
  8
A2
  6
CONTINUOUS
 62
4
100
AcDbLine
 10
173.3958012848848
 20
81.59711780649099
 30
0.000000000000000
 11
189.8464015120910
 21
81.59711780649099
 31
0.000000000000000
  0
LINE
  5
FF
100
AcDbEntity
  8
A1
  6
CONTINUOUS
 62
7
100
AcDbLine
 10
173.1464015121269
 20
76.83975849359227
 30
0.000000000000000
 11
189.3464015121363
 21
76.83975849359754
 31
0.000000000000000
  0
LINE
  5
100
100
AcDbEntity
  8
A2
  6
CONTINUOUS
 62
4
100
AcDbLine
 10
173.1464015120331
 20
68.35447711937402
 30
0.000000000000000
 11
189.3464015121365
 21
76.83975849359753
 31
0.000000000000000
  0
LINE
  5
101
100
AcDbEntity
  8
A2
  6
CONTINUOUS
 62
4
100
AcDbLine
 10
173.1464015120328
 20
76.83975849359229
 30
0.000000000000000
 11
189.3464015121517
 21
68.35447711937331
 31
0.000000000000000
  0
LINE
  5
102
100
AcDbEntity
  8
A1
  6
CONTINUOUS
 62
7
100
AcDbLine
 10
173.1464015121269
 20
68.35447711937401
 30
0.000000000000000
 11
189.3464015121517
 21
68.35447711937330
 31
0.000000000000000
  0
LINE
  5
103
100
AcDbEntity
  8
A2
  6
CONTINUOUS
 62
4
100
AcDbLine
 10
173.3958012848967
 20
63.59711780649096
 30
0.000000000000000
 11
189.8464015121629
 21
63.59711780649096
 31
0.000000000000000
  0
LINE
  5
104
100
AcDbEntity
  8
A1
  6
CONTINUOUS
 62
7
100
AcDbLine
 10
173.1464015121269
 20
63.09711780649096
 30
0.000000000000000
 11
189.3464015121631
 21
63.09711780649096
 31
0.000000000000000
  0
LINE
  5
105
100
AcDbEntity
  8
A1
  6
CONTINUOUS
 62
7
100
AcDbLine
 10
234.1787287256400
 20
82.98496888076488
 30
0.000000000000000
 11
234.1787287256400
 21
62.20926673221700
 31
0.000000000000000
  0
LINE
  5
106
100
AcDbEntity
  8
A1
  6
CONTINUOUS
 62
7
100
AcDbLine
 10
222.4987287256149
 20
85.09711780649087
 30
0.000000000000000
 11
222.4987287256149
 21
60.09711780649096
 31
0.000000000000000
  0
LINE
  5
107
100
AcDbEntity
  8
A1
  6
CONTINUOUS
 62
7
100
AcDbLine
 10
220.9987287256149
 20
85.09711780649089
 30
0.000000000000000
 11
222.4987287256149
 21
85.09711780649091
 31
0.000000000000000
  0
LINE
  5
108
100
AcDbEntity
  8
A1
  6
CONTINUOUS
 62
7
100
AcDbLine
 10
220.9987287256149
 20
60.09711780649096
 30
0.000000000000000
 11
222.4987287256149
 21
60.09711780649096
 31
0.000000000000000
  0
LINE
  5
109
100
AcDbEntity
  8
A1
  6
CONTINUOUS
 62
7
100
AcDbLine
 10
220.9987287256149
 20
85.09711780649086
 30
0.000000000000000
 11
220.9987287256149
 21
60.09711780649094
 31
0.000000000000000
  0
LINE
  5
10A
100
AcDbEntity
  8
A2
  6
CONTINUOUS
 62
4
100
AcDbLine
 10
173.3958012848968
 20
63.59711780649098
 30
0.000000000000000
 11
173.1464015121269
 21
63.09711780649099
 31
0.000000000000000
  0
LINE
  5
10B
100
AcDbEntity
  8
A2
  6
CONTINUOUS
 62
4
100
AcDbLine
 10
173.3958012848848
 20
81.59711780649099
 30
0.000000000000000
 11
173.1464015121269
 21
82.09711780649099
 31
0.000000000000000
  0
LINE
  5
10C
100
AcDbEntity
  8
A1
  6
CONTINUOUS
 62
7
100
AcDbLine
 10
173.3958012848936
 20
68.35447711937402
 30
0.000000000000000
 11
173.3958012848970
 21
63.09711780649909
 31
0.000000000000000
  0
LINE
  5
10D
100
AcDbEntity
  8
A1
  6
CONTINUOUS
 62
7
100
AcDbLine
 10
173.3958012848845
 20
82.09711780649101
 30
0.000000000000000
 11
173.3958012848879
 21
76.83975849359236
 31
0.000000000000000
  0
LINE
  5
10E
100
AcDbEntity
  8
A2
  6
CONTINUOUS
 62
4
100
AcDbLine
 10
192.6464015121432
 20
69.43484014627631
 30
0.000000000000000
 11
199.6464015121269
 21
75.75939546660007
 31
0.000000000000000
  0
LINE
  5
10F
100
AcDbEntity
  8
A2
  6
CONTINUOUS
 62
4
100
AcDbLine
 10
192.6464015121434
 20
75.75939546659237
 30
0.000000000000000
 11
199.6464015121269
 21
69.43484014628170
 31
0.000000000000000
  0
LINE
  5
110
100
AcDbEntity
  8
A4
  6
CENTER
 62
1
100
AcDbLine
 10
92.27200597805613
 20
109.1974867277492
 30
0.000000000000000
 11
92.27200597805610
 21
58.59711780649101
 31
0.000000000000000
  0
LINE
  5
111
100
AcDbEntity
  8
A4
  6
CENTER
 62
1
100
AcDbLine
 10
78.27200597805610
 20
72.59711780649100
 30
0.000000000000000
 11
109.5622059780561
 21
72.59711780649099
 31
0.000000000000000
  0
LINE
  5
112
100
AcDbEntity
  8
A1
  6
CONTINUOUS
 62
7
100
AcDbLine
 10
91.07200597805613
 20
68.59711780649099
 30
0.000000000000000
 11
93.47200597805613
 21
68.59711780649099
 31
0.000000000000000
  0
LINE
  5
113
100
AcDbEntity
  8
A1
  6
CONTINUOUS
 62
7
100
AcDbLine
 10
91.07200597805613
 20
76.59711780649101
 30
0.000000000000000
 11
93.47200597805613
 21
76.59711780649101
 31
0.000000000000000
  0
LINE
  5
114
100
AcDbEntity
  8
A1
  6
CONTINUOUS
 62
7
100
AcDbLine
 10
91.07200597805613
 20
68.59711780649099
 30
0.000000000000000
 11
91.07200597805613
 21
76.59711780649101
 31
0.000000000000000
  0
LINE
  5
115
100
AcDbEntity
  8
A1
  6
CONTINUOUS
 62
7
100
AcDbLine
 10
93.47200597805613
 20
68.59711780649099
 30
0.000000000000000
 11
93.47200597805613
 21
76.59711780649101
 31
0.000000000000000
  0
LINE
  5
116
100
AcDbEntity
  8
A1
  6
CONTINUOUS
 62
7
100
AcDbLine
 10
102.9138067958024
 20
79.15477810612670
 30
0.000000000000000
 11
103.2720008493050
 21
78.94796780649111
 31
0.000000000000000
  0
LINE
  5
117
100
AcDbEntity
  8
A1
  6
CONTINUOUS
 62
7
100
AcDbLine
 10
104.9737059780561
 20
72.59711780649104
 30
0.000000000000000
 11
104.7669059780561
 21
72.23881780649103
 31
0.000000000000000
  0
CIRCLE
  5
118
100
AcDbEntity
  8
A1
  6
CONTINUOUS
 62
7
100
AcDbCircle
 10
92.27200597805611
 20
72.59711780649101
 30
0.000000000000000
 40
9.500000000000000
  0
CIRCLE
  5
119
100
AcDbEntity
  8
A1
  6
CONTINUOUS
 62
7
100
AcDbCircle
 10
92.27200597805611
 20
72.59711780649101
 30
0.000000000000000
 40
7.600000000000000
  0
CIRCLE
  5
11A
100
AcDbEntity
  8
A1
  6
CONTINUOUS
 62
7
100
AcDbCircle
 10
92.27200597805611
 20
72.59711780649101
 30
0.000000000000000
 40
12.50000000000000
  0
CIRCLE
  5
11B
100
AcDbEntity
  8
A1
  6
CONTINUOUS
 62
7
100
AcDbCircle
 10
92.27200597805611
 20
66.84711780649099
 30
0.000000000000000
 40
1.000000000000000
  0
POINT
  5
11C
100
AcDbEntity
  8
A10
  6
CONTINUOUS
 62
3
100
AcDbPoint
 10
72.79952947642404
 20
72.59711780649101
 30
0.000000000000000
  0
LINE
  5
11D
100
AcDbEntity
  8
A1
  6
CONTINUOUS
 62
7
100
AcDbLine
 10
81.27200597805606
 20
66.24626484540511
 30
0.000000000000000
 11
81.27200597805606
 21
66.65994676297203
 31
0.000000000000000
  0
LINE
  5
11E
100
AcDbEntity
  8
A1
  6
CONTINUOUS
 62
7
100
AcDbLine
 10
81.27200597805617
 20
78.53428885001000
 30
0.000000000000000
 11
81.27200597805617
 21
78.94797076757686
 31
0.000000000000000
  0
LINE
  5
11F
100
AcDbEntity
  8
A1
  6
CONTINUOUS
 62
7
100
AcDbLine
 10
91.91374692835703
 20
60.10225284310275
 30
0.000000000000000
 11
92.27200597805613
 21
59.89541188431934
 31
0.000000000000000
  0
LINE
  5
120
100
AcDbEntity
  8
A1
  6
CONTINUOUS
 62
7
100
AcDbLine
 10
81.27200597805620
 20
66.24626484540518
 30
0.000000000000000
 11
81.63026502775531
 21
66.03942388662179
 31
0.000000000000000
  0
LINE
  5
121
100
AcDbEntity
  8
A1
  6
CONTINUOUS
 62
7
100
AcDbLine
 10
91.91374692835694
 20
85.09198276987935
 30
0.000000000000000
 11
92.27200597805616
 21
85.29882372866281
 31
0.000000000000000
  0
LINE
  5
122
100
AcDbEntity
  8
A1
  6
CONTINUOUS
 62
7
100
AcDbLine
 10
81.27200597805614
 20
78.94797076757692
 30
0.000000000000000
 11
81.63026502775531
 21
79.15481172636035
 31
0.000000000000000
  0
LINE
  5
123
100
AcDbEntity
  8
A1
  6
CONTINUOUS
 62
7
100
AcDbLine
 10
104.7668709414444
 20
72.95537685619006
 30
0.000000000000000
 11
104.9737119002278
 21
72.59711780649093
 31
0.000000000000000
  0
LINE
  5
124
100
AcDbEntity
  8
A1
  6
CONTINUOUS
 62
7
100
AcDbLine
 10
92.27200597805611
 20
85.29882372866270
 30
0.000000000000000
 11
92.63026502775523
 21
85.09198276987931
 31
0.000000000000000
  0
LINE
  5
125
100
AcDbEntity
  8
A1
  6
CONTINUOUS
 62
7
100
AcDbLine
 10
103.2720059780561
 20
66.24626484540509
 30
0.000000000000000
 11
103.2720059780561
 21
66.65994676297207
 31
0.000000000000000
  0
LINE
  5
126
100
AcDbEntity
  8
A1
  6
CONTINUOUS
 62
7
100
AcDbLine
 10
103.2720059780561
 20
78.53428885000984
 30
0.000000000000000
 11
103.2720059780561
 21
78.94797076757676
 31
0.000000000000000
  0
LINE
  5
127
100
AcDbEntity
  8
A1
  6
CONTINUOUS
 62
7
100
AcDbLine
 10
102.9137469283570
 20
66.03942388662173
 30
0.000000000000000
 11
103.2720059780561
 21
66.24626484540516
 31
0.000000000000000
  0
LINE
  5
128
100
AcDbEntity
  8
A1
  6
CONTINUOUS
 62
7
100
AcDbLine
 10
92.27200597805609
 20
59.89541188431929
 30
0.000000000000000
 11
92.63026502775519
 21
60.10225284310268
 31
0.000000000000000
  0
LINE
  5
129
100
AcDbEntity
  8
A1
  6
CONTINUOUS
 62
7
100
AcDbLine
 10
82.77200597805611
 20
102.5778585048989
 30
0.000000000000000
 11
82.77200597805611
 21
80.72115621112697
 31
0.000000000000000
  0
ARC
  5
12A
100
AcDbEntity
  8
A1
  6
CONTINUOUS
 62
7
100
AcDbCircle
 10
92.27200597805609
 20
96.09711780649100
 30
0.000000000000000
 40
11.50000000000000
100
AcDbArc
 50
34.30115275679129
 51
145.6988472432082
  0
LINE
  5
12B
100
AcDbEntity
  8
A1
  6
CONTINUOUS
 62
7
100
AcDbLine
 10
101.7720059780561
 20
102.5778585048988
 30
0.000000000000000
 11
101.7720059780561
 21
80.72115621112697
 31
0.000000000000000
  0
LINE
  5
12C
100
AcDbEntity
  8
A5
  6
PHANTOM
 62
6
100
AcDbLine
 10
116.3668362629104
 20
82.09711780649100
 30
0.000000000000000
 11
100.3960443826921
 21
82.09711780649100
 31
0.000000000000000
  0
LINE
  5
12D
100
AcDbEntity
  8
A5
  6
PHANTOM
 62
6
100
AcDbLine
 10
114.1978422135920
 20
63.09711780649100
 30
0.000000000000000
 11
100.3960443826921
 21
63.09711780649100
 31
0.000000000000000
  0
SPLINE
  5
12E
100
AcDbEntity
  8
A5
  6
PHANTOM
 62
6
100
AcDbSpline
210
0.000000000000000
220
0.000000000000000
230
1.000000000000000
 70
     8
 71
     3
 72
    10
 73
     6
 74
     0
 42
1.000000000000000e-07
 43
1.000000000000000e-07
 12
0.5605061429891691
 22
-0.9521405763578379
 32
0.000000000000000
 13
0.4735422381190659
 23
-0.9789354648820670
 33
0.000000000000000
 40
0.000000000000000
 40
0.000000000000000
 40
0.000000000000000
 40
0.000000000000000
 40
8.829194814239830
 40
18.77549776128005
 40
27.56688984281744
 40
27.56688984281744
 40
27.56688984281744
 40
27.56688984281744
 10
114.4292419298466
 20
85.63922818107051
 30
0.000000000000000
 10
116.0788479068565
 20
82.83701663466853
 30
0.000000000000000
 10
119.5867751844821
 20
76.87804554805837
 30
0.000000000000000
 10
111.3898603154652
 20
68.66524487699124
 30
0.000000000000000
 10
114.3475569958068
 20
62.55091347911818
 30
0.000000000000000
 10
115.7352554899646
 20
59.68217831435140
 30
0.000000000000000
  0
LINE
  5
12F
100
AcDbEntity
  8
A1
  6
CONTINUOUS
 62
7
100
AcDbLine
 10
83.77200597805621
 20
102.2615318094602
 30
0.000000000000000
 11
83.77200597805621
 21
81.59711780649100
 31
0.000000000000000
  0
ARC
  5
130
100
AcDbEntity
  8
A1
  6
CONTINUOUS
 62
7
100
AcDbCircle
 10
92.27200597805609
 20
96.09711780649097
 30
0.000000000000000
 40
10.50000000000003
100
AcDbArc
 50
35.95056761961814
 51
144.0494323803807
  0
LINE
  5
131
100
AcDbEntity
  8
A1
  6
CONTINUOUS
 62
7
100
AcDbLine
 10
100.7720059780561
 20
102.2615318094600
 30
0.000000000000000
 11
100.7720059780561
 21
81.59711780649100
 31
0.000000000000000
  0
LINE
  5
132
100
AcDbEntity
  8
A4
  6
CENTER
 62
1
100
AcDbLine
 10
355.8347274217992
 20
72.59711780649100
 30
0.000000000000000
 11
327.4313274217992
 21
72.59711780649099
 31
0.000000000000000
  0
LINE
  5
133
100
AcDbEntity
  8
A4
  6
CENTER
 62
1
100
AcDbLine
 10
341.6330274217993
 20
58.59711780649096
 30
0.000000000000000
 11
341.6330274217993
 21
112.2858181738079
 31
0.000000000000000
  0
LINE
  5
134
100
AcDbEntity
  8
A1
  6
CONTINUOUS
 62
7
100
AcDbLine
 10
332.1330274217993
 20
102.5778585048989
 30
0.000000000000000
 11
332.1330274217993
 21
69.47511780649094
 31
0.000000000000000
  0
LINE
  5
135
100
AcDbEntity
  8
A1
  6
CONTINUOUS
 62
7
100
AcDbLine
 10
351.1330274217992
 20
102.5778585048988
 30
0.000000000000000
 11
351.1330274217992
 21
69.47511780649094
 31
0.000000000000000
  0
LINE
  5
136
100
AcDbEntity
  8
A1
  6
CONTINUOUS
 62
7
100
AcDbLine
 10
340.5766274217991
 20
71.54111780649099
 30
0.000000000000000
 11
340.5847274217991
 21
71.52611780649094
 31
0.000000000000000
  0
LINE
  5
137
100
AcDbEntity
  8
A1
  6
CONTINUOUS
 62
7
100
AcDbLine
 10
340.5847274217994
 20
71.52611780649093
 30
0.000000000000000
 11
340.6180274217994
 21
69.61511780649090
 31
0.000000000000000
  0
LINE
  5
138
100
AcDbEntity
  8
A1
  6
CONTINUOUS
 62
7
100
AcDbLine
 10
342.6894274217993
 20
71.54111780649103
 30
0.000000000000000
 11
342.6813274217993
 21
71.52611780649096
 31
0.000000000000000
  0
LINE
  5
139
100
AcDbEntity
  8
A1
  6
CONTINUOUS
 62
7
100
AcDbLine
 10
342.6813274217992
 20
71.52611780649079
 30
0.000000000000000
 11
342.6480274217992
 21
69.61511780649076
 31
0.000000000000000
  0
LINE
  5
13A
100
AcDbEntity
  8
A1
  6
CONTINUOUS
 62
7
100
AcDbLine
 10
342.6894274217992
 20
73.65411780649096
 30
0.000000000000000
 11
342.7044274217992
 21
73.64611780649091
 31
0.000000000000000
  0
LINE
  5
13B
100
AcDbEntity
  8
A1
  6
CONTINUOUS
 62
7
100
AcDbLine
 10
342.7044274217992
 20
73.64611780649089
 30
0.000000000000000
 11
344.6150274217992
 21
73.61211780649090
 31
0.000000000000000
  0
LINE
  5
13C
100
AcDbEntity
  8
A1
  6
CONTINUOUS
 62
7
100
AcDbLine
 10
342.7044274217993
 20
71.54911780649090
 30
0.000000000000000
 11
344.6150274217993
 21
71.58211780649091
 31
0.000000000000000
  0
LINE
  5
13D
100
AcDbEntity
  8
A1
  6
CONTINUOUS
 62
7
100
AcDbLine
 10
342.6894274217992
 20
71.54111780649103
 30
0.000000000000000
 11
342.7044274217992
 21
71.54911780649098
 31
0.000000000000000
  0
LINE
  5
13E
100
AcDbEntity
  8
A1
  6
CONTINUOUS
 62
7
100
AcDbLine
 10
340.5766274217992
 20
73.65411780649093
 30
0.000000000000000
 11
340.5846274217993
 21
73.66911780649097
 31
0.000000000000000
  0
LINE
  5
13F
100
AcDbEntity
  8
A1
  6
CONTINUOUS
 62
7
100
AcDbLine
 10
340.5846274217993
 20
73.66911780649099
 30
0.000000000000000
 11
340.6180274217993
 21
75.57911780649097
 31
0.000000000000000
  0
LINE
  5
140
100
AcDbEntity
  8
A1
  6
CONTINUOUS
 62
7
100
AcDbLine
 10
342.6814274217992
 20
73.66911780649096
 30
0.000000000000000
 11
342.6480274217993
 21
75.57911780649101
 31
0.000000000000000
  0
LINE
  5
141
100
AcDbEntity
  8
A1
  6
CONTINUOUS
 62
7
100
AcDbLine
 10
342.6894274217993
 20
73.65411780649089
 30
0.000000000000000
 11
342.6813274217993
 21
73.66911780649087
 31
0.000000000000000
  0
LINE
  5
142
100
AcDbEntity
  8
A1
  6
CONTINUOUS
 62
7
100
AcDbLine
 10
340.5766274217993
 20
71.54111780649094
 30
0.000000000000000
 11
340.5616274217994
 21
71.54911780649093
 31
0.000000000000000
  0
LINE
  5
143
100
AcDbEntity
  8
A1
  6
CONTINUOUS
 62
7
100
AcDbLine
 10
340.5616274217992
 20
71.54911780649087
 30
0.000000000000000
 11
338.6510274217993
 21
71.58211780649088
 31
0.000000000000000
  0
LINE
  5
144
100
AcDbEntity
  8
A1
  6
CONTINUOUS
 62
7
100
AcDbLine
 10
340.5616274217992
 20
73.64611780649093
 30
0.000000000000000
 11
338.6510274217992
 21
73.61211780649093
 31
0.000000000000000
  0
LINE
  5
145
100
AcDbEntity
  8
A1
  6
CONTINUOUS
 62
7
100
AcDbLine
 10
340.5766274217993
 20
73.65411780649103
 30
0.000000000000000
 11
340.5616274217994
 21
73.64611780649099
 31
0.000000000000000
  0
ARC
  5
146
100
AcDbEntity
  8
A1
  6
CONTINUOUS
 62
7
100
AcDbCircle
 10
341.6330274217993
 20
72.59711780649097
 30
0.000000000000000
 40
10.00000000000000
100
AcDbArc
 50
198.1950000000000
 51
341.8051000000000
  0
CIRCLE
  5
147
100
AcDbEntity
  8
A1
  6
CONTINUOUS
 62
7
100
AcDbCircle
 10
341.6330274217993
 20
72.59711780649097
 30
0.000000000000000
 40
8.000000000000000
  0
CIRCLE
  5
148
100
AcDbEntity
  8
A1
  6
CONTINUOUS
 62
7
100
AcDbCircle
 10
341.6330274217993
 20
72.59711780649097
 30
0.000000000000000
 40
6.000000000000000
  0
ARC
  5
149
100
AcDbEntity
  8
A1
  6
CONTINUOUS
 62
7
100
AcDbCircle
 10
341.6330274217993
 20
72.59711780649097
 30
0.000000000000000
 40
3.150000000000000
100
AcDbArc
 50
251.2030000000000
 51
288.7974000000000
  0
ARC
  5
14A
100
AcDbEntity
  8
A1
  6
CONTINUOUS
 62
7
100
AcDbCircle
 10
341.6330274217993
 20
72.59711780649097
 30
0.000000000000000
 40
3.150000000000000
100
AcDbArc
 50
341.2026000000000
 51
378.7970000000000
  0
ARC
  5
14B
100
AcDbEntity
  8
A1
  6
CONTINUOUS
 62
7
100
AcDbCircle
 10
341.6330274217993
 20
72.59711780649097
 30
0.000000000000000
 40
3.150000000000000
100
AcDbArc
 50
71.20300000000000
 51
108.7970000000000
  0
ARC
  5
14C
100
AcDbEntity
  8
A1
  6
CONTINUOUS
 62
7
100
AcDbCircle
 10
341.6330274217993
 20
72.59711780649097
 30
0.000000000000000
 40
3.150000000000000
100
AcDbArc
 50
161.2030000000000
 51
198.7970000000001
  0
ARC
  5
14D
100
AcDbEntity
  8
A1
  6
CONTINUOUS
 62
7
100
AcDbCircle
 10
341.6330274217993
 20
72.59711780649097
 30
0.000000000000000
 40
12.50000000000000
100
AcDbArc
 50
271.6423634236712
 51
328.3576365763287
  0
ARC
  5
14E
100
AcDbEntity
  8
A1
  6
CONTINUOUS
 62
7
100
AcDbCircle
 10
341.6330274217993
 20
72.59711780649097
 30
0.000000000000000
 40
12.50000000000000
100
AcDbArc
 50
211.6423634236705
 51
268.3576365763292
  0
ARC
  5
14F
100
AcDbEntity
  8
A1
  6
CONTINUOUS
 62
7
100
AcDbCircle
 10
341.6330274217993
 20
72.59711780649097
 30
0.000000000000000
 40
12.50000000000000
100
AcDbArc
 50
151.6423634236707
 51
208.3576365763291
  0
ARC
  5
150
100
AcDbEntity
  8
A1
  6
CONTINUOUS
 62
7
100
AcDbCircle
 10
341.6330274217993
 20
72.59711780649097
 30
0.000000000000000
 40
12.50000000000000
100
AcDbArc
 50
139.4640000000000
 51
148.3576365763266
  0
ARC
  5
151
100
AcDbEntity
  8
A1
  6
CONTINUOUS
 62
7
100
AcDbCircle
 10
341.6330274217993
 20
72.59711780649097
 30
0.000000000000000
 40
12.50000000000000
100
AcDbArc
 50
31.64236342367214
 51
40.53580211131658
  0
ARC
  5
152
100
AcDbEntity
  8
A1
  6
CONTINUOUS
 62
7
100
AcDbCircle
 10
341.6330274217993
 20
72.59711780649097
 30
0.000000000000000
 40
12.50000000000000
100
AcDbArc
 50
331.6423634236709
 51
388.3576365763286
  0
LINE
  5
153
100
AcDbEntity
  8
A1
  6
CONTINUOUS
 62
7
100
AcDbLine
 10
330.6330274217994
 20
66.24626484540521
 30
0.000000000000000
 11
330.6330274217994
 21
78.94797076757696
 31
0.000000000000000
  0
LINE
  5
154
100
AcDbEntity
  8
A1
  6
CONTINUOUS
 62
7
100
AcDbLine
 10
341.6330274217993
 20
59.89541188431937
 30
0.000000000000000
 11
330.6330274217994
 21
66.24626484540524
 31
0.000000000000000
  0
LINE
  5
155
100
AcDbEntity
  8
A1
  6
CONTINUOUS
 62
7
100
AcDbLine
 10
332.1330274217992
 20
79.81399617136147
 30
0.000000000000000
 11
330.6330274217993
 21
78.94797076757705
 31
0.000000000000000
  0
LINE
  5
156
100
AcDbEntity
  8
A1
  6
CONTINUOUS
 62
7
100
AcDbLine
 10
352.6330274217993
 20
66.24626484540512
 30
0.000000000000000
 11
341.6330274217993
 21
59.89541188431927
 31
0.000000000000000
  0
LINE
  5
157
100
AcDbEntity
  8
A1
  6
CONTINUOUS
 62
7
100
AcDbLine
 10
352.6330274217992
 20
78.94797076757689
 30
0.000000000000000
 11
351.1330274217992
 21
79.81399617136128
 31
0.000000000000000
  0
ARC
  5
158
100
AcDbEntity
  8
A1
  6
CONTINUOUS
 62
7
100
AcDbCircle
 10
341.6330274217992
 20
72.59711780649103
 30
0.000000000000000
 40
11.00000000000004
100
AcDbArc
 50
149.7273586810892
 51
390.2726413189094
  0
LINE
  5
159
100
AcDbEntity
  8
A1
  6
CONTINUOUS
 62
7
100
AcDbLine
 10
352.6330274217992
 20
66.24626484540524
 30
0.000000000000000
 11
352.6330274217992
 21
78.94797076757685
 31
0.000000000000000
  0
ARC
  5
15A
100
AcDbEntity
  8
A1
  6
CONTINUOUS
 62
7
100
AcDbCircle
 10
341.6330274217992
 20
96.09711780649099
 30
0.000000000000000
 40
11.50000000000000
100
AcDbArc
 50
34.30115275679129
 51
145.6988472432082
  0
LINE
  5
15B
100
AcDbEntity
  8
A1
  6
CONTINUOUS
 62
7
100
AcDbLine
 10
276.3604015121268
 20
167.0901299765377
 30
0.000000000000000
 11
276.3604015121268
 21
148.0901299765377
 31
0.000000000000000
  0
LINE
  5
15C
100
AcDbEntity
  8
A1
  6
CONTINUOUS
 62
7
100
AcDbLine
 10
273.3604015121268
 20
148.0901299765377
 30
0.000000000000000
 11
273.3604015121268
 21
167.0901299765378
 31
0.000000000000000
  0
LINE
  5
15D
100
AcDbEntity
  8
A1
  6
CONTINUOUS
 62
7
100
AcDbLine
 10
272.3604015121268
 20
148.0901299765377
 30
0.000000000000000
 11
272.3604015121268
 21
167.0901299765377
 31
0.000000000000000
  0
LINE
  5
15E
100
AcDbEntity
  8
A1
  6
CONTINUOUS
 62
7
100
AcDbLine
 10
272.3604015121268
 20
148.0901299765377
 30
0.000000000000000
 11
276.3604015121268
 21
148.0901299765377
 31
0.000000000000000
  0
ARC
  5
15F
100
AcDbEntity
  8
A1
  6
CONTINUOUS
 62
7
100
AcDbCircle
 10
273.3604015121268
 20
149.0901299765377
 30
0.000000000000000
 40
1.000000000000028
100
AcDbArc
 50
180.0000000000000
 51
270.0000000000000
  0
LINE
  5
160
100
AcDbEntity
  8
A1
  6
CONTINUOUS
 62
7
100
AcDbLine
 10
270.3604015121268
 20
165.4591162603861
 30
0.000000000000000
 11
272.3604015121268
 21
165.4591162603861
 31
0.000000000000000
  0
LINE
  5
161
100
AcDbEntity
  8
A1
  6
CONTINUOUS
 62
7
100
AcDbLine
 10
270.3604015121268
 20
165.4591162603861
 30
0.000000000000000
 11
270.3604015121268
 21
161.4591162603861
 31
0.000000000000000
  0
LINE
  5
162
100
AcDbEntity
  8
A1
  6
CONTINUOUS
 62
7
100
AcDbLine
 10
270.3604015121269
 20
161.4591162603861
 30
0.000000000000000
 11
272.3604015121268
 21
161.4591162603861
 31
0.000000000000000
  0
LINE
  5
163
100
AcDbEntity
  8
A1
  6
CONTINUOUS
 62
7
100
AcDbLine
 10
272.3604015121268
 20
167.0901299765377
 30
0.000000000000000
 11
276.3604015121268
 21
167.0901299765377
 31
0.000000000000000
  0
ELLIPSE
  5
164
100
AcDbEntity
  8
A1
  6
CONTINUOUS
 62
7
100
AcDbEllipse
 10
273.3604015121267
 20
166.3830231953482
 30
0.000000000000000
 11
-0.9999999999998863
 21
0.000000000000000
 31
0.000000000000000
210
0.000000000000000
220
0.000000000000000
230
1.000000000000000
 40
0.7071067811896463
 41
4.712388980384690
 42
0.000000000000000
  0
LINE
  5
165
100
AcDbEntity
  8
A1
  6
CONTINUOUS
 62
7
100
AcDbLine
 10
272.3604015121268
 20
62.59711780649099
 30
0.000000000000000
 11
272.3604015121268
 21
106.5971178064910
 31
0.000000000000000
  0
LINE
  5
166
100
AcDbEntity
  8
A1
  6
CONTINUOUS
 62
7
100
AcDbLine
 10
273.3604015121268
 20
78.59711780649101
 30
0.000000000000000
 11
273.3604015121268
 21
107.5971178064910
 31
0.000000000000000
  0
LINE
  5
167
100
AcDbEntity
  8
A1
  6
CONTINUOUS
 62
7
100
AcDbLine
 10
276.3604015121268
 20
107.5971178064910
 30
0.000000000000000
 11
276.3604015121268
 21
62.59711780649099
 31
0.000000000000000
  0
LINE
  5
168
100
AcDbEntity
  8
A1
  6
CONTINUOUS
 62
7
100
AcDbLine
 10
273.3604015121268
 20
107.5971178064910
 30
0.000000000000000
 11
276.3604015121268
 21
107.5971178064910
 31
0.000000000000000
  0
ARC
  5
169
100
AcDbEntity
  8
A1
  6
CONTINUOUS
 62
7
100
AcDbCircle
 10
273.3604015121268
 20
106.5971178064910
 30
0.000000000000000
 40
1.000000000000000
100
AcDbArc
 50
90.00000000000000
 51
180.0000000000000
  0
LINE
  5
16A
100
AcDbEntity
  8
A1
  6
CONTINUOUS
 62
7
100
AcDbLine
 10
272.3604015121268
 20
62.59711780649099
 30
0.000000000000000
 11
276.3604015121268
 21
62.59711780649099
 31
0.000000000000000
  0
LINE
  5
16B
100
AcDbEntity
  8
A1
  6
CONTINUOUS
 62
7
100
AcDbLine
 10
272.3604015121268
 20
78.59711780649101
 30
0.000000000000000
 11
273.3604015121268
 21
78.59711780649101
 31
0.000000000000000
  0
LINE
  5
16C
100
AcDbEntity
  8
A1
  6
CONTINUOUS
 62
7
100
AcDbLine
 10
270.3604015121268
 20
76.46611780649096
 30
0.000000000000000
 11
272.3604015121268
 21
76.46611780649096
 31
0.000000000000000
  0
LINE
  5
16D
100
AcDbEntity
  8
A1
  6
CONTINUOUS
 62
7
100
AcDbLine
 10
270.3604015121268
 20
76.46611780649096
 30
0.000000000000000
 11
270.3604015121268
 21
80.46611780649093
 31
0.000000000000000
  0
LINE
  5
16E
100
AcDbEntity
  8
A1
  6
CONTINUOUS
 62
7
100
AcDbLine
 10
270.3604015121268
 20
80.46611780649093
 30
0.000000000000000
 11
272.3604015121268
 21
80.46611780649093
 31
0.000000000000000
  0
ENDSEC
  0
SECTION
  2
OBJECTS
  0
DICTIONARY
  5
19E
100
AcDbDictionary
  3
ACAD_GROUP
350
19F
  3
ACAD_LAYOUT
350
1A0
  3
ACAD_MLINESTYLE
350
1A1
  0
DICTIONARY
  5
19F
102
{ACAD_REACTORS
330
19E
102
}
330
19E
100
AcDbDictionary
  0
DICTIONARY
  5
1A0
102
{ACAD_REACTORS
330
19E
102
}
330
19E
100
AcDbDictionary
  3
Model
350
1A2
  3
ﾚｲｱｳﾄ1
350
1A3
  3
ﾚｲｱｳﾄ2
350
1A4
  0
DICTIONARY
  5
1A1
102
{ACAD_REACTORS
330
19E
102
}
330
19E
100
AcDbDictionary
  3
STANDARD
350
1A5
  0
LAYOUT
  5
1A2
102
{ACAD_REACTORS
330
1A0
102
}
330
1A0
100
AcDbPlotSettings
 70
11952
  4
A3
 44
297.000000
 45
420.000000
 73
  1
 72
  1
100
AcDbLayout
  1
Model
 71
0
330
195
  0
LAYOUT
  5
1A3
102
{ACAD_REACTORS
330
1A0
102
}
330
1A0
100
AcDbPlotSettings
100
AcDbLayout
  1
ﾚｲｱｳﾄ1
 71
1
330
196
  0
LAYOUT
  5
1A4
102
{ACAD_REACTORS
330
1A0
102
}
330
1A0
100
AcDbPlotSettings
100
AcDbLayout
  1
ﾚｲｱｳﾄ2
 71
2
330
197
  0
MLINESTYLE
  5
1A5
102
{ACAD_REACTORS
330
1A1
102
}
330
1A1
100
AcDbMlineStyle
  2
STANDARD
 70
     0
  3

 62
   256
 51
90.00
 52
90.00
 71
     2
 49
0.50
 62
   256
  6
BYLAYER
 49
-0.50
 62
   256
  6
BYLAYER
  0
ENDSEC
  0
EOF
