  0
SECTION
  2
HEADER
  9
$ACADVER
  1
AC1032
  9
$DWGCODEPAGE
  3
ANSI_932
  9
$LTSCALE
 40
20.0
  9
$FILLMODE
 70
     1
  9
$CLAYER
  8
0
  9
$PDMODE
 70
     0
  9
$SPLFRAME
 70
     0
  9
$SPLINETYPE
 70
     6
  9
$SPLINESEGS
 70
     8
  9
$DIMASZ
 40
2.000000
  9
$DIMEXE
 40
1.500000
  9
$DIMEXO
 40
0.800000
  9
$DIMTAD
 70
     1
  9
$DIMTIH
 70
     0
  9
$DIMTOH
 70
     0
  9
$DIMTVP
 40
0.500000
  9
$DIMTXT
 40
3.100000
  9
$EXTMIN
 10
0.000000
 20
0.000000
 30
0.000000
  9
$EXTMAX
 10
297.000000
 20
420.000000
 30
0.000000
  9
$MEASUREMENT
 70
  1
  9
$LIMMIN
 10
0.000000
 20
0.000000
  9
$LIMMAX
 10
297.000000
 20
420.000000
  9
$HANDSEED
  5
1D1
  9
$LWDISPLAY
290
     0
  9
$DIMBLK
  1
_OPEN
  9
$DIMDEC
 70
     2
  9
$DIMADEC
 70
     2
  9
$DIMAUNIT
 70
     0
  9
$DIMZIN
 70
     8
  9
$DIMAZIN
 70
     2
  9
$DIMTOFL
 70
     1
  0
ENDSEC
  0
SECTION
  2
CLASSES
  0
ENDSEC
  0
SECTION
  2
TABLES
  0
TABLE
  2
VPORT
  5
197
100
AcDbSymbolTable
 70
     1
  0
VPORT
  5
198
100
AcDbSymbolTableRecord
100
AcDbViewportTableRecord
  2
*ACTIVE
 70
     0
 12
193.307908
 22
-137569.915996
 40
275720.855326
 41
0.001330
  0
ENDTAB
  0
TABLE
  2
LTYPE
  5
199
100
AcDbSymbolTable
 70
     2
  0
LTYPE
  5
19A
100
AcDbSymbolTableRecord
100
AcDbLinetypeTableRecord
  2
BYBLOCK
 70
     0
  3

 72
    65
 73
     0
 40
0.0
  0
LTYPE
  5
19B
100
AcDbSymbolTableRecord
100
AcDbLinetypeTableRecord
  2
BYLAYER
 70
     0
  3

 72
    65
 73
     0
 40
0.0
  0
LTYPE
  5
19C
100
AcDbSymbolTableRecord
100
AcDbLinetypeTableRecord
  2
CONTINUOUS
 70
     0
  3
Solid line (NEC CAE2D for Win R18.0 : 2025.09.18)
 72
    65
 73
     0
 40
0.0
  0
LTYPE
  5
19D
100
AcDbSymbolTableRecord
100
AcDbLinetypeTableRecord
  2
CENTER
 70
     0
  3
____ _ ____ _ ____ _ ____ _ ____ _ ____
 72
    65
 73
     4
 40
2.0
 49
1.25
 74
     0
 49
-0.25
 74
     0
 49
0.25
 74
     0
 49
-0.25
 74
     0
  0
ENDTAB
  0
TABLE
  2
LAYER
  5
19E
100
AcDbSymbolTable
 70
    20
  0
LAYER
  5
19F
100
AcDbSymbolTableRecord
100
AcDbLayerTableRecord
  2
0
 70
     0
 62
     7
  6
CONTINUOUS
370
    -3
390

  0
LAYER
  5
1A0
100
AcDbSymbolTableRecord
100
AcDbLayerTableRecord
  2
A0
 70
     0
 62
     9
  6
CONTINUOUS
370
    -3
390

  0
LAYER
  5
1A1
100
AcDbSymbolTableRecord
100
AcDbLayerTableRecord
  2
A1
 70
     0
 62
    12
  6
CONTINUOUS
370
    -3
390

  0
LAYER
  5
1A2
100
AcDbSymbolTableRecord
100
AcDbLayerTableRecord
  2
A2
 70
     0
 62
     9
  6
CONTINUOUS
370
    -3
390

  0
LAYER
  5
1A3
100
AcDbSymbolTableRecord
100
AcDbLayerTableRecord
  2
A4
 70
     0
 62
     9
  6
CONTINUOUS
370
    -3
390

  0
LAYER
  5
1A4
100
AcDbSymbolTableRecord
100
AcDbLayerTableRecord
  2
A5
 70
     0
 62
     8
  6
CONTINUOUS
370
    -3
390

  0
LAYER
  5
1A5
100
AcDbSymbolTableRecord
100
AcDbLayerTableRecord
  2
A6
 70
     0
 62
    12
  6
CONTINUOUS
370
    -3
390

  0
LAYER
  5
1A6
100
AcDbSymbolTableRecord
100
AcDbLayerTableRecord
  2
A8
 70
     0
 62
    10
  6
CONTINUOUS
370
    -3
390

  0
LAYER
  5
1A7
100
AcDbSymbolTableRecord
100
AcDbLayerTableRecord
  2
A9
 70
     0
 62
     9
  6
CONTINUOUS
370
    -3
390

  0
LAYER
  5
1A8
100
AcDbSymbolTableRecord
100
AcDbLayerTableRecord
  2
A10
 70
     0
 62
     6
  6
CONTINUOUS
370
    -3
390

  0
LAYER
  5
1A9
100
AcDbSymbolTableRecord
100
AcDbLayerTableRecord
  2
A16
 70
     0
 62
     5
  6
CONTINUOUS
370
    -3
390

  0
LAYER
  5
1AA
100
AcDbSymbolTableRecord
100
AcDbLayerTableRecord
  2
A17
 70
     0
 62
     9
  6
CONTINUOUS
370
    -3
390

  0
LAYER
  5
1AB
100
AcDbSymbolTableRecord
100
AcDbLayerTableRecord
  2
A18
 70
     0
 62
     7
  6
CONTINUOUS
370
    -3
390

  0
LAYER
  5
1AC
100
AcDbSymbolTableRecord
100
AcDbLayerTableRecord
  2
A19
 70
     0
 62
     5
  6
CONTINUOUS
370
    -3
390

  0
LAYER
  5
1AD
100
AcDbSymbolTableRecord
100
AcDbLayerTableRecord
  2
A20
 70
     0
 62
     1
  6
CONTINUOUS
370
    -3
390

  0
LAYER
  5
1AE
100
AcDbSymbolTableRecord
100
AcDbLayerTableRecord
  2
A21
 70
     0
 62
    41
  6
CONTINUOUS
370
    -3
390

  0
LAYER
  5
1AF
100
AcDbSymbolTableRecord
100
AcDbLayerTableRecord
  2
A30
 70
     0
 62
     1
  6
CONTINUOUS
370
    -3
390

  0
LAYER
  5
1B0
100
AcDbSymbolTableRecord
100
AcDbLayerTableRecord
  2
A40
 70
     0
 62
     9
  6
CONTINUOUS
370
    -3
390

  0
LAYER
  5
1B1
100
AcDbSymbolTableRecord
100
AcDbLayerTableRecord
  2
A50
 70
     0
 62
    12
  6
CONTINUOUS
370
    -3
390

  0
LAYER
  5
1B2
100
AcDbSymbolTableRecord
100
AcDbLayerTableRecord
  2
A1023
 70
     0
 62
    16
  6
CONTINUOUS
370
    -3
390

  0
ENDTAB
  0
TABLE
  2
STYLE
  5
1B3
100
AcDbSymbolTable
 70
     4
  0
STYLE
  5
1B4
100
AcDbSymbolTableRecord
100
AcDbTextStyleTableRecord
  2
STANDARD
 70
    64
 40
0.0
 41
1.0
 50
0.0
 71
     0
 42
3.000000000000000
  3
TXT
  4

  0
STYLE
  5
1B5
100
AcDbSymbolTableRecord
100
AcDbTextStyleTableRecord
  2
ANKTATE
 70
    68
 40
0.0
 41
1.0
 50
0.0
 71
     0
 42
3.000000000000000
  3
TXT
  4

  0
STYLE
  5
1B6
100
AcDbSymbolTableRecord
100
AcDbTextStyleTableRecord
  2
KNJYOKO
 70
    64
 40
0.0
 41
1.0
 50
0.0
 71
     0
 42
3.000000000000000
  3
TXT
  4
BIGFONT
  0
STYLE
  5
1B7
100
AcDbSymbolTableRecord
100
AcDbTextStyleTableRecord
  2
KNJTATE
 70
    68
 40
0.0
 41
1.0
 50
0.0
 71
     0
 42
3.000000000000000
  3
TXT
  4
BIGFONT
  0
ENDTAB
  0
TABLE
  2
VIEW
  5
1B8
100
AcDbSymbolTable
 70
     0
  0
ENDTAB
  0
TABLE
  2
UCS
  5
1B9
100
AcDbSymbolTable
 70
     0
  0
ENDTAB
  0
TABLE
  2
APPID
  5
1BA
100
AcDbSymbolTable
 70
     1
  0
APPID
  5
1BB
100
AcDbSymbolTableRecord
100
AcDbRegAppTableRecord
  2
ACAD
 70
     0
  0
ENDTAB
  0
TABLE
  2
DIMSTYLE
  5
1BC
100
AcDbSymbolTable
 70
     2
100
AcDbDimStyleTable
  0
DIMSTYLE
105
1BD
100
AcDbSymbolTableRecord
100
AcDbDimStyleTableRecord
  2
STANDARD
 70
     0
 41
2.000000
 44
1.500000
 42
0.800000
145
0.661290
140
3.100000
144
1.000000
146
0.645161
340
1B4
  0
DIMSTYLE
105
1BE
100
AcDbSymbolTableRecord
100
AcDbDimStyleTableRecord
  2
A001
 70
     0
 41
2.000000
 44
1.500000
 42
0.800000
145
0.661290
140
3.100000
144
1.000000
146
0.645161
 77
     1
 73
     0
 74
     0
271
     2
179
     2
275
     0
 78
     8
 79
     2
172
     1
340
1B4
  0
ENDTAB
  0
TABLE
  2
BLOCK_RECORD
  5
1BF
100
AcDbSymbolTable
 70
    12
  0
BLOCK_RECORD
  5
1C0
100
AcDbSymbolTableRecord
100
AcDbBlockTableRecord
  2
*MODEL_SPACE
  0
BLOCK_RECORD
  5
1C1
100
AcDbSymbolTableRecord
100
AcDbBlockTableRecord
  2
*PAPER_SPACE
  0
BLOCK_RECORD
  5
1C2
100
AcDbSymbolTableRecord
100
AcDbBlockTableRecord
  2
*PAPER_SPACE0
  0
BLOCK_RECORD
  5
1
100
AcDbSymbolTableRecord
100
AcDbBlockTableRecord
  2
_NONE
  0
BLOCK_RECORD
  5
4
100
AcDbSymbolTableRecord
100
AcDbBlockTableRecord
  2
_CLOSED
  0
BLOCK_RECORD
  5
B
100
AcDbSymbolTableRecord
100
AcDbBlockTableRecord
  2
_DOT
  0
BLOCK_RECORD
  5
13
100
AcDbSymbolTableRecord
100
AcDbBlockTableRecord
  2
_OPEN
  0
BLOCK_RECORD
  5
19
100
AcDbSymbolTableRecord
100
AcDbBlockTableRecord
  2
_ORIGIN
  0
BLOCK_RECORD
  5
1E
100
AcDbSymbolTableRecord
100
AcDbBlockTableRecord
  2
_OPEN30
  0
BLOCK_RECORD
  5
24
100
AcDbSymbolTableRecord
100
AcDbBlockTableRecord
  2
_BOXFILLED
  0
BLOCK_RECORD
  5
29
100
AcDbSymbolTableRecord
100
AcDbBlockTableRecord
  2
_BOXBLANK
  0
BLOCK_RECORD
  5
31
100
AcDbSymbolTableRecord
100
AcDbBlockTableRecord
  2
_OBLIQUE
  0
BLOCK_RECORD
  5
35
100
AcDbSymbolTableRecord
100
AcDbBlockTableRecord
  2
_OPEN90
  0
BLOCK_RECORD
  5
3B
100
AcDbSymbolTableRecord
100
AcDbBlockTableRecord
  2
_CLOSEDBLANK
  0
BLOCK_RECORD
  5
41
100
AcDbSymbolTableRecord
100
AcDbBlockTableRecord
  2
_DOTBLANK
  0
ENDTAB
  0
ENDSEC
  0
SECTION
  2
BLOCKS
  0
BLOCK
  5
1C3
100
AcDbEntity
  8
0
100
AcDbBlockBegin
  2
*MODEL_SPACE
 70
     0
 10
0.0
 20
0.0
 30
0.0
  3
*MODEL_SPACE
  1

  0
ENDBLK
  5
1C4
100
AcDbEntity
  8
0
100
AcDbBlockEnd
  0
BLOCK
  5
1C5
100
AcDbEntity
  8
0
100
AcDbBlockBegin
  2
*PAPER_SPACE
 70
     0
 10
0.0
 20
0.0
 30
0.0
  3
*PAPER_SPACE
  1

  0
ENDBLK
  5
1C6
100
AcDbEntity
  8
0
100
AcDbBlockEnd
  0
BLOCK
  5
1C7
100
AcDbEntity
  8
0
100
AcDbBlockBegin
  2
*PAPER_SPACE0
 70
     0
 10
0.0
 20
0.0
 30
0.0
  3
*PAPER_SPACE0
  1

  0
ENDBLK
  5
1C8
100
AcDbEntity
  8
0
100
AcDbBlockEnd
  0
BLOCK
  5
2
330
1
100
AcDbEntity
  8
0
100
AcDbBlockBegin
  2
_NONE
 70
     0
 10
0.0
 20
0.0
 30
0.0
  3
_NONE
  1

  0
ENDBLK
  5
3
330
1
100
AcDbEntity
  8
0
100
AcDbBlockEnd
  0
BLOCK
  5
5
330
4
100
AcDbEntity
  8
0
100
AcDbBlockBegin
  2
_CLOSED
 70
     0
 10
0.0
 20
0.0
 30
0.0
  3
_CLOSED
  1

  0
LINE
  5
6
330
4
100
AcDbEntity
  8
0
  6
BYBLOCK
 62
     0
370
    -2
100
AcDbLine
 10
-1.0
 20
0.166667
 30
0.0
 11
0.0
 21
0.0
 31
0.0
  0
LINE
  5
7
330
4
100
AcDbEntity
  8
0
  6
BYBLOCK
 62
     0
370
    -2
100
AcDbLine
 10
0.0
 20
0.0
 30
0.0
 11
-1.0
 21
-0.166667
 31
0.0
  0
LINE
  5
8
330
4
100
AcDbEntity
  8
0
  6
BYBLOCK
 62
     0
370
    -2
100
AcDbLine
 10
-1.0
 20
0.166667
 30
0.0
 11
-1.0
 21
-0.166667
 31
0.0
  0
LINE
  5
9
330
4
100
AcDbEntity
  8
0
  6
BYBLOCK
 62
     0
370
    -2
100
AcDbLine
 10
0.0
 20
0.0
 30
0.0
 11
-1.0
 21
0.0
 31
0.0
  0
ENDBLK
  5
A
330
4
100
AcDbEntity
  8
0
100
AcDbBlockEnd
  0
BLOCK
  5
C
330
B
100
AcDbEntity
  8
0
100
AcDbBlockBegin
  2
_DOT
 70
     0
 10
0.0
 20
0.0
 30
0.0
  3
_DOT
  1

  0
POLYLINE
  5
D
330
B
100
AcDbEntity
  8
0
  6
BYBLOCK
 62
     0
370
    -2
100
AcDb2dPolyline
 66
     1
 10
0.0
 20
0.0
 30
0.0
 70
     1
 40
0.5
 41
0.5
  0
VERTEX
  5
E
330
B
100
AcDbEntity
  8
0
  6
BYBLOCK
 62
     0
370
    -2
100
AcDbVertex
100
AcDb2dVertex
 10
-0.25
 20
0.0
 30
0.0
 42
1.0
  0
VERTEX
  5
F
330
B
100
AcDbEntity
  8
0
  6
BYBLOCK
 62
     0
370
    -2
100
AcDbVertex
100
AcDb2dVertex
 10
0.25
 20
0.0
 30
0.0
 42
1.0
  0
SEQEND
  5
10
330
B
100
AcDbEntity
  8
0
  6
BYBLOCK
 62
     0
370
    -2
  0
LINE
  5
11
330
B
100
AcDbEntity
  8
0
  6
BYBLOCK
 62
     0
370
    -2
100
AcDbLine
 10
-0.5
 20
0.0
 30
0.0
 11
-1.0
 21
0.0
 31
0.0
  0
ENDBLK
  5
12
330
B
100
AcDbEntity
  8
0
100
AcDbBlockEnd
  0
BLOCK
  5
14
330
13
100
AcDbEntity
  8
0
100
AcDbBlockBegin
  2
_OPEN
 70
     0
 10
0.0
 20
0.0
 30
0.0
  3
_OPEN
  1

  0
LINE
  5
15
330
13
100
AcDbEntity
  8
0
  6
BYBLOCK
 62
     0
370
    -2
100
AcDbLine
 10
-1.0
 20
0.166667
 30
0.0
 11
0.0
 21
0.0
 31
0.0
  0
LINE
  5
16
330
13
100
AcDbEntity
  8
0
  6
BYBLOCK
 62
     0
370
    -2
100
AcDbLine
 10
0.0
 20
0.0
 30
0.0
 11
-1.0
 21
-0.166667
 31
0.0
  0
LINE
  5
17
330
13
100
AcDbEntity
  8
0
  6
BYBLOCK
 62
     0
370
    -2
100
AcDbLine
 10
0.0
 20
0.0
 30
0.0
 11
-1.0
 21
0.0
 31
0.0
  0
ENDBLK
  5
18
330
13
100
AcDbEntity
  8
0
100
AcDbBlockEnd
  0
BLOCK
  5
1A
330
19
100
AcDbEntity
  8
0
100
AcDbBlockBegin
  2
_ORIGIN
 70
     0
 10
0.0
 20
0.0
 30
0.0
  3
_ORIGIN
  1

  0
CIRCLE
  5
1B
330
19
100
AcDbEntity
  8
0
  6
BYBLOCK
 62
     0
370
    -2
100
AcDbCircle
 10
0.0
 20
0.0
 30
0.0
 40
0.5
  0
LINE
  5
1C
330
19
100
AcDbEntity
  8
0
  6
BYBLOCK
 62
     0
370
    -2
100
AcDbLine
 10
0.0
 20
0.0
 30
0.0
 11
-1.0
 21
0.0
 31
0.0
  0
ENDBLK
  5
1D
330
19
100
AcDbEntity
  8
0
100
AcDbBlockEnd
  0
BLOCK
  5
1F
330
1E
100
AcDbEntity
  8
0
100
AcDbBlockBegin
  2
_OPEN30
 70
     0
 10
0.0
 20
0.0
 30
0.0
  3
_OPEN30
  1

  0
LINE
  5
20
330
1E
100
AcDbEntity
  8
0
  6
BYBLOCK
 62
     0
370
    -2
100
AcDbLine
 10
-1.0
 20
0.267949
 30
0.0
 11
0.0
 21
0.0
 31
0.0
  0
LINE
  5
21
330
1E
100
AcDbEntity
  8
0
  6
BYBLOCK
 62
     0
370
    -2
100
AcDbLine
 10
0.0
 20
0.0
 30
0.0
 11
-1.0
 21
-0.267949
 31
0.0
  0
LINE
  5
22
330
1E
100
AcDbEntity
  8
0
  6
BYBLOCK
 62
     0
370
    -2
100
AcDbLine
 10
0.0
 20
0.0
 30
0.0
 11
-1.0
 21
0.0
 31
0.0
  0
ENDBLK
  5
23
330
1E
100
AcDbEntity
  8
0
100
AcDbBlockEnd
  0
BLOCK
  5
25
330
24
100
AcDbEntity
  8
0
100
AcDbBlockBegin
  2
_BOXFILLED
 70
     0
 10
0.0
 20
0.0
 30
0.0
  3
_BOXFILLED
  1

  0
SOLID
  5
26
330
24
100
AcDbEntity
  8
0
  6
BYBLOCK
 62
     0
370
    -2
100
AcDbTrace
 10
-0.5
 20
0.5
 30
0.0
 11
0.5
 21
0.5
 31
0.0
 12
-0.5
 22
-0.5
 32
0.0
 13
0.5
 23
-0.5
 33
0.0
  0
LINE
  5
27
330
24
100
AcDbEntity
  8
0
  6
BYBLOCK
 62
     0
370
    -2
100
AcDbLine
 10
-0.5
 20
0.0
 30
0.0
 11
-1.0
 21
0.0
 31
0.0
  0
ENDBLK
  5
28
330
24
100
AcDbEntity
  8
0
100
AcDbBlockEnd
  0
BLOCK
  5
2A
330
29
100
AcDbEntity
  8
0
100
AcDbBlockBegin
  2
_BOXBLANK
 70
     0
 10
0.0
 20
0.0
 30
0.0
  3
_BOXBLANK
  1

  0
LINE
  5
2B
330
29
100
AcDbEntity
  8
0
  6
BYBLOCK
 62
     0
370
    -2
100
AcDbLine
 10
-0.5
 20
-0.5
 30
0.0
 11
0.5
 21
-0.5
 31
0.0
  0
LINE
  5
2C
330
29
100
AcDbEntity
  8
0
  6
BYBLOCK
 62
     0
370
    -2
100
AcDbLine
 10
0.5
 20
-0.5
 30
0.0
 11
0.5
 21
0.5
 31
0.0
  0
LINE
  5
2D
330
29
100
AcDbEntity
  8
0
  6
BYBLOCK
 62
     0
370
    -2
100
AcDbLine
 10
0.5
 20
0.5
 30
0.0
 11
-0.5
 21
0.5
 31
0.0
  0
LINE
  5
2E
330
29
100
AcDbEntity
  8
0
  6
BYBLOCK
 62
     0
370
    -2
100
AcDbLine
 10
-0.5
 20
0.5
 30
0.0
 11
-0.5
 21
-0.5
 31
0.0
  0
LINE
  5
2F
330
29
100
AcDbEntity
  8
0
  6
BYBLOCK
 62
     0
370
    -2
100
AcDbLine
 10
-0.5
 20
0.0
 30
0.0
 11
-1.0
 21
0.0
 31
0.0
  0
ENDBLK
  5
30
330
29
100
AcDbEntity
  8
0
100
AcDbBlockEnd
  0
BLOCK
  5
32
330
31
100
AcDbEntity
  8
0
100
AcDbBlockBegin
  2
_OBLIQUE
 70
     0
 10
0.0
 20
0.0
 30
0.0
  3
_OBLIQUE
  1

  0
LINE
  5
33
330
31
100
AcDbEntity
  8
0
  6
BYBLOCK
 62
     0
370
    -2
100
AcDbLine
 10
-0.5
 20
-0.5
 30
0.0
 11
0.5
 21
0.5
 31
0.0
  0
ENDBLK
  5
34
330
31
100
AcDbEntity
  8
0
100
AcDbBlockEnd
  0
BLOCK
  5
36
330
35
100
AcDbEntity
  8
0
100
AcDbBlockBegin
  2
_OPEN90
 70
     0
 10
0.0
 20
0.0
 30
0.0
  3
_OPEN90
  1

  0
LINE
  5
37
330
35
100
AcDbEntity
  8
0
  6
BYBLOCK
 62
     0
370
    -2
100
AcDbLine
 10
-0.5
 20
0.5
 30
0.0
 11
0.0
 21
0.0
 31
0.0
  0
LINE
  5
38
330
35
100
AcDbEntity
  8
0
  6
BYBLOCK
 62
     0
370
    -2
100
AcDbLine
 10
0.0
 20
0.0
 30
0.0
 11
-0.5
 21
-0.5
 31
0.0
  0
LINE
  5
39
330
35
100
AcDbEntity
  8
0
  6
BYBLOCK
 62
     0
370
    -2
100
AcDbLine
 10
0.0
 20
0.0
 30
0.0
 11
-1.0
 21
0.0
 31
0.0
  0
ENDBLK
  5
3A
330
35
100
AcDbEntity
  8
0
100
AcDbBlockEnd
  0
BLOCK
  5
3C
330
3B
100
AcDbEntity
  8
0
100
AcDbBlockBegin
  2
_CLOSEDBLANK
 70
     0
 10
0.0
 20
0.0
 30
0.0
  3
_CLOSEDBLANK
  1

  0
LINE
  5
3D
330
3B
100
AcDbEntity
  8
0
  6
BYBLOCK
 62
     0
370
    -2
100
AcDbLine
 10
-1.0
 20
0.1666666666666666
 30
0.0
 11
0.0
 21
0.0
 31
0.0
  0
LINE
  5
3E
330
3B
100
AcDbEntity
  8
0
  6
BYBLOCK
 62
     0
370
    -2
100
AcDbLine
 10
0.0
 20
0.0
 30
0.0
 11
-1.0
 21
-0.1666666666666666
 31
0.0
  0
LINE
  5
3F
330
3B
100
AcDbEntity
  8
0
  6
BYBLOCK
 62
     0
370
    -2
100
AcDbLine
 10
-1.0
 20
0.1666666666666666
 30
0.0
 11
-1.0
 21
-0.1666666666666666
 31
0.0
  0
ENDBLK
  5
40
330
3B
100
AcDbEntity
  8
0
100
AcDbBlockEnd
  0
BLOCK
  5
42
330
41
100
AcDbEntity
  8
0
100
AcDbBlockBegin
  2
_DOTBLANK
 70
     0
 10
0.0
 20
0.0
 30
0.0
  3
_DOTBLANK
  1

  0
CIRCLE
  5
43
330
41
100
AcDbEntity
  8
0
  6
BYBLOCK
 62
     0
370
    -2
100
AcDbCircle
 10
0.0
 20
0.0
 30
0.0
 40
0.5
  0
LINE
  5
44
330
41
100
AcDbEntity
  8
0
  6
BYBLOCK
 62
     0
370
    -2
100
AcDbLine
 10
-0.5
 20
0.0
 30
0.0
 11
-1.0
 21
0.0
 31
0.0
  0
ENDBLK
  5
45
330
41
100
AcDbEntity
  8
0
100
AcDbBlockEnd
  0
ENDSEC
  0
SECTION
  2
ENTITIES
  0
MTEXT
  5
46
100
AcDbEntity
  8
A8
  6
CONTINUOUS
 62
3
100
AcDbMText
 10
9.999997526638502
 20
18.00000076076889
 30
0.000000000000000
 40
3.000000000000000
 41
0.000000000000000
 44
0.6739999771118164
 71
     7
 72
     1
  1
{\H0.93x;{TYPE No.TL-440}}
 11
1.000000000000000
 21
0.000000000000000
 31
0.000000000000000
  7
STANDARD
  0
POINT
  5
47
100
AcDbEntity
  8
A0
  6
CONTINUOUS
 62
3
100
AcDbPoint
 10
9.999997526638502
 20
18.00000076076889
 30
0.000000000000000
  0
LINE
  5
48
100
AcDbEntity
  8
A1
  6
CONTINUOUS
 62
7
100
AcDbLine
 10
207.4576942492472
 20
163.9101621028716
 30
0.000000000000000
 11
221.4382349375728
 21
133.8207569358854
 31
0.000000000000000
  0
LINE
  5
49
100
AcDbEntity
  8
A1
  6
CONTINUOUS
 62
7
100
AcDbLine
 10
207.4576942492474
 20
163.9101621028716
 30
0.000000000000000
 11
209.2722590945558
 21
164.7527886050485
 31
0.000000000000000
  0
LINE
  5
4A
100
AcDbEntity
  8
A1
  6
CONTINUOUS
 62
7
100
AcDbLine
 10
221.0613629370028
 20
170.2303621182018
 30
0.000000000000000
 11
222.5358468845108
 21
167.0561185723250
 31
0.000000000000000
  0
LINE
  5
4B
100
AcDbEntity
  8
A1
  6
CONTINUOUS
 62
7
100
AcDbLine
 10
215.6726605163724
 20
114.2474229935326
 30
0.000000000000000
 11
214.7422970756176
 21
115.0070805123739
 31
0.000000000000000
  0
LINE
  5
4C
100
AcDbEntity
  8
A1
  6
CONTINUOUS
 62
7
100
AcDbLine
 10
94.92934458057373
 20
173.9918125221409
 30
0.000000000000000
 11
94.92934458057367
 21
163.9101621029521
 31
0.000000000000000
  0
LINE
  5
4D
100
AcDbEntity
  8
A1
  6
CONTINUOUS
 62
7
100
AcDbLine
 10
94.92934458057374
 20
173.9918125221410
 30
0.000000000000000
 11
93.72934458057370
 21
173.9918125221410
 31
0.000000000000000
  0
LINE
  5
4E
100
AcDbEntity
  8
A1
  6
CONTINUOUS
 62
7
100
AcDbLine
 10
116.5290445805738
 20
173.9918125221409
 30
0.000000000000000
 11
116.5290445805737
 21
163.9101621029794
 31
0.000000000000000
  0
LINE
  5
4F
100
AcDbEntity
  8
A1
  6
CONTINUOUS
 62
7
100
AcDbLine
 10
117.7290445805737
 20
173.9918125221409
 30
0.000000000000000
 11
117.7290445805737
 21
121.9984781153303
 31
0.000000000000000
  0
LINE
  5
50
100
AcDbEntity
  8
A1
  6
CONTINUOUS
 62
7
100
AcDbLine
 10
93.72934458057374
 20
173.9918125221409
 30
0.000000000000000
 11
93.72934458057371
 21
121.9989749080861
 31
0.000000000000000
  0
LINE
  5
51
100
AcDbEntity
  8
A1
  6
CONTINUOUS
 62
7
100
AcDbLine
 10
117.7290445805737
 20
173.9918125221410
 30
0.000000000000000
 11
116.5290445805737
 21
173.9918125221410
 31
0.000000000000000
  0
LINE
  5
52
100
AcDbEntity
  8
A1
  6
CONTINUOUS
 62
7
100
AcDbLine
 10
116.2290445805737
 20
127.0174672402439
 30
0.000000000000000
 11
95.22934458057370
 21
127.0174672402439
 31
0.000000000000000
  0
ARC
  5
53
100
AcDbEntity
  8
A1
  6
CONTINUOUS
 62
7
100
AcDbCircle
 10
213.0519981795283
 20
131.0371357581042
 30
0.000000000000000
 40
10.00000000000000
100
AcDbArc
 50
331.1700863580037
 51
374.9199453580036
  0
ARC
  5
54
100
AcDbEntity
  8
A1
  6
CONTINUOUS
 62
7
100
AcDbCircle
 10
177.1364677826349
 20
146.1058888948945
 30
0.000000000000000
 40
50.00000000000000
100
AcDbArc
 50
320.4189349382930
 51
384.7716759941781
  0
ARC
  5
55
100
AcDbEntity
  8
A1
  6
CONTINUOUS
 62
7
100
AcDbCircle
 10
177.1364677826349
 20
146.1058888948945
 30
0.000000000000000
 40
48.80000000000000
100
AcDbArc
 50
320.4189349382930
 51
335.0369323535878
  0
ARC
  5
56
100
AcDbEntity
  8
A1
  6
CONTINUOUS
 62
7
100
AcDbCircle
 10
212.3117723542914
 20
129.7309706266650
 30
0.000000000000000
 40
10.00000000000000
100
AcDbArc
 50
335.0369323535878
 51
384.9211518481929
  0
ARC
  5
57
100
AcDbEntity
  8
A1
  6
CONTINUOUS
 62
7
100
AcDbCircle
 10
220.6445055589394
 20
155.7024664980232
 30
0.000000000000000
 40
2.250000000000000
100
AcDbArc
 50
176.3957745163422
 51
410.9278634178091
  0
LINE
  5
58
100
AcDbEntity
  8
A4
  6
CENTER
 62
1
100
AcDbLine
 10
105.7293445805738
 20
234.2692007293464
 30
0.000000000000000
 11
105.7293445805738
 21
112.7474229935312
 31
0.000000000000000
  0
LINE
  5
59
100
AcDbEntity
  8
A1
  6
CONTINUOUS
 62
7
100
AcDbLine
 10
227.1662466603244
 20
186.4918125221161
 30
0.000000000000000
 11
227.1662466603244
 21
141.4918125221161
 31
0.000000000000000
  0
LINE
  5
5A
100
AcDbEntity
  8
A1
  6
CONTINUOUS
 62
7
100
AcDbLine
 10
226.1662466603244
 20
186.4918125221161
 30
0.000000000000000
 11
227.1662466603244
 21
186.4918125221161
 31
0.000000000000000
  0
LINE
  5
5B
100
AcDbEntity
  8
A1
  6
CONTINUOUS
 62
7
100
AcDbLine
 10
226.9231155832869
 20
141.4918125221161
 30
0.000000000000000
 11
227.1662466603244
 21
141.4918125221161
 31
0.000000000000000
  0
LINE
  5
5C
100
AcDbEntity
  8
A1
  6
CONTINUOUS
 62
7
100
AcDbLine
 10
114.7293445805737
 20
186.4918125221160
 30
0.000000000000000
 11
96.72934458057361
 21
186.4918125221160
 31
0.000000000000000
  0
ARC
  5
5D
100
AcDbEntity
  8
A1
  6
CONTINUOUS
 62
7
100
AcDbCircle
 10
114.7293445805736
 20
184.9918125221161
 30
0.000000000000000
 40
1.500000000000000
100
AcDbArc
 50
7.633331235512440e-14
 51
90.00000000000007
  0
ARC
  5
5E
100
AcDbEntity
  8
A1
  6
CONTINUOUS
 62
7
100
AcDbCircle
 10
96.72934458057364
 20
184.9918125221161
 30
0.000000000000000
 40
1.500000000000000
100
AcDbArc
 50
90.00000000000007
 51
180.0000000000001
  0
ARC
  5
5F
100
AcDbEntity
  8
A1
  6
CONTINUOUS
 62
7
100
AcDbCircle
 10
198.0095842016088
 20
196.8456697350566
 30
0.000000000000000
 40
30.00000000000000
100
AcDbArc
 50
309.5076377740711
 51
339.8103554173404
  0
ARC
  5
60
100
AcDbEntity
  8
A1
  6
CONTINUOUS
 62
7
100
AcDbCircle
 10
215.1667660432586
 20
167.4920733349902
 30
0.000000000000000
 40
6.500000000000000
100
AcDbArc
 50
24.91685533518302
 51
93.07457652523898
  0
ARC
  5
61
100
AcDbEntity
  8
A1
  6
CONTINUOUS
 62
7
100
AcDbCircle
 10
215.1667660432586
 20
167.4920733349902
 30
0.000000000000000
 40
6.500000000000000
100
AcDbArc
 50
128.9545929502441
 51
204.9251513280612
  0
LINE
  5
62
100
AcDbEntity
  8
A1
  6
CONTINUOUS
 62
7
100
AcDbLine
 10
115.2293445805737
 20
164.7527886050485
 30
0.000000000000000
 11
115.2293445805737
 21
186.4060260844892
 31
0.000000000000000
  0
LINE
  5
63
100
AcDbEntity
  8
A1
  6
CONTINUOUS
 62
7
100
AcDbLine
 10
116.2293445805737
 20
164.7527886050485
 30
0.000000000000000
 11
116.2293445805737
 21
184.9918125221161
 31
0.000000000000000
  0
LINE
  5
64
100
AcDbEntity
  8
A1
  6
CONTINUOUS
 62
7
100
AcDbLine
 10
96.22934458057368
 20
164.7527886050485
 30
0.000000000000000
 11
96.22934458057365
 21
186.4060260844891
 31
0.000000000000000
  0
LINE
  5
65
100
AcDbEntity
  8
A1
  6
CONTINUOUS
 62
7
100
AcDbLine
 10
95.22934458057372
 20
164.7527886050485
 30
0.000000000000000
 11
95.22934458057372
 21
184.9918125221161
 31
0.000000000000000
  0
LINE
  5
66
100
AcDbEntity
  8
A4
  6
CENTER
 62
1
100
AcDbLine
 10
87.46306328323820
 20
155.7024664980231
 30
0.000000000000000
 11
123.9953258779092
 21
155.7024664980231
 31
0.000000000000000
  0
LINE
  5
67
100
AcDbEntity
  8
A1
  6
CONTINUOUS
 62
7
100
AcDbLine
 10
94.92934458057367
 20
163.9101621029521
 30
0.000000000000000
 11
116.5290445805737
 21
163.9101621029794
 31
0.000000000000000
  0
LINE
  5
68
100
AcDbEntity
  8
A1
  6
CONTINUOUS
 62
7
100
AcDbLine
 10
94.92934458057371
 20
164.7527886050485
 30
0.000000000000000
 11
116.5290445805737
 21
164.7527886050485
 31
0.000000000000000
  0
LINE
  5
69
100
AcDbEntity
  8
A4
  6
CENTER
 62
1
100
AcDbLine
 10
91.72934458057371
 20
167.4918125221409
 30
0.000000000000000
 11
119.7290445805737
 21
167.4918125221410
 31
0.000000000000000
  0
LINE
  5
6A
100
AcDbEntity
  8
A1
  6
CONTINUOUS
 62
7
100
AcDbLine
 10
118.2290445805737
 20
169.5918125221410
 30
0.000000000000000
 11
118.2290445805737
 21
165.3918125221411
 31
0.000000000000000
  0
LINE
  5
6B
100
AcDbEntity
  8
A1
  6
CONTINUOUS
 62
7
100
AcDbLine
 10
93.22934458057372
 20
169.1418125221161
 30
0.000000000000000
 11
93.22934458057372
 21
165.8418125221161
 31
0.000000000000000
  0
LINE
  5
6C
100
AcDbEntity
  8
A1
  6
CONTINUOUS
 62
7
100
AcDbLine
 10
116.2293445805737
 20
169.4918125221410
 30
0.000000000000000
 11
116.5290445805737
 21
169.4918125221410
 31
0.000000000000000
  0
LINE
  5
6D
100
AcDbEntity
  8
A1
  6
CONTINUOUS
 62
7
100
AcDbLine
 10
116.2293445805737
 20
165.4918125221410
 30
0.000000000000000
 11
116.5290445805737
 21
165.4918125221410
 31
0.000000000000000
  0
LINE
  5
6E
100
AcDbEntity
  8
A1
  6
CONTINUOUS
 62
7
100
AcDbLine
 10
96.22934458057371
 20
169.4918125221409
 30
0.000000000000000
 11
115.2293445805737
 21
169.4918125221410
 31
0.000000000000000
  0
LINE
  5
6F
100
AcDbEntity
  8
A1
  6
CONTINUOUS
 62
7
100
AcDbLine
 10
96.22934458057372
 20
165.4918125221409
 30
0.000000000000000
 11
115.2293445805737
 21
165.4918125221410
 31
0.000000000000000
  0
LINE
  5
70
100
AcDbEntity
  8
A1
  6
CONTINUOUS
 62
7
100
AcDbLine
 10
94.92934458057361
 20
168.9918125221386
 30
0.000000000000000
 11
95.22934458057394
 21
168.9918125221380
 31
0.000000000000000
  0
LINE
  5
71
100
AcDbEntity
  8
A1
  6
CONTINUOUS
 62
7
100
AcDbLine
 10
94.92934458057375
 20
165.9918125221416
 30
0.000000000000000
 11
95.22934458057411
 21
165.9918125221417
 31
0.000000000000000
  0
LINE
  5
72
100
AcDbEntity
  8
A1
  6
CONTINUOUS
 62
7
100
AcDbLine
 10
93.22934458057384
 20
169.1418125221161
 30
0.000000000000000
 11
93.72934458057379
 21
168.9918125221409
 31
0.000000000000000
  0
LINE
  5
73
100
AcDbEntity
  8
A1
  6
CONTINUOUS
 62
7
100
AcDbLine
 10
93.22934458057379
 20
165.8418125221161
 30
0.000000000000000
 11
93.72934458057379
 21
165.9918125221410
 31
0.000000000000000
  0
LINE
  5
74
100
AcDbEntity
  8
A1
  6
CONTINUOUS
 62
7
100
AcDbLine
 10
118.2290445805738
 20
169.5918125221411
 30
0.000000000000000
 11
117.7290445805738
 21
169.4918125221411
 31
0.000000000000000
  0
LINE
  5
75
100
AcDbEntity
  8
A1
  6
CONTINUOUS
 62
7
100
AcDbLine
 10
118.2290445805737
 20
165.3918125221411
 30
0.000000000000000
 11
117.7290445805737
 21
165.4918125221411
 31
0.000000000000000
  0
ARC
  5
76
100
AcDbEntity
  8
A1
  6
CONTINUOUS
 62
7
100
AcDbCircle
 10
105.7293642668513
 20
128.1467672301524
 30
0.000000000000000
 40
13.89934423663374
100
AcDbArc
 50
214.3364571243792
 51
325.6603801419986
  0
ARC
  5
77
100
AcDbEntity
  8
A1
  6
CONTINUOUS
 62
7
100
AcDbCircle
 10
105.7293596527895
 20
129.6297827502594
 30
0.000000000000000
 40
14.62270223789332
100
AcDbArc
 50
219.2540516908358
 51
320.7433763238130
  0
ARC
  5
78
100
AcDbEntity
  8
A1
  6
CONTINUOUS
 62
7
100
AcDbCircle
 10
114.7290445805737
 20
122.2749966547061
 30
0.000000000000000
 40
3.000000000000000
100
AcDbArc
 50
320.7433763238131
 51
360.0000000000000
  0
ARC
  5
79
100
AcDbEntity
  8
A1
  6
CONTINUOUS
 62
7
100
AcDbCircle
 10
114.7290445805737
 20
121.9984781153303
 30
0.000000000000000
 40
3.000000000000000
100
AcDbArc
 50
325.6603801419986
 51
360.0000000000000
  0
ARC
  5
7A
100
AcDbEntity
  8
A1
  6
CONTINUOUS
 62
7
100
AcDbCircle
 10
96.72934458057370
 20
122.2754006544870
 30
0.000000000000000
 40
3.000000000000000
100
AcDbArc
 50
180.0000000000000
 51
219.2540516908356
  0
ARC
  5
7B
100
AcDbEntity
  8
A1
  6
CONTINUOUS
 62
7
100
AcDbCircle
 10
96.72934458057370
 20
121.9989749080861
 30
0.000000000000000
 40
3.000000000000000
100
AcDbArc
 50
180.0000000000000
 51
214.3364571243792
  0
LINE
  5
7C
100
AcDbEntity
  8
A4
  6
CENTER
 62
1
100
AcDbLine
 10
105.7293445805738
 20
234.2692007293464
 30
0.000000000000000
 11
105.7293445805738
 21
112.7474229935312
 31
0.000000000000000
  0
ARC
  5
7D
100
AcDbEntity
  8
A1
  6
CONTINUOUS
 62
7
100
AcDbCircle
 10
88.72934458057517
 20
235.3437625459314
 30
0.000000000000000
 40
1.999999999998579
100
AcDbArc
 50
0.000000000000000
 51
180.0000000000000
  0
ARC
  5
7E
100
AcDbEntity
  8
A1
  6
CONTINUOUS
 62
7
100
AcDbCircle
 10
122.7293445805752
 20
235.3437625459075
 30
0.000000000000000
 40
1.999999999998579
100
AcDbArc
 50
0.000000000000000
 51
180.0000000000000
  0
LINE
  5
7F
100
AcDbEntity
  8
A1
  6
CONTINUOUS
 62
7
100
AcDbLine
 10
92.72934458056400
 20
230.5622898399209
 30
0.000000000000000
 11
118.7293445805836
 21
230.5622898399139
 31
0.000000000000000
  0
LINE
  5
80
100
AcDbEntity
  8
A1
  6
CONTINUOUS
 62
7
100
AcDbLine
 10
92.72934458057378
 20
226.5622898399210
 30
0.000000000000000
 11
118.7293445805738
 21
226.5622898399140
 31
0.000000000000000
  0
ELLIPSE
  5
81
100
AcDbEntity
  8
A1
  6
CONTINUOUS
 62
7
100
AcDbEllipse
 10
118.7293445805836
 20
231.3640756093243
 30
0.000000000000000
 11
-2.000000000009777
 21
0.000000000000000
 31
0.000000000000000
210
0.000000000000000
220
0.000000000000000
230
1.000000000000000
 40
0.4008928847032265
 41
1.570796326794897
 42
3.141592653589793
  0
ELLIPSE
  5
82
100
AcDbEntity
  8
A1
  6
CONTINUOUS
 62
7
100
AcDbEllipse
 10
118.7293445805738
 20
231.3640756093243
 30
0.000000000000000
 11
-6.000000000000028
 21
0.000000000000000
 31
0.000000000000000
210
0.000000000000000
220
0.000000000000000
230
1.000000000000000
 40
0.8002976282350630
 41
1.570796326794897
 42
1.910633236249017
  0
ELLIPSE
  5
83
100
AcDbEntity
  8
A1
  6
CONTINUOUS
 62
7
100
AcDbEllipse
 10
92.72934458056403
 20
231.3640756093243
 30
0.000000000000000
 11
2.000000000009777
 21
0.000000000000000
 31
0.000000000000000
210
0.000000000000000
220
0.000000000000000
230
1.000000000000000
 40
0.4008928847032265
 41
3.141592653589793
 42
4.712388980384690
  0
ELLIPSE
  5
84
100
AcDbEntity
  8
A1
  6
CONTINUOUS
 62
7
100
AcDbEllipse
 10
92.72934458057381
 20
231.3640756093243
 30
0.000000000000000
 11
6.000000000000028
 21
0.000000000000000
 31
0.000000000000000
210
0.000000000000000
220
0.000000000000000
230
1.000000000000000
 40
0.8002976282350630
 41
4.372552070930570
 42
4.712388980384690
  0
LINE
  5
85
100
AcDbEntity
  8
A1
  6
CONTINUOUS
 62
7
100
AcDbLine
 10
90.72934458057388
 20
192.8373442111148
 30
0.000000000000000
 11
92.00230675790228
 21
159.6258647828939
 31
0.000000000000000
  0
ARC
  5
86
100
AcDbEntity
  8
A1
  6
CONTINUOUS
 62
7
100
AcDbCircle
 10
90.72934458057358
 20
192.9139740398281
 30
0.000000000000000
 40
4.000000000000000
100
AcDbArc
 50
180.0000000000000
 51
182.1950143816548
  0
ARC
  5
87
100
AcDbEntity
  8
A1
  6
CONTINUOUS
 62
7
100
AcDbCircle
 10
214.6072043216001
 20
225.8437625459298
 30
0.000000000000000
 40
11.50000000000000
100
AcDbArc
 50
43.82899702289883
 51
178.8040153500318
  0
ARC
  5
88
100
AcDbEntity
  8
A1
  6
CONTINUOUS
 62
7
100
AcDbCircle
 10
214.6072043216001
 20
225.8437625459298
 30
0.000000000000000
 40
7.500000000000000
100
AcDbArc
 50
43.82899702289883
 51
178.8040153500865
  0
LINE
  5
89
100
AcDbEntity
  8
A1
  6
CONTINUOUS
 62
7
100
AcDbLine
 10
207.1088382418725
 20
226.0003081868579
 30
0.000000000000000
 11
206.4228658875281
 21
193.1423511807588
 31
0.000000000000000
  0
LINE
  5
8A
100
AcDbEntity
  8
A1
  6
CONTINUOUS
 62
7
100
AcDbLine
 10
203.1097095848184
 20
226.0837946189084
 30
0.000000000000000
 11
202.4237372927499
 21
193.2258405973200
 31
0.000000000000000
  0
LINE
  5
8B
100
AcDbEntity
  8
A1
  6
CONTINUOUS
 62
7
100
AcDbLine
 10
218.8126450751905
 20
154.8997914902651
 30
0.000000000000000
 11
202.7591449200304
 21
191.5370011652427
 31
0.000000000000000
  0
ARC
  5
8C
100
AcDbEntity
  8
A1
  6
CONTINUOUS
 62
7
100
AcDbCircle
 10
206.4228658874982
 20
193.1423511808270
 30
0.000000000000000
 40
4.000000000000000
100
AcDbArc
 50
178.8040153500320
 51
203.6618189670703
  0
LINE
  5
8D
100
AcDbEntity
  8
A1
  6
CONTINUOUS
 62
7
100
AcDbLine
 10
222.4763660426883
 20
156.5051415057811
 30
0.000000000000000
 11
206.4228658875281
 21
193.1423511807587
 31
0.000000000000000
  0
ARC
  5
8E
100
AcDbEntity
  8
A1
  6
CONTINUOUS
 62
7
100
AcDbCircle
 10
225.1662466603244
 20
228.5622898399174
 30
0.000000000000000
 40
2.000000000000000
100
AcDbArc
 50
223.8289970228991
 51
403.8289970228989
  0
LINE
  5
8F
100
AcDbEntity
  8
A1
  6
CONTINUOUS
 62
7
100
AcDbLine
 10
226.6090663533318
 20
229.9473065667010
 30
0.000000000000000
 11
222.9034175563924
 21
233.8076087249353
 31
0.000000000000000
  0
LINE
  5
90
100
AcDbEntity
  8
A1
  6
CONTINUOUS
 62
7
100
AcDbLine
 10
223.7234269673170
 20
227.1772731131339
 30
0.000000000000000
 11
220.0177781703777
 21
231.0375752713682
 31
0.000000000000000
  0
LINE
  5
91
100
AcDbEntity
  8
A4
  6
CENTER
 62
1
100
AcDbLine
 10
221.8933810189707
 20
228.5622898399174
 30
0.000000000000000
 11
228.6662466603244
 21
228.5622898399174
 31
0.000000000000000
  0
LINE
  5
92
100
AcDbEntity
  8
A4
  6
CENTER
 62
1
100
AcDbLine
 10
225.1662466603244
 20
231.7189202751160
 30
0.000000000000000
 11
225.1662466603244
 21
225.0622898399174
 31
0.000000000000000
  0
LINE
  5
93
100
AcDbEntity
  8
A1
  6
CONTINUOUS
 62
7
100
AcDbLine
 10
90.72934458057387
 20
235.3437625459075
 30
0.000000000000000
 11
90.72934458057387
 21
192.8373442111147
 31
0.000000000000000
  0
LINE
  5
94
100
AcDbEntity
  8
A1
  6
CONTINUOUS
 62
7
100
AcDbLine
 10
88.00817888932376
 20
159.4726613523963
 30
0.000000000000000
 11
86.73227956873252
 21
192.7607706093296
 31
0.000000000000000
  0
LINE
  5
95
100
AcDbEntity
  8
A1
  6
CONTINUOUS
 62
7
100
AcDbLine
 10
90.72934458057388
 20
192.8373442111148
 30
0.000000000000000
 11
92.00230675790228
 21
159.6258647828939
 31
0.000000000000000
  0
LINE
  5
96
100
AcDbEntity
  8
A1
  6
CONTINUOUS
 62
7
100
AcDbLine
 10
86.72934458532711
 20
235.3436246978015
 30
0.000000000000000
 11
86.73227956873251
 21
192.7607706093297
 31
0.000000000000000
  0
LINE
  5
97
100
AcDbEntity
  8
A1
  6
CONTINUOUS
 62
7
100
AcDbLine
 10
123.4505102718239
 20
159.4726613523964
 30
0.000000000000000
 11
124.7264095924152
 21
192.7607706093297
 31
0.000000000000000
  0
LINE
  5
98
100
AcDbEntity
  8
A1
  6
CONTINUOUS
 62
7
100
AcDbLine
 10
124.7293445758206
 20
235.3436246978015
 30
0.000000000000000
 11
124.7264095924152
 21
192.7607706093297
 31
0.000000000000000
  0
LINE
  5
99
100
AcDbEntity
  8
A1
  6
CONTINUOUS
 62
7
100
AcDbLine
 10
120.7293445805738
 20
235.3437625459075
 30
0.000000000000000
 11
120.7293445805738
 21
192.8373442111147
 31
0.000000000000000
  0
LINE
  5
9A
100
AcDbEntity
  8
A1
  6
CONTINUOUS
 62
7
100
AcDbLine
 10
120.7293445805739
 20
192.8373442111147
 30
0.000000000000000
 11
119.4563824032455
 21
159.6258647828938
 31
0.000000000000000
  0
LINE
  5
9B
100
AcDbEntity
  8
A4
  6
CENTER
 62
1
100
AcDbLine
 10
84.65332807910988
 20
228.5622898399174
 30
0.000000000000000
 11
127.3186695710559
 21
228.5622898399174
 31
0.000000000000000
  0
ARC
  5
9C
100
AcDbEntity
  8
A1
  6
CONTINUOUS
 62
7
100
AcDbCircle
 10
94.00377640708524
 20
159.7024664981440
 30
0.000000000000000
 40
6.000000000000000
100
AcDbArc
 50
182.1950143816550
 51
267.3784544981831
  0
ARC
  5
9D
100
AcDbEntity
  8
A1
  6
CONTINUOUS
 62
7
100
AcDbCircle
 10
94.00083926382274
 20
159.7024664981440
 30
0.000000000000000
 40
2.000000000000000
100
AcDbArc
 50
182.1950143816841
 51
262.1981627570196
  0
ARC
  5
9E
100
AcDbEntity
  8
A1
  6
CONTINUOUS
 62
7
100
AcDbCircle
 10
117.4578498973583
 20
159.7024664981458
 30
0.000000000000000
 40
2.000000000000000
100
AcDbArc
 50
277.7931626678902
 51
357.8049856183729
  0
ARC
  5
9F
100
AcDbEntity
  8
A1
  6
CONTINUOUS
 62
7
100
AcDbCircle
 10
117.4549127540623
 20
159.7024664981458
 30
0.000000000000000
 40
6.000000000000000
100
AcDbArc
 50
272.6186777148126
 51
357.8049856183450
  0
ARC
  5
A0
100
AcDbEntity
  8
A1
  6
CONTINUOUS
 62
7
100
AcDbCircle
 10
220.6445055589393
 20
155.7024664980231
 30
0.000000000000000
 40
1.999999999999954
100
AcDbArc
 50
203.6618189670703
 51
383.6618189670703
  0
LINE
  5
A1
100
AcDbEntity
  8
A1
  6
CONTINUOUS
 62
7
100
AcDbLine
 10
343.3198976336155
 20
157.7094315221160
 30
0.000000000000000
 11
343.0198976336155
 21
157.7094315221160
 31
0.000000000000000
  0
LINE
  5
A2
100
AcDbEntity
  8
A1
  6
CONTINUOUS
 62
7
100
AcDbLine
 10
343.0198976336155
 20
153.7094315221160
 30
0.000000000000000
 11
343.3198976336155
 21
153.7094315221160
 31
0.000000000000000
  0
LINE
  5
A3
100
AcDbEntity
  8
A1
  6
CONTINUOUS
 62
7
100
AcDbLine
 10
364.3198976336154
 20
153.7094315221160
 30
0.000000000000000
 11
364.6198976336154
 21
153.7094315221160
 31
0.000000000000000
  0
LINE
  5
A4
100
AcDbEntity
  8
A1
  6
CONTINUOUS
 62
7
100
AcDbLine
 10
364.6198976336154
 20
157.7094315221160
 30
0.000000000000000
 11
364.3198976336154
 21
157.7094315221160
 31
0.000000000000000
  0
ARC
  5
A5
100
AcDbEntity
  8
A1
  6
CONTINUOUS
 62
7
100
AcDbCircle
 10
362.8198976336154
 20
184.9918125221160
 30
0.000000000000000
 40
1.500000000000000
100
AcDbArc
 50
0.000000000000000
 51
90.00000000000000
  0
ARC
  5
A6
100
AcDbEntity
  8
A1
  6
CONTINUOUS
 62
7
100
AcDbCircle
 10
362.8198976336154
 20
142.9918125221160
 30
0.000000000000000
 40
1.500000000000000
100
AcDbArc
 50
270.0000000000000
 51
360.0000000000000
  0
ARC
  5
A7
100
AcDbEntity
  8
A1
  6
CONTINUOUS
 62
7
100
AcDbCircle
 10
344.8198976336155
 20
184.9918125221160
 30
0.000000000000000
 40
1.500000000000000
100
AcDbArc
 50
90.00000000000000
 51
180.0000000000000
  0
ARC
  5
A8
100
AcDbEntity
  8
A1
  6
CONTINUOUS
 62
7
100
AcDbCircle
 10
344.8198976336155
 20
142.9918125221160
 30
0.000000000000000
 40
1.500000000000000
100
AcDbArc
 50
180.0000000000000
 51
270.0000000000000
  0
LINE
  5
A9
100
AcDbEntity
  8
A1
  6
CONTINUOUS
 62
7
100
AcDbLine
 10
345.8198976336155
 20
186.4918125221160
 30
0.000000000000000
 11
361.8198976336154
 21
186.4918125221160
 31
0.000000000000000
  0
LINE
  5
AA
100
AcDbEntity
  8
A1
  6
CONTINUOUS
 62
7
100
AcDbLine
 10
345.8198976336155
 20
141.4918125221160
 30
0.000000000000000
 11
361.8198976336154
 21
141.4918125221160
 31
0.000000000000000
  0
LINE
  5
AB
100
AcDbEntity
  8
A1
  6
CONTINUOUS
 62
7
100
AcDbLine
 10
361.8198976336154
 20
186.4918125221160
 30
0.000000000000000
 11
362.8198976336154
 21
186.4918125221160
 31
0.000000000000000
  0
LINE
  5
AC
100
AcDbEntity
  8
A1
  6
CONTINUOUS
 62
7
100
AcDbLine
 10
364.3198976336154
 20
184.9918125221160
 30
0.000000000000000
 11
364.3198976336154
 21
142.9918125221160
 31
0.000000000000000
  0
LINE
  5
AD
100
AcDbEntity
  8
A1
  6
CONTINUOUS
 62
7
100
AcDbLine
 10
362.8198976336154
 20
141.4918125221160
 30
0.000000000000000
 11
361.8198976336154
 21
141.4918125221160
 31
0.000000000000000
  0
LINE
  5
AE
100
AcDbEntity
  8
A1
  6
CONTINUOUS
 62
7
100
AcDbLine
 10
345.8198976336155
 20
141.4918125221160
 30
0.000000000000000
 11
344.8198976336155
 21
141.4918125221160
 31
0.000000000000000
  0
LINE
  5
AF
100
AcDbEntity
  8
A1
  6
CONTINUOUS
 62
7
100
AcDbLine
 10
344.8198976336155
 20
186.4918125221160
 30
0.000000000000000
 11
345.8198976336155
 21
186.4918125221160
 31
0.000000000000000
  0
LINE
  5
B0
100
AcDbEntity
  8
A1
  6
CONTINUOUS
 62
7
100
AcDbLine
 10
343.3198976336155
 20
142.9918125221160
 30
0.000000000000000
 11
343.3198976336155
 21
184.9918125221160
 31
0.000000000000000
  0
LINE
  5
B1
100
AcDbEntity
  8
A1
  6
CONTINUOUS
 62
7
100
AcDbLine
 10
364.3198976336154
 20
165.4918125221160
 30
0.000000000000000
 11
364.6198976336154
 21
165.4918125221160
 31
0.000000000000000
  0
LINE
  5
B2
100
AcDbEntity
  8
A1
  6
CONTINUOUS
 62
7
100
AcDbLine
 10
343.0198976336155
 20
165.4918125221160
 30
0.000000000000000
 11
343.3198976336155
 21
165.4918125221160
 31
0.000000000000000
  0
LINE
  5
B3
100
AcDbEntity
  8
A1
  6
CONTINUOUS
 62
7
100
AcDbLine
 10
343.3198976336155
 20
169.4918125221160
 30
0.000000000000000
 11
343.0198976336155
 21
169.4918125221160
 31
0.000000000000000
  0
LINE
  5
B4
100
AcDbEntity
  8
A1
  6
CONTINUOUS
 62
7
100
AcDbLine
 10
364.6198976336154
 20
169.4918125221160
 30
0.000000000000000
 11
364.3198976336154
 21
169.4918125221160
 31
0.000000000000000
  0
LINE
  5
B5
100
AcDbEntity
  8
A1
  6
CONTINUOUS
 62
7
100
AcDbLine
 10
341.8201976336155
 20
170.2972515221160
 30
0.000000000000000
 11
341.8201976336155
 21
173.9919025221160
 31
0.000000000000000
  0
LINE
  5
B6
100
AcDbEntity
  8
A1
  6
CONTINUOUS
 62
7
100
AcDbLine
 10
343.0198976336155
 20
173.9918675221160
 30
0.000000000000000
 11
341.8201976336155
 21
173.9918675221160
 31
0.000000000000000
  0
LINE
  5
B7
100
AcDbEntity
  8
A1
  6
CONTINUOUS
 62
7
100
AcDbLine
 10
343.0198976336155
 20
170.2972515221160
 30
0.000000000000000
 11
343.0198976336155
 21
173.9918815221160
 31
0.000000000000000
  0
LINE
  5
B8
100
AcDbEntity
  8
A1
  6
CONTINUOUS
 62
7
100
AcDbLine
 10
365.8198976336154
 20
170.2972515221160
 30
0.000000000000000
 11
365.8198976336154
 21
173.9919125221160
 31
0.000000000000000
  0
LINE
  5
B9
100
AcDbEntity
  8
A1
  6
CONTINUOUS
 62
7
100
AcDbLine
 10
365.8198976336154
 20
173.9918675221160
 30
0.000000000000000
 11
364.6198976336154
 21
173.9918675221160
 31
0.000000000000000
  0
LINE
  5
BA
100
AcDbEntity
  8
A1
  6
CONTINUOUS
 62
7
100
AcDbLine
 10
364.6198976336154
 20
170.2972515221160
 30
0.000000000000000
 11
364.6198976336154
 21
173.9918815221160
 31
0.000000000000000
  0
LINE
  5
BB
100
AcDbEntity
  8
A1
  6
CONTINUOUS
 62
7
100
AcDbLine
 10
364.3198976336154
 20
164.4154155221160
 30
0.000000000000000
 11
364.6198976336154
 21
164.4154155221160
 31
0.000000000000000
  0
LINE
  5
BC
100
AcDbEntity
  8
A1
  6
CONTINUOUS
 62
7
100
AcDbLine
 10
343.0198976336155
 20
164.4154155221160
 30
0.000000000000000
 11
343.3198976336155
 21
164.4154155221160
 31
0.000000000000000
  0
LINE
  5
BD
100
AcDbEntity
  8
A1
  6
CONTINUOUS
 62
7
100
AcDbLine
 10
341.8201976336155
 20
170.2972515221160
 30
0.000000000000000
 11
341.8201976336155
 21
166.9200695221160
 31
0.000000000000000
  0
LINE
  5
BE
100
AcDbEntity
  8
A1
  6
CONTINUOUS
 62
7
100
AcDbLine
 10
343.0198976336155
 20
166.9200695221160
 30
0.000000000000000
 11
343.0198976336155
 21
170.2972515221160
 31
0.000000000000000
  0
LINE
  5
BF
100
AcDbEntity
  8
A1
  6
CONTINUOUS
 62
7
100
AcDbLine
 10
343.0198976336155
 20
170.2972515221160
 30
0.000000000000000
 11
341.8201976336155
 21
170.2972515221160
 31
0.000000000000000
  0
LINE
  5
C0
100
AcDbEntity
  8
A1
  6
CONTINUOUS
 62
7
100
AcDbLine
 10
365.8198976336154
 20
170.2972515221160
 30
0.000000000000000
 11
365.8198976336154
 21
166.9200695221160
 31
0.000000000000000
  0
LINE
  5
C1
100
AcDbEntity
  8
A1
  6
CONTINUOUS
 62
7
100
AcDbLine
 10
364.6198976336154
 20
166.9200695221160
 30
0.000000000000000
 11
364.6198976336154
 21
170.2972515221160
 31
0.000000000000000
  0
LINE
  5
C2
100
AcDbEntity
  8
A1
  6
CONTINUOUS
 62
7
100
AcDbLine
 10
365.8198976336154
 20
170.2972515221160
 30
0.000000000000000
 11
364.6198976336154
 21
170.2972515221160
 31
0.000000000000000
  0
LINE
  5
C3
100
AcDbEntity
  8
A1
  6
CONTINUOUS
 62
7
100
AcDbLine
 10
364.6198976336154
 20
134.3331085221160
 30
0.000000000000000
 11
343.0198976336155
 21
134.3331085221160
 31
0.000000000000000
  0
LINE
  5
C4
100
AcDbEntity
  8
A1
  6
CONTINUOUS
 62
7
100
AcDbLine
 10
365.8198976336154
 20
121.9984781153303
 30
0.000000000000000
 11
365.8198976336154
 21
166.9200695221160
 31
0.000000000000000
  0
LINE
  5
C5
100
AcDbEntity
  8
A1
  6
CONTINUOUS
 62
7
100
AcDbLine
 10
365.8198976336154
 20
166.9200695221160
 30
0.000000000000000
 11
364.6198976336154
 21
166.9200695221160
 31
0.000000000000000
  0
LINE
  5
C6
100
AcDbEntity
  8
A1
  6
CONTINUOUS
 62
7
100
AcDbLine
 10
364.6198976336154
 20
166.9200695221160
 30
0.000000000000000
 11
364.6198976336154
 21
124.8869075221160
 31
0.000000000000000
  0
LINE
  5
C7
100
AcDbEntity
  8
A1
  6
CONTINUOUS
 62
7
100
AcDbLine
 10
364.6198976336154
 20
124.8869075221160
 30
0.000000000000000
 11
343.0198976336155
 21
124.8869075221160
 31
0.000000000000000
  0
LINE
  5
C8
100
AcDbEntity
  8
A1
  6
CONTINUOUS
 62
7
100
AcDbLine
 10
343.0198976336155
 20
166.9200695221160
 30
0.000000000000000
 11
343.0198976336155
 21
124.8869075221160
 31
0.000000000000000
  0
LINE
  5
C9
100
AcDbEntity
  8
A1
  6
CONTINUOUS
 62
7
100
AcDbLine
 10
343.0198976336155
 20
166.9200695221160
 30
0.000000000000000
 11
341.8201976336155
 21
166.9200695221160
 31
0.000000000000000
  0
LINE
  5
CA
100
AcDbEntity
  8
A1
  6
CONTINUOUS
 62
7
100
AcDbLine
 10
341.8201976336155
 20
121.9984781153303
 30
0.000000000000000
 11
341.8201976336155
 21
166.9200695221160
 31
0.000000000000000
  0
LINE
  5
CB
100
AcDbEntity
  8
A1
  6
CONTINUOUS
 62
7
100
AcDbLine
 10
345.8198976336155
 20
186.4918125221160
 30
0.000000000000000
 11
351.8201976336155
 21
186.4918125221160
 31
0.000000000000000
  0
ARC
  5
CC
100
AcDbEntity
  8
A1
  6
CONTINUOUS
 62
7
100
AcDbCircle
 10
344.8200476336153
 20
121.9989749080861
 30
0.000000000000000
 40
3.000000000000000
100
AcDbArc
 50
180.0000000000000
 51
214.3364571243792
  0
ARC
  5
CD
100
AcDbEntity
  8
A1
  6
CONTINUOUS
 62
7
100
AcDbCircle
 10
353.8200673198929
 20
128.1467672301524
 30
0.000000000000000
 40
13.89934423663374
100
AcDbArc
 50
214.3364571243792
 51
325.6603801419986
  0
ARC
  5
CE
100
AcDbEntity
  8
A1
  6
CONTINUOUS
 62
7
100
AcDbCircle
 10
362.8197476336153
 20
121.9984781153303
 30
0.000000000000000
 40
3.000000000000000
100
AcDbArc
 50
325.6603801419986
 51
360.0000000000000
  0
LINE
  5
CF
100
AcDbEntity
  8
A1
  6
CONTINUOUS
 62
7
100
AcDbLine
 10
338.8200476336156
 20
192.8373442111148
 30
0.000000000000000
 11
340.0930098109440
 21
159.6258647828939
 31
0.000000000000000
  0
LINE
  5
D0
100
AcDbEntity
  8
A1
  6
CONTINUOUS
 62
7
100
AcDbLine
 10
336.0988819423654
 20
159.4726613523963
 30
0.000000000000000
 11
334.8229826217742
 21
192.7607706093296
 31
0.000000000000000
  0
LINE
  5
D1
100
AcDbEntity
  8
A1
  6
CONTINUOUS
 62
7
100
AcDbLine
 10
368.8200476336156
 20
192.8373442111147
 30
0.000000000000000
 11
367.5470854562872
 21
159.6258647828939
 31
0.000000000000000
  0
LINE
  5
D2
100
AcDbEntity
  8
A1
  6
CONTINUOUS
 62
7
100
AcDbLine
 10
371.5412133248655
 20
159.4726613523964
 30
0.000000000000000
 11
372.8171126454567
 21
192.7607706093297
 31
0.000000000000000
  0
ARC
  5
D3
100
AcDbEntity
  8
A1
  6
CONTINUOUS
 62
7
100
AcDbCircle
 10
365.5456158071040
 20
159.7024664981458
 30
0.000000000000000
 40
6.000000000000000
100
AcDbArc
 50
272.6186777148126
 51
357.8049856183450
  0
ARC
  5
D4
100
AcDbEntity
  8
A1
  6
CONTINUOUS
 62
7
100
AcDbCircle
 10
365.5485529503999
 20
159.7024664981458
 30
0.000000000000000
 40
2.000000000000000
100
AcDbArc
 50
277.7931626678902
 51
357.8049856183729
  0
ARC
  5
D5
100
AcDbEntity
  8
A1
  6
CONTINUOUS
 62
7
100
AcDbCircle
 10
342.0944794601269
 20
159.7024664981440
 30
0.000000000000000
 40
6.000000000000000
100
AcDbArc
 50
182.1950143816550
 51
267.3784544981831
  0
ARC
  5
D6
100
AcDbEntity
  8
A1
  6
CONTINUOUS
 62
7
100
AcDbCircle
 10
342.0915423168644
 20
159.7024664981440
 30
0.000000000000000
 40
2.000000000000000
100
AcDbArc
 50
182.1950143816841
 51
262.1981627570196
  0
LINE
  5
D7
100
AcDbEntity
  8
A1
  6
CONTINUOUS
 62
7
100
AcDbLine
 10
334.8200476383687
 20
235.3436246978015
 30
0.000000000000000
 11
334.8229826217741
 21
192.7607706093296
 31
0.000000000000000
  0
ARC
  5
D8
100
AcDbEntity
  8
A1
  6
CONTINUOUS
 62
7
100
AcDbCircle
 10
336.8200476336168
 20
235.3437625459314
 30
0.000000000000000
 40
1.999999999998579
100
AcDbArc
 50
0.000000000000000
 51
180.0000000000000
  0
LINE
  5
D9
100
AcDbEntity
  8
A1
  6
CONTINUOUS
 62
7
100
AcDbLine
 10
340.8200476336150
 20
230.5622898399209
 30
0.000000000000000
 11
366.8200476336149
 21
230.5622898399139
 31
0.000000000000000
  0
LINE
  5
DA
100
AcDbEntity
  8
A1
  6
CONTINUOUS
 62
7
100
AcDbLine
 10
340.8202393535234
 20
226.5622898399210
 30
0.000000000000000
 11
366.8198559137043
 21
226.5622898399139
 31
0.000000000000000
  0
ARC
  5
DB
100
AcDbEntity
  8
A1
  6
CONTINUOUS
 62
7
100
AcDbCircle
 10
370.8200476336169
 20
235.3437625459075
 30
0.000000000000000
 40
1.999999999998579
100
AcDbArc
 50
0.000000000000000
 51
180.0000000000000
  0
ARC
  5
DC
100
AcDbEntity
  8
A1
  6
CONTINUOUS
 62
7
100
AcDbCircle
 10
340.8202393535250
 20
232.5622898399209
 30
0.000000000000000
 40
6.000000000000000
100
AcDbArc
 50
180.0000000000000
 51
270.0000000000000
  0
ARC
  5
DD
100
AcDbEntity
  8
A1
  6
CONTINUOUS
 62
7
100
AcDbCircle
 10
366.8198559137059
 20
232.5622898399139
 30
0.000000000000000
 40
6.000000000000000
100
AcDbArc
 50
270.0000000000000
 51
360.0000000000000
  0
ARC
  5
DE
100
AcDbEntity
  8
A1
  6
CONTINUOUS
 62
7
100
AcDbCircle
 10
340.8200476336155
 20
232.5622898399209
 30
0.000000000000000
 40
2.000000000000000
100
AcDbArc
 50
180.0000000000000
 51
270.0000000000000
  0
ARC
  5
DF
100
AcDbEntity
  8
A1
  6
CONTINUOUS
 62
7
100
AcDbCircle
 10
366.8200476336154
 20
232.5622898399139
 30
0.000000000000000
 40
2.000000000000000
100
AcDbArc
 50
270.0000000000000
 51
360.0000000000000
  0
LINE
  5
E0
100
AcDbEntity
  8
A1
  6
CONTINUOUS
 62
7
100
AcDbLine
 10
338.8200476336155
 20
226.9055033773076
 30
0.000000000000000
 11
338.8200476336155
 21
192.8373442111148
 31
0.000000000000000
  0
LINE
  5
E1
100
AcDbEntity
  8
A1
  6
CONTINUOUS
 62
7
100
AcDbLine
 10
338.8200476336155
 20
235.3437625459075
 30
0.000000000000000
 11
338.8200476336155
 21
232.5622898399209
 31
0.000000000000000
  0
LINE
  5
E2
100
AcDbEntity
  8
A1
  6
CONTINUOUS
 62
7
100
AcDbLine
 10
368.8200476336154
 20
226.9055033773006
 30
0.000000000000000
 11
368.8200476336154
 21
192.8373442111147
 31
0.000000000000000
  0
LINE
  5
E3
100
AcDbEntity
  8
A1
  6
CONTINUOUS
 62
7
100
AcDbLine
 10
368.8200476336154
 20
235.3437625459075
 30
0.000000000000000
 11
368.8200476336154
 21
232.5622898399139
 31
0.000000000000000
  0
LINE
  5
E4
100
AcDbEntity
  8
A1
  6
CONTINUOUS
 62
7
100
AcDbLine
 10
341.3200476336153
 20
169.1418125221162
 30
0.000000000000000
 11
341.3200476336153
 21
165.8418125221162
 31
0.000000000000000
  0
LINE
  5
E5
100
AcDbEntity
  8
A1
  6
CONTINUOUS
 62
7
100
AcDbLine
 10
341.3200476336156
 20
169.1418125221163
 30
0.000000000000000
 11
341.8200476336155
 21
168.9918125221411
 31
0.000000000000000
  0
LINE
  5
E6
100
AcDbEntity
  8
A1
  6
CONTINUOUS
 62
7
100
AcDbLine
 10
341.3200476336155
 20
165.8418125221163
 30
0.000000000000000
 11
341.8200476336155
 21
165.9918125221412
 31
0.000000000000000
  0
LINE
  5
E7
100
AcDbEntity
  8
A1
  6
CONTINUOUS
 62
7
100
AcDbLine
 10
366.3197476336153
 20
169.5918125221412
 30
0.000000000000000
 11
366.3197476336153
 21
165.3918125221412
 31
0.000000000000000
  0
LINE
  5
E8
100
AcDbEntity
  8
A1
  6
CONTINUOUS
 62
7
100
AcDbLine
 10
366.3197476336153
 20
169.5918125221412
 30
0.000000000000000
 11
365.8197476336153
 21
169.4918125221413
 31
0.000000000000000
  0
LINE
  5
E9
100
AcDbEntity
  8
A1
  6
CONTINUOUS
 62
7
100
AcDbLine
 10
366.3197476336154
 20
165.3918125221412
 30
0.000000000000000
 11
365.8197476336154
 21
165.4918125221412
 31
0.000000000000000
  0
ARC
  5
EA
100
AcDbEntity
  8
A1
  6
CONTINUOUS
 62
7
100
AcDbCircle
 10
89.02951426685125
 20
84.78358177138000
 30
0.000000000000000
 40
2.000000000000000
100
AcDbArc
 50
0.000000000000000
 51
180.0000000000000
  0
LINE
  5
EB
100
AcDbEntity
  8
A1
  6
CONTINUOUS
 62
7
100
AcDbLine
 10
116.0433112668513
 20
62.78681377138000
 30
0.000000000000000
 11
116.5295142668513
 21
62.78681377138000
 31
0.000000000000000
  0
LINE
  5
EC
100
AcDbEntity
  8
A1
  6
CONTINUOUS
 62
7
100
AcDbLine
 10
96.56355026685124
 20
62.78681377138000
 30
0.000000000000000
 11
114.8937392668513
 21
62.78681377138000
 31
0.000000000000000
  0
LINE
  5
ED
100
AcDbEntity
  8
A1
  6
CONTINUOUS
 62
7
100
AcDbLine
 10
94.92951426685126
 20
62.78681377138000
 30
0.000000000000000
 11
95.41591326685126
 21
62.78681377138000
 31
0.000000000000000
  0
LINE
  5
EE
100
AcDbEntity
  8
A1
  6
CONTINUOUS
 62
7
100
AcDbLine
 10
93.02951426685131
 20
62.78681377138000
 30
0.000000000000000
 11
93.72951426685124
 21
62.78681377138000
 31
0.000000000000000
  0
LINE
  5
EF
100
AcDbEntity
  8
A1
  6
CONTINUOUS
 62
7
100
AcDbLine
 10
125.0295142668513
 20
84.74701077138002
 30
0.000000000000000
 11
125.0295142668513
 21
84.78357577138001
 31
0.000000000000000
  0
LINE
  5
F0
100
AcDbEntity
  8
A1
  6
CONTINUOUS
 62
7
100
AcDbLine
 10
121.0295142668513
 20
84.78357577138001
 30
0.000000000000000
 11
121.0295142668513
 21
84.74701077138002
 31
0.000000000000000
  0
LINE
  5
F1
100
AcDbEntity
  8
A1
  6
CONTINUOUS
 62
7
100
AcDbLine
 10
91.02951426685125
 20
84.74701077138002
 30
0.000000000000000
 11
91.02951426685125
 21
84.78357577138001
 31
0.000000000000000
  0
LINE
  5
F2
100
AcDbEntity
  8
A1
  6
CONTINUOUS
 62
7
100
AcDbLine
 10
87.02951426685125
 20
84.78357577138001
 30
0.000000000000000
 11
87.02951426685125
 21
84.74701077138002
 31
0.000000000000000
  0
LINE
  5
F3
100
AcDbEntity
  8
A1
  6
CONTINUOUS
 62
7
100
AcDbLine
 10
92.94482237777349
 20
65.70673577138001
 30
0.000000000000000
 11
93.72951426685121
 21
65.70673577138001
 31
0.000000000000000
  0
ARC
  5
F4
100
AcDbEntity
  8
A1
  6
CONTINUOUS
 62
7
100
AcDbCircle
 10
97.72951426685124
 20
63.72854277138001
 30
0.000000000000000
 40
2.500000000000000
100
AcDbArc
 50
215.9246330000000
 51
246.4218220000000
  0
ARC
  5
F5
100
AcDbEntity
  8
A1
  6
CONTINUOUS
 62
7
100
AcDbCircle
 10
113.7295142668512
 20
63.72854277138001
 30
0.000000000000000
 40
2.500000000000000
100
AcDbArc
 50
293.5781780000000
 51
324.0753670000000
  0
ARC
  5
F6
100
AcDbEntity
  8
A1
  6
CONTINUOUS
 62
7
100
AcDbCircle
 10
97.72951426685124
 20
63.72854277138001
 30
0.000000000000000
 40
2.500000000000000
100
AcDbArc
 50
246.4218220000000
 51
270.0000000000000
  0
ARC
  5
F7
100
AcDbEntity
  8
A1
  6
CONTINUOUS
 62
7
100
AcDbCircle
 10
113.7295142668512
 20
63.72854277138001
 30
0.000000000000000
 40
2.500000000000000
100
AcDbArc
 50
270.0000000000000
 51
293.5781780000000
  0
ARC
  5
F8
100
AcDbEntity
  8
A1
  6
CONTINUOUS
 62
7
100
AcDbCircle
 10
113.7295142668512
 20
63.72854277138001
 30
0.000000000000000
 40
1.500000000000000
100
AcDbArc
 50
270.0000000000000
 51
360.0000000000000
  0
ARC
  5
F9
100
AcDbEntity
  8
A1
  6
CONTINUOUS
 62
7
100
AcDbCircle
 10
113.7295142668512
 20
63.72854277138001
 30
0.000000000000000
 40
2.500000000000000
100
AcDbArc
 50
324.0753670000000
 51
360.0000000000000
  0
ARC
  5
FA
100
AcDbEntity
  8
A1
  6
CONTINUOUS
 62
7
100
AcDbCircle
 10
97.72951426685124
 20
63.72854277138001
 30
0.000000000000000
 40
1.500000000000000
100
AcDbArc
 50
180.0000000000000
 51
270.0000000000000
  0
ARC
  5
FB
100
AcDbEntity
  8
A1
  6
CONTINUOUS
 62
7
100
AcDbCircle
 10
97.72951426685124
 20
63.72854277138001
 30
0.000000000000000
 40
2.500000000000000
100
AcDbArc
 50
180.0000000000000
 51
215.9246330000000
  0
LINE
  5
FC
100
AcDbEntity
  8
A1
  6
CONTINUOUS
 62
7
100
AcDbLine
 10
113.7295142668512
 20
62.22854277138001
 30
0.000000000000000
 11
97.72951426685124
 21
62.22854277138001
 31
0.000000000000000
  0
LINE
  5
FD
100
AcDbEntity
  8
A1
  6
CONTINUOUS
 62
7
100
AcDbLine
 10
96.72951426685124
 20
62.22854277138001
 30
0.000000000000000
 11
96.72951426685124
 21
61.43725477138000
 31
0.000000000000000
  0
LINE
  5
FE
100
AcDbEntity
  8
A1
  6
CONTINUOUS
 62
7
100
AcDbLine
 10
113.7295142668512
 20
61.22854277138001
 30
0.000000000000000
 11
97.72951426685124
 21
61.22854277138001
 31
0.000000000000000
  0
LINE
  5
FF
100
AcDbEntity
  8
A1
  6
CONTINUOUS
 62
7
100
AcDbLine
 10
114.7295142668512
 20
61.43725477138000
 30
0.000000000000000
 11
114.7295142668512
 21
62.22854277138001
 31
0.000000000000000
  0
LINE
  5
100
100
AcDbEntity
  8
A1
  6
CONTINUOUS
 62
7
100
AcDbLine
 10
116.2295142668512
 20
63.72854277138001
 30
0.000000000000000
 11
116.2295142668512
 21
64.82887677137998
 31
0.000000000000000
  0
LINE
  5
101
100
AcDbEntity
  8
A1
  6
CONTINUOUS
 62
7
100
AcDbLine
 10
115.2295142668512
 20
63.72854277138001
 30
0.000000000000000
 11
115.2295142668512
 21
64.82887677137998
 31
0.000000000000000
  0
LINE
  5
102
100
AcDbEntity
  8
A1
  6
CONTINUOUS
 62
7
100
AcDbLine
 10
114.7295142668512
 20
62.22854277138001
 30
0.000000000000000
 11
113.7295142668512
 21
62.22854277138001
 31
0.000000000000000
  0
LINE
  5
103
100
AcDbEntity
  8
A1
  6
CONTINUOUS
 62
7
100
AcDbLine
 10
95.22951426685124
 20
63.72854277138001
 30
0.000000000000000
 11
95.22951426685124
 21
64.82887677137998
 31
0.000000000000000
  0
LINE
  5
104
100
AcDbEntity
  8
A1
  6
CONTINUOUS
 62
7
100
AcDbLine
 10
97.72951426685124
 20
62.22854277138001
 30
0.000000000000000
 11
96.72951426685124
 21
62.22854277138001
 31
0.000000000000000
  0
LINE
  5
105
100
AcDbEntity
  8
A1
  6
CONTINUOUS
 62
7
100
AcDbLine
 10
96.22951426685124
 20
64.82887677137998
 30
0.000000000000000
 11
96.22951426685124
 21
63.72854277138001
 31
0.000000000000000
  0
LINE
  5
106
100
AcDbEntity
  8
A1
  6
CONTINUOUS
 62
7
100
AcDbLine
 10
117.7292142668513
 20
79.93702777137997
 30
0.000000000000000
 11
117.7292142668513
 21
71.29712477137997
 31
0.000000000000000
  0
LINE
  5
107
100
AcDbEntity
  8
A1
  6
CONTINUOUS
 62
7
100
AcDbLine
 10
94.72951426685121
 20
80.93702777137997
 30
0.000000000000000
 11
116.7292142668513
 21
80.93702777137997
 31
0.000000000000000
  0
LINE
  5
108
100
AcDbEntity
  8
A1
  6
CONTINUOUS
 62
7
100
AcDbLine
 10
93.72951426685124
 20
71.29701777138001
 30
0.000000000000000
 11
93.72951426685124
 21
79.93702777137997
 31
0.000000000000000
  0
LINE
  5
109
100
AcDbEntity
  8
A1
  6
CONTINUOUS
 62
7
100
AcDbLine
 10
94.92951426685126
 20
64.82887677137998
 30
0.000000000000000
 11
116.5295142668513
 21
64.82887677137998
 31
0.000000000000000
  0
LINE
  5
10A
100
AcDbEntity
  8
A1
  6
CONTINUOUS
 62
7
100
AcDbLine
 10
93.72951426685124
 20
70.47536677137998
 30
0.000000000000000
 11
93.72951426685124
 21
61.20394277137999
 31
0.000000000000000
  0
LINE
  5
10B
100
AcDbEntity
  8
A1
  6
CONTINUOUS
 62
7
100
AcDbLine
 10
94.92951426685126
 20
65.87524977137997
 30
0.000000000000000
 11
116.5295142668513
 21
65.87524977137997
 31
0.000000000000000
  0
LINE
  5
10C
100
AcDbEntity
  8
A1
  6
CONTINUOUS
 62
7
100
AcDbLine
 10
117.7292142668513
 20
70.47546777138001
 30
0.000000000000000
 11
117.7292142668513
 21
61.20394277137999
 31
0.000000000000000
  0
LINE
  5
10D
100
AcDbEntity
  8
A1
  6
CONTINUOUS
 62
7
100
AcDbLine
 10
93.72951426685124
 20
61.20394277137999
 30
0.000000000000000
 11
94.92951426685126
 21
61.20394277137999
 31
0.000000000000000
  0
LINE
  5
10E
100
AcDbEntity
  8
A1
  6
CONTINUOUS
 62
7
100
AcDbLine
 10
116.5295142668513
 20
61.20394277137999
 30
0.000000000000000
 11
117.7292142668513
 21
61.20394277137999
 31
0.000000000000000
  0
LINE
  5
10F
100
AcDbEntity
  8
A1
  6
CONTINUOUS
 62
7
100
AcDbLine
 10
94.92951426685126
 20
61.20394277137999
 30
0.000000000000000
 11
94.92951426685126
 21
65.87524977137997
 31
0.000000000000000
  0
LINE
  5
110
100
AcDbEntity
  8
A1
  6
CONTINUOUS
 62
7
100
AcDbLine
 10
116.5295142668513
 20
61.20394277137999
 30
0.000000000000000
 11
116.5295142668513
 21
65.87524977137997
 31
0.000000000000000
  0
LINE
  5
111
100
AcDbEntity
  8
A1
  6
CONTINUOUS
 62
7
100
AcDbLine
 10
117.7292142668513
 20
70.47546777138001
 30
0.000000000000000
 11
117.7292142668513
 21
71.28711477138000
 31
0.000000000000000
  0
LINE
  5
112
100
AcDbEntity
  8
A1
  6
CONTINUOUS
 62
7
100
AcDbLine
 10
93.72951426685124
 20
70.47536677137998
 30
0.000000000000000
 11
93.72951426685124
 21
71.28700777137999
 31
0.000000000000000
  0
ARC
  5
113
100
AcDbEntity
  8
A1
  6
CONTINUOUS
 62
7
100
AcDbCircle
 10
122.7293445805738
 20
265.6894475280911
 30
0.000000000000000
 40
2.000000000000000
100
AcDbArc
 50
180.0000000000000
 51
360.0000000000000
  0
ARC
  5
114
100
AcDbEntity
  8
A1
  6
CONTINUOUS
 62
7
100
AcDbCircle
 10
88.72934458057381
 20
265.6894475280911
 30
0.000000000000000
 40
2.000000000000000
100
AcDbArc
 50
180.0000000000000
 51
360.0000000000000
  0
LINE
  5
115
100
AcDbEntity
  8
A1
  6
CONTINUOUS
 62
7
100
AcDbLine
 10
111.2293445805738
 20
282.7640985280912
 30
0.000000000000000
 11
111.2293445805738
 21
283.6862155280912
 31
0.000000000000000
  0
LINE
  5
116
100
AcDbEntity
  8
A1
  6
CONTINUOUS
 62
7
100
AcDbLine
 10
115.9293445805738
 20
280.7662935280911
 30
0.000000000000000
 11
116.2293445805738
 21
280.7662935280911
 31
0.000000000000000
  0
LINE
  5
117
100
AcDbEntity
  8
A1
  6
CONTINUOUS
 62
7
100
AcDbLine
 10
111.2293445805738
 20
280.7662935280911
 30
0.000000000000000
 11
114.9293445805738
 21
280.7662935280911
 31
0.000000000000000
  0
LINE
  5
118
100
AcDbEntity
  8
A1
  6
CONTINUOUS
 62
7
100
AcDbLine
 10
111.2293445805738
 20
280.7662935280911
 30
0.000000000000000
 11
111.2293445805738
 21
282.7640985280912
 31
0.000000000000000
  0
LINE
  5
119
100
AcDbEntity
  8
A1
  6
CONTINUOUS
 62
7
100
AcDbLine
 10
100.2293445805738
 20
282.7640985280912
 30
0.000000000000000
 11
100.2293445805738
 21
283.6862155280912
 31
0.000000000000000
  0
LINE
  5
11A
100
AcDbEntity
  8
A1
  6
CONTINUOUS
 62
7
100
AcDbLine
 10
95.92934458057380
 20
280.7662935280911
 30
0.000000000000000
 11
100.2293445805738
 21
280.7662935280911
 31
0.000000000000000
  0
LINE
  5
11B
100
AcDbEntity
  8
A1
  6
CONTINUOUS
 62
7
100
AcDbLine
 10
94.62934458057381
 20
280.7662935280911
 30
0.000000000000000
 11
94.92934458057380
 21
280.7662935280911
 31
0.000000000000000
  0
LINE
  5
11C
100
AcDbEntity
  8
A1
  6
CONTINUOUS
 62
7
100
AcDbLine
 10
118.3238979116160
 20
280.7662935280911
 30
0.000000000000000
 11
117.4290445805738
 21
280.7662935280911
 31
0.000000000000000
  0
LINE
  5
11D
100
AcDbEntity
  8
A1
  6
CONTINUOUS
 62
7
100
AcDbLine
 10
100.2293445805738
 20
280.7662935280911
 30
0.000000000000000
 11
100.2293445805738
 21
282.7640985280912
 31
0.000000000000000
  0
LINE
  5
11E
100
AcDbEntity
  8
A1
  6
CONTINUOUS
 62
7
100
AcDbLine
 10
120.7293445805738
 20
287.6862155280912
 30
0.000000000000000
 11
90.72934458057381
 21
287.6862155280912
 31
0.000000000000000
  0
LINE
  5
11F
100
AcDbEntity
  8
A1
  6
CONTINUOUS
 62
7
100
AcDbLine
 10
91.72934458057381
 20
283.6862155280912
 30
0.000000000000000
 11
119.7293445805738
 21
283.6862155280912
 31
0.000000000000000
  0
LINE
  5
120
100
AcDbEntity
  8
A1
  6
CONTINUOUS
 62
7
100
AcDbLine
 10
124.7293445805738
 20
265.6894475280911
 30
0.000000000000000
 11
124.7293445805738
 21
281.6862155280912
 31
0.000000000000000
  0
LINE
  5
121
100
AcDbEntity
  8
A1
  6
CONTINUOUS
 62
7
100
AcDbLine
 10
120.7293445805738
 20
281.6862155280912
 30
0.000000000000000
 11
120.7293445805738
 21
265.6894475280911
 31
0.000000000000000
  0
LINE
  5
122
100
AcDbEntity
  8
A1
  6
CONTINUOUS
 62
7
100
AcDbLine
 10
86.72934458057381
 20
281.6862155280912
 30
0.000000000000000
 11
86.72934458057381
 21
265.6894475280911
 31
0.000000000000000
  0
LINE
  5
123
100
AcDbEntity
  8
A1
  6
CONTINUOUS
 62
7
100
AcDbLine
 10
90.72934458057381
 20
265.6894475280911
 30
0.000000000000000
 11
90.72934458057381
 21
281.6862155280912
 31
0.000000000000000
  0
ARC
  5
124
100
AcDbEntity
  8
A1
  6
CONTINUOUS
 62
7
100
AcDbCircle
 10
97.42934458057380
 20
286.7444875280912
 30
0.000000000000000
 40
2.500000000000000
100
AcDbArc
 50
113.5781780000000
 51
148.5427110000000
  0
ARC
  5
125
100
AcDbEntity
  8
A1
  6
CONTINUOUS
 62
7
100
AcDbCircle
 10
113.4293445805738
 20
286.7444875280912
 30
0.000000000000000
 40
2.500000000000000
100
AcDbArc
 50
31.45728899999999
 51
66.42182200000001
  0
ARC
  5
126
100
AcDbEntity
  8
A1
  6
CONTINUOUS
 62
7
100
AcDbCircle
 10
97.42934458057380
 20
286.7444875280912
 30
0.000000000000000
 40
2.500000000000000
100
AcDbArc
 50
90.00000000000000
 51
113.5781780000000
  0
ARC
  5
127
100
AcDbEntity
  8
A1
  6
CONTINUOUS
 62
7
100
AcDbCircle
 10
113.4293445805738
 20
286.7444875280912
 30
0.000000000000000
 40
2.500000000000000
100
AcDbArc
 50
66.42182200000001
 51
90.00000000000000
  0
ARC
  5
128
100
AcDbEntity
  8
A1
  6
CONTINUOUS
 62
7
100
AcDbCircle
 10
113.4293485805738
 20
286.7444275280911
 30
0.000000000000000
 40
1.500060000000000
100
AcDbArc
 50
38.99581800000000
 51
90.00014100000001
  0
LINE
  5
129
100
AcDbEntity
  8
A1
  6
CONTINUOUS
 62
7
100
AcDbLine
 10
95.92934458057380
 20
275.2260565280911
 30
0.000000000000000
 11
95.92934458057380
 21
273.2444875280912
 31
0.000000000000000
  0
LINE
  5
12A
100
AcDbEntity
  8
A1
  6
CONTINUOUS
 62
7
100
AcDbLine
 10
94.92934458057380
 20
273.2444875280912
 30
0.000000000000000
 11
95.92934458057380
 21
273.2444875280912
 31
0.000000000000000
  0
LINE
  5
12B
100
AcDbEntity
  8
A1
  6
CONTINUOUS
 62
7
100
AcDbLine
 10
94.92934458057380
 20
273.2444875280912
 30
0.000000000000000
 11
94.92934458057380
 21
275.2260565280911
 31
0.000000000000000
  0
LINE
  5
12C
100
AcDbEntity
  8
A1
  6
CONTINUOUS
 62
7
100
AcDbLine
 10
114.9293445805738
 20
273.2444875280912
 30
0.000000000000000
 11
115.9293445805738
 21
273.2444875280912
 31
0.000000000000000
  0
LINE
  5
12D
100
AcDbEntity
  8
A1
  6
CONTINUOUS
 62
7
100
AcDbLine
 10
114.9293445805738
 20
273.2444875280912
 30
0.000000000000000
 11
114.9293445805738
 21
275.2260565280911
 31
0.000000000000000
  0
LINE
  5
12E
100
AcDbEntity
  8
A1
  6
CONTINUOUS
 62
7
100
AcDbLine
 10
115.9293445805738
 20
273.2444875280912
 30
0.000000000000000
 11
115.9293445805738
 21
275.2260565280911
 31
0.000000000000000
  0
LINE
  5
12F
100
AcDbEntity
  8
A1
  6
CONTINUOUS
 62
7
100
AcDbLine
 10
113.4293445805738
 20
288.2444875280912
 30
0.000000000000000
 11
97.42934458057380
 21
288.2444875280912
 31
0.000000000000000
  0
LINE
  5
130
100
AcDbEntity
  8
A1
  6
CONTINUOUS
 62
7
100
AcDbLine
 10
113.4293445805738
 20
289.2444875280912
 30
0.000000000000000
 11
97.42934458057380
 21
289.2444875280912
 31
0.000000000000000
  0
LINE
  5
131
100
AcDbEntity
  8
A1
  6
CONTINUOUS
 62
7
100
AcDbLine
 10
96.42934458057380
 20
289.0357745280912
 30
0.000000000000000
 11
96.42934458057380
 21
288.2444875280912
 31
0.000000000000000
  0
LINE
  5
132
100
AcDbEntity
  8
A1
  6
CONTINUOUS
 62
7
100
AcDbLine
 10
114.4293445805738
 20
288.2444875280912
 30
0.000000000000000
 11
114.4293445805738
 21
289.0357745280912
 31
0.000000000000000
  0
LINE
  5
133
100
AcDbEntity
  8
A1
  6
CONTINUOUS
 62
7
100
AcDbLine
 10
94.92934458057380
 20
275.2260565280911
 30
0.000000000000000
 11
94.92934458057380
 21
283.6862155280912
 31
0.000000000000000
  0
LINE
  5
134
100
AcDbEntity
  8
A1
  6
CONTINUOUS
 62
7
100
AcDbLine
 10
95.92934458057380
 20
275.2260565280911
 30
0.000000000000000
 11
94.92934458057380
 21
275.2260565280911
 31
0.000000000000000
  0
LINE
  5
135
100
AcDbEntity
  8
A1
  6
CONTINUOUS
 62
7
100
AcDbLine
 10
95.92934458057380
 20
275.2260565280911
 30
0.000000000000000
 11
95.92934458057380
 21
283.6862155280912
 31
0.000000000000000
  0
LINE
  5
136
100
AcDbEntity
  8
A1
  6
CONTINUOUS
 62
7
100
AcDbLine
 10
97.42934458057380
 20
288.2444875280912
 30
0.000000000000000
 11
96.42934458057380
 21
288.2444875280912
 31
0.000000000000000
  0
LINE
  5
137
100
AcDbEntity
  8
A1
  6
CONTINUOUS
 62
7
100
AcDbLine
 10
115.9293445805738
 20
275.2260565280911
 30
0.000000000000000
 11
115.9293445805738
 21
283.6862155280912
 31
0.000000000000000
  0
LINE
  5
138
100
AcDbEntity
  8
A1
  6
CONTINUOUS
 62
7
100
AcDbLine
 10
114.4293445805738
 20
288.2444875280912
 30
0.000000000000000
 11
113.4293445805738
 21
288.2444875280912
 31
0.000000000000000
  0
LINE
  5
139
100
AcDbEntity
  8
A1
  6
CONTINUOUS
 62
7
100
AcDbLine
 10
114.9293445805738
 20
283.6862155280912
 30
0.000000000000000
 11
114.9293445805738
 21
275.2260565280911
 31
0.000000000000000
  0
LINE
  5
13A
100
AcDbEntity
  8
A1
  6
CONTINUOUS
 62
7
100
AcDbLine
 10
115.9293445805738
 20
275.2260565280911
 30
0.000000000000000
 11
114.9293445805738
 21
275.2260565280911
 31
0.000000000000000
  0
LINE
  5
13B
100
AcDbEntity
  8
A1
  6
CONTINUOUS
 62
7
100
AcDbLine
 10
118.9290445805738
 20
279.2407565280911
 30
0.000000000000000
 11
118.9290445805738
 21
279.2444875280912
 31
0.000000000000000
  0
LINE
  5
13C
100
AcDbEntity
  8
A1
  6
CONTINUOUS
 62
7
100
AcDbLine
 10
94.92934458057380
 20
279.2444875280912
 30
0.000000000000000
 11
94.62934458057381
 21
279.2444875280912
 31
0.000000000000000
  0
LINE
  5
13D
100
AcDbEntity
  8
A1
  6
CONTINUOUS
 62
7
100
AcDbLine
 10
114.9293445805738
 20
279.2444875280912
 30
0.000000000000000
 11
95.92934458057380
 21
279.2444875280912
 31
0.000000000000000
  0
LINE
  5
13E
100
AcDbEntity
  8
A1
  6
CONTINUOUS
 62
7
100
AcDbLine
 10
116.2293445805738
 20
279.2444875280912
 30
0.000000000000000
 11
115.9293445805738
 21
279.2444875280912
 31
0.000000000000000
  0
LINE
  5
13F
100
AcDbEntity
  8
A1
  6
CONTINUOUS
 62
7
100
AcDbLine
 10
115.9293445805738
 20
275.2444875280912
 30
0.000000000000000
 11
116.2293445805738
 21
275.2444875280912
 31
0.000000000000000
  0
LINE
  5
140
100
AcDbEntity
  8
A1
  6
CONTINUOUS
 62
7
100
AcDbLine
 10
95.92934458057380
 20
275.2444875280912
 30
0.000000000000000
 11
114.9293445805738
 21
275.2444875280912
 31
0.000000000000000
  0
LINE
  5
141
100
AcDbEntity
  8
A1
  6
CONTINUOUS
 62
7
100
AcDbLine
 10
94.62934458057381
 20
275.2444875280912
 30
0.000000000000000
 11
94.92934458057380
 21
275.2444875280912
 31
0.000000000000000
  0
LINE
  5
142
100
AcDbEntity
  8
A1
  6
CONTINUOUS
 62
7
100
AcDbLine
 10
93.42934458057380
 20
268.5360025280912
 30
0.000000000000000
 11
93.42934458057380
 21
270.7427945280912
 31
0.000000000000000
  0
LINE
  5
143
100
AcDbEntity
  8
A1
  6
CONTINUOUS
 62
7
100
AcDbLine
 10
117.4290445805738
 20
270.5360025280912
 30
0.000000000000000
 11
117.4290445805738
 21
270.7427755280912
 31
0.000000000000000
  0
LINE
  5
144
100
AcDbEntity
  8
A1
  6
CONTINUOUS
 62
7
100
AcDbLine
 10
116.2293445805738
 20
270.7427925280912
 30
0.000000000000000
 11
116.2293445805738
 21
270.6243825280911
 31
0.000000000000000
  0
LINE
  5
145
100
AcDbEntity
  8
A1
  6
CONTINUOUS
 62
7
100
AcDbLine
 10
94.62934458057381
 20
270.7427925280912
 30
0.000000000000000
 11
94.62934458057381
 21
270.6243825280911
 31
0.000000000000000
  0
LINE
  5
146
100
AcDbEntity
  8
A1
  6
CONTINUOUS
 62
7
100
AcDbLine
 10
94.42934458057380
 20
269.5360025280912
 30
0.000000000000000
 11
116.4290445805738
 21
269.5360025280912
 31
0.000000000000000
  0
LINE
  5
147
100
AcDbEntity
  8
A1
  6
CONTINUOUS
 62
7
100
AcDbLine
 10
116.2293445805738
 20
270.6243825280911
 30
0.000000000000000
 11
94.62934458057381
 21
270.6243825280911
 31
0.000000000000000
  0
LINE
  5
148
100
AcDbEntity
  8
A1
  6
CONTINUOUS
 62
7
100
AcDbLine
 10
116.2293445805738
 20
287.6862155280912
 30
0.000000000000000
 11
116.2293445805738
 21
289.2690875280911
 31
0.000000000000000
  0
LINE
  5
149
100
AcDbEntity
  8
A1
  6
CONTINUOUS
 62
7
100
AcDbLine
 10
94.62934458057381
 20
287.6862155280912
 30
0.000000000000000
 11
94.62934458057381
 21
289.2690875280911
 31
0.000000000000000
  0
LINE
  5
14A
100
AcDbEntity
  8
A1
  6
CONTINUOUS
 62
7
100
AcDbLine
 10
117.4290445805738
 20
289.2690875280911
 30
0.000000000000000
 11
116.2293445805738
 21
289.2690875280911
 31
0.000000000000000
  0
LINE
  5
14B
100
AcDbEntity
  8
A1
  6
CONTINUOUS
 62
7
100
AcDbLine
 10
94.62934458057381
 20
289.2690875280911
 30
0.000000000000000
 11
93.42934458057380
 21
289.2690875280911
 31
0.000000000000000
  0
LINE
  5
14C
100
AcDbEntity
  8
A1
  6
CONTINUOUS
 62
7
100
AcDbLine
 10
93.42934458057380
 20
289.2690875280911
 30
0.000000000000000
 11
93.42934458057380
 21
287.6862155280912
 31
0.000000000000000
  0
LINE
  5
14D
100
AcDbEntity
  8
A1
  6
CONTINUOUS
 62
7
100
AcDbLine
 10
117.4290445805738
 20
289.2690875280911
 30
0.000000000000000
 11
117.4290445805738
 21
287.6862155280912
 31
0.000000000000000
  0
LINE
  5
14E
100
AcDbEntity
  8
A1
  6
CONTINUOUS
 62
7
100
AcDbLine
 10
117.4290445805738
 20
283.1085325280911
 30
0.000000000000000
 11
117.4290445805738
 21
283.6862155280912
 31
0.000000000000000
  0
LINE
  5
14F
100
AcDbEntity
  8
A1
  6
CONTINUOUS
 62
7
100
AcDbLine
 10
116.2293445805738
 20
283.6862155280912
 30
0.000000000000000
 11
116.2293445805738
 21
283.1085325280911
 31
0.000000000000000
  0
LINE
  5
150
100
AcDbEntity
  8
A1
  6
CONTINUOUS
 62
7
100
AcDbLine
 10
93.42934458057380
 20
283.1085325280911
 30
0.000000000000000
 11
93.42934458057380
 21
283.6862155280912
 31
0.000000000000000
  0
LINE
  5
151
100
AcDbEntity
  8
A1
  6
CONTINUOUS
 62
7
100
AcDbLine
 10
94.62934458057381
 20
283.6862155280912
 30
0.000000000000000
 11
94.62934458057381
 21
283.1085325280911
 31
0.000000000000000
  0
LINE
  5
152
100
AcDbEntity
  8
A1
  6
CONTINUOUS
 62
7
100
AcDbLine
 10
117.4290445805738
 20
283.1085325280911
 30
0.000000000000000
 11
117.4290445805738
 21
270.7451035280911
 31
0.000000000000000
  0
LINE
  5
153
100
AcDbEntity
  8
A1
  6
CONTINUOUS
 62
7
100
AcDbLine
 10
116.2293445805738
 20
283.1085325280911
 30
0.000000000000000
 11
117.4290445805738
 21
283.1085325280911
 31
0.000000000000000
  0
LINE
  5
154
100
AcDbEntity
  8
A1
  6
CONTINUOUS
 62
7
100
AcDbLine
 10
116.2293445805738
 20
270.7451015280911
 30
0.000000000000000
 11
117.4290445805738
 21
270.7451015280911
 31
0.000000000000000
  0
LINE
  5
155
100
AcDbEntity
  8
A1
  6
CONTINUOUS
 62
7
100
AcDbLine
 10
116.2293445805738
 20
283.1085325280911
 30
0.000000000000000
 11
116.2293445805738
 21
270.7451345280912
 31
0.000000000000000
  0
LINE
  5
156
100
AcDbEntity
  8
A1
  6
CONTINUOUS
 62
7
100
AcDbLine
 10
93.42934458057380
 20
283.1085325280911
 30
0.000000000000000
 11
93.42934458057380
 21
270.7451235280911
 31
0.000000000000000
  0
LINE
  5
157
100
AcDbEntity
  8
A1
  6
CONTINUOUS
 62
7
100
AcDbLine
 10
93.42934458057380
 20
283.1085325280911
 30
0.000000000000000
 11
94.62934458057381
 21
283.1085325280911
 31
0.000000000000000
  0
LINE
  5
158
100
AcDbEntity
  8
A1
  6
CONTINUOUS
 62
7
100
AcDbLine
 10
93.42934458057380
 20
270.7451015280911
 30
0.000000000000000
 11
94.62934458057381
 21
270.7451015280911
 31
0.000000000000000
  0
LINE
  5
159
100
AcDbEntity
  8
A1
  6
CONTINUOUS
 62
7
100
AcDbLine
 10
94.62934458057381
 20
283.1085325280911
 30
0.000000000000000
 11
94.62934458057381
 21
270.7451345280912
 31
0.000000000000000
  0
LINE
  5
15A
100
AcDbEntity
  8
A4
  6
CENTER
 62
1
100
AcDbLine
 10
105.7293445805738
 20
264.1894475280911
 30
0.000000000000000
 11
105.7293445805738
 21
290.5116665286256
 31
0.000000000000000
  0
LINE
  5
15B
100
AcDbEntity
  8
A1
  6
CONTINUOUS
 62
7
100
AcDbLine
 10
120.7293445805738
 20
282.6862155280912
 30
0.000000000000000
 11
120.7293445805738
 21
281.6862155280912
 31
0.000000000000000
  0
LINE
  5
15C
100
AcDbEntity
  8
A1
  6
CONTINUOUS
 62
7
100
AcDbLine
 10
86.72934458057381
 20
283.6862155280912
 30
0.000000000000000
 11
86.72934458057381
 21
281.6862155280912
 31
0.000000000000000
  0
LINE
  5
15D
100
AcDbEntity
  8
A1
  6
CONTINUOUS
 62
7
100
AcDbLine
 10
90.72934458057381
 20
282.6862155280912
 30
0.000000000000000
 11
90.72934458057381
 21
281.6862155280912
 31
0.000000000000000
  0
ARC
  5
15E
100
AcDbEntity
  8
A1
  6
CONTINUOUS
 62
7
100
AcDbCircle
 10
90.72934458057381
 20
283.6862155280912
 30
0.000000000000000
 40
4.000000000000000
100
AcDbArc
 50
90.00000000000000
 51
180.0000000000000
  0
LINE
  5
15F
100
AcDbEntity
  8
A1
  6
CONTINUOUS
 62
7
100
AcDbLine
 10
124.7293445805738
 20
283.6862155280912
 30
0.000000000000000
 11
124.7293445805738
 21
281.6862155280912
 31
0.000000000000000
  0
ARC
  5
160
100
AcDbEntity
  8
A1
  6
CONTINUOUS
 62
7
100
AcDbCircle
 10
120.7293445805738
 20
283.6862155280912
 30
0.000000000000000
 40
4.000000000000000
100
AcDbArc
 50
0.000000000000000
 51
90.00000000000000
  0
ARC
  5
161
100
AcDbEntity
  8
A1
  6
CONTINUOUS
 62
7
100
AcDbCircle
 10
91.72934458057381
 20
282.6862155280912
 30
0.000000000000000
 40
1.000000000000000
100
AcDbArc
 50
90.00000000000000
 51
180.0000000000000
  0
ARC
  5
162
100
AcDbEntity
  8
A1
  6
CONTINUOUS
 62
7
100
AcDbCircle
 10
119.7293445805738
 20
282.6862155280912
 30
0.000000000000000
 40
1.000000000000000
100
AcDbArc
 50
0.000000000000000
 51
90.00000000000000
  0
LINE
  5
163
100
AcDbEntity
  8
A1
  6
CONTINUOUS
 62
7
100
AcDbLine
 10
87.02951426685128
 20
84.74701077138003
 30
0.000000000000000
 11
88.97584132461968
 21
69.20955431586691
 31
0.000000000000000
  0
LINE
  5
164
100
AcDbEntity
  8
A1
  6
CONTINUOUS
 62
7
100
AcDbLine
 10
91.02951426685131
 20
84.74701077138003
 30
0.000000000000000
 11
92.80386431184199
 21
70.58244040750175
 31
0.000000000000000
  0
ARC
  5
165
100
AcDbEntity
  8
A1
  6
CONTINUOUS
 62
7
100
AcDbCircle
 10
92.94482237777349
 20
69.70673577138001
 30
0.000000000000000
 40
4.000000000000000
100
AcDbArc
 50
187.1400657659574
 51
270.0000000000000
  0
ARC
  5
166
100
AcDbEntity
  8
A1
  6
CONTINUOUS
 62
7
100
AcDbCircle
 10
93.79610957513042
 20
70.70673577138001
 30
0.000000000000000
 40
1.000000000000000
100
AcDbArc
 50
187.1400657659572
 51
266.1815439114052
  0
LINE
  5
167
100
AcDbEntity
  8
A1
  6
CONTINUOUS
 62
7
100
AcDbLine
 10
87.02951426685131
 20
84.74701077138002
 30
0.000000000000000
 11
87.02951426685131
 21
68.78681377138000
 31
0.000000000000000
  0
ARC
  5
168
100
AcDbEntity
  8
A1
  6
CONTINUOUS
 62
7
100
AcDbCircle
 10
93.02951426685131
 20
68.78681377138000
 30
0.000000000000000
 40
6.000000000000000
100
AcDbArc
 50
180.0000000000000
 51
270.0000000000000
  0
LINE
  5
169
100
AcDbEntity
  8
A1
  6
CONTINUOUS
 62
7
100
AcDbLine
 10
120.4292142668511
 20
84.74701077138003
 30
0.000000000000000
 11
118.6548642218604
 21
70.58244040750174
 31
0.000000000000000
  0
LINE
  5
16A
100
AcDbEntity
  8
A1
  6
CONTINUOUS
 62
7
100
AcDbLine
 10
124.4292142668510
 20
84.74701077138000
 30
0.000000000000000
 11
122.4828872090826
 21
69.20955431586691
 31
0.000000000000000
  0
LINE
  5
16B
100
AcDbEntity
  8
A1
  6
CONTINUOUS
 62
7
100
AcDbLine
 10
124.4292142668511
 20
84.78357577138001
 30
0.000000000000000
 11
124.4292142668511
 21
84.74701077138002
 31
0.000000000000000
  0
ARC
  5
16C
100
AcDbEntity
  8
A1
  6
CONTINUOUS
 62
7
100
AcDbCircle
 10
122.4292142668511
 20
84.78358177138000
 30
0.000000000000000
 40
2.000000000000000
100
AcDbArc
 50
0.000000000000000
 51
180.0000000000000
  0
LINE
  5
16D
100
AcDbEntity
  8
A1
  6
CONTINUOUS
 62
7
100
AcDbLine
 10
124.4292142668510
 20
84.74701077138002
 30
0.000000000000000
 11
124.4292142668510
 21
68.78681377138000
 31
0.000000000000000
  0
ARC
  5
16E
100
AcDbEntity
  8
A1
  6
CONTINUOUS
 62
7
100
AcDbCircle
 10
118.4292142668510
 20
68.78681377138000
 30
0.000000000000000
 40
6.000000000000000
100
AcDbArc
 50
270.0000000000000
 51
360.0000000000000
  0
ARC
  5
16F
100
AcDbEntity
  8
A1
  6
CONTINUOUS
 62
7
100
AcDbCircle
 10
118.5139061559288
 20
69.70673577138001
 30
0.000000000000000
 40
4.000000000000000
100
AcDbArc
 50
270.0000000000000
 51
352.8599342340427
  0
ARC
  5
170
100
AcDbEntity
  8
A1
  6
CONTINUOUS
 62
7
100
AcDbCircle
 10
117.6626189585719
 20
70.70673577138001
 30
0.000000000000000
 40
1.000000000000000
100
AcDbArc
 50
273.8184560885949
 51
352.8599342340428
  0
LINE
  5
171
100
AcDbEntity
  8
A1
  6
CONTINUOUS
 62
7
100
AcDbLine
 10
118.5139061559288
 20
65.70673577138001
 30
0.000000000000000
 11
117.7292142668508
 21
65.70673577138001
 31
0.000000000000000
  0
LINE
  5
172
100
AcDbEntity
  8
A1
  6
CONTINUOUS
 62
7
100
AcDbLine
 10
118.4292142668510
 20
62.78681377138000
 30
0.000000000000000
 11
117.7292142668508
 21
62.78681377137997
 31
0.000000000000000
  0
ARC
  5
173
100
AcDbEntity
  8
A1
  6
CONTINUOUS
 62
7
100
AcDbCircle
 10
105.7293642668512
 20
39.63350189442524
 30
0.000000000000000
 40
33.85174787695472
100
AcDbArc
 50
69.23827267136269
 51
110.7617273286372
  0
ARC
  5
174
100
AcDbEntity
  8
A1
  6
CONTINUOUS
 62
7
100
AcDbCircle
 10
105.7293642668512
 20
23.23353357581032
 30
0.000000000000000
 40
48.74193419556970
100
AcDbArc
 50
75.74774126528573
 51
104.2522587347143
  0
LINE
  5
175
100
AcDbEntity
  8
A1
  6
CONTINUOUS
 62
7
100
AcDbLine
 10
94.92951426685126
 20
71.71627101279171
 30
0.000000000000000
 11
94.92951426685126
 21
71.69219277138001
 31
0.000000000000000
  0
LINE
  5
176
100
AcDbEntity
  8
A1
  6
CONTINUOUS
 62
7
100
AcDbLine
 10
93.22951426685127
 20
74.87854277135739
 30
0.000000000000000
 11
93.22951426685127
 21
71.57854277135741
 31
0.000000000000000
  0
LINE
  5
177
100
AcDbEntity
  8
A1
  6
CONTINUOUS
 62
7
100
AcDbLine
 10
93.22951426685130
 20
74.87854277135736
 30
0.000000000000000
 11
93.72951426685127
 21
74.72854277138221
 31
0.000000000000000
  0
LINE
  5
178
100
AcDbEntity
  8
A1
  6
CONTINUOUS
 62
7
100
AcDbLine
 10
93.22951426685123
 20
71.57854277135735
 30
0.000000000000000
 11
93.72951426685123
 21
71.72854277138225
 31
0.000000000000000
  0
LINE
  5
179
100
AcDbEntity
  8
A4
  6
CENTER
 62
1
100
AcDbLine
 10
91.72951426685127
 20
73.22854277138232
 30
0.000000000000000
 11
119.7292142668513
 21
73.22854277138238
 31
0.000000000000000
  0
LINE
  5
17A
100
AcDbEntity
  8
A1
  6
CONTINUOUS
 62
7
100
AcDbLine
 10
118.2292142668512
 20
75.32854277138233
 30
0.000000000000000
 11
118.2292142668512
 21
71.12854277138237
 31
0.000000000000000
  0
LINE
  5
17B
100
AcDbEntity
  8
A1
  6
CONTINUOUS
 62
7
100
AcDbLine
 10
118.2292142668512
 20
75.32854277138225
 30
0.000000000000000
 11
117.7292142668513
 21
75.22854277138231
 31
0.000000000000000
  0
LINE
  5
17C
100
AcDbEntity
  8
A1
  6
CONTINUOUS
 62
7
100
AcDbLine
 10
118.2292142668512
 20
71.12854277138234
 30
0.000000000000000
 11
117.7292142668512
 21
71.22854277138237
 31
0.000000000000000
  0
ARC
  5
17D
100
AcDbEntity
  8
A1
  6
CONTINUOUS
 62
7
100
AcDbCircle
 10
116.7292142668513
 20
79.93702777137997
 30
0.000000000000000
 40
1.000000000000000
100
AcDbArc
 50
0.000000000000000
 51
90.00000000000000
  0
ARC
  5
17E
100
AcDbEntity
  8
A1
  6
CONTINUOUS
 62
7
100
AcDbCircle
 10
94.72951426685121
 20
79.93702777137997
 30
0.000000000000000
 40
1.000000000000000
100
AcDbArc
 50
90.00000000000000
 51
180.0000000000000
  0
LINE
  5
17F
100
AcDbEntity
  8
A1
  6
CONTINUOUS
 62
7
100
AcDbLine
 10
119.3189851920873
 20
279.8652950646663
 30
0.000000000000000
 11
120.7293445805737
 21
265.6894475280911
 31
0.000000000000000
  0
ARC
  5
180
100
AcDbEntity
  8
A1
  6
CONTINUOUS
 62
7
100
AcDbCircle
 10
118.3238979116160
 20
279.7662935280911
 30
0.000000000000000
 40
1.000000000000000
100
AcDbArc
 50
5.681677424431275
 51
90.00000000000000
  0
ARC
  5
181
100
AcDbEntity
  8
A1
  6
CONTINUOUS
 62
7
100
AcDbCircle
 10
93.13479124953145
 20
279.7662935280911
 30
0.000000000000000
 40
1.000000000000000
100
AcDbArc
 50
90.00000000000000
 51
174.3183225755687
  0
LINE
  5
182
100
AcDbEntity
  8
A1
  6
CONTINUOUS
 62
7
100
AcDbLine
 10
93.13479124953145
 20
280.7662935280911
 30
0.000000000000000
 11
93.42934458057380
 21
280.7662935280911
 31
0.000000000000000
  0
LINE
  5
183
100
AcDbEntity
  8
A1
  6
CONTINUOUS
 62
7
100
AcDbLine
 10
92.13970396906015
 20
279.8652950646663
 30
0.000000000000000
 11
90.72934458057379
 21
265.6894475280911
 31
0.000000000000000
  0
LINE
  5
184
100
AcDbEntity
  8
A1
  6
CONTINUOUS
 62
7
100
AcDbLine
 10
92.92934458057377
 20
278.8944875280661
 30
0.000000000000000
 11
93.42934458057377
 21
278.7444875280909
 31
0.000000000000000
  0
LINE
  5
185
100
AcDbEntity
  8
A1
  6
CONTINUOUS
 62
7
100
AcDbLine
 10
92.92934458057380
 20
278.8944875280661
 30
0.000000000000000
 11
92.92934458057380
 21
275.5944875280662
 31
0.000000000000000
  0
LINE
  5
186
100
AcDbEntity
  8
A1
  6
CONTINUOUS
 62
7
100
AcDbLine
 10
92.92934458057378
 20
275.5944875280661
 30
0.000000000000000
 11
93.42934458057378
 21
275.7444875280910
 31
0.000000000000000
  0
LINE
  5
187
100
AcDbEntity
  8
A1
  6
CONTINUOUS
 62
7
100
AcDbLine
 10
117.9290445805738
 20
279.3444875280911
 30
0.000000000000000
 11
117.9290445805738
 21
275.1444875280911
 31
0.000000000000000
  0
LINE
  5
188
100
AcDbEntity
  8
A1
  6
CONTINUOUS
 62
7
100
AcDbLine
 10
117.9290445805738
 20
279.3444875280911
 30
0.000000000000000
 11
117.4290445805738
 21
279.2444875280911
 31
0.000000000000000
  0
LINE
  5
189
100
AcDbEntity
  8
A1
  6
CONTINUOUS
 62
7
100
AcDbLine
 10
117.9290445805737
 20
275.1444875280911
 30
0.000000000000000
 11
117.4290445805738
 21
275.2444875280912
 31
0.000000000000000
  0
ARC
  5
18A
100
AcDbEntity
  8
A1
  6
CONTINUOUS
 62
7
100
AcDbCircle
 10
116.4290445805738
 20
270.5360025280912
 30
0.000000000000000
 40
1.000000000000000
100
AcDbArc
 50
270.0000000000000
 51
360.0000000000000
  0
ARC
  5
18B
100
AcDbEntity
  8
A1
  6
CONTINUOUS
 62
7
100
AcDbCircle
 10
94.42934458057380
 20
268.5360025280912
 30
0.000000000000000
 40
1.000000000000000
100
AcDbArc
 50
90.00000000000000
 51
180.0000000000000
  0
LINE
  5
18C
100
AcDbEntity
  8
A4
  6
CENTER
 62
1
100
AcDbLine
 10
339.8200476335402
 20
167.4918125221388
 30
0.000000000000000
 11
367.8197476336151
 21
167.4918125221413
 31
0.000000000000000
  0
LINE
  5
18D
100
AcDbEntity
  8
A4
  6
CENTER
 62
1
100
AcDbLine
 10
330.7379726111731
 20
228.5622898399174
 30
0.000000000000000
 11
376.6158193161997
 21
228.5622898399174
 31
0.000000000000000
  0
POINT
  5
18E
100
AcDbEntity
  8
A10
  6
CONTINUOUS
 62
3
100
AcDbPoint
 10
353.8200478652411
 20
-275430.3436591842
 30
0.000000000000000
  0
LINE
  5
18F
100
AcDbEntity
  8
A1
  6
CONTINUOUS
 62
7
100
AcDbLine
 10
372.8200476336154
 20
235.3437625459075
 30
0.000000000000000
 11
372.8200476336154
 21
192.7607706093297
 31
0.000000000000000
  0
LINE
  5
190
100
AcDbEntity
  8
A4
  6
CENTER
 62
1
100
AcDbLine
 10
353.8198788063052
 20
240.2432846662675
 30
0.000000000000000
 11
353.8243463566063
 21
110.6064083427417
 31
0.000000000000000
  0
LINE
  5
191
100
AcDbEntity
  8
A4
  6
CENTER
 62
1
100
AcDbLine
 10
224.1445055589392
 20
155.7024664980231
 30
0.000000000000000
 11
217.1445055589393
 21
155.7024664980231
 31
0.000000000000000
  0
LINE
  5
192
100
AcDbEntity
  8
A4
  6
CENTER
 62
1
100
AcDbLine
 10
220.6445055589393
 20
159.2024664980231
 30
0.000000000000000
 11
220.6445055589393
 21
152.2024664980232
 31
0.000000000000000
  0
LINE
  5
193
100
AcDbEntity
  8
A4
  6
CENTER
 62
1
100
AcDbLine
 10
105.7293642668512
 20
59.70394277137999
 30
0.000000000000000
 11
105.7293642668512
 21
76.82854277138233
 31
0.000000000000000
  0
LINE
  5
194
100
AcDbEntity
  8
A4
  6
CENTER
 62
1
100
AcDbLine
 10
91.44482237777349
 20
64.24677477138000
 30
0.000000000000000
 11
120.0139061559288
 21
64.24677477137999
 31
0.000000000000000
  0
LINE
  5
195
100
AcDbEntity
  8
A4
  6
CENTER
 62
1
100
AcDbLine
 10
91.42934458057377
 20
277.2444875280911
 30
0.000000000000000
 11
119.4290445805738
 21
277.2444875280912
 31
0.000000000000000
  0
LINE
  5
196
100
AcDbEntity
  8
A4
  6
CENTER
 62
1
100
AcDbLine
 10
84.65332807910988
 20
285.6862155280912
 30
0.000000000000000
 11
127.3186695710559
 21
285.6862155280912
 31
0.000000000000000
  0
ENDSEC
  0
SECTION
  2
OBJECTS
  0
DICTIONARY
  5
1C9
100
AcDbDictionary
  3
ACAD_GROUP
350
1CA
  3
ACAD_LAYOUT
350
1CB
  3
ACAD_MLINESTYLE
350
1CC
  0
DICTIONARY
  5
1CA
102
{ACAD_REACTORS
330
1C9
102
}
330
1C9
100
AcDbDictionary
  0
DICTIONARY
  5
1CB
102
{ACAD_REACTORS
330
1C9
102
}
330
1C9
100
AcDbDictionary
  3
Model
350
1CD
  3
ﾚｲｱｳﾄ1
350
1CE
  3
ﾚｲｱｳﾄ2
350
1CF
  0
DICTIONARY
  5
1CC
102
{ACAD_REACTORS
330
1C9
102
}
330
1C9
100
AcDbDictionary
  3
STANDARD
350
1D0
  0
LAYOUT
  5
1CD
102
{ACAD_REACTORS
330
1CB
102
}
330
1CB
100
AcDbPlotSettings
 70
11952
  4
A3
 44
297.000000
 45
420.000000
 73
  1
 72
  1
100
AcDbLayout
  1
Model
 71
0
330
1C0
  0
LAYOUT
  5
1CE
102
{ACAD_REACTORS
330
1CB
102
}
330
1CB
100
AcDbPlotSettings
100
AcDbLayout
  1
ﾚｲｱｳﾄ1
 71
1
330
1C1
  0
LAYOUT
  5
1CF
102
{ACAD_REACTORS
330
1CB
102
}
330
1CB
100
AcDbPlotSettings
100
AcDbLayout
  1
ﾚｲｱｳﾄ2
 71
2
330
1C2
  0
MLINESTYLE
  5
1D0
102
{ACAD_REACTORS
330
1CC
102
}
330
1CC
100
AcDbMlineStyle
  2
STANDARD
 70
     0
  3

 62
   256
 51
90.00
 52
90.00
 71
     2
 49
0.50
 62
   256
  6
BYLAYER
 49
-0.50
 62
   256
  6
BYLAYER
  0
ENDSEC
  0
EOF
