  0
SECTION
  2
HEADER
  9
$ACADVER
  1
AC1027
  9
$DWGCODEPAGE
  3
ANSI_932
  9
$LTSCALE
 40
20.0
  9
$FILLMODE
 70
     1
  9
$CLAYER
  8
0
  9
$PDMODE
 70
     0
  9
$SPLFRAME
 70
     0
  9
$SPLINETYPE
 70
     6
  9
$SPLINESEGS
 70
     8
  9
$DIMASZ
 40
2.000000
  9
$DIMEXE
 40
1.500000
  9
$DIMEXO
 40
0.800000
  9
$DIMTAD
 70
     1
  9
$DIMTIH
 70
     0
  9
$DIMTOH
 70
     0
  9
$DIMTVP
 40
0.500000
  9
$DIMTXT
 40
3.100000
  9
$EXTMIN
 10
0.000000
 20
0.000000
 30
0.000000
  9
$EXTMAX
 10
210.000000
 20
297.000000
 30
0.000000
  9
$MEASUREMENT
 70
  1
  9
$LIMMIN
 10
0.000000
 20
0.000000
  9
$LIMMAX
 10
210.000000
 20
297.000000
  9
$HANDSEED
  5
F5
  9
$LWDISPLAY
290
     0
  9
$DIMBLK
  1
_OPEN
  9
$DIMDEC
 70
     2
  9
$DIMADEC
 70
     2
  9
$DIMAUNIT
 70
     0
  9
$DIMZIN
 70
     8
  9
$DIMAZIN
 70
     2
  9
$DIMTOFL
 70
     1
  0
ENDSEC
  0
SECTION
  2
CLASSES
  0
ENDSEC
  0
SECTION
  2
TABLES
  0
TABLE
  2
VPORT
  5
C0
100
AcDbSymbolTable
 70
     1
  0
VPORT
  5
C1
100
AcDbSymbolTableRecord
100
AcDbViewportTableRecord
  2
*ACTIVE
 70
     0
 12
102.390112
 22
119.723997
 40
203.447993
 41
0.908243
  0
ENDTAB
  0
TABLE
  2
LTYPE
  5
C2
100
AcDbSymbolTable
 70
     2
  0
LTYPE
  5
C3
100
AcDbSymbolTableRecord
100
AcDbLinetypeTableRecord
  2
BYBLOCK
 70
     0
  3

 72
    65
 73
     0
 40
0.0
  0
LTYPE
  5
C4
100
AcDbSymbolTableRecord
100
AcDbLinetypeTableRecord
  2
BYLAYER
 70
     0
  3

 72
    65
 73
     0
 40
0.0
  0
LTYPE
  5
C5
100
AcDbSymbolTableRecord
100
AcDbLinetypeTableRecord
  2
CONTINUOUS
 70
     0
  3
Solid line (NEC CAE2D for Win R18.0 : 2024.01.23)
 72
    65
 73
     0
 40
0.0
  0
LTYPE
  5
C6
100
AcDbSymbolTableRecord
100
AcDbLinetypeTableRecord
  2
CENTER
 70
     0
  3
____ _ ____ _ ____ _ ____ _ ____ _ ____
 72
    65
 73
     4
 40
2.0
 49
1.25
 74
     0
 49
-0.25
 74
     0
 49
0.25
 74
     0
 49
-0.25
 74
     0
  0
ENDTAB
  0
TABLE
  2
LAYER
  5
C7
100
AcDbSymbolTable
 70
    15
  0
LAYER
  5
C8
100
AcDbSymbolTableRecord
100
AcDbLayerTableRecord
  2
0
 70
     0
 62
     7
  6
CONTINUOUS
370
    -3
390

  0
LAYER
  5
C9
100
AcDbSymbolTableRecord
100
AcDbLayerTableRecord
  2
A0
 70
     0
 62
     9
  6
CONTINUOUS
370
    -3
390

  0
LAYER
  5
CA
100
AcDbSymbolTableRecord
100
AcDbLayerTableRecord
  2
A1
 70
     0
 62
     1
  6
CONTINUOUS
370
    -3
390

  0
LAYER
  5
CB
100
AcDbSymbolTableRecord
100
AcDbLayerTableRecord
  2
A2
 70
     0
 62
     9
  6
CONTINUOUS
370
    -3
390

  0
LAYER
  5
CC
100
AcDbSymbolTableRecord
100
AcDbLayerTableRecord
  2
A4
 70
     0
 62
     9
  6
CONTINUOUS
370
    -3
390

  0
LAYER
  5
CD
100
AcDbSymbolTableRecord
100
AcDbLayerTableRecord
  2
A5
 70
     0
 62
     8
  6
CONTINUOUS
370
    -3
390

  0
LAYER
  5
CE
100
AcDbSymbolTableRecord
100
AcDbLayerTableRecord
  2
A6
 70
     0
 62
    12
  6
CONTINUOUS
370
    -3
390

  0
LAYER
  5
CF
100
AcDbSymbolTableRecord
100
AcDbLayerTableRecord
  2
A8
 70
     0
 62
    10
  6
CONTINUOUS
370
    -3
390

  0
LAYER
  5
D0
100
AcDbSymbolTableRecord
100
AcDbLayerTableRecord
  2
A9
 70
     0
 62
     9
  6
CONTINUOUS
370
    -3
390

  0
LAYER
  5
D1
100
AcDbSymbolTableRecord
100
AcDbLayerTableRecord
  2
A10
 70
     0
 62
     6
  6
CONTINUOUS
370
    -3
390

  0
LAYER
  5
D2
100
AcDbSymbolTableRecord
100
AcDbLayerTableRecord
  2
A20
 70
     0
 62
     1
  6
CONTINUOUS
370
    -3
390

  0
LAYER
  5
D3
100
AcDbSymbolTableRecord
100
AcDbLayerTableRecord
  2
A30
 70
     0
 62
     1
  6
CONTINUOUS
370
    -3
390

  0
LAYER
  5
D4
100
AcDbSymbolTableRecord
100
AcDbLayerTableRecord
  2
A40
 70
     0
 62
     9
  6
CONTINUOUS
370
    -3
390

  0
LAYER
  5
D5
100
AcDbSymbolTableRecord
100
AcDbLayerTableRecord
  2
A50
 70
     0
 62
    12
  6
CONTINUOUS
370
    -3
390

  0
LAYER
  5
D6
100
AcDbSymbolTableRecord
100
AcDbLayerTableRecord
  2
A1023
 70
     0
 62
    16
  6
CONTINUOUS
370
    -3
390

  0
ENDTAB
  0
TABLE
  2
STYLE
  5
D7
100
AcDbSymbolTable
 70
     4
  0
STYLE
  5
D8
100
AcDbSymbolTableRecord
100
AcDbTextStyleTableRecord
  2
STANDARD
 70
    64
 40
0.0
 41
1.0
 50
0.0
 71
     0
 42
3.000000000000000
  3
TXT
  4

  0
STYLE
  5
D9
100
AcDbSymbolTableRecord
100
AcDbTextStyleTableRecord
  2
ANKTATE
 70
    68
 40
0.0
 41
1.0
 50
0.0
 71
     0
 42
3.000000000000000
  3
TXT
  4

  0
STYLE
  5
DA
100
AcDbSymbolTableRecord
100
AcDbTextStyleTableRecord
  2
KNJYOKO
 70
    64
 40
0.0
 41
1.0
 50
0.0
 71
     0
 42
3.000000000000000
  3
TXT
  4
BIGFONT
  0
STYLE
  5
DB
100
AcDbSymbolTableRecord
100
AcDbTextStyleTableRecord
  2
KNJTATE
 70
    68
 40
0.0
 41
1.0
 50
0.0
 71
     0
 42
3.000000000000000
  3
TXT
  4
BIGFONT
  0
ENDTAB
  0
TABLE
  2
VIEW
  5
DC
100
AcDbSymbolTable
 70
     0
  0
ENDTAB
  0
TABLE
  2
UCS
  5
DD
100
AcDbSymbolTable
 70
     0
  0
ENDTAB
  0
TABLE
  2
APPID
  5
DE
100
AcDbSymbolTable
 70
     1
  0
APPID
  5
DF
100
AcDbSymbolTableRecord
100
AcDbRegAppTableRecord
  2
ACAD
 70
     0
  0
ENDTAB
  0
TABLE
  2
DIMSTYLE
  5
E0
100
AcDbSymbolTable
 70
     2
100
AcDbDimStyleTable
  0
DIMSTYLE
105
E1
100
AcDbSymbolTableRecord
100
AcDbDimStyleTableRecord
  2
STANDARD
 70
     0
 41
2.000000
 44
1.500000
 42
0.800000
145
0.661290
140
3.100000
144
1.000000
146
0.645161
340
D8
  0
DIMSTYLE
105
E2
100
AcDbSymbolTableRecord
100
AcDbDimStyleTableRecord
  2
A001
 70
     0
 41
2.000000
 44
1.500000
 42
0.800000
145
0.661290
140
3.100000
144
1.000000
146
0.645161
 77
     1
 73
     0
 74
     0
271
     2
179
     2
275
     0
 78
     8
 79
     2
172
     1
340
D8
  0
ENDTAB
  0
TABLE
  2
BLOCK_RECORD
  5
E3
100
AcDbSymbolTable
 70
    12
  0
BLOCK_RECORD
  5
E4
100
AcDbSymbolTableRecord
100
AcDbBlockTableRecord
  2
*MODEL_SPACE
  0
BLOCK_RECORD
  5
E5
100
AcDbSymbolTableRecord
100
AcDbBlockTableRecord
  2
*PAPER_SPACE
  0
BLOCK_RECORD
  5
E6
100
AcDbSymbolTableRecord
100
AcDbBlockTableRecord
  2
*PAPER_SPACE0
  0
BLOCK_RECORD
  5
1
100
AcDbSymbolTableRecord
100
AcDbBlockTableRecord
  2
_NONE
  0
BLOCK_RECORD
  5
4
100
AcDbSymbolTableRecord
100
AcDbBlockTableRecord
  2
_CLOSED
  0
BLOCK_RECORD
  5
B
100
AcDbSymbolTableRecord
100
AcDbBlockTableRecord
  2
_DOT
  0
BLOCK_RECORD
  5
13
100
AcDbSymbolTableRecord
100
AcDbBlockTableRecord
  2
_OPEN
  0
BLOCK_RECORD
  5
19
100
AcDbSymbolTableRecord
100
AcDbBlockTableRecord
  2
_ORIGIN
  0
BLOCK_RECORD
  5
1E
100
AcDbSymbolTableRecord
100
AcDbBlockTableRecord
  2
_OPEN30
  0
BLOCK_RECORD
  5
24
100
AcDbSymbolTableRecord
100
AcDbBlockTableRecord
  2
_BOXFILLED
  0
BLOCK_RECORD
  5
29
100
AcDbSymbolTableRecord
100
AcDbBlockTableRecord
  2
_BOXBLANK
  0
BLOCK_RECORD
  5
31
100
AcDbSymbolTableRecord
100
AcDbBlockTableRecord
  2
_OBLIQUE
  0
BLOCK_RECORD
  5
35
100
AcDbSymbolTableRecord
100
AcDbBlockTableRecord
  2
_OPEN90
  0
BLOCK_RECORD
  5
3B
100
AcDbSymbolTableRecord
100
AcDbBlockTableRecord
  2
_CLOSEDBLANK
  0
BLOCK_RECORD
  5
41
100
AcDbSymbolTableRecord
100
AcDbBlockTableRecord
  2
_DOTBLANK
  0
ENDTAB
  0
ENDSEC
  0
SECTION
  2
BLOCKS
  0
BLOCK
  5
E7
100
AcDbEntity
  8
0
100
AcDbBlockBegin
  2
*MODEL_SPACE
 70
     0
 10
0.0
 20
0.0
 30
0.0
  3
*MODEL_SPACE
  1

  0
ENDBLK
  5
E8
100
AcDbEntity
  8
0
100
AcDbBlockEnd
  0
BLOCK
  5
E9
100
AcDbEntity
  8
0
100
AcDbBlockBegin
  2
*PAPER_SPACE
 70
     0
 10
0.0
 20
0.0
 30
0.0
  3
*PAPER_SPACE
  1

  0
ENDBLK
  5
EA
100
AcDbEntity
  8
0
100
AcDbBlockEnd
  0
BLOCK
  5
EB
100
AcDbEntity
  8
0
100
AcDbBlockBegin
  2
*PAPER_SPACE0
 70
     0
 10
0.0
 20
0.0
 30
0.0
  3
*PAPER_SPACE0
  1

  0
ENDBLK
  5
EC
100
AcDbEntity
  8
0
100
AcDbBlockEnd
  0
BLOCK
  5
2
330
1
100
AcDbEntity
  8
0
100
AcDbBlockBegin
  2
_NONE
 70
     0
 10
0.0
 20
0.0
 30
0.0
  3
_NONE
  1

  0
ENDBLK
  5
3
330
1
100
AcDbEntity
  8
0
100
AcDbBlockEnd
  0
BLOCK
  5
5
330
4
100
AcDbEntity
  8
0
100
AcDbBlockBegin
  2
_CLOSED
 70
     0
 10
0.0
 20
0.0
 30
0.0
  3
_CLOSED
  1

  0
LINE
  5
6
330
4
100
AcDbEntity
  8
0
  6
BYBLOCK
 62
     0
370
    -2
100
AcDbLine
 10
-1.0
 20
0.166667
 30
0.0
 11
0.0
 21
0.0
 31
0.0
  0
LINE
  5
7
330
4
100
AcDbEntity
  8
0
  6
BYBLOCK
 62
     0
370
    -2
100
AcDbLine
 10
0.0
 20
0.0
 30
0.0
 11
-1.0
 21
-0.166667
 31
0.0
  0
LINE
  5
8
330
4
100
AcDbEntity
  8
0
  6
BYBLOCK
 62
     0
370
    -2
100
AcDbLine
 10
-1.0
 20
0.166667
 30
0.0
 11
-1.0
 21
-0.166667
 31
0.0
  0
LINE
  5
9
330
4
100
AcDbEntity
  8
0
  6
BYBLOCK
 62
     0
370
    -2
100
AcDbLine
 10
0.0
 20
0.0
 30
0.0
 11
-1.0
 21
0.0
 31
0.0
  0
ENDBLK
  5
A
330
4
100
AcDbEntity
  8
0
100
AcDbBlockEnd
  0
BLOCK
  5
C
330
B
100
AcDbEntity
  8
0
100
AcDbBlockBegin
  2
_DOT
 70
     0
 10
0.0
 20
0.0
 30
0.0
  3
_DOT
  1

  0
POLYLINE
  5
D
330
B
100
AcDbEntity
  8
0
  6
BYBLOCK
 62
     0
370
    -2
100
AcDb2dPolyline
 66
     1
 10
0.0
 20
0.0
 30
0.0
 70
     1
 40
0.5
 41
0.5
  0
VERTEX
  5
E
330
B
100
AcDbEntity
  8
0
  6
BYBLOCK
 62
     0
370
    -2
100
AcDbVertex
100
AcDb2dVertex
 10
-0.25
 20
0.0
 30
0.0
 42
1.0
  0
VERTEX
  5
F
330
B
100
AcDbEntity
  8
0
  6
BYBLOCK
 62
     0
370
    -2
100
AcDbVertex
100
AcDb2dVertex
 10
0.25
 20
0.0
 30
0.0
 42
1.0
  0
SEQEND
  5
10
330
B
100
AcDbEntity
  8
0
  6
BYBLOCK
 62
     0
370
    -2
  0
LINE
  5
11
330
B
100
AcDbEntity
  8
0
  6
BYBLOCK
 62
     0
370
    -2
100
AcDbLine
 10
-0.5
 20
0.0
 30
0.0
 11
-1.0
 21
0.0
 31
0.0
  0
ENDBLK
  5
12
330
B
100
AcDbEntity
  8
0
100
AcDbBlockEnd
  0
BLOCK
  5
14
330
13
100
AcDbEntity
  8
0
100
AcDbBlockBegin
  2
_OPEN
 70
     0
 10
0.0
 20
0.0
 30
0.0
  3
_OPEN
  1

  0
LINE
  5
15
330
13
100
AcDbEntity
  8
0
  6
BYBLOCK
 62
     0
370
    -2
100
AcDbLine
 10
-1.0
 20
0.166667
 30
0.0
 11
0.0
 21
0.0
 31
0.0
  0
LINE
  5
16
330
13
100
AcDbEntity
  8
0
  6
BYBLOCK
 62
     0
370
    -2
100
AcDbLine
 10
0.0
 20
0.0
 30
0.0
 11
-1.0
 21
-0.166667
 31
0.0
  0
LINE
  5
17
330
13
100
AcDbEntity
  8
0
  6
BYBLOCK
 62
     0
370
    -2
100
AcDbLine
 10
0.0
 20
0.0
 30
0.0
 11
-1.0
 21
0.0
 31
0.0
  0
ENDBLK
  5
18
330
13
100
AcDbEntity
  8
0
100
AcDbBlockEnd
  0
BLOCK
  5
1A
330
19
100
AcDbEntity
  8
0
100
AcDbBlockBegin
  2
_ORIGIN
 70
     0
 10
0.0
 20
0.0
 30
0.0
  3
_ORIGIN
  1

  0
CIRCLE
  5
1B
330
19
100
AcDbEntity
  8
0
  6
BYBLOCK
 62
     0
370
    -2
100
AcDbCircle
 10
0.0
 20
0.0
 30
0.0
 40
0.5
  0
LINE
  5
1C
330
19
100
AcDbEntity
  8
0
  6
BYBLOCK
 62
     0
370
    -2
100
AcDbLine
 10
0.0
 20
0.0
 30
0.0
 11
-1.0
 21
0.0
 31
0.0
  0
ENDBLK
  5
1D
330
19
100
AcDbEntity
  8
0
100
AcDbBlockEnd
  0
BLOCK
  5
1F
330
1E
100
AcDbEntity
  8
0
100
AcDbBlockBegin
  2
_OPEN30
 70
     0
 10
0.0
 20
0.0
 30
0.0
  3
_OPEN30
  1

  0
LINE
  5
20
330
1E
100
AcDbEntity
  8
0
  6
BYBLOCK
 62
     0
370
    -2
100
AcDbLine
 10
-1.0
 20
0.267949
 30
0.0
 11
0.0
 21
0.0
 31
0.0
  0
LINE
  5
21
330
1E
100
AcDbEntity
  8
0
  6
BYBLOCK
 62
     0
370
    -2
100
AcDbLine
 10
0.0
 20
0.0
 30
0.0
 11
-1.0
 21
-0.267949
 31
0.0
  0
LINE
  5
22
330
1E
100
AcDbEntity
  8
0
  6
BYBLOCK
 62
     0
370
    -2
100
AcDbLine
 10
0.0
 20
0.0
 30
0.0
 11
-1.0
 21
0.0
 31
0.0
  0
ENDBLK
  5
23
330
1E
100
AcDbEntity
  8
0
100
AcDbBlockEnd
  0
BLOCK
  5
25
330
24
100
AcDbEntity
  8
0
100
AcDbBlockBegin
  2
_BOXFILLED
 70
     0
 10
0.0
 20
0.0
 30
0.0
  3
_BOXFILLED
  1

  0
SOLID
  5
26
330
24
100
AcDbEntity
  8
0
  6
BYBLOCK
 62
     0
370
    -2
100
AcDbTrace
 10
-0.5
 20
0.5
 30
0.0
 11
0.5
 21
0.5
 31
0.0
 12
-0.5
 22
-0.5
 32
0.0
 13
0.5
 23
-0.5
 33
0.0
  0
LINE
  5
27
330
24
100
AcDbEntity
  8
0
  6
BYBLOCK
 62
     0
370
    -2
100
AcDbLine
 10
-0.5
 20
0.0
 30
0.0
 11
-1.0
 21
0.0
 31
0.0
  0
ENDBLK
  5
28
330
24
100
AcDbEntity
  8
0
100
AcDbBlockEnd
  0
BLOCK
  5
2A
330
29
100
AcDbEntity
  8
0
100
AcDbBlockBegin
  2
_BOXBLANK
 70
     0
 10
0.0
 20
0.0
 30
0.0
  3
_BOXBLANK
  1

  0
LINE
  5
2B
330
29
100
AcDbEntity
  8
0
  6
BYBLOCK
 62
     0
370
    -2
100
AcDbLine
 10
-0.5
 20
-0.5
 30
0.0
 11
0.5
 21
-0.5
 31
0.0
  0
LINE
  5
2C
330
29
100
AcDbEntity
  8
0
  6
BYBLOCK
 62
     0
370
    -2
100
AcDbLine
 10
0.5
 20
-0.5
 30
0.0
 11
0.5
 21
0.5
 31
0.0
  0
LINE
  5
2D
330
29
100
AcDbEntity
  8
0
  6
BYBLOCK
 62
     0
370
    -2
100
AcDbLine
 10
0.5
 20
0.5
 30
0.0
 11
-0.5
 21
0.5
 31
0.0
  0
LINE
  5
2E
330
29
100
AcDbEntity
  8
0
  6
BYBLOCK
 62
     0
370
    -2
100
AcDbLine
 10
-0.5
 20
0.5
 30
0.0
 11
-0.5
 21
-0.5
 31
0.0
  0
LINE
  5
2F
330
29
100
AcDbEntity
  8
0
  6
BYBLOCK
 62
     0
370
    -2
100
AcDbLine
 10
-0.5
 20
0.0
 30
0.0
 11
-1.0
 21
0.0
 31
0.0
  0
ENDBLK
  5
30
330
29
100
AcDbEntity
  8
0
100
AcDbBlockEnd
  0
BLOCK
  5
32
330
31
100
AcDbEntity
  8
0
100
AcDbBlockBegin
  2
_OBLIQUE
 70
     0
 10
0.0
 20
0.0
 30
0.0
  3
_OBLIQUE
  1

  0
LINE
  5
33
330
31
100
AcDbEntity
  8
0
  6
BYBLOCK
 62
     0
370
    -2
100
AcDbLine
 10
-0.5
 20
-0.5
 30
0.0
 11
0.5
 21
0.5
 31
0.0
  0
ENDBLK
  5
34
330
31
100
AcDbEntity
  8
0
100
AcDbBlockEnd
  0
BLOCK
  5
36
330
35
100
AcDbEntity
  8
0
100
AcDbBlockBegin
  2
_OPEN90
 70
     0
 10
0.0
 20
0.0
 30
0.0
  3
_OPEN90
  1

  0
LINE
  5
37
330
35
100
AcDbEntity
  8
0
  6
BYBLOCK
 62
     0
370
    -2
100
AcDbLine
 10
-0.5
 20
0.5
 30
0.0
 11
0.0
 21
0.0
 31
0.0
  0
LINE
  5
38
330
35
100
AcDbEntity
  8
0
  6
BYBLOCK
 62
     0
370
    -2
100
AcDbLine
 10
0.0
 20
0.0
 30
0.0
 11
-0.5
 21
-0.5
 31
0.0
  0
LINE
  5
39
330
35
100
AcDbEntity
  8
0
  6
BYBLOCK
 62
     0
370
    -2
100
AcDbLine
 10
0.0
 20
0.0
 30
0.0
 11
-1.0
 21
0.0
 31
0.0
  0
ENDBLK
  5
3A
330
35
100
AcDbEntity
  8
0
100
AcDbBlockEnd
  0
BLOCK
  5
3C
330
3B
100
AcDbEntity
  8
0
100
AcDbBlockBegin
  2
_CLOSEDBLANK
 70
     0
 10
0.0
 20
0.0
 30
0.0
  3
_CLOSEDBLANK
  1

  0
LINE
  5
3D
330
3B
100
AcDbEntity
  8
0
  6
BYBLOCK
 62
     0
370
    -2
100
AcDbLine
 10
-1.0
 20
0.1666666666666666
 30
0.0
 11
0.0
 21
0.0
 31
0.0
  0
LINE
  5
3E
330
3B
100
AcDbEntity
  8
0
  6
BYBLOCK
 62
     0
370
    -2
100
AcDbLine
 10
0.0
 20
0.0
 30
0.0
 11
-1.0
 21
-0.1666666666666666
 31
0.0
  0
LINE
  5
3F
330
3B
100
AcDbEntity
  8
0
  6
BYBLOCK
 62
     0
370
    -2
100
AcDbLine
 10
-1.0
 20
0.1666666666666666
 30
0.0
 11
-1.0
 21
-0.1666666666666666
 31
0.0
  0
ENDBLK
  5
40
330
3B
100
AcDbEntity
  8
0
100
AcDbBlockEnd
  0
BLOCK
  5
42
330
41
100
AcDbEntity
  8
0
100
AcDbBlockBegin
  2
_DOTBLANK
 70
     0
 10
0.0
 20
0.0
 30
0.0
  3
_DOTBLANK
  1

  0
CIRCLE
  5
43
330
41
100
AcDbEntity
  8
0
  6
BYBLOCK
 62
     0
370
    -2
100
AcDbCircle
 10
0.0
 20
0.0
 30
0.0
 40
0.5
  0
LINE
  5
44
330
41
100
AcDbEntity
  8
0
  6
BYBLOCK
 62
     0
370
    -2
100
AcDbLine
 10
-0.5
 20
0.0
 30
0.0
 11
-1.0
 21
0.0
 31
0.0
  0
ENDBLK
  5
45
330
41
100
AcDbEntity
  8
0
100
AcDbBlockEnd
  0
ENDSEC
  0
SECTION
  2
ENTITIES
  0
MTEXT
  5
46
100
AcDbEntity
  8
A8
  6
CONTINUOUS
 62
3
100
AcDbMText
 10
9.999997526638502
 20
18.00000076076889
 30
0.000000000000000
 40
3.000000000000000
 41
0.000000000000000
 44
0.6739999771118164
 71
     7
 72
     1
  1
{\H0.93x;{TYPE No.TL-443-2}}
 11
1.000000000000000
 21
0.000000000000000
 31
0.000000000000000
  7
STANDARD
  0
POINT
  5
47
100
AcDbEntity
  8
A0
  6
CONTINUOUS
 62
3
100
AcDbPoint
 10
9.999997526638502
 20
18.00000076076889
 30
0.000000000000000
  0
POINT
  5
48
100
AcDbEntity
  8
A10
  6
CONTINUOUS
 62
3
100
AcDbPoint
 10
50.00000000000000
 20
50.00000000000000
 30
0.000000000000000
  0
CIRCLE
  5
49
100
AcDbEntity
  8
A1
  6
CONTINUOUS
 62
7
100
AcDbCircle
 10
75.98023861086665
 20
137.9479934361870
 30
0.000000000000000
 40
2.500000000000000
  0
CIRCLE
  5
4A
100
AcDbEntity
  8
A1
  6
CONTINUOUS
 62
7
100
AcDbCircle
 10
75.98023861086665
 20
161.9479934361870
 30
0.000000000000000
 40
2.500000000000000
  0
ARC
  5
4B
100
AcDbEntity
  8
A1
  6
CONTINUOUS
 62
7
100
AcDbCircle
 10
72.18025061086666
 20
167.4479934361870
 30
0.000000000000000
 40
2.500000000000000
100
AcDbArc
 50
90.00000000000000
 51
180.0000000000000
  0
ARC
  5
4C
100
AcDbEntity
  8
A1
  6
CONTINUOUS
 62
7
100
AcDbCircle
 10
72.18025061086666
 20
132.4479934361870
 30
0.000000000000000
 40
2.500000000000000
100
AcDbArc
 50
180.0000000000000
 51
270.0000000000000
  0
LINE
  5
4D
100
AcDbEntity
  8
A1
  6
CONTINUOUS
 62
7
100
AcDbLine
 10
91.98023861086665
 20
155.6424332393997
 30
0.000000000000000
 11
91.98023861086665
 21
144.2535536329742
 31
0.000000000000000
  0
SPLINE
  5
4E
100
AcDbEntity
  8
A1
  6
CONTINUOUS
 62
7
100
AcDbSpline
210
0.000000000000000
220
0.000000000000000
230
1.000000000000000
 70
     8
 71
     3
 72
    15
 73
    11
 74
     0
 42
1.000000000000000e-07
 43
1.000000000000000e-07
 12
-0.002250462368806438
 22
-0.9999974677059527
 32
0.000000000000000
 13
-0.9631085037788125
 23
-0.2691133775012986
 33
0.000000000000000
 40
0.000000000000000
 40
0.000000000000000
 40
0.000000000000000
 40
0.000000000000000
 40
0.4273740030090919
 40
0.8547419577568831
 40
1.282198042840198
 40
1.709639382180794
 40
2.135363922725610
 40
2.561071944961548
 40
2.914164898766294
 40
3.267251587479943
 40
3.267251587479943
 40
3.267251587479943
 40
3.267251587479943
 10
127.4802386108666
 20
146.8682350972493
 30
0.000000000000000
 10
127.4799180144963
 20
146.7257774569918
 30
0.000000000000000
 10
127.4558404284925
 20
146.4403539905134
 30
0.000000000000000
 10
127.3490702709452
 20
146.0244473096848
 30
0.000000000000000
 10
127.1727835457559
 20
145.6328336858763
 30
0.000000000000000
 10
126.9344836956303
 20
145.2761846790169
 30
0.000000000000000
 10
126.6387158738368
 20
144.9663642784234
 30
0.000000000000000
 10
126.3154964264303
 20
144.7248126316653
 30
0.000000000000000
 10
125.9803273705267
 20
144.5489674369354
 30
0.000000000000000
 10
125.7577114882390
 20
144.4697051353743
 30
0.000000000000000
 10
125.6443578907486
 20
144.4380316849241
 30
0.000000000000000
  0
SPLINE
  5
4F
100
AcDbEntity
  8
A1
  6
CONTINUOUS
 62
7
100
AcDbSpline
210
0.000000000000000
220
0.000000000000000
230
1.000000000000000
 70
     8
 71
     3
 72
    16
 73
    12
 74
     0
 42
1.000000000000000e-07
 43
1.000000000000000e-07
 12
0.9848235320401955
 22
0.1735586665631672
 32
0.000000000000000
 13
-6.745206565028639e-05
 23
0.9999999977226253
 33
0.000000000000000
 40
0.000000000000000
 40
0.000000000000000
 40
0.000000000000000
 40
0.000000000000000
 40
0.4192777759983681
 40
0.8385685719073859
 40
1.257720602175683
 40
1.676892093981734
 40
2.098627631372598
 40
2.520381902499221
 40
2.946444783146764
 40
3.372517865344027
 40
3.518382284554255
 40
3.518382284554255
 40
3.518382284554255
 40
3.518382284554255
 10
125.4036184675950
 20
144.5874746053406
 30
0.000000000000000
 10
125.5412566743499
 20
144.6117310359146
 30
0.000000000000000
 10
125.8130907196468
 20
144.6830403643050
 30
0.000000000000000
 10
126.1969059741650
 20
144.8565305272390
 30
0.000000000000000
 10
126.5455172745160
 20
145.0928886768543
 30
0.000000000000000
 10
126.8513455935455
 20
145.3836406246033
 30
0.000000000000000
 10
127.1038946496704
 20
145.7227964831757
 30
0.000000000000000
 10
127.2989020540982
 20
146.1005856240378
 30
0.000000000000000
 10
127.4275153344595
 20
146.5073162507939
 30
0.000000000000000
 10
127.4748400743179
 20
146.8383135481973
 30
0.000000000000000
 10
127.4802418904854
 20
147.0289655912470
 30
0.000000000000000
 10
127.4802386108666
 20
147.0775870642064
 30
0.000000000000000
  0
SPLINE
  5
50
100
AcDbEntity
  8
A1
  6
CONTINUOUS
 62
7
100
AcDbSpline
210
0.000000000000000
220
0.000000000000000
230
1.000000000000000
 70
     8
 71
     3
 72
    16
 73
    12
 74
     0
 42
1.000000000000000e-07
 43
1.000000000000000e-07
 12
0.9848235320401955
 22
-0.1735586665633946
 32
0.000000000000000
 13
-6.745206565028639e-05
 23
-0.9999999977239895
 33
0.000000000000000
 40
0.000000000000000
 40
0.000000000000000
 40
0.000000000000000
 40
0.000000000000000
 40
0.4192777759983681
 40
0.8385685719073859
 40
1.257720602175683
 40
1.676892093981734
 40
2.098627631372598
 40
2.520381902499221
 40
2.946444783146764
 40
3.372517865344027
 40
3.518382284554255
 40
3.518382284554255
 40
3.518382284554255
 40
3.518382284554255
 10
125.4036184675950
 20
155.3085122670333
 30
0.000000000000000
 10
125.5412566743499
 20
155.2842558364593
 30
0.000000000000000
 10
125.8130907196468
 20
155.2129465080689
 30
0.000000000000000
 10
126.1969059741650
 20
155.0394563451349
 30
0.000000000000000
 10
126.5455172745160
 20
154.8030981955195
 30
0.000000000000000
 10
126.8513455935455
 20
154.5123462477705
 30
0.000000000000000
 10
127.1038946496704
 20
154.1731903891983
 30
0.000000000000000
 10
127.2989020540982
 20
153.7954012483361
 30
0.000000000000000
 10
127.4275153344595
 20
153.3886706215800
 30
0.000000000000000
 10
127.4748400743179
 20
153.0576733241765
 30
0.000000000000000
 10
127.4802418904854
 20
152.8670212811269
 30
0.000000000000000
 10
127.4802386108666
 20
152.8183998081675
 30
0.000000000000000
  0
SPLINE
  5
51
100
AcDbEntity
  8
A1
  6
CONTINUOUS
 62
7
100
AcDbSpline
210
0.000000000000000
220
0.000000000000000
230
1.000000000000000
 70
     8
 71
     3
 72
    15
 73
    11
 74
     0
 42
1.000000000000000e-07
 43
1.000000000000000e-07
 12
-0.002250462368806438
 22
0.9999974677059527
 32
0.000000000000000
 13
-0.9631085037788125
 23
0.2691133775015260
 33
0.000000000000000
 40
0.000000000000000
 40
0.000000000000000
 40
0.000000000000000
 40
0.000000000000000
 40
0.4273740030090919
 40
0.8547419577568831
 40
1.282198042840198
 40
1.709639382180794
 40
2.135363922725610
 40
2.561071944961514
 40
2.914164898766286
 40
3.267251587479935
 40
3.267251587479935
 40
3.267251587479935
 40
3.267251587479935
 10
127.4802386108666
 20
153.0277517751246
 30
0.000000000000000
 10
127.4799180144963
 20
153.1702094153821
 30
0.000000000000000
 10
127.4558404284925
 20
153.4556328818605
 30
0.000000000000000
 10
127.3490702709452
 20
153.8715395626892
 30
0.000000000000000
 10
127.1727835457559
 20
154.2631531864977
 30
0.000000000000000
 10
126.9344836956303
 20
154.6198021933569
 30
0.000000000000000
 10
126.6387158738369
 20
154.9296225939506
 30
0.000000000000000
 10
126.3154964264302
 20
155.1711742407086
 30
0.000000000000000
 10
125.9803273705267
 20
155.3470194354387
 30
0.000000000000000
 10
125.7577114882390
 20
155.4262817369996
 30
0.000000000000000
 10
125.6443578907486
 20
155.4579551874498
 30
0.000000000000000
  0
ELLIPSE
  5
52
100
AcDbEntity
  8
A1
  6
CONTINUOUS
 62
7
100
AcDbEllipse
 10
123.4802386108666
 20
156.0591009771198
 30
0.000000000000000
 11
1.500000000000000
 21
0.000000000000000
 31
0.000000000000000
210
0.000000000000000
220
0.000000000000000
230
1.000000000000000
 40
0.2777784918134278
 41
3.141592653589793
 42
4.712388980384690
  0
ELLIPSE
  5
53
100
AcDbEntity
  8
A1
  6
CONTINUOUS
 62
7
100
AcDbEllipse
 10
123.4802386108666
 20
143.8368858952541
 30
0.000000000000000
 11
1.500000000000000
 21
0.000000000000000
 31
0.000000000000000
210
0.000000000000000
220
0.000000000000000
230
1.000000000000000
 40
0.2777784918134278
 41
1.570796326794897
 42
3.141592653589793
  0
ARC
  5
54
100
AcDbEntity
  8
A1
  6
CONTINUOUS
 62
7
100
AcDbCircle
 10
134.4455081995222
 20
167.4479934361870
 30
0.000000000000000
 40
2.500000000000000
100
AcDbArc
 50
90.00000000000000
 51
150.7511928171625
  0
ARC
  5
55
100
AcDbEntity
  8
A1
  6
CONTINUOUS
 62
7
100
AcDbCircle
 10
134.4455690123945
 20
132.4479934361870
 30
0.000000000000000
 40
2.500000000000000
100
AcDbArc
 50
209.2488391056982
 51
270.0000000000000
  0
LINE
  5
56
100
AcDbEntity
  8
A1
  6
CONTINUOUS
 62
7
100
AcDbLine
 10
141.9802386108666
 20
169.9479934361870
 30
0.000000000000000
 11
141.9802386108666
 21
129.9479934361870
 31
0.000000000000000
  0
LINE
  5
57
100
AcDbEntity
  8
A1
  6
CONTINUOUS
 62
7
100
AcDbLine
 10
125.9802033708464
 20
157.4479934361870
 30
0.000000000000000
 11
132.2642427513036
 21
168.6695011293298
 31
0.000000000000000
  0
LINE
  5
58
100
AcDbEntity
  8
A1
  6
CONTINUOUS
 62
7
100
AcDbLine
 10
132.2643042447501
 20
131.2264845277325
 30
0.000000000000000
 11
125.9802559708757
 21
142.4479934361870
 31
0.000000000000000
  0
LINE
  5
59
100
AcDbEntity
  8
A1
  6
CONTINUOUS
 62
7
100
AcDbLine
 10
125.6443578907485
 20
155.4579551874498
 30
0.000000000000000
 11
123.4802386108666
 21
156.0591009771198
 31
0.000000000000000
  0
LINE
  5
5A
100
AcDbEntity
  8
A1
  6
CONTINUOUS
 62
7
100
AcDbLine
 10
125.6443578907485
 20
144.4380316849241
 30
0.000000000000000
 11
123.4802386108666
 21
143.8368858952541
 31
0.000000000000000
  0
LINE
  5
5B
100
AcDbEntity
  8
A1
  6
CONTINUOUS
 62
7
100
AcDbLine
 10
127.4802386108666
 20
146.8682350972493
 30
0.000000000000000
 11
127.4802386108666
 21
147.0775870642064
 31
0.000000000000000
  0
LINE
  5
5C
100
AcDbEntity
  8
A1
  6
CONTINUOUS
 62
7
100
AcDbLine
 10
123.4802386108666
 20
144.2535536329742
 30
0.000000000000000
 11
125.4036184675949
 21
144.5874746053406
 31
0.000000000000000
  0
LINE
  5
5D
100
AcDbEntity
  8
A1
  6
CONTINUOUS
 62
7
100
AcDbLine
 10
127.4802386108666
 20
152.8183998081675
 30
0.000000000000000
 11
127.4802386108666
 21
147.0775870642064
 31
0.000000000000000
  0
LINE
  5
5E
100
AcDbEntity
  8
A1
  6
CONTINUOUS
 62
7
100
AcDbLine
 10
123.4802386108666
 20
155.6424332393997
 30
0.000000000000000
 11
125.4036184675949
 21
155.3085122670333
 31
0.000000000000000
  0
LINE
  5
5F
100
AcDbEntity
  8
A1
  6
CONTINUOUS
 62
7
100
AcDbLine
 10
127.4802386108666
 20
152.8183998081675
 30
0.000000000000000
 11
127.4802386108666
 21
153.0277517751246
 31
0.000000000000000
  0
ARC
  5
60
100
AcDbEntity
  8
A1
  6
CONTINUOUS
 62
7
100
AcDbCircle
 10
83.48023861086676
 20
201.4479934361870
 30
0.000000000000000
 40
1.500000000000000
100
AcDbArc
 50
180.0000000000000
 51
270.0000000000000
  0
ARC
  5
61
100
AcDbEntity
  8
A1
  6
CONTINUOUS
 62
7
100
AcDbCircle
 10
90.48023861086665
 20
201.4479934361870
 30
0.000000000000000
 40
1.500000000000000
100
AcDbArc
 50
270.0000000000000
 51
359.9999999999987
  0
ARC
  5
62
100
AcDbEntity
  8
A1
  6
CONTINUOUS
 62
7
100
AcDbCircle
 10
81.98023861086676
 20
218.4479934361870
 30
0.000000000000000
 40
1.500000000000000
100
AcDbArc
 50
0.000000000000000
 51
90.00000000000000
  0
LINE
  5
63
100
AcDbEntity
  8
A1
  6
CONTINUOUS
 62
7
100
AcDbLine
 10
91.98023861086665
 20
205.4479934361870
 30
0.000000000000000
 11
90.48023861086665
 21
205.4479934361870
 31
0.000000000000000
  0
LINE
  5
64
100
AcDbEntity
  8
A1
  6
CONTINUOUS
 62
7
100
AcDbLine
 10
85.48023861086676
 20
201.4479934361870
 30
0.000000000000000
 11
85.48023861086676
 21
199.9479934361870
 31
0.000000000000000
  0
LINE
  5
65
100
AcDbEntity
  8
A1
  6
CONTINUOUS
 62
7
100
AcDbLine
 10
81.98023861086676
 20
203.9479581961668
 30
0.000000000000000
 11
83.48023861086676
 21
203.9479581961668
 31
0.000000000000000
  0
LINE
  5
66
100
AcDbEntity
  8
A1
  6
CONTINUOUS
 62
7
100
AcDbLine
 10
69.68025061086666
 20
219.9479934361870
 30
0.000000000000000
 11
69.68025061086666
 21
218.4479934361870
 31
0.000000000000000
  0
ARC
  5
67
100
AcDbEntity
  8
A1
  6
CONTINUOUS
 62
7
100
AcDbCircle
 10
27.21498102221108
 20
167.4479934361870
 30
0.000000000000000
 40
2.500000000000000
100
AcDbArc
 50
29.24880718283757
 51
90.00000000000000
  0
ARC
  5
68
100
AcDbEntity
  8
A1
  6
CONTINUOUS
 62
7
100
AcDbCircle
 10
27.21492020933886
 20
132.4479934361870
 30
0.000000000000000
 40
2.500000000000000
100
AcDbArc
 50
270.0000000000000
 51
330.7511608943017
  0
LINE
  5
69
100
AcDbEntity
  8
A1
  6
CONTINUOUS
 62
7
100
AcDbLine
 10
39.68025061086666
 20
157.4479934361870
 30
0.000000000000000
 11
39.68025061086666
 21
142.4479934361870
 31
0.000000000000000
  0
LINE
  5
6A
100
AcDbEntity
  8
A1
  6
CONTINUOUS
 62
7
100
AcDbLine
 10
35.68028585088697
 20
157.4479934361870
 30
0.000000000000000
 11
29.39624647042977
 21
168.6695011293298
 31
0.000000000000000
  0
LINE
  5
6B
100
AcDbEntity
  8
A1
  6
CONTINUOUS
 62
7
100
AcDbLine
 10
29.39618497698315
 20
131.2264845277325
 30
0.000000000000000
 11
35.68023325085755
 21
142.4479934361870
 31
0.000000000000000
  0
ARC
  5
6C
100
AcDbEntity
  8
A1
  6
CONTINUOUS
 62
7
100
AcDbCircle
 10
90.48023861086665
 20
98.44799343618695
 30
0.000000000000000
 40
1.500000000000000
100
AcDbArc
 50
1.221300000000000e-12
 51
90.00000000000000
  0
ARC
  5
6D
100
AcDbEntity
  8
A1
  6
CONTINUOUS
 62
7
100
AcDbCircle
 10
83.48023861086676
 20
98.44799343618695
 30
0.000000000000000
 40
1.500000000000000
100
AcDbArc
 50
90.00000000000000
 51
180.0000000000000
  0
ARC
  5
6E
100
AcDbEntity
  8
A1
  6
CONTINUOUS
 62
7
100
AcDbCircle
 10
81.98023861086676
 20
81.44799343618695
 30
0.000000000000000
 40
1.500000000000000
100
AcDbArc
 50
270.0000000000000
 51
360.0000000000000
  0
LINE
  5
6F
100
AcDbEntity
  8
A1
  6
CONTINUOUS
 62
7
100
AcDbLine
 10
90.48023861086665
 20
94.44799343618695
 30
0.000000000000000
 11
91.98023861086665
 21
94.44799343618695
 31
0.000000000000000
  0
LINE
  5
70
100
AcDbEntity
  8
A1
  6
CONTINUOUS
 62
7
100
AcDbLine
 10
85.48023861086676
 20
98.44799343618695
 30
0.000000000000000
 11
85.48023861086676
 21
99.94799343618703
 31
0.000000000000000
  0
LINE
  5
71
100
AcDbEntity
  8
A1
  6
CONTINUOUS
 62
7
100
AcDbLine
 10
81.98023861086676
 20
95.94797607617784
 30
0.000000000000000
 11
83.48023861086676
 21
95.94797607617784
 31
0.000000000000000
  0
LINE
  5
72
100
AcDbEntity
  8
A1
  6
CONTINUOUS
 62
7
100
AcDbLine
 10
69.68025061086666
 20
79.94799343618695
 30
0.000000000000000
 11
69.68025061086666
 21
81.44799343618695
 31
0.000000000000000
  0
CIRCLE
  5
73
100
AcDbEntity
  8
A1
  6
CONTINUOUS
 62
7
100
AcDbCircle
 10
186.9802386108665
 20
161.9479934361870
 30
0.000000000000000
 40
2.500000000000000
  0
CIRCLE
  5
74
100
AcDbEntity
  8
A1
  6
CONTINUOUS
 62
7
100
AcDbCircle
 10
186.9802386108666
 20
137.9479934361870
 30
0.000000000000000
 40
2.500000000000000
  0
ARC
  5
75
100
AcDbEntity
  8
A1
  6
CONTINUOUS
 62
7
100
AcDbCircle
 10
190.7802266108666
 20
132.4479934361870
 30
0.000000000000000
 40
2.500000000000000
100
AcDbArc
 50
270.0000000000000
 51
360.0000000000000
  0
ARC
  5
76
100
AcDbEntity
  8
A1
  6
CONTINUOUS
 62
7
100
AcDbCircle
 10
190.7802266108666
 20
167.4479934361870
 30
0.000000000000000
 40
2.500000000000000
100
AcDbArc
 50
0.000000000000000
 51
90.00000000000000
  0
LINE
  5
77
100
AcDbEntity
  8
A1
  6
CONTINUOUS
 62
7
100
AcDbLine
 10
177.4802386108665
 20
142.4479934361870
 30
0.000000000000000
 11
179.4802386108665
 21
142.4479934361870
 31
0.000000000000000
  0
LINE
  5
78
100
AcDbEntity
  8
A1
  6
CONTINUOUS
 62
7
100
AcDbLine
 10
177.4802386108665
 20
157.4479934361870
 30
0.000000000000000
 11
179.4802386108665
 21
157.4479934361870
 31
0.000000000000000
  0
LINE
  5
79
100
AcDbEntity
  8
A1
  6
CONTINUOUS
 62
7
100
AcDbLine
 10
179.4802386108665
 20
129.9479934361870
 30
0.000000000000000
 11
179.4802386108665
 21
169.9479934361870
 31
0.000000000000000
  0
LINE
  5
7A
100
AcDbEntity
  8
A4
  6
CENTER
 62
1
100
AcDbLine
 10
79.98023861086665
 20
161.9479934361870
 30
0.000000000000000
 11
71.98023861086665
 21
161.9479934361870
 31
0.000000000000000
  0
LINE
  5
7B
100
AcDbEntity
  8
A4
  6
CENTER
 62
1
100
AcDbLine
 10
75.98023861086665
 20
165.9479934361870
 30
0.000000000000000
 11
75.98023861086665
 21
157.9479934361870
 31
0.000000000000000
  0
LINE
  5
7C
100
AcDbEntity
  8
A4
  6
CENTER
 62
1
100
AcDbLine
 10
79.98023861086665
 20
137.9479934361870
 30
0.000000000000000
 11
71.98023861086665
 21
137.9479934361870
 31
0.000000000000000
  0
LINE
  5
7D
100
AcDbEntity
  8
A4
  6
CENTER
 62
1
100
AcDbLine
 10
75.98023861086665
 20
141.9479934361870
 30
0.000000000000000
 11
75.98023861086665
 21
133.9479934361870
 31
0.000000000000000
  0
LINE
  5
7E
100
AcDbEntity
  8
A4
  6
CENTER
 62
1
100
AcDbLine
 10
68.18025061086666
 20
149.9479934361870
 30
0.000000000000000
 11
93.48023861086671
 21
149.9479934361870
 31
0.000000000000000
  0
LINE
  5
7F
100
AcDbEntity
  8
A1
  6
CONTINUOUS
 62
7
100
AcDbLine
 10
81.98023861086676
 20
129.9479934361870
 30
0.000000000000000
 11
81.98023861086676
 21
169.9479934361870
 31
0.000000000000000
  0
LINE
  5
80
100
AcDbEntity
  8
A1
  6
CONTINUOUS
 62
7
100
AcDbLine
 10
83.48023861086676
 20
129.9479934361870
 30
0.000000000000000
 11
83.48023861086676
 21
142.4479934361870
 31
0.000000000000000
  0
LINE
  5
81
100
AcDbEntity
  8
A1
  6
CONTINUOUS
 62
7
100
AcDbLine
 10
83.48023861086676
 20
157.4479934361870
 30
0.000000000000000
 11
83.48023861086676
 21
169.9479934361870
 31
0.000000000000000
  0
LINE
  5
82
100
AcDbEntity
  8
A1
  6
CONTINUOUS
 62
7
100
AcDbLine
 10
72.18025061086666
 20
169.9479934361870
 30
0.000000000000000
 11
83.48023861086676
 21
169.9479934361870
 31
0.000000000000000
  0
LINE
  5
83
100
AcDbEntity
  8
A1
  6
CONTINUOUS
 62
7
100
AcDbLine
 10
72.18025061086666
 20
129.9479934361870
 30
0.000000000000000
 11
83.48023861086676
 21
129.9479934361870
 31
0.000000000000000
  0
LINE
  5
84
100
AcDbEntity
  8
A1
  6
CONTINUOUS
 62
7
100
AcDbLine
 10
81.98023861086676
 20
142.4479934361870
 30
0.000000000000000
 11
85.48023861086676
 21
142.4479934361870
 31
0.000000000000000
  0
LINE
  5
85
100
AcDbEntity
  8
A1
  6
CONTINUOUS
 62
7
100
AcDbLine
 10
81.98023861086676
 20
157.4479934361870
 30
0.000000000000000
 11
85.48023861086676
 21
157.4479934361870
 31
0.000000000000000
  0
LINE
  5
86
100
AcDbEntity
  8
A1
  6
CONTINUOUS
 62
7
100
AcDbLine
 10
85.48023861086669
 20
157.4479934361870
 30
0.000000000000000
 11
91.98023861086659
 21
155.6424332393997
 31
0.000000000000000
  0
LINE
  5
87
100
AcDbEntity
  8
A1
  6
CONTINUOUS
 62
7
100
AcDbLine
 10
85.48023861086682
 20
142.4479934361870
 30
0.000000000000000
 11
91.98023861086668
 21
144.2535536329742
 31
0.000000000000000
  0
LINE
  5
88
100
AcDbEntity
  8
A1
  6
CONTINUOUS
 62
7
100
AcDbLine
 10
19.68025061086666
 20
169.9479934361870
 30
0.000000000000000
 11
27.21498102221108
 21
169.9479934361870
 31
0.000000000000000
  0
LINE
  5
89
100
AcDbEntity
  8
A1
  6
CONTINUOUS
 62
7
100
AcDbLine
 10
19.68025061086666
 20
129.9479934361870
 30
0.000000000000000
 11
19.68025061086666
 21
169.9479934361870
 31
0.000000000000000
  0
LINE
  5
8A
100
AcDbEntity
  8
A1
  6
CONTINUOUS
 62
7
100
AcDbLine
 10
19.68025061086666
 20
129.9479934361870
 30
0.000000000000000
 11
27.21492020933886
 21
129.9479934361870
 31
0.000000000000000
  0
LINE
  5
8B
100
AcDbEntity
  8
A1
  6
CONTINUOUS
 62
7
100
AcDbLine
 10
21.18025061086658
 20
129.9479934361870
 30
0.000000000000000
 11
21.18025061086658
 21
169.9479934361870
 31
0.000000000000000
  0
LINE
  5
8C
100
AcDbEntity
  8
A1
  6
CONTINUOUS
 62
7
100
AcDbLine
 10
35.68023325085755
 20
142.4479934361870
 30
0.000000000000000
 11
39.68025061086666
 21
142.4479934361870
 31
0.000000000000000
  0
LINE
  5
8D
100
AcDbEntity
  8
A1
  6
CONTINUOUS
 62
7
100
AcDbLine
 10
35.68028585088697
 20
157.4479934361870
 30
0.000000000000000
 11
39.68025061086666
 21
157.4479934361870
 31
0.000000000000000
  0
LINE
  5
8E
100
AcDbEntity
  8
A1
  6
CONTINUOUS
 62
7
100
AcDbLine
 10
69.68025061086666
 20
81.44799343618695
 30
0.000000000000000
 11
81.98023861086676
 21
81.44799343618695
 31
0.000000000000000
  0
LINE
  5
8F
100
AcDbEntity
  8
A1
  6
CONTINUOUS
 62
7
100
AcDbLine
 10
69.68025061086666
 20
79.94799343618695
 30
0.000000000000000
 11
81.98023861086676
 21
79.94799343618695
 31
0.000000000000000
  0
LINE
  5
90
100
AcDbEntity
  8
A1
  6
CONTINUOUS
 62
7
100
AcDbLine
 10
81.98023861086676
 20
81.44799343618695
 30
0.000000000000000
 11
81.98023861086676
 21
98.44799343618695
 31
0.000000000000000
  0
LINE
  5
91
100
AcDbEntity
  8
A1
  6
CONTINUOUS
 62
7
100
AcDbLine
 10
83.48023861086676
 20
81.44799343618695
 30
0.000000000000000
 11
83.48023861086676
 21
98.44799343618695
 31
0.000000000000000
  0
LINE
  5
92
100
AcDbEntity
  8
A1
  6
CONTINUOUS
 62
7
100
AcDbLine
 10
83.48023861086676
 20
98.44799343618695
 30
0.000000000000000
 11
90.48023861086665
 21
98.44799343618695
 31
0.000000000000000
  0
LINE
  5
93
100
AcDbEntity
  8
A1
  6
CONTINUOUS
 62
7
100
AcDbLine
 10
83.48023861086676
 20
99.94799343618703
 30
0.000000000000000
 11
90.48023861086665
 21
99.94799343618703
 31
0.000000000000000
  0
LINE
  5
94
100
AcDbEntity
  8
A1
  6
CONTINUOUS
 62
7
100
AcDbLine
 10
91.98023861086665
 20
94.44799343618695
 30
0.000000000000000
 11
91.98023861086665
 21
98.44799343618695
 31
0.000000000000000
  0
LINE
  5
95
100
AcDbEntity
  8
A1
  6
CONTINUOUS
 62
7
100
AcDbLine
 10
90.48023861086665
 20
94.44799343618695
 30
0.000000000000000
 11
90.48023861086665
 21
98.44799343618695
 31
0.000000000000000
  0
LINE
  5
96
100
AcDbEntity
  8
A1
  6
CONTINUOUS
 62
7
100
AcDbLine
 10
69.68025061086666
 20
218.4479934361870
 30
0.000000000000000
 11
81.98023861086676
 21
218.4479934361870
 31
0.000000000000000
  0
LINE
  5
97
100
AcDbEntity
  8
A1
  6
CONTINUOUS
 62
7
100
AcDbLine
 10
69.68025061086666
 20
219.9479934361870
 30
0.000000000000000
 11
81.98023861086676
 21
219.9479934361870
 31
0.000000000000000
  0
LINE
  5
98
100
AcDbEntity
  8
A1
  6
CONTINUOUS
 62
7
100
AcDbLine
 10
83.48023861086676
 20
201.4479934361870
 30
0.000000000000000
 11
83.48023861086676
 21
218.4479934361870
 31
0.000000000000000
  0
LINE
  5
99
100
AcDbEntity
  8
A1
  6
CONTINUOUS
 62
7
100
AcDbLine
 10
83.48023861086676
 20
201.4479934361870
 30
0.000000000000000
 11
90.48023861086665
 21
201.4479934361870
 31
0.000000000000000
  0
LINE
  5
9A
100
AcDbEntity
  8
A1
  6
CONTINUOUS
 62
7
100
AcDbLine
 10
83.48023861086676
 20
199.9479934361870
 30
0.000000000000000
 11
90.48023861086665
 21
199.9479934361870
 31
0.000000000000000
  0
LINE
  5
9B
100
AcDbEntity
  8
A1
  6
CONTINUOUS
 62
7
100
AcDbLine
 10
81.98023861086676
 20
201.4479934361870
 30
0.000000000000000
 11
81.98023861086676
 21
218.4479934361870
 31
0.000000000000000
  0
LINE
  5
9C
100
AcDbEntity
  8
A1
  6
CONTINUOUS
 62
7
100
AcDbLine
 10
90.48023861086665
 20
201.4479934361870
 30
0.000000000000000
 11
90.48023861086665
 21
205.4479934361870
 31
0.000000000000000
  0
LINE
  5
9D
100
AcDbEntity
  8
A1
  6
CONTINUOUS
 62
7
100
AcDbLine
 10
91.98023861086665
 20
201.4479934361870
 30
0.000000000000000
 11
91.98023861086665
 21
205.4479934361870
 31
0.000000000000000
  0
LINE
  5
9E
100
AcDbEntity
  8
A4
  6
CENTER
 62
1
100
AcDbLine
 10
75.98023861086668
 20
82.94799343618692
 30
0.000000000000000
 11
75.98023861086668
 21
78.44799343618695
 31
0.000000000000000
  0
LINE
  5
9F
100
AcDbEntity
  8
A4
  6
CENTER
 62
1
100
AcDbLine
 10
75.98023861086668
 20
221.4479934361870
 30
0.000000000000000
 11
75.98023861086668
 21
216.9479934361870
 31
0.000000000000000
  0
LINE
  5
A0
100
AcDbEntity
  8
A1
  6
CONTINUOUS
 62
7
100
AcDbLine
 10
121.9802386108666
 20
157.4479934361870
 30
0.000000000000000
 11
125.9802033708464
 21
157.4479934361870
 31
0.000000000000000
  0
LINE
  5
A1
100
AcDbEntity
  8
A1
  6
CONTINUOUS
 62
7
100
AcDbLine
 10
121.9802386108666
 20
142.4479934361870
 30
0.000000000000000
 11
121.9802386108666
 21
157.4479934361870
 31
0.000000000000000
  0
LINE
  5
A2
100
AcDbEntity
  8
A1
  6
CONTINUOUS
 62
7
100
AcDbLine
 10
123.4802386108666
 20
155.6424332393997
 30
0.000000000000000
 11
123.4802386108666
 21
157.4479934361870
 31
0.000000000000000
  0
LINE
  5
A3
100
AcDbEntity
  8
A1
  6
CONTINUOUS
 62
7
100
AcDbLine
 10
123.4802386108666
 20
142.4479934361870
 30
0.000000000000000
 11
123.4802386108666
 21
144.2535536329742
 31
0.000000000000000
  0
LINE
  5
A4
100
AcDbEntity
  8
A1
  6
CONTINUOUS
 62
7
100
AcDbLine
 10
121.9802386108666
 20
142.4479934361870
 30
0.000000000000000
 11
125.9802559708758
 21
142.4479934361870
 31
0.000000000000000
  0
LINE
  5
A5
100
AcDbEntity
  8
A1
  6
CONTINUOUS
 62
7
100
AcDbLine
 10
134.4455690123945
 20
129.9479934361870
 30
0.000000000000000
 11
141.9802386108666
 21
129.9479934361870
 31
0.000000000000000
  0
LINE
  5
A6
100
AcDbEntity
  8
A4
  6
CENTER
 62
1
100
AcDbLine
 10
120.4802386108666
 20
149.9479934361870
 30
0.000000000000000
 11
143.4802386108666
 21
149.9479934361870
 31
0.000000000000000
  0
LINE
  5
A7
100
AcDbEntity
  8
A4
  6
CENTER
 62
1
100
AcDbLine
 10
138.9802386108666
 20
161.9479934361870
 30
0.000000000000000
 11
143.4802386108666
 21
161.9479934361870
 31
0.000000000000000
  0
LINE
  5
A8
100
AcDbEntity
  8
A4
  6
CENTER
 62
1
100
AcDbLine
 10
138.9802386108666
 20
137.9479934361870
 30
0.000000000000000
 11
143.4802386108666
 21
137.9479934361870
 31
0.000000000000000
  0
LINE
  5
A9
100
AcDbEntity
  8
A4
  6
CENTER
 62
1
100
AcDbLine
 10
41.18025061086661
 20
149.9479934361870
 30
0.000000000000000
 11
18.18025061086661
 21
149.9479934361870
 31
0.000000000000000
  0
LINE
  5
AA
100
AcDbEntity
  8
A4
  6
CENTER
 62
1
100
AcDbLine
 10
22.68025061086661
 20
161.9479934361870
 30
0.000000000000000
 11
18.18025061086661
 21
161.9479934361870
 31
0.000000000000000
  0
LINE
  5
AB
100
AcDbEntity
  8
A4
  6
CENTER
 62
1
100
AcDbLine
 10
22.68025061086661
 20
137.9479934361870
 30
0.000000000000000
 11
18.18025061086661
 21
137.9479934361870
 31
0.000000000000000
  0
LINE
  5
AC
100
AcDbEntity
  8
A1
  6
CONTINUOUS
 62
7
100
AcDbLine
 10
134.4455081995222
 20
169.9479934361870
 30
0.000000000000000
 11
141.9802386108666
 21
169.9479934361870
 31
0.000000000000000
  0
LINE
  5
AD
100
AcDbEntity
  8
A4
  6
CENTER
 62
1
100
AcDbLine
 10
186.9802386108667
 20
165.9479934361870
 30
0.000000000000000
 11
186.9802386108667
 21
157.9479934361870
 31
0.000000000000000
  0
LINE
  5
AE
100
AcDbEntity
  8
A4
  6
CENTER
 62
1
100
AcDbLine
 10
182.9802386108667
 20
161.9479934361870
 30
0.000000000000000
 11
190.9802386108667
 21
161.9479934361870
 31
0.000000000000000
  0
LINE
  5
AF
100
AcDbEntity
  8
A4
  6
CENTER
 62
1
100
AcDbLine
 10
194.7802266108667
 20
149.9479934361870
 30
0.000000000000000
 11
169.4802386108666
 21
149.9479934361870
 31
0.000000000000000
  0
LINE
  5
B0
100
AcDbEntity
  8
A4
  6
CENTER
 62
1
100
AcDbLine
 10
186.9802386108667
 20
141.9479934361870
 30
0.000000000000000
 11
186.9802386108667
 21
133.9479934361870
 31
0.000000000000000
  0
LINE
  5
B1
100
AcDbEntity
  8
A4
  6
CENTER
 62
1
100
AcDbLine
 10
182.9802386108667
 20
137.9479934361870
 30
0.000000000000000
 11
190.9802386108667
 21
137.9479934361870
 31
0.000000000000000
  0
LINE
  5
B2
100
AcDbEntity
  8
A1
  6
CONTINUOUS
 62
7
100
AcDbLine
 10
179.4802386108665
 20
169.9479934361870
 30
0.000000000000000
 11
190.7802266108666
 21
169.9479934361870
 31
0.000000000000000
  0
LINE
  5
B3
100
AcDbEntity
  8
A1
  6
CONTINUOUS
 62
7
100
AcDbLine
 10
170.9802386108668
 20
155.6424332393997
 30
0.000000000000000
 11
177.4802386108665
 21
157.4479934361870
 31
0.000000000000000
  0
LINE
  5
B4
100
AcDbEntity
  8
A1
  6
CONTINUOUS
 62
7
100
AcDbLine
 10
172.4802386108666
 20
143.8368858952541
 30
0.000000000000000
 11
172.4802386108666
 21
156.0591009771198
 31
0.000000000000000
  0
LINE
  5
B5
100
AcDbEntity
  8
A1
  6
CONTINUOUS
 62
7
100
AcDbLine
 10
170.9802386108666
 20
144.2535536329742
 30
0.000000000000000
 11
170.9802386108666
 21
155.6424332393997
 31
0.000000000000000
  0
LINE
  5
B6
100
AcDbEntity
  8
A1
  6
CONTINUOUS
 62
7
100
AcDbLine
 10
170.9802386108667
 20
144.2535536329743
 30
0.000000000000000
 11
177.4802386108666
 21
142.4479934361871
 31
0.000000000000000
  0
LINE
  5
B7
100
AcDbEntity
  8
A1
  6
CONTINUOUS
 62
7
100
AcDbLine
 10
179.4802386108665
 20
129.9479934361870
 30
0.000000000000000
 11
190.7802266108666
 21
129.9479934361870
 31
0.000000000000000
  0
ARC
  5
B8
100
AcDbEntity
  8
A10
  6
CONTINUOUS
 62
7
100
AcDbCircle
 10
65.68025061086666
 20
149.9479934361872
 30
0.000000000000000
 40
5.000000000000000
100
AcDbArc
 50
323.1301023541560
 51
396.8698976458440
  0
LINE
  5
B9
100
AcDbEntity
  8
A1
  6
CONTINUOUS
 62
7
100
AcDbLine
 10
69.68025061086666
 20
132.4479934361870
 30
0.000000000000000
 11
69.68025061086666
 21
146.9479934361872
 31
0.000000000000000
  0
LINE
  5
BA
100
AcDbEntity
  8
A1
  6
CONTINUOUS
 62
7
100
AcDbLine
 10
69.68025061086666
 20
152.9479934361872
 30
0.000000000000000
 11
69.68025061086666
 21
167.4479934361870
 31
0.000000000000000
  0
LINE
  5
BB
100
AcDbEntity
  8
A10
  6
CONTINUOUS
 62
3
100
AcDbLine
 10
21.18025061086658
 20
152.9479934362444
 30
0.000000000000000
 11
19.68025061086519
 21
152.9479934362462
 31
0.000000000000000
  0
LINE
  5
BC
100
AcDbEntity
  8
A10
  6
CONTINUOUS
 62
3
100
AcDbLine
 10
21.18025061086658
 20
146.9479934361315
 30
0.000000000000000
 11
19.68025061086519
 21
146.9479934361298
 31
0.000000000000000
  0
ARC
  5
BD
100
AcDbEntity
  8
A10
  6
CONTINUOUS
 62
7
100
AcDbCircle
 10
197.2802266108668
 20
149.9479934361872
 30
0.000000000000000
 40
5.000000000000000
100
AcDbArc
 50
143.1301023541560
 51
216.8698976458440
  0
LINE
  5
BE
100
AcDbEntity
  8
A1
  6
CONTINUOUS
 62
7
100
AcDbLine
 10
193.2802266108666
 20
132.4479934361870
 30
0.000000000000000
 11
193.2802266108666
 21
146.9479934361875
 31
0.000000000000000
  0
LINE
  5
BF
100
AcDbEntity
  8
A1
  6
CONTINUOUS
 62
7
100
AcDbLine
 10
193.2802266108666
 20
152.9479934361869
 30
0.000000000000000
 11
193.2802266108666
 21
167.4479934361870
 31
0.000000000000000
  0
ENDSEC
  0
SECTION
  2
OBJECTS
  0
DICTIONARY
  5
ED
100
AcDbDictionary
  3
ACAD_GROUP
350
EE
  3
ACAD_LAYOUT
350
EF
  3
ACAD_MLINESTYLE
350
F0
  0
DICTIONARY
  5
EE
102
{ACAD_REACTORS
330
ED
102
}
330
ED
100
AcDbDictionary
  0
DICTIONARY
  5
EF
102
{ACAD_REACTORS
330
ED
102
}
330
ED
100
AcDbDictionary
  3
Model
350
F1
  3
ﾚｲｱｳﾄ1
350
F2
  3
ﾚｲｱｳﾄ2
350
F3
  0
DICTIONARY
  5
F0
102
{ACAD_REACTORS
330
ED
102
}
330
ED
100
AcDbDictionary
  3
STANDARD
350
F4
  0
LAYOUT
  5
F1
102
{ACAD_REACTORS
330
EF
102
}
330
EF
100
AcDbPlotSettings
 70
11952
  4
A4
 44
210.000000
 45
297.000000
 73
  0
 72
  1
100
AcDbLayout
  1
Model
 71
0
330
E4
  0
LAYOUT
  5
F2
102
{ACAD_REACTORS
330
EF
102
}
330
EF
100
AcDbPlotSettings
100
AcDbLayout
  1
ﾚｲｱｳﾄ1
 71
1
330
E5
  0
LAYOUT
  5
F3
102
{ACAD_REACTORS
330
EF
102
}
330
EF
100
AcDbPlotSettings
100
AcDbLayout
  1
ﾚｲｱｳﾄ2
 71
2
330
E6
  0
MLINESTYLE
  5
F4
102
{ACAD_REACTORS
330
F0
102
}
330
F0
100
AcDbMlineStyle
  2
STANDARD
 70
     0
  3

 62
   256
 51
90.00
 52
90.00
 71
     2
 49
0.50
 62
   256
  6
BYLAYER
 49
-0.50
 62
   256
  6
BYLAYER
  0
ENDSEC
  0
EOF
