  0
SECTION
  2
HEADER
  9
$ACADVER
  1
AC1027
  9
$DWGCODEPAGE
  3
ANSI_932
  9
$LTSCALE
 40
20.0
  9
$FILLMODE
 70
     1
  9
$CLAYER
  8
0
  9
$PDMODE
 70
     0
  9
$SPLFRAME
 70
     0
  9
$SPLINETYPE
 70
     6
  9
$SPLINESEGS
 70
     8
  9
$DIMASZ
 40
2.000000
  9
$DIMEXE
 40
1.500000
  9
$DIMEXO
 40
0.800000
  9
$DIMTAD
 70
     1
  9
$DIMTIH
 70
     0
  9
$DIMTOH
 70
     0
  9
$DIMTVP
 40
0.500000
  9
$DIMTXT
 40
3.100000
  9
$EXTMIN
 10
0.000000
 20
0.000000
 30
0.000000
  9
$EXTMAX
 10
420.000000
 20
594.000000
 30
0.000000
  9
$MEASUREMENT
 70
  1
  9
$LIMMIN
 10
0.000000
 20
0.000000
  9
$LIMMAX
 10
420.000000
 20
594.000000
  9
$HANDSEED
  5
2AE
  9
$LWDISPLAY
290
     0
  9
$DIMBLK
  1
_OPEN
  9
$DIMDEC
 70
     2
  9
$DIMADEC
 70
     2
  9
$DIMAUNIT
 70
     0
  9
$DIMZIN
 70
     8
  9
$DIMAZIN
 70
     2
  9
$DIMTOFL
 70
     1
  0
ENDSEC
  0
SECTION
  2
CLASSES
  0
ENDSEC
  0
SECTION
  2
TABLES
  0
TABLE
  2
VPORT
  5
273
100
AcDbSymbolTable
 70
     1
  0
VPORT
  5
274
100
AcDbSymbolTableRecord
100
AcDbViewportTableRecord
  2
*ACTIVE
 70
     0
 12
270.877824
 22
172.137265
 40
308.274529
 41
1.692503
  0
ENDTAB
  0
TABLE
  2
LTYPE
  5
275
100
AcDbSymbolTable
 70
     3
  0
LTYPE
  5
276
100
AcDbSymbolTableRecord
100
AcDbLinetypeTableRecord
  2
BYBLOCK
 70
     0
  3

 72
    65
 73
     0
 40
0.0
  0
LTYPE
  5
277
100
AcDbSymbolTableRecord
100
AcDbLinetypeTableRecord
  2
BYLAYER
 70
     0
  3

 72
    65
 73
     0
 40
0.0
  0
LTYPE
  5
278
100
AcDbSymbolTableRecord
100
AcDbLinetypeTableRecord
  2
CONTINUOUS
 70
     0
  3
Solid line (NEC CAE2D for Win R18.0 : 2024.01.23)
 72
    65
 73
     0
 40
0.0
  0
LTYPE
  5
279
100
AcDbSymbolTableRecord
100
AcDbLinetypeTableRecord
  2
CENTER
 70
     0
  3
____ _ ____ _ ____ _ ____ _ ____ _ ____
 72
    65
 73
     4
 40
2.0
 49
1.25
 74
     0
 49
-0.25
 74
     0
 49
0.25
 74
     0
 49
-0.25
 74
     0
  0
LTYPE
  5
27A
100
AcDbSymbolTableRecord
100
AcDbLinetypeTableRecord
  2
PHANTOM
 70
     0
  3
______  __  __  ______  __  __  ______ 
 72
    65
 73
     6
 40
2.5
 49
1.25
 74
     0
 49
-0.25
 74
     0
 49
0.25
 74
     0
 49
-0.25
 74
     0
 49
0.25
 74
     0
 49
-0.25
 74
     0
  0
ENDTAB
  0
TABLE
  2
LAYER
  5
27B
100
AcDbSymbolTable
 70
    20
  0
LAYER
  5
27C
100
AcDbSymbolTableRecord
100
AcDbLayerTableRecord
  2
0
 70
     0
 62
     7
  6
CONTINUOUS
370
    -3
390

  0
LAYER
  5
27D
100
AcDbSymbolTableRecord
100
AcDbLayerTableRecord
  2
A0
 70
     0
 62
     9
  6
CONTINUOUS
370
    -3
390

  0
LAYER
  5
27E
100
AcDbSymbolTableRecord
100
AcDbLayerTableRecord
  2
A1
 70
     0
 62
    12
  6
CONTINUOUS
370
    -3
390

  0
LAYER
  5
27F
100
AcDbSymbolTableRecord
100
AcDbLayerTableRecord
  2
A2
 70
     0
 62
     9
  6
CONTINUOUS
370
    -3
390

  0
LAYER
  5
280
100
AcDbSymbolTableRecord
100
AcDbLayerTableRecord
  2
A4
 70
     0
 62
     9
  6
CONTINUOUS
370
    -3
390

  0
LAYER
  5
281
100
AcDbSymbolTableRecord
100
AcDbLayerTableRecord
  2
A5
 70
     0
 62
     8
  6
CONTINUOUS
370
    -3
390

  0
LAYER
  5
282
100
AcDbSymbolTableRecord
100
AcDbLayerTableRecord
  2
A6
 70
     0
 62
    12
  6
CONTINUOUS
370
    -3
390

  0
LAYER
  5
283
100
AcDbSymbolTableRecord
100
AcDbLayerTableRecord
  2
A7
 70
     0
 62
    12
  6
CONTINUOUS
370
    -3
390

  0
LAYER
  5
284
100
AcDbSymbolTableRecord
100
AcDbLayerTableRecord
  2
A8
 70
     0
 62
    10
  6
CONTINUOUS
370
    -3
390

  0
LAYER
  5
285
100
AcDbSymbolTableRecord
100
AcDbLayerTableRecord
  2
A9
 70
     0
 62
     9
  6
CONTINUOUS
370
    -3
390

  0
LAYER
  5
286
100
AcDbSymbolTableRecord
100
AcDbLayerTableRecord
  2
A10
 70
     0
 62
     6
  6
CONTINUOUS
370
    -3
390

  0
LAYER
  5
287
100
AcDbSymbolTableRecord
100
AcDbLayerTableRecord
  2
A11
 70
     0
 62
    10
  6
CONTINUOUS
370
    -3
390

  0
LAYER
  5
288
100
AcDbSymbolTableRecord
100
AcDbLayerTableRecord
  2
A19
 70
     0
 62
     5
  6
CONTINUOUS
370
    -3
390

  0
LAYER
  5
289
100
AcDbSymbolTableRecord
100
AcDbLayerTableRecord
  2
A20
 70
     0
 62
     1
  6
CONTINUOUS
370
    -3
390

  0
LAYER
  5
28A
100
AcDbSymbolTableRecord
100
AcDbLayerTableRecord
  2
A22
 70
     0
 62
    81
  6
CONTINUOUS
370
    -3
390

  0
LAYER
  5
28B
100
AcDbSymbolTableRecord
100
AcDbLayerTableRecord
  2
A23
 70
     0
 62
   121
  6
CONTINUOUS
370
    -3
390

  0
LAYER
  5
28C
100
AcDbSymbolTableRecord
100
AcDbLayerTableRecord
  2
A30
 70
     0
 62
     1
  6
CONTINUOUS
370
    -3
390

  0
LAYER
  5
28D
100
AcDbSymbolTableRecord
100
AcDbLayerTableRecord
  2
A40
 70
     0
 62
     9
  6
CONTINUOUS
370
    -3
390

  0
LAYER
  5
28E
100
AcDbSymbolTableRecord
100
AcDbLayerTableRecord
  2
A50
 70
     0
 62
    12
  6
CONTINUOUS
370
    -3
390

  0
LAYER
  5
28F
100
AcDbSymbolTableRecord
100
AcDbLayerTableRecord
  2
A1023
 70
     0
 62
    16
  6
CONTINUOUS
370
    -3
390

  0
ENDTAB
  0
TABLE
  2
STYLE
  5
290
100
AcDbSymbolTable
 70
     4
  0
STYLE
  5
291
100
AcDbSymbolTableRecord
100
AcDbTextStyleTableRecord
  2
STANDARD
 70
    64
 40
0.0
 41
1.0
 50
0.0
 71
     0
 42
3.000000000000000
  3
TXT
  4

  0
STYLE
  5
292
100
AcDbSymbolTableRecord
100
AcDbTextStyleTableRecord
  2
ANKTATE
 70
    68
 40
0.0
 41
1.0
 50
0.0
 71
     0
 42
3.000000000000000
  3
TXT
  4

  0
STYLE
  5
293
100
AcDbSymbolTableRecord
100
AcDbTextStyleTableRecord
  2
KNJYOKO
 70
    64
 40
0.0
 41
1.0
 50
0.0
 71
     0
 42
3.000000000000000
  3
TXT
  4
BIGFONT
  0
STYLE
  5
294
100
AcDbSymbolTableRecord
100
AcDbTextStyleTableRecord
  2
KNJTATE
 70
    68
 40
0.0
 41
1.0
 50
0.0
 71
     0
 42
3.000000000000000
  3
TXT
  4
BIGFONT
  0
ENDTAB
  0
TABLE
  2
VIEW
  5
295
100
AcDbSymbolTable
 70
     0
  0
ENDTAB
  0
TABLE
  2
UCS
  5
296
100
AcDbSymbolTable
 70
     0
  0
ENDTAB
  0
TABLE
  2
APPID
  5
297
100
AcDbSymbolTable
 70
     1
  0
APPID
  5
298
100
AcDbSymbolTableRecord
100
AcDbRegAppTableRecord
  2
ACAD
 70
     0
  0
ENDTAB
  0
TABLE
  2
DIMSTYLE
  5
299
100
AcDbSymbolTable
 70
     2
100
AcDbDimStyleTable
  0
DIMSTYLE
105
29A
100
AcDbSymbolTableRecord
100
AcDbDimStyleTableRecord
  2
STANDARD
 70
     0
 41
2.000000
 44
1.500000
 42
0.800000
145
0.661290
140
3.100000
144
1.000000
146
0.645161
340
291
  0
DIMSTYLE
105
29B
100
AcDbSymbolTableRecord
100
AcDbDimStyleTableRecord
  2
A001
 70
     0
 41
2.000000
 44
1.500000
 42
0.800000
145
0.661290
140
3.100000
144
1.000000
146
0.645161
 77
     1
 73
     0
 74
     0
271
     2
179
     2
275
     0
 78
     8
 79
     2
172
     1
340
291
  0
ENDTAB
  0
TABLE
  2
BLOCK_RECORD
  5
29C
100
AcDbSymbolTable
 70
    12
  0
BLOCK_RECORD
  5
29D
100
AcDbSymbolTableRecord
100
AcDbBlockTableRecord
  2
*MODEL_SPACE
  0
BLOCK_RECORD
  5
29E
100
AcDbSymbolTableRecord
100
AcDbBlockTableRecord
  2
*PAPER_SPACE
  0
BLOCK_RECORD
  5
29F
100
AcDbSymbolTableRecord
100
AcDbBlockTableRecord
  2
*PAPER_SPACE0
  0
BLOCK_RECORD
  5
1
100
AcDbSymbolTableRecord
100
AcDbBlockTableRecord
  2
_NONE
  0
BLOCK_RECORD
  5
4
100
AcDbSymbolTableRecord
100
AcDbBlockTableRecord
  2
_CLOSED
  0
BLOCK_RECORD
  5
B
100
AcDbSymbolTableRecord
100
AcDbBlockTableRecord
  2
_DOT
  0
BLOCK_RECORD
  5
13
100
AcDbSymbolTableRecord
100
AcDbBlockTableRecord
  2
_OPEN
  0
BLOCK_RECORD
  5
19
100
AcDbSymbolTableRecord
100
AcDbBlockTableRecord
  2
_ORIGIN
  0
BLOCK_RECORD
  5
1E
100
AcDbSymbolTableRecord
100
AcDbBlockTableRecord
  2
_OPEN30
  0
BLOCK_RECORD
  5
24
100
AcDbSymbolTableRecord
100
AcDbBlockTableRecord
  2
_BOXFILLED
  0
BLOCK_RECORD
  5
29
100
AcDbSymbolTableRecord
100
AcDbBlockTableRecord
  2
_BOXBLANK
  0
BLOCK_RECORD
  5
31
100
AcDbSymbolTableRecord
100
AcDbBlockTableRecord
  2
_OBLIQUE
  0
BLOCK_RECORD
  5
35
100
AcDbSymbolTableRecord
100
AcDbBlockTableRecord
  2
_OPEN90
  0
BLOCK_RECORD
  5
3B
100
AcDbSymbolTableRecord
100
AcDbBlockTableRecord
  2
_CLOSEDBLANK
  0
BLOCK_RECORD
  5
41
100
AcDbSymbolTableRecord
100
AcDbBlockTableRecord
  2
_DOTBLANK
  0
ENDTAB
  0
ENDSEC
  0
SECTION
  2
BLOCKS
  0
BLOCK
  5
2A0
100
AcDbEntity
  8
0
100
AcDbBlockBegin
  2
*MODEL_SPACE
 70
     0
 10
0.0
 20
0.0
 30
0.0
  3
*MODEL_SPACE
  1

  0
ENDBLK
  5
2A1
100
AcDbEntity
  8
0
100
AcDbBlockEnd
  0
BLOCK
  5
2A2
100
AcDbEntity
  8
0
100
AcDbBlockBegin
  2
*PAPER_SPACE
 70
     0
 10
0.0
 20
0.0
 30
0.0
  3
*PAPER_SPACE
  1

  0
ENDBLK
  5
2A3
100
AcDbEntity
  8
0
100
AcDbBlockEnd
  0
BLOCK
  5
2A4
100
AcDbEntity
  8
0
100
AcDbBlockBegin
  2
*PAPER_SPACE0
 70
     0
 10
0.0
 20
0.0
 30
0.0
  3
*PAPER_SPACE0
  1

  0
ENDBLK
  5
2A5
100
AcDbEntity
  8
0
100
AcDbBlockEnd
  0
BLOCK
  5
2
330
1
100
AcDbEntity
  8
0
100
AcDbBlockBegin
  2
_NONE
 70
     0
 10
0.0
 20
0.0
 30
0.0
  3
_NONE
  1

  0
ENDBLK
  5
3
330
1
100
AcDbEntity
  8
0
100
AcDbBlockEnd
  0
BLOCK
  5
5
330
4
100
AcDbEntity
  8
0
100
AcDbBlockBegin
  2
_CLOSED
 70
     0
 10
0.0
 20
0.0
 30
0.0
  3
_CLOSED
  1

  0
LINE
  5
6
330
4
100
AcDbEntity
  8
0
  6
BYBLOCK
 62
     0
370
    -2
100
AcDbLine
 10
-1.0
 20
0.166667
 30
0.0
 11
0.0
 21
0.0
 31
0.0
  0
LINE
  5
7
330
4
100
AcDbEntity
  8
0
  6
BYBLOCK
 62
     0
370
    -2
100
AcDbLine
 10
0.0
 20
0.0
 30
0.0
 11
-1.0
 21
-0.166667
 31
0.0
  0
LINE
  5
8
330
4
100
AcDbEntity
  8
0
  6
BYBLOCK
 62
     0
370
    -2
100
AcDbLine
 10
-1.0
 20
0.166667
 30
0.0
 11
-1.0
 21
-0.166667
 31
0.0
  0
LINE
  5
9
330
4
100
AcDbEntity
  8
0
  6
BYBLOCK
 62
     0
370
    -2
100
AcDbLine
 10
0.0
 20
0.0
 30
0.0
 11
-1.0
 21
0.0
 31
0.0
  0
ENDBLK
  5
A
330
4
100
AcDbEntity
  8
0
100
AcDbBlockEnd
  0
BLOCK
  5
C
330
B
100
AcDbEntity
  8
0
100
AcDbBlockBegin
  2
_DOT
 70
     0
 10
0.0
 20
0.0
 30
0.0
  3
_DOT
  1

  0
POLYLINE
  5
D
330
B
100
AcDbEntity
  8
0
  6
BYBLOCK
 62
     0
370
    -2
100
AcDb2dPolyline
 66
     1
 10
0.0
 20
0.0
 30
0.0
 70
     1
 40
0.5
 41
0.5
  0
VERTEX
  5
E
330
B
100
AcDbEntity
  8
0
  6
BYBLOCK
 62
     0
370
    -2
100
AcDbVertex
100
AcDb2dVertex
 10
-0.25
 20
0.0
 30
0.0
 42
1.0
  0
VERTEX
  5
F
330
B
100
AcDbEntity
  8
0
  6
BYBLOCK
 62
     0
370
    -2
100
AcDbVertex
100
AcDb2dVertex
 10
0.25
 20
0.0
 30
0.0
 42
1.0
  0
SEQEND
  5
10
330
B
100
AcDbEntity
  8
0
  6
BYBLOCK
 62
     0
370
    -2
  0
LINE
  5
11
330
B
100
AcDbEntity
  8
0
  6
BYBLOCK
 62
     0
370
    -2
100
AcDbLine
 10
-0.5
 20
0.0
 30
0.0
 11
-1.0
 21
0.0
 31
0.0
  0
ENDBLK
  5
12
330
B
100
AcDbEntity
  8
0
100
AcDbBlockEnd
  0
BLOCK
  5
14
330
13
100
AcDbEntity
  8
0
100
AcDbBlockBegin
  2
_OPEN
 70
     0
 10
0.0
 20
0.0
 30
0.0
  3
_OPEN
  1

  0
LINE
  5
15
330
13
100
AcDbEntity
  8
0
  6
BYBLOCK
 62
     0
370
    -2
100
AcDbLine
 10
-1.0
 20
0.166667
 30
0.0
 11
0.0
 21
0.0
 31
0.0
  0
LINE
  5
16
330
13
100
AcDbEntity
  8
0
  6
BYBLOCK
 62
     0
370
    -2
100
AcDbLine
 10
0.0
 20
0.0
 30
0.0
 11
-1.0
 21
-0.166667
 31
0.0
  0
LINE
  5
17
330
13
100
AcDbEntity
  8
0
  6
BYBLOCK
 62
     0
370
    -2
100
AcDbLine
 10
0.0
 20
0.0
 30
0.0
 11
-1.0
 21
0.0
 31
0.0
  0
ENDBLK
  5
18
330
13
100
AcDbEntity
  8
0
100
AcDbBlockEnd
  0
BLOCK
  5
1A
330
19
100
AcDbEntity
  8
0
100
AcDbBlockBegin
  2
_ORIGIN
 70
     0
 10
0.0
 20
0.0
 30
0.0
  3
_ORIGIN
  1

  0
CIRCLE
  5
1B
330
19
100
AcDbEntity
  8
0
  6
BYBLOCK
 62
     0
370
    -2
100
AcDbCircle
 10
0.0
 20
0.0
 30
0.0
 40
0.5
  0
LINE
  5
1C
330
19
100
AcDbEntity
  8
0
  6
BYBLOCK
 62
     0
370
    -2
100
AcDbLine
 10
0.0
 20
0.0
 30
0.0
 11
-1.0
 21
0.0
 31
0.0
  0
ENDBLK
  5
1D
330
19
100
AcDbEntity
  8
0
100
AcDbBlockEnd
  0
BLOCK
  5
1F
330
1E
100
AcDbEntity
  8
0
100
AcDbBlockBegin
  2
_OPEN30
 70
     0
 10
0.0
 20
0.0
 30
0.0
  3
_OPEN30
  1

  0
LINE
  5
20
330
1E
100
AcDbEntity
  8
0
  6
BYBLOCK
 62
     0
370
    -2
100
AcDbLine
 10
-1.0
 20
0.267949
 30
0.0
 11
0.0
 21
0.0
 31
0.0
  0
LINE
  5
21
330
1E
100
AcDbEntity
  8
0
  6
BYBLOCK
 62
     0
370
    -2
100
AcDbLine
 10
0.0
 20
0.0
 30
0.0
 11
-1.0
 21
-0.267949
 31
0.0
  0
LINE
  5
22
330
1E
100
AcDbEntity
  8
0
  6
BYBLOCK
 62
     0
370
    -2
100
AcDbLine
 10
0.0
 20
0.0
 30
0.0
 11
-1.0
 21
0.0
 31
0.0
  0
ENDBLK
  5
23
330
1E
100
AcDbEntity
  8
0
100
AcDbBlockEnd
  0
BLOCK
  5
25
330
24
100
AcDbEntity
  8
0
100
AcDbBlockBegin
  2
_BOXFILLED
 70
     0
 10
0.0
 20
0.0
 30
0.0
  3
_BOXFILLED
  1

  0
SOLID
  5
26
330
24
100
AcDbEntity
  8
0
  6
BYBLOCK
 62
     0
370
    -2
100
AcDbTrace
 10
-0.5
 20
0.5
 30
0.0
 11
0.5
 21
0.5
 31
0.0
 12
-0.5
 22
-0.5
 32
0.0
 13
0.5
 23
-0.5
 33
0.0
  0
LINE
  5
27
330
24
100
AcDbEntity
  8
0
  6
BYBLOCK
 62
     0
370
    -2
100
AcDbLine
 10
-0.5
 20
0.0
 30
0.0
 11
-1.0
 21
0.0
 31
0.0
  0
ENDBLK
  5
28
330
24
100
AcDbEntity
  8
0
100
AcDbBlockEnd
  0
BLOCK
  5
2A
330
29
100
AcDbEntity
  8
0
100
AcDbBlockBegin
  2
_BOXBLANK
 70
     0
 10
0.0
 20
0.0
 30
0.0
  3
_BOXBLANK
  1

  0
LINE
  5
2B
330
29
100
AcDbEntity
  8
0
  6
BYBLOCK
 62
     0
370
    -2
100
AcDbLine
 10
-0.5
 20
-0.5
 30
0.0
 11
0.5
 21
-0.5
 31
0.0
  0
LINE
  5
2C
330
29
100
AcDbEntity
  8
0
  6
BYBLOCK
 62
     0
370
    -2
100
AcDbLine
 10
0.5
 20
-0.5
 30
0.0
 11
0.5
 21
0.5
 31
0.0
  0
LINE
  5
2D
330
29
100
AcDbEntity
  8
0
  6
BYBLOCK
 62
     0
370
    -2
100
AcDbLine
 10
0.5
 20
0.5
 30
0.0
 11
-0.5
 21
0.5
 31
0.0
  0
LINE
  5
2E
330
29
100
AcDbEntity
  8
0
  6
BYBLOCK
 62
     0
370
    -2
100
AcDbLine
 10
-0.5
 20
0.5
 30
0.0
 11
-0.5
 21
-0.5
 31
0.0
  0
LINE
  5
2F
330
29
100
AcDbEntity
  8
0
  6
BYBLOCK
 62
     0
370
    -2
100
AcDbLine
 10
-0.5
 20
0.0
 30
0.0
 11
-1.0
 21
0.0
 31
0.0
  0
ENDBLK
  5
30
330
29
100
AcDbEntity
  8
0
100
AcDbBlockEnd
  0
BLOCK
  5
32
330
31
100
AcDbEntity
  8
0
100
AcDbBlockBegin
  2
_OBLIQUE
 70
     0
 10
0.0
 20
0.0
 30
0.0
  3
_OBLIQUE
  1

  0
LINE
  5
33
330
31
100
AcDbEntity
  8
0
  6
BYBLOCK
 62
     0
370
    -2
100
AcDbLine
 10
-0.5
 20
-0.5
 30
0.0
 11
0.5
 21
0.5
 31
0.0
  0
ENDBLK
  5
34
330
31
100
AcDbEntity
  8
0
100
AcDbBlockEnd
  0
BLOCK
  5
36
330
35
100
AcDbEntity
  8
0
100
AcDbBlockBegin
  2
_OPEN90
 70
     0
 10
0.0
 20
0.0
 30
0.0
  3
_OPEN90
  1

  0
LINE
  5
37
330
35
100
AcDbEntity
  8
0
  6
BYBLOCK
 62
     0
370
    -2
100
AcDbLine
 10
-0.5
 20
0.5
 30
0.0
 11
0.0
 21
0.0
 31
0.0
  0
LINE
  5
38
330
35
100
AcDbEntity
  8
0
  6
BYBLOCK
 62
     0
370
    -2
100
AcDbLine
 10
0.0
 20
0.0
 30
0.0
 11
-0.5
 21
-0.5
 31
0.0
  0
LINE
  5
39
330
35
100
AcDbEntity
  8
0
  6
BYBLOCK
 62
     0
370
    -2
100
AcDbLine
 10
0.0
 20
0.0
 30
0.0
 11
-1.0
 21
0.0
 31
0.0
  0
ENDBLK
  5
3A
330
35
100
AcDbEntity
  8
0
100
AcDbBlockEnd
  0
BLOCK
  5
3C
330
3B
100
AcDbEntity
  8
0
100
AcDbBlockBegin
  2
_CLOSEDBLANK
 70
     0
 10
0.0
 20
0.0
 30
0.0
  3
_CLOSEDBLANK
  1

  0
LINE
  5
3D
330
3B
100
AcDbEntity
  8
0
  6
BYBLOCK
 62
     0
370
    -2
100
AcDbLine
 10
-1.0
 20
0.1666666666666666
 30
0.0
 11
0.0
 21
0.0
 31
0.0
  0
LINE
  5
3E
330
3B
100
AcDbEntity
  8
0
  6
BYBLOCK
 62
     0
370
    -2
100
AcDbLine
 10
0.0
 20
0.0
 30
0.0
 11
-1.0
 21
-0.1666666666666666
 31
0.0
  0
LINE
  5
3F
330
3B
100
AcDbEntity
  8
0
  6
BYBLOCK
 62
     0
370
    -2
100
AcDbLine
 10
-1.0
 20
0.1666666666666666
 30
0.0
 11
-1.0
 21
-0.1666666666666666
 31
0.0
  0
ENDBLK
  5
40
330
3B
100
AcDbEntity
  8
0
100
AcDbBlockEnd
  0
BLOCK
  5
42
330
41
100
AcDbEntity
  8
0
100
AcDbBlockBegin
  2
_DOTBLANK
 70
     0
 10
0.0
 20
0.0
 30
0.0
  3
_DOTBLANK
  1

  0
CIRCLE
  5
43
330
41
100
AcDbEntity
  8
0
  6
BYBLOCK
 62
     0
370
    -2
100
AcDbCircle
 10
0.0
 20
0.0
 30
0.0
 40
0.5
  0
LINE
  5
44
330
41
100
AcDbEntity
  8
0
  6
BYBLOCK
 62
     0
370
    -2
100
AcDbLine
 10
-0.5
 20
0.0
 30
0.0
 11
-1.0
 21
0.0
 31
0.0
  0
ENDBLK
  5
45
330
41
100
AcDbEntity
  8
0
100
AcDbBlockEnd
  0
ENDSEC
  0
SECTION
  2
ENTITIES
  0
MTEXT
  5
46
100
AcDbEntity
  8
A8
  6
CONTINUOUS
 62
3
100
AcDbMText
 10
9.999997526638502
 20
18.00000076076889
 30
0.000000000000000
 40
3.000000000000000
 41
0.000000000000000
 44
0.6739999771118164
 71
     7
 72
     1
  1
{\H0.94x;{TYPE No.TL-443-R-002}}
 11
1.000000000000000
 21
0.000000000000000
 31
0.000000000000000
  7
STANDARD
  0
POINT
  5
47
100
AcDbEntity
  8
A0
  6
CONTINUOUS
 62
3
100
AcDbPoint
 10
9.999997526638502
 20
18.00000076076889
 30
0.000000000000000
  0
POINT
  5
48
100
AcDbEntity
  8
A10
  6
CONTINUOUS
 62
3
100
AcDbPoint
 10
50.00000000000000
 20
50.00000000000000
 30
0.000000000000000
  0
ARC
  5
49
100
AcDbEntity
  8
A1
  6
CONTINUOUS
 62
7
100
AcDbCircle
 10
80.64292953046146
 20
251.5981624149848
 30
0.000000000000000
 40
6.800000000000000
100
AcDbArc
 50
298.3176211170079
 51
540.0000000000000
  0
LINE
  5
4A
100
AcDbEntity
  8
A1
  6
CONTINUOUS
 62
7
100
AcDbLine
 10
82.14577376261676
 20
244.8434092612220
 30
0.000000000000000
 11
81.62541924356412
 21
234.6200945151392
 31
0.000000000000000
  0
ARC
  5
4B
100
AcDbEntity
  8
A1
  6
CONTINUOUS
 62
7
100
AcDbCircle
 10
80.64292953046146
 20
251.5981624149848
 30
0.000000000000000
 40
5.600000000000000
100
AcDbArc
 50
298.3176211170076
 51
540.0000000000000
  0
ARC
  5
4C
100
AcDbEntity
  8
A1
  6
CONTINUOUS
 62
7
100
AcDbCircle
 10
84.34292953046145
 20
244.7315766549436
 30
0.000000000000000
 40
1.000000000000000
100
AcDbArc
 50
118.3176211170051
 51
177.0862276947699
  0
ARC
  5
4D
100
AcDbEntity
  8
A1
  6
CONTINUOUS
 62
7
100
AcDbCircle
 10
84.34292953046145
 20
244.7315766549436
 30
0.000000000000000
 40
2.200000000000000
100
AcDbArc
 50
118.3176211170073
 51
177.0862276947697
  0
LINE
  5
4E
100
AcDbEntity
  8
A1
  6
CONTINUOUS
 62
7
100
AcDbLine
 10
81.47994678349991
 20
216.6794212435875
 30
0.000000000000000
 11
87.44292953046462
 21
205.0198210439121
 31
0.000000000000000
  0
LINE
  5
4F
100
AcDbEntity
  8
A1
  6
CONTINUOUS
 62
7
100
AcDbLine
 10
80.41156004850149
 20
216.1330241494524
 30
0.000000000000000
 11
86.37454279546620
 21
204.4734239497769
 31
0.000000000000000
  0
LINE
  5
50
100
AcDbEntity
  8
A1
  6
CONTINUOUS
 62
7
100
AcDbLine
 10
87.44292953046464
 20
205.0198210439121
 30
0.000000000000000
 11
86.37454279546624
 21
204.4734239497769
 31
0.000000000000000
  0
SPLINE
  5
51
100
AcDbEntity
  8
A1
  6
CONTINUOUS
 62
7
100
AcDbSpline
210
0.000000000000000
220
0.000000000000000
230
1.000000000000000
 70
     8
 71
     3
 72
    21
 73
    17
 74
     0
 42
1.000000000000000e-07
 43
1.000000000000000e-07
 12
-0.09858054263622762
 22
0.9951290753524518
 32
0.000000000000000
 13
0.9790205427516412
 23
-0.2037615686808749
 33
0.000000000000000
 40
0.000000000000000
 40
0.000000000000000
 40
0.000000000000000
 40
0.000000000000000
 40
0.08134187504662750
 40
0.1731059712403568
 40
0.2890240849853128
 40
0.4372001395532708
 40
0.6198757394012260
 40
0.8359188269757094
 40
1.077519865985217
 40
1.348582275348747
 40
1.644401870518067
 40
1.955550037612963
 40
2.285343618023557
 40
2.628102654282066
 40
2.930167214960705
 40
3.237512163279434
 40
3.237512163279434
 40
3.237512163279434
 40
3.237512163279434
 10
206.4712785792361
 20
248.0324446069369
 30
0.000000000000000
 10
206.4686056705090
 20
248.0594264952378
 30
0.000000000000000
 10
206.4731119493135
 20
248.1196012252933
 30
0.000000000000000
 10
206.5319428011572
 20
248.2002503922030
 30
0.000000000000000
 10
206.6283483427260
 20
248.2706442451652
 30
0.000000000000000
 10
206.7644572201769
 20
248.3329661114905
 30
0.000000000000000
 10
206.9388564302824
 20
248.3870116879241
 30
0.000000000000000
 10
207.1481073220101
 20
248.4304991018489
 30
0.000000000000000
 10
207.3891665776216
 20
248.4617338530626
 30
0.000000000000000
 10
207.6581692358289
 20
248.4801945485697
 30
0.000000000000000
 10
207.9509411628472
 20
248.4847071392626
 30
0.000000000000000
 10
208.2631249005628
 20
248.4740634410217
 30
0.000000000000000
 10
208.5901371566380
 20
248.4487072665933
 30
0.000000000000000
 10
208.9128260478314
 20
248.4102935998044
 30
0.000000000000000
 10
209.2264052259613
 20
248.3609108108965
 30
0.000000000000000
 10
209.4259893147951
 20
248.3228570959184
 30
0.000000000000000
 10
209.5262883208335
 20
248.3019820663199
 30
0.000000000000000
  0
SPLINE
  5
52
100
AcDbEntity
  8
A1
  6
CONTINUOUS
 62
7
100
AcDbSpline
210
0.000000000000000
220
0.000000000000000
230
1.000000000000000
 70
     8
 71
     3
 72
    13
 73
     9
 74
     0
 42
1.000000000000000e-07
 43
1.000000000000000e-07
 12
0.3991144153098958
 22
0.9169011307058099
 32
0.000000000000000
 13
0.7730306898522485
 23
0.6343686251293548
 33
0.000000000000000
 40
0.000000000000000
 40
0.000000000000000
 40
0.000000000000000
 40
0.000000000000000
 40
0.3154904748712180
 40
0.6328745677494811
 40
0.9490760097717084
 40
1.265273742438776
 40
1.589627480919971
 40
1.913976787342362
 40
1.913976787342362
 40
1.913976787342362
 40
1.913976787342362
 10
212.1953778670957
 20
215.0126266757634
 30
0.000000000000000
 10
212.2373501325671
 20
215.1090512001422
 30
0.000000000000000
 10
212.3290207869549
 20
215.2993231577219
 30
0.000000000000000
 10
212.4880881809086
 20
215.5731371644599
 30
0.000000000000000
 10
212.6681705491859
 20
215.8339189345145
 30
0.000000000000000
 10
212.8694736883606
 20
216.0816991073273
 30
0.000000000000000
 10
213.0917990831105
 20
216.3145889573801
 30
0.000000000000000
 10
213.2535050274649
 20
216.4585643801889
 30
0.000000000000000
 10
213.3370823501639
 20
216.5271500547145
 30
0.000000000000000
  0
SPLINE
  5
53
100
AcDbEntity
  8
A1
  6
CONTINUOUS
 62
7
100
AcDbSpline
210
0.000000000000000
220
0.000000000000000
230
1.000000000000000
 70
     8
 71
     3
 72
    12
 73
     8
 74
     0
 42
1.000000000000000e-07
 43
1.000000000000000e-07
 12
-0.3978379254899664
 22
-0.9174557128499146
 32
0.000000000000000
 13
-0.05740678035454039
 23
-0.9983508709710804
 33
0.000000000000000
 40
0.000000000000000
 40
0.000000000000000
 40
0.000000000000000
 40
0.000000000000000
 40
0.3326575956942814
 40
0.6681388689883675
 40
0.9811490224800929
 40
1.280138307047628
 40
1.373250948403831
 40
1.373250948403831
 40
1.373250948403831
 40
1.373250948403831
 10
212.1953778670957
 20
215.0126266757634
 30
0.000000000000000
 10
212.1512632645059
 20
214.9108938052325
 30
0.000000000000000
 10
212.0717597497242
 20
214.7024601082795
 30
0.000000000000000
 10
211.9839119682925
 20
214.3869789325755
 30
0.000000000000000
 10
211.9249075756122
 20
214.0763881053297
 30
0.000000000000000
 10
211.8984258899569
 20
213.8426312856116
 30
0.000000000000000
 10
211.8894988803487
 20
213.7122301073031
 30
0.000000000000000
 10
211.8877171146985
 20
213.6812437451043
 30
0.000000000000000
  0
SPLINE
  5
54
100
AcDbEntity
  8
A1
  6
CONTINUOUS
 62
7
100
AcDbSpline
210
0.000000000000000
220
0.000000000000000
230
1.000000000000000
 70
     8
 71
     3
 72
     9
 73
     5
 74
     0
 42
1.000000000000000e-07
 43
1.000000000000000e-07
 12
-0.05659686271644659
 22
-0.9983971129419160
 32
0.000000000000000
 13
0.1521070507055811
 23
-0.9883640246009691
 33
0.000000000000000
 40
0.000000000000000
 40
0.000000000000000
 40
0.000000000000000
 40
0.000000000000000
 40
0.6480640599851742
 40
1.297573210167191
 40
1.297573210167191
 40
1.297573210167191
 40
1.297573210167191
 10
211.8877171146985
 20
213.6812437451043
 30
0.000000000000000
 10
211.8754909838203
 20
213.4655686496074
 30
0.000000000000000
 10
211.8734047104653
 20
213.0321576354065
 30
0.000000000000000
 10
211.9170072259403
 20
212.6009351486152
 30
0.000000000000000
 10
211.9499388663538
 20
212.3869513227188
 30
0.000000000000000
  0
SPLINE
  5
55
100
AcDbEntity
  8
A1
  6
CONTINUOUS
 62
7
100
AcDbSpline
210
0.000000000000000
220
0.000000000000000
230
1.000000000000000
 70
     8
 71
     3
 72
    15
 73
    11
 74
     0
 42
1.000000000000000e-07
 43
1.000000000000000e-07
 12
-0.1498370130357216
 22
0.9887107107360862
 32
0.000000000000000
 13
0.9352006169265223
 23
0.3541183504121364
 33
0.000000000000000
 40
0.000000000000000
 40
0.000000000000000
 40
0.000000000000000
 40
0.000000000000000
 40
0.3515403625610908
 40
0.7030678188235133
 40
1.054793190029666
 40
1.406483099690128
 40
1.754179280374890
 40
2.101833669280690
 40
2.437296768145645
 40
2.772733031747653
 40
2.772733031747653
 40
2.772733031747653
 40
2.772733031747653
 10
214.3335591726874
 20
210.0438300414875
 30
0.000000000000000
 10
214.3160012533915
 20
210.1596872820609
 30
0.000000000000000
 10
214.2998524156653
 20
210.3947359176444
 30
0.000000000000000
 10
214.3344445994165
 20
210.7462713593793
 30
0.000000000000000
 10
214.4286957013407
 20
211.0868090002018
 30
0.000000000000000
 10
214.5778192522972
 20
211.4057742276917
 30
0.000000000000000
 10
214.7794841644537
 20
211.6927263862473
 30
0.000000000000000
 10
215.0228330540868
 20
211.9377746411388
 30
0.000000000000000
 10
215.3016419004816
 20
212.1343165056791
 30
0.000000000000000
 10
215.5046449594599
 20
212.2310262883971
 30
0.000000000000000
 10
215.6092116930133
 20
212.2706210005089
 30
0.000000000000000
  0
SPLINE
  5
56
100
AcDbEntity
  8
A1
  6
CONTINUOUS
 62
7
100
AcDbSpline
210
0.000000000000000
220
0.000000000000000
230
1.000000000000000
 70
     8
 71
     3
 72
    23
 73
    19
 74
     0
 42
1.000000000000000e-07
 43
1.000000000000000e-07
 12
-0.9357307583707097
 22
-0.3527151086050253
 32
0.000000000000000
 13
0.1515709026775767
 23
-0.9884463877533562
 33
0.000000000000000
 40
0.000000000000000
 40
0.000000000000000
 40
0.000000000000000
 40
0.000000000000000
 40
0.3295619766893667
 40
0.6591270962650235
 40
0.9983964339692053
 40
1.337669791992448
 40
1.667179426967875
 40
1.996693228387137
 40
2.335503333470164
 40
2.674318197464538
 40
3.008851002781707
 40
3.343387942344111
 40
3.687208374752585
 40
4.031032533059968
 40
4.403721720152232
 40
4.776414273788101
 40
5.161651519285352
 40
5.546889710050777
 40
5.546889710050777
 40
5.546889710050777
 40
5.546889710050777
 10
214.9044243029797
 20
214.1922300133527
 30
0.000000000000000
 10
214.8016305435204
 20
214.1534828505527
 30
0.000000000000000
 10
214.5991684370917
 20
214.0673770381712
 30
0.000000000000000
 10
214.3045698646232
 20
213.9117659653250
 30
0.000000000000000
 10
214.0215244462239
 20
213.7298673171855
 30
0.000000000000000
 10
213.7550192397029
 20
213.5245423057067
 30
0.000000000000000
 10
213.5092126425329
 20
213.2996792157501
 30
0.000000000000000
 10
213.2827410670813
 20
213.0555709224550
 30
0.000000000000000
 10
213.0754825637035
 20
212.7909707076302
 30
0.000000000000000
 10
212.8900307161525
 20
212.5086563886192
 30
0.000000000000000
 10
212.7293339132802
 20
212.2131918677101
 30
0.000000000000000
 10
212.5924763158588
 20
211.9041368643168
 30
0.000000000000000
 10
212.4806122132852
 20
211.5818757031542
 30
0.000000000000000
 10
212.3925660301489
 20
211.2391616717728
 30
0.000000000000000
 10
212.3329054152983
 20
210.8805309095063
 30
0.000000000000000
 10
212.3042419674475
 20
210.5042481884180
 30
0.000000000000000
 10
212.3099399479196
 20
210.1227157811434
 30
0.000000000000000
 10
212.3373077098897
 20
209.8669296045701
 30
0.000000000000000
 10
212.3567713433298
 20
209.7400005052079
 30
0.000000000000000
  0
SPLINE
  5
57
100
AcDbEntity
  8
A1
  6
CONTINUOUS
 62
7
100
AcDbSpline
210
0.000000000000000
220
0.000000000000000
230
1.000000000000000
 70
     8
 71
     3
 72
    21
 73
    17
 74
     0
 42
1.000000000000000e-07
 43
1.000000000000000e-07
 12
-0.9719401010024740
 22
0.2352284848041108
 32
0.000000000000000
 13
0.1416876395633153
 23
-0.9899114166400977
 33
0.000000000000000
 40
0.000000000000000
 40
0.000000000000000
 40
0.000000000000000
 40
0.000000000000000
 40
0.3770237937154394
 40
0.7454408160355578
 40
1.098809026518425
 40
1.434679110688691
 40
1.748832481557478
 40
2.034969796597232
 40
2.277499683432588
 40
2.491070274330206
 40
2.672852985100978
 40
2.821528474084961
 40
2.941065388672842
 40
3.035208392003075
 40
3.094990136456450
 40
3.152908310218826
 40
3.152908310218826
 40
3.152908310218826
 40
3.152908310218826
 10
209.7622509690320
 20
246.1429785962800
 30
0.000000000000000
 10
209.6401027876506
 20
246.1725408415236
 30
0.000000000000000
 10
209.3972984112034
 20
246.2257632226442
 30
0.000000000000000
 10
209.0364611950682
 20
246.2892059902749
 30
0.000000000000000
 10
208.6867633539314
 20
246.3349817998124
 30
0.000000000000000
 10
208.3532649271201
 20
246.3621407208829
 30
0.000000000000000
 10
208.0412262327637
 20
246.3718561841010
 30
0.000000000000000
 10
207.7601930242028
 20
246.3651867993222
 30
0.000000000000000
 10
207.5135536782423
 20
246.3434935434825
 30
0.000000000000000
 10
207.3033806371146
 20
246.3099295340673
 30
0.000000000000000
 10
207.1271726308779
 20
246.2658449279919
 30
0.000000000000000
 10
206.9865757573973
 20
246.2121252930355
 30
0.000000000000000
 10
206.8818064940288
 20
246.1506972597487
 30
0.000000000000000
 10
206.8161966593620
 20
246.0847175613245
 30
0.000000000000000
 10
206.7877179123222
 20
246.0184236081940
 30
0.000000000000000
 10
206.7872196136729
 20
245.9781694876197
 30
0.000000000000000
 10
206.7899550434490
 20
245.9590582004736
 30
0.000000000000000
  0
SPLINE
  5
58
100
AcDbEntity
  8
A1
  6
CONTINUOUS
 62
7
100
AcDbSpline
210
0.000000000000000
220
0.000000000000000
230
1.000000000000000
 70
     8
 71
     3
 72
    24
 73
    20
 74
     0
 42
1.000000000000000e-07
 43
1.000000000000000e-07
 12
-0.3802160583204568
 22
0.9248976965027396
 32
0.000000000000000
 13
-0.9720593267868480
 23
0.2347353088198361
 33
0.000000000000000
 40
0.000000000000000
 40
0.000000000000000
 40
0.000000000000000
 40
0.000000000000000
 40
0.9965371271563505
 40
1.994844928735737
 40
2.994111029633749
 40
3.993536093732885
 40
5.200321329633569
 40
6.413965577893726
 40
7.632768369619987
 40
8.855016710094214
 40
10.07906749880277
 40
11.30342972141473
 40
12.49481252938067
 40
13.69525622024258
 40
14.90250178262609
 40
16.11428710250248
 40
17.32843640441007
 40
18.54294956294972
 40
19.15015686915572
 40
19.15015686915572
 40
19.15015686915572
 40
19.15015686915572
 10
223.7751523862737
 20
234.1406950747150
 30
0.000000000000000
 10
223.6488525801212
 20
234.4479267058437
 30
0.000000000000000
 10
223.3808727107732
 20
235.0568326766092
 30
0.000000000000000
 10
222.9340787912832
 20
235.9497047494698
 30
0.000000000000000
 10
222.4434566820132
 20
236.8203985142423
 30
0.000000000000000
 10
221.8735575090902
 20
237.7247194452207
 30
0.000000000000000
 10
221.2128189942932
 20
238.6545338913445
 30
0.000000000000000
 10
220.4515142742375
 20
239.5998950526071
 30
0.000000000000000
 10
219.6319427062489
 20
240.5021898799723
 30
0.000000000000000
 10
218.7577693710094
 20
241.3566722131126
 30
0.000000000000000
 10
217.8326981402321
 20
242.1586203324069
 30
0.000000000000000
 10
216.8689325705577
 20
242.8968875721702
 30
0.000000000000000
 10
215.8683662762959
 20
243.5703713540362
 30
0.000000000000000
 10
214.8346553609389
 20
244.1805805999823
 30
0.000000000000000
 10
213.7609926283736
 20
244.7324183597828
 30
0.000000000000000
 10
212.6527339167742
 20
245.2224329925808
 30
0.000000000000000
 10
211.5153088583956
 20
245.6472878764125
 30
0.000000000000000
 10
210.5471411406005
 20
245.9440289876176
 30
0.000000000000000
 10
209.9589981441289
 20
246.0954675981000
 30
0.000000000000000
 10
209.7622509690320
 20
246.1429785962800
 30
0.000000000000000
  0
SPLINE
  5
59
100
AcDbEntity
  8
A1
  6
CONTINUOUS
 62
7
100
AcDbSpline
210
0.000000000000000
220
0.000000000000000
230
1.000000000000000
 70
     8
 71
     3
 72
    27
 73
    23
 74
     0
 42
1.000000000000000e-07
 43
1.000000000000000e-07
 12
-0.3487822718973348
 22
0.9372037808344658
 32
0.000000000000000
 13
-0.9790933486573294
 23
0.2034114417009505
 33
0.000000000000000
 40
0.000000000000000
 40
0.000000000000000
 40
0.000000000000000
 40
0.000000000000000
 40
1.225740415426370
 40
2.453913748147056
 40
3.683165537240447
 40
4.912159639040525
 40
6.213838639415771
 40
7.518952992430415
 40
8.825795942814052
 40
9.838049534315049
 40
10.85333436887769
 40
11.87075408381882
 40
12.88943695386231
 40
14.17275575141809
 40
15.46104856582986
 40
16.75227833344180
 40
17.75471056546776
 40
18.76064185632762
 40
19.76893979114741
 40
20.77849760832952
 40
21.67163384623868
 40
22.56641992798258
 40
22.56641992798258
 40
22.56641992798258
 40
22.56641992798258
 10
225.9357068639113
 20
234.2226585906598
 30
0.000000000000000
 10
225.7932013549617
 20
234.6055814412129
 30
0.000000000000000
 10
225.4868378185469
 20
235.3645395564695
 30
0.000000000000000
 10
224.9649632218004
 20
236.4764716006835
 30
0.000000000000000
 10
224.3824801253615
 20
237.5591601252436
 30
0.000000000000000
 10
223.7284951762847
 20
238.6290533518351
 30
0.000000000000000
 10
222.9999851612184
 20
239.6807070078734
 30
0.000000000000000
 10
222.1955020604614
 20
240.7085876589438
 30
0.000000000000000
 10
221.3962121000124
 20
241.6154058357131
 30
0.000000000000000
 10
220.6184540711258
 20
242.4099160457201
 30
0.000000000000000
 10
219.8760237953495
 20
243.1025244714502
 30
0.000000000000000
 10
219.1013402544864
 20
243.7621710124680
 30
0.000000000000000
 10
218.2268398845543
 20
244.4406620088624
 30
0.000000000000000
 10
217.2439742349577
 20
245.1246709525271
 30
0.000000000000000
 10
216.1461100866230
 20
245.7987757874018
 30
0.000000000000000
 10
215.0938055452951
 20
246.3643884348432
 30
0.000000000000000
 10
214.0991337466228
 20
246.8346034010737
 30
0.000000000000000
 10
213.1714051428082
 20
247.2233736660025
 30
0.000000000000000
 10
212.2250039560645
 20
247.5711053676158
 30
0.000000000000000
 10
211.2997586082017
 20
247.8645749279278
 30
0.000000000000000
 10
210.3994811015834
 20
248.1084438412258
 30
0.000000000000000
 10
209.8183146878690
 20
248.2413121573528
 30
0.000000000000000
 10
209.5262883208335
 20
248.3019820663199
 30
0.000000000000000
  0
SPLINE
  5
5A
100
AcDbEntity
  8
A1
  6
CONTINUOUS
 62
7
100
AcDbSpline
210
0.000000000000000
220
0.000000000000000
230
1.000000000000000
 70
     8
 71
     3
 72
    11
 73
     7
 74
     0
 42
1.000000000000000e-07
 43
1.000000000000000e-07
 12
-0.1890582292368208
 22
0.9819658782045053
 32
0.000000000000000
 13
-0.3799608879357947
 23
0.9250025533145845
 33
0.000000000000000
 40
0.000000000000000
 40
0.000000000000000
 40
0.000000000000000
 40
0.000000000000000
 40
0.8136418419050404
 40
1.623216093954848
 40
2.433916775170910
 40
3.237491704625319
 40
3.237491704625319
 40
3.237491704625319
 40
3.237491704625319
 10
224.6984902601588
 20
231.0429198313525
 30
0.000000000000000
 10
224.6472150315376
 20
231.3092426732959
 30
0.000000000000000
 10
224.5316673903279
 20
231.8381028666601
 30
0.000000000000000
 10
224.3192588516871
 20
232.6214423172670
 30
0.000000000000000
 10
224.0690470864939
 20
233.3900182453281
 30
0.000000000000000
 10
223.8769280675131
 20
233.8929254542067
 30
0.000000000000000
 10
223.7751523862737
 20
234.1406950747150
 30
0.000000000000000
  0
SPLINE
  5
5B
100
AcDbEntity
  8
A1
  6
CONTINUOUS
 62
7
100
AcDbSpline
210
0.000000000000000
220
0.000000000000000
230
1.000000000000000
 70
     8
 71
     3
 72
    11
 73
     7
 74
     0
 42
1.000000000000000e-07
 43
1.000000000000000e-07
 12
0.1856279225988828
 22
-0.9826201068326554
 32
0.000000000000000
 13
-0.03124752060614355
 23
-0.9995116769982815
 33
0.000000000000000
 40
0.000000000000000
 40
0.000000000000000
 40
0.000000000000000
 40
0.000000000000000
 40
0.7914465647295599
 40
1.590206842745151
 40
2.402401426320837
 40
3.219441277696507
 40
3.219441277696507
 40
3.219441277696507
 40
3.219441277696507
 10
226.7327957620243
 20
231.3555896176440
 30
0.000000000000000
 10
226.7817672892439
 20
231.0963591816484
 30
0.000000000000000
 10
226.8661714330690
 20
230.5727461506515
 30
0.000000000000000
 10
226.9505184666125
 20
229.7760162884570
 30
0.000000000000000
 10
226.9917168909543
 20
228.9673434558317
 30
0.000000000000000
 10
226.9896428272014
 20
228.4239483185850
 30
0.000000000000000
 10
226.9811326706708
 20
228.1517346945774
 30
0.000000000000000
  0
SPLINE
  5
5C
100
AcDbEntity
  8
A1
  6
CONTINUOUS
 62
7
100
AcDbSpline
210
0.000000000000000
220
0.000000000000000
230
1.000000000000000
 70
     8
 71
     3
 72
    11
 73
     7
 74
     0
 42
1.000000000000000e-07
 43
1.000000000000000e-07
 12
0.08045896891178472
 22
0.9967579216246349
 32
0.000000000000000
 13
-0.1888809256630566
 23
0.9819999979230261
 33
0.000000000000000
 40
0.000000000000000
 40
0.000000000000000
 40
0.000000000000000
 40
0.000000000000000
 40
0.8909745823171505
 40
1.785877403215460
 40
2.694870356963930
 40
3.604741470919019
 40
3.604741470919019
 40
3.604741470919019
 40
3.604741470919019
 10
224.8928954683454
 20
227.4537539144838
 30
0.000000000000000
 10
224.9167911004186
 20
227.7497825721141
 30
0.000000000000000
 10
224.9450746332576
 20
228.3449134654072
 30
0.000000000000000
 10
224.9281667581700
 20
229.2436870446043
 30
0.000000000000000
 10
224.8499011153570
 20
230.1455775706514
 30
0.000000000000000
 10
224.7557760262381
 20
230.7450886873478
 30
0.000000000000000
 10
224.6984902601588
 20
231.0429198313525
 30
0.000000000000000
  0
ARC
  5
5D
100
AcDbEntity
  8
A1
  6
CONTINUOUS
 62
7
100
AcDbCircle
 10
209.4429295304170
 20
228.6981624152796
 30
0.000000000000000
 40
8.500000000000000
100
AcDbArc
 50
123.1812354276974
 51
248.7379000000000
  0
ARC
  5
5E
100
AcDbEntity
  8
A1
  6
CONTINUOUS
 62
7
100
AcDbCircle
 10
201.5072368433442
 20
240.8338445788968
 30
0.000000000000000
 40
6.000000000000000
100
AcDbArc
 50
303.1812354276973
 51
368.7379000000000
  0
ARC
  5
5F
100
AcDbEntity
  8
A1
  6
CONTINUOUS
 62
7
100
AcDbCircle
 10
211.2847975217230
 20
216.7145264442754
 30
0.000000000000000
 40
2.000000000000000
100
AcDbArc
 50
8.737900000000048
 51
68.73790000000002
  0
ARC
  5
60
100
AcDbEntity
  8
A1
  6
CONTINUOUS
 62
7
100
AcDbCircle
 10
215.9071836562398
 20
213.0351517486262
 30
0.000000000000000
 40
3.944512108463647
100
AcDbArc
 50
112.4414399267946
 51
129.3693942873789
  0
ARC
  5
61
100
AcDbEntity
  8
A1
  6
CONTINUOUS
 62
7
100
AcDbCircle
 10
209.4429295304170
 20
228.6981624152796
 30
0.000000000000000
 40
17.54671344277210
100
AcDbArc
 50
290.5742495150481
 51
358.2154455968655
  0
ARC
  5
62
100
AcDbEntity
  8
A1
  6
CONTINUOUS
 62
7
100
AcDbCircle
 10
204.6986401804307
 20
227.9689720672848
 30
0.000000000000000
 40
17.80000000000013
100
AcDbArc
 50
8.737900000222862
 51
83.09369030144823
  0
ARC
  5
63
100
AcDbEntity
  8
A1
  6
CONTINUOUS
 62
7
100
AcDbCircle
 10
209.4310789180387
 20
228.0897844001910
 30
0.000000000000000
 40
17.60723968905409
100
AcDbArc
 50
10.68916640911816
 51
20.38431707328187
  0
ARC
  5
64
100
AcDbEntity
  8
A1
  6
CONTINUOUS
 62
7
100
AcDbCircle
 10
209.4429295304170
 20
228.6981624152796
 30
0.000000000000000
 40
15.50000000000000
100
AcDbArc
 50
290.6313947371435
 51
355.3950856462615
  0
ARC
  5
65
100
AcDbEntity
  8
A1
  6
CONTINUOUS
 62
7
100
AcDbCircle
 10
209.4429295304170
 20
228.6981624152796
 30
0.000000000000000
 40
13.00000000000000
100
AcDbArc
 50
292.4217645635719
 51
368.7379000003051
  0
LINE
  5
66
100
AcDbEntity
  8
A1
  6
CONTINUOUS
 62
7
100
AcDbLine
 10
206.8390219267341
 20
245.6398171512104
 30
0.000000000000000
 11
207.4375985308268
 21
241.7453325138904
 31
0.000000000000000
  0
LINE
  5
67
100
AcDbEntity
  8
A1
  6
CONTINUOUS
 62
7
100
AcDbLine
 10
213.4051100003870
 20
216.0845456547170
 30
0.000000000000000
 11
213.2615847508839
 21
217.0183557559399
 31
0.000000000000000
  0
LINE
  5
68
100
AcDbEntity
  8
A1
  6
CONTINUOUS
 62
7
100
AcDbLine
 10
212.0100672339877
 20
218.5783890584375
 30
0.000000000000000
 11
206.3605332532923
 21
220.7767463050901
 31
0.000000000000000
  0
LINE
  5
69
100
AcDbEntity
  8
A1
  6
CONTINUOUS
 62
7
100
AcDbLine
 10
206.4712785792361
 20
248.0324446069368
 30
0.000000000000000
 11
206.7899550434490
 21
245.9590582004735
 31
0.000000000000000
  0
LINE
  5
6A
100
AcDbEntity
  8
A1
  6
CONTINUOUS
 62
7
100
AcDbLine
 10
216.9646023175323
 20
192.9256248900230
 30
0.000000000000000
 11
214.9878150883715
 21
192.6217955783584
 31
0.000000000000000
  0
LINE
  5
6B
100
AcDbEntity
  8
A1
  6
CONTINUOUS
 62
7
100
AcDbLine
 10
206.8390219267342
 20
245.6398171512103
 30
0.000000000000000
 11
206.7899550434491
 21
245.9590582004735
 31
0.000000000000000
  0
CIRCLE
  5
6C
100
AcDbEntity
  8
A1
  6
CONTINUOUS
 62
7
100
AcDbCircle
 10
206.4429295304170
 20
251.6981624152796
 30
0.000000000000000
 40
2.249999999977773
  0
CIRCLE
  5
6D
100
AcDbEntity
  8
A1
  6
CONTINUOUS
 62
7
100
AcDbCircle
 10
206.4429295304170
 20
205.6981624152796
 30
0.000000000000000
 40
2.249999999977773
  0
ARC
  5
6E
100
AcDbEntity
  8
A1
  6
CONTINUOUS
 62
7
100
AcDbCircle
 10
203.4429295304170
 20
255.6981572236181
 30
0.000000000000000
 40
4.999999999999998
100
AcDbArc
 50
70.42022850231406
 51
180.0000050000000
  0
ARC
  5
6F
100
AcDbEntity
  8
A1
  6
CONTINUOUS
 62
7
100
AcDbCircle
 10
205.4911475304169
 20
206.6721722236182
 30
0.000000000000000
 40
9.000000000000000
100
AcDbArc
 50
289.5797707736858
 51
332.4231947653640
  0
ARC
  5
70
100
AcDbEntity
  8
A1
  6
CONTINUOUS
 62
7
100
AcDbCircle
 10
205.4911475304169
 20
250.7241282236182
 30
0.000000000000000
 40
9.000000000000000
100
AcDbArc
 50
10.17148751208867
 51
70.42021299999999
  0
ARC
  5
71
100
AcDbEntity
  8
A1
  6
CONTINUOUS
 62
7
100
AcDbCircle
 10
209.4429295304170
 20
228.6981624152796
 30
0.000000000000000
 40
9.000000000000000
100
AcDbArc
 50
111.1322118339415
 51
267.9260364537213
  0
LINE
  5
72
100
AcDbEntity
  8
A1
  6
CONTINUOUS
 62
7
100
AcDbLine
 10
205.1185235304170
 20
260.4090342236186
 30
0.000000000000000
 11
208.5072203902656
 21
259.2037098467932
 31
0.000000000000000
  0
LINE
  5
73
100
AcDbEntity
  8
A1
  6
CONTINUOUS
 62
7
100
AcDbLine
 10
208.5072185304171
 20
198.1925882236181
 30
0.000000000000000
 11
205.1185425304171
 21
196.9872812236183
 31
0.000000000000000
  0
LINE
  5
74
100
AcDbEntity
  8
A1
  6
CONTINUOUS
 62
7
100
AcDbLine
 10
198.4429295304170
 20
201.6981580090163
 30
0.000000000000000
 11
198.4429295304170
 21
255.6981567872858
 31
0.000000000000000
  0
LINE
  5
75
100
AcDbEntity
  8
A1
  6
CONTINUOUS
 62
7
100
AcDbLine
 10
215.6414754572708
 20
212.2827677798939
 30
0.000000000000000
 11
214.7516888387554
 21
207.3233769703578
 31
0.000000000000000
  0
LINE
  5
76
100
AcDbEntity
  8
A1
  6
CONTINUOUS
 62
7
100
AcDbLine
 10
214.3497000202679
 20
252.3134827418294
 30
0.000000000000000
 11
215.4543616430176
 21
246.1564530442216
 31
0.000000000000000
  0
CIRCLE
  5
77
100
AcDbEntity
  8
A1
  6
CONTINUOUS
 62
7
100
AcDbCircle
 10
209.4429295304862
 20
228.6981624152103
 30
0.000000000000000
 40
6.500000000000000
  0
CIRCLE
  5
78
100
AcDbEntity
  8
A1
  6
CONTINUOUS
 62
7
100
AcDbCircle
 10
209.4429295304862
 20
228.6981624152103
 30
0.000000000000000
 40
5.500000000000005
  0
SPLINE
  5
79
100
AcDbEntity
  8
A1
  6
CONTINUOUS
 62
7
100
AcDbSpline
210
0.000000000000000
220
0.000000000000000
230
1.000000000000000
 70
     8
 71
     3
 72
    11
 73
     7
 74
     0
 42
1.000000000000000e-07
 43
1.000000000000000e-07
 12
0.3229258745209336
 22
-0.9464242598141936
 32
0.000000000000000
 13
0.1582809547589932
 23
-0.9873941155187822
 33
0.000000000000000
 40
0.000000000000000
 40
0.000000000000000
 40
0.000000000000000
 40
0.000000000000000
 40
0.7215911984881063
 40
1.453742358325901
 40
2.200618254832357
 40
2.956848752741553
 40
2.956848752741553
 40
2.956848752741553
 40
2.956848752741553
 10
147.4860218531518
 20
234.2226585905608
 30
0.000000000000000
 10
147.5636953427579
 20
233.9950147852550
 30
0.000000000000000
 10
147.7104425565653
 20
233.5330034113178
 30
0.000000000000000
 10
147.9019512647334
 20
232.8246756552377
 30
0.000000000000000
 10
148.0657076776561
 20
232.0975933138080
 30
0.000000000000000
 10
148.1554681198612
 20
231.6044887987488
 30
0.000000000000000
 10
148.1953670816035
 20
231.3555896175450
 30
0.000000000000000
  0
SPLINE
  5
7A
100
AcDbEntity
  8
A1
  6
CONTINUOUS
 62
7
100
AcDbSpline
210
0.000000000000000
220
0.000000000000000
230
1.000000000000000
 70
     8
 71
     3
 72
    11
 73
     7
 74
     0
 42
1.000000000000000e-07
 43
1.000000000000000e-07
 12
0.1580885116582067
 22
-0.9874249452398089
 32
0.000000000000000
 13
-0.0006548237895458442
 23
-0.9999997856028813
 33
0.000000000000000
 40
0.000000000000000
 40
0.000000000000000
 40
0.000000000000000
 40
0.000000000000000
 40
0.7888953822516677
 40
1.586961101536925
 40
2.399422826284648
 40
3.216599005548971
 40
3.216599005548971
 40
3.216599005548971
 40
3.216599005548971
 10
148.1953670816035
 20
231.3555896175450
 30
0.000000000000000
 10
148.2369388472150
 20
231.0959312910051
 30
0.000000000000000
 10
148.3099456518112
 20
230.5718266403643
 30
0.000000000000000
 10
148.3871046078739
 20
229.7755301899826
 30
0.000000000000000
 10
148.4329270828733
 20
228.9673989309258
 30
0.000000000000000
 10
148.4431078992178
 20
228.4241266958331
 30
0.000000000000000
 10
148.4429295304170
 20
228.1517346944784
 30
0.000000000000000
  0
SPLINE
  5
7B
100
AcDbEntity
  8
A1
  6
CONTINUOUS
 62
7
100
AcDbSpline
210
0.000000000000000
220
0.000000000000000
230
1.000000000000000
 70
     8
 71
     3
 72
    11
 73
     7
 74
     0
 42
1.000000000000000e-07
 43
1.000000000000000e-07
 12
0.001012254922613920
 22
0.9999994876698111
 32
0.000000000000000
 13
-0.1731733502066390
 23
0.9848913598863192
 33
0.000000000000000
 40
0.000000000000000
 40
0.000000000000000
 40
0.000000000000000
 40
0.000000000000000
 40
0.8901329665421088
 40
1.786457446282776
 40
2.696886234157471
 40
3.606036510300527
 40
3.606036510300527
 40
3.606036510300527
 40
3.606036510300527
 10
148.4429295304170
 20
227.4537539143848
 30
0.000000000000000
 10
148.4432298775761
 20
227.7504647512181
 30
0.000000000000000
 10
148.4317501219365
 20
228.3460224755851
 30
0.000000000000000
 10
148.3789241855756
 20
229.2436737654581
 30
0.000000000000000
 10
148.2861521473012
 20
230.1445290487788
 30
0.000000000000000
 10
148.1950381389076
 20
230.7444484139830
 30
0.000000000000000
 10
148.1425579391873
 20
231.0429198312535
 30
0.000000000000000
  0
SPLINE
  5
7C
100
AcDbEntity
  8
A1
  6
CONTINUOUS
 62
7
100
AcDbSpline
210
0.000000000000000
220
0.000000000000000
230
1.000000000000000
 70
     8
 71
     3
 72
    12
 73
     8
 74
     0
 42
1.000000000000000e-07
 43
1.000000000000000e-07
 12
-0.003126870680034699
 22
-0.9999951113277348
 32
0.000000000000000
 13
0.6186521937356702
 23
-0.7856649815221317
 33
0.000000000000000
 40
0.000000000000000
 40
0.000000000000000
 40
0.000000000000000
 40
0.000000000000000
 40
0.3115193813733841
 40
0.6415086633567453
 40
0.9698982948325503
 40
1.312845533330937
 40
1.428502780373880
 40
1.428502780373880
 40
1.428502780373880
 40
1.428502780373880
 10
134.9429295304174
 20
215.0126266756644
 30
0.000000000000000
 10
134.9426048368107
 20
214.9087873895120
 30
0.000000000000000
 10
134.9564732434725
 20
214.6946688237909
 30
0.000000000000000
 10
135.0217611555627
 20
214.3768414736987
 30
0.000000000000000
 10
135.1391306431461
 20
214.0629337329555
 30
0.000000000000000
 10
135.2707492119170
 20
213.8343448531407
 30
0.000000000000000
 10
135.3618830239859
 20
213.7115330279589
 30
0.000000000000000
 10
135.3857335605207
 20
213.6812437450052
 30
0.000000000000000
  0
SPLINE
  5
7D
100
AcDbEntity
  8
A1
  6
CONTINUOUS
 62
7
100
AcDbSpline
210
0.000000000000000
220
0.000000000000000
230
1.000000000000000
 70
     8
 71
     3
 72
     9
 73
     5
 74
     0
 42
1.000000000000000e-07
 43
1.000000000000000e-07
 12
0.6192527721844385
 22
-0.7851916989765186
 32
0.000000000000000
 13
0.6321138309604635
 23
-0.7748755414310153
 33
0.000000000000000
 40
0.000000000000000
 40
0.000000000000000
 40
0.000000000000000
 40
0.000000000000000
 40
0.8280431011018707
 40
1.659235454180962
 40
1.659235454180962
 40
1.659235454180962
 40
1.659235454180962
 10
135.3857335605207
 20
213.6812437450052
 30
0.000000000000000
 10
135.5566562224693
 20
213.4645195552119
 30
0.000000000000000
 10
135.9009397216947
 20
213.0316541735556
 30
0.000000000000000
 10
136.2487798753273
 20
212.6016415308283
 30
0.000000000000000
 10
136.4239159361839
 20
212.3869513226198
 30
0.000000000000000
  0
SPLINE
  5
7E
100
AcDbEntity
  8
A1
  6
CONTINUOUS
 62
7
100
AcDbSpline
210
0.000000000000000
220
0.000000000000000
230
1.000000000000000
 70
     8
 71
     3
 72
    27
 73
    23
 74
     0
 42
1.000000000000000e-07
 43
1.000000000000000e-07
 12
-0.3232791834583395
 22
0.9463036349621916
 32
0.000000000000000
 13
-0.5351340140966840
 23
0.8447671791427638
 33
0.000000000000000
 40
0.000000000000000
 40
0.000000000000000
 40
0.000000000000000
 40
0.000000000000000
 40
1.202231395360376
 40
2.380501779548157
 40
3.529947874193927
 40
4.645707684660881
 40
5.787048852674490
 40
6.886045724662505
 40
7.937227727409149
 40
8.715049440287824
 40
9.461664652712951
 40
10.17470099355976
 40
10.85178882897023
 40
11.64994697574152
 40
12.38751412217109
 40
13.06028303778446
 40
13.53497806268683
 40
13.96867682981469
 40
14.35982238914898
 40
14.70688824051693
 40
14.97615746155481
 40
15.21018479762060
 40
15.21018479762060
 40
15.21018479762060
 40
15.21018479762060
 10
147.4860218531518
 20
234.2226585905608
 30
0.000000000000000
 10
147.3564697252118
 20
234.6018839037259
 30
0.000000000000000
 10
147.0978724391111
 20
235.3520691821096
 30
0.000000000000000
 10
146.7084628427946
 20
236.4624189725655
 30
0.000000000000000
 10
146.3225318510665
 20
237.5434254883056
 30
0.000000000000000
 10
145.9345017779411
 20
238.6105917484821
 30
0.000000000000000
 10
145.5455367991680
 20
239.6595022424355
 30
0.000000000000000
 10
145.1570582014958
 20
240.6856079525440
 30
0.000000000000000
 10
144.8048779266809
 20
241.5958631910328
 30
0.000000000000000
 10
144.4894594621171
 20
242.3943685638844
 30
0.000000000000000
 10
144.2109940547888
 20
243.0862639510800
 30
0.000000000000000
 10
143.9405426482057
 20
243.7451719878751
 30
0.000000000000000
 10
143.6585676841398
 20
244.4179010595945
 30
0.000000000000000
 10
143.3672312149174
 20
245.0955477594244
 30
0.000000000000000
 10
143.0687893642695
 20
245.7685234995803
 30
0.000000000000000
 10
142.8065936237085
 20
246.3395730395754
 30
0.000000000000000
 10
142.5800015494357
 20
246.8154485768442
 30
0.000000000000000
 10
142.3883351241947
 20
247.2039356951905
 30
0.000000000000000
 10
142.2097845552495
 20
247.5514045753760
 30
0.000000000000000
 10
142.0501962216496
 20
247.8469174260537
 30
0.000000000000000
 10
141.9097402669944
 20
248.0931694234291
 30
0.000000000000000
 10
141.8218122626406
 20
248.2360825287107
 30
0.000000000000000
 10
141.7800669333882
 20
248.3019820662209
 30
0.000000000000000
  0
SPLINE
  5
7F
100
AcDbEntity
  8
A1
  6
CONTINUOUS
 62
7
100
AcDbSpline
210
0.000000000000000
220
0.000000000000000
230
1.000000000000000
 70
     8
 71
     3
 72
    15
 73
    11
 74
     0
 42
1.000000000000000e-07
 43
1.000000000000000e-07
 12
-0.9760238174580991
 22
-0.2176637492907503
 32
0.000000000000000
 13
-0.0009715113458241831
 23
-0.9999995280827534
 33
0.000000000000000
 40
0.000000000000000
 40
0.000000000000000
 40
0.000000000000000
 40
0.000000000000000
 40
0.3280494564915986
 40
0.6653174135746998
 40
0.9922951593715634
 40
1.327791611485106
 40
1.659739871445820
 40
2.000183209662505
 40
2.367450981549695
 40
2.746190459042348
 40
2.746190459042348
 40
2.746190459042348
 40
2.746190459042348
 10
136.5180702417547
 20
247.6380756972609
 30
0.000000000000000
 10
136.4113422141414
 20
247.6142742057100
 30
0.000000000000000
 10
136.1983639504721
 20
247.5483082177024
 30
0.000000000000000
 10
135.9021182741591
 20
247.3976865687654
 30
0.000000000000000
 10
135.6330456390849
 20
247.1985751457627
 30
0.000000000000000
 10
135.4016034346760
 20
246.9591204977522
 30
0.000000000000000
 10
135.2100516861914
 20
246.6813141652534
 30
0.000000000000000
 10
135.0619636422613
 20
246.3662404632799
 30
0.000000000000000
 10
134.9653380227390
 20
246.0153261665519
 30
0.000000000000000
 10
134.9430521803172
 20
245.7660635840309
 30
0.000000000000000
 10
134.9429295304174
 20
245.6398171511112
 30
0.000000000000000
  0
SPLINE
  5
80
100
AcDbEntity
  8
A1
  6
CONTINUOUS
 62
7
100
AcDbSpline
210
0.000000000000000
220
0.000000000000000
230
1.000000000000000
 70
     8
 71
     3
 72
    11
 73
     7
 74
     0
 42
1.000000000000000e-07
 43
1.000000000000000e-07
 12
-0.1735896851920415
 22
0.9848180650225231
 32
0.000000000000000
 13
-0.3566264501963587
 23
0.9342470631584092
 33
0.000000000000000
 40
0.000000000000000
 40
0.000000000000000
 40
0.000000000000000
 40
0.000000000000000
 40
0.8106438319174861
 40
1.615705063555533
 40
2.420381213758985
 40
3.216693432695427
 40
3.216693432695427
 40
3.216693432695427
 40
3.216693432695427
 10
148.1425579391873
 20
231.0429198312535
 30
0.000000000000000
 10
148.0956514699922
 20
231.3090320612440
 30
0.000000000000000
 10
147.9898919777644
 20
231.8373387313462
 30
0.000000000000000
 10
147.7957596007685
 20
232.6207103321422
 30
0.000000000000000
 10
147.5659320851299
 20
233.3894184603378
 30
0.000000000000000
 10
147.3877042727672
 20
233.8927109573165
 30
0.000000000000000
 10
147.2930422728048
 20
234.1406950746160
 30
0.000000000000000
  0
SPLINE
  5
81
100
AcDbEntity
  8
A1
  6
CONTINUOUS
 62
7
100
AcDbSpline
210
0.000000000000000
220
0.000000000000000
230
1.000000000000000
 70
     8
 71
     3
 72
    24
 73
    20
 74
     0
 42
1.000000000000000e-07
 43
1.000000000000000e-07
 12
-0.3571675783179558
 22
0.9340403208634598
 32
0.000000000000000
 13
-0.5581880580748475
 23
0.8297144640323495
 33
0.000000000000000
 40
0.000000000000000
 40
0.000000000000000
 40
0.000000000000000
 40
0.000000000000000
 40
0.9775929498789270
 40
1.936626525648265
 40
2.873974938187940
 40
3.786513408101536
 40
4.851534372004757
 40
5.878514007853231
 40
6.862247722428538
 40
7.797533531837259
 40
8.679175592175266
 40
9.501989157236075
 40
10.24210763934635
 40
10.92560215144662
 40
11.54855473235532
 40
12.10707361140051
 40
12.59731604320831
 40
13.01553325898233
 40
13.19693690249482
 40
13.19693690249482
 40
13.19693690249482
 40
13.19693690249482
 10
147.2930422728048
 20
234.1406950746160
 30
0.000000000000000
 10
147.1766541039751
 20
234.4450654854756
 30
0.000000000000000
 10
146.9443321295190
 20
235.0473582500095
 30
0.000000000000000
 10
146.5945264813240
 20
235.9392066450443
 30
0.000000000000000
 10
146.2474964352602
 20
236.8088337710327
 30
0.000000000000000
 10
145.8818839478602
 20
237.7090647711446
 30
0.000000000000000
 10
145.4983475346959
 20
238.6342407932146
 30
0.000000000000000
 10
145.0979381281965
 20
239.5780753099920
 30
0.000000000000000
 10
144.7066866802024
 20
240.4787810019420
 30
0.000000000000000
 10
144.3269275669415
 20
241.3316187007227
 30
0.000000000000000
 10
143.9610099210146
 20
242.1318564548136
 30
0.000000000000000
 10
143.6139382095780
 20
242.8691263082825
 30
0.000000000000000
 10
143.2864985477493
 20
243.5425718268640
 30
0.000000000000000
 10
142.9799084848477
 20
244.1520112382624
 30
0.000000000000000
 10
142.6920141701560
 20
244.7030147994115
 30
0.000000000000000
 10
142.4251181806326
 20
245.1922254473778
 30
0.000000000000000
 10
142.1813351164811
 20
245.6161583737651
 30
0.000000000000000
 10
141.9915292951742
 20
245.9260293562506
 30
0.000000000000000
 10
141.8813440174565
 20
246.0928075205642
 30
0.000000000000000
 10
141.8475915682899
 20
246.1429785961810
 30
0.000000000000000
  0
SPLINE
  5
82
100
AcDbEntity
  8
A1
  6
CONTINUOUS
 62
7
100
AcDbSpline
210
0.000000000000000
220
0.000000000000000
230
1.000000000000000
 70
     8
 71
     3
 72
    21
 73
    17
 74
     0
 42
1.000000000000000e-07
 43
1.000000000000000e-07
 12
-0.5997263282415588
 22
0.8002051806943200
 32
0.000000000000000
 13
-0.9760474109418737
 23
-0.2175579269824084
 33
0.000000000000000
 40
0.000000000000000
 40
0.000000000000000
 40
0.000000000000000
 40
0.000000000000000
 40
0.1129769871660668
 40
0.2453342662553338
 40
0.4047845498716911
 40
0.5976604542706097
 40
0.8250522515562635
 40
1.084665693853566
 40
1.359763988336631
 40
1.660580435337736
 40
1.981651408316509
 40
2.317516171163013
 40
2.667353101981917
 40
3.024975590428632
 40
3.295601389982380
 40
3.567172320419728
 40
3.567172320419728
 40
3.567172320419728
 40
3.567172320419728
 10
141.8475915682899
 20
246.1429785961810
 30
0.000000000000000
 10
141.8250064770602
 20
246.1731135196575
 30
0.000000000000000
 10
141.7675921346095
 20
246.2333603250215
 30
0.000000000000000
 10
141.6455937938954
 20
246.2951988433574
 30
0.000000000000000
 10
141.4896566257810
 20
246.3393431936475
 30
0.000000000000000
 10
141.2974473150787
 20
246.3640509832973
 30
0.000000000000000
 10
141.0707826770544
 20
246.3719257422206
 30
0.000000000000000
 10
140.8167267161992
 20
246.3634365098185
 30
0.000000000000000
 10
140.5391013242453
 20
246.3404232091910
 30
0.000000000000000
 10
140.2421094971868
 20
246.3054741873236
 30
0.000000000000000
 10
139.9261272348488
 20
246.2597042079976
 30
0.000000000000000
 10
139.5950647231265
 20
246.2046441662163
 30
0.000000000000000
 10
139.2529803830337
 20
246.1419180092784
 30
0.000000000000000
 10
138.9331416016603
 20
246.0786415243648
 30
0.000000000000000
 10
138.6395415860032
 20
246.0172825720229
 30
0.000000000000000
 10
138.4629612897650
 20
245.9787523365928
 30
0.000000000000000
 10
138.3746059219181
 20
245.9590582003746
 30
0.000000000000000
  0
SPLINE
  5
83
100
AcDbEntity
  8
A1
  6
CONTINUOUS
 62
7
100
AcDbSpline
210
0.000000000000000
220
0.000000000000000
230
1.000000000000000
 70
     8
 71
     3
 72
    21
 73
    17
 74
     0
 42
1.000000000000000e-07
 43
1.000000000000000e-07
 12
0.9763387540183430
 22
0.2162467049515726
 32
0.000000000000000
 13
0.5738484065423108
 23
-0.8189615414103173
 33
0.000000000000000
 40
0.000000000000000
 40
0.000000000000000
 40
0.000000000000000
 40
0.000000000000000
 40
0.3825930934008659
 40
0.7631383767127891
 40
1.134623560718088
 40
1.493877852190581
 40
1.836810973864425
 40
2.156504588847983
 40
2.441133832961978
 40
2.698384861256505
 40
2.923947096695578
 40
3.112550130848683
 40
3.270620469306714
 40
3.399098234956923
 40
3.489386570653137
 40
3.567341828104764
 40
3.567341828104764
 40
3.567341828104764
 40
3.567341828104764
 10
138.2995363511444
 20
248.0324446068379
 30
0.000000000000000
 10
138.4240498391800
 20
248.0600227720996
 30
0.000000000000000
 10
138.6726841201261
 20
248.1138019783775
 30
0.000000000000000
 10
139.0430846520627
 20
248.1902811533748
 30
0.000000000000000
 10
139.4066499446059
 20
248.2612981851882
 30
0.000000000000000
 10
139.7587549921342
 20
248.3254586153847
 30
0.000000000000000
 10
140.0948284092216
 20
248.3810822371046
 30
0.000000000000000
 10
140.4073809380585
 20
248.4261363608348
 30
0.000000000000000
 10
140.6927386679969
 20
248.4589878901290
 30
0.000000000000000
 10
140.9478547381215
 20
248.4788005584988
 30
0.000000000000000
 10
141.1717225746748
 20
248.4849538957486
 30
0.000000000000000
 10
141.3624708342886
 20
248.4760232640317
 30
0.000000000000000
 10
141.5195422668986
 20
248.4526390281804
 30
0.000000000000000
 10
141.6401314364987
 20
248.4153095452072
 30
0.000000000000000
 10
141.7272449896800
 20
248.3658410412353
 30
0.000000000000000
 10
141.7651554332981
 20
248.3232628521554
 30
0.000000000000000
 10
141.7800669333882
 20
248.3019820662209
 30
0.000000000000000
  0
ELLIPSE
  5
84
100
AcDbEntity
  8
A1
  6
CONTINUOUS
 62
7
100
AcDbEllipse
 10
134.9429295304174
 20
204.7863482649391
 30
0.000000000000000
 11
-2.000000000000000
 21
0.000000000000000
 31
0.000000000000000
210
0.000000000000000
220
0.000000000000000
230
1.000000000000000
 40
0.9883936145804318
 41
1.570796326794897
 42
3.141592653589793
  0
ELLIPSE
  5
85
100
AcDbEntity
  8
A1
  6
CONTINUOUS
 62
7
100
AcDbEllipse
 10
134.9429295304176
 20
198.5521571704879
 30
0.000000000000000
 11
-6.000000000000000
 21
0.000000000000000
 31
0.000000000000000
210
0.000000000000000
220
0.000000000000000
230
1.000000000000000
 40
0.9883936145804318
 41
0.3179586565354622
 42
1.570796326794897
  0
ELLIPSE
  5
86
100
AcDbEntity
  8
A1
  6
CONTINUOUS
 62
7
100
AcDbEllipse
 10
144.4429295304170
 20
196.5753699412771
 30
0.000000000000000
 11
-4.000000000000000
 21
0.000000000000000
 31
0.000000000000000
210
0.000000000000000
220
0.000000000000000
230
1.000000000000000
 40
0.9883936145804318
 41
1.570796326794897
 42
3.141592653589793
  0
ELLIPSE
  5
87
100
AcDbEntity
  8
A1
  6
CONTINUOUS
 62
7
100
AcDbEllipse
 10
134.9429295304174
 20
204.4825188579704
 30
0.000000000000000
 11
2.000000000000000
 21
0.000000000000000
 31
0.000000000000000
210
0.000000000000000
220
0.000000000000000
230
1.000000000000000
 40
0.9883936145804318
 41
4.712388980384690
 42
0.000000000000000
  0
ELLIPSE
  5
88
100
AcDbEntity
  8
A1
  6
CONTINUOUS
 62
7
100
AcDbEllipse
 10
134.9429295304174
 20
211.0530123692768
 30
0.000000000000000
 11
2.000000000000000
 21
0.000000000000000
 31
0.000000000000000
210
0.000000000000000
220
0.000000000000000
230
1.000000000000000
 40
0.9883936145804318
 41
0.000000000000000
 42
0.6783678216155419
  0
LINE
  5
89
100
AcDbEntity
  8
A1
  6
CONTINUOUS
 62
7
100
AcDbLine
 10
134.9429295304067
 20
202.8095610357784
 30
0.000000000000000
 11
133.4429295304173
 21
202.8095610357863
 31
0.000000000000000
  0
LINE
  5
8A
100
AcDbEntity
  8
A1
  6
CONTINUOUS
 62
7
100
AcDbLine
 10
134.9429295304174
 20
216.5271500546154
 30
0.000000000000000
 11
134.9429295304174
 21
217.0183557558408
 31
0.000000000000000
  0
LINE
  5
8B
100
AcDbEntity
  8
A1
  6
CONTINUOUS
 62
7
100
AcDbLine
 10
136.4239159361839
 20
212.3869513226198
 30
0.000000000000000
 11
136.5001255003139
 21
212.2934919198171
 31
0.000000000000000
  0
LINE
  5
8C
100
AcDbEntity
  8
A1
  6
CONTINUOUS
 62
7
100
AcDbLine
 10
134.9429295304067
 20
202.5057317241138
 30
0.000000000000000
 11
133.4429295304173
 21
202.5057317241217
 31
0.000000000000000
  0
LINE
  5
8D
100
AcDbEntity
  8
A1
  6
CONTINUOUS
 62
7
100
AcDbLine
 10
134.9429295303856
 20
192.6217955783095
 30
0.000000000000000
 11
144.4429295303957
 21
192.6217955782595
 31
0.000000000000000
  0
LINE
  5
8E
100
AcDbEntity
  8
A1
  6
CONTINUOUS
 62
7
100
AcDbLine
 10
136.9429295304174
 20
204.4825189532746
 30
0.000000000000000
 11
136.9429295304174
 21
211.0530124645808
 31
0.000000000000000
  0
LINE
  5
8F
100
AcDbEntity
  8
A1
  6
CONTINUOUS
 62
7
100
AcDbLine
 10
134.9429295304174
 20
216.5271500546155
 30
0.000000000000000
 11
136.9429295304174
 21
216.0845456546180
 31
0.000000000000000
  0
LINE
  5
90
100
AcDbEntity
  8
A1
  6
CONTINUOUS
 62
7
100
AcDbLine
 10
136.5180702417548
 20
247.6380756972611
 30
0.000000000000000
 11
138.2995363511445
 21
248.0324446068380
 31
0.000000000000000
  0
LINE
  5
91
100
AcDbEntity
  8
A1
  6
CONTINUOUS
 62
7
100
AcDbLine
 10
136.9429295304174
 20
245.6398171511115
 30
0.000000000000000
 11
138.3746059219182
 21
245.9590582003747
 31
0.000000000000000
  0
ARC
  5
92
100
AcDbEntity
  8
A1
  6
CONTINUOUS
 62
7
100
AcDbCircle
 10
133.9429295304174
 20
220.6981624151805
 30
0.000000000000000
 40
1.000000000000000
100
AcDbArc
 50
270.0000000000000
 51
360.0000000000000
  0
ARC
  5
93
100
AcDbEntity
  8
A1
  6
CONTINUOUS
 62
7
100
AcDbCircle
 10
133.9429295304174
 20
236.6981624151805
 30
0.000000000000000
 40
1.000000000000000
100
AcDbArc
 50
5.090000000000000e-14
 51
90.00000000000000
  0
ARC
  5
94
100
AcDbEntity
  8
A1
  6
CONTINUOUS
 62
7
100
AcDbCircle
 10
131.4429295304174
 20
198.6981589239613
 30
0.000000000000000
 40
2.000000000000000
100
AcDbArc
 50
270.0000000000000
 51
360.0000000000000
  0
ARC
  5
95
100
AcDbEntity
  8
A1
  6
CONTINUOUS
 62
7
100
AcDbCircle
 10
131.4429295304174
 20
258.6981572235191
 30
0.000000000000000
 40
2.000000000000000
100
AcDbArc
 50
359.9999999999998
 51
450.0000000000000
  0
LINE
  5
96
100
AcDbEntity
  8
A1
  6
CONTINUOUS
 62
7
100
AcDbLine
 10
133.9429295304174
 20
237.6981624151805
 30
0.000000000000000
 11
133.4429295304174
 21
237.6981624151805
 31
0.000000000000000
  0
LINE
  5
97
100
AcDbEntity
  8
A1
  6
CONTINUOUS
 62
7
100
AcDbLine
 10
133.4429295304174
 20
219.6981624151805
 30
0.000000000000000
 11
133.9429295304174
 21
219.6981624151805
 31
0.000000000000000
  0
LINE
  5
98
100
AcDbEntity
  8
A1
  6
CONTINUOUS
 62
7
100
AcDbLine
 10
128.4429295304174
 20
196.6981589239613
 30
0.000000000000000
 11
131.4429295304174
 21
196.6981589239613
 31
0.000000000000000
  0
LINE
  5
99
100
AcDbEntity
  8
A1
  6
CONTINUOUS
 62
7
100
AcDbLine
 10
131.4429295304174
 20
260.6981572235191
 30
0.000000000000000
 11
128.4429295304174
 21
260.6981572235191
 31
0.000000000000000
  0
LINE
  5
9A
100
AcDbEntity
  8
A1
  6
CONTINUOUS
 62
7
100
AcDbLine
 10
138.4429295304174
 20
235.1981624151113
 30
0.000000000000000
 11
136.9429295304174
 21
235.1981624151113
 31
0.000000000000000
  0
LINE
  5
9B
100
AcDbEntity
  8
A1
  6
CONTINUOUS
 62
7
100
AcDbLine
 10
136.9429295304174
 20
222.1981624151113
 30
0.000000000000000
 11
138.4429295304174
 21
222.1981624151113
 31
0.000000000000000
  0
LINE
  5
9C
100
AcDbEntity
  8
A1
  6
CONTINUOUS
 62
7
100
AcDbLine
 10
139.4429295304174
 20
234.1343272953036
 30
0.000000000000000
 11
139.4429295304174
 21
223.1981624151113
 31
0.000000000000000
  0
LINE
  5
9D
100
AcDbEntity
  8
A1
  6
CONTINUOUS
 62
7
100
AcDbLine
 10
139.4429295304173
 20
234.1981624151112
 30
0.000000000000000
 11
138.4429295304173
 21
235.1981624151113
 31
0.000000000000000
  0
LINE
  5
9E
100
AcDbEntity
  8
A1
  6
CONTINUOUS
 62
7
100
AcDbLine
 10
138.4429295304172
 20
222.1981624151112
 30
0.000000000000000
 11
139.4429295304172
 21
223.1981624151112
 31
0.000000000000000
  0
LINE
  5
9F
100
AcDbEntity
  8
A1
  6
CONTINUOUS
 62
7
100
AcDbLine
 10
138.4429295304174
 20
222.1981624151113
 30
0.000000000000000
 11
138.4429295304174
 21
235.1981624151113
 31
0.000000000000000
  0
LINE
  5
A0
100
AcDbEntity
  8
A1
  6
CONTINUOUS
 62
7
100
AcDbLine
 10
139.4429295304174
 20
234.1981624151113
 30
0.000000000000000
 11
139.4429295304174
 21
234.1343272953036
 31
0.000000000000000
  0
SPLINE
  5
A1
100
AcDbEntity
  8
A1
  6
CONTINUOUS
 62
7
100
AcDbSpline
210
0.000000000000000
220
0.000000000000000
230
1.000000000000000
 70
     8
 71
     3
 72
    11
 73
     7
 74
     0
 42
1.000000000000000e-07
 43
1.000000000000000e-07
 12
-0.1856279225988544
 22
-0.9826201068325418
 32
0.000000000000000
 13
0.03124752060634250
 23
-0.9995116769982815
 33
0.000000000000000
 40
0.000000000000000
 40
0.000000000000000
 40
0.000000000000000
 40
0.000000000000000
 40
0.7914465647295689
 40
1.590206842745171
 40
2.402401426320829
 40
3.219441277696514
 40
3.219441277696514
 40
3.219441277696514
 40
3.219441277696514
 10
60.15306329885402
 20
231.3555896173492
 30
0.000000000000000
 10
60.10409177163444
 20
231.0963591813536
 30
0.000000000000000
 10
60.01968762780933
 20
230.5727461503567
 30
0.000000000000000
 10
59.93534059426594
 20
229.7760162881622
 30
0.000000000000000
 10
59.89414216992407
 20
228.9673434555368
 30
0.000000000000000
 10
59.89621623367697
 20
228.4239483182902
 30
0.000000000000000
 10
59.90472639020766
 20
228.1517346942826
 30
0.000000000000000
  0
SPLINE
  5
A2
100
AcDbEntity
  8
A1
  6
CONTINUOUS
 62
7
100
AcDbSpline
210
0.000000000000000
220
0.000000000000000
230
1.000000000000000
 70
     8
 71
     3
 72
    21
 73
    17
 74
     0
 42
1.000000000000000e-07
 43
1.000000000000000e-07
 12
0.3487822718971927
 22
0.9372037808343521
 32
0.000000000000000
 13
0.8836123241493965
 23
0.4682192441711095
 33
0.000000000000000
 40
0.000000000000000
 40
0.000000000000000
 40
0.000000000000000
 40
0.000000000000000
 40
1.225740484462071
 40
2.453913836498614
 40
3.683165634677519
 40
4.912159740516440
 40
6.213838741932179
 40
7.518953095583121
 40
8.825796046006646
 40
9.838049640171274
 40
10.85333447795862
 40
11.87075419624180
 40
12.88943707123613
 40
14.17275587856311
 40
15.46104869821436
 40
16.23992769998386
 40
16.23992769998386
 40
16.23992769998386
 40
16.23992769998386
 10
60.95015219696705
 20
234.2226585903650
 30
0.000000000000000
 10
61.09265771394274
 20
234.6055814624849
 30
0.000000000000000
 10
61.39902129974473
 20
235.3645395896928
 30
0.000000000000000
 10
61.92089590133196
 20
236.4764716664854
 30
0.000000000000000
 10
62.50337900782944
 20
237.5591601984616
 30
0.000000000000000
 10
63.15736395932316
 20
238.6290534285874
 30
0.000000000000000
 10
63.88587397804417
 20
239.6807070858731
 30
0.000000000000000
 10
64.69035707590854
 20
240.7085877342817
 30
0.000000000000000
 10
65.48964705249045
 20
241.6154059191850
 30
0.000000000000000
 10
66.26740504093607
 20
242.4099161060149
 30
0.000000000000000
 10
67.00983546945565
 20
243.1025246175299
 30
0.000000000000000
 10
67.78451845102802
 20
243.7621708443804
 30
0.000000000000000
 10
68.65902111189706
 20
244.4406631283274
 30
0.000000000000000
 10
69.64187602145495
 20
245.1246660393988
 30
0.000000000000000
 10
70.59416064143977
 20
245.7093809861410
 30
0.000000000000000
 10
71.19746195232523
 20
246.0425822030242
 30
0.000000000000000
 10
71.42687098065346
 20
246.1641442488606
 30
0.000000000000000
  0
ARC
  5
A3
100
AcDbEntity
  8
A1
  6
CONTINUOUS
 62
7
100
AcDbCircle
 10
77.44292953046147
 20
228.6981624149848
 30
0.000000000000000
 40
17.54671344277210
100
AcDbArc
 50
181.7845544031344
 51
249.3131797375810
  0
ARC
  5
A4
100
AcDbEntity
  8
A1
  6
CONTINUOUS
 62
7
100
AcDbCircle
 10
77.45478014283873
 20
228.0897843998964
 30
0.000000000000000
 40
17.60723968905306
100
AcDbArc
 50
159.6156829267179
 51
169.3108335908821
  0
ARC
  5
A5
100
AcDbEntity
  8
A1
  6
CONTINUOUS
 62
7
100
AcDbCircle
 10
77.44292953046147
 20
228.6981624149848
 30
0.000000000000000
 40
4.600000000000000
100
AcDbArc
 50
30.24847727223437
 51
36.26210000103747
  0
ARC
  5
A6
100
AcDbEntity
  8
A1
  6
CONTINUOUS
 62
7
100
AcDbCircle
 10
77.44292953046147
 20
228.6981624149848
 30
0.000000000000000
 40
4.600000000000000
100
AcDbArc
 50
306.2620999987925
 51
313.7668502352889
  0
ARC
  5
A7
100
AcDbEntity
  8
A1
  6
CONTINUOUS
 62
7
100
AcDbCircle
 10
77.44292953046147
 20
228.6981624149848
 30
0.000000000000000
 40
4.600000000000000
100
AcDbArc
 50
209.0458739469246
 51
216.2620999989679
  0
ARC
  5
A8
100
AcDbEntity
  8
A1
  6
CONTINUOUS
 62
7
100
AcDbCircle
 10
77.44292953046147
 20
228.6981624149848
 30
0.000000000000000
 40
4.600000000000000
100
AcDbArc
 50
126.2621000012022
 51
133.7668502355939
  0
LINE
  5
A9
100
AcDbEntity
  8
A1
  6
CONTINUOUS
 62
7
100
AcDbLine
 10
71.44040330168013
 20
202.8095610356089
 30
0.000000000000000
 11
73.41719053084103
 21
202.5057317239445
 31
0.000000000000000
  0
LINE
  5
AA
100
AcDbEntity
  8
A1
  6
CONTINUOUS
 62
7
100
AcDbLine
 10
71.89804397251451
 20
192.6217955781138
 30
0.000000000000000
 11
69.92125674335364
 21
192.9256248897782
 31
0.000000000000000
  0
SPLINE
  5
AB
100
AcDbEntity
  8
A1
  6
CONTINUOUS
 62
7
100
AcDbSpline
210
0.000000000000000
220
0.000000000000000
230
1.000000000000000
 70
     8
 71
     3
 72
    18
 73
    14
 74
     0
 42
1.000000000000000e-07
 43
1.000000000000000e-07
 12
0.1765955706559907
 22
-0.9842834979936015
 32
0.000000000000000
 13
0.7554749290145537
 23
-0.6551775573313989
 33
0.000000000000000
 40
0.000000000000000
 40
0.000000000000000
 40
0.000000000000000
 40
0.000000000000000
 40
0.01580806844326280
 40
0.5524923547053451
 40
1.091646456126818
 40
1.634209778725684
 40
2.192625687895582
 40
2.761047912253172
 40
3.339236864689125
 40
3.927258697809820
 40
4.423022091917585
 40
4.927933720166633
 40
5.436292747908708
 40
5.436292747908708
 40
5.436292747908708
 40
5.436292747908708
 10
69.56866037874744
 20
227.2854043584285
 30
0.000000000000000
 10
69.56959092370334
 20
227.2802178181272
 30
0.000000000000000
 10
69.60230332507984
 20
227.0989830155436
 30
0.000000000000000
 10
69.67927402057813
 20
226.7430062818145
 30
0.000000000000000
 10
69.82863919008173
 20
226.2242226114911
 30
0.000000000000000
 10
70.01517716050006
 20
225.7098681069159
 30
0.000000000000000
 10
70.24070751634576
 20
225.2006569702794
 30
0.000000000000000
 10
70.50705626079133
 20
224.6980482060019
 30
0.000000000000000
 10
70.81385369756566
 20
224.2073626514583
 30
0.000000000000000
 10
71.14116273336754
 20
223.7597495724860
 30
0.000000000000000
 10
71.48269605067674
 20
223.3545979056226
 30
0.000000000000000
 10
71.83016177140377
 20
222.9904529182247
 30
0.000000000000000
 10
72.07845451407752
 20
222.7610843005088
 30
0.000000000000000
 10
72.20647201420996
 20
222.6500624918276
 30
0.000000000000000
  0
SPLINE
  5
AC
100
AcDbEntity
  8
A1
  6
CONTINUOUS
 62
7
100
AcDbSpline
210
0.000000000000000
220
0.000000000000000
230
1.000000000000000
 70
     8
 71
     3
 72
    18
 73
    14
 74
     0
 42
1.000000000000000e-07
 43
1.000000000000000e-07
 12
-0.7554750550851850
 22
-0.6551774119607217
 32
0.000000000000000
 13
-0.1765957600691763
 23
-0.9842834640003275
 33
0.000000000000000
 40
0.000000000000000
 40
0.000000000000000
 40
0.000000000000000
 40
0.000000000000000
 40
0.5083590277420978
 40
1.013270655991174
 40
1.509034050098903
 40
2.097055883219642
 40
2.675244835655607
 40
3.243667060013181
 40
3.802082969183122
 40
4.344646291756678
 40
4.883800393153363
 40
5.420484679469261
 40
5.436292747909158
 40
5.436292747909158
 40
5.436292747909158
 40
5.436292747909158
 10
72.20647317800086
 20
234.7462633457542
 30
0.000000000000000
 10
72.07845565650535
 20
234.6352415617066
 30
0.000000000000000
 10
71.83016286969593
 20
234.4058729917676
 30
0.000000000000000
 10
71.48269707889904
 20
234.0417280712302
 30
0.000000000000000
 10
71.14116368362977
 20
233.6365764700854
 30
0.000000000000000
 10
70.81385456169676
 20
233.1889634540949
 30
0.000000000000000
 10
70.50705703050374
 20
232.6982779585859
 30
0.000000000000000
 10
70.24070818934456
 20
232.1956692455600
 30
0.000000000000000
 10
70.01517773551967
 20
231.6864581523279
 30
0.000000000000000
 10
69.82863966612825
 20
231.1721036836647
 30
0.000000000000000
 10
69.67927439679465
 20
230.6533200420824
 30
0.000000000000000
 10
69.60230363280277
 20
230.2973433231539
 30
0.000000000000000
 10
69.56959119654772
 20
230.1161085268490
 30
0.000000000000000
 10
69.56866065059393
 20
230.1109219867280
 30
0.000000000000000
  0
CIRCLE
  5
AD
100
AcDbEntity
  8
A1
  6
CONTINUOUS
 62
7
100
AcDbCircle
 10
80.44292953046147
 20
251.6981624149848
 30
0.000000000000000
 40
4.714213562370503
  0
CIRCLE
  5
AE
100
AcDbEntity
  8
A1
  6
CONTINUOUS
 62
7
100
AcDbCircle
 10
80.44292953046147
 20
205.6981624149848
 30
0.000000000000000
 40
4.714213562370503
  0
CIRCLE
  5
AF
100
AcDbEntity
  8
A1
  6
CONTINUOUS
 62
7
100
AcDbCircle
 10
80.44292953046147
 20
205.6981624149848
 30
0.000000000000000
 40
2.249999999977773
  0
CIRCLE
  5
B0
100
AcDbEntity
  8
A1
  6
CONTINUOUS
 62
7
100
AcDbCircle
 10
80.44292953046147
 20
205.6981624149848
 30
0.000000000000000
 40
3.249999999977549
  0
CIRCLE
  5
B1
100
AcDbEntity
  8
A1
  6
CONTINUOUS
 62
7
100
AcDbCircle
 10
80.44292953046147
 20
251.6981624149848
 30
0.000000000000000
 40
2.249999999977773
  0
CIRCLE
  5
B2
100
AcDbEntity
  8
A1
  6
CONTINUOUS
 62
7
100
AcDbCircle
 10
80.44292953046147
 20
251.6981624149848
 30
0.000000000000000
 40
3.249999999977549
  0
ARC
  5
B3
100
AcDbEntity
  8
A1
  6
CONTINUOUS
 62
7
100
AcDbCircle
 10
77.44292953046147
 20
228.6981624149848
 30
0.000000000000000
 40
4.650000000000000
100
AcDbArc
 50
210.0663165062358
 51
216.2620999989785
  0
ARC
  5
B4
100
AcDbEntity
  8
A1
  6
CONTINUOUS
 62
7
100
AcDbCircle
 10
77.44292953046147
 20
228.6981624149848
 30
0.000000000000000
 40
4.650000000000000
100
AcDbArc
 50
126.2621000011898
 51
134.2380256784533
  0
ARC
  5
B5
100
AcDbEntity
  8
A1
  6
CONTINUOUS
 62
7
100
AcDbCircle
 10
77.44292953046147
 20
228.6981624149848
 30
0.000000000000000
 40
4.650000000000000
100
AcDbArc
 50
31.10588405585684
 51
36.26210000102677
  0
ARC
  5
B6
100
AcDbEntity
  8
A1
  6
CONTINUOUS
 62
7
100
AcDbCircle
 10
77.44292953046147
 20
228.6981624149848
 30
0.000000000000000
 40
4.650000000000000
100
AcDbArc
 50
306.2620999988047
 51
314.2380256781532
  0
ARC
  5
B7
100
AcDbEntity
  8
A1
  6
CONTINUOUS
 62
7
100
AcDbCircle
 10
77.44292953046147
 20
228.6981624149848
 30
0.000000000000000
 40
8.000000000000000
100
AcDbArc
 50
169.8285124879119
 51
190.1714764870875
  0
ARC
  5
B8
100
AcDbEntity
  8
A1
  6
CONTINUOUS
 62
7
100
AcDbCircle
 10
83.44292953046147
 20
255.6981572233233
 30
0.000000000000000
 40
4.999999999999998
100
AcDbArc
 50
359.9999950000002
 51
469.5797714976859
  0
ARC
  5
B9
100
AcDbEntity
  8
A1
  6
CONTINUOUS
 62
7
100
AcDbCircle
 10
81.39471153046156
 20
250.7241282233233
 30
0.000000000000000
 40
9.000000000000000
100
AcDbArc
 50
109.5797870000000
 51
169.8285124879113
  0
ARC
  5
BA
100
AcDbEntity
  8
A1
  6
CONTINUOUS
 62
7
100
AcDbCircle
 10
77.44292953046147
 20
228.6981624149848
 30
0.000000000000000
 40
9.000000000000000
100
AcDbArc
 50
169.8285124879119
 51
190.1714764870875
  0
ARC
  5
BB
100
AcDbEntity
  8
A1
  6
CONTINUOUS
 62
7
100
AcDbCircle
 10
81.39471153046156
 20
206.6721722233234
 30
0.000000000000000
 40
9.000000000000000
100
AcDbArc
 50
190.1714764870874
 51
250.4202292263142
  0
ARC
  5
BC
100
AcDbEntity
  8
A1
  6
CONTINUOUS
 62
7
100
AcDbCircle
 10
83.44291740810883
 20
201.6981710461349
 30
0.000000000000000
 40
5.000012122369524
100
AcDbArc
 50
250.4202034894889
 51
359.9998506026091
  0
ARC
  5
BD
100
AcDbEntity
  8
A1
  6
CONTINUOUS
 62
7
100
AcDbCircle
 10
83.44291740810883
 20
201.6981710461349
 30
0.000000000000000
 40
4.000012122369524
100
AcDbArc
 50
250.4202034894889
 51
359.9998506026091
  0
ARC
  5
BE
100
AcDbEntity
  8
A1
  6
CONTINUOUS
 62
7
100
AcDbCircle
 10
81.39471153046156
 20
206.6721722233234
 30
0.000000000000000
 40
8.000000000000000
100
AcDbArc
 50
190.1714764870874
 51
250.4202324434168
  0
ARC
  5
BF
100
AcDbEntity
  8
A1
  6
CONTINUOUS
 62
7
100
AcDbCircle
 10
81.39471153046156
 20
250.7241282233233
 30
0.000000000000000
 40
8.000000000000000
100
AcDbArc
 50
109.5797870000000
 51
169.8285124879113
  0
ARC
  5
C0
100
AcDbEntity
  8
A1
  6
CONTINUOUS
 62
7
100
AcDbCircle
 10
83.44292953046147
 20
255.6981572233233
 30
0.000000000000000
 40
3.999999999999998
100
AcDbArc
 50
359.9999950000002
 51
469.5797305661956
  0
LINE
  5
C1
100
AcDbEntity
  8
A1
  6
CONTINUOUS
 62
7
100
AcDbLine
 10
69.56866065059415
 20
230.1109219867281
 30
0.000000000000000
 11
73.52044265059403
 21
252.1368877950668
 31
0.000000000000000
  0
LINE
  5
C2
100
AcDbEntity
  8
A1
  6
CONTINUOUS
 62
7
100
AcDbLine
 10
88.44292953046147
 20
255.6981567869909
 30
0.000000000000000
 11
88.44292953046147
 21
201.6981580087214
 31
0.000000000000000
  0
LINE
  5
C3
100
AcDbEntity
  8
A1
  6
CONTINUOUS
 62
7
100
AcDbLine
 10
78.37863867061286
 20
259.2037098464982
 30
0.000000000000000
 11
81.76733553046144
 21
260.4090342233235
 31
0.000000000000000
  0
LINE
  5
C4
100
AcDbEntity
  8
A1
  6
CONTINUOUS
 62
7
100
AcDbLine
 10
68.58437704061062
 20
230.2875169331960
 30
0.000000000000000
 11
72.53615904061050
 21
252.3134827415348
 31
0.000000000000000
  0
LINE
  5
C5
100
AcDbEntity
  8
A1
  6
CONTINUOUS
 62
7
100
AcDbLine
 10
72.53615873478323
 20
205.0828194096977
 30
0.000000000000000
 11
68.58437673478309
 21
227.1088096013590
 31
0.000000000000000
  0
LINE
  5
C6
100
AcDbEntity
  8
A1
  6
CONTINUOUS
 62
7
100
AcDbLine
 10
81.76731653046150
 20
196.9872812233233
 30
0.000000000000000
 11
78.37864053046134
 21
198.1925882233232
 31
0.000000000000000
  0
LINE
  5
C7
100
AcDbEntity
  8
A1
  6
CONTINUOUS
 62
7
100
AcDbLine
 10
87.44292953046144
 20
255.6981568742575
 30
0.000000000000000
 11
87.44292953046480
 21
201.6981606161978
 31
0.000000000000000
  0
LINE
  5
C8
100
AcDbEntity
  8
A1
  6
CONTINUOUS
 62
7
100
AcDbLine
 10
82.10243589350277
 20
197.9294569036054
 30
0.000000000000000
 11
78.71375989350281
 21
199.1347639036053
 31
0.000000000000000
  0
LINE
  5
C9
100
AcDbEntity
  8
A1
  6
CONTINUOUS
 62
7
100
AcDbLine
 10
73.52044237874733
 20
205.2594141667670
 30
0.000000000000000
 11
69.56866037874724
 21
227.2854043584284
 31
0.000000000000000
  0
LINE
  5
CA
100
AcDbEntity
  8
A1
  6
CONTINUOUS
 62
7
100
AcDbLine
 10
78.71375787726276
 20
258.2615341105898
 30
0.000000000000000
 11
82.10245717450849
 21
259.4668593543681
 31
0.000000000000000
  0
CIRCLE
  5
CB
100
AcDbEntity
  8
A1
  6
CONTINUOUS
 62
7
100
AcDbCircle
 10
77.44292953039212
 20
228.6981624149155
 30
0.000000000000000
 40
0.9999999999307648
  0
ARC
  5
CC
100
AcDbEntity
  8
A1
  6
CONTINUOUS
 62
7
100
AcDbCircle
 10
83.08520678270503
 20
226.0098158213836
 30
0.000000000000000
 40
0.9999999999999996
100
AcDbArc
 50
261.2620999999999
 51
334.5238432386237
  0
ARC
  5
CD
100
AcDbEntity
  8
A1
  6
CONTINUOUS
 62
7
100
AcDbCircle
 10
77.44292953033425
 20
228.6981624149945
 30
0.000000000000000
 40
7.250000000000000
100
AcDbArc
 50
334.5238432386237
 51
368.0003567613765
  0
ARC
  5
CE
100
AcDbEntity
  8
A1
  6
CONTINUOUS
 62
7
100
AcDbCircle
 10
83.63209954370114
 20
229.5680328338732
 30
0.000000000000000
 40
1.000000000000000
100
AcDbArc
 50
8.000356761376491
 51
81.26210000000000
  0
ARC
  5
CF
100
AcDbEntity
  8
A1
  6
CONTINUOUS
 62
7
100
AcDbCircle
 10
71.80065227796342
 20
231.3865090086053
 30
0.000000000000000
 40
1.000000000000000
100
AcDbArc
 50
81.26210000000000
 51
154.5238432386236
  0
ARC
  5
D0
100
AcDbEntity
  8
A1
  6
CONTINUOUS
 62
7
100
AcDbCircle
 10
77.44292953033425
 20
228.6981624149945
 30
0.000000000000000
 40
7.250000000000001
100
AcDbArc
 50
154.5238432386236
 51
188.0003567613763
  0
ARC
  5
D1
100
AcDbEntity
  8
A1
  6
CONTINUOUS
 62
7
100
AcDbCircle
 10
71.25375951696736
 20
227.8282919961157
 30
0.000000000000000
 40
0.9999999999999998
100
AcDbArc
 50
188.0003567613763
 51
261.2620999999999
  0
ARC
  5
D2
100
AcDbEntity
  8
A1
  6
CONTINUOUS
 62
7
100
AcDbCircle
 10
74.60012476339864
 20
234.2642167676835
 30
0.000000000000000
 40
1.000000000000000
100
AcDbArc
 50
117.0552037786889
 51
216.2620999999969
  0
ARC
  5
D3
100
AcDbEntity
  8
A1
  6
CONTINUOUS
 62
7
100
AcDbCircle
 10
81.82602399492623
 20
233.1536066032279
 30
0.000000000000000
 40
1.000000000000000
100
AcDbArc
 50
306.2621000000031
 51
405.4689962213112
  0
ARC
  5
D4
100
AcDbEntity
  8
A1
  6
CONTINUOUS
 62
7
100
AcDbCircle
 10
77.44292953033425
 20
228.6981624149945
 30
0.000000000000000
 40
7.250000000000000
100
AcDbArc
 50
45.46899622131120
 51
117.0552037786888
  0
ARC
  5
D5
100
AcDbEntity
  8
A1
  6
CONTINUOUS
 62
7
100
AcDbCircle
 10
80.28573429726657
 20
223.1321080623038
 30
0.000000000000000
 40
1.000000000000000
100
AcDbArc
 50
297.0552037786545
 51
396.2620999999979
  0
ARC
  5
D6
100
AcDbEntity
  8
A1
  6
CONTINUOUS
 62
7
100
AcDbCircle
 10
73.05983506574495
 20
224.2427182267584
 30
0.000000000000000
 40
1.000000000000000
100
AcDbArc
 50
126.2621000000022
 51
225.4689962213455
  0
ARC
  5
D7
100
AcDbEntity
  8
A1
  6
CONTINUOUS
 62
7
100
AcDbCircle
 10
77.44292953033425
 20
228.6981624149945
 30
0.000000000000000
 40
7.250000000000000
100
AcDbArc
 50
225.4689962213455
 51
297.0552037786545
  0
ARC
  5
D8
100
AcDbEntity
  8
A1
  6
CONTINUOUS
 62
7
100
AcDbCircle
 10
77.44292953033425
 20
228.6981624149945
 30
0.000000000000000
 40
4.000000000000000
100
AcDbArc
 50
36.26209999994472
 51
126.2621000000552
  0
ARC
  5
D9
100
AcDbEntity
  8
A1
  6
CONTINUOUS
 62
7
100
AcDbCircle
 10
77.44292953033425
 20
228.6981624149945
 30
0.000000000000000
 40
4.000000000000000
100
AcDbArc
 50
216.2620999999983
 51
306.2621000000017
  0
LINE
  5
DA
100
AcDbEntity
  8
A1
  6
CONTINUOUS
 62
7
100
AcDbLine
 10
75.10078844583920
 20
231.8910255721501
 30
0.000000000000000
 11
75.07700975413137
 21
231.9234412576021
 31
0.000000000000000
  0
LINE
  5
DB
100
AcDbEntity
  8
A1
  6
CONTINUOUS
 62
7
100
AcDbLine
 10
74.25006637317848
 20
226.3560213304996
 30
0.000000000000000
 11
74.21765068772650
 21
226.3322426387918
 31
0.000000000000000
  0
LINE
  5
DC
100
AcDbEntity
  8
A1
  6
CONTINUOUS
 62
7
100
AcDbLine
 10
79.78507061482941
 20
225.5052992578389
 30
0.000000000000000
 11
79.80884930653717
 21
225.4728835723869
 31
0.000000000000000
  0
LINE
  5
DD
100
AcDbEntity
  8
A1
  6
CONTINUOUS
 62
7
100
AcDbLine
 10
80.63579268748994
 20
231.0403034994893
 30
0.000000000000000
 11
80.66820837294192
 21
231.0640821911971
 31
0.000000000000000
  0
LINE
  5
DE
100
AcDbEntity
  8
A1
  6
CONTINUOUS
 62
7
100
AcDbLine
 10
74.48552981007761
 20
232.7297609682516
 30
0.000000000000000
 11
73.79380505274658
 21
233.6727368236327
 31
0.000000000000000
  0
LINE
  5
DF
100
AcDbEntity
  8
A1
  6
CONTINUOUS
 62
7
100
AcDbLine
 10
82.41750393897702
 20
232.3472868925759
 30
0.000000000000000
 11
81.47452808359604
 21
231.6555621352448
 31
0.000000000000000
  0
LINE
  5
E0
100
AcDbEntity
  8
A1
  6
CONTINUOUS
 62
7
100
AcDbLine
 10
72.46835512169417
 20
225.0490379374103
 30
0.000000000000000
 11
73.41133097707467
 21
225.7407626947410
 31
0.000000000000000
  0
LINE
  5
E1
100
AcDbEntity
  8
A1
  6
CONTINUOUS
 62
7
100
AcDbLine
 10
80.40032925058779
 20
224.6665638617349
 30
0.000000000000000
 11
81.09205400791849
 21
223.7235880063544
 31
0.000000000000000
  0
LINE
  5
E2
100
AcDbEntity
  8
A1
  6
CONTINUOUS
 62
7
100
AcDbLine
 10
75.07700975413171
 20
231.9234412576022
 30
0.000000000000000
 11
74.48552981008100
 21
232.7297609682542
 31
0.000000000000000
  0
LINE
  5
E3
100
AcDbEntity
  8
A1
  6
CONTINUOUS
 62
7
100
AcDbLine
 10
81.47452808359374
 20
231.6555621352482
 30
0.000000000000000
 11
80.66820837294181
 21
231.0640821911975
 31
0.000000000000000
  0
LINE
  5
E4
100
AcDbEntity
  8
A1
  6
CONTINUOUS
 62
7
100
AcDbLine
 10
79.80884930653689
 20
225.4728835723868
 30
0.000000000000000
 11
80.40032925058759
 21
224.6665638617348
 31
0.000000000000000
  0
LINE
  5
E5
100
AcDbEntity
  8
A1
  6
CONTINUOUS
 62
7
100
AcDbLine
 10
73.41133097707483
 20
225.7407626947408
 30
0.000000000000000
 11
74.21765068772673
 21
226.3322426387915
 31
0.000000000000000
  0
ARC
  5
E6
100
AcDbEntity
  8
A1
  6
CONTINUOUS
 62
7
100
AcDbCircle
 10
1808.084649956536
 20
7774.288531252492
 30
0.000000000000000
 40
7742.244324247553
100
AcDbArc
 50
257.5423438497217
 51
257.6143329366876
  0
ARC
  5
E7
100
AcDbEntity
  8
A1
  6
CONTINUOUS
 62
7
100
AcDbCircle
 10
206.4429295304170
 20
251.6981624152796
 30
0.000000000000000
 40
4.300000000000000
100
AcDbArc
 50
309.2796893174266
 51
631.6732146095223
  0
CIRCLE
  5
E8
100
AcDbEntity
  8
A1
  6
CONTINUOUS
 62
7
100
AcDbCircle
 10
206.4429295304170
 20
205.6981624152796
 30
0.000000000000000
 40
4.300000000000000
  0
LINE
  5
E9
100
AcDbEntity
  8
A4
  6
CENTER
 62
1
100
AcDbLine
 10
212.2429295304169
 20
205.6981624152796
 30
0.000000000000000
 11
200.6429295304169
 21
205.6981624152796
 31
0.000000000000000
  0
LINE
  5
EA
100
AcDbEntity
  8
A4
  6
CENTER
 62
1
100
AcDbLine
 10
206.4429295304170
 20
211.4981624152796
 30
0.000000000000000
 11
206.4429295304170
 21
199.8981624152796
 31
0.000000000000000
  0
LINE
  5
EB
100
AcDbEntity
  8
A4
  6
CENTER
 62
1
100
AcDbLine
 10
212.2429295304169
 20
251.6981624152796
 30
0.000000000000000
 11
200.6429295304169
 21
251.6981624152796
 31
0.000000000000000
  0
LINE
  5
EC
100
AcDbEntity
  8
A4
  6
CENTER
 62
1
100
AcDbLine
 10
206.4429295304170
 20
257.4981624152796
 30
0.000000000000000
 11
206.4429295304170
 21
245.8981624152796
 31
0.000000000000000
  0
LINE
  5
ED
100
AcDbEntity
  8
A4
  6
CENTER
 62
1
100
AcDbLine
 10
198.9429295304170
 20
228.6981624152796
 30
0.000000000000000
 11
217.4429295304863
 21
228.6981624152103
 31
0.000000000000000
  0
LINE
  5
EE
100
AcDbEntity
  8
A4
  6
CENTER
 62
1
100
AcDbLine
 10
209.4429295304862
 20
220.6981624152103
 30
0.000000000000000
 11
209.4429295304862
 21
236.6981624152103
 31
0.000000000000000
  0
LINE
  5
EF
100
AcDbEntity
  8
A4
  6
CENTER
 62
1
100
AcDbLine
 10
126.9429295304174
 20
228.6981624151113
 30
0.000000000000000
 11
140.9429295304174
 21
228.6981624151113
 31
0.000000000000000
  0
LINE
  5
F0
100
AcDbEntity
  8
A1
  6
CONTINUOUS
 62
7
100
AcDbLine
 10
211.9499388663538
 20
212.3869513227188
 30
0.000000000000000
 11
214.9878144682999
 21
192.6217954830544
 31
0.000000000000000
  0
LINE
  5
F1
100
AcDbEntity
  8
A1
  6
CONTINUOUS
 62
7
100
AcDbLine
 10
214.3335591726874
 20
210.0438300414875
 30
0.000000000000000
 11
216.9646023175325
 21
192.9256248900231
 31
0.000000000000000
  0
LINE
  5
F2
100
AcDbEntity
  8
A1
  6
CONTINUOUS
 62
7
100
AcDbLine
 10
128.4429295304174
 20
196.6981589239613
 30
0.000000000000000
 11
128.4429295304174
 21
260.6981572235191
 31
0.000000000000000
  0
LINE
  5
F3
100
AcDbEntity
  8
A1
  6
CONTINUOUS
 62
7
100
AcDbLine
 10
133.4429295304174
 20
198.6981589239613
 30
0.000000000000000
 11
133.4429295304174
 21
258.6981572235191
 31
0.000000000000000
  0
LINE
  5
F4
100
AcDbEntity
  8
A1
  6
CONTINUOUS
 62
7
100
AcDbLine
 10
134.9429295304174
 20
215.0126266756644
 30
0.000000000000000
 11
134.9429295304174
 21
245.6398171511112
 31
0.000000000000000
  0
LINE
  5
F5
100
AcDbEntity
  8
A1
  6
CONTINUOUS
 62
7
100
AcDbLine
 10
136.9429295304174
 20
216.0845456546180
 30
0.000000000000000
 11
136.9429295304174
 21
245.6398171511113
 31
0.000000000000000
  0
LINE
  5
F6
100
AcDbEntity
  8
A1
  6
CONTINUOUS
 62
7
100
AcDbLine
 10
148.4429295304170
 20
196.5753699412771
 30
0.000000000000000
 11
148.4429295304170
 21
228.1517346944784
 31
0.000000000000000
  0
LINE
  5
F7
100
AcDbEntity
  8
A1
  6
CONTINUOUS
 62
7
100
AcDbLine
 10
71.89804459258612
 20
192.6217954828095
 30
0.000000000000000
 11
73.41719115091260
 21
202.5057316286402
 31
0.000000000000000
  0
LINE
  5
F8
100
AcDbEntity
  8
A1
  6
CONTINUOUS
 62
7
100
AcDbLine
 10
69.92125674335367
 20
192.9256248897780
 30
0.000000000000000
 11
72.13417022212286
 21
207.3233769700630
 31
0.000000000000000
  0
LINE
  5
F9
100
AcDbEntity
  8
A4
  6
CENTER
 62
1
100
AcDbLine
 10
134.9429295304174
 20
251.6981624151805
 30
0.000000000000000
 11
126.9429295304174
 21
251.6981624151805
 31
0.000000000000000
  0
LINE
  5
FA
100
AcDbEntity
  8
A4
  6
CENTER
 62
1
100
AcDbLine
 10
134.9429295304174
 20
205.6981624151805
 30
0.000000000000000
 11
126.9429295304174
 21
205.6981624151805
 31
0.000000000000000
  0
LINE
  5
FB
100
AcDbEntity
  8
A4
  6
CENTER
 62
1
100
AcDbLine
 10
86.65714309283197
 20
251.6981624149848
 30
0.000000000000000
 11
74.22871596809097
 21
251.6981624149848
 31
0.000000000000000
  0
LINE
  5
FC
100
AcDbEntity
  8
A4
  6
CENTER
 62
1
100
AcDbLine
 10
80.44292953046147
 20
257.9123759773553
 30
0.000000000000000
 11
80.44292953046147
 21
245.4839488526142
 31
0.000000000000000
  0
LINE
  5
FD
100
AcDbEntity
  8
A4
  6
CENTER
 62
1
100
AcDbLine
 10
77.44292953046147
 20
238.1981624149848
 30
0.000000000000000
 11
77.44292953046147
 21
219.1981624149848
 31
0.000000000000000
  0
LINE
  5
FE
100
AcDbEntity
  8
A4
  6
CENTER
 62
1
100
AcDbLine
 10
86.65714309283197
 20
205.6981624149848
 30
0.000000000000000
 11
74.22871596809097
 21
205.6981624149848
 31
0.000000000000000
  0
LINE
  5
FF
100
AcDbEntity
  8
A4
  6
CENTER
 62
1
100
AcDbLine
 10
80.44292953046147
 20
211.9123759773553
 30
0.000000000000000
 11
80.44292953046147
 21
199.4839488526142
 31
0.000000000000000
  0
LINE
  5
100
100
AcDbEntity
  8
A4
  6
CENTER
 62
1
100
AcDbLine
 10
67.94292953046138
 20
228.6981624149848
 30
0.000000000000000
 11
86.94292953046147
 21
228.6981624149848
 31
0.000000000000000
  0
LINE
  5
101
100
AcDbEntity
  8
A1
  6
CONTINUOUS
 62
7
100
AcDbLine
 10
81.37433369097198
 20
217.2248228798568
 30
0.000000000000000
 11
82.66965052962797
 21
231.5474772658569
 31
0.000000000000000
  0
ARC
  5
102
100
AcDbEntity
  8
A1
  6
CONTINUOUS
 62
7
100
AcDbCircle
 10
82.37026906266527
 20
217.1347521553670
 30
0.000000000000000
 40
2.200000000000000
100
AcDbArc
 50
174.8323241694605
 51
207.0862276947982
  0
ARC
  5
103
100
AcDbEntity
  8
A1
  6
CONTINUOUS
 62
7
100
AcDbCircle
 10
82.37026906266527
 20
217.1347521553668
 30
0.000000000000000
 40
1.000000000000000
100
AcDbArc
 50
174.8323241694607
 51
207.0862276947988
  0
ARC
  5
104
100
AcDbEntity
  8
A1
  6
CONTINUOUS
 62
7
100
AcDbCircle
 10
93.41116223297797
 20
225.8229194680507
 30
0.000000000000000
 40
20.00000000000000
100
AcDbArc
 50
176.3114015294423
 51
180.2353624892191
  0
ARC
  5
105
100
AcDbEntity
  8
A1
  6
CONTINUOUS
 62
7
100
AcDbCircle
 10
93.41116223297797
 20
225.8229194680507
 30
0.000000000000000
 40
21.20000000000000
100
AcDbArc
 50
176.3114015294423
 51
182.7420369348050
  0
LINE
  5
106
100
AcDbEntity
  8
A1
  6
CONTINUOUS
 62
7
100
AcDbLine
 10
73.85701613797933
 20
252.0356317621750
 30
0.000000000000000
 11
72.25507930347473
 21
227.1867944916437
 31
0.000000000000000
  0
LINE
  5
107
100
AcDbEntity
  8
A1
  6
CONTINUOUS
 62
7
100
AcDbLine
 10
72.31937970911089
 20
223.5706126808566
 30
0.000000000000000
 11
73.72471287390496
 21
204.3981624149847
 31
0.000000000000000
  0
LINE
  5
108
100
AcDbEntity
  8
A1
  6
CONTINUOUS
 62
7
100
AcDbLine
 10
73.59725073357220
 20
222.5521674107553
 30
0.000000000000000
 11
74.92150210644790
 21
204.4858866013271
 31
0.000000000000000
  0
LINE
  5
109
100
AcDbEntity
  8
A1
  6
CONTINUOUS
 62
7
100
AcDbLine
 10
74.92150210644786
 20
204.4858866013270
 30
0.000000000000000
 11
73.72471287390498
 21
204.3981624149848
 31
0.000000000000000
  0
LINE
  5
10A
100
AcDbEntity
  8
A1
  6
CONTINUOUS
 62
7
100
AcDbLine
 10
82.73063517431682
 20
232.7273688595665
 30
0.000000000000000
 11
82.67177672714729
 21
231.5709871835212
 31
0.000000000000000
  0
LINE
  5
10B
100
AcDbEntity
  8
A1
  6
CONTINUOUS
 62
7
100
AcDbLine
 10
83.34422236325932
 20
244.7824096577975
 30
0.000000000000000
 11
82.76923801968010
 21
233.4857922493771
 31
0.000000000000000
  0
LINE
  5
10C
100
AcDbEntity
  8
A1
  6
CONTINUOUS
 62
7
100
AcDbLine
 10
81.40814918529748
 20
230.9215934331621
 30
0.000000000000000
 11
80.63579268748998
 21
231.0403034994893
 31
0.000000000000000
  0
LINE
  5
10D
100
AcDbEntity
  8
A1
  6
CONTINUOUS
 62
7
100
AcDbLine
 10
83.78401419953343
 20
230.5564264484535
 30
0.000000000000000
 11
82.59652789845785
 21
230.7389413595904
 31
0.000000000000000
  0
LINE
  5
10E
100
AcDbEntity
  8
A1
  6
CONTINUOUS
 62
7
100
AcDbLine
 10
80.90277230535318
 20
225.3335101394815
 30
0.000000000000000
 11
79.78507061482944
 21
225.5052992578391
 31
0.000000000000000
  0
LINE
  5
10F
100
AcDbEntity
  8
A1
  6
CONTINUOUS
 62
7
100
AcDbLine
 10
82.93329212687279
 20
225.0214222068032
 30
0.000000000000000
 11
82.09115101851351
 21
225.1508580659097
 31
0.000000000000000
  0
LINE
  5
110
100
AcDbEntity
  8
A1
  6
CONTINUOUS
 62
7
100
AcDbLine
 10
80.17921124494005
 20
217.3329077492450
 30
0.000000000000000
 11
80.61759089940924
 21
222.1801853368127
 31
0.000000000000000
  0
LINE
  5
111
100
AcDbEntity
  8
A1
  6
CONTINUOUS
 62
7
100
AcDbLine
 10
80.79392881722821
 20
224.1299994492333
 30
0.000000000000000
 11
81.47452808359607
 21
231.6555621352449
 31
0.000000000000000
  0
ARC
  5
112
100
AcDbEntity
  8
A1
  6
CONTINUOUS
 62
7
100
AcDbCircle
 10
77.44292953046147
 20
228.6981624149848
 30
0.000000000000000
 40
8.000000000000000
100
AcDbArc
 50
303.0466275691516
 51
407.7028276104389
  0
ARC
  5
113
100
AcDbEntity
  8
A1
  6
CONTINUOUS
 62
7
100
AcDbCircle
 10
77.44292953046147
 20
228.6981624149848
 30
0.000000000000000
 40
8.000000000000000
100
AcDbArc
 50
58.10607594600891
 51
115.3228203618377
  0
ARC
  5
114
100
AcDbEntity
  8
A1
  6
CONTINUOUS
 62
7
100
AcDbCircle
 10
77.44292953046147
 20
228.6981624149848
 30
0.000000000000000
 40
8.000000000000000
100
AcDbArc
 50
125.7301933105449
 51
130.8860712189315
  0
LINE
  5
115
100
AcDbEntity
  8
A1
  6
CONTINUOUS
 62
7
100
AcDbLine
 10
73.86908547111790
 20
233.5701127435274
 30
0.000000000000000
 11
73.45259343155976
 21
227.1095940186101
 31
0.000000000000000
  0
LINE
  5
116
100
AcDbEntity
  8
A1
  6
CONTINUOUS
 62
7
100
AcDbLine
 10
75.05453026606443
 20
251.9584312891415
 30
0.000000000000000
 11
73.96355062938331
 21
235.0354322835431
 31
0.000000000000000
  0
LINE
  5
117
100
AcDbEntity
  8
A1
  6
CONTINUOUS
 62
7
100
AcDbLine
 10
71.95256693379582
 20
232.3749026231858
 30
0.000000000000000
 11
72.58329293390150
 21
232.2779609576215
 31
0.000000000000000
  0
LINE
  5
118
100
AcDbEntity
  8
A1
  6
CONTINUOUS
 62
7
100
AcDbLine
 10
73.77398595325494
 20
232.0949531785661
 30
0.000000000000000
 11
75.10078844583919
 21
231.8910255721501
 31
0.000000000000000
  0
LINE
  5
119
100
AcDbEntity
  8
A1
  6
CONTINUOUS
 62
7
100
AcDbLine
 10
71.10184486113511
 20
226.8398983815354
 30
0.000000000000000
 11
72.22796512404736
 21
226.6668153408900
 31
0.000000000000000
  0
LINE
  5
11A
100
AcDbEntity
  8
A1
  6
CONTINUOUS
 62
7
100
AcDbLine
 10
73.42206722531868
 20
226.4832835909199
 30
0.000000000000000
 11
74.25006637317853
 21
226.3560213304996
 31
0.000000000000000
  0
ARC
  5
11B
100
AcDbEntity
  8
A1
  6
CONTINUOUS
 62
7
100
AcDbCircle
 10
77.44292953046147
 20
228.6981624149848
 30
0.000000000000000
 40
8.000000000000000
100
AcDbArc
 50
229.1139177560685
 51
230.9106017929815
  0
ARC
  5
11C
100
AcDbEntity
  8
A1
  6
CONTINUOUS
 62
7
100
AcDbCircle
 10
77.44292953046147
 20
228.6981624149848
 30
0.000000000000000
 40
8.000000000000000
100
AcDbArc
 50
241.8086437160235
 51
292.7760776463252
  0
LINE
  5
11D
100
AcDbEntity
  8
A1
  6
CONTINUOUS
 62
7
100
AcDbLine
 10
79.84538466254594
 20
227.3599885330392
 30
0.000000000000000
 11
77.99787412209201
 21
226.0047377362122
 31
0.000000000000000
  0
LINE
  5
11E
100
AcDbEntity
  8
A1
  6
CONTINUOUS
 62
7
100
AcDbLine
 10
76.88798495778261
 20
231.3915870976619
 30
0.000000000000000
 11
75.04047438896114
 21
230.0363362800258
 31
0.000000000000000
  0
LINE
  5
11F
100
AcDbEntity
  8
A1
  6
CONTINUOUS
 62
7
100
AcDbLine
 10
74.74950484778438
 20
228.1432178423062
 30
0.000000000000000
 11
76.10475566542058
 21
226.2957072734845
 31
0.000000000000000
  0
LINE
  5
120
100
AcDbEntity
  8
A1
  6
CONTINUOUS
 62
7
100
AcDbLine
 10
78.78110341240685
 20
231.1006175470694
 30
0.000000000000000
 11
80.13635420923391
 21
229.2531070066153
 31
0.000000000000000
  0
ARC
  5
121
100
AcDbEntity
  8
A1
  6
CONTINUOUS
 62
7
100
AcDbCircle
 10
77.44292953046147
 20
228.6981624149848
 30
0.000000000000000
 40
2.750000000000000
100
AcDbArc
 50
150.8820775116659
 51
191.6421224511956
  0
ARC
  5
122
100
AcDbEntity
  8
A1
  6
CONTINUOUS
 62
7
100
AcDbCircle
 10
77.44292953046147
 20
228.6981624149848
 30
0.000000000000000
 40
2.750000000000000
100
AcDbArc
 50
240.8820775116688
 51
281.6421228543542
  0
ARC
  5
123
100
AcDbEntity
  8
A1
  6
CONTINUOUS
 62
7
100
AcDbCircle
 10
77.44292953046147
 20
228.6981624149848
 30
0.000000000000000
 40
2.750000000000000
100
AcDbArc
 50
330.8820771085112
 51
371.6421228543512
  0
ARC
  5
124
100
AcDbEntity
  8
A1
  6
CONTINUOUS
 62
7
100
AcDbCircle
 10
77.44292953046147
 20
228.6981624149848
 30
0.000000000000000
 40
2.750000000000000
100
AcDbArc
 50
60.88207710851403
 51
101.6421224511995
  0
LINE
  5
125
100
AcDbEntity
  8
A1
  6
CONTINUOUS
 62
7
100
AcDbLine
 10
77.63246494397799
 20
231.4416230629662
 30
0.000000000000000
 11
77.89409304019674
 21
231.6335416898698
 31
0.000000000000000
  0
LINE
  5
126
100
AcDbEntity
  8
A1
  6
CONTINUOUS
 62
7
100
AcDbLine
 10
77.89409304019665
 20
231.6335416898698
 30
0.000000000000000
 11
78.08601166708078
 21
231.3719135936775
 31
0.000000000000000
  0
LINE
  5
127
100
AcDbEntity
  8
A1
  6
CONTINUOUS
 62
7
100
AcDbLine
 10
80.18639017842374
 20
228.5086270011903
 30
0.000000000000000
 11
80.37830880520977
 21
228.2469989051317
 31
0.000000000000000
  0
LINE
  5
128
100
AcDbEntity
  8
A1
  6
CONTINUOUS
 62
7
100
AcDbLine
 10
80.37830880520987
 20
228.2469989051318
 30
0.000000000000000
 11
80.11668070914912
 21
228.0550802783442
 31
0.000000000000000
  0
LINE
  5
129
100
AcDbEntity
  8
A1
  6
CONTINUOUS
 62
7
100
AcDbLine
 10
77.25339411668836
 20
225.9547017670209
 30
0.000000000000000
 11
76.99176602047163
 21
225.7627831401189
 31
0.000000000000000
  0
LINE
  5
12A
100
AcDbEntity
  8
A1
  6
CONTINUOUS
 62
7
100
AcDbLine
 10
76.99176602047173
 20
225.7627831401190
 30
0.000000000000000
 11
76.79984739355037
 21
226.0244112363620
 31
0.000000000000000
  0
LINE
  5
12B
100
AcDbEntity
  8
A1
  6
CONTINUOUS
 62
7
100
AcDbLine
 10
74.69946888247853
 20
228.8876978284799
 30
0.000000000000000
 11
74.50755025545885
 21
229.1493259248570
 31
0.000000000000000
  0
LINE
  5
12C
100
AcDbEntity
  8
A1
  6
CONTINUOUS
 62
7
100
AcDbLine
 10
74.50755025545881
 20
229.1493259248570
 30
0.000000000000000
 11
74.76917835183396
 21
229.3412445518751
 31
0.000000000000000
  0
LINE
  5
12D
100
AcDbEntity
  8
A5
  6
PHANTOM
 62
6
100
AcDbLine
 10
211.7866280924127
 20
247.8399870842327
 30
0.000000000000000
 11
215.6629430370194
 21
264.7198424772116
 31
0.000000000000000
  0
LINE
  5
12E
100
AcDbEntity
  8
A5
  6
PHANTOM
 62
6
100
AcDbLine
 10
215.6629430370193
 20
264.7198424772114
 30
0.000000000000000
 11
217.6122059577331
 21
264.2722108586566
 31
0.000000000000000
  0
LINE
  5
12F
100
AcDbEntity
  8
A5
  6
PHANTOM
 62
6
100
AcDbLine
 10
213.1365055078820
 20
244.7822601398292
 30
0.000000000000000
 11
217.6122065691711
 21
264.2722107182451
 31
0.000000000000000
  0
SPLINE
  5
130
100
AcDbEntity
  8
A5
  6
PHANTOM
 62
6
100
AcDbSpline
210
0.000000000000000
220
0.000000000000000
230
1.000000000000000
 70
     8
 71
     3
 72
    23
 73
    19
 74
     0
 42
1.000000000000000e-07
 43
1.000000000000000e-07
 12
0.9998422622613816
 22
-0.01776092890577274
 32
0.000000000000000
 13
0.2241547535011250
 23
0.9745535626552737
 33
0.000000000000000
 40
0.000000000000000
 40
0.000000000000000
 40
0.000000000000000
 40
0.000000000000000
 40
0.3295619766893667
 40
0.6591270962650235
 40
0.9983964339692053
 40
1.337669791992448
 40
1.667179426967875
 40
1.996693228387137
 40
2.335503333470164
 40
2.674318197464538
 40
3.008851002781707
 40
3.343387942344111
 40
3.687208374752585
 40
4.031032533059968
 40
4.403721720152232
 40
4.776414273788101
 40
5.161651519285352
 40
5.546889710050777
 40
5.546889710050777
 40
5.546889710050777
 40
5.546889710050777
 10
209.7241958431723
 20
244.1956102457526
 30
0.000000000000000
 10
209.8340325072818
 20
244.1936591368066
 30
0.000000000000000
 10
210.0539813720437
 20
244.1989138827910
 30
0.000000000000000
 10
210.3852211968789
 20
244.2347371062080
 30
0.000000000000000
 10
210.7154319080324
 20
244.2992561988186
 30
0.000000000000000
 10
211.0389223546123
 20
244.3916537984255
 30
0.000000000000000
 10
211.3503921988252
 20
244.5098520580706
 30
0.000000000000000
 10
211.6510004954199
 20
244.6530752592686
 30
0.000000000000000
 10
211.9413209612173
 20
244.8224369670036
 30
0.000000000000000
 10
212.2179175411809
 20
245.0163134597281
 30
0.000000000000000
 10
212.4763648897739
 20
245.2315521959599
 30
0.000000000000000
 10
212.7176766997739
 20
245.4682241365208
 30
0.000000000000000
 10
212.9406383455474
 20
245.7263983760423
 30
0.000000000000000
 10
213.1490183693448
 20
246.0123753040500
 30
0.000000000000000
 10
213.3368968694539
 20
246.3236261382738
 30
0.000000000000000
 10
213.5024876216843
 20
246.6627278666799
 30
0.000000000000000
 10
213.6380842575391
 20
247.0193971772844
 30
0.000000000000000
 10
213.7071073299491
 20
247.2672103690163
 30
0.000000000000000
 10
213.7358916538459
 20
247.3923554527767
 30
0.000000000000000
  0
SPLINE
  5
131
100
AcDbEntity
  8
A5
  6
PHANTOM
 62
6
100
AcDbSpline
210
0.000000000000000
220
0.000000000000000
230
1.000000000000000
 70
     8
 71
     3
 72
     9
 73
     5
 74
     0
 42
1.000000000000000e-07
 43
1.000000000000000e-07
 12
0.4212835250040143
 22
0.9069289892597681
 32
0.000000000000000
 13
0.2236260861858455
 23
0.9746750092094771
 33
0.000000000000000
 40
0.000000000000000
 40
0.000000000000000
 40
0.000000000000000
 40
0.000000000000000
 40
0.6480640599851742
 40
1.297573210167191
 40
1.297573210167191
 40
1.297573210167191
 40
1.297573210167191
 10
212.7163744322848
 20
243.5564729232450
 30
0.000000000000000
 10
212.8073806694912
 20
243.7523889508777
 30
0.000000000000000
 10
212.9693690332111
 20
244.1543954555347
 30
0.000000000000000
 10
213.0880897781496
 20
244.5712400275174
 30
0.000000000000000
 10
213.1365055078820
 20
244.7822601398291
 30
0.000000000000000
  0
LINE
  5
132
100
AcDbEntity
  8
A5
  6
PHANTOM
 62
6
100
AcDbLine
 10
210.4187442517591
 20
241.8833809377815
 30
0.000000000000000
 11
210.2072885518906
 21
240.9625729831112
 31
0.000000000000000
  0
SPLINE
  5
133
100
AcDbEntity
  8
A5
  6
PHANTOM
 62
6
100
AcDbSpline
210
0.000000000000000
220
0.000000000000000
230
1.000000000000000
 70
     8
 71
     3
 72
    13
 73
     9
 74
     0
 42
1.000000000000000e-07
 43
1.000000000000000e-07
 12
-0.7094967127293330
 22
-0.7047087445348552
 32
0.000000000000000
 13
-0.9526507669638704
 23
-0.3040666311917448
 33
0.000000000000000
 40
0.000000000000000
 40
0.000000000000000
 40
0.000000000000000
 40
0.000000000000000
 40
0.3154904748712180
 40
0.6328745677494811
 40
0.9490760097717084
 40
1.265273742438776
 40
1.589627480919971
 40
1.913976787342362
 40
1.913976787342362
 40
1.913976787342362
 40
1.913976787342362
 10
211.9388079192064
 20
242.4328066185286
 30
0.000000000000000
 10
211.8641947676002
 20
242.3586969863755
 30
0.000000000000000
 10
211.7087400995303
 20
242.2157257553799
 30
0.000000000000000
 10
211.4598020694510
 20
242.0200055385259
 30
0.000000000000000
 10
211.1961469629191
 20
241.8441568087698
 30
0.000000000000000
 10
210.9175722148488
 20
241.6882270886448
 30
0.000000000000000
 10
210.6249597757421
 20
241.5538982984010
 30
0.000000000000000
 10
210.4215163436662
 20
241.4798138549751
 30
0.000000000000000
 10
210.3185191384904
 20
241.4469392546640
 30
0.000000000000000
  0
ARC
  5
134
100
AcDbEntity
  8
A5
  6
PHANTOM
 62
6
100
AcDbCircle
 10
209.2195975259708
 20
245.6412025013802
 30
0.000000000000000
 40
3.944512108463647
100
AcDbArc
 50
270.7702866612893
 51
287.6982410218735
  0
SPLINE
  5
135
100
AcDbEntity
  8
A5
  6
PHANTOM
 62
6
100
AcDbSpline
210
0.000000000000000
220
0.000000000000000
230
1.000000000000000
 70
     8
 71
     3
 72
    12
 73
     8
 74
     0
 42
1.000000000000000e-07
 43
1.000000000000000e-07
 12
0.7085152424785974
 22
0.7056955088237373
 32
0.000000000000000
 13
0.4220191203548893
 23
0.9065869302248757
 33
0.000000000000000
 40
0.000000000000000
 40
0.000000000000000
 40
0.000000000000000
 40
0.000000000000000
 40
0.3326575956942814
 40
0.6681388689883675
 40
0.9811490224800929
 40
1.280138307047628
 40
1.373250948403831
 40
1.373250948403831
 40
1.373250948403831
 40
1.373250948403831
 10
211.9388079192064
 20
242.4328066185286
 30
0.000000000000000
 10
212.0173722448983
 20
242.5110582756145
 30
0.000000000000000
 10
212.1682265111911
 20
242.6754006171744
 30
0.000000000000000
 10
212.3663656370703
 20
242.9361428111552
 30
0.000000000000000
 10
212.5358941624019
 20
243.2029915687382
 30
0.000000000000000
 10
212.6468255515485
 20
243.4104470033305
 30
0.000000000000000
 10
212.7032759939518
 20
243.5283346886809
 30
0.000000000000000
 10
212.7163744322848
 20
243.5564729232450
 30
0.000000000000000
  0
ARC
  5
136
100
AcDbEntity
  8
A5
  6
PHANTOM
 62
6
100
AcDbCircle
 10
209.4429295305361
 20
228.6981624151781
 30
0.000000000000000
 40
13.00000000000000
100
AcDbArc
 50
90.75061129806652
 51
167.0667467347998
  0
ARC
  5
137
100
AcDbEntity
  8
A5
  6
PHANTOM
 62
6
100
AcDbCircle
 10
209.4429295305361
 20
228.6981624151781
 30
0.000000000000000
 40
15.50000000000000
100
AcDbArc
 50
88.96024147163818
 51
153.7239323807562
  0
SPLINE
  5
138
100
AcDbEntity
  8
A5
  6
PHANTOM
 62
6
100
AcDbSpline
210
0.000000000000000
220
0.000000000000000
230
1.000000000000000
 70
     8
 71
     3
 72
    15
 73
    11
 74
     0
 42
1.000000000000000e-07
 43
1.000000000000000e-07
 12
-0.2258636983194720
 22
-0.9741589140289761
 32
0.000000000000000
 13
-0.9998677795688309
 23
0.01626110011875426
 33
0.000000000000000
 40
0.000000000000000
 40
0.000000000000000
 40
0.000000000000000
 40
0.000000000000000
 40
0.3515403625610908
 40
0.7030678188235133
 40
1.054793190029666
 40
1.406483099690128
 40
1.754179280374890
 40
2.101833669280690
 40
2.437296768145645
 40
2.772733031747653
 40
2.772733031747653
 40
2.772733031747653
 40
2.772733031747653
 10
211.7866280924124
 20
247.8399870842325
 30
0.000000000000000
 10
211.7601613569469
 20
247.7258350249559
 30
0.000000000000000
 10
211.6883702661807
 20
247.5014365282226
 30
0.000000000000000
 10
211.5264084779247
 20
247.1875222642629
 30
0.000000000000000
 10
211.3130658027761
 20
246.9058592422112
 30
0.000000000000000
 10
211.0566953770349
 20
246.6645071040338
 30
0.000000000000000
 10
210.7633190380262
 20
246.4723077236895
 30
0.000000000000000
 10
210.4466792312672
 20
246.3344434350335
 30
0.000000000000000
 10
210.1149982141897
 20
246.2547516521736
 30
0.000000000000000
 10
209.8906308094467
 20
246.2398422015850
 30
0.000000000000000
 10
209.7788335054218
 20
246.2416603891403
 30
0.000000000000000
  0
ARC
  5
139
100
AcDbEntity
  8
A5
  6
PHANTOM
 62
6
100
AcDbCircle
 10
209.4429295305361
 20
228.6981624151781
 30
0.000000000000000
 40
17.54671344277210
100
AcDbArc
 50
88.90309624954274
 51
156.5442923313602
  0
SPLINE
  5
13A
100
AcDbEntity
  8
A5
  6
PHANTOM
 62
6
100
AcDbSpline
210
0.000000000000000
220
0.000000000000000
230
1.000000000000000
 70
     8
 71
     3
 72
    11
 73
     7
 74
     0
 42
1.000000000000000e-07
 43
1.000000000000000e-07
 12
0.1903534083523937
 22
0.9817156308874928
 32
0.000000000000000
 13
0.3981374946316691
 23
0.9173257520467359
 33
0.000000000000000
 40
0.000000000000000
 40
0.000000000000000
 40
0.000000000000000
 40
0.000000000000000
 40
0.7914465647295599
 40
1.590206842745151
 40
2.402401426320837
 40
3.219441277696507
 40
3.219441277696507
 40
3.219441277696507
 40
3.219441277696507
 10
192.3938032248523
 20
232.6133489823272
 30
0.000000000000000
 10
192.4440214085607
 20
232.8723408035296
 30
0.000000000000000
 10
192.5589423212860
 20
233.3901128088978
 30
0.000000000000000
 10
192.7747725960067
 20
234.1616762786745
 30
0.000000000000000
 10
193.0351119634869
 20
234.9284047013475
 30
0.000000000000000
 10
193.2377037987272
 20
235.4326260071426
 30
0.000000000000000
 10
193.3461351985408
 20
235.6824565725144
 30
0.000000000000000
  0
SPLINE
  5
13B
100
AcDbEntity
  8
A5
  6
PHANTOM
 62
6
100
AcDbSpline
210
0.000000000000000
220
0.000000000000000
230
1.000000000000000
 70
     8
 71
     3
 72
    11
 73
     7
 74
     0
 42
1.000000000000000e-07
 43
1.000000000000000e-07
 12
-0.4428537055749757
 22
-0.8965938854679507
 32
0.000000000000000
 13
-0.1871013389170457
 23
-0.9823406175942182
 33
0.000000000000000
 40
0.000000000000000
 40
0.000000000000000
 40
0.000000000000000
 40
0.000000000000000
 40
0.8909745823171505
 40
1.785877403215460
 40
2.694870356963930
 40
3.604741470919019
 40
3.604741470919019
 40
3.604741470919019
 40
3.604741470919019
 10
195.5445224818579
 20
235.5599611231883
 30
0.000000000000000
 10
195.4129986834072
 20
235.2936803356507
 30
0.000000000000000
 10
195.1669449766804
 20
234.7510586333684
 30
0.000000000000000
 10
194.8507596433739
 20
233.9095678978849
 30
0.000000000000000
 10
194.5904442027391
 20
233.0425223955117
 30
0.000000000000000
 10
194.4565295822991
 20
232.4506271464375
 30
0.000000000000000
 10
194.3997835477448
 20
232.1526926957662
 30
0.000000000000000
  0
ARC
  5
13C
100
AcDbEntity
  8
A5
  6
PHANTOM
 62
6
100
AcDbCircle
 10
209.6786037012808
 20
229.2591632453920
 30
0.000000000000000
 40
17.60723968905409
100
AcDbArc
 50
169.0180131436128
 51
178.7131638077765
  0
SPLINE
  5
13D
100
AcDbEntity
  8
A5
  6
PHANTOM
 62
6
100
AcDbSpline
210
0.000000000000000
220
0.000000000000000
230
1.000000000000000
 70
     8
 71
     3
 72
    11
 73
     7
 74
     0
 42
1.000000000000000e-07
 43
1.000000000000000e-07
 12
-0.1869239677129144
 22
-0.9823743839770032
 32
0.000000000000000
 13
0.01152078085294761
 23
-0.9999336336016995
 33
0.000000000000000
 40
0.000000000000000
 40
0.000000000000000
 40
0.000000000000000
 40
0.000000000000000
 40
0.8136418419050404
 40
1.623216093954848
 40
2.433916775170910
 40
3.237491704625319
 40
3.237491704625319
 40
3.237491704625319
 40
3.237491704625319
 10
194.3997835477448
 20
232.1526926957662
 30
0.000000000000000
 10
194.3490871606161
 20
231.8862590613597
 30
0.000000000000000
 10
194.2611708131517
 20
231.3521101332854
 30
0.000000000000000
 10
194.1692952751112
 20
230.5457002079531
 30
0.000000000000000
 10
194.1180028366924
 20
229.7390503642185
 30
0.000000000000000
 10
194.1108295856819
 20
229.2007438319656
 30
0.000000000000000
 10
194.1139155225689
 20
228.9329032989388
 30
0.000000000000000
  0
ARC
  5
13E
100
AcDbEntity
  8
A5
  6
PHANTOM
 62
6
100
AcDbCircle
 10
214.1211605402496
 20
227.6238465306464
 30
0.000000000000000
 40
17.80000000000013
100
AcDbArc
 50
167.0667467347175
 51
241.4225370359429
  0
SPLINE
  5
13F
100
AcDbEntity
  8
A5
  6
PHANTOM
 62
6
100
AcDbSpline
210
0.000000000000000
220
0.000000000000000
230
1.000000000000000
 70
     8
 71
     3
 72
    24
 73
    20
 74
     0
 42
1.000000000000000e-07
 43
1.000000000000000e-07
 12
0.01179663685047672
 22
-0.9999304172588381
 32
0.000000000000000
 13
0.8166700215156197
 23
-0.5771049089712506
 33
0.000000000000000
 40
0.000000000000000
 40
0.000000000000000
 40
0.000000000000000
 40
0.000000000000000
 40
0.9965371271563505
 40
1.994844928735737
 40
2.994111029633749
 40
3.993536093732885
 40
5.200321329633569
 40
6.413965577893726
 40
7.632768369619987
 40
8.855016710094214
 40
10.07906749880277
 40
11.30342972141473
 40
12.49481252938067
 40
13.69525622024258
 40
14.90250178262609
 40
16.11428710250248
 40
17.32843640441007
 40
18.54294956294972
 40
19.15015686915572
 40
19.15015686915572
 40
19.15015686915572
 40
19.15015686915572
 10
194.1139155225689
 20
228.9329032989388
 30
0.000000000000000
 10
194.1178341181013
 20
228.6007473704816
 30
0.000000000000000
 10
194.1420166588660
 20
227.9359204032700
 30
0.000000000000000
 10
194.2275117288363
 20
226.9411661934280
 30
0.000000000000000
 10
194.3619271328765
 20
225.9508378714686
 30
0.000000000000000
 10
194.5575983839377
 20
224.8999838497263
 30
0.000000000000000
 10
194.8282741082246
 20
223.7918931758920
 30
0.000000000000000
 10
195.1866668044611
 20
222.6322176707237
 30
0.000000000000000
 10
195.6151114561006
 20
221.4910477924730
 30
0.000000000000000
 10
196.1119546924147
 20
220.3741476732943
 30
0.000000000000000
 10
196.6754980680108
 20
219.2872730568488
 30
0.000000000000000
 10
197.2985168192513
 20
218.2452892632127
 30
0.000000000000000
 10
197.9796583340650
 20
217.2499202108273
 30
0.000000000000000
 10
198.7149677143579
 20
216.3011137523651
 30
0.000000000000000
 10
199.5089604212387
 20
215.3917996383973
 30
0.000000000000000
 10
200.3579337928248
 20
214.5271633411428
 30
0.000000000000000
 10
201.2580741149680
 20
213.7123106942213
 30
0.000000000000000
 10
202.0482301561096
 20
213.0790197283080
 30
0.000000000000000
 10
202.5388793018136
 20
212.7210961989567
 30
0.000000000000000
 10
202.7041753030881
 20
212.6042887598985
 30
0.000000000000000
  0
SPLINE
  5
140
100
AcDbEntity
  8
A5
  6
PHANTOM
 62
6
100
AcDbSpline
210
0.000000000000000
220
0.000000000000000
230
1.000000000000000
 70
     8
 71
     3
 72
    27
 73
    23
 74
     0
 42
1.000000000000000e-07
 43
1.000000000000000e-07
 12
-0.02195974339275608
 22
-0.9997588557599784
 32
0.000000000000000
 13
0.8347741127520294
 23
-0.5505925723057317
 33
0.000000000000000
 40
0.000000000000000
 40
0.000000000000000
 40
0.000000000000000
 40
0.000000000000000
 40
1.225740415426370
 40
2.453913748147056
 40
3.683165537240447
 40
4.912159639040525
 40
6.213838639415771
 40
7.518952992430415
 40
8.825795942814052
 40
9.838049534315049
 40
10.85333436887769
 40
11.87075408381882
 40
12.88943695386231
 40
14.17275575141809
 40
15.46104856582986
 40
16.75227833344180
 40
17.75471056546776
 40
18.76064185632762
 40
19.76893979114741
 40
20.77849760832952
 40
21.67163384623868
 40
22.56641992798258
 40
22.56641992798258
 40
22.56641992798258
 40
22.56641992798258
 10
192.0758046392113
 20
229.6545803014305
 30
0.000000000000000
 10
192.0668323242150
 20
229.2460986897020
 30
0.000000000000000
 10
192.0712744273177
 20
228.4276511929874
 30
0.000000000000000
 10
192.1456491383924
 20
227.2015947636042
 30
0.000000000000000
 10
192.2871474715192
 20
225.9803334399828
 30
0.000000000000000
 10
192.4998188407869
 20
224.7445588979974
 30
0.000000000000000
 10
192.7884832297239
 20
223.4982141925205
 30
0.000000000000000
 10
193.1565296906691
 20
222.2459069239820
 30
0.000000000000000
 10
193.5644558893932
 20
221.1080229830688
 30
0.000000000000000
 10
193.9938450280277
 20
220.0824602141826
 30
0.000000000000000
 10
194.4280336090376
 20
219.1646424643529
 30
0.000000000000000
 10
194.9043678787113
 20
218.2655463565340
 30
0.000000000000000
 10
195.4665049251434
 20
217.3120774948357
 30
0.000000000000000
 10
196.1273101810770
 20
216.3134636886519
 30
0.000000000000000
 10
196.8986430606437
 20
215.2815874337166
 30
0.000000000000000
 10
197.6677004272987
 20
214.3673591900932
 30
0.000000000000000
 10
198.4184269662879
 20
213.5630683439446
 30
0.000000000000000
 10
199.1370177597630
 20
212.8591862851011
 30
0.000000000000000
 10
199.8881160083803
 20
212.1865467356389
 30
0.000000000000000
 10
200.6395916071225
 20
211.5721464092504
 30
0.000000000000000
 10
201.3861805996765
 20
211.0130609846567
 30
0.000000000000000
 10
201.8772038954239
 20
210.6749714803925
 30
0.000000000000000
 10
202.1261853145874
 20
210.5107506235889
 30
0.000000000000000
  0
SPLINE
  5
141
100
AcDbEntity
  8
A5
  6
PHANTOM
 62
6
100
AcDbSpline
210
0.000000000000000
220
0.000000000000000
230
1.000000000000000
 70
     8
 71
     3
 72
    21
 73
    17
 74
     0
 42
1.000000000000000e-07
 43
1.000000000000000e-07
 12
-0.2758674569186041
 22
-0.9611956857006589
 32
0.000000000000000
 13
-0.8345771583562964
 23
0.5508910661383197
 33
0.000000000000000
 40
0.000000000000000
 40
0.000000000000000
 40
0.000000000000000
 40
0.000000000000000
 40
0.08134187504662750
 40
0.1731059712403568
 40
0.2890240849853128
 40
0.4372001395532708
 40
0.6198757394012260
 40
0.8359188269757094
 40
1.077519865985217
 40
1.348582275348747
 40
1.644401870518067
 40
1.955550037612963
 40
2.285343618023557
 40
2.628102654282066
 40
2.930167214960705
 40
3.237512163279434
 40
3.237512163279434
 40
3.237512163279434
 40
3.237512163279434
 10
205.0647972240453
 20
209.6330861040495
 30
0.000000000000000
 10
205.0573173653086
 20
209.6070242842623
 30
0.000000000000000
 10
205.0309083372505
 20
209.5527668615173
 30
0.000000000000000
 10
204.9464536945466
 20
209.4995430832066
 30
0.000000000000000
 10
204.8308672646579
 20
209.4697252998280
 30
0.000000000000000
 10
204.6813646003452
 20
209.4620705688326
 30
0.000000000000000
 10
204.4993342766896
 20
209.4762469607318
 30
0.000000000000000
 10
204.2888145435446
 20
209.5131052408772
 30
0.000000000000000
 10
204.0532593559257
 20
209.5730963067552
 30
0.000000000000000
 10
203.7964530337282
 20
209.6552774498517
 30
0.000000000000000
 10
203.5227082287465
 20
209.7591983162369
 30
0.000000000000000
 10
203.2365205648257
 20
209.8843725764740
 30
0.000000000000000
 10
202.9419854901406
 20
210.0286952738755
 30
0.000000000000000
 10
202.6562900555709
 20
210.1835560144196
 30
0.000000000000000
 10
202.3831111124510
 20
210.3452465392900
 30
0.000000000000000
 10
202.2116863391218
 20
210.4543127615051
 30
0.000000000000000
 10
202.1261853145874
 20
210.5107506235889
 30
0.000000000000000
  0
SPLINE
  5
142
100
AcDbEntity
  8
A5
  6
PHANTOM
 62
6
100
AcDbSpline
210
0.000000000000000
220
0.000000000000000
230
1.000000000000000
 70
     8
 71
     3
 72
    21
 73
    17
 74
     0
 42
1.000000000000000e-07
 43
1.000000000000000e-07
 12
0.8163771032795921
 22
-0.5775191990219355
 32
0.000000000000000
 13
0.2338804581304430
 23
0.9722653605367668
 33
0.000000000000000
 40
0.000000000000000
 40
0.000000000000000
 40
0.000000000000000
 40
0.000000000000000
 40
0.3770237937154394
 40
0.7454408160355578
 40
1.098809026518425
 40
1.434679110688691
 40
1.748832481557478
 40
2.034969796597232
 40
2.277499683432588
 40
2.491070274330206
 40
2.672852985100978
 40
2.821528474084961
 40
2.941065388672842
 40
3.035208392003075
 40
3.094990136456450
 40
3.152908310218826
 40
3.152908310218826
 40
3.152908310218826
 40
3.152908310218826
 10
202.7041753030881
 20
212.6042887598985
 30
0.000000000000000
 10
202.8067731672818
 20
212.5317092667788
 30
0.000000000000000
 10
203.0127618895901
 20
212.3925861797088
 30
0.000000000000000
 10
203.3246665531646
 20
212.2003780577332
 30
0.000000000000000
 10
203.6327432234425
 20
212.0287017050665
 30
0.000000000000000
 10
203.9326403009704
 20
211.8803084755389
 30
0.000000000000000
 10
204.2190359510244
 20
211.7560504028384
 30
0.000000000000000
 10
204.4826682050718
 20
211.6584687466051
 30
0.000000000000000
 10
204.7198856013964
 20
211.5875499817700
 30
0.000000000000000
 10
204.9275978010444
 20
211.5411291668018
 30
0.000000000000000
 10
205.1076306962352
 20
211.5170279094904
 30
0.000000000000000
 10
205.2581275160754
 20
211.5150311044592
 30
0.000000000000000
 10
205.3781756200814
 20
211.5334282386063
 30
0.000000000000000
 10
205.4635129722085
 20
211.5705160713966
 30
0.000000000000000
 10
205.5144597612197
 20
211.6216076748561
 30
0.000000000000000
 10
205.5297878375830
 20
211.6588325670623
 30
0.000000000000000
 10
205.5343031472542
 20
211.6776031784272
 30
0.000000000000000
  0
LINE
  5
143
100
AcDbEntity
  8
A5
  6
PHANTOM
 62
6
100
AcDbLine
 10
205.0647972240450
 20
209.6330861040494
 30
0.000000000000000
 11
205.5343031472540
 21
211.6776031784270
 31
0.000000000000000
  0
LINE
  5
144
100
AcDbEntity
  8
A5
  6
PHANTOM
 62
6
100
AcDbLine
 10
205.6065933692279
 20
211.9923991923425
 30
0.000000000000000
 11
206.4884760705748
 21
215.8326579651799
 31
0.000000000000000
  0
LINE
  5
145
100
AcDbEntity
  8
A5
  6
PHANTOM
 62
6
100
AcDbLine
 10
205.6065933692279
 20
211.9923991923427
 30
0.000000000000000
 11
205.5343031472541
 21
211.6776031784273
 31
0.000000000000000
  0
ARC
  5
146
100
AcDbEntity
  8
A5
  6
PHANTOM
 62
6
100
AcDbCircle
 10
212.3362648327165
 20
214.4897631095154
 30
0.000000000000000
 40
6.000000000000000
100
AcDbArc
 50
101.5100821621919
 51
167.0667467344946
  0
ARC
  5
147
100
AcDbEntity
  8
A5
  6
PHANTOM
 62
6
100
AcDbCircle
 10
209.4429295305361
 20
228.6981624151781
 30
0.000000000000000
 40
8.500000000000000
100
AcDbArc
 50
281.5100821621920
 51
407.0667467344946
  0
LINE
  5
148
100
AcDbEntity
  8
A5
  6
PHANTOM
 62
6
100
AcDbLine
 10
210.7942596590418
 20
239.0506459658406
 30
0.000000000000000
 11
215.2326697381772
 21
234.9214178597205
 31
0.000000000000000
  0
ARC
  5
149
100
AcDbEntity
  8
A5
  6
PHANTOM
 62
6
100
AcDbCircle
 10
212.1565514726044
 20
240.5149413645563
 30
0.000000000000000
 40
2.000000000000000
100
AcDbArc
 50
167.0667467344947
 51
227.0667467344947
  0
ARC
  5
14A
100
AcDbEntity
  8
A1
  6
CONTINUOUS
 62
7
100
AcDbCircle
 10
203.4429416527696
 20
201.6981710464298
 30
0.000000000000000
 40
5.000012122369524
100
AcDbArc
 50
180.0001493973909
 51
289.5797965105111
  0
ARC
  5
14B
100
AcDbEntity
  8
A2
  6
CONTINUOUS
 62
4
100
AcDbCircle
 10
206.8072449689097
 20
228.2930615453563
 30
0.000000000000000
 40
1.145412728988863
100
AcDbArc
 50
134.2755777920008
 51
175.2753393917331
  0
ARC
  5
14C
100
AcDbEntity
  8
A2
  6
CONTINUOUS
 62
4
100
AcDbCircle
 10
210.0100707483233
 20
225.0082040290366
 30
0.000000000000000
 40
5.733264282363177
100
AcDbArc
 50
63.20022220799910
 51
134.2755777920008
  0
ARC
  5
14D
100
AcDbEntity
  8
A2
  6
CONTINUOUS
 62
4
100
AcDbCircle
 10
212.0786140920630
 20
229.1032632851242
 30
0.000000000000000
 40
1.145412728988864
100
AcDbArc
 50
340.9875545546281
 51
423.2002222079992
  0
ARC
  5
14E
100
AcDbEntity
  8
A2
  6
CONTINUOUS
 62
4
100
AcDbCircle
 10
206.8072449689097
 20
228.2930615453563
 30
0.000000000000000
 40
1.145412728988863
100
AcDbArc
 50
188.7379000000000
 51
243.2002222080521
  0
ARC
  5
14F
100
AcDbEntity
  8
A2
  6
CONTINUOUS
 62
4
100
AcDbCircle
 10
208.8757883126483
 20
232.3881208014511
 30
0.000000000000000
 40
5.733264282363177
100
AcDbArc
 50
243.2002222080521
 51
314.2755777919480
  0
ARC
  5
150
100
AcDbEntity
  8
A2
  6
CONTINUOUS
 62
4
100
AcDbCircle
 10
212.0786140920630
 20
229.1032632851242
 30
0.000000000000000
 40
1.145412728988864
100
AcDbArc
 50
314.2755777919480
 51
324.4367392796171
  0
LINE
  5
151
100
AcDbEntity
  8
A2
  6
CONTINUOUS
 62
4
100
AcDbLine
 10
206.4024255123263
 20
229.4641231466383
 30
0.000000000000000
 11
206.6934674814738
 21
227.5705334708802
 31
0.000000000000000
  0
LINE
  5
152
100
AcDbEntity
  8
A2
  6
CONTINUOUS
 62
4
100
AcDbLine
 10
207.1514537841522
 20
227.5163474844686
 30
0.000000000000000
 11
206.9023169139291
 21
229.1372924178987
 31
0.000000000000000
  0
ARC
  5
153
100
AcDbEntity
  8
A2
  6
CONTINUOUS
 62
4
100
AcDbCircle
 10
207.1219572940604
 20
229.1710508237223
 30
0.000000000000000
 40
0.2222195458280301
100
AcDbArc
 50
124.7522659996366
 51
188.7379000000000
  0
ARC
  5
154
100
AcDbEntity
  8
A2
  6
CONTINUOUS
 62
4
100
AcDbCircle
 10
210.0100707483233
 20
225.0082040290366
 30
0.000000000000000
 40
5.288825190707117
100
AcDbArc
 50
121.6818535565378
 51
124.7522659996366
  0
ARC
  5
155
100
AcDbEntity
  8
A2
  6
CONTINUOUS
 62
4
100
AcDbCircle
 10
207.2557103717957
 20
229.4710544570028
 30
0.000000000000000
 40
0.04444390916560601
100
AcDbArc
 50
8.737900000000000
 51
121.6818535565375
  0
LINE
  5
156
100
AcDbEntity
  8
A2
  6
CONTINUOUS
 62
4
100
AcDbLine
 10
207.2996384478222
 20
229.4778061381675
 30
0.000000000000000
 11
207.6326937707846
 21
227.3108673874943
 31
0.000000000000000
  0
ARC
  5
157
100
AcDbEntity
  8
A2
  6
CONTINUOUS
 62
4
100
AcDbCircle
 10
207.5887656947582
 20
227.3041157063295
 30
0.000000000000000
 40
0.04444390916560601
100
AcDbArc
 50
255.7939464434623
 51
368.7379000000000
  0
ARC
  5
158
100
AcDbEntity
  8
A2
  6
CONTINUOUS
 62
4
100
AcDbCircle
 10
208.8757883126483
 20
232.3881208014511
 30
0.000000000000000
 40
5.288825190707117
100
AcDbArc
 50
252.7235340003634
 51
255.7939464434623
  0
ARC
  5
159
100
AcDbEntity
  8
A2
  6
CONTINUOUS
 62
4
100
AcDbCircle
 10
207.3710941642834
 20
227.5501058902922
 30
0.000000000000000
 40
0.2222195458280301
100
AcDbArc
 50
188.7379000000000
 51
252.7235340003634
  0
LINE
  5
15A
100
AcDbEntity
  8
A2
  6
CONTINUOUS
 62
4
100
AcDbLine
 10
208.2637074558527
 20
229.0565072984373
 30
0.000000000000000
 11
208.1347506389022
 21
229.8955316422854
 31
0.000000000000000
  0
ARC
  5
15B
100
AcDbEntity
  8
A2
  6
CONTINUOUS
 62
4
100
AcDbCircle
 10
208.0908225628757
 20
229.8887799611206
 30
0.000000000000000
 40
0.04444390916560601
100
AcDbArc
 50
8.737900000000000
 51
111.4668438731226
  0
ARC
  5
15C
100
AcDbEntity
  8
A2
  6
CONTINUOUS
 62
4
100
AcDbCircle
 10
210.0100707483233
 20
225.0082040290366
 30
0.000000000000000
 40
5.288825190707117
100
AcDbArc
 50
111.4668438731226
 51
112.0060189705562
  0
ARC
  5
15D
100
AcDbEntity
  8
A2
  6
CONTINUOUS
 62
4
100
AcDbCircle
 10
210.0100707483233
 20
225.0082040290366
 30
0.000000000000000
 40
5.288825190707117
100
AcDbArc
 50
112.0060189705562
 51
113.9954232904564
  0
ARC
  5
15E
100
AcDbEntity
  8
A2
  6
CONTINUOUS
 62
4
100
AcDbCircle
 10
207.9496663074006
 20
229.6369431986751
 30
0.000000000000000
 40
0.2222195458280301
100
AcDbArc
 50
113.9954232904564
 51
188.7379000000000
  0
LINE
  5
15F
100
AcDbEntity
  8
A2
  6
CONTINUOUS
 62
4
100
AcDbLine
 10
207.7300259272694
 20
229.6031847928515
 30
0.000000000000000
 11
208.0808678118629
 21
227.3205223561049
 31
0.000000000000000
  0
ARC
  5
160
100
AcDbEntity
  8
A2
  6
CONTINUOUS
 62
4
100
AcDbCircle
 10
208.3005081919941
 20
227.3542807619286
 30
0.000000000000000
 40
0.2222195458280301
100
AcDbArc
 50
188.7379000000000
 51
263.4803767095436
  0
ARC
  5
161
100
AcDbEntity
  8
A2
  6
CONTINUOUS
 62
4
100
AcDbCircle
 10
208.8757883126483
 20
232.3881208014511
 30
0.000000000000000
 40
5.288825190707117
100
AcDbArc
 50
263.4803767095436
 51
263.5316121239420
  0
ARC
  5
162
100
AcDbEntity
  8
A2
  6
CONTINUOUS
 62
4
100
AcDbCircle
 10
208.8757883126483
 20
232.3881208014511
 30
0.000000000000000
 40
5.288825190707117
100
AcDbArc
 50
263.5316121239420
 51
266.0089561268774
  0
ARC
  5
163
100
AcDbEntity
  8
A2
  6
CONTINUOUS
 62
4
100
AcDbCircle
 10
208.5107765447293
 20
227.1564574488008
 30
0.000000000000000
 40
0.04444390916560601
100
AcDbArc
 50
266.0089561268775
 51
368.7379000000000
  0
LINE
  5
164
100
AcDbEntity
  8
A2
  6
CONTINUOUS
 62
4
100
AcDbLine
 10
208.5547046207558
 20
227.1632091299657
 30
0.000000000000000
 11
208.4257478038063
 21
228.0022334738067
 31
0.000000000000000
  0
LINE
  5
165
100
AcDbEntity
  8
A2
  6
CONTINUOUS
 62
4
100
AcDbLine
 10
208.5541079986041
 20
230.0926749326103
 30
0.000000000000000
 11
209.0139087815793
 21
227.1010994629356
 31
0.000000000000000
  0
LINE
  5
166
100
AcDbEntity
  8
A2
  6
CONTINUOUS
 62
4
100
AcDbLine
 10
208.9876898330840
 20
230.1972703383076
 30
0.000000000000000
 11
209.4588884676252
 21
227.1315376805328
 31
0.000000000000000
  0
LINE
  5
167
100
AcDbEntity
  8
A2
  6
CONTINUOUS
 62
4
100
AcDbLine
 10
209.2232891503552
 20
228.6644040094166
 30
0.000000000000000
 11
208.7840083900923
 21
228.5968871977693
 31
0.000000000000000
  0
LINE
  5
168
100
AcDbEntity
  8
A2
  6
CONTINUOUS
 62
4
100
AcDbLine
 10
209.4269705933467
 20
230.2647871499550
 30
0.000000000000000
 11
209.8981692278879
 21
227.1990544921802
 31
0.000000000000000
  0
LINE
  5
169
100
AcDbEntity
  8
A2
  6
CONTINUOUS
 62
4
100
AcDbLine
 10
210.4601112571666
 20
229.3940913566739
 30
0.000000000000000
 11
210.3505186249473
 21
230.1071276157317
 31
0.000000000000000
  0
ARC
  5
16A
100
AcDbEntity
  8
A2
  6
CONTINUOUS
 62
4
100
AcDbCircle
 10
210.1308782448158
 20
230.0733692099079
 30
0.000000000000000
 40
0.2222195458280301
100
AcDbArc
 50
8.737900000000000
 51
88.63371728387490
  0
ARC
  5
16B
100
AcDbEntity
  8
A2
  6
CONTINUOUS
 62
4
100
AcDbCircle
 10
210.0100707483233
 20
225.0082040290366
 30
0.000000000000000
 40
5.288825190707117
100
AcDbArc
 50
88.63371728387499
 51
90.94497566457760
  0
ARC
  5
16C
100
AcDbEntity
  8
A2
  6
CONTINUOUS
 62
4
100
AcDbCircle
 10
209.9235794211353
 20
230.2518720464175
 30
0.000000000000000
 40
0.04444390916560601
100
AcDbArc
 50
90.94497566457729
 51
188.7379000000000
  0
LINE
  5
16D
100
AcDbEntity
  8
A2
  6
CONTINUOUS
 62
4
100
AcDbLine
 10
209.8796513451090
 20
230.2451203652528
 30
0.000000000000000
 11
210.3240499966510
 21
227.3537549001769
 31
0.000000000000000
  0
ARC
  5
16E
100
AcDbEntity
  8
A2
  6
CONTINUOUS
 62
4
100
AcDbCircle
 10
210.3679780726772
 20
227.3605065813416
 30
0.000000000000000
 40
0.04444390916560601
100
AcDbArc
 50
188.7379000000000
 51
286.5308243354227
  0
ARC
  5
16F
100
AcDbEntity
  8
A2
  6
CONTINUOUS
 62
4
100
AcDbCircle
 10
208.8757883126483
 20
232.3881208014511
 30
0.000000000000000
 40
5.288825190707117
100
AcDbArc
 50
286.5308243354223
 51
288.8420827161250
  0
ARC
  5
170
100
AcDbEntity
  8
A2
  6
CONTINUOUS
 62
4
100
AcDbCircle
 10
210.5121038572069
 20
227.5930228671691
 30
0.000000000000000
 40
0.2222195458280301
100
AcDbArc
 50
288.8420827161250
 51
368.7379000000000
  0
LINE
  5
171
100
AcDbEntity
  8
A2
  6
CONTINUOUS
 62
4
100
AcDbLine
 10
210.7317442373384
 20
227.6267812729928
 30
0.000000000000000
 11
210.5411314311434
 21
228.8669544443586
 31
0.000000000000000
  0
LINE
  5
172
100
AcDbEntity
  8
A2
  6
CONTINUOUS
 62
4
100
AcDbLine
 10
210.5411314311434
 20
228.8669544443586
 30
0.000000000000000
 11
210.3214910510121
 21
228.8331960385349
 31
0.000000000000000
  0
LINE
  5
173
100
AcDbEntity
  8
A2
  6
CONTINUOUS
 62
4
100
AcDbLine
 10
210.7584727878887
 20
230.3784628712901
 30
0.000000000000000
 11
211.1811838126622
 21
227.6282023687073
 31
0.000000000000000
  0
LINE
  5
174
100
AcDbEntity
  8
A2
  6
CONTINUOUS
 62
4
100
AcDbLine
 10
211.2295615648506
 20
230.2390290077333
 30
0.000000000000000
 11
211.3859345458453
 21
229.2216284477847
 31
0.000000000000000
  0
ARC
  5
175
100
AcDbEntity
  8
A2
  6
CONTINUOUS
 62
4
100
AcDbCircle
 10
211.6055749259766
 20
229.2553868536083
 30
0.000000000000000
 40
0.2222195458280311
100
AcDbArc
 50
188.7379000000000
 51
368.7379000000000
  0
LINE
  5
176
100
AcDbEntity
  8
A2
  6
CONTINUOUS
 62
4
100
AcDbLine
 10
211.8252153061081
 20
229.2891452594320
 30
0.000000000000000
 11
211.6809788896113
 21
230.2275823856880
 31
0.000000000000000
  0
LINE
  5
177
100
AcDbEntity
  8
A2
  6
CONTINUOUS
 62
4
100
AcDbLine
 10
211.6393333318004
 20
229.0357464734769
 30
0.000000000000000
 11
211.8012799003734
 21
227.9820828002524
 31
0.000000000000000
  0
LINE
  5
178
100
AcDbEntity
  8
A2
  6
CONTINUOUS
 62
4
100
AcDbLine
 10
212.2089854948855
 20
228.2818489592344
 30
0.000000000000000
 11
212.4205760904703
 21
230.2101059241998
 31
0.000000000000000
  0
LINE
  5
179
100
AcDbEntity
  8
A2
  6
CONTINUOUS
 62
4
100
AcDbLine
 10
213.2107327194549
 20
229.2772682656344
 30
0.000000000000000
 11
212.3029033163970
 21
229.1377362115160
 31
0.000000000000000
  0
SPLINE
  5
17A
100
AcDbEntity
  8
A1
  6
CONTINUOUS
 62
7
100
AcDbSpline
210
0.000000000000000
220
0.000000000000000
230
1.000000000000000
 70
     8
 71
     3
 72
     9
 73
     5
 74
     0
 42
1.000000000000000e-07
 43
1.000000000000000e-07
 12
-0.6192527721841543
 22
-0.7851916989769734
 32
0.000000000000000
 13
-0.6321138309610888
 23
-0.7748755414311290
 33
0.000000000000000
 40
0.000000000000000
 40
0.000000000000000
 40
0.000000000000000
 40
0.000000000000000
 40
0.8280431011018768
 40
1.659235454180972
 40
1.659235454180972
 40
1.659235454180972
 40
1.659235454180972
 10
280.0453686413981
 20
213.6812436496635
 30
0.000000000000000
 10
279.8744459794496
 20
213.4645194598701
 30
0.000000000000000
 10
279.5301624802240
 20
213.0316540782138
 30
0.000000000000000
 10
279.1823223265915
 20
212.6016414354865
 30
0.000000000000000
 10
279.0071862657348
 20
212.3869512272780
 30
0.000000000000000
  0
SPLINE
  5
17B
100
AcDbEntity
  8
A1
  6
CONTINUOUS
 62
7
100
AcDbSpline
210
0.000000000000000
220
0.000000000000000
230
1.000000000000000
 70
     8
 71
     3
 72
    12
 73
     8
 74
     0
 42
1.000000000000000e-07
 43
1.000000000000000e-07
 12
0.003126870678897831
 22
-0.9999951113281895
 32
0.000000000000000
 13
-0.6186521937333964
 23
-0.7856649815184937
 33
0.000000000000000
 40
0.000000000000000
 40
0.000000000000000
 40
0.000000000000000
 40
0.000000000000000
 40
0.3115193813733779
 40
0.6415086633567544
 40
0.9698982948325536
 40
1.312845533330934
 40
1.428502780373879
 40
1.428502780373879
 40
1.428502780373879
 40
1.428502780373879
 10
280.4881726715014
 20
215.0126265803226
 30
0.000000000000000
 10
280.4884973651080
 20
214.9087872941702
 30
0.000000000000000
 10
280.4746289584464
 20
214.6946687284492
 30
0.000000000000000
 10
280.4093410463561
 20
214.3768413783570
 30
0.000000000000000
 10
280.2919715587727
 20
214.0629336376137
 30
0.000000000000000
 10
280.1603529900019
 20
213.8343447577990
 30
0.000000000000000
 10
280.0692191779328
 20
213.7115329326170
 30
0.000000000000000
 10
280.0453686413981
 20
213.6812436496635
 30
0.000000000000000
  0
SPLINE
  5
17C
100
AcDbEntity
  8
A1
  6
CONTINUOUS
 62
7
100
AcDbSpline
210
0.000000000000000
220
0.000000000000000
230
1.000000000000000
 70
     8
 71
     3
 72
    13
 73
     9
 74
     0
 42
1.000000000000000e-07
 43
1.000000000000000e-07
 12
0.006041539014859154
 22
-0.9999817497364347
 32
0.000000000000000
 13
-0.6273196792558338
 23
-0.7787618506445142
 33
0.000000000000000
 40
0.000000000000000
 40
0.000000000000000
 40
0.000000000000000
 40
0.000000000000000
 40
0.2508543708908244
 40
0.5241441336124235
 40
0.8039062833361739
 40
1.101033745885226
 40
1.308330931506096
 40
1.518875617280813
 40
1.518875617280813
 40
1.518875617280813
 40
1.518875617280813
 10
280.4881726715014
 20
215.5167503461824
 30
0.000000000000000
 10
280.4886778536577
 20
215.4331337486050
 30
0.000000000000000
 10
280.4820118474883
 20
215.2583271725876
 30
0.000000000000000
 10
280.4491958739884
 20
214.9919382887479
 30
0.000000000000000
 10
280.3822102671601
 20
214.7158296794216
 30
0.000000000000000
 10
280.2863409642804
 20
214.4715496467518
 30
0.000000000000000
 10
280.1707174248240
 20
214.2626378397179
 30
0.000000000000000
 10
280.0893949163144
 20
214.1491006758023
 30
0.000000000000000
 10
280.0453686413980
 20
214.0944459527566
 30
0.000000000000000
  0
SPLINE
  5
17D
100
AcDbEntity
  8
A1
  6
CONTINUOUS
 62
7
100
AcDbSpline
210
0.000000000000000
220
0.000000000000000
230
1.000000000000000
 70
     8
 71
     3
 72
    15
 73
    11
 74
     0
 42
1.000000000000000e-07
 43
1.000000000000000e-07
 12
0.9760238174580991
 22
-0.2176637492912050
 32
0.000000000000000
 13
0.0009715113455968094
 23
-0.9999995280829808
 33
0.000000000000000
 40
0.000000000000000
 40
0.000000000000000
 40
0.000000000000000
 40
0.000000000000000
 40
0.3280494564915939
 40
0.6653174135746871
 40
0.9922951593715430
 40
1.327791611485103
 40
1.659739871445798
 40
2.000183209662486
 40
2.367450981549688
 40
2.746190459042341
 40
2.746190459042341
 40
2.746190459042341
 40
2.746190459042341
 10
278.9130319601641
 20
247.6380756019192
 30
0.000000000000000
 10
279.0197599877774
 20
247.6142741103682
 30
0.000000000000000
 10
279.2327382514468
 20
247.5483081223606
 30
0.000000000000000
 10
279.5289839277595
 20
247.3976864734237
 30
0.000000000000000
 10
279.7980565628338
 20
247.1985750504209
 30
0.000000000000000
 10
280.0294987672428
 20
246.9591204024104
 30
0.000000000000000
 10
280.2210505157273
 20
246.6813140699117
 30
0.000000000000000
 10
280.3691385596574
 20
246.3662403679381
 30
0.000000000000000
 10
280.4657641791798
 20
246.0153260712101
 30
0.000000000000000
 10
280.4880500216017
 20
245.7660634886891
 30
0.000000000000000
 10
280.4881726715014
 20
245.6398170557694
 30
0.000000000000000
  0
SPLINE
  5
17E
100
AcDbEntity
  8
A1
  6
CONTINUOUS
 62
7
100
AcDbSpline
210
0.000000000000000
220
0.000000000000000
230
1.000000000000000
 70
     8
 71
     3
 72
    27
 73
    23
 74
     0
 42
1.000000000000000e-07
 43
1.000000000000000e-07
 12
0.3232791834584532
 22
0.9463036349621916
 32
0.000000000000000
 13
0.5351340140973662
 23
0.8447671791423090
 33
0.000000000000000
 40
0.000000000000000
 40
0.000000000000000
 40
0.000000000000000
 40
0.000000000000000
 40
1.202231395360386
 40
2.380501779548168
 40
3.529947874193927
 40
4.645707684660890
 40
5.787048852674483
 40
6.886045724662504
 40
7.937227727409150
 40
8.715049440287824
 40
9.461664652712967
 40
10.17470099355977
 40
10.85178882897023
 40
11.64994697574153
 40
12.38751412217110
 40
13.06028303778446
 40
13.53497806268683
 40
13.96867682981469
 40
14.35982238914899
 40
14.70688824051695
 40
14.97615746155482
 40
15.21018479762061
 40
15.21018479762061
 40
15.21018479762061
 40
15.21018479762061
 10
267.9450803487670
 20
234.2226584952190
 30
0.000000000000000
 10
268.0746324767071
 20
234.6018838083841
 30
0.000000000000000
 10
268.3332297628076
 20
235.3520690867678
 30
0.000000000000000
 10
268.7226393591242
 20
236.4624188772238
 30
0.000000000000000
 10
269.1085703508524
 20
237.5434253929639
 30
0.000000000000000
 10
269.4966004239777
 20
238.6105916531403
 30
0.000000000000000
 10
269.8855654027507
 20
239.6595021470937
 30
0.000000000000000
 10
270.2740440004229
 20
240.6856078572022
 30
0.000000000000000
 10
270.6262242752379
 20
241.5958630956910
 30
0.000000000000000
 10
270.9416427398016
 20
242.3943684685426
 30
0.000000000000000
 10
271.2201081471300
 20
243.0862638557381
 30
0.000000000000000
 10
271.4905595537131
 20
243.7451718925334
 30
0.000000000000000
 10
271.7725345177789
 20
244.4179009642527
 30
0.000000000000000
 10
272.0638709870013
 20
245.0955476640826
 30
0.000000000000000
 10
272.3623128376492
 20
245.7685234042386
 30
0.000000000000000
 10
272.6245085782102
 20
246.3395729442336
 30
0.000000000000000
 10
272.8511006524832
 20
246.8154484815024
 30
0.000000000000000
 10
273.0427670777241
 20
247.2039355998488
 30
0.000000000000000
 10
273.2213176466694
 20
247.5514044800343
 30
0.000000000000000
 10
273.3809059802692
 20
247.8469173307120
 30
0.000000000000000
 10
273.5213619349244
 20
248.0931693280873
 30
0.000000000000000
 10
273.6092899392782
 20
248.2360824333689
 30
0.000000000000000
 10
273.6510352685307
 20
248.3019819708791
 30
0.000000000000000
  0
SPLINE
  5
17F
100
AcDbEntity
  8
A1
  6
CONTINUOUS
 62
7
100
AcDbSpline
210
0.000000000000000
220
0.000000000000000
230
1.000000000000000
 70
     8
 71
     3
 72
    11
 73
     7
 74
     0
 42
1.000000000000000e-07
 43
1.000000000000000e-07
 12
-0.3229258745209336
 22
-0.9464242598140800
 32
0.000000000000000
 13
-0.1582809547587658
 23
-0.9873941155184411
 33
0.000000000000000
 40
0.000000000000000
 40
0.000000000000000
 40
0.000000000000000
 40
0.000000000000000
 40
0.7215911984880906
 40
1.453742358325893
 40
2.200618254832357
 40
2.956848752741545
 40
2.956848752741545
 40
2.956848752741545
 40
2.956848752741545
 10
267.9450803487670
 20
234.2226584952190
 30
0.000000000000000
 10
267.8674068591609
 20
233.9950146899132
 30
0.000000000000000
 10
267.7206596453535
 20
233.5330033159760
 30
0.000000000000000
 10
267.5291509371855
 20
232.8246755598960
 30
0.000000000000000
 10
267.3653945242627
 20
232.0975932184662
 30
0.000000000000000
 10
267.2756340820575
 20
231.6044887034070
 30
0.000000000000000
 10
267.2357351203153
 20
231.3555895222032
 30
0.000000000000000
  0
SPLINE
  5
180
100
AcDbEntity
  8
A1
  6
CONTINUOUS
 62
7
100
AcDbSpline
210
0.000000000000000
220
0.000000000000000
230
1.000000000000000
 70
     8
 71
     3
 72
    21
 73
    17
 74
     0
 42
1.000000000000000e-07
 43
1.000000000000000e-07
 12
-0.9763387540174335
 22
0.2162467049515726
 32
0.000000000000000
 13
-0.5738484065423108
 23
-0.8189615414103173
 33
0.000000000000000
 40
0.000000000000000
 40
0.000000000000000
 40
0.000000000000000
 40
0.000000000000000
 40
0.3825930934008513
 40
0.7631383767127793
 40
1.134623560718071
 40
1.493877852190574
 40
1.836810973864439
 40
2.156504588847976
 40
2.441133832961956
 40
2.698384861256490
 40
2.923947096695585
 40
3.112550130848661
 40
3.270620469306706
 40
3.399098234956917
 40
3.489386570653133
 40
3.567341828104750
 40
3.567341828104750
 40
3.567341828104750
 40
3.567341828104750
 10
277.1315658507744
 20
248.0324445114961
 30
0.000000000000000
 10
277.0070523627388
 20
248.0600226767579
 30
0.000000000000000
 10
276.7584180817929
 20
248.1138018830356
 30
0.000000000000000
 10
276.3880175498559
 20
248.1902810580331
 30
0.000000000000000
 10
276.0244522573130
 20
248.2612980898464
 30
0.000000000000000
 10
275.6723472097847
 20
248.3254585200430
 30
0.000000000000000
 10
275.3362737926972
 20
248.3810821417629
 30
0.000000000000000
 10
275.0237212638602
 20
248.4261362654931
 30
0.000000000000000
 10
274.7383635339219
 20
248.4589877947872
 30
0.000000000000000
 10
274.4832474637974
 20
248.4788004631571
 30
0.000000000000000
 10
274.2593796272439
 20
248.4849538004069
 30
0.000000000000000
 10
274.0686313676303
 20
248.4760231686899
 30
0.000000000000000
 10
273.9115599350203
 20
248.4526389328387
 30
0.000000000000000
 10
273.7909707654201
 20
248.4153094498654
 30
0.000000000000000
 10
273.7038572122387
 20
248.3658409458936
 30
0.000000000000000
 10
273.6659467686207
 20
248.3232627568137
 30
0.000000000000000
 10
273.6510352685307
 20
248.3019819708791
 30
0.000000000000000
  0
SPLINE
  5
181
100
AcDbEntity
  8
A1
  6
CONTINUOUS
 62
7
100
AcDbSpline
210
0.000000000000000
220
0.000000000000000
230
1.000000000000000
 70
     8
 71
     3
 72
    11
 73
     7
 74
     0
 42
1.000000000000000e-07
 43
1.000000000000000e-07
 12
-0.1580885116582067
 22
-0.9874249452398089
 32
0.000000000000000
 13
0.0006548237893184705
 23
-0.9999997856029950
 33
0.000000000000000
 40
0.000000000000000
 40
0.000000000000000
 40
0.000000000000000
 40
0.000000000000000
 40
0.7888953822516714
 40
1.586961101536921
 40
2.399422826284652
 40
3.216599005548976
 40
3.216599005548976
 40
3.216599005548976
 40
3.216599005548976
 10
267.2357351203153
 20
231.3555895222032
 30
0.000000000000000
 10
267.1941633547039
 20
231.0959311956633
 30
0.000000000000000
 10
267.1211565501074
 20
230.5718265450226
 30
0.000000000000000
 10
267.0439975940451
 20
229.7755300946409
 30
0.000000000000000
 10
266.9981751190454
 20
228.9673988355840
 30
0.000000000000000
 10
266.9879943027010
 20
228.4241266004913
 30
0.000000000000000
 10
266.9881726715017
 20
228.1517345991366
 30
0.000000000000000
  0
ELLIPSE
  5
182
100
AcDbEntity
  8
A1
  6
CONTINUOUS
 62
7
100
AcDbEllipse
 10
280.4881726715014
 20
211.0530122739351
 30
0.000000000000000
 11
2.000000000000000
 21
0.000000000000000
 31
0.000000000000000
210
0.000000000000000
220
0.000000000000000
230
1.000000000000000
 40
0.9883936145804318
 41
2.463224831974251
 42
3.141592653589793
  0
ELLIPSE
  5
183
100
AcDbEntity
  8
A1
  6
CONTINUOUS
 62
7
100
AcDbEllipse
 10
280.4881726715012
 20
198.5521570751461
 30
0.000000000000000
 11
-6.000000000000000
 21
0.000000000000000
 31
0.000000000000000
210
0.000000000000000
220
0.000000000000000
230
1.000000000000000
 40
0.9883936145804318
 41
1.570796326794897
 42
3.141592653589793
  0
ELLIPSE
  5
184
100
AcDbEntity
  8
A1
  6
CONTINUOUS
 62
7
100
AcDbEllipse
 10
270.9881726715017
 20
196.5753698459353
 30
0.000000000000000
 11
-4.000000000000000
 21
0.000000000000000
 31
0.000000000000000
210
0.000000000000000
220
0.000000000000000
230
1.000000000000000
 40
0.9883936145804318
 41
0.000000000000000
 42
1.570796326794897
  0
ELLIPSE
  5
185
100
AcDbEntity
  8
A1
  6
CONTINUOUS
 62
7
100
AcDbEllipse
 10
285.4881726715012
 20
201.8211673258823
 30
0.000000000000000
 11
1.000000000000000
 21
0.000000000000000
 31
0.000000000000000
210
0.000000000000000
220
0.000000000000000
230
1.000000000000000
 40
0.9883936145804318
 41
0.000000000000000
 42
1.570796326794897
  0
ELLIPSE
  5
186
100
AcDbEntity
  8
A1
  6
CONTINUOUS
 62
7
100
AcDbEllipse
 10
280.4881726715015
 20
204.7863481695974
 30
0.000000000000000
 11
-2.000000000000000
 21
0.000000000000000
 31
0.000000000000000
210
0.000000000000000
220
0.000000000000000
230
1.000000000000000
 40
0.9883936145804318
 41
0.000000000000000
 42
1.570796326794897
  0
ELLIPSE
  5
187
100
AcDbEntity
  8
A1
  6
CONTINUOUS
 62
7
100
AcDbEllipse
 10
270.9881726715017
 20
196.8791992529039
 30
0.000000000000000
 11
4.000000000000000
 21
0.000000000000000
 31
0.000000000000000
210
0.000000000000000
220
0.000000000000000
230
1.000000000000000
 40
0.9883936145804318
 41
3.141592653589793
 42
4.712388980384690
  0
ELLIPSE
  5
188
100
AcDbEntity
  8
A1
  6
CONTINUOUS
 62
7
100
AcDbEllipse
 10
280.4881726715012
 20
198.8559864821147
 30
0.000000000000000
 11
6.000000000000000
 21
0.000000000000000
 31
0.000000000000000
210
0.000000000000000
220
0.000000000000000
230
1.000000000000000
 40
0.9883936145804318
 41
4.712388980384690
 42
0.000000000000000
  0
ARC
  5
189
100
AcDbEntity
  8
A1
  6
CONTINUOUS
 62
7
100
AcDbCircle
 10
280.4729313375181
 20
211.4671481448601
 30
0.000000000000000
 40
1.984758816559763
100
AcDbArc
 50
142.8789196858707
 51
179.9776841146751
  0
LINE
  5
18A
100
AcDbEntity
  8
A1
  6
CONTINUOUS
 62
7
100
AcDbLine
 10
279.0071862657348
 20
212.3869512272780
 30
0.000000000000000
 11
278.9309767016048
 21
212.2934918244753
 31
0.000000000000000
  0
LINE
  5
18B
100
AcDbEntity
  8
A1
  6
CONTINUOUS
 62
7
100
AcDbLine
 10
278.8903601930880
 20
212.6649528587967
 30
0.000000000000000
 11
278.9309767016048
 21
212.7168597389917
 31
0.000000000000000
  0
LINE
  5
18C
100
AcDbEntity
  8
A1
  6
CONTINUOUS
 62
7
100
AcDbLine
 10
278.9309767016049
 20
212.7168597389917
 30
0.000000000000000
 11
279.1104603292540
 21
212.9386069222678
 31
0.000000000000000
  0
LINE
  5
18D
100
AcDbEntity
  8
A1
  6
CONTINUOUS
 62
7
100
AcDbLine
 10
279.1104603292541
 20
212.9386069222679
 30
0.000000000000000
 11
280.0453686413981
 21
214.0944459527567
 31
0.000000000000000
  0
LINE
  5
18E
100
AcDbEntity
  8
A1
  6
CONTINUOUS
 62
7
100
AcDbLine
 10
280.4881726715331
 20
192.6217954829676
 30
0.000000000000000
 11
270.9881726715230
 21
192.6217954829177
 31
0.000000000000000
  0
LINE
  5
18F
100
AcDbEntity
  8
A1
  6
CONTINUOUS
 62
7
100
AcDbLine
 10
266.9881726715018
 20
196.5753698459353
 30
0.000000000000000
 11
266.9881726715012
 21
196.8791992529039
 31
0.000000000000000
  0
LINE
  5
190
100
AcDbEntity
  8
A1
  6
CONTINUOUS
 62
7
100
AcDbLine
 10
280.4881726715122
 20
202.8095609404364
 30
0.000000000000000
 11
285.4881726714959
 21
202.8095609404627
 31
0.000000000000000
  0
LINE
  5
191
100
AcDbEntity
  8
A1
  6
CONTINUOUS
 62
7
100
AcDbLine
 10
278.4881726715014
 20
204.7863481695974
 30
0.000000000000000
 11
278.4881726715013
 21
211.4679211799667
 31
0.000000000000000
  0
LINE
  5
192
100
AcDbEntity
  8
A1
  6
CONTINUOUS
 62
7
100
AcDbLine
 10
280.4881726715331
 20
192.9256247946321
 30
0.000000000000000
 11
270.9881726715230
 21
192.9256247945821
 31
0.000000000000000
  0
LINE
  5
193
100
AcDbEntity
  8
A1
  6
CONTINUOUS
 62
7
100
AcDbLine
 10
278.9130319601641
 20
247.6380756019192
 30
0.000000000000000
 11
277.1315658507744
 21
248.0324445114962
 31
0.000000000000000
  0
SPLINE
  5
194
100
AcDbEntity
  8
A1
  6
CONTINUOUS
 62
7
100
AcDbSpline
210
0.000000000000000
220
0.000000000000000
230
1.000000000000000
 70
     8
 71
     3
 72
    18
 73
    14
 74
     0
 42
1.000000000000000e-07
 43
1.000000000000000e-07
 12
-0.4319663003552705
 22
0.9018897467758507
 32
0.000000000000000
 13
-0.01940025485419028
 23
0.9998117973455010
 33
0.000000000000000
 40
0.000000000000000
 40
0.000000000000000
 40
0.000000000000000
 40
0.000000000000000
 40
0.01872779659875650
 40
0.6743438168565622
 40
1.321483003202146
 40
1.956155186573513
 40
2.591690832784638
 40
3.209733965695199
 40
3.803316905245101
 40
4.366137150932396
 40
4.810943505968939
 40
5.229540397056583
 40
5.617860682475696
 40
5.617860682475696
 40
5.617860682475696
 40
5.617860682475696
 10
283.9881726715015
 20
230.2875168380500
 30
0.000000000000000
 10
283.9854760791646
 20
230.2931469739607
 30
0.000000000000000
 10
283.8883556970367
 20
230.4958641525732
 30
0.000000000000000
 10
283.6971151950632
 20
230.8926798449246
 30
0.000000000000000
 10
283.4167037859937
 20
231.4744352935966
 30
0.000000000000000
 10
283.1422806674107
 20
232.0516420809332
 30
0.000000000000000
 10
282.8775764978587
 20
232.6227093351069
 30
0.000000000000000
 10
282.6290484782709
 20
233.1861136336835
 30
0.000000000000000
 10
282.4069286083326
 20
233.7344257107151
 30
0.000000000000000
 10
282.2283319834332
 20
234.2377096716674
 30
0.000000000000000
 10
282.0961349178547
 20
234.6945898250964
 30
0.000000000000000
 10
282.0102712780837
 20
235.1037554914335
 30
0.000000000000000
 10
281.9906838423356
 20
235.3728601327842
 30
0.000000000000000
 10
281.9881726715015
 20
235.5022758669544
 30
0.000000000000000
  0
SPLINE
  5
195
100
AcDbEntity
  8
A1
  6
CONTINUOUS
 62
7
100
AcDbSpline
210
0.000000000000000
220
0.000000000000000
230
1.000000000000000
 70
     8
 71
     3
 72
    18
 73
    14
 74
     0
 42
1.000000000000000e-07
 43
1.000000000000000e-07
 12
0.01940024714849642
 22
0.9998117974953402
 32
0.000000000000000
 13
0.4319662878333475
 23
0.9018897527785157
 33
0.000000000000000
 40
0.000000000000000
 40
0.000000000000000
 40
0.000000000000000
 40
0.000000000000000
 40
0.3883203658442321
 40
0.8069173309239352
 40
1.251723752648736
 40
1.814544068922761
 40
2.408127069992020
 40
3.026170255814024
 40
3.661705946695072
 40
4.296378166220003
 40
4.943517381683329
 40
5.599133424103586
 40
5.617861221231078
 40
5.617861221231078
 40
5.617861221231078
 40
5.617861221231078
 10
281.9881726715015
 20
221.8940499062870
 30
0.000000000000000
 10
281.9906838418582
 20
222.0234656672799
 30
0.000000000000000
 10
282.0102712774151
 20
222.2925703601402
 30
0.000000000000000
 10
282.0961349163204
 20
222.7017361018446
 30
0.000000000000000
 10
282.2283319815671
 20
223.1586163287482
 30
0.000000000000000
 10
282.4069286060713
 20
223.6619003601806
 30
0.000000000000000
 10
282.6290484761420
 20
224.2102125037512
 30
0.000000000000000
 10
282.8775764958745
 20
224.7736168602581
 30
0.000000000000000
 10
283.1422806656217
 20
225.3446841634950
 30
0.000000000000000
 10
283.4167037843073
 20
225.9218909913698
 30
0.000000000000000
 10
283.6971151932795
 20
226.5036464724461
 30
0.000000000000000
 10
283.8883556965970
 20
226.9004621833180
 30
0.000000000000000
 10
283.9854760791666
 20
227.1031793701059
 30
0.000000000000000
 10
283.9881726715015
 20
227.1088095062130
 30
0.000000000000000
  0
ARC
  5
196
100
AcDbEntity
  8
A1
  6
CONTINUOUS
 62
7
100
AcDbCircle
 10
283.9881726715015
 20
258.6981571281773
 30
0.000000000000000
 40
2.000000000000000
100
AcDbArc
 50
90.00000000000000
 51
180.0000000000001
  0
ARC
  5
197
100
AcDbEntity
  8
A1
  6
CONTINUOUS
 62
7
100
AcDbCircle
 10
281.4881726715014
 20
236.6981623198388
 30
0.000000000000000
 40
1.000000000000000
100
AcDbArc
 50
90.00000000000000
 51
180.0000000000000
  0
ARC
  5
198
100
AcDbEntity
  8
A1
  6
CONTINUOUS
 62
7
100
AcDbCircle
 10
281.4881726715014
 20
220.6981623198388
 30
0.000000000000000
 40
1.000000000000000
100
AcDbArc
 50
180.0000000000000
 51
270.0000000000000
  0
LINE
  5
199
100
AcDbEntity
  8
A1
  6
CONTINUOUS
 62
7
100
AcDbLine
 10
286.9881726715015
 20
260.6981571281773
 30
0.000000000000000
 11
283.9881726715015
 21
260.6981571281773
 31
0.000000000000000
  0
LINE
  5
19A
100
AcDbEntity
  8
A1
  6
CONTINUOUS
 62
7
100
AcDbLine
 10
286.1874261410515
 20
196.6981588286195
 30
0.000000000000000
 11
286.9881726715015
 21
196.6981588286195
 31
0.000000000000000
  0
LINE
  5
19B
100
AcDbEntity
  8
A1
  6
CONTINUOUS
 62
7
100
AcDbLine
 10
281.4881726715014
 20
219.6981623198388
 30
0.000000000000000
 11
281.9881726715015
 21
219.6981623198388
 31
0.000000000000000
  0
LINE
  5
19C
100
AcDbEntity
  8
A1
  6
CONTINUOUS
 62
7
100
AcDbLine
 10
281.9881726715015
 20
237.6981623198388
 30
0.000000000000000
 11
281.4881726715014
 21
237.6981623198388
 31
0.000000000000000
  0
LINE
  5
19D
100
AcDbEntity
  8
A1
  6
CONTINUOUS
 62
7
100
AcDbLine
 10
267.9881726715018
 20
211.3665694108269
 30
0.000000000000000
 11
277.4881726715017
 21
213.4586779098708
 31
0.000000000000000
  0
LINE
  5
19E
100
AcDbEntity
  8
A1
  6
CONTINUOUS
 62
7
100
AcDbLine
 10
266.9881726715012
 20
196.8791992529039
 30
0.000000000000000
 11
266.9881726715017
 21
228.1517345991366
 31
0.000000000000000
  0
LINE
  5
19F
100
AcDbEntity
  8
A1
  6
CONTINUOUS
 62
7
100
AcDbLine
 10
280.4881726715014
 20
215.0126265803226
 30
0.000000000000000
 11
280.4881726715014
 21
245.6398170557694
 31
0.000000000000000
  0
LINE
  5
1A0
100
AcDbEntity
  8
A1
  6
CONTINUOUS
 62
7
100
AcDbLine
 10
281.9881726715014
 20
235.5022758669544
 30
0.000000000000000
 11
281.9881726715014
 21
258.6981571281773
 31
0.000000000000000
  0
LINE
  5
1A1
100
AcDbEntity
  8
A1
  6
CONTINUOUS
 62
7
100
AcDbLine
 10
286.9881726715015
 20
196.6981588286195
 30
0.000000000000000
 11
286.9881726715015
 21
260.6981571281773
 31
0.000000000000000
  0
LINE
  5
1A2
100
AcDbEntity
  8
A1
  6
CONTINUOUS
 62
7
100
AcDbLine
 10
286.4881726715012
 20
198.5521571704502
 30
0.000000000000000
 11
286.4881726715012
 21
201.8211673258823
 31
0.000000000000000
  0
LINE
  5
1A3
100
AcDbEntity
  8
A1
  6
CONTINUOUS
 62
7
100
AcDbLine
 10
281.9881726715014
 20
202.8095609404444
 30
0.000000000000000
 11
281.9881726715015
 21
221.8940499062870
 31
0.000000000000000
  0
SPLINE
  5
1A4
100
AcDbEntity
  8
A1
  6
CONTINUOUS
 62
7
100
AcDbSpline
210
0.000000000000000
220
0.000000000000000
230
1.000000000000000
 70
     8
 71
     3
 72
    17
 73
    13
 74
     0
 42
1.000000000000000e-07
 43
1.000000000000000e-07
 12
0.3101748153392236
 22
0.9506795379777486
 32
0.000000000000000
 13
0.9904459297338235
 23
0.2242229844766825
 33
0.000000000000000
 40
0.000000000000000
 40
0.000000000000000
 40
0.000000000000000
 40
0.000000000000000
 40
0.3436692642553604
 40
0.7241617490218588
 40
1.104706127343516
 40
1.475299031773940
 40
1.848018484707552
 40
2.219958307430711
 40
2.583521436741304
 40
2.947490730440146
 40
3.309047883539896
 40
3.617285706774512
 40
3.619676459581536
 40
3.619676459581536
 40
3.619676459581536
 10
206.6317298501828
 20
143.6223018202610
 30
0.000000000000000
 10
206.6672623670422
 20
143.7312082660475
 30
0.000000000000000
 10
206.7538788523987
 20
143.9570506976962
 30
0.000000000000000
 10
206.9227154934612
 20
144.2851586034529
 30
0.000000000000000
 10
207.1323762981268
 20
144.5997533506135
 30
0.000000000000000
 10
207.3752573138781
 20
144.8859933619538
 30
0.000000000000000
 10
207.6455107727011
 20
145.1422844016981
 30
0.000000000000000
 10
207.9397613699069
 20
145.3668246882744
 30
0.000000000000000
 10
208.2540144609194
 20
145.5567252953130
 30
0.000000000000000
 10
208.5826178160858
 20
145.7123051061074
 30
0.000000000000000
 10
208.9073591998386
 20
145.8295095101911
 30
0.000000000000000
 10
209.1249610261457
 20
145.8839130796064
 30
0.000000000000000
 10
209.2267253252833
 20
145.9069510811578
 30
0.000000000000000
  0
SPLINE
  5
1A5
100
AcDbEntity
  8
A1
  6
CONTINUOUS
 62
7
100
AcDbSpline
210
0.000000000000000
220
0.000000000000000
230
1.000000000000000
 70
     8
 71
     3
 72
    17
 73
    13
 74
     0
 42
1.000000000000000e-07
 43
1.000000000000000e-07
 12
-0.9644592800441387
 22
-0.2642315218449767
 32
0.000000000000000
 13
-0.2898794027651093
 23
-0.9570631807009704
 33
0.000000000000000
 40
0.000000000000000
 40
0.000000000000000
 40
0.000000000000000
 40
0.000000000000000
 40
0.3534892069521331
 40
0.7358017062338728
 40
1.121221597510166
 40
1.508811661719189
 40
1.895021658623673
 40
2.260452435661742
 40
2.626104409924343
 40
2.989372170882216
 40
3.348399229877788
 40
3.512198477114649
 40
3.512198477114649
 40
3.512198477114649
 40
3.512198477114649
 10
209.3673094183592
 20
145.9405662337356
 30
0.000000000000000
 10
209.2536674363457
 20
145.9094319033661
 30
0.000000000000000
 10
209.0200413772271
 20
145.8334844628487
 30
0.000000000000000
 10
208.6766184963603
 20
145.6843670575707
 30
0.000000000000000
 10
208.3415284625690
 20
145.4930021888051
 30
0.000000000000000
 10
208.0277849512703
 20
145.2661963633105
 30
0.000000000000000
 10
207.7456063540897
 20
145.0108272717461
 30
0.000000000000000
 10
207.4991116732072
 20
144.7306519322127
 30
0.000000000000000
 10
207.2884350771766
 20
144.4320156235849
 30
0.000000000000000
 10
207.1120726440980
 20
144.1142893991350
 30
0.000000000000000
 10
206.9985555011374
 20
143.8409238064966
 30
0.000000000000000
 10
206.9439802430492
 20
143.6753585617258
 30
0.000000000000000
 10
206.9281529003950
 20
143.6231031522068
 30
0.000000000000000
  0
SPLINE
  5
1A6
100
AcDbEntity
  8
A1
  6
CONTINUOUS
 62
7
100
AcDbSpline
210
0.000000000000000
220
0.000000000000000
230
1.000000000000000
 70
     8
 71
     3
 72
    10
 73
     6
 74
     0
 42
1.000000000000000e-07
 43
1.000000000000000e-07
 12
-0.9777514162276475
 22
-0.2097669374915085
 32
0.000000000000000
 13
-0.9869102363047659
 23
-0.1612705350542001
 33
0.000000000000000
 40
0.000000000000000
 40
0.000000000000000
 40
0.000000000000000
 40
0.000000000000000
 40
0.6055325474373578
 40
1.787367678212272
 40
2.383816619475548
 40
2.383816619475548
 40
2.383816619475548
 40
2.383816619475548
 10
212.1043266451444
 20
146.4695004561420
 30
0.000000000000000
 10
211.9069732098681
 20
146.4271602201329
 30
0.000000000000000
 10
211.3236629316693
 20
146.3058013156001
 30
0.000000000000000
 10
210.5428747647184
 20
146.1577611352376
 30
0.000000000000000
 10
209.9584648242207
 20
146.0585207342239
 30
0.000000000000000
 10
209.7622509690320
 20
146.0264575209272
 30
0.000000000000000
  0
SPLINE
  5
1A7
100
AcDbEntity
  8
A1
  6
CONTINUOUS
 62
7
100
AcDbSpline
210
0.000000000000000
220
0.000000000000000
230
1.000000000000000
 70
     8
 71
     3
 72
     9
 73
     5
 74
     0
 42
1.000000000000000e-07
 43
1.000000000000000e-07
 12
-0.9853146588948221
 22
-0.1707484201019724
 32
0.000000000000000
 13
-0.9672164785988571
 23
-0.2539533097333333
 33
0.000000000000000
 40
0.000000000000000
 40
0.000000000000000
 40
0.000000000000000
 40
0.000000000000000
 40
0.3766351102046520
 40
0.4041967222028671
 40
0.4041967222028671
 40
0.4041967222028671
 40
0.4041967222028671
 10
209.7622509690320
 20
146.0264575209272
 30
0.000000000000000
 10
209.6385496039857
 20
146.0050209042531
 30
0.000000000000000
 10
209.5066071039302
 20
145.9767348447492
 30
0.000000000000000
 10
209.3761954334597
 20
145.9428993545985
 30
0.000000000000000
 10
209.3673094183592
 20
145.9405662337356
 30
0.000000000000000
  0
SPLINE
  5
1A8
100
AcDbEntity
  8
A1
  6
CONTINUOUS
 62
7
100
AcDbSpline
210
0.000000000000000
220
0.000000000000000
230
1.000000000000000
 70
     8
 71
     3
 72
    12
 73
     8
 74
     0
 42
1.000000000000000e-07
 43
1.000000000000000e-07
 12
-0.9987226131906937
 22
-0.05052862459069729
 32
0.000000000000000
 13
-0.06256261424641707
 23
0.9980410408888929
 33
0.000000000000000
 40
0.000000000000000
 40
0.000000000000000
 40
0.000000000000000
 40
0.000000000000000
 40
0.1200899693470202
 40
0.2326468628683416
 40
0.3620357287050376
 40
0.5367349300948943
 40
0.6059277961215863
 40
0.6059277961215863
 40
0.6059277961215863
 40
0.6059277961215863
 10
212.1953778670958
 20
139.1217954830547
 30
0.000000000000000
 10
212.1553990110943
 20
139.1197728227286
 30
0.000000000000000
 10
212.0756030502640
 20
139.1318142493387
 30
0.000000000000000
 10
211.9745278386662
 20
139.2068978852463
 30
0.000000000000000
 10
211.9171197448798
 20
139.3377056691196
 30
0.000000000000000
 10
211.8970699568746
 20
139.4606271095468
 30
0.000000000000000
 10
211.8891600768938
 20
139.5415804064810
 30
0.000000000000000
 10
211.8877171146985
 20
139.5645995131582
 30
0.000000000000000
  0
SPLINE
  5
1A9
100
AcDbEntity
  8
A1
  6
CONTINUOUS
 62
7
100
AcDbSpline
210
0.000000000000000
220
0.000000000000000
230
1.000000000000000
 70
     8
 71
     3
 72
     9
 73
     5
 74
     0
 42
1.000000000000000e-07
 43
1.000000000000000e-07
 12
0.03456755124716437
 22
0.9994023636154452
 32
0.000000000000000
 13
0.1867242504365549
 23
0.9824123646916405
 33
0.000000000000000
 40
0.000000000000000
 40
0.000000000000000
 40
0.000000000000000
 40
0.000000000000000
 40
0.1036071373495252
 40
0.6303926187230185
 40
0.6303926187230185
 40
0.6303926187230185
 40
0.6303926187230185
 10
211.8799169157038
 20
139.9765469932793
 30
0.000000000000000
 10
211.8811107307138
 20
140.0110620659308
 30
0.000000000000000
 10
211.8910093624000
 20
140.2209515006089
 30
0.000000000000000
 10
211.9171509916370
 20
140.4302750320076
 30
0.000000000000000
 10
211.9499388663538
 20
140.6027818888214
 30
0.000000000000000
  0
ELLIPSE
  5
1AA
100
AcDbEntity
  8
A1
  6
CONTINUOUS
 62
7
100
AcDbEllipse
 10
216.0531143825313
 20
139.1217954830549
 30
0.000000000000000
 11
0.000000000000000
 21
-6.000000000000000
 31
0.000000000000000
210
0.000000000000000
220
0.000000000000000
230
1.000000000000000
 40
0.1519146558322425
 41
0.000000000000000
 42
1.570796326794897
  0
ELLIPSE
  5
1AB
100
AcDbEntity
  8
A1
  6
CONTINUOUS
 62
7
100
AcDbEllipse
 10
213.6205825657980
 20
134.1217954830549
 30
0.000000000000000
 11
0.000000000000000
 21
1.000000000000000
 31
0.000000000000000
210
0.000000000000000
220
0.000000000000000
230
1.000000000000000
 40
0.1519146558322425
 41
1.570796326794897
 42
3.141592653589793
  0
ELLIPSE
  5
1AC
100
AcDbEntity
  8
A1
  6
CONTINUOUS
 62
7
100
AcDbEllipse
 10
214.0763265332988
 20
139.1217954830549
 30
0.000000000000000
 11
0.000000000000000
 21
6.000000000000000
 31
0.000000000000000
210
0.000000000000000
220
0.000000000000000
230
1.000000000000000
 40
0.1519146558322425
 41
3.141592653589793
 42
4.712388980384690
  0
ELLIPSE
  5
1AD
100
AcDbEntity
  8
A1
  6
CONTINUOUS
 62
7
100
AcDbEllipse
 10
212.1549633363716
 20
139.1217954830548
 30
0.000000000000000
 11
0.000000000000000
 21
-2.000000000000000
 31
0.000000000000000
210
0.000000000000000
220
0.000000000000000
230
1.000000000000000
 40
0.1519146558322425
 41
3.141592653589793
 42
3.819960475205335
  0
ELLIPSE
  5
1AE
100
AcDbEntity
  8
A1
  6
CONTINUOUS
 62
7
100
AcDbEllipse
 10
213.1648385983053
 20
139.1217954830547
 30
0.000000000000000
 11
0.000000000000000
 21
-2.000000000000000
 31
0.000000000000000
210
0.000000000000000
220
0.000000000000000
230
1.000000000000000
 40
0.1519146558322425
 41
1.570796326794897
 42
3.141592653589793
  0
ELLIPSE
  5
1AF
100
AcDbEntity
  8
A1
  6
CONTINUOUS
 62
7
100
AcDbEllipse
 10
216.3569436942034
 20
148.6217954830544
 30
0.000000000000000
 11
0.000000000000000
 21
-4.000000000000000
 31
0.000000000000000
210
0.000000000000000
220
0.000000000000000
230
1.000000000000000
 40
0.1519146558322425
 41
1.570796326794897
 42
3.141592653589793
  0
ELLIPSE
  5
1B0
100
AcDbEntity
  8
A1
  6
CONTINUOUS
 62
7
100
AcDbEllipse
 10
214.3801558449709
 20
148.6217954830544
 30
0.000000000000000
 11
0.000000000000000
 21
4.000000000000000
 31
0.000000000000000
210
0.000000000000000
220
0.000000000000000
230
1.000000000000000
 40
0.1519146558322425
 41
4.712388980384690
 42
0.000000000000000
  0
ARC
  5
1B1
100
AcDbEntity
  8
A1
  6
CONTINUOUS
 62
7
100
AcDbCircle
 10
208.6872063491419
 20
148.4651085693766
 30
0.000000000000000
 40
2.614609788967322
100
AcDbArc
 50
281.9602800742429
 51
285.0836750147856
  0
ARC
  5
1B2
100
AcDbEntity
  8
A1
  6
CONTINUOUS
 62
7
100
AcDbCircle
 10
222.4429295304169
 20
141.1217954830547
 30
0.000000000000000
 40
2.000000000000000
100
AcDbArc
 50
270.0000000000000
 51
347.7352262721070
  0
LINE
  5
1B3
100
AcDbEntity
  8
A1
  6
CONTINUOUS
 62
7
100
AcDbLine
 10
200.9429295304170
 20
141.1217954830547
 30
0.000000000000000
 11
200.9429295304170
 21
139.1217954830547
 31
0.000000000000000
  0
LINE
  5
1B4
100
AcDbEntity
  8
A1
  6
CONTINUOUS
 62
7
100
AcDbLine
 10
222.4429295304169
 20
139.1217954830547
 30
0.000000000000000
 11
216.9646023175248
 21
139.1217954830547
 31
0.000000000000000
  0
LINE
  5
1B5
100
AcDbEntity
  8
A1
  6
CONTINUOUS
 62
7
100
AcDbLine
 10
224.3972822582624
 20
140.6969361943925
 30
0.000000000000000
 11
226.9881726716961
 21
152.6150320961872
 31
0.000000000000000
  0
LINE
  5
1B6
100
AcDbEntity
  8
A1
  6
CONTINUOUS
 62
7
100
AcDbLine
 10
226.9881726712117
 20
152.6150320966527
 30
0.000000000000000
 11
226.9811326706709
 21
152.6217954830544
 31
0.000000000000000
  0
LINE
  5
1B7
100
AcDbEntity
  8
A1
  6
CONTINUOUS
 62
7
100
AcDbLine
 10
211.8877171146986
 20
139.5645995131581
 30
0.000000000000000
 11
211.8799169157038
 21
139.9765469932793
 31
0.000000000000000
  0
LINE
  5
1B8
100
AcDbEntity
  8
A1
  6
CONTINUOUS
 62
7
100
AcDbLine
 10
212.3080701523364
 20
152.6217954830544
 30
0.000000000000000
 11
212.3567713433298
 21
152.6217954830544
 31
0.000000000000000
  0
LINE
  5
1B9
100
AcDbEntity
  8
A1
  6
CONTINUOUS
 62
7
100
AcDbLine
 10
216.0531143825313
 20
133.1217954830550
 30
0.000000000000000
 11
214.0763271533705
 21
133.1217954830550
 31
0.000000000000000
  0
LINE
  5
1BA
100
AcDbEntity
  8
A1
  6
CONTINUOUS
 62
7
100
AcDbLine
 10
216.9646023175247
 20
139.1217954830230
 30
0.000000000000000
 11
216.9646023175324
 21
148.6217954830332
 31
0.000000000000000
  0
LINE
  5
1BB
100
AcDbEntity
  8
A1
  6
CONTINUOUS
 62
7
100
AcDbLine
 10
213.4686685300386
 20
135.6217954830547
 30
0.000000000000000
 11
213.4686685300374
 21
134.1217954830603
 31
0.000000000000000
  0
LINE
  5
1BC
100
AcDbEntity
  8
A1
  6
CONTINUOUS
 62
7
100
AcDbLine
 10
213.4686685300415
 20
139.1217954830441
 30
0.000000000000000
 11
213.4686685300387
 21
135.6217954830547
 31
0.000000000000000
  0
LINE
  5
1BD
100
AcDbEntity
  8
A1
  6
CONTINUOUS
 62
7
100
AcDbLine
 10
214.0763271533705
 20
133.1217954830550
 30
0.000000000000000
 11
213.6205831858697
 21
133.1217954830550
 31
0.000000000000000
  0
LINE
  5
1BE
100
AcDbEntity
  8
A1
  6
CONTINUOUS
 62
7
100
AcDbLine
 10
214.9878150883639
 20
139.1217954830230
 30
0.000000000000000
 11
214.9878150883716
 21
148.6217954830331
 31
0.000000000000000
  0
LINE
  5
1BF
100
AcDbEntity
  8
A1
  6
CONTINUOUS
 62
7
100
AcDbLine
 10
211.9499388663538
 20
140.6027818888214
 30
0.000000000000000
 11
211.9643034401447
 21
140.6789914529513
 31
0.000000000000000
  0
LINE
  5
1C0
100
AcDbEntity
  8
A1
  6
CONTINUOUS
 62
7
100
AcDbLine
 10
213.1648392183770
 20
141.1217954830547
 30
0.000000000000000
 11
212.1549639564432
 21
141.1217954830548
 31
0.000000000000000
  0
SPLINE
  5
1C1
100
AcDbEntity
  8
A1
  6
CONTINUOUS
 62
7
100
AcDbSpline
210
0.000000000000000
220
0.000000000000000
230
1.000000000000000
 70
     8
 71
     3
 72
    15
 73
    11
 74
     0
 42
1.000000000000000e-07
 43
1.000000000000000e-07
 12
0.8683420218662832
 22
-0.4959658587649756
 32
0.000000000000000
 13
0.3508502426411724
 23
-0.9364315817147144
 33
0.000000000000000
 40
0.000000000000000
 40
0.000000000000000
 40
0.000000000000000
 40
0.000000000000000
 40
0.3740837632560485
 40
0.7680918907280556
 40
1.142428512551310
 40
1.399861486870202
 40
1.648272932835040
 40
1.890133600597429
 40
2.123620355765310
 40
2.132264769846354
 40
2.132264769846354
 40
2.132264769846354
 40
2.132264769846354
 10
216.9166273535051
 20
137.1896155811623
 30
0.000000000000000
 10
217.0249049039495
 20
137.1277713228646
 30
0.000000000000000
 10
217.2404188452755
 20
136.9884338367155
 30
0.000000000000000
 10
217.5354276443762
 20
136.7463043839385
 30
0.000000000000000
 10
217.7732809221858
 20
136.4995369602212
 30
0.000000000000000
 10
217.9550208611660
 20
136.2688100079167
 30
0.000000000000000
 10
218.0924749618553
 20
136.0605386200328
 30
0.000000000000000
 10
218.2077775672969
 20
135.8482947847369
 30
0.000000000000000
 10
218.2720312388958
 20
135.7000267859508
 30
0.000000000000000
 10
218.3004713611694
 20
135.6244937838383
 30
0.000000000000000
 10
218.3014823260953
 20
135.6217954830547
 30
0.000000000000000
  0
ARC
  5
1C2
100
AcDbEntity
  8
A1
  6
CONTINUOUS
 62
7
100
AcDbCircle
 10
217.4429295304170
 20
138.1217954830547
 30
0.000000000000000
 40
1.000000000000000
100
AcDbArc
 50
0.000000000000000
 51
90.00000000000000
  0
ARC
  5
1C3
100
AcDbEntity
  8
A1
  6
CONTINUOUS
 62
7
100
AcDbCircle
 10
201.4429295304170
 20
138.1217954830547
 30
0.000000000000000
 40
1.000000000000000
100
AcDbArc
 50
90.00000000000000
 51
180.0000000000000
  0
ARC
  5
1C4
100
AcDbEntity
  8
A1
  6
CONTINUOUS
 62
7
100
AcDbCircle
 10
200.4429295304103
 20
135.6217954830547
 30
0.000000000000000
 40
2.000000000000000
100
AcDbArc
 50
89.99999999948062
 51
180.0000000000000
  0
LINE
  5
1C5
100
AcDbEntity
  8
A1
  6
CONTINUOUS
 62
7
100
AcDbLine
 10
200.4429295304170
 20
138.1217954830547
 30
0.000000000000000
 11
200.4429295304170
 21
137.6217954830547
 31
0.000000000000000
  0
LINE
  5
1C6
100
AcDbEntity
  8
A1
  6
CONTINUOUS
 62
7
100
AcDbLine
 10
218.4429295304170
 20
132.6217954830547
 30
0.000000000000000
 11
218.4429295304170
 21
138.1217954830547
 31
0.000000000000000
  0
LINE
  5
1C7
100
AcDbEntity
  8
A1
  6
CONTINUOUS
 62
7
100
AcDbLine
 10
198.4429295304170
 20
135.6217954830547
 30
0.000000000000000
 11
198.4429295304170
 21
132.6217954830547
 31
0.000000000000000
  0
LINE
  5
1C8
100
AcDbEntity
  8
A1
  6
CONTINUOUS
 62
7
100
AcDbLine
 10
203.9429295304862
 20
143.6217954830546
 30
0.000000000000000
 11
202.9429295304862
 21
142.6217954830546
 31
0.000000000000000
  0
LINE
  5
1C9
100
AcDbEntity
  8
A1
  6
CONTINUOUS
 62
7
100
AcDbLine
 10
203.9429295304863
 20
143.6217954830547
 30
0.000000000000000
 11
212.0063411911529
 21
143.6217954830547
 31
0.000000000000000
  0
LINE
  5
1CA
100
AcDbEntity
  8
A1
  6
CONTINUOUS
 62
7
100
AcDbLine
 10
202.9429295304863
 20
142.6217954830547
 30
0.000000000000000
 11
202.9429295304863
 21
141.1217954830547
 31
0.000000000000000
  0
LINE
  5
1CB
100
AcDbEntity
  8
A1
  6
CONTINUOUS
 62
7
100
AcDbLine
 10
212.3080701523363
 20
152.6217954830544
 30
0.000000000000000
 11
211.8812774999978
 21
140.0115716721244
 31
0.000000000000000
  0
SPLINE
  5
1CC
100
AcDbEntity
  8
A1
  6
CONTINUOUS
 62
7
100
AcDbSpline
210
0.000000000000000
220
0.000000000000000
230
1.000000000000000
 70
     8
 71
     3
 72
     9
 73
     5
 74
     0
 42
1.000000000000000e-07
 43
1.000000000000000e-07
 12
0.03383125897869377
 22
-0.9994275591137125
 32
0.000000000000000
 13
0.03372028414599981
 23
-0.9994313095141365
 33
0.000000000000000
 40
0.000000000000000
 40
0.000000000000000
 40
0.000000000000000
 40
0.000000000000000
 40
2.368002533064208
 40
6.152490219277976
 40
6.152490219277976
 40
6.152490219277976
 40
6.152490219277976
 10
212.1002830214501
 20
310.8689207234654
 30
0.000000000000000
 10
212.1269871904362
 20
310.0800383929336
 30
0.000000000000000
 10
212.1963255557316
 20
308.0303808161404
 30
0.000000000000000
 10
212.2655501258384
 20
305.9807193914484
 30
0.000000000000000
 10
212.3080881258805
 20
304.7199408967575
 30
0.000000000000000
  0
SPLINE
  5
1CD
100
AcDbEntity
  8
A1
  6
CONTINUOUS
 62
7
100
AcDbSpline
210
0.000000000000000
220
0.000000000000000
230
1.000000000000000
 70
     8
 71
     3
 72
    10
 73
     6
 74
     0
 42
1.000000000000000e-07
 43
1.000000000000000e-07
 12
-0.3720993204296974
 22
0.9281929194548866
 32
0.000000000000000
 13
-0.7620025391597665
 23
0.6475740346204475
 33
0.000000000000000
 40
0.000000000000000
 40
0.000000000000000
 40
0.000000000000000
 40
0.000000000000000
 40
0.04054492587978480
 40
0.1630470579153336
 40
0.3591788820139699
 40
0.3591788820139699
 40
0.3591788820139699
 40
0.3591788820139699
 10
224.9356292617684
 20
304.7534236999238
 30
0.000000000000000
 10
224.9306003486461
 20
304.7659682042976
 30
0.000000000000000
 10
224.9077984056489
 20
304.8157425692881
 30
0.000000000000000
 10
224.8211766717743
 20
304.9014000489744
 30
0.000000000000000
 10
224.7483079094831
 20
304.9778774428915
 30
0.000000000000000
 10
224.6984902601587
 20
305.0202140684412
 30
0.000000000000000
  0
SPLINE
  5
1CE
100
AcDbEntity
  8
A1
  6
CONTINUOUS
 62
7
100
AcDbSpline
210
0.000000000000000
220
0.000000000000000
230
1.000000000000000
 70
     8
 71
     3
 72
    11
 73
     7
 74
     0
 42
1.000000000000000e-07
 43
1.000000000000000e-07
 12
-0.7374406471149086
 22
0.6754119424331293
 32
0.000000000000000
 13
-0.7321050381169698
 23
0.6811917594650367
 33
0.000000000000000
 40
0.000000000000000
 40
0.000000000000000
 40
0.000000000000000
 40
0.000000000000000
 40
0.2354848762940182
 40
0.5227643071349479
 40
0.8637739414525236
 40
1.254687208086528
 40
1.254687208086528
 40
1.254687208086528
 40
1.254687208086528
 10
224.6984902601587
 20
305.0202140684412
 30
0.000000000000000
 10
224.6406048869720
 20
305.0732305010117
 30
0.000000000000000
 10
224.5121125639835
 20
305.1909354276174
 30
0.000000000000000
 10
224.2996005270803
 20
305.3852014485516
 30
0.000000000000000
 10
224.0494987463771
 20
305.6151336825361
 30
0.000000000000000
 10
223.8705489102635
 20
305.7809674361916
 30
0.000000000000000
 10
223.7751523862736
 20
305.8697297348239
 30
0.000000000000000
  0
SPLINE
  5
1CF
100
AcDbEntity
  8
A1
  6
CONTINUOUS
 62
7
100
AcDbSpline
210
0.000000000000000
220
0.000000000000000
230
1.000000000000000
 70
     8
 71
     3
 72
     9
 73
     5
 74
     0
 42
1.000000000000000e-07
 43
1.000000000000000e-07
 12
0.9985036470989144
 22
-0.05468516007022117
 32
0.000000000000000
 13
-0.1803205609685392
 23
0.9836078971347888
 33
0.000000000000000
 40
0.000000000000000
 40
0.000000000000000
 40
0.000000000000000
 40
0.000000000000000
 40
0.04556960600451860
 40
0.06217804954953760
 40
0.06217804954953760
 40
0.06217804954953760
 40
0.06217804954953760
 10
224.8928954683453
 20
304.7198424772115
 30
0.000000000000000
 10
224.9080626076095
 20
304.7190118168119
 30
0.000000000000000
 10
224.9381457360679
 20
304.7247604942952
 30
0.000000000000000
 10
224.9366275430540
 20
304.7479783011804
 30
0.000000000000000
 10
224.9356292617684
 20
304.7534236999238
 30
0.000000000000000
  0
SPLINE
  5
1D0
100
AcDbEntity
  8
A1
  6
CONTINUOUS
 62
7
100
AcDbSpline
210
0.000000000000000
220
0.000000000000000
230
1.000000000000000
 70
     8
 71
     3
 72
    11
 73
     7
 74
     0
 42
1.000000000000000e-07
 43
1.000000000000000e-07
 12
0.7685998018305327
 22
-0.6397298997453618
 32
0.000000000000000
 13
0.3869719813519623
 23
-0.9220914735633414
 33
0.000000000000000
 40
0.000000000000000
 40
0.000000000000000
 40
0.000000000000000
 40
0.000000000000000
 40
0.1663588417071240
 40
0.2806252378008064
 40
0.3427513335889350
 40
0.3520617220794879
 40
0.3520617220794879
 40
0.3520617220794879
 40
0.3520617220794879
 10
226.7327957620243
 20
304.9674049260250
 30
0.000000000000000
 10
226.7754168862805
 20
304.9319300176494
 30
0.000000000000000
 10
226.8470419299546
 20
304.8709917525783
 30
0.000000000000000
 10
226.9288576198322
 20
304.7930813141464
 30
0.000000000000000
 10
226.9770993977611
 20
304.7512551278443
 30
0.000000000000000
 10
226.9869717180512
 20
304.7294675402276
 30
0.000000000000000
 10
226.9881726712117
 20
304.7266058636133
 30
0.000000000000000
  0
SPLINE
  5
1D1
100
AcDbEntity
  8
A1
  6
CONTINUOUS
 62
7
100
AcDbSpline
210
0.000000000000000
220
0.000000000000000
230
1.000000000000000
 70
     8
 71
     3
 72
     9
 73
     5
 74
     0
 42
1.000000000000000e-07
 43
1.000000000000000e-07
 12
-0.9853928999104937
 22
0.1702963088418983
 32
0.000000000000000
 13
-0.9670026776511804
 23
0.2547662092983956
 33
0.000000000000000
 40
0.000000000000000
 40
0.000000000000000
 40
0.000000000000000
 40
0.000000000000000
 40
0.3766351106669363
 40
0.4056579724811010
 40
0.4056579724811010
 40
0.4056579724811010
 40
0.4056579724811010
 10
209.7622509690320
 20
311.3151804393387
 30
0.000000000000000
 10
209.6385397810625
 20
311.3365602957143
 30
0.000000000000000
 10
209.5061156466755
 20
311.3649492421593
 30
0.000000000000000
 10
209.3752548133618
 20
311.3989923137015
 30
0.000000000000000
 10
209.3658997516659
 20
311.4014569951973
 30
0.000000000000000
  0
SPLINE
  5
1D2
100
AcDbEntity
  8
A1
  6
CONTINUOUS
 62
7
100
AcDbSpline
210
0.000000000000000
220
0.000000000000000
230
1.000000000000000
 70
     8
 71
     3
 72
    15
 73
    11
 74
     0
 42
1.000000000000000e-07
 43
1.000000000000000e-07
 12
0.03236860445281309
 22
0.9994759994342530
 32
0.000000000000000
 13
0.9383403583833569
 23
0.3457128459158412
 33
0.000000000000000
 40
0.000000000000000
 40
0.000000000000000
 40
0.000000000000000
 40
0.000000000000000
 40
0.3136251702124466
 40
0.6152619343692038
 40
0.8798240155919683
 40
1.115987610924027
 40
1.309116273292717
 40
1.461577332104838
 40
1.573245978454725
 40
1.640509492828027
 40
1.640509492828027
 40
1.640509492828027
 40
1.640509492828027
 10
206.5318925049895
 20
316.6447017658738
 30
0.000000000000000
 10
206.5352763746832
 20
316.7491887093558
 30
0.000000000000000
 10
206.5451672385205
 20
316.9540831861865
 30
0.000000000000000
 10
206.5675505484108
 20
317.2464995744378
 30
0.000000000000000
 10
206.5971123241450
 20
317.5125241423946
 30
0.000000000000000
 10
206.6328804141577
 20
317.7406902294127
 30
0.000000000000000
 10
206.6726383622444
 20
317.9317933474373
 30
0.000000000000000
 10
206.7202327137954
 20
318.0741720487008
 30
0.000000000000000
 10
206.7628030027700
 20
318.1824562080362
 30
0.000000000000000
 10
206.8179832366731
 20
318.2120911902178
 30
0.000000000000000
 10
206.8390219267341
 20
318.2198424772112
 30
0.000000000000000
  0
SPLINE
  5
1D3
100
AcDbEntity
  8
A1
  6
CONTINUOUS
 62
7
100
AcDbSpline
210
0.000000000000000
220
0.000000000000000
230
1.000000000000000
 70
     8
 71
     3
 72
    24
 73
    20
 74
     0
 42
1.000000000000000e-07
 43
1.000000000000000e-07
 12
-0.7343980213834129
 22
0.6787190480515619
 32
0.000000000000000
 13
-0.9869102363049933
 23
0.1612705350539727
 33
0.000000000000000
 40
0.000000000000000
 40
0.000000000000000
 40
0.000000000000000
 40
0.000000000000000
 40
0.5337873286347435
 40
1.101424105671179
 40
1.702565171226307
 40
2.336646303219077
 40
3.145913845696384
 40
4.006232443698297
 40
4.914643275308340
 40
5.868014621584084
 40
6.863103272250665
 40
7.896599169846620
 40
8.936503910121676
 40
10.01492353032393
 40
11.12680034423342
 40
12.26705810085083
 40
13.43062623940833
 40
14.61246147939971
 40
15.20891098446904
 40
15.20891098446904
 40
15.20891098446904
 40
15.20891098446904
 10
223.7751523862736
 20
305.8697297348239
 30
0.000000000000000
 10
223.6444816002773
 20
305.9904936106748
 30
0.000000000000000
 10
223.3683724682728
 20
306.2328120382616
 30
0.000000000000000
 10
222.9207859358082
 20
306.5821615179960
 30
0.000000000000000
 10
222.4298631311657
 20
306.9291199203968
 30
0.000000000000000
 10
221.8564746130923
 20
307.2978115737271
 30
0.000000000000000
 10
221.1925239135053
 20
307.6841387212372
 30
0.000000000000000
 10
220.4316894536944
 20
308.0841159185464
 30
0.000000000000000
 10
219.6126752050603
 20
308.4751452305402
 30
0.000000000000000
 10
218.7391614997850
 20
308.8548577197839
 30
0.000000000000000
 10
217.8148512212954
 20
309.2209082663833
 30
0.000000000000000
 10
216.8524559406039
 20
309.5677587010625
 30
0.000000000000000
 10
215.8538163708156
 20
309.8945439134516
 30
0.000000000000000
 10
214.8215411406667
 20
310.2012033929902
 30
0.000000000000000
 10
213.7492910018229
 20
310.4894084128484
 30
0.000000000000000
 10
212.6424702294428
 20
310.7569134087029
 30
0.000000000000000
 10
211.5065058905770
 20
311.0015438701939
 30
0.000000000000000
 10
210.5428667774628
 20
311.1838301483508
 30
0.000000000000000
 10
209.9584650096959
 20
311.2831171957336
 30
0.000000000000000
 10
209.7622509690320
 20
311.3151804393387
 30
0.000000000000000
  0
SPLINE
  5
1D4
100
AcDbEntity
  8
A1
  6
CONTINUOUS
 62
7
100
AcDbSpline
210
0.000000000000000
220
0.000000000000000
230
1.000000000000000
 70
     8
 71
     3
 72
    27
 73
    23
 74
     0
 42
1.000000000000000e-07
 43
1.000000000000000e-07
 12
-0.7399826479272633
 22
0.6726259590341215
 32
0.000000000000000
 13
-0.9912863775299456
 23
0.1317244006384044
 33
0.000000000000000
 40
0.000000000000000
 40
0.000000000000000
 40
0.000000000000000
 40
0.000000000000000
 40
0.6033715855778546
 40
1.254762097117751
 40
1.953809812757246
 40
2.699727961604833
 40
3.540446107822072
 40
4.434064174907054
 40
5.377911339103068
 40
6.141488881470265
 40
6.934504127030919
 40
7.755138739420551
 40
8.601547328226353
 40
9.701052920399452
 40
10.83897315330258
 40
12.01060389427030
 40
12.93958447492006
 40
13.88702288283307
 40
14.85027093892722
 40
15.82668161183211
 40
16.69909242245033
 40
17.57993114869600
 40
17.57993114869600
 40
17.57993114869600
 40
17.57993114869600
 10
225.9357068639113
 20
305.6767501544768
 30
0.000000000000000
 10
225.7868786960514
 20
305.8120312849445
 30
0.000000000000000
 10
225.4688090270752
 20
306.0841786512834
 30
0.000000000000000
 10
224.9455793770442
 20
306.4726772718199
 30
0.000000000000000
 10
224.3625619885425
 20
306.8584225736589
 30
0.000000000000000
 10
223.7069734671530
 20
307.2471526141366
 30
0.000000000000000
 10
222.9774134205852
 20
307.6366231599577
 30
0.000000000000000
 10
222.1732245189167
 20
308.0247380887619
 30
0.000000000000000
 10
221.3789189010245
 20
308.3727479489780
 30
0.000000000000000
 10
220.6058193471109
 20
308.6844231390271
 30
0.000000000000000
 10
219.8638360032184
 20
308.9627957037670
 30
0.000000000000000
 10
219.0896203314399
 20
309.2332276190996
 30
0.000000000000000
 10
218.2125439626501
 20
309.5183291265242
 30
0.000000000000000
 10
217.2275937436068
 20
309.8129192349206
 30
0.000000000000000
 10
216.1310629187732
 20
310.1115192761337
 30
0.000000000000000
 10
215.0829357275356
 20
310.3703536527631
 30
0.000000000000000
 10
214.0917103428053
 20
310.5936546906321
 30
0.000000000000000
 10
213.1647557432313
 20
310.7855235255181
 30
0.000000000000000
 10
212.2191200434454
 20
310.9644342174597
 30
0.000000000000000
 10
211.2952347333527
 20
311.1230536927893
 30
0.000000000000000
 10
210.3961051092088
 20
311.2627506804188
 30
0.000000000000000
 10
209.8173427975428
 20
311.3440290898158
 30
0.000000000000000
 10
209.5262883208334
 20
311.3827050742404
 30
0.000000000000000
  0
SPLINE
  5
1D5
100
AcDbEntity
  8
A1
  6
CONTINUOUS
 62
7
100
AcDbSpline
210
0.000000000000000
220
0.000000000000000
230
1.000000000000000
 70
     8
 71
     3
 72
    11
 73
     7
 74
     0
 42
1.000000000000000e-07
 43
1.000000000000000e-07
 12
0.7360278436476619
 22
-0.6769512636637955
 32
0.000000000000000
 13
0.7609457382950495
 23
-0.6488155233719226
 33
0.000000000000000
 40
0.000000000000000
 40
0.000000000000000
 40
0.000000000000000
 40
0.000000000000000
 40
0.3241641238743188
 40
0.6107986513316669
 40
0.8595940131727338
 40
1.067071922085655
 40
1.067071922085655
 40
1.067071922085655
 40
1.067071922085655
 10
225.9357068639113
 20
305.6767501544768
 30
0.000000000000000
 10
226.0152381376057
 20
305.6036023833797
 30
0.000000000000000
 10
226.1657284236737
 20
305.4664647654362
 30
0.000000000000000
 10
226.3790541766901
 20
305.2751695249589
 30
0.000000000000000
 10
226.5648899190197
 20
305.1114900492499
 30
0.000000000000000
 10
226.6801692851651
 20
305.0122765553783
 30
0.000000000000000
 10
226.7327957620243
 20
304.9674049260250
 30
0.000000000000000
  0
SPLINE
  5
1D6
100
AcDbEntity
  8
A1
  6
CONTINUOUS
 62
7
100
AcDbSpline
210
0.000000000000000
220
0.000000000000000
230
1.000000000000000
 70
     8
 71
     3
 72
    21
 73
    17
 74
     0
 42
1.000000000000000e-07
 43
1.000000000000000e-07
 12
-0.03287297371866771
 22
-0.9994595377493170
 32
0.000000000000000
 13
0.9762169452442322
 23
-0.2167959312791936
 33
0.000000000000000
 40
0.000000000000000
 40
0.000000000000000
 40
0.000000000000000
 40
0.000000000000000
 40
0.3740311464199894
 40
0.7500902508960300
 40
1.126034219168207
 40
1.503906008927348
 40
1.884398478759508
 40
2.264942846817224
 40
2.635535756328302
 40
3.008255205516031
 40
3.380195018275422
 40
3.743758140619139
 40
4.107727417003822
 40
4.469284523656891
 40
4.777522280701204
 40
4.781055762398393
 40
4.781055762398393
 40
4.781055762398393
 40
4.781055762398393
 10
206.4712785792361
 20
314.8632356564842
 30
0.000000000000000
 10
206.4671800738874
 20
314.7386259909159
 30
0.000000000000000
 10
206.4727040522809
 20
314.4880491057652
 30
0.000000000000000
 10
206.5228864148541
 20
314.1153316558838
 30
0.000000000000000
 10
206.6145012834340
 20
313.7491625242720
 30
0.000000000000000
 10
206.7487211668629
 20
313.3947815436667
 30
0.000000000000000
 10
206.9226969872697
 20
313.0564695412534
 30
0.000000000000000
 10
207.1323813503219
 20
312.7418870812674
 30
0.000000000000000
 10
207.3752561419263
 20
312.4556435434491
 30
0.000000000000000
 10
207.6455115423428
 20
312.1993546772334
 30
0.000000000000000
 10
207.9397606021972
 20
311.9748093000182
 30
0.000000000000000
 10
208.2540178069958
 20
311.7849265511914
 30
0.000000000000000
 10
208.5826062559852
 20
311.6292807545302
 30
0.000000000000000
 10
208.9074000215651
 20
311.5123091611257
 30
0.000000000000000
 10
209.1252561480077
 20
311.4572997289718
 30
0.000000000000000
 10
209.2266928933190
 20
311.4347022736098
 30
0.000000000000000
 10
209.2278427082218
 20
311.4344469254581
 30
0.000000000000000
  0
ARC
  5
1D7
100
AcDbEntity
  8
A1
  6
CONTINUOUS
 62
7
100
AcDbCircle
 10
222.4429295304168
 20
316.2198424772112
 30
0.000000000000000
 40
2.000000000000000
100
AcDbArc
 50
12.26477372789306
 51
90.00000000000000
  0
ARC
  5
1D8
100
AcDbEntity
  8
A1
  6
CONTINUOUS
 62
7
100
AcDbCircle
 10
208.7051528229558
 20
308.9511497006847
 30
0.000000000000000
 40
2.537891076944801
100
AcDbArc
 50
74.86940600453833
 51
78.08661692129661
  0
LINE
  5
1D9
100
AcDbEntity
  8
A1
  6
CONTINUOUS
 62
7
100
AcDbLine
 10
222.2920465199533
 20
318.2198424772112
 30
0.000000000000000
 11
222.4429295304168
 21
318.2198424772112
 31
0.000000000000000
  0
LINE
  5
1DA
100
AcDbEntity
  8
A1
  6
CONTINUOUS
 62
7
100
AcDbLine
 10
200.9429295304170
 20
318.2198424772113
 30
0.000000000000000
 11
200.9429295304170
 21
316.2198424772113
 31
0.000000000000000
  0
LINE
  5
1DB
100
AcDbEntity
  8
A1
  6
CONTINUOUS
 62
7
100
AcDbLine
 10
209.2278427082217
 20
311.4344469254581
 30
0.000000000000000
 11
209.5262883208334
 21
311.3827050742404
 31
0.000000000000000
  0
LINE
  5
1DC
100
AcDbEntity
  8
A1
  6
CONTINUOUS
 62
7
100
AcDbLine
 10
206.5318925049896
 20
316.6447017658739
 30
0.000000000000000
 11
206.4712785792362
 21
314.8632356564842
 31
0.000000000000000
  0
SPLINE
  5
1DD
100
AcDbEntity
  8
A1
  6
CONTINUOUS
 62
7
100
AcDbSpline
210
0.000000000000000
220
0.000000000000000
230
1.000000000000000
 70
     8
 71
     3
 72
    20
 73
    16
 74
     0
 42
1.000000000000000e-07
 43
1.000000000000000e-07
 12
-0.3508502204786055
 22
-0.9364315900165820
 32
0.000000000000000
 13
-0.9999982660012847
 23
-0.001862255382093281
 33
0.000000000000000
 40
0.000000000000000
 40
0.000000000000000
 40
0.000000000000000
 40
0.000000000000000
 40
0.008644327974662500
 40
0.2400716430540700
 40
0.4797246595497225
 40
0.7301925204629802
 40
0.9898366581609502
 40
1.354647316542767
 40
1.738132975850041
 40
2.152063252381887
 40
2.589145064433001
 40
2.869453435332845
 40
3.160118621900811
 40
3.469025583001586
 40
3.790481388253570
 40
3.790481388253570
 40
3.790481388253570
 40
3.790481388253570
 10
218.3014820202677
 20
321.7198424772113
 30
0.000000000000000
 10
218.3004710654757
 20
321.7171442032813
 30
0.000000000000000
 10
218.2722776030899
 20
321.6422518776002
 30
0.000000000000000
 10
218.2086459473874
 20
321.4952713267433
 30
0.000000000000000
 10
218.0939452785080
 20
321.2835468639739
 30
0.000000000000000
 10
217.9563368751482
 20
321.0745465400634
 30
0.000000000000000
 10
217.7757566765353
 20
320.8451291778713
 30
0.000000000000000
 10
217.5424395537135
 20
320.6023318091674
 30
0.000000000000000
 10
217.2434093942998
 20
320.3547181591241
 30
0.000000000000000
 10
216.8970858910329
 20
320.1306262859102
 30
0.000000000000000
 10
216.5562364424597
 20
319.9666469675010
 30
0.000000000000000
 10
216.2392782616649
 20
319.8540033086487
 30
0.000000000000000
 10
215.9549734971757
 20
319.7803086303598
 30
0.000000000000000
 10
215.6513873736384
 20
319.7314103030217
 30
0.000000000000000
 10
215.4410946762177
 20
319.7200420214791
 30
0.000000000000000
 10
215.3339429269351
 20
319.7198424772113
 30
0.000000000000000
  0
ARC
  5
1DE
100
AcDbEntity
  8
A1
  6
CONTINUOUS
 62
7
100
AcDbCircle
 10
201.4429295304169
 20
319.2198424772112
 30
0.000000000000000
 40
1.000000000000000
100
AcDbArc
 50
180.0000000000000
 51
270.0000000000000
  0
ARC
  5
1DF
100
AcDbEntity
  8
A1
  6
CONTINUOUS
 62
7
100
AcDbCircle
 10
217.4429295304169
 20
319.2198424772112
 30
0.000000000000000
 40
1.000000000000000
100
AcDbArc
 50
270.0000000000000
 51
360.0000000000000
  0
ARC
  5
1E0
100
AcDbEntity
  8
A1
  6
CONTINUOUS
 62
7
100
AcDbCircle
 10
200.4429295304169
 20
321.7198424772112
 30
0.000000000000000
 40
2.000000000000000
100
AcDbArc
 50
179.9999999999986
 51
270.0000000000000
  0
LINE
  5
1E1
100
AcDbEntity
  8
A1
  6
CONTINUOUS
 62
7
100
AcDbLine
 10
218.4429295304169
 20
319.2198424772112
 30
0.000000000000000
 11
218.4429295304169
 21
324.7198424772113
 31
0.000000000000000
  0
LINE
  5
1E2
100
AcDbEntity
  8
A1
  6
CONTINUOUS
 62
7
100
AcDbLine
 10
200.4429295304169
 20
319.7198424772113
 30
0.000000000000000
 11
200.4429295304169
 21
319.2198424772112
 31
0.000000000000000
  0
LINE
  5
1E3
100
AcDbEntity
  8
A1
  6
CONTINUOUS
 62
7
100
AcDbLine
 10
198.4429295304169
 20
321.7198424772113
 30
0.000000000000000
 11
198.4429295304169
 21
324.7198424772113
 31
0.000000000000000
  0
LINE
  5
1E4
100
AcDbEntity
  8
A1
  6
CONTINUOUS
 62
7
100
AcDbLine
 10
202.9429295304862
 20
316.2198424772112
 30
0.000000000000000
 11
202.9429295304862
 21
314.7198424772113
 31
0.000000000000000
  0
LINE
  5
1E5
100
AcDbEntity
  8
A1
  6
CONTINUOUS
 62
7
100
AcDbLine
 10
206.6302402182009
 20
313.7198424772113
 30
0.000000000000000
 11
203.9429295304862
 21
313.7198424772113
 31
0.000000000000000
  0
LINE
  5
1E6
100
AcDbEntity
  8
A1
  6
CONTINUOUS
 62
7
100
AcDbLine
 10
202.9429295304863
 20
314.7198424772113
 30
0.000000000000000
 11
203.9429295304863
 21
313.7198424772113
 31
0.000000000000000
  0
LINE
  5
1E7
100
AcDbEntity
  8
A1
  6
CONTINUOUS
 62
7
100
AcDbLine
 10
202.9429295304862
 20
314.7198424772113
 30
0.000000000000000
 11
206.4701213794038
 21
314.7198424772113
 31
0.000000000000000
  0
LINE
  5
1E8
100
AcDbEntity
  8
A1
  6
CONTINUOUS
 62
7
100
AcDbLine
 10
198.4429295304169
 20
324.7198424772113
 30
0.000000000000000
 11
218.4429295304169
 21
324.7198424772113
 31
0.000000000000000
  0
LINE
  5
1E9
100
AcDbEntity
  8
A1
  6
CONTINUOUS
 62
7
100
AcDbLine
 10
200.4429295304170
 20
319.7198424772112
 30
0.000000000000000
 11
215.3339429269352
 21
319.7198424772112
 31
0.000000000000000
  0
LINE
  5
1EA
100
AcDbEntity
  8
A1
  6
CONTINUOUS
 62
7
100
AcDbLine
 10
200.9429295304170
 20
318.2198424772113
 30
0.000000000000000
 11
222.2920465199533
 21
318.2198424772113
 31
0.000000000000000
  0
LINE
  5
1EB
100
AcDbEntity
  8
A1
  6
CONTINUOUS
 62
7
100
AcDbLine
 10
200.9429295304170
 20
316.2198424772113
 30
0.000000000000000
 11
206.5249427740057
 21
316.2198424772113
 31
0.000000000000000
  0
LINE
  5
1EC
100
AcDbEntity
  8
A1
  6
CONTINUOUS
 62
7
100
AcDbLine
 10
212.3080703191467
 20
304.7198424772115
 30
0.000000000000000
 11
226.9811326706707
 21
304.7198424772115
 31
0.000000000000000
  0
LINE
  5
1ED
100
AcDbEntity
  8
A1
  6
CONTINUOUS
 62
7
100
AcDbLine
 10
212.3567713433298
 20
152.6217954830544
 30
0.000000000000000
 11
226.9811326706708
 21
152.6217954830544
 31
0.000000000000000
  0
LINE
  5
1EE
100
AcDbEntity
  8
A1
  6
CONTINUOUS
 62
7
100
AcDbLine
 10
202.9429295304863
 20
142.6217954830547
 30
0.000000000000000
 11
211.9733076104370
 21
142.6217954830547
 31
0.000000000000000
  0
LINE
  5
1EF
100
AcDbEntity
  8
A1
  6
CONTINUOUS
 62
7
100
AcDbLine
 10
200.9429295304170
 20
141.1217954830547
 30
0.000000000000000
 11
211.9188529920796
 21
141.1217954830547
 31
0.000000000000000
  0
LINE
  5
1F0
100
AcDbEntity
  8
A1
  6
CONTINUOUS
 62
7
100
AcDbLine
 10
200.9429295304170
 20
139.1217954830547
 30
0.000000000000000
 11
213.4686685300414
 21
139.1217954830547
 31
0.000000000000000
  0
LINE
  5
1F1
100
AcDbEntity
  8
A1
  6
CONTINUOUS
 62
7
100
AcDbLine
 10
200.4429295304283
 20
137.6217954830547
 30
0.000000000000000
 11
213.4686685300402
 21
137.6217954830547
 31
0.000000000000000
  0
LINE
  5
1F2
100
AcDbEntity
  8
A1
  6
CONTINUOUS
 62
7
100
AcDbLine
 10
198.4429295304170
 20
132.6217954830547
 30
0.000000000000000
 11
218.4429295304170
 21
132.6217954830547
 31
0.000000000000000
  0
LINE
  5
1F3
100
AcDbEntity
  8
A1
  6
CONTINUOUS
 62
7
100
AcDbLine
 10
224.3972822582624
 20
316.6447017658733
 30
0.000000000000000
 11
226.9881726717709
 21
304.7266058637348
 31
0.000000000000000
  0
LINE
  5
1F4
100
AcDbEntity
  8
A1
  6
CONTINUOUS
 62
7
100
AcDbLine
 10
226.9881726712117
 20
304.7266058636134
 30
0.000000000000000
 11
226.9811326706708
 21
304.7198424772116
 31
0.000000000000000
  0
LINE
  5
1F5
100
AcDbEntity
  8
A4
  6
CENTER
 62
1
100
AcDbLine
 10
280.4881726715016
 20
251.6981624151805
 30
0.000000000000000
 11
288.4881726715016
 21
251.6981624151805
 31
0.000000000000000
  0
LINE
  5
1F6
100
AcDbEntity
  8
A4
  6
CENTER
 62
1
100
AcDbLine
 10
288.4881726715016
 20
228.6981624151113
 30
0.000000000000000
 11
274.4881726715016
 21
228.6981624151113
 31
0.000000000000000
  0
LINE
  5
1F7
100
AcDbEntity
  8
A4
  6
CENTER
 62
1
100
AcDbLine
 10
280.4881726715016
 20
205.6981624151805
 30
0.000000000000000
 11
288.4881726715016
 21
205.6981624151805
 31
0.000000000000000
  0
LINE
  5
1F8
100
AcDbEntity
  8
A4
  6
CENTER
 62
1
100
AcDbLine
 10
206.4429295304170
 20
139.1217954830547
 30
0.000000000000000
 11
206.4429295304170
 21
131.1217954830547
 31
0.000000000000000
  0
LINE
  5
1F9
100
AcDbEntity
  8
A4
  6
CENTER
 62
1
100
AcDbLine
 10
209.4429295304862
 20
145.1217954830547
 30
0.000000000000000
 11
209.4429295304862
 21
131.1217954830547
 31
0.000000000000000
  0
LINE
  5
1FA
100
AcDbEntity
  8
A4
  6
CENTER
 62
1
100
AcDbLine
 10
209.4429295311123
 20
312.2745293474259
 30
0.000000000000000
 11
209.4429295312172
 21
326.2745293474258
 31
0.000000000000000
  0
LINE
  5
1FB
100
AcDbEntity
  8
A4
  6
CENTER
 62
1
100
AcDbLine
 10
206.4429295310880
 20
318.2745293474483
 30
0.000000000000000
 11
206.4429295311479
 21
326.2745293474483
 31
0.000000000000000
  0
CIRCLE
  5
1FC
100
AcDbEntity
  8
A1
  6
CONTINUOUS
 62
7
100
AcDbCircle
 10
412.9556629941075
 20
215.9318588730865
 30
0.000000000000000
 40
2.500000000000000
  0
CIRCLE
  5
1FD
100
AcDbEntity
  8
A1
  6
CONTINUOUS
 62
7
100
AcDbCircle
 10
412.9556629941075
 20
239.9318588730865
 30
0.000000000000000
 40
2.500000000000000
  0
ARC
  5
1FE
100
AcDbEntity
  8
A1
  6
CONTINUOUS
 62
7
100
AcDbCircle
 10
409.1556749941075
 20
245.4318588730865
 30
0.000000000000000
 40
2.500000000000000
100
AcDbArc
 50
90.00000000000000
 51
180.0000000000000
  0
ARC
  5
1FF
100
AcDbEntity
  8
A1
  6
CONTINUOUS
 62
7
100
AcDbCircle
 10
409.1556749941075
 20
210.4318588730865
 30
0.000000000000000
 40
2.500000000000000
100
AcDbArc
 50
180.0000000000000
 51
270.0000000000000
  0
LINE
  5
200
100
AcDbEntity
  8
A1
  6
CONTINUOUS
 62
7
100
AcDbLine
 10
428.9556629941075
 20
233.6262986762992
 30
0.000000000000000
 11
428.9556629941075
 21
222.2374190698737
 31
0.000000000000000
  0
SPLINE
  5
201
100
AcDbEntity
  8
A1
  6
CONTINUOUS
 62
7
100
AcDbSpline
210
0.000000000000000
220
0.000000000000000
230
1.000000000000000
 70
     8
 71
     3
 72
    15
 73
    11
 74
     0
 42
1.000000000000000e-07
 43
1.000000000000000e-07
 12
-0.002250462368010631
 22
-0.9999974677059527
 32
0.000000000000000
 13
-0.9631085037785851
 23
-0.2691133775015260
 33
0.000000000000000
 40
0.000000000000000
 40
0.000000000000000
 40
0.000000000000000
 40
0.000000000000000
 40
0.4273740030090919
 40
0.8547419577568831
 40
1.282198042840198
 40
1.709639382180794
 40
2.135363922725610
 40
2.561071944961548
 40
2.914164898766294
 40
3.267251587479943
 40
3.267251587479943
 40
3.267251587479943
 40
3.267251587479943
 10
464.4556629941075
 20
224.8521005341488
 30
0.000000000000000
 10
464.4553423977371
 20
224.7096428938913
 30
0.000000000000000
 10
464.4312648117333
 20
224.4242194274129
 30
0.000000000000000
 10
464.3244946541860
 20
224.0083127465843
 30
0.000000000000000
 10
464.1482079289967
 20
223.6166991227758
 30
0.000000000000000
 10
463.9099080788711
 20
223.2600501159164
 30
0.000000000000000
 10
463.6141402570776
 20
222.9502297153229
 30
0.000000000000000
 10
463.2909208096711
 20
222.7086780685648
 30
0.000000000000000
 10
462.9557517537675
 20
222.5328328738349
 30
0.000000000000000
 10
462.7331358714798
 20
222.4535705722738
 30
0.000000000000000
 10
462.6197822739894
 20
222.4218971218236
 30
0.000000000000000
  0
SPLINE
  5
202
100
AcDbEntity
  8
A1
  6
CONTINUOUS
 62
7
100
AcDbSpline
210
0.000000000000000
220
0.000000000000000
230
1.000000000000000
 70
     8
 71
     3
 72
    16
 73
    12
 74
     0
 42
1.000000000000000e-07
 43
1.000000000000000e-07
 12
0.9848235320405365
 22
0.1735586665633946
 32
0.000000000000000
 13
-6.745206519553903e-05
 23
0.9999999977235348
 33
0.000000000000000
 40
0.000000000000000
 40
0.000000000000000
 40
0.000000000000000
 40
0.000000000000000
 40
0.4192777759983681
 40
0.8385685719073859
 40
1.257720602175683
 40
1.676892093981734
 40
2.098627631372598
 40
2.520381902499221
 40
2.946444783146764
 40
3.372517865344027
 40
3.518382284554255
 40
3.518382284554255
 40
3.518382284554255
 40
3.518382284554255
 10
462.3790428508357
 20
222.5713400422401
 30
0.000000000000000
 10
462.5166810575906
 20
222.5955964728141
 30
0.000000000000000
 10
462.7885151028876
 20
222.6669058012045
 30
0.000000000000000
 10
463.1723303574058
 20
222.8403959641385
 30
0.000000000000000
 10
463.5209416577568
 20
223.0767541137538
 30
0.000000000000000
 10
463.8267699767864
 20
223.3675060615028
 30
0.000000000000000
 10
464.0793190329111
 20
223.7066619200752
 30
0.000000000000000
 10
464.2743264373390
 20
224.0844510609373
 30
0.000000000000000
 10
464.4029397177003
 20
224.4911816876934
 30
0.000000000000000
 10
464.4502644575587
 20
224.8221789850968
 30
0.000000000000000
 10
464.4556662737263
 20
225.0128310281465
 30
0.000000000000000
 10
464.4556629941075
 20
225.0614525011059
 30
0.000000000000000
  0
SPLINE
  5
203
100
AcDbEntity
  8
A1
  6
CONTINUOUS
 62
7
100
AcDbSpline
210
0.000000000000000
220
0.000000000000000
230
1.000000000000000
 70
     8
 71
     3
 72
    16
 73
    12
 74
     0
 42
1.000000000000000e-07
 43
1.000000000000000e-07
 12
0.9848235320405365
 22
-0.1735586665636220
 32
0.000000000000000
 13
-6.745206519553903e-05
 23
-0.9999999977226253
 33
0.000000000000000
 40
0.000000000000000
 40
0.000000000000000
 40
0.000000000000000
 40
0.000000000000000
 40
0.4192777759983681
 40
0.8385685719073859
 40
1.257720602175683
 40
1.676892093981734
 40
2.098627631372598
 40
2.520381902499221
 40
2.946444783146764
 40
3.372517865344027
 40
3.518382284554255
 40
3.518382284554255
 40
3.518382284554255
 40
3.518382284554255
 10
462.3790428508357
 20
233.2923777039328
 30
0.000000000000000
 10
462.5166810575906
 20
233.2681212733588
 30
0.000000000000000
 10
462.7885151028876
 20
233.1968119449684
 30
0.000000000000000
 10
463.1723303574058
 20
233.0233217820344
 30
0.000000000000000
 10
463.5209416577568
 20
232.7869636324190
 30
0.000000000000000
 10
463.8267699767864
 20
232.4962116846700
 30
0.000000000000000
 10
464.0793190329111
 20
232.1570558260978
 30
0.000000000000000
 10
464.2743264373390
 20
231.7792666852356
 30
0.000000000000000
 10
464.4029397177003
 20
231.3725360584795
 30
0.000000000000000
 10
464.4502644575587
 20
231.0415387610760
 30
0.000000000000000
 10
464.4556662737263
 20
230.8508867180264
 30
0.000000000000000
 10
464.4556629941075
 20
230.8022652450670
 30
0.000000000000000
  0
SPLINE
  5
204
100
AcDbEntity
  8
A1
  6
CONTINUOUS
 62
7
100
AcDbSpline
210
0.000000000000000
220
0.000000000000000
230
1.000000000000000
 70
     8
 71
     3
 72
    15
 73
    11
 74
     0
 42
1.000000000000000e-07
 43
1.000000000000000e-07
 12
-0.002250462368010631
 22
0.9999974677059527
 32
0.000000000000000
 13
-0.9631085037785851
 23
0.2691133775012986
 33
0.000000000000000
 40
0.000000000000000
 40
0.000000000000000
 40
0.000000000000000
 40
0.000000000000000
 40
0.4273740030090919
 40
0.8547419577568831
 40
1.282198042840198
 40
1.709639382180794
 40
2.135363922725610
 40
2.561071944961514
 40
2.914164898766286
 40
3.267251587479935
 40
3.267251587479935
 40
3.267251587479935
 40
3.267251587479935
 10
464.4556629941075
 20
231.0116172120241
 30
0.000000000000000
 10
464.4553423977371
 20
231.1540748522816
 30
0.000000000000000
 10
464.4312648117333
 20
231.4394983187599
 30
0.000000000000000
 10
464.3244946541860
 20
231.8554049995886
 30
0.000000000000000
 10
464.1482079289967
 20
232.2470186233972
 30
0.000000000000000
 10
463.9099080788711
 20
232.6036676302564
 30
0.000000000000000
 10
463.6141402570777
 20
232.9134880308501
 30
0.000000000000000
 10
463.2909208096710
 20
233.1550396776080
 30
0.000000000000000
 10
462.9557517537675
 20
233.3308848723382
 30
0.000000000000000
 10
462.7331358714798
 20
233.4101471738991
 30
0.000000000000000
 10
462.6197822739894
 20
233.4418206243493
 30
0.000000000000000
  0
ELLIPSE
  5
205
100
AcDbEntity
  8
A1
  6
CONTINUOUS
 62
7
100
AcDbEllipse
 10
460.4556629941075
 20
234.0429664140193
 30
0.000000000000000
 11
1.500000000000000
 21
0.000000000000000
 31
0.000000000000000
210
0.000000000000000
220
0.000000000000000
230
1.000000000000000
 40
0.2777784918134278
 41
3.141592653589793
 42
4.712388980384690
  0
ELLIPSE
  5
206
100
AcDbEntity
  8
A1
  6
CONTINUOUS
 62
7
100
AcDbEllipse
 10
460.4556629941075
 20
221.8207513321536
 30
0.000000000000000
 11
1.500000000000000
 21
0.000000000000000
 31
0.000000000000000
210
0.000000000000000
220
0.000000000000000
230
1.000000000000000
 40
0.2777784918134278
 41
1.570796326794897
 42
3.141592653589793
  0
ARC
  5
207
100
AcDbEntity
  8
A1
  6
CONTINUOUS
 62
7
100
AcDbCircle
 10
471.4209325827630
 20
245.4318588730865
 30
0.000000000000000
 40
2.500000000000000
100
AcDbArc
 50
90.00000000000000
 51
150.7511928171625
  0
ARC
  5
208
100
AcDbEntity
  8
A1
  6
CONTINUOUS
 62
7
100
AcDbCircle
 10
471.4209933956353
 20
210.4318588730865
 30
0.000000000000000
 40
2.500000000000000
100
AcDbArc
 50
209.2488391056982
 51
270.0000000000000
  0
LINE
  5
209
100
AcDbEntity
  8
A1
  6
CONTINUOUS
 62
7
100
AcDbLine
 10
478.9556629941075
 20
247.9318588730865
 30
0.000000000000000
 11
478.9556629941075
 21
207.9318588730865
 31
0.000000000000000
  0
LINE
  5
20A
100
AcDbEntity
  8
A1
  6
CONTINUOUS
 62
7
100
AcDbLine
 10
462.9556277540872
 20
235.4318588730865
 30
0.000000000000000
 11
469.2396671345444
 21
246.6533665662293
 31
0.000000000000000
  0
LINE
  5
20B
100
AcDbEntity
  8
A1
  6
CONTINUOUS
 62
7
100
AcDbLine
 10
469.2397286279910
 20
209.2103499646321
 30
0.000000000000000
 11
462.9556803541166
 21
220.4318588730866
 31
0.000000000000000
  0
LINE
  5
20C
100
AcDbEntity
  8
A1
  6
CONTINUOUS
 62
7
100
AcDbLine
 10
462.6197822739892
 20
233.4418206243492
 30
0.000000000000000
 11
460.4556629941073
 21
234.0429664140192
 31
0.000000000000000
  0
LINE
  5
20D
100
AcDbEntity
  8
A1
  6
CONTINUOUS
 62
7
100
AcDbLine
 10
462.6197822739892
 20
222.4218971218235
 30
0.000000000000000
 11
460.4556629941073
 21
221.8207513321535
 31
0.000000000000000
  0
LINE
  5
20E
100
AcDbEntity
  8
A1
  6
CONTINUOUS
 62
7
100
AcDbLine
 10
464.4556629941075
 20
224.8521005341488
 30
0.000000000000000
 11
464.4556629941075
 21
225.0614525011059
 31
0.000000000000000
  0
LINE
  5
20F
100
AcDbEntity
  8
A1
  6
CONTINUOUS
 62
7
100
AcDbLine
 10
460.4556629941075
 20
222.2374190698737
 30
0.000000000000000
 11
462.3790428508357
 21
222.5713400422401
 31
0.000000000000000
  0
LINE
  5
210
100
AcDbEntity
  8
A1
  6
CONTINUOUS
 62
7
100
AcDbLine
 10
464.4556629941075
 20
230.8022652450670
 30
0.000000000000000
 11
464.4556629941075
 21
225.0614525011059
 31
0.000000000000000
  0
LINE
  5
211
100
AcDbEntity
  8
A1
  6
CONTINUOUS
 62
7
100
AcDbLine
 10
460.4556629941075
 20
233.6262986762992
 30
0.000000000000000
 11
462.3790428508358
 21
233.2923777039328
 31
0.000000000000000
  0
LINE
  5
212
100
AcDbEntity
  8
A1
  6
CONTINUOUS
 62
7
100
AcDbLine
 10
464.4556629941075
 20
230.8022652450670
 30
0.000000000000000
 11
464.4556629941075
 21
231.0116172120241
 31
0.000000000000000
  0
ARC
  5
213
100
AcDbEntity
  8
A1
  6
CONTINUOUS
 62
7
100
AcDbCircle
 10
420.4556629941076
 20
279.4318588730865
 30
0.000000000000000
 40
1.500000000000000
100
AcDbArc
 50
180.0000000000000
 51
270.0000000000000
  0
ARC
  5
214
100
AcDbEntity
  8
A1
  6
CONTINUOUS
 62
7
100
AcDbCircle
 10
427.4556629941075
 20
279.4318588730865
 30
0.000000000000000
 40
1.500000000000000
100
AcDbArc
 50
270.0000000000000
 51
359.9999999999987
  0
ARC
  5
215
100
AcDbEntity
  8
A1
  6
CONTINUOUS
 62
7
100
AcDbCircle
 10
418.9556629941076
 20
296.4318588730865
 30
0.000000000000000
 40
1.500000000000000
100
AcDbArc
 50
0.000000000000000
 51
90.00000000000000
  0
LINE
  5
216
100
AcDbEntity
  8
A1
  6
CONTINUOUS
 62
7
100
AcDbLine
 10
428.9556629941075
 20
283.4318588730865
 30
0.000000000000000
 11
427.4556629941075
 21
283.4318588730865
 31
0.000000000000000
  0
LINE
  5
217
100
AcDbEntity
  8
A1
  6
CONTINUOUS
 62
7
100
AcDbLine
 10
422.4556629941076
 20
279.4318588730865
 30
0.000000000000000
 11
422.4556629941076
 21
277.9318588730865
 31
0.000000000000000
  0
LINE
  5
218
100
AcDbEntity
  8
A1
  6
CONTINUOUS
 62
7
100
AcDbLine
 10
418.9556629941076
 20
281.9318236330662
 30
0.000000000000000
 11
420.4556629941076
 21
281.9318236330662
 31
0.000000000000000
  0
LINE
  5
219
100
AcDbEntity
  8
A1
  6
CONTINUOUS
 62
7
100
AcDbLine
 10
406.6556749941075
 20
297.9318588730865
 30
0.000000000000000
 11
406.6556749941075
 21
296.4318588730865
 31
0.000000000000000
  0
ARC
  5
21A
100
AcDbEntity
  8
A1
  6
CONTINUOUS
 62
7
100
AcDbCircle
 10
364.1904054054519
 20
245.4318588730865
 30
0.000000000000000
 40
2.500000000000000
100
AcDbArc
 50
29.24880718283757
 51
90.00000000000000
  0
ARC
  5
21B
100
AcDbEntity
  8
A1
  6
CONTINUOUS
 62
7
100
AcDbCircle
 10
364.1903445925797
 20
210.4318588730865
 30
0.000000000000000
 40
2.500000000000000
100
AcDbArc
 50
270.0000000000000
 51
330.7511608943017
  0
LINE
  5
21C
100
AcDbEntity
  8
A1
  6
CONTINUOUS
 62
7
100
AcDbLine
 10
376.6556749941075
 20
235.4318588730865
 30
0.000000000000000
 11
376.6556749941075
 21
220.4318588730865
 31
0.000000000000000
  0
LINE
  5
21D
100
AcDbEntity
  8
A1
  6
CONTINUOUS
 62
7
100
AcDbLine
 10
372.6557102341278
 20
235.4318588730865
 30
0.000000000000000
 11
366.3716708536705
 21
246.6533665662292
 31
0.000000000000000
  0
LINE
  5
21E
100
AcDbEntity
  8
A1
  6
CONTINUOUS
 62
7
100
AcDbLine
 10
366.3716093602240
 20
209.2103499646320
 30
0.000000000000000
 11
372.6556576340984
 21
220.4318588730865
 31
0.000000000000000
  0
ARC
  5
21F
100
AcDbEntity
  8
A1
  6
CONTINUOUS
 62
7
100
AcDbCircle
 10
427.4556629941075
 20
176.4318588730864
 30
0.000000000000000
 40
1.500000000000000
100
AcDbArc
 50
1.221300000000000e-12
 51
90.00000000000000
  0
ARC
  5
220
100
AcDbEntity
  8
A1
  6
CONTINUOUS
 62
7
100
AcDbCircle
 10
420.4556629941076
 20
176.4318588730864
 30
0.000000000000000
 40
1.500000000000000
100
AcDbArc
 50
90.00000000000000
 51
180.0000000000000
  0
ARC
  5
221
100
AcDbEntity
  8
A1
  6
CONTINUOUS
 62
7
100
AcDbCircle
 10
418.9556629941076
 20
159.4318588730864
 30
0.000000000000000
 40
1.500000000000000
100
AcDbArc
 50
270.0000000000000
 51
360.0000000000000
  0
LINE
  5
222
100
AcDbEntity
  8
A1
  6
CONTINUOUS
 62
7
100
AcDbLine
 10
427.4556629941075
 20
172.4318588730864
 30
0.000000000000000
 11
428.9556629941075
 21
172.4318588730864
 31
0.000000000000000
  0
LINE
  5
223
100
AcDbEntity
  8
A1
  6
CONTINUOUS
 62
7
100
AcDbLine
 10
422.4556629941076
 20
176.4318588730864
 30
0.000000000000000
 11
422.4556629941076
 21
177.9318588730865
 31
0.000000000000000
  0
LINE
  5
224
100
AcDbEntity
  8
A1
  6
CONTINUOUS
 62
7
100
AcDbLine
 10
418.9556629941076
 20
173.9318415130773
 30
0.000000000000000
 11
420.4556629941076
 21
173.9318415130773
 31
0.000000000000000
  0
LINE
  5
225
100
AcDbEntity
  8
A1
  6
CONTINUOUS
 62
7
100
AcDbLine
 10
406.6556749941075
 20
157.9318588730864
 30
0.000000000000000
 11
406.6556749941075
 21
159.4318588730864
 31
0.000000000000000
  0
CIRCLE
  5
226
100
AcDbEntity
  8
A1
  6
CONTINUOUS
 62
7
100
AcDbCircle
 10
523.9556629941073
 20
239.9318588730865
 30
0.000000000000000
 40
2.500000000000000
  0
CIRCLE
  5
227
100
AcDbEntity
  8
A1
  6
CONTINUOUS
 62
7
100
AcDbCircle
 10
523.9556629941075
 20
215.9318588730865
 30
0.000000000000000
 40
2.500000000000000
  0
ARC
  5
228
100
AcDbEntity
  8
A1
  6
CONTINUOUS
 62
7
100
AcDbCircle
 10
527.7556509941073
 20
210.4318588730865
 30
0.000000000000000
 40
2.500000000000000
100
AcDbArc
 50
270.0000000000000
 51
360.0000000000000
  0
ARC
  5
229
100
AcDbEntity
  8
A1
  6
CONTINUOUS
 62
7
100
AcDbCircle
 10
527.7556509941073
 20
245.4318588730865
 30
0.000000000000000
 40
2.500000000000000
100
AcDbArc
 50
0.000000000000000
 51
90.00000000000000
  0
LINE
  5
22A
100
AcDbEntity
  8
A1
  6
CONTINUOUS
 62
7
100
AcDbLine
 10
514.4556629941073
 20
220.4318588730865
 30
0.000000000000000
 11
516.4556629941073
 21
220.4318588730865
 31
0.000000000000000
  0
LINE
  5
22B
100
AcDbEntity
  8
A1
  6
CONTINUOUS
 62
7
100
AcDbLine
 10
514.4556629941073
 20
235.4318588730865
 30
0.000000000000000
 11
516.4556629941073
 21
235.4318588730865
 31
0.000000000000000
  0
LINE
  5
22C
100
AcDbEntity
  8
A1
  6
CONTINUOUS
 62
7
100
AcDbLine
 10
516.4556629941073
 20
207.9318588730865
 30
0.000000000000000
 11
516.4556629941073
 21
247.9318588730865
 31
0.000000000000000
  0
LINE
  5
22D
100
AcDbEntity
  8
A4
  6
CENTER
 62
1
100
AcDbLine
 10
416.9556629941075
 20
239.9318588730865
 30
0.000000000000000
 11
408.9556629941075
 21
239.9318588730865
 31
0.000000000000000
  0
LINE
  5
22E
100
AcDbEntity
  8
A4
  6
CENTER
 62
1
100
AcDbLine
 10
412.9556629941075
 20
243.9318588730865
 30
0.000000000000000
 11
412.9556629941075
 21
235.9318588730865
 31
0.000000000000000
  0
LINE
  5
22F
100
AcDbEntity
  8
A4
  6
CENTER
 62
1
100
AcDbLine
 10
416.9556629941075
 20
215.9318588730865
 30
0.000000000000000
 11
408.9556629941075
 21
215.9318588730865
 31
0.000000000000000
  0
LINE
  5
230
100
AcDbEntity
  8
A4
  6
CENTER
 62
1
100
AcDbLine
 10
412.9556629941075
 20
219.9318588730865
 30
0.000000000000000
 11
412.9556629941075
 21
211.9318588730865
 31
0.000000000000000
  0
LINE
  5
231
100
AcDbEntity
  8
A4
  6
CENTER
 62
1
100
AcDbLine
 10
405.1556749941075
 20
227.9318588730865
 30
0.000000000000000
 11
430.4556629941075
 21
227.9318588730865
 31
0.000000000000000
  0
LINE
  5
232
100
AcDbEntity
  8
A1
  6
CONTINUOUS
 62
7
100
AcDbLine
 10
418.9556629941076
 20
207.9318588730865
 30
0.000000000000000
 11
418.9556629941076
 21
247.9318588730865
 31
0.000000000000000
  0
LINE
  5
233
100
AcDbEntity
  8
A1
  6
CONTINUOUS
 62
7
100
AcDbLine
 10
420.4556629941076
 20
207.9318588730865
 30
0.000000000000000
 11
420.4556629941076
 21
220.4318588730865
 31
0.000000000000000
  0
LINE
  5
234
100
AcDbEntity
  8
A1
  6
CONTINUOUS
 62
7
100
AcDbLine
 10
420.4556629941076
 20
235.4318588730865
 30
0.000000000000000
 11
420.4556629941076
 21
247.9318588730865
 31
0.000000000000000
  0
LINE
  5
235
100
AcDbEntity
  8
A1
  6
CONTINUOUS
 62
7
100
AcDbLine
 10
409.1556749941075
 20
247.9318588730865
 30
0.000000000000000
 11
420.4556629941076
 21
247.9318588730865
 31
0.000000000000000
  0
LINE
  5
236
100
AcDbEntity
  8
A1
  6
CONTINUOUS
 62
7
100
AcDbLine
 10
409.1556749941075
 20
207.9318588730865
 30
0.000000000000000
 11
420.4556629941076
 21
207.9318588730865
 31
0.000000000000000
  0
LINE
  5
237
100
AcDbEntity
  8
A1
  6
CONTINUOUS
 62
7
100
AcDbLine
 10
418.9556629941076
 20
220.4318588730865
 30
0.000000000000000
 11
422.4556629941076
 21
220.4318588730865
 31
0.000000000000000
  0
LINE
  5
238
100
AcDbEntity
  8
A1
  6
CONTINUOUS
 62
7
100
AcDbLine
 10
418.9556629941076
 20
235.4318588730865
 30
0.000000000000000
 11
422.4556629941076
 21
235.4318588730865
 31
0.000000000000000
  0
LINE
  5
239
100
AcDbEntity
  8
A1
  6
CONTINUOUS
 62
7
100
AcDbLine
 10
422.4556629941075
 20
235.4318588730865
 30
0.000000000000000
 11
428.9556629941073
 21
233.6262986762992
 31
0.000000000000000
  0
LINE
  5
23A
100
AcDbEntity
  8
A1
  6
CONTINUOUS
 62
7
100
AcDbLine
 10
422.4556629941076
 20
220.4318588730865
 30
0.000000000000000
 11
428.9556629941075
 21
222.2374190698737
 31
0.000000000000000
  0
LINE
  5
23B
100
AcDbEntity
  8
A1
  6
CONTINUOUS
 62
7
100
AcDbLine
 10
356.6556749941075
 20
247.9318588730865
 30
0.000000000000000
 11
364.1904054054519
 21
247.9318588730865
 31
0.000000000000000
  0
LINE
  5
23C
100
AcDbEntity
  8
A1
  6
CONTINUOUS
 62
7
100
AcDbLine
 10
356.6556749941075
 20
207.9318588730865
 30
0.000000000000000
 11
356.6556749941075
 21
247.9318588730865
 31
0.000000000000000
  0
LINE
  5
23D
100
AcDbEntity
  8
A1
  6
CONTINUOUS
 62
7
100
AcDbLine
 10
356.6556749941075
 20
207.9318588730865
 30
0.000000000000000
 11
364.1903445925797
 21
207.9318588730865
 31
0.000000000000000
  0
LINE
  5
23E
100
AcDbEntity
  8
A1
  6
CONTINUOUS
 62
7
100
AcDbLine
 10
358.1556749941074
 20
207.9318588730865
 30
0.000000000000000
 11
358.1556749941074
 21
247.9318588730865
 31
0.000000000000000
  0
LINE
  5
23F
100
AcDbEntity
  8
A1
  6
CONTINUOUS
 62
7
100
AcDbLine
 10
372.6556576340984
 20
220.4318588730865
 30
0.000000000000000
 11
376.6556749941075
 21
220.4318588730865
 31
0.000000000000000
  0
LINE
  5
240
100
AcDbEntity
  8
A1
  6
CONTINUOUS
 62
7
100
AcDbLine
 10
372.6557102341278
 20
235.4318588730865
 30
0.000000000000000
 11
376.6556749941075
 21
235.4318588730865
 31
0.000000000000000
  0
LINE
  5
241
100
AcDbEntity
  8
A1
  6
CONTINUOUS
 62
7
100
AcDbLine
 10
406.6556749941075
 20
159.4318588730864
 30
0.000000000000000
 11
418.9556629941076
 21
159.4318588730864
 31
0.000000000000000
  0
LINE
  5
242
100
AcDbEntity
  8
A1
  6
CONTINUOUS
 62
7
100
AcDbLine
 10
406.6556749941075
 20
157.9318588730864
 30
0.000000000000000
 11
418.9556629941076
 21
157.9318588730864
 31
0.000000000000000
  0
LINE
  5
243
100
AcDbEntity
  8
A1
  6
CONTINUOUS
 62
7
100
AcDbLine
 10
418.9556629941076
 20
159.4318588730864
 30
0.000000000000000
 11
418.9556629941076
 21
176.4318588730864
 31
0.000000000000000
  0
LINE
  5
244
100
AcDbEntity
  8
A1
  6
CONTINUOUS
 62
7
100
AcDbLine
 10
420.4556629941076
 20
159.4318588730864
 30
0.000000000000000
 11
420.4556629941076
 21
176.4318588730864
 31
0.000000000000000
  0
LINE
  5
245
100
AcDbEntity
  8
A1
  6
CONTINUOUS
 62
7
100
AcDbLine
 10
420.4556629941076
 20
176.4318588730864
 30
0.000000000000000
 11
427.4556629941075
 21
176.4318588730864
 31
0.000000000000000
  0
LINE
  5
246
100
AcDbEntity
  8
A1
  6
CONTINUOUS
 62
7
100
AcDbLine
 10
420.4556629941076
 20
177.9318588730865
 30
0.000000000000000
 11
427.4556629941075
 21
177.9318588730865
 31
0.000000000000000
  0
LINE
  5
247
100
AcDbEntity
  8
A1
  6
CONTINUOUS
 62
7
100
AcDbLine
 10
428.9556629941075
 20
172.4318588730864
 30
0.000000000000000
 11
428.9556629941075
 21
176.4318588730864
 31
0.000000000000000
  0
LINE
  5
248
100
AcDbEntity
  8
A1
  6
CONTINUOUS
 62
7
100
AcDbLine
 10
427.4556629941075
 20
172.4318588730864
 30
0.000000000000000
 11
427.4556629941075
 21
176.4318588730864
 31
0.000000000000000
  0
LINE
  5
249
100
AcDbEntity
  8
A1
  6
CONTINUOUS
 62
7
100
AcDbLine
 10
406.6556749941075
 20
296.4318588730865
 30
0.000000000000000
 11
418.9556629941076
 21
296.4318588730865
 31
0.000000000000000
  0
LINE
  5
24A
100
AcDbEntity
  8
A1
  6
CONTINUOUS
 62
7
100
AcDbLine
 10
406.6556749941075
 20
297.9318588730865
 30
0.000000000000000
 11
418.9556629941076
 21
297.9318588730865
 31
0.000000000000000
  0
LINE
  5
24B
100
AcDbEntity
  8
A1
  6
CONTINUOUS
 62
7
100
AcDbLine
 10
420.4556629941076
 20
279.4318588730865
 30
0.000000000000000
 11
420.4556629941076
 21
296.4318588730865
 31
0.000000000000000
  0
LINE
  5
24C
100
AcDbEntity
  8
A1
  6
CONTINUOUS
 62
7
100
AcDbLine
 10
420.4556629941076
 20
279.4318588730865
 30
0.000000000000000
 11
427.4556629941075
 21
279.4318588730865
 31
0.000000000000000
  0
LINE
  5
24D
100
AcDbEntity
  8
A1
  6
CONTINUOUS
 62
7
100
AcDbLine
 10
420.4556629941076
 20
277.9318588730865
 30
0.000000000000000
 11
427.4556629941075
 21
277.9318588730865
 31
0.000000000000000
  0
LINE
  5
24E
100
AcDbEntity
  8
A1
  6
CONTINUOUS
 62
7
100
AcDbLine
 10
418.9556629941076
 20
279.4318588730865
 30
0.000000000000000
 11
418.9556629941076
 21
296.4318588730865
 31
0.000000000000000
  0
LINE
  5
24F
100
AcDbEntity
  8
A1
  6
CONTINUOUS
 62
7
100
AcDbLine
 10
427.4556629941075
 20
279.4318588730865
 30
0.000000000000000
 11
427.4556629941075
 21
283.4318588730865
 31
0.000000000000000
  0
LINE
  5
250
100
AcDbEntity
  8
A1
  6
CONTINUOUS
 62
7
100
AcDbLine
 10
428.9556629941075
 20
279.4318588730865
 30
0.000000000000000
 11
428.9556629941075
 21
283.4318588730865
 31
0.000000000000000
  0
LINE
  5
251
100
AcDbEntity
  8
A4
  6
CENTER
 62
1
100
AcDbLine
 10
412.9556629941075
 20
160.9318588730864
 30
0.000000000000000
 11
412.9556629941075
 21
156.4318588730864
 31
0.000000000000000
  0
LINE
  5
252
100
AcDbEntity
  8
A4
  6
CENTER
 62
1
100
AcDbLine
 10
412.9556629941075
 20
299.4318588730865
 30
0.000000000000000
 11
412.9556629941075
 21
294.9318588730865
 31
0.000000000000000
  0
LINE
  5
253
100
AcDbEntity
  8
A1
  6
CONTINUOUS
 62
7
100
AcDbLine
 10
458.9556629941075
 20
235.4318588730865
 30
0.000000000000000
 11
462.9556277540872
 21
235.4318588730865
 31
0.000000000000000
  0
LINE
  5
254
100
AcDbEntity
  8
A1
  6
CONTINUOUS
 62
7
100
AcDbLine
 10
458.9556629941075
 20
220.4318588730865
 30
0.000000000000000
 11
458.9556629941075
 21
235.4318588730865
 31
0.000000000000000
  0
LINE
  5
255
100
AcDbEntity
  8
A1
  6
CONTINUOUS
 62
7
100
AcDbLine
 10
460.4556629941075
 20
233.6262986762992
 30
0.000000000000000
 11
460.4556629941075
 21
235.4318588730865
 31
0.000000000000000
  0
LINE
  5
256
100
AcDbEntity
  8
A1
  6
CONTINUOUS
 62
7
100
AcDbLine
 10
460.4556629941075
 20
220.4318588730865
 30
0.000000000000000
 11
460.4556629941075
 21
222.2374190698737
 31
0.000000000000000
  0
LINE
  5
257
100
AcDbEntity
  8
A1
  6
CONTINUOUS
 62
7
100
AcDbLine
 10
458.9556629941075
 20
220.4318588730865
 30
0.000000000000000
 11
462.9556803541166
 21
220.4318588730865
 31
0.000000000000000
  0
LINE
  5
258
100
AcDbEntity
  8
A1
  6
CONTINUOUS
 62
7
100
AcDbLine
 10
471.4209933956353
 20
207.9318588730865
 30
0.000000000000000
 11
478.9556629941075
 21
207.9318588730865
 31
0.000000000000000
  0
LINE
  5
259
100
AcDbEntity
  8
A4
  6
CENTER
 62
1
100
AcDbLine
 10
457.4556629941075
 20
227.9318588730865
 30
0.000000000000000
 11
480.4556629941075
 21
227.9318588730865
 31
0.000000000000000
  0
LINE
  5
25A
100
AcDbEntity
  8
A4
  6
CENTER
 62
1
100
AcDbLine
 10
475.9556629941075
 20
239.9318588730865
 30
0.000000000000000
 11
480.4556629941075
 21
239.9318588730865
 31
0.000000000000000
  0
LINE
  5
25B
100
AcDbEntity
  8
A4
  6
CENTER
 62
1
100
AcDbLine
 10
475.9556629941075
 20
215.9318588730865
 30
0.000000000000000
 11
480.4556629941075
 21
215.9318588730865
 31
0.000000000000000
  0
LINE
  5
25C
100
AcDbEntity
  8
A4
  6
CENTER
 62
1
100
AcDbLine
 10
378.1556749941074
 20
227.9318588730865
 30
0.000000000000000
 11
355.1556749941074
 21
227.9318588730865
 31
0.000000000000000
  0
LINE
  5
25D
100
AcDbEntity
  8
A4
  6
CENTER
 62
1
100
AcDbLine
 10
359.6556749941074
 20
239.9318588730865
 30
0.000000000000000
 11
355.1556749941074
 21
239.9318588730865
 31
0.000000000000000
  0
LINE
  5
25E
100
AcDbEntity
  8
A4
  6
CENTER
 62
1
100
AcDbLine
 10
359.6556749941074
 20
215.9318588730865
 30
0.000000000000000
 11
355.1556749941074
 21
215.9318588730865
 31
0.000000000000000
  0
LINE
  5
25F
100
AcDbEntity
  8
A1
  6
CONTINUOUS
 62
7
100
AcDbLine
 10
471.4209325827630
 20
247.9318588730865
 30
0.000000000000000
 11
478.9556629941075
 21
247.9318588730865
 31
0.000000000000000
  0
LINE
  5
260
100
AcDbEntity
  8
A4
  6
CENTER
 62
1
100
AcDbLine
 10
523.9556629941076
 20
243.9318588730865
 30
0.000000000000000
 11
523.9556629941076
 21
235.9318588730865
 31
0.000000000000000
  0
LINE
  5
261
100
AcDbEntity
  8
A4
  6
CENTER
 62
1
100
AcDbLine
 10
519.9556629941076
 20
239.9318588730865
 30
0.000000000000000
 11
527.9556629941076
 21
239.9318588730865
 31
0.000000000000000
  0
LINE
  5
262
100
AcDbEntity
  8
A4
  6
CENTER
 62
1
100
AcDbLine
 10
531.7556509941076
 20
227.9318588730865
 30
0.000000000000000
 11
506.4556629941074
 21
227.9318588730865
 31
0.000000000000000
  0
LINE
  5
263
100
AcDbEntity
  8
A4
  6
CENTER
 62
1
100
AcDbLine
 10
523.9556629941076
 20
219.9318588730865
 30
0.000000000000000
 11
523.9556629941076
 21
211.9318588730865
 31
0.000000000000000
  0
LINE
  5
264
100
AcDbEntity
  8
A4
  6
CENTER
 62
1
100
AcDbLine
 10
519.9556629941076
 20
215.9318588730865
 30
0.000000000000000
 11
527.9556629941076
 21
215.9318588730865
 31
0.000000000000000
  0
LINE
  5
265
100
AcDbEntity
  8
A1
  6
CONTINUOUS
 62
7
100
AcDbLine
 10
516.4556629941073
 20
247.9318588730865
 30
0.000000000000000
 11
527.7556509941073
 21
247.9318588730865
 31
0.000000000000000
  0
LINE
  5
266
100
AcDbEntity
  8
A1
  6
CONTINUOUS
 62
7
100
AcDbLine
 10
507.9556629941075
 20
233.6262986762992
 30
0.000000000000000
 11
514.4556629941072
 21
235.4318588730864
 31
0.000000000000000
  0
LINE
  5
267
100
AcDbEntity
  8
A1
  6
CONTINUOUS
 62
7
100
AcDbLine
 10
509.4556629941075
 20
221.8207513321536
 30
0.000000000000000
 11
509.4556629941075
 21
234.0429664140193
 31
0.000000000000000
  0
LINE
  5
268
100
AcDbEntity
  8
A1
  6
CONTINUOUS
 62
7
100
AcDbLine
 10
507.9556629941075
 20
222.2374190698737
 30
0.000000000000000
 11
507.9556629941075
 21
233.6262986762992
 31
0.000000000000000
  0
LINE
  5
269
100
AcDbEntity
  8
A1
  6
CONTINUOUS
 62
7
100
AcDbLine
 10
507.9556629941076
 20
222.2374190698737
 30
0.000000000000000
 11
514.4556629941075
 21
220.4318588730865
 31
0.000000000000000
  0
LINE
  5
26A
100
AcDbEntity
  8
A1
  6
CONTINUOUS
 62
7
100
AcDbLine
 10
516.4556629941073
 20
207.9318588730865
 30
0.000000000000000
 11
527.7556509941073
 21
207.9318588730865
 31
0.000000000000000
  0
ARC
  5
26B
100
AcDbEntity
  8
A10
  6
CONTINUOUS
 62
7
100
AcDbCircle
 10
402.6556749941075
 20
227.9318588730867
 30
0.000000000000000
 40
5.000000000000000
100
AcDbArc
 50
323.1301023541560
 51
396.8698976458440
  0
LINE
  5
26C
100
AcDbEntity
  8
A1
  6
CONTINUOUS
 62
7
100
AcDbLine
 10
406.6556749941075
 20
210.4318588730865
 30
0.000000000000000
 11
406.6556749941075
 21
224.9318588730867
 31
0.000000000000000
  0
LINE
  5
26D
100
AcDbEntity
  8
A1
  6
CONTINUOUS
 62
7
100
AcDbLine
 10
406.6556749941075
 20
230.9318588730867
 30
0.000000000000000
 11
406.6556749941075
 21
245.4318588730865
 31
0.000000000000000
  0
LINE
  5
26E
100
AcDbEntity
  8
A10
  6
CONTINUOUS
 62
3
100
AcDbLine
 10
358.1556749941074
 20
230.9318588731439
 30
0.000000000000000
 11
356.6556749941060
 21
230.9318588731457
 31
0.000000000000000
  0
LINE
  5
26F
100
AcDbEntity
  8
A10
  6
CONTINUOUS
 62
3
100
AcDbLine
 10
358.1556749941074
 20
224.9318588730310
 30
0.000000000000000
 11
356.6556749941060
 21
224.9318588730293
 31
0.000000000000000
  0
ARC
  5
270
100
AcDbEntity
  8
A10
  6
CONTINUOUS
 62
7
100
AcDbCircle
 10
534.2556509941076
 20
227.9318588730867
 30
0.000000000000000
 40
5.000000000000000
100
AcDbArc
 50
143.1301023541560
 51
216.8698976458440
  0
LINE
  5
271
100
AcDbEntity
  8
A1
  6
CONTINUOUS
 62
7
100
AcDbLine
 10
530.2556509941073
 20
210.4318588730865
 30
0.000000000000000
 11
530.2556509941073
 21
224.9318588730870
 31
0.000000000000000
  0
LINE
  5
272
100
AcDbEntity
  8
A1
  6
CONTINUOUS
 62
7
100
AcDbLine
 10
530.2556509941073
 20
230.9318588730864
 30
0.000000000000000
 11
530.2556509941073
 21
245.4318588730865
 31
0.000000000000000
  0
ENDSEC
  0
SECTION
  2
OBJECTS
  0
DICTIONARY
  5
2A6
100
AcDbDictionary
  3
ACAD_GROUP
350
2A7
  3
ACAD_LAYOUT
350
2A8
  3
ACAD_MLINESTYLE
350
2A9
  0
DICTIONARY
  5
2A7
102
{ACAD_REACTORS
330
2A6
102
}
330
2A6
100
AcDbDictionary
  0
DICTIONARY
  5
2A8
102
{ACAD_REACTORS
330
2A6
102
}
330
2A6
100
AcDbDictionary
  3
Model
350
2AA
  3
ﾚｲｱｳﾄ1
350
2AB
  3
ﾚｲｱｳﾄ2
350
2AC
  0
DICTIONARY
  5
2A9
102
{ACAD_REACTORS
330
2A6
102
}
330
2A6
100
AcDbDictionary
  3
STANDARD
350
2AD
  0
LAYOUT
  5
2AA
102
{ACAD_REACTORS
330
2A8
102
}
330
2A8
100
AcDbPlotSettings
 70
11952
  4
A2
 44
420.000000
 45
594.000000
 73
  1
 72
  1
100
AcDbLayout
  1
Model
 71
0
330
29D
  0
LAYOUT
  5
2AB
102
{ACAD_REACTORS
330
2A8
102
}
330
2A8
100
AcDbPlotSettings
100
AcDbLayout
  1
ﾚｲｱｳﾄ1
 71
1
330
29E
  0
LAYOUT
  5
2AC
102
{ACAD_REACTORS
330
2A8
102
}
330
2A8
100
AcDbPlotSettings
100
AcDbLayout
  1
ﾚｲｱｳﾄ2
 71
2
330
29F
  0
MLINESTYLE
  5
2AD
102
{ACAD_REACTORS
330
2A9
102
}
330
2A9
100
AcDbMlineStyle
  2
STANDARD
 70
     0
  3

 62
   256
 51
90.00
 52
90.00
 71
     2
 49
0.50
 62
   256
  6
BYLAYER
 49
-0.50
 62
   256
  6
BYLAYER
  0
ENDSEC
  0
EOF
