  0
SECTION
  2
HEADER
  9
$ACADVER
  1
AC1027
  9
$DWGCODEPAGE
  3
ANSI_932
  9
$LTSCALE
 40
20.0
  9
$FILLMODE
 70
     1
  9
$CLAYER
  8
0
  9
$PDMODE
 70
     0
  9
$SPLFRAME
 70
     0
  9
$SPLINETYPE
 70
     6
  9
$SPLINESEGS
 70
     8
  9
$DIMASZ
 40
2.000000
  9
$DIMEXE
 40
1.500000
  9
$DIMEXO
 40
0.800000
  9
$DIMTAD
 70
     1
  9
$DIMTIH
 70
     0
  9
$DIMTOH
 70
     0
  9
$DIMTVP
 40
0.500000
  9
$DIMTXT
 40
3.100000
  9
$EXTMIN
 10
0.000000
 20
0.000000
 30
0.000000
  9
$EXTMAX
 10
297.000000
 20
420.000000
 30
0.000000
  9
$MEASUREMENT
 70
  1
  9
$LIMMIN
 10
0.000000
 20
0.000000
  9
$LIMMAX
 10
297.000000
 20
420.000000
  9
$HANDSEED
  5
1AA
  9
$LWDISPLAY
290
     0
  9
$DIMBLK
  1
_OPEN
  9
$DIMDEC
 70
     2
  9
$DIMADEC
 70
     2
  9
$DIMAUNIT
 70
     0
  9
$DIMZIN
 70
     8
  9
$DIMAZIN
 70
     2
  9
$DIMTOFL
 70
     1
  0
ENDSEC
  0
SECTION
  2
CLASSES
  0
ENDSEC
  0
SECTION
  2
TABLES
  0
TABLE
  2
VPORT
  5
171
100
AcDbSymbolTable
 70
     1
  0
VPORT
  5
172
100
AcDbSymbolTableRecord
100
AcDbViewportTableRecord
  2
*ACTIVE
 70
     0
 12
98.777257
 22
74.370950
 40
112.741899
 41
1.574876
  0
ENDTAB
  0
TABLE
  2
LTYPE
  5
173
100
AcDbSymbolTable
 70
     3
  0
LTYPE
  5
174
100
AcDbSymbolTableRecord
100
AcDbLinetypeTableRecord
  2
BYBLOCK
 70
     0
  3

 72
    65
 73
     0
 40
0.0
  0
LTYPE
  5
175
100
AcDbSymbolTableRecord
100
AcDbLinetypeTableRecord
  2
BYLAYER
 70
     0
  3

 72
    65
 73
     0
 40
0.0
  0
LTYPE
  5
176
100
AcDbSymbolTableRecord
100
AcDbLinetypeTableRecord
  2
CONTINUOUS
 70
     0
  3
Solid line (NEC CAE2D for Win R18.0 : 2025.01.16)
 72
    65
 73
     0
 40
0.0
  0
LTYPE
  5
177
100
AcDbSymbolTableRecord
100
AcDbLinetypeTableRecord
  2
CENTER
 70
     0
  3
____ _ ____ _ ____ _ ____ _ ____ _ ____
 72
    65
 73
     4
 40
2.0
 49
1.25
 74
     0
 49
-0.25
 74
     0
 49
0.25
 74
     0
 49
-0.25
 74
     0
  0
LTYPE
  5
178
100
AcDbSymbolTableRecord
100
AcDbLinetypeTableRecord
  2
PHANTOM
 70
     0
  3
______  __  __  ______  __  __  ______ 
 72
    65
 73
     6
 40
2.5
 49
1.25
 74
     0
 49
-0.25
 74
     0
 49
0.25
 74
     0
 49
-0.25
 74
     0
 49
0.25
 74
     0
 49
-0.25
 74
     0
  0
ENDTAB
  0
TABLE
  2
LAYER
  5
179
100
AcDbSymbolTable
 70
    18
  0
LAYER
  5
17A
100
AcDbSymbolTableRecord
100
AcDbLayerTableRecord
  2
0
 70
     0
 62
     7
  6
CONTINUOUS
370
    -3
390

  0
LAYER
  5
17B
100
AcDbSymbolTableRecord
100
AcDbLayerTableRecord
  2
DXF0
 70
     0
 62
     7
  6
CONTINUOUS
370
    -3
390

  0
LAYER
  5
17C
100
AcDbSymbolTableRecord
100
AcDbLayerTableRecord
  2
A0
 70
     0
 62
     9
  6
CONTINUOUS
370
    -3
390

  0
LAYER
  5
17D
100
AcDbSymbolTableRecord
100
AcDbLayerTableRecord
  2
A1
 70
     0
 62
     1
  6
CONTINUOUS
370
    -3
390

  0
LAYER
  5
17E
100
AcDbSymbolTableRecord
100
AcDbLayerTableRecord
  2
A2
 70
     0
 62
     9
  6
CONTINUOUS
370
    -3
390

  0
LAYER
  5
17F
100
AcDbSymbolTableRecord
100
AcDbLayerTableRecord
  2
A4
 70
     0
 62
     9
  6
CONTINUOUS
370
    -3
390

  0
LAYER
  5
180
100
AcDbSymbolTableRecord
100
AcDbLayerTableRecord
  2
A5
 70
     0
 62
     8
  6
CONTINUOUS
370
    -3
390

  0
LAYER
  5
181
100
AcDbSymbolTableRecord
100
AcDbLayerTableRecord
  2
A6
 70
     0
 62
    12
  6
CONTINUOUS
370
    -3
390

  0
LAYER
  5
182
100
AcDbSymbolTableRecord
100
AcDbLayerTableRecord
  2
A7
 70
     0
 62
    12
  6
CONTINUOUS
370
    -3
390

  0
LAYER
  5
183
100
AcDbSymbolTableRecord
100
AcDbLayerTableRecord
  2
A8
 70
     0
 62
    10
  6
CONTINUOUS
370
    -3
390

  0
LAYER
  5
184
100
AcDbSymbolTableRecord
100
AcDbLayerTableRecord
  2
A9
 70
     0
 62
     9
  6
CONTINUOUS
370
    -3
390

  0
LAYER
  5
185
100
AcDbSymbolTableRecord
100
AcDbLayerTableRecord
  2
A10
 70
     0
 62
     6
  6
CONTINUOUS
370
    -3
390

  0
LAYER
  5
186
100
AcDbSymbolTableRecord
100
AcDbLayerTableRecord
  2
A20
 70
     0
 62
     1
  6
CONTINUOUS
370
    -3
390

  0
LAYER
  5
187
100
AcDbSymbolTableRecord
100
AcDbLayerTableRecord
  2
A30
 70
     0
 62
     1
  6
CONTINUOUS
370
    -3
390

  0
LAYER
  5
188
100
AcDbSymbolTableRecord
100
AcDbLayerTableRecord
  2
A40
 70
     0
 62
     9
  6
CONTINUOUS
370
    -3
390

  0
LAYER
  5
189
100
AcDbSymbolTableRecord
100
AcDbLayerTableRecord
  2
A50
 70
     0
 62
    12
  6
CONTINUOUS
370
    -3
390

  0
LAYER
  5
18A
100
AcDbSymbolTableRecord
100
AcDbLayerTableRecord
  2
A1023
 70
     0
 62
     8
  6
CONTINUOUS
370
    -3
390

  0
LAYER
  5
18B
100
AcDbSymbolTableRecord
100
AcDbLayerTableRecord
  2
DXF1023
 70
     0
 62
    16
  6
CONTINUOUS
370
    -3
390

  0
ENDTAB
  0
TABLE
  2
STYLE
  5
18C
100
AcDbSymbolTable
 70
     4
  0
STYLE
  5
18D
100
AcDbSymbolTableRecord
100
AcDbTextStyleTableRecord
  2
STANDARD
 70
    64
 40
0.0
 41
1.0
 50
0.0
 71
     0
 42
3.000000000000000
  3
TXT
  4

  0
STYLE
  5
18E
100
AcDbSymbolTableRecord
100
AcDbTextStyleTableRecord
  2
ANKTATE
 70
    68
 40
0.0
 41
1.0
 50
0.0
 71
     0
 42
3.000000000000000
  3
TXT
  4

  0
STYLE
  5
18F
100
AcDbSymbolTableRecord
100
AcDbTextStyleTableRecord
  2
KNJYOKO
 70
    64
 40
0.0
 41
1.0
 50
0.0
 71
     0
 42
3.000000000000000
  3
TXT
  4
BIGFONT
  0
STYLE
  5
190
100
AcDbSymbolTableRecord
100
AcDbTextStyleTableRecord
  2
KNJTATE
 70
    68
 40
0.0
 41
1.0
 50
0.0
 71
     0
 42
3.000000000000000
  3
TXT
  4
BIGFONT
  0
ENDTAB
  0
TABLE
  2
VIEW
  5
191
100
AcDbSymbolTable
 70
     0
  0
ENDTAB
  0
TABLE
  2
UCS
  5
192
100
AcDbSymbolTable
 70
     0
  0
ENDTAB
  0
TABLE
  2
APPID
  5
193
100
AcDbSymbolTable
 70
     1
  0
APPID
  5
194
100
AcDbSymbolTableRecord
100
AcDbRegAppTableRecord
  2
ACAD
 70
     0
  0
ENDTAB
  0
TABLE
  2
DIMSTYLE
  5
195
100
AcDbSymbolTable
 70
     2
100
AcDbDimStyleTable
  0
DIMSTYLE
105
196
100
AcDbSymbolTableRecord
100
AcDbDimStyleTableRecord
  2
STANDARD
 70
     0
 41
2.000000
 44
1.500000
 42
0.800000
145
0.661290
140
3.100000
144
1.000000
146
0.645161
340
18D
  0
DIMSTYLE
105
197
100
AcDbSymbolTableRecord
100
AcDbDimStyleTableRecord
  2
DXF001
 70
     0
 41
2.000000
 44
1.500000
 42
0.800000
145
0.661290
140
3.100000
144
1.000000
146
0.645161
 77
     1
 73
     0
 74
     0
271
     2
179
     2
275
     0
 78
     8
 79
     2
172
     1
340
18D
  0
ENDTAB
  0
TABLE
  2
BLOCK_RECORD
  5
198
100
AcDbSymbolTable
 70
    12
  0
BLOCK_RECORD
  5
199
100
AcDbSymbolTableRecord
100
AcDbBlockTableRecord
  2
*MODEL_SPACE
  0
BLOCK_RECORD
  5
19A
100
AcDbSymbolTableRecord
100
AcDbBlockTableRecord
  2
*PAPER_SPACE
  0
BLOCK_RECORD
  5
19B
100
AcDbSymbolTableRecord
100
AcDbBlockTableRecord
  2
*PAPER_SPACE0
  0
BLOCK_RECORD
  5
1
100
AcDbSymbolTableRecord
100
AcDbBlockTableRecord
  2
_NONE
  0
BLOCK_RECORD
  5
4
100
AcDbSymbolTableRecord
100
AcDbBlockTableRecord
  2
_CLOSED
  0
BLOCK_RECORD
  5
B
100
AcDbSymbolTableRecord
100
AcDbBlockTableRecord
  2
_DOT
  0
BLOCK_RECORD
  5
13
100
AcDbSymbolTableRecord
100
AcDbBlockTableRecord
  2
_OPEN
  0
BLOCK_RECORD
  5
19
100
AcDbSymbolTableRecord
100
AcDbBlockTableRecord
  2
_ORIGIN
  0
BLOCK_RECORD
  5
1E
100
AcDbSymbolTableRecord
100
AcDbBlockTableRecord
  2
_OPEN30
  0
BLOCK_RECORD
  5
24
100
AcDbSymbolTableRecord
100
AcDbBlockTableRecord
  2
_BOXFILLED
  0
BLOCK_RECORD
  5
29
100
AcDbSymbolTableRecord
100
AcDbBlockTableRecord
  2
_BOXBLANK
  0
BLOCK_RECORD
  5
31
100
AcDbSymbolTableRecord
100
AcDbBlockTableRecord
  2
_OBLIQUE
  0
BLOCK_RECORD
  5
35
100
AcDbSymbolTableRecord
100
AcDbBlockTableRecord
  2
_OPEN90
  0
BLOCK_RECORD
  5
3B
100
AcDbSymbolTableRecord
100
AcDbBlockTableRecord
  2
_CLOSEDBLANK
  0
BLOCK_RECORD
  5
41
100
AcDbSymbolTableRecord
100
AcDbBlockTableRecord
  2
_DOTBLANK
  0
ENDTAB
  0
ENDSEC
  0
SECTION
  2
BLOCKS
  0
BLOCK
  5
19C
100
AcDbEntity
  8
0
100
AcDbBlockBegin
  2
*MODEL_SPACE
 70
     0
 10
0.0
 20
0.0
 30
0.0
  3
*MODEL_SPACE
  1

  0
ENDBLK
  5
19D
100
AcDbEntity
  8
0
100
AcDbBlockEnd
  0
BLOCK
  5
19E
100
AcDbEntity
  8
0
100
AcDbBlockBegin
  2
*PAPER_SPACE
 70
     0
 10
0.0
 20
0.0
 30
0.0
  3
*PAPER_SPACE
  1

  0
ENDBLK
  5
19F
100
AcDbEntity
  8
0
100
AcDbBlockEnd
  0
BLOCK
  5
1A0
100
AcDbEntity
  8
0
100
AcDbBlockBegin
  2
*PAPER_SPACE0
 70
     0
 10
0.0
 20
0.0
 30
0.0
  3
*PAPER_SPACE0
  1

  0
ENDBLK
  5
1A1
100
AcDbEntity
  8
0
100
AcDbBlockEnd
  0
BLOCK
  5
2
330
1
100
AcDbEntity
  8
0
100
AcDbBlockBegin
  2
_NONE
 70
     0
 10
0.0
 20
0.0
 30
0.0
  3
_NONE
  1

  0
ENDBLK
  5
3
330
1
100
AcDbEntity
  8
0
100
AcDbBlockEnd
  0
BLOCK
  5
5
330
4
100
AcDbEntity
  8
0
100
AcDbBlockBegin
  2
_CLOSED
 70
     0
 10
0.0
 20
0.0
 30
0.0
  3
_CLOSED
  1

  0
LINE
  5
6
330
4
100
AcDbEntity
  8
0
  6
BYBLOCK
 62
     0
370
    -2
100
AcDbLine
 10
-1.0
 20
0.166667
 30
0.0
 11
0.0
 21
0.0
 31
0.0
  0
LINE
  5
7
330
4
100
AcDbEntity
  8
0
  6
BYBLOCK
 62
     0
370
    -2
100
AcDbLine
 10
0.0
 20
0.0
 30
0.0
 11
-1.0
 21
-0.166667
 31
0.0
  0
LINE
  5
8
330
4
100
AcDbEntity
  8
0
  6
BYBLOCK
 62
     0
370
    -2
100
AcDbLine
 10
-1.0
 20
0.166667
 30
0.0
 11
-1.0
 21
-0.166667
 31
0.0
  0
LINE
  5
9
330
4
100
AcDbEntity
  8
0
  6
BYBLOCK
 62
     0
370
    -2
100
AcDbLine
 10
0.0
 20
0.0
 30
0.0
 11
-1.0
 21
0.0
 31
0.0
  0
ENDBLK
  5
A
330
4
100
AcDbEntity
  8
0
100
AcDbBlockEnd
  0
BLOCK
  5
C
330
B
100
AcDbEntity
  8
0
100
AcDbBlockBegin
  2
_DOT
 70
     0
 10
0.0
 20
0.0
 30
0.0
  3
_DOT
  1

  0
POLYLINE
  5
D
330
B
100
AcDbEntity
  8
0
  6
BYBLOCK
 62
     0
370
    -2
100
AcDb2dPolyline
 66
     1
 10
0.0
 20
0.0
 30
0.0
 70
     1
 40
0.5
 41
0.5
  0
VERTEX
  5
E
330
B
100
AcDbEntity
  8
0
  6
BYBLOCK
 62
     0
370
    -2
100
AcDbVertex
100
AcDb2dVertex
 10
-0.25
 20
0.0
 30
0.0
 42
1.0
  0
VERTEX
  5
F
330
B
100
AcDbEntity
  8
0
  6
BYBLOCK
 62
     0
370
    -2
100
AcDbVertex
100
AcDb2dVertex
 10
0.25
 20
0.0
 30
0.0
 42
1.0
  0
SEQEND
  5
10
330
B
100
AcDbEntity
  8
0
  6
BYBLOCK
 62
     0
370
    -2
  0
LINE
  5
11
330
B
100
AcDbEntity
  8
0
  6
BYBLOCK
 62
     0
370
    -2
100
AcDbLine
 10
-0.5
 20
0.0
 30
0.0
 11
-1.0
 21
0.0
 31
0.0
  0
ENDBLK
  5
12
330
B
100
AcDbEntity
  8
0
100
AcDbBlockEnd
  0
BLOCK
  5
14
330
13
100
AcDbEntity
  8
0
100
AcDbBlockBegin
  2
_OPEN
 70
     0
 10
0.0
 20
0.0
 30
0.0
  3
_OPEN
  1

  0
LINE
  5
15
330
13
100
AcDbEntity
  8
0
  6
BYBLOCK
 62
     0
370
    -2
100
AcDbLine
 10
-1.0
 20
0.166667
 30
0.0
 11
0.0
 21
0.0
 31
0.0
  0
LINE
  5
16
330
13
100
AcDbEntity
  8
0
  6
BYBLOCK
 62
     0
370
    -2
100
AcDbLine
 10
0.0
 20
0.0
 30
0.0
 11
-1.0
 21
-0.166667
 31
0.0
  0
LINE
  5
17
330
13
100
AcDbEntity
  8
0
  6
BYBLOCK
 62
     0
370
    -2
100
AcDbLine
 10
0.0
 20
0.0
 30
0.0
 11
-1.0
 21
0.0
 31
0.0
  0
ENDBLK
  5
18
330
13
100
AcDbEntity
  8
0
100
AcDbBlockEnd
  0
BLOCK
  5
1A
330
19
100
AcDbEntity
  8
0
100
AcDbBlockBegin
  2
_ORIGIN
 70
     0
 10
0.0
 20
0.0
 30
0.0
  3
_ORIGIN
  1

  0
CIRCLE
  5
1B
330
19
100
AcDbEntity
  8
0
  6
BYBLOCK
 62
     0
370
    -2
100
AcDbCircle
 10
0.0
 20
0.0
 30
0.0
 40
0.5
  0
LINE
  5
1C
330
19
100
AcDbEntity
  8
0
  6
BYBLOCK
 62
     0
370
    -2
100
AcDbLine
 10
0.0
 20
0.0
 30
0.0
 11
-1.0
 21
0.0
 31
0.0
  0
ENDBLK
  5
1D
330
19
100
AcDbEntity
  8
0
100
AcDbBlockEnd
  0
BLOCK
  5
1F
330
1E
100
AcDbEntity
  8
0
100
AcDbBlockBegin
  2
_OPEN30
 70
     0
 10
0.0
 20
0.0
 30
0.0
  3
_OPEN30
  1

  0
LINE
  5
20
330
1E
100
AcDbEntity
  8
0
  6
BYBLOCK
 62
     0
370
    -2
100
AcDbLine
 10
-1.0
 20
0.267949
 30
0.0
 11
0.0
 21
0.0
 31
0.0
  0
LINE
  5
21
330
1E
100
AcDbEntity
  8
0
  6
BYBLOCK
 62
     0
370
    -2
100
AcDbLine
 10
0.0
 20
0.0
 30
0.0
 11
-1.0
 21
-0.267949
 31
0.0
  0
LINE
  5
22
330
1E
100
AcDbEntity
  8
0
  6
BYBLOCK
 62
     0
370
    -2
100
AcDbLine
 10
0.0
 20
0.0
 30
0.0
 11
-1.0
 21
0.0
 31
0.0
  0
ENDBLK
  5
23
330
1E
100
AcDbEntity
  8
0
100
AcDbBlockEnd
  0
BLOCK
  5
25
330
24
100
AcDbEntity
  8
0
100
AcDbBlockBegin
  2
_BOXFILLED
 70
     0
 10
0.0
 20
0.0
 30
0.0
  3
_BOXFILLED
  1

  0
SOLID
  5
26
330
24
100
AcDbEntity
  8
0
  6
BYBLOCK
 62
     0
370
    -2
100
AcDbTrace
 10
-0.5
 20
0.5
 30
0.0
 11
0.5
 21
0.5
 31
0.0
 12
-0.5
 22
-0.5
 32
0.0
 13
0.5
 23
-0.5
 33
0.0
  0
LINE
  5
27
330
24
100
AcDbEntity
  8
0
  6
BYBLOCK
 62
     0
370
    -2
100
AcDbLine
 10
-0.5
 20
0.0
 30
0.0
 11
-1.0
 21
0.0
 31
0.0
  0
ENDBLK
  5
28
330
24
100
AcDbEntity
  8
0
100
AcDbBlockEnd
  0
BLOCK
  5
2A
330
29
100
AcDbEntity
  8
0
100
AcDbBlockBegin
  2
_BOXBLANK
 70
     0
 10
0.0
 20
0.0
 30
0.0
  3
_BOXBLANK
  1

  0
LINE
  5
2B
330
29
100
AcDbEntity
  8
0
  6
BYBLOCK
 62
     0
370
    -2
100
AcDbLine
 10
-0.5
 20
-0.5
 30
0.0
 11
0.5
 21
-0.5
 31
0.0
  0
LINE
  5
2C
330
29
100
AcDbEntity
  8
0
  6
BYBLOCK
 62
     0
370
    -2
100
AcDbLine
 10
0.5
 20
-0.5
 30
0.0
 11
0.5
 21
0.5
 31
0.0
  0
LINE
  5
2D
330
29
100
AcDbEntity
  8
0
  6
BYBLOCK
 62
     0
370
    -2
100
AcDbLine
 10
0.5
 20
0.5
 30
0.0
 11
-0.5
 21
0.5
 31
0.0
  0
LINE
  5
2E
330
29
100
AcDbEntity
  8
0
  6
BYBLOCK
 62
     0
370
    -2
100
AcDbLine
 10
-0.5
 20
0.5
 30
0.0
 11
-0.5
 21
-0.5
 31
0.0
  0
LINE
  5
2F
330
29
100
AcDbEntity
  8
0
  6
BYBLOCK
 62
     0
370
    -2
100
AcDbLine
 10
-0.5
 20
0.0
 30
0.0
 11
-1.0
 21
0.0
 31
0.0
  0
ENDBLK
  5
30
330
29
100
AcDbEntity
  8
0
100
AcDbBlockEnd
  0
BLOCK
  5
32
330
31
100
AcDbEntity
  8
0
100
AcDbBlockBegin
  2
_OBLIQUE
 70
     0
 10
0.0
 20
0.0
 30
0.0
  3
_OBLIQUE
  1

  0
LINE
  5
33
330
31
100
AcDbEntity
  8
0
  6
BYBLOCK
 62
     0
370
    -2
100
AcDbLine
 10
-0.5
 20
-0.5
 30
0.0
 11
0.5
 21
0.5
 31
0.0
  0
ENDBLK
  5
34
330
31
100
AcDbEntity
  8
0
100
AcDbBlockEnd
  0
BLOCK
  5
36
330
35
100
AcDbEntity
  8
0
100
AcDbBlockBegin
  2
_OPEN90
 70
     0
 10
0.0
 20
0.0
 30
0.0
  3
_OPEN90
  1

  0
LINE
  5
37
330
35
100
AcDbEntity
  8
0
  6
BYBLOCK
 62
     0
370
    -2
100
AcDbLine
 10
-0.5
 20
0.5
 30
0.0
 11
0.0
 21
0.0
 31
0.0
  0
LINE
  5
38
330
35
100
AcDbEntity
  8
0
  6
BYBLOCK
 62
     0
370
    -2
100
AcDbLine
 10
0.0
 20
0.0
 30
0.0
 11
-0.5
 21
-0.5
 31
0.0
  0
LINE
  5
39
330
35
100
AcDbEntity
  8
0
  6
BYBLOCK
 62
     0
370
    -2
100
AcDbLine
 10
0.0
 20
0.0
 30
0.0
 11
-1.0
 21
0.0
 31
0.0
  0
ENDBLK
  5
3A
330
35
100
AcDbEntity
  8
0
100
AcDbBlockEnd
  0
BLOCK
  5
3C
330
3B
100
AcDbEntity
  8
0
100
AcDbBlockBegin
  2
_CLOSEDBLANK
 70
     0
 10
0.0
 20
0.0
 30
0.0
  3
_CLOSEDBLANK
  1

  0
LINE
  5
3D
330
3B
100
AcDbEntity
  8
0
  6
BYBLOCK
 62
     0
370
    -2
100
AcDbLine
 10
-1.0
 20
0.1666666666666666
 30
0.0
 11
0.0
 21
0.0
 31
0.0
  0
LINE
  5
3E
330
3B
100
AcDbEntity
  8
0
  6
BYBLOCK
 62
     0
370
    -2
100
AcDbLine
 10
0.0
 20
0.0
 30
0.0
 11
-1.0
 21
-0.1666666666666666
 31
0.0
  0
LINE
  5
3F
330
3B
100
AcDbEntity
  8
0
  6
BYBLOCK
 62
     0
370
    -2
100
AcDbLine
 10
-1.0
 20
0.1666666666666666
 30
0.0
 11
-1.0
 21
-0.1666666666666666
 31
0.0
  0
ENDBLK
  5
40
330
3B
100
AcDbEntity
  8
0
100
AcDbBlockEnd
  0
BLOCK
  5
42
330
41
100
AcDbEntity
  8
0
100
AcDbBlockBegin
  2
_DOTBLANK
 70
     0
 10
0.0
 20
0.0
 30
0.0
  3
_DOTBLANK
  1

  0
CIRCLE
  5
43
330
41
100
AcDbEntity
  8
0
  6
BYBLOCK
 62
     0
370
    -2
100
AcDbCircle
 10
0.0
 20
0.0
 30
0.0
 40
0.5
  0
LINE
  5
44
330
41
100
AcDbEntity
  8
0
  6
BYBLOCK
 62
     0
370
    -2
100
AcDbLine
 10
-0.5
 20
0.0
 30
0.0
 11
-1.0
 21
0.0
 31
0.0
  0
ENDBLK
  5
45
330
41
100
AcDbEntity
  8
0
100
AcDbBlockEnd
  0
ENDSEC
  0
SECTION
  2
ENTITIES
  0
MTEXT
  5
46
100
AcDbEntity
  8
A7
  6
CONTINUOUS
 62
3
100
AcDbMText
 10
9.999997526638502
 20
18.00000076076889
 30
0.000000000000000
 40
3.000000000000000
 41
0.000000000000000
 44
0.6739999771118164
 71
     7
 72
     1
  1
{\H0.94x;{TYPE No.TL-449SUS}}
 11
1.000000000000000
 21
0.000000000000000
 31
0.000000000000000
  7
STANDARD
  0
POINT
  5
47
100
AcDbEntity
  8
A7
  6
CONTINUOUS
 62
3
100
AcDbPoint
 10
9.999997526638502
 20
18.00000076076889
 30
0.000000000000000
  0
POINT
  5
48
100
AcDbEntity
  8
A10
  6
CONTINUOUS
 62
3
100
AcDbPoint
 10
50.00000000000000
 20
50.00000000000000
 30
0.000000000000000
  0
LINE
  5
49
100
AcDbEntity
  8
A1
  6
CONTINUOUS
 62
7
100
AcDbLine
 10
118.0000000000000
 20
60.50000000000000
 30
0.000000000000000
 11
117.5999999999999
 21
60.50000000000000
 31
0.000000000000000
  0
ARC
  5
4A
100
AcDbEntity
  8
A1
  6
CONTINUOUS
 62
7
100
AcDbCircle
 10
52.00000000000000
 20
96.74190021013717
 30
0.000000000000000
 40
2.000000000000000
100
AcDbArc
 50
180.0000000000000
 51
270.0000000000000
  0
ARC
  5
4B
100
AcDbEntity
  8
A1
  6
CONTINUOUS
 62
7
100
AcDbCircle
 10
66.00000000000000
 20
96.74190021013717
 30
0.000000000000000
 40
2.000000000000000
100
AcDbArc
 50
270.0000000000000
 51
360.0000000000000
  0
ARC
  5
4C
100
AcDbEntity
  8
A1
  6
CONTINUOUS
 62
7
100
AcDbCircle
 10
66.00000000000000
 20
128.7419002101372
 30
0.000000000000000
 40
2.000000000000000
100
AcDbArc
 50
0.000000000000000
 51
90.00000000000000
  0
ARC
  5
4D
100
AcDbEntity
  8
A1
  6
CONTINUOUS
 62
7
100
AcDbCircle
 10
52.00000000000000
 20
128.7419002101372
 30
0.000000000000000
 40
2.000000000000000
100
AcDbArc
 50
90.00000000000000
 51
180.0000000000000
  0
LINE
  5
4E
100
AcDbEntity
  8
A1
  6
CONTINUOUS
 62
7
100
AcDbLine
 10
156.0000000000000
 20
130.7419002101372
 30
0.000000000000000
 11
120.0000000000000
 21
130.7419002101372
 31
0.000000000000000
  0
LINE
  5
4F
100
AcDbEntity
  8
A1
  6
CONTINUOUS
 62
7
100
AcDbLine
 10
118.0000000000000
 20
128.7419002101372
 30
0.000000000000000
 11
118.0000000000000
 21
96.74190021013717
 31
0.000000000000000
  0
LINE
  5
50
100
AcDbEntity
  8
A1
  6
CONTINUOUS
 62
7
100
AcDbLine
 10
120.0000000000000
 20
94.74190021013717
 30
0.000000000000000
 11
156.0000000000000
 21
94.74190021013717
 31
0.000000000000000
  0
LINE
  5
51
100
AcDbEntity
  8
A1
  6
CONTINUOUS
 62
7
100
AcDbLine
 10
158.0000000000000
 20
96.74190021013717
 30
0.000000000000000
 11
158.0000000000000
 21
128.7419002101372
 31
0.000000000000000
  0
LINE
  5
52
100
AcDbEntity
  8
A1
  6
CONTINUOUS
 62
7
100
AcDbLine
 10
158.0000000000000
 20
121.7419002101372
 30
0.000000000000000
 11
118.0000000000000
 21
121.7419002101372
 31
0.000000000000000
  0
LINE
  5
53
100
AcDbEntity
  8
A1
  6
CONTINUOUS
 62
7
100
AcDbLine
 10
118.0000000000000
 20
103.7419002101372
 30
0.000000000000000
 11
158.0000000000000
 21
103.7419002101372
 31
0.000000000000000
  0
LINE
  5
54
100
AcDbEntity
  8
A4
  6
CENTER
 62
1
100
AcDbLine
 10
187.5545169720001
 20
112.7419002101372
 30
0.000000000000000
 11
102.0640314130000
 21
112.7419002101372
 31
0.000000000000000
  0
LINE
  5
55
100
AcDbEntity
  8
A1
  6
CONTINUOUS
 62
7
100
AcDbLine
 10
50.00000000000000
 20
103.7419002101372
 30
0.000000000000000
 11
68.00000000000000
 21
103.7419002101372
 31
0.000000000000000
  0
LINE
  5
56
100
AcDbEntity
  8
A1
  6
CONTINUOUS
 62
7
100
AcDbLine
 10
68.00000000000000
 20
121.7419002101372
 30
0.000000000000000
 11
50.00000000000000
 21
121.7419002101372
 31
0.000000000000000
  0
LINE
  5
57
100
AcDbEntity
  8
A1
  6
CONTINUOUS
 62
7
100
AcDbLine
 10
50.00000000000000
 20
128.7419002101372
 30
0.000000000000000
 11
50.00000000000000
 21
96.74190021013717
 31
0.000000000000000
  0
LINE
  5
58
100
AcDbEntity
  8
A1
  6
CONTINUOUS
 62
7
100
AcDbLine
 10
66.00000000000000
 20
130.7419002101372
 30
0.000000000000000
 11
52.00000000000000
 21
130.7419002101372
 31
0.000000000000000
  0
LINE
  5
59
100
AcDbEntity
  8
A4
  6
CENTER
 62
1
100
AcDbLine
 10
46.54608738200000
 20
112.7419002101372
 30
0.000000000000000
 11
71.47550356299999
 21
112.7419002101372
 31
0.000000000000000
  0
LINE
  5
5A
100
AcDbEntity
  8
A1
  6
CONTINUOUS
 62
7
100
AcDbLine
 10
134.7110805099999
 20
109.5457477871372
 30
0.000000000000000
 11
139.4790297020000
 21
109.5457477871372
 31
0.000000000000000
  0
LINE
  5
5B
100
AcDbEntity
  8
A1
  6
CONTINUOUS
 62
7
100
AcDbLine
 10
140.4790297020000
 20
110.5457477871372
 30
0.000000000000000
 11
140.4790297020000
 21
114.9380526331372
 31
0.000000000000000
  0
LINE
  5
5C
100
AcDbEntity
  8
A1
  6
CONTINUOUS
 62
7
100
AcDbLine
 10
139.4790297020000
 20
115.9380526331372
 30
0.000000000000000
 11
134.7110805099999
 21
115.9380526331372
 31
0.000000000000000
  0
ARC
  5
5D
100
AcDbEntity
  8
A1
  6
CONTINUOUS
 62
7
100
AcDbCircle
 10
139.4790297020000
 20
110.5457477871372
 30
0.000000000000000
 40
1.000000000000000
100
AcDbArc
 50
270.0000000000000
 51
360.0000000000000
  0
ARC
  5
5E
100
AcDbEntity
  8
A1
  6
CONTINUOUS
 62
7
100
AcDbCircle
 10
139.4790297020000
 20
114.9380526331372
 30
0.000000000000000
 40
1.000000000000000
100
AcDbArc
 50
0.000000000000000
 51
90.00000000000000
  0
ARC
  5
5F
100
AcDbEntity
  8
A1
  6
CONTINUOUS
 62
7
100
AcDbCircle
 10
134.7110805099999
 20
114.9380526331372
 30
0.000000000000000
 40
1.000000000000000
100
AcDbArc
 50
90.00000000000000
 51
180.0000000000000
  0
LINE
  5
60
100
AcDbEntity
  8
A1
  6
CONTINUOUS
 62
7
100
AcDbLine
 10
130.9999999999999
 20
109.2419002101372
 30
0.000000000000000
 11
130.9999999999999
 21
116.2419002101372
 31
0.000000000000000
  0
LINE
  5
61
100
AcDbEntity
  8
A1
  6
CONTINUOUS
 62
7
100
AcDbLine
 10
131.9999999999999
 20
117.2419002101372
 30
0.000000000000000
 11
141.2000000000000
 21
117.2419002101372
 31
0.000000000000000
  0
LINE
  5
62
100
AcDbEntity
  8
A1
  6
CONTINUOUS
 62
7
100
AcDbLine
 10
142.2000000000000
 20
116.2419002101372
 30
0.000000000000000
 11
142.2000000000000
 21
109.2419002101372
 31
0.000000000000000
  0
LINE
  5
63
100
AcDbEntity
  8
A1
  6
CONTINUOUS
 62
7
100
AcDbLine
 10
141.2000000000000
 20
108.2419002101372
 30
0.000000000000000
 11
131.9999999999999
 21
108.2419002101372
 31
0.000000000000000
  0
ARC
  5
64
100
AcDbEntity
  8
A1
  6
CONTINUOUS
 62
7
100
AcDbCircle
 10
141.2000000000000
 20
109.2419002101372
 30
0.000000000000000
 40
1.000000000000000
100
AcDbArc
 50
270.0000000000000
 51
360.0000000000000
  0
ARC
  5
65
100
AcDbEntity
  8
A1
  6
CONTINUOUS
 62
7
100
AcDbCircle
 10
141.2000000000000
 20
116.2419002101372
 30
0.000000000000000
 40
1.000000000000000
100
AcDbArc
 50
0.000000000000000
 51
90.00000000000000
  0
ARC
  5
66
100
AcDbEntity
  8
A1
  6
CONTINUOUS
 62
7
100
AcDbCircle
 10
131.9999999999999
 20
116.2419002101372
 30
0.000000000000000
 40
1.000000000000000
100
AcDbArc
 50
90.00000000000000
 51
180.0000000000000
  0
ARC
  5
67
100
AcDbEntity
  8
A1
  6
CONTINUOUS
 62
7
100
AcDbCircle
 10
131.9999999999999
 20
109.2419002101372
 30
0.000000000000000
 40
1.000000000000000
100
AcDbArc
 50
180.0000000000000
 51
270.0000000000000
  0
LINE
  5
68
100
AcDbEntity
  8
A4
  6
CENTER
 62
1
100
AcDbLine
 10
153.1952280449999
 20
126.1419002101372
 30
0.000000000000000
 11
147.3436590949999
 21
126.1419002101372
 31
0.000000000000000
  0
LINE
  5
69
100
AcDbEntity
  8
A4
  6
CENTER
 62
1
100
AcDbLine
 10
150.4999999999999
 20
128.7299771541372
 30
0.000000000000000
 11
150.4999999999999
 21
123.1419923911372
 31
0.000000000000000
  0
LINE
  5
6A
100
AcDbEntity
  8
A4
  6
CENTER
 62
1
100
AcDbLine
 10
128.1952280449999
 20
126.1419002101372
 30
0.000000000000000
 11
122.3436590950000
 21
126.1419002101372
 31
0.000000000000000
  0
LINE
  5
6B
100
AcDbEntity
  8
A4
  6
CENTER
 62
1
100
AcDbLine
 10
125.5000000000000
 20
128.7299771541372
 30
0.000000000000000
 11
125.5000000000000
 21
123.1419923911372
 31
0.000000000000000
  0
LINE
  5
6C
100
AcDbEntity
  8
A4
  6
CENTER
 62
1
100
AcDbLine
 10
128.1952280449999
 20
99.34190021013720
 30
0.000000000000000
 11
122.3436590950000
 21
99.34190021013720
 31
0.000000000000000
  0
LINE
  5
6D
100
AcDbEntity
  8
A4
  6
CENTER
 62
1
100
AcDbLine
 10
125.5000000000000
 20
101.9299771541372
 30
0.000000000000000
 11
125.5000000000000
 21
96.34199239113715
 31
0.000000000000000
  0
LINE
  5
6E
100
AcDbEntity
  8
A4
  6
CENTER
 62
1
100
AcDbLine
 10
153.1952280449999
 20
99.34190021013720
 30
0.000000000000000
 11
147.3436590949999
 21
99.34190021013720
 31
0.000000000000000
  0
LINE
  5
6F
100
AcDbEntity
  8
A4
  6
CENTER
 62
1
100
AcDbLine
 10
150.4999999999999
 20
101.9299771541372
 30
0.000000000000000
 11
150.4999999999999
 21
96.34199239113715
 31
0.000000000000000
  0
ARC
  5
70
100
AcDbEntity
  8
A1
  6
CONTINUOUS
 62
7
100
AcDbCircle
 10
156.0000000000000
 20
128.7419002101372
 30
0.000000000000000
 40
2.000000000000000
100
AcDbArc
 50
0.000000000000000
 51
90.00000000000000
  0
ARC
  5
71
100
AcDbEntity
  8
A1
  6
CONTINUOUS
 62
7
100
AcDbCircle
 10
120.0000000000000
 20
128.7419002101372
 30
0.000000000000000
 40
2.000000000000000
100
AcDbArc
 50
90.00000000000000
 51
180.0000000000000
  0
ARC
  5
72
100
AcDbEntity
  8
A1
  6
CONTINUOUS
 62
7
100
AcDbCircle
 10
120.0000000000000
 20
96.74190021013717
 30
0.000000000000000
 40
2.000000000000000
100
AcDbArc
 50
180.0000000000000
 51
270.0000000000000
  0
ARC
  5
73
100
AcDbEntity
  8
A1
  6
CONTINUOUS
 62
7
100
AcDbCircle
 10
156.0000000000000
 20
96.74190021013717
 30
0.000000000000000
 40
2.000000000000000
100
AcDbArc
 50
270.0000000000000
 51
360.0000000000000
  0
ARC
  5
74
100
AcDbEntity
  8
A1
  6
CONTINUOUS
 62
7
100
AcDbCircle
 10
134.7110805099999
 20
110.5457477871372
 30
0.000000000000000
 40
1.000000000000000
100
AcDbArc
 50
180.0000000000000
 51
270.0000000000000
  0
LINE
  5
75
100
AcDbEntity
  8
A1
  6
CONTINUOUS
 62
7
100
AcDbLine
 10
132.4017965180001
 20
109.0195154051372
 30
0.000000000000000
 11
133.7110805100000
 21
109.5457477871372
 31
0.000000000000000
  0
LINE
  5
76
100
AcDbEntity
  8
A1
  6
CONTINUOUS
 62
7
100
AcDbLine
 10
140.4790297020000
 20
109.5457477871372
 30
0.000000000000000
 11
141.7991399440000
 21
108.9330824921372
 31
0.000000000000000
  0
LINE
  5
77
100
AcDbEntity
  8
A1
  6
CONTINUOUS
 62
7
100
AcDbLine
 10
140.4790297020001
 20
115.9380526331372
 30
0.000000000000000
 11
141.7991399440000
 21
116.5507179281372
 31
0.000000000000000
  0
LINE
  5
78
100
AcDbEntity
  8
A1
  6
CONTINUOUS
 62
7
100
AcDbLine
 10
132.4017965180000
 20
116.4642850151372
 30
0.000000000000000
 11
133.7110805100000
 21
115.9380526331372
 31
0.000000000000000
  0
LINE
  5
79
100
AcDbEntity
  8
A1
  6
CONTINUOUS
 62
7
100
AcDbLine
 10
133.7110805099999
 20
114.9380526331372
 30
0.000000000000000
 11
133.7110805099999
 21
110.5457477871372
 31
0.000000000000000
  0
ARC
  5
7A
100
AcDbEntity
  8
A1
  6
CONTINUOUS
 62
7
100
AcDbCircle
 10
132.7110805099999
 20
109.7419002101372
 30
0.000000000000000
 40
1.000000000000000
100
AcDbArc
 50
180.0000000000000
 51
270.0000000000000
  0
ARC
  5
7B
100
AcDbEntity
  8
A1
  6
CONTINUOUS
 62
7
100
AcDbCircle
 10
132.7110805099999
 20
115.7419002101372
 30
0.000000000000000
 40
1.000000000000000
100
AcDbArc
 50
90.00000000000000
 51
180.0000000000000
  0
ARC
  5
7C
100
AcDbEntity
  8
A1
  6
CONTINUOUS
 62
7
100
AcDbCircle
 10
141.2110805089999
 20
115.7419002101372
 30
0.000000000000000
 40
1.000000000000000
100
AcDbArc
 50
0.000000000000000
 51
90.00000000000000
  0
ARC
  5
7D
100
AcDbEntity
  8
A1
  6
CONTINUOUS
 62
7
100
AcDbCircle
 10
141.2110805089999
 20
109.7419002101372
 30
0.000000000000000
 40
1.000000000000000
100
AcDbArc
 50
270.0000000000000
 51
360.0000000000000
  0
LINE
  5
7E
100
AcDbEntity
  8
A1
  6
CONTINUOUS
 62
7
100
AcDbLine
 10
131.7110805089999
 20
115.7419002101372
 30
0.000000000000000
 11
131.7110805089999
 21
109.7419002101372
 31
0.000000000000000
  0
LINE
  5
7F
100
AcDbEntity
  8
A1
  6
CONTINUOUS
 62
7
100
AcDbLine
 10
141.2110805099999
 20
116.7419002101372
 30
0.000000000000000
 11
132.7110805099999
 21
116.7419002101372
 31
0.000000000000000
  0
LINE
  5
80
100
AcDbEntity
  8
A1
  6
CONTINUOUS
 62
7
100
AcDbLine
 10
142.2110805099999
 20
109.7419002101372
 30
0.000000000000000
 11
142.2110805099999
 21
115.7419002101372
 31
0.000000000000000
  0
LINE
  5
81
100
AcDbEntity
  8
A1
  6
CONTINUOUS
 62
7
100
AcDbLine
 10
132.7110805099999
 20
108.7419002101372
 30
0.000000000000000
 11
141.2110805099999
 21
108.7419002101372
 31
0.000000000000000
  0
LINE
  5
82
100
AcDbEntity
  8
A4
  6
CENTER
 62
1
100
AcDbLine
 10
187.5545169720001
 20
57.00000000000000
 30
0.000000000000000
 11
102.0640314130000
 21
57.00000000000000
 31
0.000000000000000
  0
LINE
  5
83
100
AcDbEntity
  8
A1
  6
CONTINUOUS
 62
7
100
AcDbLine
 10
118.0000000000000
 20
50.79999999999995
 30
0.000000000000000
 11
158.0000000000000
 21
50.79999999999995
 31
0.000000000000000
  0
LINE
  5
84
100
AcDbEntity
  8
A1
  6
CONTINUOUS
 62
7
100
AcDbLine
 10
157.2000000000000
 20
50.00000000000000
 30
0.000000000000000
 11
158.0000000000000
 21
50.00000000000000
 31
0.000000000000000
  0
LINE
  5
85
100
AcDbEntity
  8
A1
  6
CONTINUOUS
 62
7
100
AcDbLine
 10
158.0000000000000
 20
64.79999999999995
 30
0.000000000000000
 11
158.0000000000000
 21
50.00000000000000
 31
0.000000000000000
  0
LINE
  5
86
100
AcDbEntity
  8
A1
  6
CONTINUOUS
 62
7
100
AcDbLine
 10
118.8000000000000
 20
65.59999999999997
 30
0.000000000000000
 11
157.2000000000000
 21
65.59999999999997
 31
0.000000000000000
  0
ARC
  5
87
100
AcDbEntity
  8
A1
  6
CONTINUOUS
 62
7
100
AcDbCircle
 10
118.8000000000000
 20
64.79999999999995
 30
0.000000000000000
 40
0.8000000000000000
100
AcDbArc
 50
90.00000000000000
 51
180.0000000000000
  0
ARC
  5
88
100
AcDbEntity
  8
A1
  6
CONTINUOUS
 62
7
100
AcDbCircle
 10
157.2000000000000
 20
64.79999999999995
 30
0.000000000000000
 40
0.8000000000000000
100
AcDbArc
 50
0.000000000000000
 51
90.00000000000000
  0
LINE
  5
89
100
AcDbEntity
  8
A1
  6
CONTINUOUS
 62
7
100
AcDbLine
 10
118.0000000000000
 20
50.00000000000000
 30
0.000000000000000
 11
118.0000000000000
 21
64.79999999999995
 31
0.000000000000000
  0
LINE
  5
8A
100
AcDbEntity
  8
A4
  6
CENTER
 62
1
100
AcDbLine
 10
125.5000000000000
 20
52.34246731799999
 30
0.000000000000000
 11
125.5000000000000
 21
48.50003081000000
 31
0.000000000000000
  0
ARC
  5
8B
100
AcDbEntity
  8
A1
  6
CONTINUOUS
 62
7
100
AcDbCircle
 10
134.4324707279999
 20
64.42169480699999
 30
0.000000000000000
 40
1.500000000000000
100
AcDbArc
 50
97.40493962200000
 51
128.2296474450000
  0
ARC
  5
8C
100
AcDbEntity
  8
A1
  6
CONTINUOUS
 62
7
100
AcDbCircle
 10
139.7139814040000
 20
65.10810629699995
 30
0.000000000000000
 40
1.500000000000000
100
AcDbArc
 50
29.00000000000000
 51
97.40493962200000
  0
LINE
  5
8D
100
AcDbEntity
  8
A4
  6
CENTER
 62
1
100
AcDbLine
 10
150.4999999999999
 20
52.34246731799999
 30
0.000000000000000
 11
150.4999999999999
 21
48.50003081000000
 31
0.000000000000000
  0
LINE
  5
8E
100
AcDbEntity
  8
A1
  6
CONTINUOUS
 62
7
100
AcDbLine
 10
141.0259109650001
 20
65.83532072799999
 30
0.000000000000000
 11
141.1563513740000
 21
65.60000000000002
 31
0.000000000000000
  0
LINE
  5
8F
100
AcDbEntity
  8
A1
  6
CONTINUOUS
 62
7
100
AcDbLine
 10
134.2391490919999
 20
65.90918488899999
 30
0.000000000000000
 11
139.5206597679999
 21
66.59559637999999
 31
0.000000000000000
  0
LINE
  5
90
100
AcDbEntity
  8
A1
  6
CONTINUOUS
 62
7
100
AcDbLine
 10
116.1000000000000
 20
58.99999999999999
 30
0.000000000000000
 11
116.1000000000000
 21
55.00000000000000
 31
0.000000000000000
  0
LINE
  5
91
100
AcDbEntity
  8
A1
  6
CONTINUOUS
 62
7
100
AcDbLine
 10
117.5999999999999
 20
53.50000000000000
 30
0.000000000000000
 11
118.0000000000000
 21
53.50000000000000
 31
0.000000000000000
  0
LINE
  5
92
100
AcDbEntity
  8
A1
  6
CONTINUOUS
 62
7
100
AcDbLine
 10
170.6000000000002
 20
53.00000000000000
 30
0.000000000000000
 11
158.0000000000000
 21
53.00000000000000
 31
0.000000000000000
  0
LINE
  5
93
100
AcDbEntity
  8
A1
  6
CONTINUOUS
 62
7
100
AcDbLine
 10
158.0000000000000
 20
61.00000000000000
 30
0.000000000000000
 11
170.6000000000002
 21
61.00000000000000
 31
0.000000000000000
  0
LINE
  5
94
100
AcDbEntity
  8
A1
  6
CONTINUOUS
 62
7
100
AcDbLine
 10
52.00000000000000
 20
94.74190021013717
 30
0.000000000000000
 11
66.00000000000000
 21
94.74190021013717
 31
0.000000000000000
  0
LINE
  5
95
100
AcDbEntity
  8
A1
  6
CONTINUOUS
 62
7
100
AcDbLine
 10
68.00000000000000
 20
96.74190021013717
 30
0.000000000000000
 11
68.00000000000000
 21
128.7419002101372
 31
0.000000000000000
  0
LINE
  5
96
100
AcDbEntity
  8
A1
  6
CONTINUOUS
 62
7
100
AcDbLine
 10
68.00000000000000
 20
50.00000000000000
 30
0.000000000000000
 11
68.00000000000000
 21
64.79999999999995
 31
0.000000000000000
  0
LINE
  5
97
100
AcDbEntity
  8
A1
  6
CONTINUOUS
 62
7
100
AcDbLine
 10
67.19999999999999
 20
65.59999999999997
 30
0.000000000000000
 11
50.79999999999998
 21
65.59999999999997
 31
0.000000000000000
  0
LINE
  5
98
100
AcDbEntity
  8
A1
  6
CONTINUOUS
 62
7
100
AcDbLine
 10
50.00000000000000
 20
64.79999999999995
 30
0.000000000000000
 11
50.00000000000000
 21
50.00000000000000
 31
0.000000000000000
  0
LINE
  5
99
100
AcDbEntity
  8
A1
  6
CONTINUOUS
 62
7
100
AcDbLine
 10
50.00000000000000
 20
50.79999999999995
 30
0.000000000000000
 11
68.00000000000000
 21
50.79999999999995
 31
0.000000000000000
  0
ARC
  5
9A
100
AcDbEntity
  8
A1
  6
CONTINUOUS
 62
7
100
AcDbCircle
 10
67.19999999999999
 20
64.79999999999995
 30
0.000000000000000
 40
0.8000000000000000
100
AcDbArc
 50
0.000000000000000
 51
90.00000000000000
  0
ARC
  5
9B
100
AcDbEntity
  8
A1
  6
CONTINUOUS
 62
7
100
AcDbCircle
 10
50.79999999999998
 20
64.79999999999995
 30
0.000000000000000
 40
0.8000000000000000
100
AcDbArc
 50
90.00000000000000
 51
180.0000000000000
  0
LINE
  5
9C
100
AcDbEntity
  8
A4
  6
CENTER
 62
1
100
AcDbLine
 10
59.00000000000000
 20
46.43188264899999
 30
0.000000000000000
 11
59.00000000000000
 21
54.22130566699997
 31
0.000000000000000
  0
LINE
  5
9D
100
AcDbEntity
  8
A4
  6
CENTER
 62
1
100
AcDbLine
 10
64.16573202999999
 20
57.00000000000000
 30
0.000000000000000
 11
71.68611278099999
 21
57.00000000000000
 31
0.000000000000000
  0
LINE
  5
9E
100
AcDbEntity
  8
A5
  6
PHANTOM
 62
6
100
AcDbLine
 10
113.9940601499182
 20
116.2419002101372
 30
0.000000000000000
 11
108.6000000000000
 21
116.2419002101372
 31
0.000000000000000
  0
LINE
  5
9F
100
AcDbEntity
  8
A5
  6
PHANTOM
 62
6
100
AcDbLine
 10
107.1000000000000
 20
114.7419002101372
 30
0.000000000000000
 11
107.1000000000000
 21
110.7419002101372
 31
0.000000000000000
  0
LINE
  5
A0
100
AcDbEntity
  8
A5
  6
PHANTOM
 62
6
100
AcDbLine
 10
108.6000000000000
 20
109.2419002101372
 30
0.000000000000000
 11
113.9940601499182
 21
109.2419002101372
 31
0.000000000000000
  0
LINE
  5
A1
100
AcDbEntity
  8
A4
  6
CENTER
 62
1
100
AcDbLine
 10
137.0950551059999
 20
106.7419002101373
 30
0.000000000000000
 11
137.0950551059999
 21
118.7419002101372
 31
0.000000000000000
  0
LINE
  5
A2
100
AcDbEntity
  8
A1
  6
CONTINUOUS
 62
7
100
AcDbLine
 10
118.0000000000000
 20
50.00000000000000
 30
0.000000000000000
 11
158.0000000000000
 21
50.00000000000000
 31
0.000000000000000
  0
LINE
  5
A3
100
AcDbEntity
  8
A1
  6
CONTINUOUS
 62
7
100
AcDbLine
 10
50.00000000000000
 20
50.00000000000000
 30
0.000000000000000
 11
68.00000000000000
 21
50.00000000000000
 31
0.000000000000000
  0
ARC
  5
A4
100
AcDbEntity
  8
A5
  6
PHANTOM
 62
6
100
AcDbCircle
 10
139.2557961929020
 20
65.93469430190558
 30
0.000000000000000
 40
1.500000000000000
100
AcDbArc
 50
29.00000000000000
 51
97.40493962200000
  0
LINE
  5
A5
100
AcDbEntity
  8
A5
  6
PHANTOM
 62
6
100
AcDbLine
 10
140.5677257553419
 20
66.66190873030840
 30
0.000000000000000
 11
140.6776975984567
 21
66.46351427279589
 31
0.000000000000000
  0
LINE
  5
A6
100
AcDbEntity
  8
A5
  6
PHANTOM
 62
6
100
AcDbLine
 10
133.7809638809019
 20
66.73577289390563
 30
0.000000000000000
 11
139.0624745569020
 21
67.42218438490565
 31
0.000000000000000
  0
ARC
  5
A7
100
AcDbEntity
  8
A5
  6
PHANTOM
 62
6
100
AcDbCircle
 10
133.9742855169019
 20
65.24828281190563
 30
0.000000000000000
 40
1.500000000000000
100
AcDbArc
 50
97.40493962200001
 51
148.1110098635366
  0
LINE
  5
A8
100
AcDbEntity
  8
A5
  6
PHANTOM
 62
6
100
AcDbLine
 10
132.7006756931976
 20
66.04069559383413
 30
0.000000000000000
 11
132.6950912246572
 21
66.03171992590509
 31
0.000000000000000
  0
LINE
  5
A9
100
AcDbEntity
  8
A1
  6
CONTINUOUS
 62
7
100
AcDbLine
 10
120.4211482061159
 20
121.7419002101372
 30
0.000000000000000
 11
117.9999999999995
 21
121.7419002101372
 31
0.000000000000000
  0
SPLINE
  5
AA
100
AcDbEntity
  8
A2
  6
CONTINUOUS
 62
4
100
AcDbSpline
210
0.000000000000000
220
0.000000000000000
230
1.000000000000000
 70
     8
 71
     3
 72
     8
 73
     4
 74
     0
 42
1.000000000000000e-07
 43
1.000000000000000e-07
 12
0.6455833333330929
 22
-0.4582583333335606
 32
0.000000000000000
 13
0.1047750000001315
 23
-0.7842250000001059
 33
0.000000000000000
 40
0.000000000000000
 40
0.000000000000000
 40
0.000000000000000
 40
0.000000000000000
 40
1.000000000000000
 40
1.000000000000000
 40
1.000000000000000
 40
1.000000000000000
 10
141.0502930555556
 20
100.0158726059706
 30
0.000000000000000
 10
141.2654875000000
 20
99.86311982819277
 30
0.000000000000000
 10
141.4069513888889
 20
99.62816982819277
 30
0.000000000000000
 10
141.4418763888889
 20
99.36676149485939
 30
0.000000000000000
  0
LINE
  5
AB
100
AcDbEntity
  8
A2
  6
CONTINUOUS
 62
4
100
AcDbLine
 10
141.4418763888889
 20
99.36676149485939
 30
0.000000000000000
 11
140.8767263888889
 21
99.36676149485939
 31
0.000000000000000
  0
LINE
  5
AC
100
AcDbEntity
  8
A2
  6
CONTINUOUS
 62
4
100
AcDbLine
 10
140.8767263888889
 20
99.36676149485940
 30
0.000000000000000
 11
141.0502930555555
 21
100.0158726059706
 31
0.000000000000000
  0
SPLINE
  5
AD
100
AcDbEntity
  8
A2
  6
CONTINUOUS
 62
4
100
AcDbSpline
210
0.000000000000000
220
0.000000000000000
230
1.000000000000000
 70
     8
 71
     3
 72
     8
 73
     4
 74
     0
 42
1.000000000000000e-07
 43
1.000000000000000e-07
 12
-5.738283333333243
 22
4.096808333333399
 32
0.000000000000000
 13
-5.738283333333243
 23
-4.096808333333399
 33
0.000000000000000
 40
0.000000000000000
 40
0.000000000000000
 40
0.000000000000000
 40
0.000000000000000
 40
1.000000000000000
 40
1.000000000000000
 40
1.000000000000000
 40
1.000000000000000
 10
141.1977541666667
 20
100.2176614948594
 30
0.000000000000000
 10
139.2849930555556
 20
101.5832642726372
 30
0.000000000000000
 10
136.7150069444445
 20
101.5832642726372
 30
0.000000000000000
 10
134.8022458333334
 20
100.2176614948594
 30
0.000000000000000
  0
SPLINE
  5
AE
100
AcDbEntity
  8
A2
  6
CONTINUOUS
 62
4
100
AcDbSpline
210
0.000000000000000
220
0.000000000000000
230
1.000000000000000
 70
     8
 71
     3
 72
     8
 73
     4
 74
     0
 42
1.000000000000000e-07
 43
1.000000000000000e-07
 12
-0.7302500000000691
 22
-0.5228166666666425
 32
0.000000000000000
 13
-0.1862666666667110
 23
-0.8794749999998430
 33
0.000000000000000
 40
0.000000000000000
 40
0.000000000000000
 40
0.000000000000000
 40
0.000000000000000
 40
1.000000000000000
 40
1.000000000000000
 40
1.000000000000000
 40
1.000000000000000
 10
134.8022458333334
 20
100.2176614948594
 30
0.000000000000000
 10
134.5588291666667
 20
100.0433892726372
 30
0.000000000000000
 10
134.3887902777778
 20
99.78480316152607
 30
0.000000000000000
 10
134.3267013888889
 20
99.49164482819279
 30
0.000000000000000
  0
LINE
  5
AF
100
AcDbEntity
  8
A2
  6
CONTINUOUS
 62
4
100
AcDbLine
 10
134.3267013888889
 20
99.49164482819279
 30
0.000000000000000
 11
134.5838763888889
 21
99.49164482819279
 31
0.000000000000000
  0
SPLINE
  5
B0
100
AcDbEntity
  8
A2
  6
CONTINUOUS
 62
4
100
AcDbSpline
210
0.000000000000000
220
0.000000000000000
230
1.000000000000000
 70
     8
 71
     3
 72
     8
 73
     4
 74
     0
 42
1.000000000000000e-07
 43
1.000000000000000e-07
 12
0.1725083333333259
 22
0.6328833333332113
 32
0.000000000000000
 13
0.5334000000000287
 23
0.3810000000000855
 33
0.000000000000000
 40
0.000000000000000
 40
0.000000000000000
 40
0.000000000000000
 40
0.000000000000000
 40
1.000000000000000
 40
1.000000000000000
 40
1.000000000000000
 40
1.000000000000000
 10
134.5838763888889
 20
99.49164482819279
 30
0.000000000000000
 10
134.6413791666667
 20
99.70260593930388
 30
0.000000000000000
 10
134.7697902777778
 20
99.88710871708167
 30
0.000000000000000
 10
134.9475902777778
 20
100.0141087170817
 30
0.000000000000000
  0
SPLINE
  5
B1
100
AcDbEntity
  8
A2
  6
CONTINUOUS
 62
4
100
AcDbSpline
210
0.000000000000000
220
0.000000000000000
230
1.000000000000000
 70
     8
 71
     3
 72
     8
 73
     4
 74
     0
 42
1.000000000000000e-07
 43
1.000000000000000e-07
 12
0.2148416666667572
 22
0.1524000000000001
 32
0.000000000000000
 13
0.2222500000002583
 23
0.1418166666665570
 33
0.000000000000000
 40
0.000000000000000
 40
0.000000000000000
 40
0.000000000000000
 40
0.000000000000000
 40
1.000000000000000
 40
1.000000000000000
 40
1.000000000000000
 40
1.000000000000000
 10
134.9475902777778
 20
100.0141087170817
 30
0.000000000000000
 10
135.0192041666667
 20
100.0649087170817
 30
0.000000000000000
 10
135.0918763888889
 20
100.1142976059706
 30
0.000000000000000
 10
135.1659597222223
 20
100.1615698281928
 30
0.000000000000000
  0
LINE
  5
B2
100
AcDbEntity
  8
A2
  6
CONTINUOUS
 62
4
100
AcDbLine
 10
135.1659597222223
 20
100.1615698281928
 30
0.000000000000000
 11
135.1659597222223
 21
98.52150593930386
 31
0.000000000000000
  0
SPLINE
  5
B3
100
AcDbEntity
  8
A2
  6
CONTINUOUS
 62
4
100
AcDbSpline
210
0.000000000000000
220
0.000000000000000
230
1.000000000000000
 70
     8
 71
     3
 72
     8
 73
     4
 74
     0
 42
1.000000000000000e-07
 43
1.000000000000000e-07
 12
0.2455333333330145
 22
-0.1651000000001659
 32
0.000000000000000
 13
0.2550583333330678
 23
-0.1502833333332205
 33
0.000000000000000
 40
0.000000000000000
 40
0.000000000000000
 40
0.000000000000000
 40
0.000000000000000
 40
1.000000000000000
 40
1.000000000000000
 40
1.000000000000000
 40
1.000000000000000
 10
135.1659597222223
 20
98.52150593930386
 30
0.000000000000000
 10
135.2478041666667
 20
98.46647260597047
 30
0.000000000000000
 10
135.3310597222223
 20
98.41390871708157
 30
0.000000000000000
 10
135.4160791666667
 20
98.36381427263717
 30
0.000000000000000
  0
LINE
  5
B4
100
AcDbEntity
  8
A2
  6
CONTINUOUS
 62
4
100
AcDbLine
 10
135.4160791666667
 20
98.36381427263717
 30
0.000000000000000
 11
135.4160791666667
 21
100.3122059393038
 31
0.000000000000000
  0
SPLINE
  5
B5
100
AcDbEntity
  8
A2
  6
CONTINUOUS
 62
4
100
AcDbSpline
210
0.000000000000000
220
0.000000000000000
230
1.000000000000000
 70
     8
 71
     3
 72
     8
 73
     4
 74
     0
 42
1.000000000000000e-07
 43
1.000000000000000e-07
 12
5.078941666666879
 22
2.871258333333628
 32
0.000000000000000
 13
4.914899999999989
 23
-3.146424999999908
 33
0.000000000000000
 40
0.000000000000000
 40
0.000000000000000
 40
0.000000000000000
 40
0.000000000000000
 40
1.000000000000000
 40
1.000000000000000
 40
1.000000000000000
 40
1.000000000000000
 10
135.4160791666667
 20
100.3122059393038
 30
0.000000000000000
 10
137.1090597222223
 20
101.2692920504150
 30
0.000000000000000
 10
139.1932708333334
 20
101.2121420504150
 30
0.000000000000000
 10
140.8315708333334
 20
100.1633337170817
 30
0.000000000000000
  0
LINE
  5
B6
100
AcDbEntity
  8
A2
  6
CONTINUOUS
 62
4
100
AcDbLine
 10
140.8315708333336
 20
100.1633337170818
 30
0.000000000000000
 11
140.3080486111113
 21
98.21247260597058
 31
0.000000000000000
  0
SPLINE
  5
B7
100
AcDbEntity
  8
A2
  6
CONTINUOUS
 62
4
100
AcDbSpline
210
0.000000000000000
220
0.000000000000000
230
1.000000000000000
 70
     8
 71
     3
 72
     8
 73
     4
 74
     0
 42
1.000000000000000e-07
 43
1.000000000000000e-07
 12
0.3100916666663807
 22
0.1576916666666648
 32
0.000000000000000
 13
0.2973916666668401
 23
0.1788583333335509
 33
0.000000000000000
 40
0.000000000000000
 40
0.000000000000000
 40
0.000000000000000
 40
0.000000000000000
 40
1.000000000000000
 40
1.000000000000000
 40
1.000000000000000
 40
1.000000000000000
 10
140.3080486111112
 20
98.21247260597048
 30
0.000000000000000
 10
140.4114125000000
 20
98.26503649485937
 30
0.000000000000000
 10
140.5130125000000
 20
98.32112816152608
 30
0.000000000000000
 10
140.6121430555556
 20
98.38074760597058
 30
0.000000000000000
  0
LINE
  5
B8
100
AcDbEntity
  8
A2
  6
CONTINUOUS
 62
4
100
AcDbLine
 10
140.6121430555556
 20
98.38074760597058
 30
0.000000000000000
 11
140.8093458333333
 21
99.11699482819279
 31
0.000000000000000
  0
LINE
  5
B9
100
AcDbEntity
  8
A2
  6
CONTINUOUS
 62
4
100
AcDbLine
 10
140.8093458333334
 20
99.11699482819279
 30
0.000000000000000
 11
141.4418763888889
 21
99.11699482819279
 31
0.000000000000000
  0
SPLINE
  5
BA
100
AcDbEntity
  8
A2
  6
CONTINUOUS
 62
4
100
AcDbSpline
210
0.000000000000000
220
0.000000000000000
230
1.000000000000000
 70
     8
 71
     3
 72
     8
 73
     4
 74
     0
 42
1.000000000000000e-07
 43
1.000000000000000e-07
 12
-0.05397499999980937
 22
-0.3989916666669160
 32
0.000000000000000
 13
-0.2106083333330844
 23
-0.3428999999999860
 33
0.000000000000000
 40
0.000000000000000
 40
0.000000000000000
 40
0.000000000000000
 40
0.000000000000000
 40
1.000000000000000
 40
1.000000000000000
 40
1.000000000000000
 40
1.000000000000000
 10
141.4418763888889
 20
99.11699482819279
 30
0.000000000000000
 10
141.4238847222223
 20
98.98399760597047
 30
0.000000000000000
 10
141.3780236111111
 20
98.85629205041496
 30
0.000000000000000
 10
141.3078208333334
 20
98.74199205041498
 30
0.000000000000000
  0
LINE
  5
BB
100
AcDbEntity
  8
A2
  6
CONTINUOUS
 62
4
100
AcDbLine
 10
141.3078208333334
 20
98.74199205041498
 30
0.000000000000000
 11
141.5907486111111
 21
98.74199205041498
 31
0.000000000000000
  0
SPLINE
  5
BC
100
AcDbEntity
  8
A2
  6
CONTINUOUS
 62
4
100
AcDbSpline
210
0.000000000000000
220
0.000000000000000
230
1.000000000000000
 70
     8
 71
     3
 72
     8
 73
     4
 74
     0
 42
1.000000000000000e-07
 43
1.000000000000000e-07
 12
0.7196666666670808
 22
1.566333333333262
 32
0.000000000000000
 13
-1.403349999999932
 23
1.002241666666635
 33
0.000000000000000
 40
0.000000000000000
 40
0.000000000000000
 40
0.000000000000000
 40
0.000000000000000
 40
1.000000000000000
 40
1.000000000000000
 40
1.000000000000000
 40
1.000000000000000
 10
141.5907486111111
 20
98.74199205041498
 30
0.000000000000000
 10
141.8306375000001
 20
99.26410316152607
 30
0.000000000000000
 10
141.6655375000000
 20
99.88358093930387
 30
0.000000000000000
 10
141.1977541666667
 20
100.2176614948594
 30
0.000000000000000
  0
SPLINE
  5
BD
100
AcDbEntity
  8
A2
  6
CONTINUOUS
 62
4
100
AcDbSpline
210
0.000000000000000
220
0.000000000000000
230
1.000000000000000
 70
     8
 71
     3
 72
     8
 73
     4
 74
     0
 42
1.000000000000000e-07
 43
1.000000000000000e-07
 12
0.02963333333309492
 22
0.02116666666643141
 32
0.000000000000000
 13
0.02857499999993252
 23
0.02222499999993488
 33
0.000000000000000
 40
0.000000000000000
 40
0.000000000000000
 40
0.000000000000000
 40
0.000000000000000
 40
1.000000000000000
 40
1.000000000000000
 40
1.000000000000000
 40
1.000000000000000
 10
141.0524097222223
 20
98.46982399485947
 30
0.000000000000000
 10
141.0622875000000
 20
98.47687955041496
 30
0.000000000000000
 10
141.0728708333334
 20
98.48464066152619
 30
0.000000000000000
 10
141.0823958333334
 20
98.49204899485949
 30
0.000000000000000
  0
LINE
  5
BE
100
AcDbEntity
  8
A2
  6
CONTINUOUS
 62
4
100
AcDbLine
 10
141.0823958333334
 20
98.49204899485949
 30
0.000000000000000
 11
141.4362319444445
 21
98.49204899485949
 31
0.000000000000000
  0
SPLINE
  5
BF
100
AcDbEntity
  8
A2
  6
CONTINUOUS
 62
4
100
AcDbSpline
210
0.000000000000000
220
0.000000000000000
230
1.000000000000000
 70
     8
 71
     3
 72
     8
 73
     4
 74
     0
 42
1.000000000000000e-07
 43
1.000000000000000e-07
 12
-0.2063750000000937
 22
-0.2582333333334077
 32
0.000000000000000
 13
-0.2688166666669076
 23
-0.1915583333333188
 33
0.000000000000000
 40
0.000000000000000
 40
0.000000000000000
 40
0.000000000000000
 40
0.000000000000000
 40
1.000000000000000
 40
1.000000000000000
 40
1.000000000000000
 40
1.000000000000000
 10
141.4362319444445
 20
98.49204899485949
 30
0.000000000000000
 10
141.3674402777778
 20
98.40597121708169
 30
0.000000000000000
 10
141.2873597222223
 20
98.33012399485946
 30
0.000000000000000
 10
141.1977541666667
 20
98.26627121708168
 30
0.000000000000000
  0
SPLINE
  5
C0
100
AcDbEntity
  8
A2
  6
CONTINUOUS
 62
4
100
AcDbSpline
210
0.000000000000000
220
0.000000000000000
230
1.000000000000000
 70
     8
 71
     3
 72
     8
 73
     4
 74
     0
 42
1.000000000000000e-07
 43
1.000000000000000e-07
 12
-5.739341666666633
 22
-4.096808333333456
 32
0.000000000000000
 13
-5.738283333333584
 23
4.097866666666846
 33
0.000000000000000
 40
0.000000000000000
 40
0.000000000000000
 40
0.000000000000000
 40
0.000000000000000
 40
1.000000000000000
 40
1.000000000000000
 40
1.000000000000000
 40
1.000000000000000
 10
141.1977541666667
 20
98.26627121708168
 30
0.000000000000000
 10
139.2846402777778
 20
96.90066843930387
 30
0.000000000000000
 10
136.7150069444445
 20
96.90031566152607
 30
0.000000000000000
 10
134.8022458333333
 20
98.26627121708168
 30
0.000000000000000
  0
SPLINE
  5
C1
100
AcDbEntity
  8
A2
  6
CONTINUOUS
 62
4
100
AcDbSpline
210
0.000000000000000
220
0.000000000000000
230
1.000000000000000
 70
     8
 71
     3
 72
     8
 73
     4
 74
     0
 42
1.000000000000000e-07
 43
1.000000000000000e-07
 12
-0.9450916666664853
 22
0.6752166666665858
 32
0.000000000000000
 13
0.000000000000000
 23
1.160991666666689
 33
0.000000000000000
 40
0.000000000000000
 40
0.000000000000000
 40
0.000000000000000
 40
0.000000000000000
 40
1.000000000000000
 40
1.000000000000000
 40
1.000000000000000
 40
1.000000000000000
 10
134.8022458333333
 20
98.26627121708168
 30
0.000000000000000
 10
134.4872152777778
 20
98.49134343930388
 30
0.000000000000000
 10
134.3002430555556
 20
98.85470455041497
 30
0.000000000000000
 10
134.3002430555556
 20
99.24170177263719
 30
0.000000000000000
  0
LINE
  5
C2
100
AcDbEntity
  8
A2
  6
CONTINUOUS
 62
4
100
AcDbLine
 10
134.3002430555556
 20
99.24170177263719
 30
0.000000000000000
 11
134.5503625000000
 21
99.24170177263719
 31
0.000000000000000
  0
SPLINE
  5
C3
100
AcDbEntity
  8
A2
  6
CONTINUOUS
 62
4
100
AcDbSpline
210
0.000000000000000
220
0.000000000000000
230
1.000000000000000
 70
     8
 71
     3
 72
     8
 73
     4
 74
     0
 42
1.000000000000000e-07
 43
1.000000000000000e-07
 12
0.000000000000000
 22
-0.9186333333329912
 32
0.000000000000000
 13
0.7482416666667859
 23
-0.5334000000000287
 33
0.000000000000000
 40
0.000000000000000
 40
0.000000000000000
 40
0.000000000000000
 40
0.000000000000000
 40
1.000000000000000
 40
1.000000000000000
 40
1.000000000000000
 40
1.000000000000000
 10
134.5503625000000
 20
99.24170177263719
 30
0.000000000000000
 10
134.5503625000000
 20
98.93549066152619
 30
0.000000000000000
 10
134.6981763888889
 20
98.64762399485949
 30
0.000000000000000
 10
134.9475902777778
 20
98.46982399485947
 30
0.000000000000000
  0
SPLINE
  5
C4
100
AcDbEntity
  8
A2
  6
CONTINUOUS
 62
4
100
AcDbSpline
210
0.000000000000000
220
0.000000000000000
230
1.000000000000000
 70
     8
 71
     3
 72
     8
 73
     4
 74
     0
 42
1.000000000000000e-07
 43
1.000000000000000e-07
 12
5.477933333333453
 22
-3.911600000000135
 32
0.000000000000000
 13
5.477933333333340
 23
3.911600000000135
 33
0.000000000000000
 40
0.000000000000000
 40
0.000000000000000
 40
0.000000000000000
 40
0.000000000000000
 40
1.000000000000000
 40
1.000000000000000
 40
1.000000000000000
 40
1.000000000000000
 10
134.9475902777778
 20
98.46982399485947
 30
0.000000000000000
 10
136.7735680555556
 20
97.16595732819277
 30
0.000000000000000
 10
139.2264319444445
 20
97.16595732819277
 30
0.000000000000000
 10
141.0524097222223
 20
98.46982399485947
 30
0.000000000000000
  0
SPLINE
  5
C5
100
AcDbEntity
  8
A2
  6
CONTINUOUS
 62
4
100
AcDbSpline
210
0.000000000000000
220
0.000000000000000
230
1.000000000000000
 70
     8
 71
     3
 72
     8
 73
     4
 74
     0
 42
1.000000000000000e-07
 43
1.000000000000000e-07
 12
0.1608666666669478
 22
-0.04550833333325954
 32
0.000000000000000
 13
0.2148416666670983
 23
-0.04868333333342889
 33
0.000000000000000
 40
0.000000000000000
 40
0.000000000000000
 40
0.000000000000000
 40
0.000000000000000
 40
1.000000000000000
 40
1.000000000000000
 40
1.000000000000000
 40
1.000000000000000
 10
136.6664647222222
 20
97.83679955041498
 30
0.000000000000000
 10
136.7200869444445
 20
97.82163010597057
 30
0.000000000000000
 10
136.8079286111111
 20
97.79975788374838
 30
0.000000000000000
 10
136.8795425000001
 20
97.78353010597058
 30
0.000000000000000
  0
SPLINE
  5
C6
100
AcDbEntity
  8
A2
  6
CONTINUOUS
 62
4
100
AcDbSpline
210
0.000000000000000
220
0.000000000000000
230
1.000000000000000
 70
     8
 71
     3
 72
     8
 73
     4
 74
     0
 42
1.000000000000000e-07
 43
1.000000000000000e-07
 12
0.2698749999998427
 22
-0.06032499999986385
 32
0.000000000000000
 13
0.06032499999980701
 23
0.2688166666667939
 33
0.000000000000000
 40
0.000000000000000
 40
0.000000000000000
 40
0.000000000000000
 40
0.000000000000000
 40
1.000000000000000
 40
1.000000000000000
 40
1.000000000000000
 40
1.000000000000000
 10
136.8795425000001
 20
97.78353010597058
 30
0.000000000000000
 10
136.9695008333334
 20
97.76342177263729
 30
0.000000000000000
 10
137.0587536111112
 20
97.81986621708168
 30
0.000000000000000
 10
137.0788619444445
 20
97.90947177263729
 30
0.000000000000000
  0
SPLINE
  5
C7
100
AcDbEntity
  8
A2
  6
CONTINUOUS
 62
4
100
AcDbSpline
210
0.000000000000000
220
0.000000000000000
230
1.000000000000000
 70
     8
 71
     3
 72
     8
 73
     4
 74
     0
 42
1.000000000000000e-07
 43
1.000000000000000e-07
 12
0.008466666666663514
 22
0.03598333333314940
 32
0.000000000000000
 13
0.000000000000000
 23
0.03704166666659603
 33
0.000000000000000
 40
0.000000000000000
 40
0.000000000000000
 40
0.000000000000000
 40
0.000000000000000
 40
1.000000000000000
 40
1.000000000000000
 40
1.000000000000000
 40
1.000000000000000
 10
137.0788619444445
 20
97.90947177263729
 30
0.000000000000000
 10
137.0816841666667
 20
97.92146621708167
 30
0.000000000000000
 10
137.0830952777778
 20
97.93381343930389
 30
0.000000000000000
 10
137.0830952777778
 20
97.94616066152608
 30
0.000000000000000
  0
LINE
  5
C8
100
AcDbEntity
  8
A2
  6
CONTINUOUS
 62
4
100
AcDbLine
 10
137.0830952777778
 20
97.94616066152608
 30
0.000000000000000
 11
137.0830952777778
 21
98.74167455041498
 31
0.000000000000000
  0
LINE
  5
C9
100
AcDbEntity
  8
A2
  6
CONTINUOUS
 62
4
100
AcDbLine
 10
137.0830952777778
 20
98.74167455041498
 30
0.000000000000000
 11
136.8329758333333
 21
98.74167455041498
 31
0.000000000000000
  0
LINE
  5
CA
100
AcDbEntity
  8
A2
  6
CONTINUOUS
 62
4
100
AcDbLine
 10
136.8329758333333
 20
98.74167455041498
 30
0.000000000000000
 11
136.8329758333333
 21
98.05164121708168
 31
0.000000000000000
  0
SPLINE
  5
CB
100
AcDbEntity
  8
A2
  6
CONTINUOUS
 62
4
100
AcDbSpline
210
0.000000000000000
220
0.000000000000000
230
1.000000000000000
 70
     8
 71
     3
 72
     8
 73
     4
 74
     0
 42
1.000000000000000e-07
 43
1.000000000000000e-07
 12
-0.1682749999997668
 22
0.04127499999987094
 32
0.000000000000000
 13
-0.1651000000002796
 23
0.04762499999998226
 33
0.000000000000000
 40
0.000000000000000
 40
0.000000000000000
 40
0.000000000000000
 40
0.000000000000000
 40
1.000000000000000
 40
1.000000000000000
 40
1.000000000000000
 40
1.000000000000000
 10
136.8329758333333
 20
98.05164121708168
 30
0.000000000000000
 10
136.7768841666667
 20
98.06539955041498
 30
0.000000000000000
 10
136.7214980555556
 20
98.08021621708167
 30
0.000000000000000
 10
136.6664647222222
 20
98.09609121708166
 30
0.000000000000000
  0
LINE
  5
CC
100
AcDbEntity
  8
A2
  6
CONTINUOUS
 62
4
100
AcDbLine
 10
136.6664647222222
 20
98.09609121708166
 30
0.000000000000000
 11
136.6664647222222
 21
100.3877356615261
 31
0.000000000000000
  0
SPLINE
  5
CD
100
AcDbEntity
  8
A2
  6
CONTINUOUS
 62
4
100
AcDbSpline
210
0.000000000000000
220
0.000000000000000
230
1.000000000000000
 70
     8
 71
     3
 72
     8
 73
     4
 74
     0
 42
1.000000000000000e-07
 43
1.000000000000000e-07
 12
0.1651000000002796
 22
0.04656666666659248
 32
0.000000000000000
 13
0.1682749999997668
 23
0.04127499999992779
 33
0.000000000000000
 40
0.000000000000000
 40
0.000000000000000
 40
0.000000000000000
 40
0.000000000000000
 40
1.000000000000000
 40
1.000000000000000
 40
1.000000000000000
 40
1.000000000000000
 10
136.6664647222222
 20
100.3877356615261
 30
0.000000000000000
 10
136.7214980555556
 20
100.4032578837483
 30
0.000000000000000
 10
136.7768841666667
 20
100.4184273281928
 30
0.000000000000000
 10
136.8329758333333
 20
100.4321856615261
 30
0.000000000000000
  0
LINE
  5
CE
100
AcDbEntity
  8
A2
  6
CONTINUOUS
 62
4
100
AcDbLine
 10
136.8329758333333
 20
100.4321856615261
 30
0.000000000000000
 11
136.8329758333333
 21
99.74179955041498
 31
0.000000000000000
  0
LINE
  5
CF
100
AcDbEntity
  8
A2
  6
CONTINUOUS
 62
4
100
AcDbLine
 10
136.8329758333333
 20
99.74179955041498
 30
0.000000000000000
 11
137.0830952777778
 21
99.74179955041498
 31
0.000000000000000
  0
LINE
  5
D0
100
AcDbEntity
  8
A2
  6
CONTINUOUS
 62
4
100
AcDbLine
 10
137.0830952777778
 20
99.74179955041498
 30
0.000000000000000
 11
137.0830952777778
 21
100.5376662170817
 31
0.000000000000000
  0
SPLINE
  5
D1
100
AcDbEntity
  8
A2
  6
CONTINUOUS
 62
4
100
AcDbSpline
210
0.000000000000000
220
0.000000000000000
230
1.000000000000000
 70
     8
 71
     3
 72
     8
 73
     4
 74
     0
 42
1.000000000000000e-07
 43
1.000000000000000e-07
 12
0.000000000000000
 22
0.2762250000000108
 32
0.000000000000000
 13
-0.2762249999999540
 23
0.000000000000000
 33
0.000000000000000
 40
0.000000000000000
 40
0.000000000000000
 40
0.000000000000000
 40
0.000000000000000
 40
1.000000000000000
 40
1.000000000000000
 40
1.000000000000000
 40
1.000000000000000
 10
137.0830952777778
 20
100.5376662170817
 30
0.000000000000000
 10
137.0830952777778
 20
100.6297412170817
 30
0.000000000000000
 10
137.0083063888889
 20
100.7041773281928
 30
0.000000000000000
 10
136.9162313888889
 20
100.7041773281928
 30
0.000000000000000
  0
SPLINE
  5
D2
100
AcDbEntity
  8
A2
  6
CONTINUOUS
 62
4
100
AcDbSpline
210
0.000000000000000
220
0.000000000000000
230
1.000000000000000
 70
     8
 71
     3
 72
     8
 73
     4
 74
     0
 42
1.000000000000000e-07
 43
1.000000000000000e-07
 12
-0.03598333333331993
 22
0.000000000000000
 32
0.000000000000000
 13
-0.03704166666659603
 23
-0.008466666666890887
 33
0.000000000000000
 40
0.000000000000000
 40
0.000000000000000
 40
0.000000000000000
 40
0.000000000000000
 40
1.000000000000000
 40
1.000000000000000
 40
1.000000000000000
 40
1.000000000000000
 10
136.9162313888889
 20
100.7041773281928
 30
0.000000000000000
 10
136.9042369444445
 20
100.7041773281928
 30
0.000000000000000
 10
136.8918897222223
 20
100.7031189948595
 30
0.000000000000000
 10
136.8795425000001
 20
100.7002967726372
 30
0.000000000000000
  0
SPLINE
  5
D3
100
AcDbEntity
  8
A2
  6
CONTINUOUS
 62
4
100
AcDbSpline
210
0.000000000000000
220
0.000000000000000
230
1.000000000000000
 70
     8
 71
     3
 72
     8
 73
     4
 74
     0
 42
1.000000000000000e-07
 43
1.000000000000000e-07
 12
-0.04550833333348692
 22
-0.009524999999996453
 32
0.000000000000000
 13
-0.04762500000038017
 23
-0.01164166666683286
 33
0.000000000000000
 40
0.000000000000000
 40
0.000000000000000
 40
0.000000000000000
 40
0.000000000000000
 40
1.000000000000000
 40
1.000000000000000
 40
1.000000000000000
 40
1.000000000000000
 10
136.8795425000001
 20
100.7002967726372
 30
0.000000000000000
 10
136.8643730555556
 20
100.6971217726372
 30
0.000000000000000
 10
136.8488508333334
 20
100.6932412170817
 30
0.000000000000000
 10
136.8329758333333
 20
100.6893606615261
 30
0.000000000000000
  0
SPLINE
  5
D4
100
AcDbEntity
  8
A2
  6
CONTINUOUS
 62
4
100
AcDbSpline
210
0.000000000000000
220
0.000000000000000
230
1.000000000000000
 70
     8
 71
     3
 72
     8
 73
     4
 74
     0
 42
1.000000000000000e-07
 43
1.000000000000000e-07
 12
-0.1703916666665464
 22
-0.04021666666648116
 32
0.000000000000000
 13
-0.1714499999999362
 23
-0.04656666666664933
 33
0.000000000000000
 40
0.000000000000000
 40
0.000000000000000
 40
0.000000000000000
 40
0.000000000000000
 40
1.000000000000000
 40
1.000000000000000
 40
1.000000000000000
 40
1.000000000000000
 10
136.8329758333333
 20
100.6893606615261
 30
0.000000000000000
 10
136.7761786111111
 20
100.6759551059706
 30
0.000000000000000
 10
136.7186758333334
 20
100.6614912170817
 30
0.000000000000000
 10
136.6615258333334
 20
100.6459689948595
 30
0.000000000000000
  0
SPLINE
  5
D5
100
AcDbEntity
  8
A2
  6
CONTINUOUS
 62
4
100
AcDbSpline
210
0.000000000000000
220
0.000000000000000
230
1.000000000000000
 70
     8
 71
     3
 72
     8
 73
     4
 74
     0
 42
1.000000000000000e-07
 43
1.000000000000000e-07
 12
-0.4339166666667325
 22
-0.1185333333332892
 32
0.000000000000000
 13
0.000000000000000
 23
-0.4508499999999458
 33
0.000000000000000
 40
0.000000000000000
 40
0.000000000000000
 40
0.000000000000000
 40
0.000000000000000
 40
1.000000000000000
 40
1.000000000000000
 40
1.000000000000000
 40
1.000000000000000
 10
136.6615258333334
 20
100.6459689948595
 30
0.000000000000000
 10
136.5168869444445
 20
100.6064578837484
 30
0.000000000000000
 10
136.4163452777778
 20
100.4748717726372
 30
0.000000000000000
 10
136.4163452777778
 20
100.3245884393039
 30
0.000000000000000
  0
LINE
  5
D6
100
AcDbEntity
  8
A2
  6
CONTINUOUS
 62
4
100
AcDbLine
 10
136.4163452777778
 20
100.3245884393039
 30
0.000000000000000
 11
136.4163452777778
 21
98.15959121708167
 31
0.000000000000000
  0
SPLINE
  5
D7
100
AcDbEntity
  8
A2
  6
CONTINUOUS
 62
4
100
AcDbSpline
210
0.000000000000000
220
0.000000000000000
230
1.000000000000000
 70
     8
 71
     3
 72
     8
 73
     4
 74
     0
 42
1.000000000000000e-07
 43
1.000000000000000e-07
 12
0.000000000000000
 22
-0.4508499999998890
 32
0.000000000000000
 13
0.4339166666667325
 23
-0.1185333333332892
 33
0.000000000000000
 40
0.000000000000000
 40
0.000000000000000
 40
0.000000000000000
 40
0.000000000000000
 40
1.000000000000000
 40
1.000000000000000
 40
1.000000000000000
 40
1.000000000000000
 10
136.4163452777778
 20
98.15959121708167
 30
0.000000000000000
 10
136.4163452777778
 20
98.00930788374836
 30
0.000000000000000
 10
136.5168869444445
 20
97.87736899485947
 30
0.000000000000000
 10
136.6615258333334
 20
97.83785788374837
 30
0.000000000000000
  0
SPLINE
  5
D8
100
AcDbEntity
  8
A2
  6
CONTINUOUS
 62
4
100
AcDbSpline
210
0.000000000000000
220
0.000000000000000
230
1.000000000000000
 70
     8
 71
     3
 72
     8
 73
     4
 74
     0
 42
1.000000000000000e-07
 43
1.000000000000000e-07
 12
-0.2021416666666482
 22
0.03598333333354731
 32
0.000000000000000
 13
-0.2031999999999243
 23
0.02857499999998936
 33
0.000000000000000
 40
0.000000000000000
 40
0.000000000000000
 40
0.000000000000000
 40
0.000000000000000
 40
1.000000000000000
 40
1.000000000000000
 40
1.000000000000000
 40
1.000000000000000
 10
138.8923513888889
 20
100.7463342726372
 30
0.000000000000000
 10
138.8249708333334
 20
100.7583287170817
 30
0.000000000000000
 10
138.7572375000000
 20
100.7689120504150
 30
0.000000000000000
 10
138.6895041666667
 20
100.7784370504150
 30
0.000000000000000
  0
SPLINE
  5
D9
100
AcDbEntity
  8
A2
  6
CONTINUOUS
 62
4
100
AcDbSpline
210
0.000000000000000
220
0.000000000000000
230
1.000000000000000
 70
     8
 71
     3
 72
     8
 73
     4
 74
     0
 42
1.000000000000000e-07
 43
1.000000000000000e-07
 12
-0.2730500000001257
 22
0.03704166666659603
 32
0.000000000000000
 13
-0.03809999999998581
 23
-0.2730500000000688
 33
0.000000000000000
 40
0.000000000000000
 40
0.000000000000000
 40
0.000000000000000
 40
0.000000000000000
 40
1.000000000000000
 40
1.000000000000000
 40
1.000000000000000
 40
1.000000000000000
 10
138.6895041666667
 20
100.7784370504150
 30
0.000000000000000
 10
138.5984875000000
 20
100.7907842726372
 30
0.000000000000000
 10
138.5145263888889
 20
100.7269314948595
 30
0.000000000000000
 10
138.5018263888889
 20
100.6359148281928
 30
0.000000000000000
  0
SPLINE
  5
DA
100
AcDbEntity
  8
A2
  6
CONTINUOUS
 62
4
100
AcDbSpline
210
0.000000000000000
220
0.000000000000000
230
1.000000000000000
 70
     8
 71
     3
 72
     8
 73
     4
 74
     0
 42
1.000000000000000e-07
 43
1.000000000000000e-07
 12
-0.003174999999828287
 22
-0.02328333333332466
 32
0.000000000000000
 13
0.000000000000000
 23
-0.02222499999993488
 33
0.000000000000000
 40
0.000000000000000
 40
0.000000000000000
 40
0.000000000000000
 40
0.000000000000000
 40
1.000000000000000
 40
1.000000000000000
 40
1.000000000000000
 40
1.000000000000000
 10
138.5018263888889
 20
100.6359148281928
 30
0.000000000000000
 10
138.5007680555556
 20
100.6281537170817
 30
0.000000000000000
 10
138.5004152777778
 20
100.6207453837483
 30
0.000000000000000
 10
138.5004152777778
 20
100.6133370504150
 30
0.000000000000000
  0
LINE
  5
DB
100
AcDbEntity
  8
A2
  6
CONTINUOUS
 62
4
100
AcDbLine
 10
138.5004152777778
 20
100.6133370504150
 30
0.000000000000000
 11
138.5004152777778
 21
97.87084260597058
 31
0.000000000000000
  0
SPLINE
  5
DC
100
AcDbEntity
  8
A2
  6
CONTINUOUS
 62
4
100
AcDbSpline
210
0.000000000000000
220
0.000000000000000
230
1.000000000000000
 70
     8
 71
     3
 72
     8
 73
     4
 74
     0
 42
1.000000000000000e-07
 43
1.000000000000000e-07
 12
0.000000000000000
 22
-0.2762250000000108
 32
0.000000000000000
 13
0.2751666666665642
 23
0.000000000000000
 33
0.000000000000000
 40
0.000000000000000
 40
0.000000000000000
 40
0.000000000000000
 40
0.000000000000000
 40
1.000000000000000
 40
1.000000000000000
 40
1.000000000000000
 40
1.000000000000000
 10
138.5004152777778
 20
97.87084260597058
 30
0.000000000000000
 10
138.5004152777778
 20
97.77876760597059
 30
0.000000000000000
 10
138.5752041666667
 20
97.70397871708167
 30
0.000000000000000
 10
138.6669263888889
 20
97.70397871708167
 30
0.000000000000000
  0
SPLINE
  5
DD
100
AcDbEntity
  8
A2
  6
CONTINUOUS
 62
4
100
AcDbSpline
210
0.000000000000000
220
0.000000000000000
230
1.000000000000000
 70
     8
 71
     3
 72
     8
 73
     4
 74
     0
 42
1.000000000000000e-07
 43
1.000000000000000e-07
 12
0.02222500000038963
 22
0.000000000000000
 32
0.000000000000000
 13
0.02222500000004857
 23
0.003175000000169348
 33
0.000000000000000
 40
0.000000000000000
 40
0.000000000000000
 40
0.000000000000000
 40
0.000000000000000
 40
1.000000000000000
 40
1.000000000000000
 40
1.000000000000000
 40
1.000000000000000
 10
138.6669263888889
 20
97.70397871708167
 30
0.000000000000000
 10
138.6743347222223
 20
97.70397871708167
 30
0.000000000000000
 10
138.6820958333334
 20
97.70433149485939
 30
0.000000000000000
 10
138.6895041666667
 20
97.70538982819278
 30
0.000000000000000
  0
SPLINE
  5
DE
100
AcDbEntity
  8
A2
  6
CONTINUOUS
 62
4
100
AcDbSpline
210
0.000000000000000
220
0.000000000000000
230
1.000000000000000
 70
     8
 71
     3
 72
     8
 73
     4
 74
     0
 42
1.000000000000000e-07
 43
1.000000000000000e-07
 12
0.2031999999999243
 22
0.02857499999998936
 32
0.000000000000000
 13
0.2021416666666482
 23
0.03598333333343362
 33
0.000000000000000
 40
0.000000000000000
 40
0.000000000000000
 40
0.000000000000000
 40
0.000000000000000
 40
1.000000000000002
 40
1.000000000000002
 40
1.000000000000002
 40
1.000000000000002
 10
138.6895041666667
 20
97.70538982819278
 30
0.000000000000000
 10
138.7572375000000
 20
97.71491482819278
 30
0.000000000000000
 10
138.8249708333334
 20
97.72549816152608
 30
0.000000000000000
 10
138.8923513888889
 20
97.73749260597057
 30
0.000000000000000
  0
SPLINE
  5
DF
100
AcDbEntity
  8
A2
  6
CONTINUOUS
 62
4
100
AcDbSpline
210
0.000000000000000
220
0.000000000000000
230
1.000000000000000
 70
     8
 71
     3
 72
     8
 73
     4
 74
     0
 42
1.000000000000000e-07
 43
1.000000000000000e-07
 12
0.4762499999999363
 22
0.08572500000002492
 32
0.000000000000000
 13
0.000000000000000
 23
0.4847166666665430
 33
0.000000000000000
 40
0.000000000000000
 40
0.000000000000000
 40
0.000000000000000
 40
0.000000000000000
 40
1.000000000000000
 40
1.000000000000000
 40
1.000000000000000
 40
1.000000000000000
 10
138.8923513888889
 20
97.73749260597057
 30
0.000000000000000
 10
139.0511013888889
 20
97.76606760597056
 30
0.000000000000000
 10
139.1671652777778
 20
97.90400371708168
 30
0.000000000000000
 10
139.1671652777778
 20
98.06557593930387
 30
0.000000000000000
  0
LINE
  5
E0
100
AcDbEntity
  8
A2
  6
CONTINUOUS
 62
4
100
AcDbLine
 10
139.1671652777778
 20
98.06557593930387
 30
0.000000000000000
 11
139.1671652777778
 21
99.36662038374837
 31
0.000000000000000
  0
LINE
  5
E1
100
AcDbEntity
  8
A2
  6
CONTINUOUS
 62
4
100
AcDbLine
 10
139.1671652777778
 20
99.36662038374837
 30
0.000000000000000
 11
138.8334375000000
 21
99.36662038374837
 31
0.000000000000000
  0
LINE
  5
E2
100
AcDbEntity
  8
A2
  6
CONTINUOUS
 62
4
100
AcDbLine
 10
138.8334375000000
 20
99.36662038374837
 30
0.000000000000000
 11
138.8334375000000
 21
99.11685371708157
 31
0.000000000000000
  0
LINE
  5
E3
100
AcDbEntity
  8
A2
  6
CONTINUOUS
 62
4
100
AcDbLine
 10
138.8334375000000
 20
99.11685371708157
 30
0.000000000000000
 11
138.9166930555556
 21
99.11685371708157
 31
0.000000000000000
  0
LINE
  5
E4
100
AcDbEntity
  8
A2
  6
CONTINUOUS
 62
4
100
AcDbLine
 10
138.9166930555556
 20
99.11685371708157
 30
0.000000000000000
 11
138.9166930555556
 21
97.99643149485948
 31
0.000000000000000
  0
SPLINE
  5
E5
100
AcDbEntity
  8
A2
  6
CONTINUOUS
 62
4
100
AcDbSpline
210
0.000000000000000
220
0.000000000000000
230
1.000000000000000
 70
     8
 71
     3
 72
     8
 73
     4
 74
     0
 42
1.000000000000000e-07
 43
1.000000000000000e-07
 12
-0.1661583333334420
 22
-0.03175000000021555
 32
0.000000000000000
 13
-0.1661583333332146
 23
-0.02539999999987685
 33
0.000000000000000
 40
0.000000000000000
 40
0.000000000000000
 40
0.000000000000000
 40
0.000000000000000
 40
1.000000000000000
 40
1.000000000000000
 40
1.000000000000000
 40
1.000000000000000
 10
138.9166930555556
 20
97.99643149485948
 30
0.000000000000000
 10
138.8613069444445
 20
97.98584816152606
 30
0.000000000000000
 10
138.8059208333334
 20
97.97561760597048
 30
0.000000000000000
 10
138.7505347222223
 20
97.96715093930388
 30
0.000000000000000
  0
LINE
  5
E6
100
AcDbEntity
  8
A2
  6
CONTINUOUS
 62
4
100
AcDbLine
 10
138.7505347222223
 20
97.96715093930388
 30
0.000000000000000
 11
138.7505347222223
 21
100.5170287170817
 31
0.000000000000000
  0
SPLINE
  5
E7
100
AcDbEntity
  8
A2
  6
CONTINUOUS
 62
4
100
AcDbSpline
210
0.000000000000000
220
0.000000000000000
230
1.000000000000000
 70
     8
 71
     3
 72
     8
 73
     4
 74
     0
 42
1.000000000000000e-07
 43
1.000000000000000e-07
 12
0.1661583333332146
 22
-0.02751666666694064
 32
0.000000000000000
 13
0.1661583333334420
 23
-0.03069166666676892
 33
0.000000000000000
 40
0.000000000000000
 40
0.000000000000000
 40
0.000000000000000
 40
0.000000000000000
 40
1.000000000000000
 40
1.000000000000000
 40
1.000000000000000
 40
1.000000000000000
 10
138.7505347222223
 20
100.5170287170817
 30
0.000000000000000
 10
138.8059208333334
 20
100.5078564948594
 30
0.000000000000000
 10
138.8613069444445
 20
100.4979787170817
 30
0.000000000000000
 10
138.9166930555556
 20
100.4877481615261
 30
0.000000000000000
  0
LINE
  5
E8
100
AcDbEntity
  8
A2
  6
CONTINUOUS
 62
4
100
AcDbLine
 10
138.9166930555556
 20
100.4877481615261
 30
0.000000000000000
 11
138.9166930555556
 21
99.74197593930387
 31
0.000000000000000
  0
LINE
  5
E9
100
AcDbEntity
  8
A2
  6
CONTINUOUS
 62
4
100
AcDbLine
 10
138.9166930555556
 20
99.74197593930387
 30
0.000000000000000
 11
139.1671652777778
 21
99.74197593930387
 31
0.000000000000000
  0
LINE
  5
EA
100
AcDbEntity
  8
A2
  6
CONTINUOUS
 62
4
100
AcDbLine
 10
139.1671652777778
 20
99.74197593930387
 30
0.000000000000000
 11
139.1671652777778
 21
100.4182509393039
 31
0.000000000000000
  0
SPLINE
  5
EB
100
AcDbEntity
  8
A2
  6
CONTINUOUS
 62
4
100
AcDbSpline
210
0.000000000000000
220
0.000000000000000
230
1.000000000000000
 70
     8
 71
     3
 72
     8
 73
     4
 74
     0
 42
1.000000000000000e-07
 43
1.000000000000000e-07
 12
0.000000000000000
 22
0.4847166666665998
 32
0.000000000000000
 13
-0.4762499999999363
 23
0.08466666666657829
 33
0.000000000000000
 40
0.000000000000000
 40
0.000000000000000
 40
0.000000000000000
 40
0.000000000000000
 40
1.000000000000000
 40
1.000000000000000
 40
1.000000000000000
 40
1.000000000000000
 10
139.1671652777778
 20
100.4182509393039
 30
0.000000000000000
 10
139.1671652777778
 20
100.5798231615261
 30
0.000000000000000
 10
139.0511013888889
 20
100.7181120504150
 30
0.000000000000000
 10
138.8923513888889
 20
100.7463342726372
 30
0.000000000000000
  0
SPLINE
  5
EC
100
AcDbEntity
  8
A2
  6
CONTINUOUS
 62
4
100
AcDbSpline
210
0.000000000000000
220
0.000000000000000
230
1.000000000000000
 70
     8
 71
     3
 72
     8
 73
     4
 74
     0
 42
1.000000000000000e-07
 43
1.000000000000000e-07
 12
-0.1682750000001079
 22
0.07725833333341825
 32
0.000000000000000
 13
-0.1661583333334420
 23
0.08254999999974189
 33
0.000000000000000
 40
0.000000000000000
 40
0.000000000000000
 40
0.000000000000000
 40
0.000000000000000
 40
1.000000000000000
 40
1.000000000000000
 40
1.000000000000000
 40
1.000000000000000
 10
135.9995030555556
 20
98.34151871708167
 30
0.000000000000000
 10
135.9434113888889
 20
98.36727149485947
 30
0.000000000000000
 10
135.8880252777778
 20
98.39408260597057
 30
0.000000000000000
 10
135.8326391666667
 20
98.42159927263717
 30
0.000000000000000
  0
LINE
  5
ED
100
AcDbEntity
  8
A2
  6
CONTINUOUS
 62
4
100
AcDbLine
 10
135.8326391666667
 20
98.42159927263717
 30
0.000000000000000
 11
135.8326391666667
 21
100.0627214948595
 31
0.000000000000000
  0
SPLINE
  5
EE
100
AcDbEntity
  8
A2
  6
CONTINUOUS
 62
4
100
AcDbSpline
210
0.000000000000000
220
0.000000000000000
230
1.000000000000000
 70
     8
 71
     3
 72
     8
 73
     4
 74
     0
 42
1.000000000000000e-07
 43
1.000000000000000e-07
 12
0.1661583333334420
 22
0.08149166666663632
 32
0.000000000000000
 13
0.1682750000001079
 23
0.07620000000002847
 33
0.000000000000000
 40
0.000000000000000
 40
0.000000000000000
 40
0.000000000000000
 40
0.000000000000000
 40
1.000000000000000
 40
1.000000000000000
 40
1.000000000000000
 40
1.000000000000000
 10
135.8326391666667
 20
100.0627214948595
 30
0.000000000000000
 10
135.8880252777778
 20
100.0898853837484
 30
0.000000000000000
 10
135.9434113888889
 20
100.1166964948595
 30
0.000000000000000
 10
135.9995030555556
 20
100.1420964948595
 30
0.000000000000000
  0
LINE
  5
EF
100
AcDbEntity
  8
A2
  6
CONTINUOUS
 62
4
100
AcDbLine
 10
135.9995030555556
 20
100.1420964948595
 30
0.000000000000000
 11
135.9995030555556
 21
98.34151871708167
 31
0.000000000000000
  0
SPLINE
  5
F0
100
AcDbEntity
  8
A2
  6
CONTINUOUS
 62
4
100
AcDbSpline
210
0.000000000000000
220
0.000000000000000
230
1.000000000000000
 70
     8
 71
     3
 72
     8
 73
     4
 74
     0
 42
1.000000000000000e-07
 43
1.000000000000000e-07
 12
-0.06667499999991833
 22
0.000000000000000
 32
0.000000000000000
 13
-0.06032500000026175
 23
-0.02645833333320979
 33
0.000000000000000
 40
0.000000000000000
 40
0.000000000000000
 40
0.000000000000000
 40
0.000000000000000
 40
1.000000000000000
 40
1.000000000000000
 40
1.000000000000000
 40
1.000000000000000
 10
136.0827586111111
 20
100.4363131615261
 30
0.000000000000000
 10
136.0605336111111
 20
100.4363131615261
 30
0.000000000000000
 10
136.0383086111112
 20
100.4317270504150
 30
0.000000000000000
 10
136.0182002777778
 20
100.4229076059706
 30
0.000000000000000
  0
SPLINE
  5
F1
100
AcDbEntity
  8
A2
  6
CONTINUOUS
 62
4
100
AcDbSpline
210
0.000000000000000
220
0.000000000000000
230
1.000000000000000
 70
     8
 71
     3
 72
     8
 73
     4
 74
     0
 42
1.000000000000000e-07
 43
1.000000000000000e-07
 12
-0.2518833333332395
 22
-0.1058333333334076
 32
0.000000000000000
 13
-0.2434166666668034
 23
-0.1185333333333460
 33
0.000000000000000
 40
0.000000000000000
 40
0.000000000000000
 40
0.000000000000000
 40
0.000000000000000
 40
1.000000000000000
 40
1.000000000000000
 40
1.000000000000000
 40
1.000000000000000
 10
136.0182002777778
 20
100.4229076059706
 30
0.000000000000000
 10
135.9342391666667
 20
100.3876298281928
 30
0.000000000000000
 10
135.8513363888889
 20
100.3498826059706
 30
0.000000000000000
 10
135.7701975000000
 20
100.3103714948595
 30
0.000000000000000
  0
SPLINE
  5
F2
100
AcDbEntity
  8
A2
  6
CONTINUOUS
 62
4
100
AcDbSpline
210
0.000000000000000
220
0.000000000000000
230
1.000000000000000
 70
     8
 71
     3
 72
     8
 73
     4
 74
     0
 42
1.000000000000000e-07
 43
1.000000000000000e-07
 12
-0.3450166666663108
 22
-0.1693333333331566
 32
0.000000000000000
 13
0.000000000000000
 23
-0.3810000000000286
 33
0.000000000000000
 40
0.000000000000000
 40
0.000000000000000
 40
0.000000000000000
 40
0.000000000000000
 40
1.000000000000000
 40
1.000000000000000
 40
1.000000000000000
 40
1.000000000000000
 10
135.7701975000000
 20
100.3103714948595
 30
0.000000000000000
 10
135.6551919444445
 20
100.2539270504151
 30
0.000000000000000
 10
135.5825197222223
 20
100.1378631615261
 30
0.000000000000000
 10
135.5825197222223
 20
100.0108631615261
 30
0.000000000000000
  0
LINE
  5
F3
100
AcDbEntity
  8
A2
  6
CONTINUOUS
 62
4
100
AcDbLine
 10
135.5825197222223
 20
100.0108631615261
 30
0.000000000000000
 11
135.5825197222223
 21
98.47310482819279
 31
0.000000000000000
  0
SPLINE
  5
F4
100
AcDbEntity
  8
A2
  6
CONTINUOUS
 62
4
100
AcDbSpline
210
0.000000000000000
220
0.000000000000000
230
1.000000000000000
 70
     8
 71
     3
 72
     8
 73
     4
 74
     0
 42
1.000000000000000e-07
 43
1.000000000000000e-07
 12
0.000000000000000
 22
-0.3820583333334184
 32
0.000000000000000
 13
0.3450166666663108
 23
-0.1682749999997668
 33
0.000000000000000
 40
0.000000000000000
 40
0.000000000000000
 40
0.000000000000000
 40
0.000000000000000
 40
1.000000000000000
 40
1.000000000000000
 40
1.000000000000000
 40
1.000000000000000
 10
135.5825197222223
 20
98.47310482819279
 30
0.000000000000000
 10
135.5825197222223
 20
98.34575205041497
 30
0.000000000000000
 10
135.6551919444445
 20
98.22968816152607
 30
0.000000000000000
 10
135.7701975000000
 20
98.17359649485948
 30
0.000000000000000
  0
SPLINE
  5
F5
100
AcDbEntity
  8
A2
  6
CONTINUOUS
 62
4
100
AcDbSpline
210
0.000000000000000
220
0.000000000000000
230
1.000000000000000
 70
     8
 71
     3
 72
     8
 73
     4
 74
     0
 42
1.000000000000000e-07
 43
1.000000000000000e-07
 12
0.06138333333331047
 22
-0.03069166666682577
 32
0.000000000000000
 13
0.06244166666658657
 23
-0.02963333333343598
 33
0.000000000000000
 40
0.000000000000000
 40
0.000000000000000
 40
0.000000000000000
 40
0.000000000000000
 40
0.9999999999999964
 40
0.9999999999999964
 40
0.9999999999999964
 40
0.9999999999999964
 10
135.7701975000000
 20
98.17359649485948
 30
0.000000000000000
 10
135.7906586111111
 20
98.16336593930387
 30
0.000000000000000
 10
135.8118252777778
 20
98.15348816152607
 30
0.000000000000000
 10
135.8326391666667
 20
98.14361038374827
 30
0.000000000000000
  0
SPLINE
  5
F6
100
AcDbEntity
  8
A2
  6
CONTINUOUS
 62
4
100
AcDbSpline
210
0.000000000000000
220
0.000000000000000
230
1.000000000000000
 70
     8
 71
     3
 72
     8
 73
     4
 74
     0
 42
1.000000000000000e-07
 43
1.000000000000000e-07
 12
0.1830916666669964
 22
-0.08678333333301680
 32
0.000000000000000
 13
0.1873249999997597
 23
-0.08043333333330338
 33
0.000000000000000
 40
0.000000000000000
 40
0.000000000000000
 40
0.000000000000000
 40
0.000000000000000
 40
1.000000000000000
 40
1.000000000000000
 40
1.000000000000000
 40
1.000000000000000
 10
135.8326391666667
 20
98.14361038374827
 30
0.000000000000000
 10
135.8936697222223
 20
98.11468260597059
 30
0.000000000000000
 10
135.9557586111112
 20
98.08751871708168
 30
0.000000000000000
 10
136.0182002777778
 20
98.06070760597058
 30
0.000000000000000
  0
SPLINE
  5
F7
100
AcDbEntity
  8
A2
  6
CONTINUOUS
 62
4
100
AcDbSpline
210
0.000000000000000
220
0.000000000000000
230
1.000000000000000
 70
     8
 71
     3
 72
     8
 73
     4
 74
     0
 42
1.000000000000000e-07
 43
1.000000000000000e-07
 12
0.2540000000002465
 22
-0.1068916666667974
 32
0.000000000000000
 13
0.1068916666667974
 23
0.2539999999997917
 33
0.000000000000000
 40
0.000000000000000
 40
0.000000000000000
 40
0.000000000000000
 40
0.000000000000000
 40
1.000000000000000
 40
1.000000000000000
 40
1.000000000000000
 40
1.000000000000000
 10
136.0182002777778
 20
98.06070760597058
 30
0.000000000000000
 10
136.1028669444445
 20
98.02507705041498
 30
0.000000000000000
 10
136.2005863888889
 20
98.06458816152619
 30
0.000000000000000
 10
136.2362169444445
 20
98.14925482819277
 30
0.000000000000000
  0
SPLINE
  5
F8
100
AcDbEntity
  8
A2
  6
CONTINUOUS
 62
4
100
AcDbSpline
210
0.000000000000000
220
0.000000000000000
230
1.000000000000000
 70
     8
 71
     3
 72
     8
 73
     4
 74
     0
 42
1.000000000000000e-07
 43
1.000000000000000e-07
 12
0.02645833333326664
 22
0.06244166666670026
 32
0.000000000000000
 13
0.000000000000000
 23
0.06667500000008886
 33
0.000000000000000
 40
0.000000000000000
 40
0.000000000000000
 40
0.000000000000000
 40
0.000000000000000
 40
1.000000000000000
 40
1.000000000000000
 40
1.000000000000000
 40
1.000000000000000
 10
136.2362169444445
 20
98.14925482819277
 30
0.000000000000000
 10
136.2450363888889
 20
98.17006871708168
 30
0.000000000000000
 10
136.2492697222222
 20
98.19229371708167
 30
0.000000000000000
 10
136.2492697222222
 20
98.21451871708169
 30
0.000000000000000
  0
LINE
  5
F9
100
AcDbEntity
  8
A2
  6
CONTINUOUS
 62
4
100
AcDbLine
 10
136.2492697222222
 20
98.21451871708169
 30
0.000000000000000
 11
136.2492697222222
 21
100.2698020504150
 31
0.000000000000000
  0
SPLINE
  5
FA
100
AcDbEntity
  8
A2
  6
CONTINUOUS
 62
4
100
AcDbSpline
210
0.000000000000000
220
0.000000000000000
230
1.000000000000000
 70
     8
 71
     3
 72
     8
 73
     4
 74
     0
 42
1.000000000000000e-07
 43
1.000000000000000e-07
 12
0.000000000000000
 22
0.2762250000000677
 32
0.000000000000000
 13
-0.2762250000004087
 23
0.000000000000000
 33
0.000000000000000
 40
0.000000000000000
 40
0.000000000000000
 40
0.000000000000000
 40
0.000000000000000
 40
1.000000000000000
 40
1.000000000000000
 40
1.000000000000000
 40
1.000000000000000
 10
136.2492697222222
 20
100.2698020504150
 30
0.000000000000000
 10
136.2492697222222
 20
100.3618770504150
 30
0.000000000000000
 10
136.1748336111112
 20
100.4363131615261
 30
0.000000000000000
 10
136.0827586111111
 20
100.4363131615261
 30
0.000000000000000
  0
LINE
  5
FB
100
AcDbEntity
  8
A2
  6
CONTINUOUS
 62
4
100
AcDbLine
 10
137.4998316666667
 20
100.8007678837484
 30
0.000000000000000
 11
137.4998316666667
 21
99.36672621708166
 31
0.000000000000000
  0
LINE
  5
FC
100
AcDbEntity
  8
A2
  6
CONTINUOUS
 62
4
100
AcDbLine
 10
137.4998316666667
 20
99.36672621708166
 30
0.000000000000000
 11
137.6666955555556
 21
99.36672621708166
 31
0.000000000000000
  0
LINE
  5
FD
100
AcDbEntity
  8
A2
  6
CONTINUOUS
 62
4
100
AcDbLine
 10
137.6666955555556
 20
99.36672621708166
 30
0.000000000000000
 11
137.6666955555556
 21
100.8145262170817
 31
0.000000000000000
  0
SPLINE
  5
FE
100
AcDbEntity
  8
A2
  6
CONTINUOUS
 62
4
100
AcDbSpline
210
0.000000000000000
220
0.000000000000000
230
1.000000000000000
 70
     8
 71
     3
 72
     8
 73
     4
 74
     0
 42
1.000000000000000e-07
 43
1.000000000000000e-07
 12
0.2497666666664600
 22
0.01587500000010778
 32
0.000000000000000
 13
0.2508249999998498
 23
0.004233333333274913
 33
0.000000000000000
 40
0.000000000000000
 40
0.000000000000000
 40
0.000000000000000
 40
0.000000000000000
 40
1.000000000000000
 40
1.000000000000000
 40
1.000000000000000
 40
1.000000000000000
 10
137.6666955555556
 20
100.8145262170817
 30
0.000000000000000
 10
137.7499511111111
 20
100.8198178837484
 30
0.000000000000000
 10
137.8332066666667
 20
100.8229928837484
 30
0.000000000000000
 10
137.9168150000000
 20
100.8244039948595
 30
0.000000000000000
  0
LINE
  5
FF
100
AcDbEntity
  8
A2
  6
CONTINUOUS
 62
4
100
AcDbLine
 10
137.9168150000000
 20
100.8244039948595
 30
0.000000000000000
 11
137.9168150000000
 21
97.65928177263729
 31
0.000000000000000
  0
SPLINE
  5
100
100
AcDbEntity
  8
A2
  6
CONTINUOUS
 62
4
100
AcDbSpline
210
0.000000000000000
220
0.000000000000000
230
1.000000000000000
 70
     8
 71
     3
 72
     8
 73
     4
 74
     0
 42
1.000000000000000e-07
 43
1.000000000000000e-07
 12
-0.2508249999998498
 22
0.004233333333274913
 32
0.000000000000000
 13
-0.2497666666664600
 23
0.01693333333349756
 33
0.000000000000000
 40
0.000000000000000
 40
0.000000000000000
 40
0.000000000000000
 40
0.000000000000000
 40
1.000000000000000
 40
1.000000000000000
 40
1.000000000000000
 40
1.000000000000000
 10
137.9168150000000
 20
97.65928177263729
 30
0.000000000000000
 10
137.8332066666667
 20
97.66069288374837
 30
0.000000000000000
 10
137.7499511111111
 20
97.66422066152609
 30
0.000000000000000
 10
137.6666955555556
 20
97.66986510597059
 30
0.000000000000000
  0
LINE
  5
101
100
AcDbEntity
  8
A2
  6
CONTINUOUS
 62
4
100
AcDbLine
 10
137.6666955555556
 20
97.66986510597059
 30
0.000000000000000
 11
137.6666955555556
 21
99.11695955041498
 31
0.000000000000000
  0
LINE
  5
102
100
AcDbEntity
  8
A2
  6
CONTINUOUS
 62
4
100
AcDbLine
 10
137.6666955555556
 20
99.11695955041498
 30
0.000000000000000
 11
137.4998316666667
 21
99.11695955041498
 31
0.000000000000000
  0
LINE
  5
103
100
AcDbEntity
  8
A2
  6
CONTINUOUS
 62
4
100
AcDbLine
 10
137.4998316666667
 20
99.11695955041498
 30
0.000000000000000
 11
137.4998316666667
 21
97.68327066152608
 31
0.000000000000000
  0
SPLINE
  5
104
100
AcDbEntity
  8
A2
  6
CONTINUOUS
 62
4
100
AcDbSpline
210
0.000000000000000
220
0.000000000000000
230
1.000000000000000
 70
     8
 71
     3
 72
     8
 73
     4
 74
     0
 42
1.000000000000000e-07
 43
1.000000000000000e-07
 12
-0.2497666666664600
 22
0.02540000000010423
 32
0.000000000000000
 13
-0.2476500000003625
 23
0.03704166666688025
 33
0.000000000000000
 40
0.000000000000000
 40
0.000000000000000
 40
0.000000000000000
 40
0.000000000000000
 40
1.000000000000000
 40
1.000000000000000
 40
1.000000000000000
 40
1.000000000000000
 10
137.4998316666667
 20
97.68327066152608
 30
0.000000000000000
 10
137.4165761111112
 20
97.69173732819277
 30
0.000000000000000
 10
137.3326150000001
 20
97.70196788374827
 30
0.000000000000000
 10
137.2500650000000
 20
97.71431510597057
 30
0.000000000000000
  0
LINE
  5
105
100
AcDbEntity
  8
A2
  6
CONTINUOUS
 62
4
100
AcDbLine
 10
137.2500650000000
 20
97.71431510597057
 30
0.000000000000000
 11
137.2500650000000
 21
100.7697234393039
 31
0.000000000000000
  0
SPLINE
  5
106
100
AcDbEntity
  8
A2
  6
CONTINUOUS
 62
4
100
AcDbSpline
210
0.000000000000000
220
0.000000000000000
230
1.000000000000000
 70
     8
 71
     3
 72
     8
 73
     4
 74
     0
 42
1.000000000000000e-07
 43
1.000000000000000e-07
 12
0.2476500000003625
 22
0.03598333333349046
 32
0.000000000000000
 13
0.2497666666664600
 23
0.02434166666699866
 33
0.000000000000000
 40
0.000000000000000
 40
0.000000000000000
 40
0.000000000000000
 40
0.000000000000000
 40
1.000000000000000
 40
1.000000000000000
 40
1.000000000000000
 40
1.000000000000000
 10
137.2500650000000
 20
100.7697234393039
 30
0.000000000000000
 10
137.3326150000001
 20
100.7817178837484
 30
0.000000000000000
 10
137.4165761111112
 20
100.7926539948594
 30
0.000000000000000
 10
137.4998316666667
 20
100.8007678837484
 30
0.000000000000000
  0
LINE
  5
107
100
AcDbEntity
  8
A2
  6
CONTINUOUS
 62
4
100
AcDbLine
 10
140.0004616666667
 20
99.45012288374826
 30
0.000000000000000
 11
140.0004616666667
 21
100.4156756615261
 31
0.000000000000000
  0
SPLINE
  5
108
100
AcDbEntity
  8
A2
  6
CONTINUOUS
 62
4
100
AcDbSpline
210
0.000000000000000
220
0.000000000000000
230
1.000000000000000
 70
     8
 71
     3
 72
     8
 73
     4
 74
     0
 42
1.000000000000000e-07
 43
1.000000000000000e-07
 12
-0.2465916666666317
 22
0.1037166666666280
 32
0.000000000000000
 13
-0.2518833333333532
 23
0.09207500000013624
 33
0.000000000000000
 40
0.000000000000000
 40
0.000000000000000
 40
0.000000000000000
 40
0.000000000000000
 40
1.000000000000000
 40
1.000000000000000
 40
1.000000000000000
 40
1.000000000000000
 10
140.0004616666667
 20
100.4156756615261
 30
0.000000000000000
 10
139.9182644444445
 20
100.4502478837483
 30
0.000000000000000
 10
139.8346561111111
 20
100.4837617726372
 30
0.000000000000000
 10
139.7506950000000
 20
100.5144534393039
 30
0.000000000000000
  0
LINE
  5
109
100
AcDbEntity
  8
A2
  6
CONTINUOUS
 62
4
100
AcDbLine
 10
139.7506950000000
 20
100.5144534393039
 30
0.000000000000000
 11
139.7506950000000
 21
99.45012288374826
 31
0.000000000000000
  0
SPLINE
  5
10A
100
AcDbEntity
  8
A2
  6
CONTINUOUS
 62
4
100
AcDbSpline
210
0.000000000000000
220
0.000000000000000
230
1.000000000000000
 70
     8
 71
     3
 72
     8
 73
     4
 74
     0
 42
1.000000000000000e-07
 43
1.000000000000000e-07
 12
0.000000000000000
 22
-0.4074583333332384
 32
0.000000000000000
 13
0.3778250000002572
 23
-0.1534583333331057
 33
0.000000000000000
 40
0.000000000000000
 40
0.000000000000000
 40
0.000000000000000
 40
0.000000000000000
 40
1.000000000000000
 40
1.000000000000000
 40
1.000000000000000
 40
1.000000000000000
 10
139.7506950000000
 20
99.45012288374826
 30
0.000000000000000
 10
139.7506950000000
 20
99.31430343930387
 30
0.000000000000000
 10
139.8328922222222
 20
99.19259510597047
 30
0.000000000000000
 10
139.9588338888889
 20
99.14144232819277
 30
0.000000000000000
  0
LINE
  5
10B
100
AcDbEntity
  8
A2
  6
CONTINUOUS
 62
4
100
AcDbLine
 10
139.9588338888889
 20
99.14144232819277
 30
0.000000000000000
 11
139.9588338888889
 21
98.05135899485938
 31
0.000000000000000
  0
SPLINE
  5
10C
100
AcDbEntity
  8
A2
  6
CONTINUOUS
 62
4
100
AcDbSpline
210
0.000000000000000
220
0.000000000000000
230
1.000000000000000
 70
     8
 71
     3
 72
     8
 73
     4
 74
     0
 42
1.000000000000000e-07
 43
1.000000000000000e-07
 12
0.2529416666667430
 22
0.1037166666668554
 32
0.000000000000000
 13
0.2465916666668591
 23
0.1195916666667358
 33
0.000000000000000
 40
0.000000000000000
 40
0.000000000000000
 40
0.000000000000000
 40
0.000000000000000
 40
0.9999999999999982
 40
0.9999999999999982
 40
0.9999999999999982
 40
0.9999999999999982
 10
139.9588338888889
 20
98.05135899485938
 30
0.000000000000000
 10
140.0431477777778
 20
98.08593121708168
 30
0.000000000000000
 10
140.1271088888889
 20
98.12367843930389
 30
0.000000000000000
 10
140.2093061111112
 20
98.16354232819279
 30
0.000000000000000
  0
LINE
  5
10D
100
AcDbEntity
  8
A2
  6
CONTINUOUS
 62
4
100
AcDbLine
 10
140.2093061111112
 20
98.16354232819279
 30
0.000000000000000
 11
140.2093061111112
 21
99.14144232819277
 31
0.000000000000000
  0
SPLINE
  5
10E
100
AcDbEntity
  8
A2
  6
CONTINUOUS
 62
4
100
AcDbSpline
210
0.000000000000000
220
0.000000000000000
230
1.000000000000000
 70
     8
 71
     3
 72
     8
 73
     4
 74
     0
 42
1.000000000000000e-07
 43
1.000000000000000e-07
 12
0.3778249999996888
 22
0.1534583333331057
 32
0.000000000000000
 13
0.000000000000000
 23
0.4074583333332384
 33
0.000000000000000
 40
0.000000000000000
 40
0.000000000000000
 40
0.000000000000000
 40
0.000000000000000
 40
1.000000000000000
 40
1.000000000000000
 40
1.000000000000000
 40
1.000000000000000
 10
140.2093061111112
 20
99.14144232819277
 30
0.000000000000000
 10
140.3352477777778
 20
99.19259510597047
 30
0.000000000000000
 10
140.4174450000000
 20
99.31430343930387
 30
0.000000000000000
 10
140.4174450000000
 20
99.45012288374826
 30
0.000000000000000
  0
LINE
  5
10F
100
AcDbEntity
  8
A2
  6
CONTINUOUS
 62
4
100
AcDbLine
 10
140.4174450000000
 20
99.45012288374826
 30
0.000000000000000
 11
140.4174450000000
 21
100.2142395504150
 31
0.000000000000000
  0
SPLINE
  5
110
100
AcDbEntity
  8
A2
  6
CONTINUOUS
 62
4
100
AcDbSpline
210
0.000000000000000
220
0.000000000000000
230
1.000000000000000
 70
     8
 71
     3
 72
     8
 73
     4
 74
     0
 42
1.000000000000000e-07
 43
1.000000000000000e-07
 12
-0.2455333333332419
 22
0.1322916666665606
 32
0.000000000000000
 13
-0.2529416666666293
 23
0.1195916666666790
 33
0.000000000000000
 40
0.000000000000000
 40
0.000000000000000
 40
0.000000000000000
 40
0.000000000000000
 40
1.000000000000000
 40
1.000000000000000
 40
1.000000000000000
 40
1.000000000000000
 10
140.4174450000000
 20
100.2142395504150
 30
0.000000000000000
 10
140.3356005555556
 20
100.2583367726372
 30
0.000000000000000
 10
140.2516394444445
 20
100.3006701059705
 30
0.000000000000000
 10
140.1673255555556
 20
100.3405339948594
 30
0.000000000000000
  0
LINE
  5
111
100
AcDbEntity
  8
A2
  6
CONTINUOUS
 62
4
100
AcDbLine
 10
140.1673255555556
 20
100.3405339948594
 30
0.000000000000000
 11
140.1673255555556
 21
99.45012288374826
 31
0.000000000000000
  0
SPLINE
  5
112
100
AcDbEntity
  8
A2
  6
CONTINUOUS
 62
4
100
AcDbSpline
210
0.000000000000000
220
0.000000000000000
230
1.000000000000000
 70
     8
 71
     3
 72
     8
 73
     4
 74
     0
 42
1.000000000000000e-07
 43
1.000000000000000e-07
 12
0.000000000000000
 22
-0.1375833333332821
 32
0.000000000000000
 13
-0.1375833333332821
 23
0.000000000000000
 33
0.000000000000000
 40
0.000000000000000
 40
0.000000000000000
 40
0.000000000000000
 40
0.000000000000000
 40
1.000000000000000
 40
1.000000000000000
 40
1.000000000000000
 40
1.000000000000000
 10
140.1673255555556
 20
99.45012288374826
 30
0.000000000000000
 10
140.1673255555556
 20
99.40426177263717
 30
0.000000000000000
 10
140.1299311111111
 20
99.36686732819277
 30
0.000000000000000
 10
140.0840700000000
 20
99.36686732819277
 30
0.000000000000000
  0
SPLINE
  5
113
100
AcDbEntity
  8
A2
  6
CONTINUOUS
 62
4
100
AcDbSpline
210
0.000000000000000
220
0.000000000000000
230
1.000000000000000
 70
     8
 71
     3
 72
     8
 73
     4
 74
     0
 42
1.000000000000000e-07
 43
1.000000000000000e-07
 12
-0.1386416666665582
 22
0.000000000000000
 32
0.000000000000000
 13
0.000000000000000
 23
0.1375833333332821
 33
0.000000000000000
 40
0.000000000000000
 40
0.000000000000000
 40
0.000000000000000
 40
0.000000000000000
 40
1.000000000000000
 40
1.000000000000000
 40
1.000000000000000
 40
1.000000000000000
 10
140.0840700000000
 20
99.36686732819277
 30
0.000000000000000
 10
140.0378561111111
 20
99.36686732819277
 30
0.000000000000000
 10
140.0004616666667
 20
99.40426177263717
 30
0.000000000000000
 10
140.0004616666667
 20
99.45012288374826
 30
0.000000000000000
  0
SPLINE
  5
114
100
AcDbEntity
  8
A2
  6
CONTINUOUS
 62
4
100
AcDbSpline
210
0.000000000000000
220
0.000000000000000
230
1.000000000000000
 70
     8
 71
     3
 72
     8
 73
     4
 74
     0
 42
1.000000000000000e-07
 43
1.000000000000000e-07
 12
0.005291666666721540
 22
-0.002116666666438505
 32
0.000000000000000
 13
0.004233333333331757
 23
0.000000000000000
 33
0.000000000000000
 40
0.000000000000000
 40
0.000000000000000
 40
0.000000000000000
 40
0.000000000000000
 40
1.000000000000000
 40
1.000000000000000
 40
1.000000000000000
 40
1.000000000000000
 10
136.6616316666667
 20
97.83799899485936
 30
0.000000000000000
 10
136.6633955555556
 20
97.83729343930386
 30
0.000000000000000
 10
136.6651594444445
 20
97.83694066152609
 30
0.000000000000000
 10
136.6665705555556
 20
97.83694066152609
 30
0.000000000000000
  0
SPLINE
  5
115
100
AcDbEntity
  8
A2
  6
CONTINUOUS
 62
4
100
AcDbSpline
210
0.000000000000000
220
0.000000000000000
230
1.000000000000000
 70
     8
 71
     3
 72
     8
 73
     4
 74
     0
 42
1.000000000000000e-07
 43
1.000000000000000e-07
 12
-0.2476499999999078
 22
0.08149166666675001
 32
0.000000000000000
 13
-0.2508250000003045
 23
0.06773333333336495
 33
0.000000000000000
 40
0.000000000000000
 40
0.000000000000000
 40
0.000000000000000
 40
0.000000000000000
 40
1.000000000000000
 40
1.000000000000000
 40
1.000000000000000
 40
1.000000000000000
 10
139.5837605555556
 20
100.5725559393039
 30
0.000000000000000
 10
139.5012105555556
 20
100.5997198281928
 30
0.000000000000000
 10
139.4176022222223
 20
100.6244142726372
 30
0.000000000000000
 10
139.3339938888889
 20
100.6469920504150
 30
0.000000000000000
  0
LINE
  5
116
100
AcDbEntity
  8
A2
  6
CONTINUOUS
 62
4
100
AcDbLine
 10
139.3339938888889
 20
100.6469920504150
 30
0.000000000000000
 11
139.3339938888889
 21
97.83676427263717
 31
0.000000000000000
  0
SPLINE
  5
117
100
AcDbEntity
  8
A2
  6
CONTINUOUS
 62
4
100
AcDbSpline
210
0.000000000000000
220
0.000000000000000
230
1.000000000000000
 70
     8
 71
     3
 72
     8
 73
     4
 74
     0
 42
1.000000000000000e-07
 43
1.000000000000000e-07
 12
0.2508250000003045
 22
0.06773333333342180
 32
0.000000000000000
 13
0.2476499999999078
 23
0.08255000000002610
 33
0.000000000000000
 40
0.000000000000000
 40
0.000000000000000
 40
0.000000000000000
 40
0.000000000000000
 40
1.000000000000000
 40
1.000000000000000
 40
1.000000000000000
 40
1.000000000000000
 10
139.3339938888889
 20
97.83676427263717
 30
0.000000000000000
 10
139.4176022222223
 20
97.85934205041497
 30
0.000000000000000
 10
139.5012105555556
 20
97.88438927263718
 30
0.000000000000000
 10
139.5837605555556
 20
97.91190593930386
 30
0.000000000000000
  0
LINE
  5
118
100
AcDbEntity
  8
A2
  6
CONTINUOUS
 62
4
100
AcDbLine
 10
139.5837605555556
 20
97.91190593930386
 30
0.000000000000000
 11
139.5837605555556
 21
100.5725559393039
 31
0.000000000000000
  0
SPLINE
  5
119
100
AcDbEntity
  8
A2
  6
CONTINUOUS
 62
4
100
AcDbSpline
210
0.000000000000000
220
0.000000000000000
230
1.000000000000000
 70
     8
 71
     3
 72
     8
 73
     4
 74
     0
 42
1.000000000000000e-07
 43
1.000000000000000e-07
 12
-0.2497666666665737
 22
0.01693333333315650
 32
0.000000000000000
 13
-0.2508249999999634
 23
0.004233333333274913
 33
0.000000000000000
 40
0.000000000000000
 40
0.000000000000000
 40
0.000000000000000
 40
0.000000000000000
 40
1.000000000000000
 40
1.000000000000000
 40
1.000000000000000
 40
1.000000000000000
 10
138.3333750000000
 20
100.8143851059706
 30
0.000000000000000
 10
138.2501194444445
 20
100.8200295504150
 30
0.000000000000000
 10
138.1668638888889
 20
100.8232045504150
 30
0.000000000000000
 10
138.0832555555556
 20
100.8246156615261
 30
0.000000000000000
  0
LINE
  5
11A
100
AcDbEntity
  8
A2
  6
CONTINUOUS
 62
4
100
AcDbLine
 10
138.0832555555556
 20
100.8246156615261
 30
0.000000000000000
 11
138.0832555555556
 21
97.65914066152607
 31
0.000000000000000
  0
SPLINE
  5
11B
100
AcDbEntity
  8
A2
  6
CONTINUOUS
 62
4
100
AcDbSpline
210
0.000000000000000
220
0.000000000000000
230
1.000000000000000
 70
     8
 71
     3
 72
     8
 73
     4
 74
     0
 42
1.000000000000000e-07
 43
1.000000000000000e-07
 12
0.2508249999999634
 22
0.004233333333331757
 32
0.000000000000000
 13
0.2497666666665737
 23
0.01693333333309965
 33
0.000000000000000
 40
0.000000000000000
 40
0.000000000000000
 40
0.000000000000000
 40
0.000000000000000
 40
1.000000000000000
 40
1.000000000000000
 40
1.000000000000000
 40
1.000000000000000
 10
138.0832555555556
 20
97.65914066152607
 30
0.000000000000000
 10
138.1668638888889
 20
97.66055177263718
 30
0.000000000000000
 10
138.2501194444445
 20
97.66407955041498
 30
0.000000000000000
 10
138.3333750000000
 20
97.66972399485937
 30
0.000000000000000
  0
LINE
  5
11C
100
AcDbEntity
  8
A2
  6
CONTINUOUS
 62
4
100
AcDbLine
 10
138.3333750000000
 20
97.66972399485937
 30
0.000000000000000
 11
138.3333750000000
 21
100.8143851059706
 31
0.000000000000000
  0
LINE
  5
11D
100
AcDbEntity
  8
A4
  6
CENTER
 62
1
100
AcDbLine
 10
132.7999999999986
 20
99.24190021013717
 30
0.000000000000000
 11
143.2000000000000
 21
99.24190021013717
 31
0.000000000000000
  0
LINE
  5
11E
100
AcDbEntity
  8
A4
  6
CENTER
 62
1
100
AcDbLine
 10
138.0000000000000
 20
95.74193684208149
 30
0.000000000000000
 11
138.0000000000000
 21
102.7418635781927
 31
0.000000000000000
  0
LINE
  5
11F
100
AcDbEntity
  8
A1
  6
CONTINUOUS
 62
7
100
AcDbLine
 10
117.6000000000000
 20
53.49999999999999
 30
0.000000000000000
 11
116.1000000000000
 21
54.99999999999999
 31
0.000000000000000
  0
LINE
  5
120
100
AcDbEntity
  8
A1
  6
CONTINUOUS
 62
7
100
AcDbLine
 10
117.5999999999998
 20
60.49999999999999
 30
0.000000000000000
 11
116.0999999999998
 21
58.99999999999996
 31
0.000000000000000
  0
LINE
  5
121
100
AcDbEntity
  8
A1
  6
CONTINUOUS
 62
7
100
AcDbLine
 10
117.5999999999999
 20
53.50000000000000
 30
0.000000000000000
 11
117.5999999999999
 21
60.50000000000000
 31
0.000000000000000
  0
CIRCLE
  5
122
100
AcDbEntity
  8
A1
  6
CONTINUOUS
 62
7
100
AcDbCircle
 10
150.4999999999999
 20
126.1419002101372
 30
0.000000000000000
 40
1.600000000000000
  0
CIRCLE
  5
123
100
AcDbEntity
  8
A1
  6
CONTINUOUS
 62
7
100
AcDbCircle
 10
125.5000000000000
 20
126.1419002101372
 30
0.000000000000000
 40
1.600000000000000
  0
CIRCLE
  5
124
100
AcDbEntity
  8
A1
  6
CONTINUOUS
 62
7
100
AcDbCircle
 10
125.5000000000000
 20
99.34190021013714
 30
0.000000000000000
 40
1.600000000000000
  0
CIRCLE
  5
125
100
AcDbEntity
  8
A1
  6
CONTINUOUS
 62
7
100
AcDbCircle
 10
150.4999999999999
 20
99.34190021013714
 30
0.000000000000000
 40
1.600000000000000
  0
LINE
  5
126
100
AcDbEntity
  8
A1
  6
CONTINUOUS
 62
7
100
AcDbLine
 10
182.6000000000001
 20
118.2419002101372
 30
0.000000000000000
 11
183.6000000000001
 21
118.2419002101372
 31
0.000000000000000
  0
LINE
  5
127
100
AcDbEntity
  8
A1
  6
CONTINUOUS
 62
7
100
AcDbLine
 10
182.6000000000001
 20
112.7419002101372
 30
0.000000000000000
 11
182.6000000000001
 21
118.9919002101371
 31
0.000000000000000
  0
LINE
  5
128
100
AcDbEntity
  8
A1
  6
CONTINUOUS
 62
7
100
AcDbLine
 10
170.6000000000002
 20
107.7419002101371
 30
0.000000000000000
 11
170.6000000000002
 21
112.7419002101372
 31
0.000000000000000
  0
LINE
  5
129
100
AcDbEntity
  8
A1
  6
CONTINUOUS
 62
7
100
AcDbLine
 10
171.4000000000001
 20
119.0919002101372
 30
0.000000000000000
 11
171.4000000000001
 21
112.7419002101372
 31
0.000000000000000
  0
LINE
  5
12A
100
AcDbEntity
  8
A1
  6
CONTINUOUS
 62
7
100
AcDbLine
 10
171.4000000000001
 20
106.3919002101371
 30
0.000000000000000
 11
171.4000000000001
 21
112.7419002101372
 31
0.000000000000000
  0
LINE
  5
12B
100
AcDbEntity
  8
A1
  6
CONTINUOUS
 62
7
100
AcDbLine
 10
182.6000000000001
 20
112.7419002101372
 30
0.000000000000000
 11
182.6000000000001
 21
106.4919002101371
 31
0.000000000000000
  0
LINE
  5
12C
100
AcDbEntity
  8
A1
  6
CONTINUOUS
 62
7
100
AcDbLine
 10
170.6000000000002
 20
117.7419002101372
 30
0.000000000000000
 11
170.6000000000002
 21
112.7419002101372
 31
0.000000000000000
  0
LINE
  5
12D
100
AcDbEntity
  8
A1
  6
CONTINUOUS
 62
7
100
AcDbLine
 10
182.6000000000001
 20
107.2419002101372
 30
0.000000000000000
 11
183.6000000000001
 21
107.2419002101372
 31
0.000000000000000
  0
LINE
  5
12E
100
AcDbEntity
  8
A1
  6
CONTINUOUS
 62
7
100
AcDbLine
 10
171.4000000000000
 20
106.7419002101372
 30
0.000000000000000
 11
170.6000000000002
 21
107.7419002101372
 31
0.000000000000000
  0
LINE
  5
12F
100
AcDbEntity
  8
A1
  6
CONTINUOUS
 62
7
100
AcDbLine
 10
171.4000000000000
 20
118.7419002101372
 30
0.000000000000000
 11
170.6000000000002
 21
117.7419002101372
 31
0.000000000000000
  0
LINE
  5
130
100
AcDbEntity
  8
A1
  6
CONTINUOUS
 62
7
100
AcDbLine
 10
182.5999999999997
 20
117.7700901373495
 30
0.000000000000000
 11
171.3900003841463
 21
117.8506130047102
 31
0.000000000000000
  0
LINE
  5
131
100
AcDbEntity
  8
A1
  6
CONTINUOUS
 62
7
100
AcDbLine
 10
182.6270663787716
 20
115.3264545138403
 30
0.000000000000000
 11
171.3765005833006
 21
115.3679956890045
 31
0.000000000000000
  0
LINE
  5
132
100
AcDbEntity
  8
A1
  6
CONTINUOUS
 62
7
100
AcDbLine
 10
182.6465033013454
 20
116.5480578273268
 30
0.000000000000000
 11
171.3821672372928
 21
116.6093102372584
 31
0.000000000000000
  0
LINE
  5
133
100
AcDbEntity
  8
A1
  6
CONTINUOUS
 62
7
100
AcDbLine
 10
182.6118937659497
 20
114.1047907952581
 30
0.000000000000000
 11
171.3730004394312
 21
114.1266731412087
 31
0.000000000000000
  0
LINE
  5
134
100
AcDbEntity
  8
A1
  6
CONTINUOUS
 62
7
100
AcDbLine
 10
182.5943421570921
 20
111.6613416857083
 30
0.000000000000000
 11
171.3724997181098
 21
111.6440191721380
 31
0.000000000000000
  0
LINE
  5
135
100
AcDbEntity
  8
A1
  6
CONTINUOUS
 62
7
100
AcDbLine
 10
182.6009856477523
 20
112.8830815571670
 30
0.000000000000000
 11
171.3716668163466
 21
112.8853463751543
 31
0.000000000000000
  0
LINE
  5
136
100
AcDbEntity
  8
A1
  6
CONTINUOUS
 62
7
100
AcDbLine
 10
182.5938493302133
 20
109.2178295889396
 30
0.000000000000000
 11
171.3806650794291
 21
109.1613785804013
 31
0.000000000000000
  0
LINE
  5
137
100
AcDbEntity
  8
A1
  6
CONTINUOUS
 62
7
100
AcDbLine
 10
182.5919633749175
 20
110.4395860673970
 30
0.000000000000000
 11
171.3754991421826
 21
110.4026953134578
 31
0.000000000000000
  0
LINE
  5
138
100
AcDbEntity
  8
A1
  6
CONTINUOUS
 62
7
100
AcDbLine
 10
182.6000000000001
 20
107.9960871370533
 30
0.000000000000000
 11
171.3879975141130
 21
107.9200727542347
 31
0.000000000000000
  0
LINE
  5
139
100
AcDbEntity
  8
A1
  6
CONTINUOUS
 62
7
100
AcDbLine
 10
182.6104153093334
 20
106.7743735982843
 30
0.000000000000000
 11
171.3974964238978
 21
106.6787816161907
 31
0.000000000000000
  0
LINE
  5
13A
100
AcDbEntity
  8
A1
  6
CONTINUOUS
 62
7
100
AcDbLine
 10
182.6000000000000
 20
106.4919002101372
 30
0.000000000000000
 11
171.4000000000001
 21
106.3919002101372
 31
0.000000000000000
  0
LINE
  5
13B
100
AcDbEntity
  8
A1
  6
CONTINUOUS
 62
7
100
AcDbLine
 10
182.5999999999999
 20
118.9919002101371
 30
0.000000000000000
 11
171.4000000000000
 21
119.0919002101372
 31
0.000000000000000
  0
LINE
  5
13C
100
AcDbEntity
  8
A4
  6
CENTER
 62
1
100
AcDbLine
 10
165.3558897677350
 20
112.7419002101372
 30
0.000000000000000
 11
183.6000000000001
 21
112.7419002101372
 31
0.000000000000000
  0
LINE
  5
13D
100
AcDbEntity
  8
A1
  6
CONTINUOUS
 62
7
100
AcDbLine
 10
183.6000000000001
 20
107.2419002101372
 30
0.000000000000000
 11
183.6000000000001
 21
118.2419002101372
 31
0.000000000000000
  0
LINE
  5
13E
100
AcDbEntity
  8
A1
  6
CONTINUOUS
 62
7
100
AcDbLine
 10
158.0000000000000
 20
108.7419002101372
 30
0.000000000000000
 11
170.6000000000002
 21
108.7419002101372
 31
0.000000000000000
  0
LINE
  5
13F
100
AcDbEntity
  8
A1
  6
CONTINUOUS
 62
7
100
AcDbLine
 10
158.0000000000000
 20
116.7419002101372
 30
0.000000000000000
 11
170.6000000000002
 21
116.7419002101372
 31
0.000000000000000
  0
LINE
  5
140
100
AcDbEntity
  8
A1
  6
CONTINUOUS
 62
7
100
AcDbLine
 10
182.6000000000001
 20
62.50000000000000
 30
0.000000000000000
 11
183.6000000000001
 21
62.50000000000000
 31
0.000000000000000
  0
LINE
  5
141
100
AcDbEntity
  8
A1
  6
CONTINUOUS
 62
7
100
AcDbLine
 10
182.6000000000001
 20
57.00000000000000
 30
0.000000000000000
 11
182.6000000000001
 21
63.24999999999997
 31
0.000000000000000
  0
LINE
  5
142
100
AcDbEntity
  8
A1
  6
CONTINUOUS
 62
7
100
AcDbLine
 10
171.4000000000001
 20
63.34999999999999
 30
0.000000000000000
 11
171.4000000000001
 21
57.00000000000000
 31
0.000000000000000
  0
LINE
  5
143
100
AcDbEntity
  8
A1
  6
CONTINUOUS
 62
7
100
AcDbLine
 10
171.4000000000001
 20
50.64999999999995
 30
0.000000000000000
 11
171.4000000000001
 21
57.00000000000000
 31
0.000000000000000
  0
LINE
  5
144
100
AcDbEntity
  8
A1
  6
CONTINUOUS
 62
7
100
AcDbLine
 10
182.6000000000001
 20
57.00000000000000
 30
0.000000000000000
 11
182.6000000000001
 21
50.74999999999997
 31
0.000000000000000
  0
LINE
  5
145
100
AcDbEntity
  8
A1
  6
CONTINUOUS
 62
7
100
AcDbLine
 10
182.6000000000001
 20
51.50000000000000
 30
0.000000000000000
 11
183.6000000000001
 21
51.50000000000000
 31
0.000000000000000
  0
LINE
  5
146
100
AcDbEntity
  8
A1
  6
CONTINUOUS
 62
7
100
AcDbLine
 10
171.4000000000000
 20
51.00000000000001
 30
0.000000000000000
 11
170.6000000000001
 21
51.99999999999999
 31
0.000000000000000
  0
LINE
  5
147
100
AcDbEntity
  8
A1
  6
CONTINUOUS
 62
7
100
AcDbLine
 10
171.4000000000000
 20
62.99999999999996
 30
0.000000000000000
 11
170.6000000000002
 21
62.00000000000000
 31
0.000000000000000
  0
LINE
  5
148
100
AcDbEntity
  8
A1
  6
CONTINUOUS
 62
7
100
AcDbLine
 10
182.5999999999999
 20
62.02818992721234
 30
0.000000000000000
 11
171.3900003841463
 21
62.10871279457305
 31
0.000000000000000
  0
LINE
  5
149
100
AcDbEntity
  8
A1
  6
CONTINUOUS
 62
7
100
AcDbLine
 10
182.6270663787718
 20
59.58455430370318
 30
0.000000000000000
 11
171.3765005833005
 21
59.62609547886741
 31
0.000000000000000
  0
LINE
  5
14A
100
AcDbEntity
  8
A1
  6
CONTINUOUS
 62
7
100
AcDbLine
 10
182.6465033013455
 20
60.80615761718961
 30
0.000000000000000
 11
171.3821672372929
 21
60.86741002712112
 31
0.000000000000000
  0
LINE
  5
14B
100
AcDbEntity
  8
A1
  6
CONTINUOUS
 62
7
100
AcDbLine
 10
182.6118937659495
 20
58.36289058512097
 30
0.000000000000000
 11
171.3730004394313
 21
58.38477293107151
 31
0.000000000000000
  0
LINE
  5
14C
100
AcDbEntity
  8
A1
  6
CONTINUOUS
 62
7
100
AcDbLine
 10
182.5943421570922
 20
55.91944147557115
 30
0.000000000000000
 11
171.3724997181097
 21
55.90211896200086
 31
0.000000000000000
  0
LINE
  5
14D
100
AcDbEntity
  8
A1
  6
CONTINUOUS
 62
7
100
AcDbLine
 10
182.6009856477523
 20
57.14118134702978
 30
0.000000000000000
 11
171.3716668163466
 21
57.14344616501713
 31
0.000000000000000
  0
LINE
  5
14E
100
AcDbEntity
  8
A1
  6
CONTINUOUS
 62
7
100
AcDbLine
 10
182.5938493302134
 20
53.47592937880237
 30
0.000000000000000
 11
171.3806650794292
 21
53.41947837026409
 31
0.000000000000000
  0
LINE
  5
14F
100
AcDbEntity
  8
A1
  6
CONTINUOUS
 62
7
100
AcDbLine
 10
182.5919633749175
 20
54.69768585725981
 30
0.000000000000000
 11
171.3754991421826
 21
54.66079510332062
 31
0.000000000000000
  0
LINE
  5
150
100
AcDbEntity
  8
A1
  6
CONTINUOUS
 62
7
100
AcDbLine
 10
182.6000000000002
 20
52.25418692691611
 30
0.000000000000000
 11
171.3879975141131
 21
52.17817254409751
 31
0.000000000000000
  0
LINE
  5
151
100
AcDbEntity
  8
A1
  6
CONTINUOUS
 62
7
100
AcDbLine
 10
182.6104153093333
 20
51.03247338814715
 30
0.000000000000000
 11
171.3974964238978
 21
50.93688140605359
 31
0.000000000000000
  0
LINE
  5
152
100
AcDbEntity
  8
A1
  6
CONTINUOUS
 62
7
100
AcDbLine
 10
182.6000000000000
 20
50.74999999999999
 30
0.000000000000000
 11
171.4000000000001
 21
50.64999999999998
 31
0.000000000000000
  0
LINE
  5
153
100
AcDbEntity
  8
A1
  6
CONTINUOUS
 62
7
100
AcDbLine
 10
182.5999999999999
 20
63.24999999999994
 30
0.000000000000000
 11
171.4000000000000
 21
63.34999999999997
 31
0.000000000000000
  0
LINE
  5
154
100
AcDbEntity
  8
A1
  6
CONTINUOUS
 62
7
100
AcDbLine
 10
183.6000000000001
 20
51.50000000000000
 30
0.000000000000000
 11
183.6000000000001
 21
62.50000000000000
 31
0.000000000000000
  0
LINE
  5
155
100
AcDbEntity
  8
A1
  6
CONTINUOUS
 62
7
100
AcDbLine
 10
170.6000000000002
 20
51.99999999999997
 30
0.000000000000000
 11
170.6000000000002
 21
62.00000000000006
 31
0.000000000000000
  0
LINE
  5
156
100
AcDbEntity
  8
A1
  6
CONTINUOUS
 62
7
100
AcDbLine
 10
117.5999999999999
 20
109.2419002101371
 30
0.000000000000000
 11
116.0999999999999
 21
110.7419002101371
 31
0.000000000000000
  0
LINE
  5
157
100
AcDbEntity
  8
A1
  6
CONTINUOUS
 62
7
100
AcDbLine
 10
117.5999999999999
 20
109.2419002101372
 30
0.000000000000000
 11
117.5999999999999
 21
116.2419002101372
 31
0.000000000000000
  0
LINE
  5
158
100
AcDbEntity
  8
A1
  6
CONTINUOUS
 62
7
100
AcDbLine
 10
117.5999999999999
 20
109.2419002101372
 30
0.000000000000000
 11
118.0000000000000
 21
109.2419002101372
 31
0.000000000000000
  0
LINE
  5
159
100
AcDbEntity
  8
A1
  6
CONTINUOUS
 62
7
100
AcDbLine
 10
117.5999999999999
 20
116.2419002101372
 30
0.000000000000000
 11
116.1000000000000
 21
114.7419002101372
 31
0.000000000000000
  0
LINE
  5
15A
100
AcDbEntity
  8
A1
  6
CONTINUOUS
 62
7
100
AcDbLine
 10
118.0000000000000
 20
116.2419002101372
 30
0.000000000000000
 11
117.5999999999999
 21
116.2419002101372
 31
0.000000000000000
  0
LINE
  5
15B
100
AcDbEntity
  8
A1
  6
CONTINUOUS
 62
7
100
AcDbLine
 10
116.1000000000000
 20
110.7419002101372
 30
0.000000000000000
 11
116.1000000000000
 21
114.7419002101372
 31
0.000000000000000
  0
ARC
  5
15C
100
AcDbEntity
  8
A1
  6
CONTINUOUS
 62
7
100
AcDbCircle
 10
59.00000000000000
 20
126.7919002101372
 30
0.000000000000000
 40
1.600000000000000
100
AcDbArc
 50
0.000000000000000
 51
180.0000000000000
  0
ARC
  5
15D
100
AcDbEntity
  8
A1
  6
CONTINUOUS
 62
7
100
AcDbCircle
 10
59.00000000000000
 20
125.4919002101372
 30
0.000000000000000
 40
1.600000000000000
100
AcDbArc
 50
180.0000000000000
 51
360.0000000000000
  0
LINE
  5
15E
100
AcDbEntity
  8
A1
  6
CONTINUOUS
 62
7
100
AcDbLine
 10
60.59999999999999
 20
125.4919002101372
 30
0.000000000000000
 11
60.59999999999999
 21
126.7919002101372
 31
0.000000000000000
  0
LINE
  5
15F
100
AcDbEntity
  8
A1
  6
CONTINUOUS
 62
7
100
AcDbLine
 10
57.40000000000001
 20
125.4919002101372
 30
0.000000000000000
 11
57.40000000000001
 21
126.7919002101372
 31
0.000000000000000
  0
ARC
  5
160
100
AcDbEntity
  8
A1
  6
CONTINUOUS
 62
7
100
AcDbCircle
 10
59.00000000000000
 20
99.99190021013717
 30
0.000000000000000
 40
1.600000000000000
100
AcDbArc
 50
0.000000000000000
 51
180.0000000000000
  0
LINE
  5
161
100
AcDbEntity
  8
A1
  6
CONTINUOUS
 62
7
100
AcDbLine
 10
60.59999999999999
 20
98.69190021013716
 30
0.000000000000000
 11
60.59999999999999
 21
99.99190021013717
 31
0.000000000000000
  0
LINE
  5
162
100
AcDbEntity
  8
A1
  6
CONTINUOUS
 62
7
100
AcDbLine
 10
57.40000000000001
 20
98.69190021013716
 30
0.000000000000000
 11
57.40000000000001
 21
99.99190021013717
 31
0.000000000000000
  0
ARC
  5
163
100
AcDbEntity
  8
A1
  6
CONTINUOUS
 62
7
100
AcDbCircle
 10
59.00000000000000
 20
98.69190021013716
 30
0.000000000000000
 40
1.600000000000000
100
AcDbArc
 50
180.0000000000000
 51
360.0000000000000
  0
LINE
  5
164
100
AcDbEntity
  8
A4
  6
CENTER
 62
1
100
AcDbLine
 10
55.56976624699999
 20
126.1419002101372
 30
0.000000000000000
 11
62.30495224699999
 21
126.1419002101372
 31
0.000000000000000
  0
LINE
  5
165
100
AcDbEntity
  8
A4
  6
CENTER
 62
1
100
AcDbLine
 10
59.00000000000000
 20
122.4419002101372
 30
0.000000000000000
 11
59.00000000000000
 21
129.8419002101372
 31
0.000000000000000
  0
LINE
  5
166
100
AcDbEntity
  8
A4
  6
CENTER
 62
1
100
AcDbLine
 10
55.46848525499999
 20
99.34190021013720
 30
0.000000000000000
 11
62.30495224699999
 21
99.34190021013720
 31
0.000000000000000
  0
LINE
  5
167
100
AcDbEntity
  8
A4
  6
CENTER
 62
1
100
AcDbLine
 10
59.00000000000000
 20
95.64190021013715
 30
0.000000000000000
 11
59.00000000000000
 21
103.0419002101372
 31
0.000000000000000
  0
LINE
  5
168
100
AcDbEntity
  8
A5
  6
PHANTOM
 62
6
100
AcDbLine
 10
109.0999999999999
 20
60.49999999999997
 30
0.000000000000000
 11
109.0999999999999
 21
53.49999999999997
 31
0.000000000000000
  0
LINE
  5
169
100
AcDbEntity
  8
A5
  6
PHANTOM
 62
6
100
AcDbLine
 10
114.4940601499181
 20
60.49999999999997
 30
0.000000000000000
 11
109.0999999999999
 21
60.49999999999997
 31
0.000000000000000
  0
LINE
  5
16A
100
AcDbEntity
  8
A5
  6
PHANTOM
 62
6
100
AcDbLine
 10
107.5999999999999
 20
59.00000000000006
 30
0.000000000000000
 11
109.0999999999999
 21
60.50000000000001
 31
0.000000000000000
  0
LINE
  5
16B
100
AcDbEntity
  8
A5
  6
PHANTOM
 62
6
100
AcDbLine
 10
107.5999999999999
 20
59.00000000000000
 30
0.000000000000000
 11
107.5999999999999
 21
54.99999999999997
 31
0.000000000000000
  0
LINE
  5
16C
100
AcDbEntity
  8
A5
  6
PHANTOM
 62
6
100
AcDbLine
 10
109.0999999999999
 20
53.49999999999997
 30
0.000000000000000
 11
114.4940601499181
 21
53.49999999999997
 31
0.000000000000000
  0
LINE
  5
16D
100
AcDbEntity
  8
A5
  6
PHANTOM
 62
6
100
AcDbLine
 10
107.5999999999999
 20
55.00000000000005
 30
0.000000000000000
 11
109.0999999999999
 21
53.50000000000004
 31
0.000000000000000
  0
LINE
  5
16E
100
AcDbEntity
  8
A5
  6
PHANTOM
 62
6
100
AcDbLine
 10
108.6000000000000
 20
109.2419002101371
 30
0.000000000000000
 11
107.1000000000000
 21
110.7419002101372
 31
0.000000000000000
  0
LINE
  5
16F
100
AcDbEntity
  8
A5
  6
PHANTOM
 62
6
100
AcDbLine
 10
107.1000000000000
 20
114.7419002101372
 30
0.000000000000000
 11
108.6000000000000
 21
116.2419002101372
 31
0.000000000000000
  0
LINE
  5
170
100
AcDbEntity
  8
A5
  6
PHANTOM
 62
6
100
AcDbLine
 10
108.6000000000001
 20
116.2419002101372
 30
0.000000000000000
 11
108.6000000000001
 21
109.2419002101372
 31
0.000000000000000
  0
ENDSEC
  0
SECTION
  2
OBJECTS
  0
DICTIONARY
  5
1A2
100
AcDbDictionary
  3
ACAD_GROUP
350
1A3
  3
ACAD_LAYOUT
350
1A4
  3
ACAD_MLINESTYLE
350
1A5
  0
DICTIONARY
  5
1A3
102
{ACAD_REACTORS
330
1A2
102
}
330
1A2
100
AcDbDictionary
  0
DICTIONARY
  5
1A4
102
{ACAD_REACTORS
330
1A2
102
}
330
1A2
100
AcDbDictionary
  3
Model
350
1A6
  3
ﾚｲｱｳﾄ1
350
1A7
  3
ﾚｲｱｳﾄ2
350
1A8
  0
DICTIONARY
  5
1A5
102
{ACAD_REACTORS
330
1A2
102
}
330
1A2
100
AcDbDictionary
  3
STANDARD
350
1A9
  0
LAYOUT
  5
1A6
102
{ACAD_REACTORS
330
1A4
102
}
330
1A4
100
AcDbPlotSettings
 70
11952
  4
A3
 44
297.000000
 45
420.000000
 73
  1
 72
  1
100
AcDbLayout
  1
Model
 71
0
330
199
  0
LAYOUT
  5
1A7
102
{ACAD_REACTORS
330
1A4
102
}
330
1A4
100
AcDbPlotSettings
100
AcDbLayout
  1
ﾚｲｱｳﾄ1
 71
1
330
19A
  0
LAYOUT
  5
1A8
102
{ACAD_REACTORS
330
1A4
102
}
330
1A4
100
AcDbPlotSettings
100
AcDbLayout
  1
ﾚｲｱｳﾄ2
 71
2
330
19B
  0
MLINESTYLE
  5
1A9
102
{ACAD_REACTORS
330
1A5
102
}
330
1A5
100
AcDbMlineStyle
  2
STANDARD
 70
     0
  3

 62
   256
 51
90.00
 52
90.00
 71
     2
 49
0.50
 62
   256
  6
BYLAYER
 49
-0.50
 62
   256
  6
BYLAYER
  0
ENDSEC
  0
EOF
