  0
SECTION
  2
HEADER
  9
$ACADVER
  1
AC1027
  9
$DWGCODEPAGE
  3
ANSI_932
  9
$LTSCALE
 40
20.0
  9
$FILLMODE
 70
     1
  9
$CLAYER
  8
0
  9
$PDMODE
 70
     0
  9
$SPLFRAME
 70
     0
  9
$SPLINETYPE
 70
     6
  9
$SPLINESEGS
 70
     8
  9
$DIMASZ
 40
2.000000
  9
$DIMEXE
 40
1.500000
  9
$DIMEXO
 40
0.800000
  9
$DIMTAD
 70
     1
  9
$DIMTIH
 70
     0
  9
$DIMTOH
 70
     0
  9
$DIMTVP
 40
0.500000
  9
$DIMTXT
 40
3.100000
  9
$EXTMIN
 10
0.000000
 20
0.000000
 30
0.000000
  9
$EXTMAX
 10
297.000000
 20
420.000000
 30
0.000000
  9
$MEASUREMENT
 70
  1
  9
$LIMMIN
 10
0.000000
 20
0.000000
  9
$LIMMAX
 10
297.000000
 20
420.000000
  9
$HANDSEED
  5
18B
  9
$LWDISPLAY
290
     0
  9
$DIMBLK
  1
_OPEN
  9
$DIMDEC
 70
     2
  9
$DIMADEC
 70
     2
  9
$DIMAUNIT
 70
     0
  9
$DIMZIN
 70
     8
  9
$DIMAZIN
 70
     2
  9
$DIMTOFL
 70
     1
  0
ENDSEC
  0
SECTION
  2
CLASSES
  0
ENDSEC
  0
SECTION
  2
TABLES
  0
TABLE
  2
VPORT
  5
150
100
AcDbSymbolTable
 70
     1
  0
VPORT
  5
151
100
AcDbSymbolTableRecord
100
AcDbViewportTableRecord
  2
*ACTIVE
 70
     0
 12
61.911368
 22
69.136718
 40
102.273435
 41
1.015149
  0
ENDTAB
  0
TABLE
  2
LTYPE
  5
152
100
AcDbSymbolTable
 70
     3
  0
LTYPE
  5
153
100
AcDbSymbolTableRecord
100
AcDbLinetypeTableRecord
  2
BYBLOCK
 70
     0
  3

 72
    65
 73
     0
 40
0.0
  0
LTYPE
  5
154
100
AcDbSymbolTableRecord
100
AcDbLinetypeTableRecord
  2
BYLAYER
 70
     0
  3

 72
    65
 73
     0
 40
0.0
  0
LTYPE
  5
155
100
AcDbSymbolTableRecord
100
AcDbLinetypeTableRecord
  2
CONTINUOUS
 70
     0
  3
Solid line (NEC CAE2D for Win R18.0 : 2025.01.16)
 72
    65
 73
     0
 40
0.0
  0
LTYPE
  5
156
100
AcDbSymbolTableRecord
100
AcDbLinetypeTableRecord
  2
CENTER
 70
     0
  3
____ _ ____ _ ____ _ ____ _ ____ _ ____
 72
    65
 73
     4
 40
2.0
 49
1.25
 74
     0
 49
-0.25
 74
     0
 49
0.25
 74
     0
 49
-0.25
 74
     0
  0
LTYPE
  5
157
100
AcDbSymbolTableRecord
100
AcDbLinetypeTableRecord
  2
PHANTOM
 70
     0
  3
______  __  __  ______  __  __  ______ 
 72
    65
 73
     6
 40
2.5
 49
1.25
 74
     0
 49
-0.25
 74
     0
 49
0.25
 74
     0
 49
-0.25
 74
     0
 49
0.25
 74
     0
 49
-0.25
 74
     0
  0
ENDTAB
  0
TABLE
  2
LAYER
  5
158
100
AcDbSymbolTable
 70
    20
  0
LAYER
  5
159
100
AcDbSymbolTableRecord
100
AcDbLayerTableRecord
  2
0
 70
     0
 62
     7
  6
CONTINUOUS
370
    -3
390

  0
LAYER
  5
15A
100
AcDbSymbolTableRecord
100
AcDbLayerTableRecord
  2
DXF0
 70
     0
 62
     7
  6
CONTINUOUS
370
    -3
390

  0
LAYER
  5
15B
100
AcDbSymbolTableRecord
100
AcDbLayerTableRecord
  2
DXF0
 70
     0
 62
     7
  6
CONTINUOUS
370
    -3
390

  0
LAYER
  5
15C
100
AcDbSymbolTableRecord
100
AcDbLayerTableRecord
  2
A0
 70
     0
 62
     9
  6
CONTINUOUS
370
    -3
390

  0
LAYER
  5
15D
100
AcDbSymbolTableRecord
100
AcDbLayerTableRecord
  2
A1
 70
     0
 62
     1
  6
CONTINUOUS
370
    -3
390

  0
LAYER
  5
15E
100
AcDbSymbolTableRecord
100
AcDbLayerTableRecord
  2
A2
 70
     0
 62
     9
  6
CONTINUOUS
370
    -3
390

  0
LAYER
  5
15F
100
AcDbSymbolTableRecord
100
AcDbLayerTableRecord
  2
A4
 70
     0
 62
     9
  6
CONTINUOUS
370
    -3
390

  0
LAYER
  5
160
100
AcDbSymbolTableRecord
100
AcDbLayerTableRecord
  2
A5
 70
     0
 62
     8
  6
CONTINUOUS
370
    -3
390

  0
LAYER
  5
161
100
AcDbSymbolTableRecord
100
AcDbLayerTableRecord
  2
A6
 70
     0
 62
    12
  6
CONTINUOUS
370
    -3
390

  0
LAYER
  5
162
100
AcDbSymbolTableRecord
100
AcDbLayerTableRecord
  2
A7
 70
     0
 62
    12
  6
CONTINUOUS
370
    -3
390

  0
LAYER
  5
163
100
AcDbSymbolTableRecord
100
AcDbLayerTableRecord
  2
A8
 70
     0
 62
    10
  6
CONTINUOUS
370
    -3
390

  0
LAYER
  5
164
100
AcDbSymbolTableRecord
100
AcDbLayerTableRecord
  2
A9
 70
     0
 62
     9
  6
CONTINUOUS
370
    -3
390

  0
LAYER
  5
165
100
AcDbSymbolTableRecord
100
AcDbLayerTableRecord
  2
A10
 70
     0
 62
     6
  6
CONTINUOUS
370
    -3
390

  0
LAYER
  5
166
100
AcDbSymbolTableRecord
100
AcDbLayerTableRecord
  2
A20
 70
     0
 62
     1
  6
CONTINUOUS
370
    -3
390

  0
LAYER
  5
167
100
AcDbSymbolTableRecord
100
AcDbLayerTableRecord
  2
A30
 70
     0
 62
     1
  6
CONTINUOUS
370
    -3
390

  0
LAYER
  5
168
100
AcDbSymbolTableRecord
100
AcDbLayerTableRecord
  2
A40
 70
     0
 62
     9
  6
CONTINUOUS
370
    -3
390

  0
LAYER
  5
169
100
AcDbSymbolTableRecord
100
AcDbLayerTableRecord
  2
A50
 70
     0
 62
    12
  6
CONTINUOUS
370
    -3
390

  0
LAYER
  5
16A
100
AcDbSymbolTableRecord
100
AcDbLayerTableRecord
  2
A1023
 70
     0
 62
     8
  6
CONTINUOUS
370
    -3
390

  0
LAYER
  5
16B
100
AcDbSymbolTableRecord
100
AcDbLayerTableRecord
  2
DXF1023
 70
     0
 62
     8
  6
CONTINUOUS
370
    -3
390

  0
LAYER
  5
16C
100
AcDbSymbolTableRecord
100
AcDbLayerTableRecord
  2
DXF1023
 70
     0
 62
    16
  6
CONTINUOUS
370
    -3
390

  0
ENDTAB
  0
TABLE
  2
STYLE
  5
16D
100
AcDbSymbolTable
 70
     4
  0
STYLE
  5
16E
100
AcDbSymbolTableRecord
100
AcDbTextStyleTableRecord
  2
STANDARD
 70
    64
 40
0.0
 41
1.0
 50
0.0
 71
     0
 42
3.000000000000000
  3
TXT
  4

  0
STYLE
  5
16F
100
AcDbSymbolTableRecord
100
AcDbTextStyleTableRecord
  2
ANKTATE
 70
    68
 40
0.0
 41
1.0
 50
0.0
 71
     0
 42
3.000000000000000
  3
TXT
  4

  0
STYLE
  5
170
100
AcDbSymbolTableRecord
100
AcDbTextStyleTableRecord
  2
KNJYOKO
 70
    64
 40
0.0
 41
1.0
 50
0.0
 71
     0
 42
3.000000000000000
  3
TXT
  4
BIGFONT
  0
STYLE
  5
171
100
AcDbSymbolTableRecord
100
AcDbTextStyleTableRecord
  2
KNJTATE
 70
    68
 40
0.0
 41
1.0
 50
0.0
 71
     0
 42
3.000000000000000
  3
TXT
  4
BIGFONT
  0
ENDTAB
  0
TABLE
  2
VIEW
  5
172
100
AcDbSymbolTable
 70
     0
  0
ENDTAB
  0
TABLE
  2
UCS
  5
173
100
AcDbSymbolTable
 70
     0
  0
ENDTAB
  0
TABLE
  2
APPID
  5
174
100
AcDbSymbolTable
 70
     1
  0
APPID
  5
175
100
AcDbSymbolTableRecord
100
AcDbRegAppTableRecord
  2
ACAD
 70
     0
  0
ENDTAB
  0
TABLE
  2
DIMSTYLE
  5
176
100
AcDbSymbolTable
 70
     2
100
AcDbDimStyleTable
  0
DIMSTYLE
105
177
100
AcDbSymbolTableRecord
100
AcDbDimStyleTableRecord
  2
STANDARD
 70
     0
 41
2.000000
 44
1.500000
 42
0.800000
145
0.661290
140
3.100000
144
1.000000
146
0.645161
340
16E
  0
DIMSTYLE
105
178
100
AcDbSymbolTableRecord
100
AcDbDimStyleTableRecord
  2
DXF001
 70
     0
 41
2.000000
 44
1.500000
 42
0.800000
145
0.661290
140
3.100000
144
1.000000
146
0.645161
 77
     1
 73
     0
 74
     0
271
     2
179
     2
275
     0
 78
     8
 79
     2
172
     1
340
16E
  0
ENDTAB
  0
TABLE
  2
BLOCK_RECORD
  5
179
100
AcDbSymbolTable
 70
    12
  0
BLOCK_RECORD
  5
17A
100
AcDbSymbolTableRecord
100
AcDbBlockTableRecord
  2
*MODEL_SPACE
  0
BLOCK_RECORD
  5
17B
100
AcDbSymbolTableRecord
100
AcDbBlockTableRecord
  2
*PAPER_SPACE
  0
BLOCK_RECORD
  5
17C
100
AcDbSymbolTableRecord
100
AcDbBlockTableRecord
  2
*PAPER_SPACE0
  0
BLOCK_RECORD
  5
1
100
AcDbSymbolTableRecord
100
AcDbBlockTableRecord
  2
_NONE
  0
BLOCK_RECORD
  5
4
100
AcDbSymbolTableRecord
100
AcDbBlockTableRecord
  2
_CLOSED
  0
BLOCK_RECORD
  5
B
100
AcDbSymbolTableRecord
100
AcDbBlockTableRecord
  2
_DOT
  0
BLOCK_RECORD
  5
13
100
AcDbSymbolTableRecord
100
AcDbBlockTableRecord
  2
_OPEN
  0
BLOCK_RECORD
  5
19
100
AcDbSymbolTableRecord
100
AcDbBlockTableRecord
  2
_ORIGIN
  0
BLOCK_RECORD
  5
1E
100
AcDbSymbolTableRecord
100
AcDbBlockTableRecord
  2
_OPEN30
  0
BLOCK_RECORD
  5
24
100
AcDbSymbolTableRecord
100
AcDbBlockTableRecord
  2
_BOXFILLED
  0
BLOCK_RECORD
  5
29
100
AcDbSymbolTableRecord
100
AcDbBlockTableRecord
  2
_BOXBLANK
  0
BLOCK_RECORD
  5
31
100
AcDbSymbolTableRecord
100
AcDbBlockTableRecord
  2
_OBLIQUE
  0
BLOCK_RECORD
  5
35
100
AcDbSymbolTableRecord
100
AcDbBlockTableRecord
  2
_OPEN90
  0
BLOCK_RECORD
  5
3B
100
AcDbSymbolTableRecord
100
AcDbBlockTableRecord
  2
_CLOSEDBLANK
  0
BLOCK_RECORD
  5
41
100
AcDbSymbolTableRecord
100
AcDbBlockTableRecord
  2
_DOTBLANK
  0
ENDTAB
  0
ENDSEC
  0
SECTION
  2
BLOCKS
  0
BLOCK
  5
17D
100
AcDbEntity
  8
0
100
AcDbBlockBegin
  2
*MODEL_SPACE
 70
     0
 10
0.0
 20
0.0
 30
0.0
  3
*MODEL_SPACE
  1

  0
ENDBLK
  5
17E
100
AcDbEntity
  8
0
100
AcDbBlockEnd
  0
BLOCK
  5
17F
100
AcDbEntity
  8
0
100
AcDbBlockBegin
  2
*PAPER_SPACE
 70
     0
 10
0.0
 20
0.0
 30
0.0
  3
*PAPER_SPACE
  1

  0
ENDBLK
  5
180
100
AcDbEntity
  8
0
100
AcDbBlockEnd
  0
BLOCK
  5
181
100
AcDbEntity
  8
0
100
AcDbBlockBegin
  2
*PAPER_SPACE0
 70
     0
 10
0.0
 20
0.0
 30
0.0
  3
*PAPER_SPACE0
  1

  0
ENDBLK
  5
182
100
AcDbEntity
  8
0
100
AcDbBlockEnd
  0
BLOCK
  5
2
330
1
100
AcDbEntity
  8
0
100
AcDbBlockBegin
  2
_NONE
 70
     0
 10
0.0
 20
0.0
 30
0.0
  3
_NONE
  1

  0
ENDBLK
  5
3
330
1
100
AcDbEntity
  8
0
100
AcDbBlockEnd
  0
BLOCK
  5
5
330
4
100
AcDbEntity
  8
0
100
AcDbBlockBegin
  2
_CLOSED
 70
     0
 10
0.0
 20
0.0
 30
0.0
  3
_CLOSED
  1

  0
LINE
  5
6
330
4
100
AcDbEntity
  8
0
  6
BYBLOCK
 62
     0
370
    -2
100
AcDbLine
 10
-1.0
 20
0.166667
 30
0.0
 11
0.0
 21
0.0
 31
0.0
  0
LINE
  5
7
330
4
100
AcDbEntity
  8
0
  6
BYBLOCK
 62
     0
370
    -2
100
AcDbLine
 10
0.0
 20
0.0
 30
0.0
 11
-1.0
 21
-0.166667
 31
0.0
  0
LINE
  5
8
330
4
100
AcDbEntity
  8
0
  6
BYBLOCK
 62
     0
370
    -2
100
AcDbLine
 10
-1.0
 20
0.166667
 30
0.0
 11
-1.0
 21
-0.166667
 31
0.0
  0
LINE
  5
9
330
4
100
AcDbEntity
  8
0
  6
BYBLOCK
 62
     0
370
    -2
100
AcDbLine
 10
0.0
 20
0.0
 30
0.0
 11
-1.0
 21
0.0
 31
0.0
  0
ENDBLK
  5
A
330
4
100
AcDbEntity
  8
0
100
AcDbBlockEnd
  0
BLOCK
  5
C
330
B
100
AcDbEntity
  8
0
100
AcDbBlockBegin
  2
_DOT
 70
     0
 10
0.0
 20
0.0
 30
0.0
  3
_DOT
  1

  0
POLYLINE
  5
D
330
B
100
AcDbEntity
  8
0
  6
BYBLOCK
 62
     0
370
    -2
100
AcDb2dPolyline
 66
     1
 10
0.0
 20
0.0
 30
0.0
 70
     1
 40
0.5
 41
0.5
  0
VERTEX
  5
E
330
B
100
AcDbEntity
  8
0
  6
BYBLOCK
 62
     0
370
    -2
100
AcDbVertex
100
AcDb2dVertex
 10
-0.25
 20
0.0
 30
0.0
 42
1.0
  0
VERTEX
  5
F
330
B
100
AcDbEntity
  8
0
  6
BYBLOCK
 62
     0
370
    -2
100
AcDbVertex
100
AcDb2dVertex
 10
0.25
 20
0.0
 30
0.0
 42
1.0
  0
SEQEND
  5
10
330
B
100
AcDbEntity
  8
0
  6
BYBLOCK
 62
     0
370
    -2
  0
LINE
  5
11
330
B
100
AcDbEntity
  8
0
  6
BYBLOCK
 62
     0
370
    -2
100
AcDbLine
 10
-0.5
 20
0.0
 30
0.0
 11
-1.0
 21
0.0
 31
0.0
  0
ENDBLK
  5
12
330
B
100
AcDbEntity
  8
0
100
AcDbBlockEnd
  0
BLOCK
  5
14
330
13
100
AcDbEntity
  8
0
100
AcDbBlockBegin
  2
_OPEN
 70
     0
 10
0.0
 20
0.0
 30
0.0
  3
_OPEN
  1

  0
LINE
  5
15
330
13
100
AcDbEntity
  8
0
  6
BYBLOCK
 62
     0
370
    -2
100
AcDbLine
 10
-1.0
 20
0.166667
 30
0.0
 11
0.0
 21
0.0
 31
0.0
  0
LINE
  5
16
330
13
100
AcDbEntity
  8
0
  6
BYBLOCK
 62
     0
370
    -2
100
AcDbLine
 10
0.0
 20
0.0
 30
0.0
 11
-1.0
 21
-0.166667
 31
0.0
  0
LINE
  5
17
330
13
100
AcDbEntity
  8
0
  6
BYBLOCK
 62
     0
370
    -2
100
AcDbLine
 10
0.0
 20
0.0
 30
0.0
 11
-1.0
 21
0.0
 31
0.0
  0
ENDBLK
  5
18
330
13
100
AcDbEntity
  8
0
100
AcDbBlockEnd
  0
BLOCK
  5
1A
330
19
100
AcDbEntity
  8
0
100
AcDbBlockBegin
  2
_ORIGIN
 70
     0
 10
0.0
 20
0.0
 30
0.0
  3
_ORIGIN
  1

  0
CIRCLE
  5
1B
330
19
100
AcDbEntity
  8
0
  6
BYBLOCK
 62
     0
370
    -2
100
AcDbCircle
 10
0.0
 20
0.0
 30
0.0
 40
0.5
  0
LINE
  5
1C
330
19
100
AcDbEntity
  8
0
  6
BYBLOCK
 62
     0
370
    -2
100
AcDbLine
 10
0.0
 20
0.0
 30
0.0
 11
-1.0
 21
0.0
 31
0.0
  0
ENDBLK
  5
1D
330
19
100
AcDbEntity
  8
0
100
AcDbBlockEnd
  0
BLOCK
  5
1F
330
1E
100
AcDbEntity
  8
0
100
AcDbBlockBegin
  2
_OPEN30
 70
     0
 10
0.0
 20
0.0
 30
0.0
  3
_OPEN30
  1

  0
LINE
  5
20
330
1E
100
AcDbEntity
  8
0
  6
BYBLOCK
 62
     0
370
    -2
100
AcDbLine
 10
-1.0
 20
0.267949
 30
0.0
 11
0.0
 21
0.0
 31
0.0
  0
LINE
  5
21
330
1E
100
AcDbEntity
  8
0
  6
BYBLOCK
 62
     0
370
    -2
100
AcDbLine
 10
0.0
 20
0.0
 30
0.0
 11
-1.0
 21
-0.267949
 31
0.0
  0
LINE
  5
22
330
1E
100
AcDbEntity
  8
0
  6
BYBLOCK
 62
     0
370
    -2
100
AcDbLine
 10
0.0
 20
0.0
 30
0.0
 11
-1.0
 21
0.0
 31
0.0
  0
ENDBLK
  5
23
330
1E
100
AcDbEntity
  8
0
100
AcDbBlockEnd
  0
BLOCK
  5
25
330
24
100
AcDbEntity
  8
0
100
AcDbBlockBegin
  2
_BOXFILLED
 70
     0
 10
0.0
 20
0.0
 30
0.0
  3
_BOXFILLED
  1

  0
SOLID
  5
26
330
24
100
AcDbEntity
  8
0
  6
BYBLOCK
 62
     0
370
    -2
100
AcDbTrace
 10
-0.5
 20
0.5
 30
0.0
 11
0.5
 21
0.5
 31
0.0
 12
-0.5
 22
-0.5
 32
0.0
 13
0.5
 23
-0.5
 33
0.0
  0
LINE
  5
27
330
24
100
AcDbEntity
  8
0
  6
BYBLOCK
 62
     0
370
    -2
100
AcDbLine
 10
-0.5
 20
0.0
 30
0.0
 11
-1.0
 21
0.0
 31
0.0
  0
ENDBLK
  5
28
330
24
100
AcDbEntity
  8
0
100
AcDbBlockEnd
  0
BLOCK
  5
2A
330
29
100
AcDbEntity
  8
0
100
AcDbBlockBegin
  2
_BOXBLANK
 70
     0
 10
0.0
 20
0.0
 30
0.0
  3
_BOXBLANK
  1

  0
LINE
  5
2B
330
29
100
AcDbEntity
  8
0
  6
BYBLOCK
 62
     0
370
    -2
100
AcDbLine
 10
-0.5
 20
-0.5
 30
0.0
 11
0.5
 21
-0.5
 31
0.0
  0
LINE
  5
2C
330
29
100
AcDbEntity
  8
0
  6
BYBLOCK
 62
     0
370
    -2
100
AcDbLine
 10
0.5
 20
-0.5
 30
0.0
 11
0.5
 21
0.5
 31
0.0
  0
LINE
  5
2D
330
29
100
AcDbEntity
  8
0
  6
BYBLOCK
 62
     0
370
    -2
100
AcDbLine
 10
0.5
 20
0.5
 30
0.0
 11
-0.5
 21
0.5
 31
0.0
  0
LINE
  5
2E
330
29
100
AcDbEntity
  8
0
  6
BYBLOCK
 62
     0
370
    -2
100
AcDbLine
 10
-0.5
 20
0.5
 30
0.0
 11
-0.5
 21
-0.5
 31
0.0
  0
LINE
  5
2F
330
29
100
AcDbEntity
  8
0
  6
BYBLOCK
 62
     0
370
    -2
100
AcDbLine
 10
-0.5
 20
0.0
 30
0.0
 11
-1.0
 21
0.0
 31
0.0
  0
ENDBLK
  5
30
330
29
100
AcDbEntity
  8
0
100
AcDbBlockEnd
  0
BLOCK
  5
32
330
31
100
AcDbEntity
  8
0
100
AcDbBlockBegin
  2
_OBLIQUE
 70
     0
 10
0.0
 20
0.0
 30
0.0
  3
_OBLIQUE
  1

  0
LINE
  5
33
330
31
100
AcDbEntity
  8
0
  6
BYBLOCK
 62
     0
370
    -2
100
AcDbLine
 10
-0.5
 20
-0.5
 30
0.0
 11
0.5
 21
0.5
 31
0.0
  0
ENDBLK
  5
34
330
31
100
AcDbEntity
  8
0
100
AcDbBlockEnd
  0
BLOCK
  5
36
330
35
100
AcDbEntity
  8
0
100
AcDbBlockBegin
  2
_OPEN90
 70
     0
 10
0.0
 20
0.0
 30
0.0
  3
_OPEN90
  1

  0
LINE
  5
37
330
35
100
AcDbEntity
  8
0
  6
BYBLOCK
 62
     0
370
    -2
100
AcDbLine
 10
-0.5
 20
0.5
 30
0.0
 11
0.0
 21
0.0
 31
0.0
  0
LINE
  5
38
330
35
100
AcDbEntity
  8
0
  6
BYBLOCK
 62
     0
370
    -2
100
AcDbLine
 10
0.0
 20
0.0
 30
0.0
 11
-0.5
 21
-0.5
 31
0.0
  0
LINE
  5
39
330
35
100
AcDbEntity
  8
0
  6
BYBLOCK
 62
     0
370
    -2
100
AcDbLine
 10
0.0
 20
0.0
 30
0.0
 11
-1.0
 21
0.0
 31
0.0
  0
ENDBLK
  5
3A
330
35
100
AcDbEntity
  8
0
100
AcDbBlockEnd
  0
BLOCK
  5
3C
330
3B
100
AcDbEntity
  8
0
100
AcDbBlockBegin
  2
_CLOSEDBLANK
 70
     0
 10
0.0
 20
0.0
 30
0.0
  3
_CLOSEDBLANK
  1

  0
LINE
  5
3D
330
3B
100
AcDbEntity
  8
0
  6
BYBLOCK
 62
     0
370
    -2
100
AcDbLine
 10
-1.0
 20
0.1666666666666666
 30
0.0
 11
0.0
 21
0.0
 31
0.0
  0
LINE
  5
3E
330
3B
100
AcDbEntity
  8
0
  6
BYBLOCK
 62
     0
370
    -2
100
AcDbLine
 10
0.0
 20
0.0
 30
0.0
 11
-1.0
 21
-0.1666666666666666
 31
0.0
  0
LINE
  5
3F
330
3B
100
AcDbEntity
  8
0
  6
BYBLOCK
 62
     0
370
    -2
100
AcDbLine
 10
-1.0
 20
0.1666666666666666
 30
0.0
 11
-1.0
 21
-0.1666666666666666
 31
0.0
  0
ENDBLK
  5
40
330
3B
100
AcDbEntity
  8
0
100
AcDbBlockEnd
  0
BLOCK
  5
42
330
41
100
AcDbEntity
  8
0
100
AcDbBlockBegin
  2
_DOTBLANK
 70
     0
 10
0.0
 20
0.0
 30
0.0
  3
_DOTBLANK
  1

  0
CIRCLE
  5
43
330
41
100
AcDbEntity
  8
0
  6
BYBLOCK
 62
     0
370
    -2
100
AcDbCircle
 10
0.0
 20
0.0
 30
0.0
 40
0.5
  0
LINE
  5
44
330
41
100
AcDbEntity
  8
0
  6
BYBLOCK
 62
     0
370
    -2
100
AcDbLine
 10
-0.5
 20
0.0
 30
0.0
 11
-1.0
 21
0.0
 31
0.0
  0
ENDBLK
  5
45
330
41
100
AcDbEntity
  8
0
100
AcDbBlockEnd
  0
ENDSEC
  0
SECTION
  2
ENTITIES
  0
MTEXT
  5
46
100
AcDbEntity
  8
A7
  6
CONTINUOUS
 62
3
100
AcDbMText
 10
9.999997526638502
 20
18.00000076076889
 30
0.000000000000000
 40
3.000000000000000
 41
0.000000000000000
 44
0.6739999771118164
 71
     7
 72
     1
  1
{\H0.94x;{TYPE No.TL-449SUS-H}}
 11
1.000000000000000
 21
0.000000000000000
 31
0.000000000000000
  7
STANDARD
  0
POINT
  5
47
100
AcDbEntity
  8
A7
  6
CONTINUOUS
 62
3
100
AcDbPoint
 10
9.999997526638502
 20
18.00000076076889
 30
0.000000000000000
  0
LINE
  5
48
100
AcDbEntity
  8
A1
  6
CONTINUOUS
 62
7
100
AcDbLine
 10
44.26822094075208
 20
50.03153575215909
 30
0.000000000000000
 11
43.86822094075202
 21
50.03153575215909
 31
0.000000000000000
  0
LINE
  5
49
100
AcDbEntity
  8
A1
  6
CONTINUOUS
 62
7
100
AcDbLine
 10
82.26822094075209
 20
120.2734359622963
 30
0.000000000000000
 11
46.26822094075208
 21
120.2734359622963
 31
0.000000000000000
  0
LINE
  5
4A
100
AcDbEntity
  8
A1
  6
CONTINUOUS
 62
7
100
AcDbLine
 10
44.26822094075208
 20
118.2734359622963
 30
0.000000000000000
 11
44.26822094075208
 21
86.27343596229626
 31
0.000000000000000
  0
LINE
  5
4B
100
AcDbEntity
  8
A1
  6
CONTINUOUS
 62
7
100
AcDbLine
 10
46.26822094075208
 20
84.27343596229626
 30
0.000000000000000
 11
82.26822094075209
 21
84.27343596229626
 31
0.000000000000000
  0
LINE
  5
4C
100
AcDbEntity
  8
A1
  6
CONTINUOUS
 62
7
100
AcDbLine
 10
84.26822094075209
 20
86.27343596229626
 30
0.000000000000000
 11
84.26822094075209
 21
118.2734359622963
 31
0.000000000000000
  0
LINE
  5
4D
100
AcDbEntity
  8
A1
  6
CONTINUOUS
 62
7
100
AcDbLine
 10
84.26822094075209
 20
111.2734359622963
 30
0.000000000000000
 11
44.26822094075208
 21
111.2734359622963
 31
0.000000000000000
  0
LINE
  5
4E
100
AcDbEntity
  8
A1
  6
CONTINUOUS
 62
7
100
AcDbLine
 10
44.26822094075208
 20
93.27343596229626
 30
0.000000000000000
 11
84.26822094075209
 21
93.27343596229626
 31
0.000000000000000
  0
LINE
  5
4F
100
AcDbEntity
  8
A4
  6
CENTER
 62
1
100
AcDbLine
 10
113.8227379127522
 20
102.2734359622963
 30
0.000000000000000
 11
28.33225235375210
 21
102.2734359622963
 31
0.000000000000000
  0
LINE
  5
50
100
AcDbEntity
  8
A1
  6
CONTINUOUS
 62
7
100
AcDbLine
 10
60.97930145075201
 20
99.07728353929626
 30
0.000000000000000
 11
65.74725064275208
 21
99.07728353929626
 31
0.000000000000000
  0
LINE
  5
51
100
AcDbEntity
  8
A1
  6
CONTINUOUS
 62
7
100
AcDbLine
 10
66.74725064275208
 20
100.0772835392963
 30
0.000000000000000
 11
66.74725064275208
 21
104.4695883852963
 31
0.000000000000000
  0
LINE
  5
52
100
AcDbEntity
  8
A1
  6
CONTINUOUS
 62
7
100
AcDbLine
 10
65.74725064275208
 20
105.4695883852963
 30
0.000000000000000
 11
60.97930145075201
 21
105.4695883852963
 31
0.000000000000000
  0
ARC
  5
53
100
AcDbEntity
  8
A1
  6
CONTINUOUS
 62
7
100
AcDbCircle
 10
65.74725064275208
 20
100.0772835392963
 30
0.000000000000000
 40
1.000000000000000
100
AcDbArc
 50
270.0000000000000
 51
360.0000000000000
  0
ARC
  5
54
100
AcDbEntity
  8
A1
  6
CONTINUOUS
 62
7
100
AcDbCircle
 10
65.74725064275208
 20
104.4695883852963
 30
0.000000000000000
 40
1.000000000000000
100
AcDbArc
 50
0.000000000000000
 51
90.00000000000000
  0
ARC
  5
55
100
AcDbEntity
  8
A1
  6
CONTINUOUS
 62
7
100
AcDbCircle
 10
60.97930145075201
 20
104.4695883852963
 30
0.000000000000000
 40
1.000000000000000
100
AcDbArc
 50
90.00000000000000
 51
180.0000000000000
  0
LINE
  5
56
100
AcDbEntity
  8
A1
  6
CONTINUOUS
 62
7
100
AcDbLine
 10
57.26822094075202
 20
98.77343596229626
 30
0.000000000000000
 11
57.26822094075202
 21
105.7734359622963
 31
0.000000000000000
  0
LINE
  5
57
100
AcDbEntity
  8
A1
  6
CONTINUOUS
 62
7
100
AcDbLine
 10
58.26822094075202
 20
106.7734359622963
 30
0.000000000000000
 11
67.46822094075208
 21
106.7734359622963
 31
0.000000000000000
  0
LINE
  5
58
100
AcDbEntity
  8
A1
  6
CONTINUOUS
 62
7
100
AcDbLine
 10
68.46822094075208
 20
105.7734359622963
 30
0.000000000000000
 11
68.46822094075208
 21
98.77343596229626
 31
0.000000000000000
  0
LINE
  5
59
100
AcDbEntity
  8
A1
  6
CONTINUOUS
 62
7
100
AcDbLine
 10
67.46822094075208
 20
97.77343596229626
 30
0.000000000000000
 11
58.26822094075202
 21
97.77343596229626
 31
0.000000000000000
  0
ARC
  5
5A
100
AcDbEntity
  8
A1
  6
CONTINUOUS
 62
7
100
AcDbCircle
 10
67.46822094075208
 20
98.77343596229626
 30
0.000000000000000
 40
1.000000000000000
100
AcDbArc
 50
270.0000000000000
 51
360.0000000000000
  0
ARC
  5
5B
100
AcDbEntity
  8
A1
  6
CONTINUOUS
 62
7
100
AcDbCircle
 10
67.46822094075208
 20
105.7734359622963
 30
0.000000000000000
 40
1.000000000000000
100
AcDbArc
 50
0.000000000000000
 51
90.00000000000000
  0
ARC
  5
5C
100
AcDbEntity
  8
A1
  6
CONTINUOUS
 62
7
100
AcDbCircle
 10
58.26822094075202
 20
105.7734359622963
 30
0.000000000000000
 40
1.000000000000000
100
AcDbArc
 50
90.00000000000000
 51
180.0000000000000
  0
ARC
  5
5D
100
AcDbEntity
  8
A1
  6
CONTINUOUS
 62
7
100
AcDbCircle
 10
58.26822094075202
 20
98.77343596229626
 30
0.000000000000000
 40
1.000000000000000
100
AcDbArc
 50
180.0000000000000
 51
270.0000000000000
  0
LINE
  5
5E
100
AcDbEntity
  8
A4
  6
CENTER
 62
1
100
AcDbLine
 10
79.46344898575208
 20
115.6734359622963
 30
0.000000000000000
 11
73.61188003575208
 21
115.6734359622963
 31
0.000000000000000
  0
LINE
  5
5F
100
AcDbEntity
  8
A4
  6
CENTER
 62
1
100
AcDbLine
 10
76.76822094075200
 20
118.2615129062963
 30
0.000000000000000
 11
76.76822094075200
 21
112.6735281432963
 31
0.000000000000000
  0
LINE
  5
60
100
AcDbEntity
  8
A4
  6
CENTER
 62
1
100
AcDbLine
 10
54.46344898575204
 20
115.6734359622963
 30
0.000000000000000
 11
48.61188003575207
 21
115.6734359622963
 31
0.000000000000000
  0
LINE
  5
61
100
AcDbEntity
  8
A4
  6
CENTER
 62
1
100
AcDbLine
 10
51.76822094075208
 20
118.2615129062963
 30
0.000000000000000
 11
51.76822094075208
 21
112.6735281432963
 31
0.000000000000000
  0
LINE
  5
62
100
AcDbEntity
  8
A4
  6
CENTER
 62
1
100
AcDbLine
 10
54.46344898575204
 20
88.87343596229628
 30
0.000000000000000
 11
48.61188003575207
 21
88.87343596229628
 31
0.000000000000000
  0
LINE
  5
63
100
AcDbEntity
  8
A4
  6
CENTER
 62
1
100
AcDbLine
 10
51.76822094075208
 20
91.46151290629625
 30
0.000000000000000
 11
51.76822094075208
 21
85.87352814329624
 31
0.000000000000000
  0
LINE
  5
64
100
AcDbEntity
  8
A4
  6
CENTER
 62
1
100
AcDbLine
 10
79.46344898575208
 20
88.87343596229628
 30
0.000000000000000
 11
73.61188003575208
 21
88.87343596229628
 31
0.000000000000000
  0
LINE
  5
65
100
AcDbEntity
  8
A4
  6
CENTER
 62
1
100
AcDbLine
 10
76.76822094075200
 20
91.46151290629625
 30
0.000000000000000
 11
76.76822094075200
 21
85.87352814329624
 31
0.000000000000000
  0
ARC
  5
66
100
AcDbEntity
  8
A1
  6
CONTINUOUS
 62
7
100
AcDbCircle
 10
82.26822094075209
 20
118.2734359622963
 30
0.000000000000000
 40
2.000000000000000
100
AcDbArc
 50
0.000000000000000
 51
90.00000000000000
  0
ARC
  5
67
100
AcDbEntity
  8
A1
  6
CONTINUOUS
 62
7
100
AcDbCircle
 10
46.26822094075208
 20
118.2734359622963
 30
0.000000000000000
 40
2.000000000000000
100
AcDbArc
 50
90.00000000000000
 51
180.0000000000000
  0
ARC
  5
68
100
AcDbEntity
  8
A1
  6
CONTINUOUS
 62
7
100
AcDbCircle
 10
46.26822094075208
 20
86.27343596229626
 30
0.000000000000000
 40
2.000000000000000
100
AcDbArc
 50
180.0000000000000
 51
270.0000000000000
  0
ARC
  5
69
100
AcDbEntity
  8
A1
  6
CONTINUOUS
 62
7
100
AcDbCircle
 10
82.26822094075209
 20
86.27343596229626
 30
0.000000000000000
 40
2.000000000000000
100
AcDbArc
 50
270.0000000000000
 51
360.0000000000000
  0
ARC
  5
6A
100
AcDbEntity
  8
A1
  6
CONTINUOUS
 62
7
100
AcDbCircle
 10
60.97930145075201
 20
100.0772835392963
 30
0.000000000000000
 40
1.000000000000000
100
AcDbArc
 50
180.0000000000000
 51
270.0000000000000
  0
LINE
  5
6B
100
AcDbEntity
  8
A1
  6
CONTINUOUS
 62
7
100
AcDbLine
 10
58.67001745875217
 20
98.55105115729626
 30
0.000000000000000
 11
59.97930145075217
 21
99.07728353929625
 31
0.000000000000000
  0
LINE
  5
6C
100
AcDbEntity
  8
A1
  6
CONTINUOUS
 62
7
100
AcDbLine
 10
66.74725064275214
 20
99.07728353929630
 30
0.000000000000000
 11
68.06736088475211
 21
98.46461824429633
 31
0.000000000000000
  0
LINE
  5
6D
100
AcDbEntity
  8
A1
  6
CONTINUOUS
 62
7
100
AcDbLine
 10
66.74725064275214
 20
105.4695883852963
 30
0.000000000000000
 11
68.06736088475219
 21
106.0822536802963
 31
0.000000000000000
  0
LINE
  5
6E
100
AcDbEntity
  8
A1
  6
CONTINUOUS
 62
7
100
AcDbLine
 10
58.67001745875214
 20
105.9958207672963
 30
0.000000000000000
 11
59.97930145075208
 21
105.4695883852963
 31
0.000000000000000
  0
LINE
  5
6F
100
AcDbEntity
  8
A1
  6
CONTINUOUS
 62
7
100
AcDbLine
 10
59.97930145075201
 20
104.4695883852963
 30
0.000000000000000
 11
59.97930145075201
 21
100.0772835392963
 31
0.000000000000000
  0
ARC
  5
70
100
AcDbEntity
  8
A1
  6
CONTINUOUS
 62
7
100
AcDbCircle
 10
58.97930145075201
 20
99.27343596229626
 30
0.000000000000000
 40
1.000000000000000
100
AcDbArc
 50
180.0000000000000
 51
270.0000000000000
  0
ARC
  5
71
100
AcDbEntity
  8
A1
  6
CONTINUOUS
 62
7
100
AcDbCircle
 10
58.97930145075201
 20
105.2734359622963
 30
0.000000000000000
 40
1.000000000000000
100
AcDbArc
 50
90.00000000000000
 51
180.0000000000000
  0
ARC
  5
72
100
AcDbEntity
  8
A1
  6
CONTINUOUS
 62
7
100
AcDbCircle
 10
67.47930144975203
 20
105.2734359622963
 30
0.000000000000000
 40
1.000000000000000
100
AcDbArc
 50
0.000000000000000
 51
90.00000000000000
  0
ARC
  5
73
100
AcDbEntity
  8
A1
  6
CONTINUOUS
 62
7
100
AcDbCircle
 10
67.47930144975203
 20
99.27343596229626
 30
0.000000000000000
 40
1.000000000000000
100
AcDbArc
 50
270.0000000000000
 51
360.0000000000000
  0
LINE
  5
74
100
AcDbEntity
  8
A1
  6
CONTINUOUS
 62
7
100
AcDbLine
 10
57.97930144975202
 20
105.2734359622963
 30
0.000000000000000
 11
57.97930144975202
 21
99.27343596229626
 31
0.000000000000000
  0
LINE
  5
75
100
AcDbEntity
  8
A1
  6
CONTINUOUS
 62
7
100
AcDbLine
 10
67.47930145075202
 20
106.2734359622963
 30
0.000000000000000
 11
58.97930145075201
 21
106.2734359622963
 31
0.000000000000000
  0
LINE
  5
76
100
AcDbEntity
  8
A1
  6
CONTINUOUS
 62
7
100
AcDbLine
 10
68.47930145075202
 20
99.27343596229626
 30
0.000000000000000
 11
68.47930145075202
 21
105.2734359622963
 31
0.000000000000000
  0
LINE
  5
77
100
AcDbEntity
  8
A1
  6
CONTINUOUS
 62
7
100
AcDbLine
 10
58.97930145075201
 20
98.27343596229626
 30
0.000000000000000
 11
67.47930145075202
 21
98.27343596229626
 31
0.000000000000000
  0
LINE
  5
78
100
AcDbEntity
  8
A4
  6
CENTER
 62
1
100
AcDbLine
 10
113.8227379127522
 20
46.53153575215909
 30
0.000000000000000
 11
28.33225235375209
 21
46.53153575215909
 31
0.000000000000000
  0
LINE
  5
79
100
AcDbEntity
  8
A1
  6
CONTINUOUS
 62
7
100
AcDbLine
 10
44.26822094075208
 20
40.33153575215904
 30
0.000000000000000
 11
84.26822094075209
 21
40.33153575215904
 31
0.000000000000000
  0
LINE
  5
7A
100
AcDbEntity
  8
A1
  6
CONTINUOUS
 62
7
100
AcDbLine
 10
83.46822094075208
 20
39.53153575215909
 30
0.000000000000000
 11
84.26822094075209
 21
39.53153575215909
 31
0.000000000000000
  0
LINE
  5
7B
100
AcDbEntity
  8
A1
  6
CONTINUOUS
 62
7
100
AcDbLine
 10
84.26822094075209
 20
54.33153575215904
 30
0.000000000000000
 11
84.26822094075209
 21
39.53153575215909
 31
0.000000000000000
  0
LINE
  5
7C
100
AcDbEntity
  8
A1
  6
CONTINUOUS
 62
7
100
AcDbLine
 10
45.06822094075206
 20
55.13153575215905
 30
0.000000000000000
 11
83.46822094075208
 21
55.13153575215905
 31
0.000000000000000
  0
ARC
  5
7D
100
AcDbEntity
  8
A1
  6
CONTINUOUS
 62
7
100
AcDbCircle
 10
45.06822094075206
 20
54.33153575215904
 30
0.000000000000000
 40
0.8000000000000000
100
AcDbArc
 50
90.00000000000000
 51
180.0000000000000
  0
ARC
  5
7E
100
AcDbEntity
  8
A1
  6
CONTINUOUS
 62
7
100
AcDbCircle
 10
83.46822094075208
 20
54.33153575215904
 30
0.000000000000000
 40
0.8000000000000000
100
AcDbArc
 50
0.000000000000000
 51
90.00000000000000
  0
LINE
  5
7F
100
AcDbEntity
  8
A1
  6
CONTINUOUS
 62
7
100
AcDbLine
 10
44.26822094075208
 20
39.53153575215909
 30
0.000000000000000
 11
44.26822094075208
 21
54.33153575215904
 31
0.000000000000000
  0
LINE
  5
80
100
AcDbEntity
  8
A4
  6
CENTER
 62
1
100
AcDbLine
 10
51.76822094075208
 20
41.87400307015908
 30
0.000000000000000
 11
51.76822094075208
 21
38.03156656215909
 31
0.000000000000000
  0
ARC
  5
81
100
AcDbEntity
  8
A1
  6
CONTINUOUS
 62
7
100
AcDbCircle
 10
60.70069166875202
 20
53.95323055915908
 30
0.000000000000000
 40
1.500000000000000
100
AcDbArc
 50
97.40493962200000
 51
128.2296474450000
  0
ARC
  5
82
100
AcDbEntity
  8
A1
  6
CONTINUOUS
 62
7
100
AcDbCircle
 10
65.98220234475207
 20
54.63964204915904
 30
0.000000000000000
 40
1.500000000000000
100
AcDbArc
 50
29.00000000000000
 51
97.40493962200000
  0
LINE
  5
83
100
AcDbEntity
  8
A4
  6
CENTER
 62
1
100
AcDbLine
 10
76.76822094075200
 20
41.87400307015908
 30
0.000000000000000
 11
76.76822094075200
 21
38.03156656215909
 31
0.000000000000000
  0
LINE
  5
84
100
AcDbEntity
  8
A1
  6
CONTINUOUS
 62
7
100
AcDbLine
 10
67.29413190575207
 20
55.36685648015903
 30
0.000000000000000
 11
67.42457231475203
 21
55.13153575215907
 31
0.000000000000000
  0
LINE
  5
85
100
AcDbEntity
  8
A1
  6
CONTINUOUS
 62
7
100
AcDbLine
 10
60.50737003275205
 20
55.44072064115904
 30
0.000000000000000
 11
65.78888070875206
 21
56.12713213215903
 31
0.000000000000000
  0
LINE
  5
86
100
AcDbEntity
  8
A1
  6
CONTINUOUS
 62
7
100
AcDbLine
 10
42.36822094075207
 20
48.53153575215907
 30
0.000000000000000
 11
42.36822094075207
 21
44.53153575215909
 31
0.000000000000000
  0
LINE
  5
87
100
AcDbEntity
  8
A1
  6
CONTINUOUS
 62
7
100
AcDbLine
 10
43.86822094075205
 20
43.03153575215909
 30
0.000000000000000
 11
44.26822094075208
 21
43.03153575215909
 31
0.000000000000000
  0
LINE
  5
88
100
AcDbEntity
  8
A1
  6
CONTINUOUS
 62
7
100
AcDbLine
 10
96.86822094075228
 20
42.53153575215909
 30
0.000000000000000
 11
84.26822094075209
 21
42.53153575215909
 31
0.000000000000000
  0
LINE
  5
89
100
AcDbEntity
  8
A1
  6
CONTINUOUS
 62
7
100
AcDbLine
 10
84.26822094075209
 20
50.53153575215909
 30
0.000000000000000
 11
96.86822094075228
 21
50.53153575215909
 31
0.000000000000000
  0
LINE
  5
8A
100
AcDbEntity
  8
A5
  6
PHANTOM
 62
6
100
AcDbLine
 10
40.26228109067028
 20
105.7734359622963
 30
0.000000000000000
 11
34.86822094075210
 21
105.7734359622963
 31
0.000000000000000
  0
LINE
  5
8B
100
AcDbEntity
  8
A5
  6
PHANTOM
 62
6
100
AcDbLine
 10
33.36822094075207
 20
104.2734359622963
 30
0.000000000000000
 11
33.36822094075207
 21
100.2734359622963
 31
0.000000000000000
  0
LINE
  5
8C
100
AcDbEntity
  8
A5
  6
PHANTOM
 62
6
100
AcDbLine
 10
34.86822094075210
 20
98.77343596229626
 30
0.000000000000000
 11
40.26228109067028
 21
98.77343596229626
 31
0.000000000000000
  0
LINE
  5
8D
100
AcDbEntity
  8
A4
  6
CENTER
 62
1
100
AcDbLine
 10
63.36327604675204
 20
96.27343596229638
 30
0.000000000000000
 11
63.36327604675204
 21
108.2734359622963
 31
0.000000000000000
  0
LINE
  5
8E
100
AcDbEntity
  8
A1
  6
CONTINUOUS
 62
7
100
AcDbLine
 10
44.26822094075208
 20
39.53153575215909
 30
0.000000000000000
 11
84.26822094075209
 21
39.53153575215909
 31
0.000000000000000
  0
ARC
  5
8F
100
AcDbEntity
  8
A5
  6
PHANTOM
 62
6
100
AcDbCircle
 10
65.52401713365407
 20
55.46623005406467
 30
0.000000000000000
 40
1.500000000000000
100
AcDbArc
 50
29.00000000000000
 51
97.40493962200000
  0
LINE
  5
90
100
AcDbEntity
  8
A5
  6
PHANTOM
 62
6
100
AcDbLine
 10
66.83594669609414
 20
56.19344448246753
 30
0.000000000000000
 11
66.94591853920889
 21
55.99505002495499
 31
0.000000000000000
  0
LINE
  5
91
100
AcDbEntity
  8
A5
  6
PHANTOM
 62
6
100
AcDbLine
 10
60.04918482165402
 20
56.26730864606471
 30
0.000000000000000
 11
65.33069549765405
 21
56.95372013706469
 31
0.000000000000000
  0
ARC
  5
92
100
AcDbEntity
  8
A5
  6
PHANTOM
 62
6
100
AcDbCircle
 10
60.24250645765402
 20
54.77981856406471
 30
0.000000000000000
 40
1.500000000000000
100
AcDbArc
 50
97.40493962200001
 51
148.1110098635366
  0
LINE
  5
93
100
AcDbEntity
  8
A5
  6
PHANTOM
 62
6
100
AcDbLine
 10
58.96889663394981
 20
55.57223134599326
 30
0.000000000000000
 11
58.96331216540932
 21
55.56325567806417
 31
0.000000000000000
  0
LINE
  5
94
100
AcDbEntity
  8
A1
  6
CONTINUOUS
 62
7
100
AcDbLine
 10
46.68936914686798
 20
111.2734359622963
 30
0.000000000000000
 11
44.26822094075163
 21
111.2734359622963
 31
0.000000000000000
  0
SPLINE
  5
95
100
AcDbEntity
  8
A2
  6
CONTINUOUS
 62
4
100
AcDbSpline
210
0.000000000000000
220
0.000000000000000
230
1.000000000000000
 70
     8
 71
     3
 72
     8
 73
     4
 74
     0
 42
1.000000000000000e-07
 43
1.000000000000000e-07
 12
0.6455833333332635
 22
-0.4582583333334469
 32
0.000000000000000
 13
0.1047749999999610
 23
-0.7842250000001627
 33
0.000000000000000
 40
0.000000000000000
 40
0.000000000000000
 40
0.000000000000000
 40
0.000000000000000
 40
1.000000000000000
 40
1.000000000000000
 40
1.000000000000000
 40
1.000000000000000
 10
67.31851399630773
 20
89.54740835812966
 30
0.000000000000000
 10
67.53370844075215
 20
89.39465558035185
 30
0.000000000000000
 10
67.67517232964104
 20
89.15970558035185
 30
0.000000000000000
 10
67.71009732964103
 20
88.89829724701848
 30
0.000000000000000
  0
LINE
  5
96
100
AcDbEntity
  8
A2
  6
CONTINUOUS
 62
4
100
AcDbLine
 10
67.71009732964103
 20
88.89829724701848
 30
0.000000000000000
 11
67.14494732964101
 21
88.89829724701848
 31
0.000000000000000
  0
LINE
  5
97
100
AcDbEntity
  8
A2
  6
CONTINUOUS
 62
4
100
AcDbLine
 10
67.14494732964090
 20
88.89829724701846
 30
0.000000000000000
 11
67.31851399630759
 21
89.54740835812964
 31
0.000000000000000
  0
SPLINE
  5
98
100
AcDbEntity
  8
A2
  6
CONTINUOUS
 62
4
100
AcDbSpline
210
0.000000000000000
220
0.000000000000000
230
1.000000000000000
 70
     8
 71
     3
 72
     8
 73
     4
 74
     0
 42
1.000000000000000e-07
 43
1.000000000000000e-07
 12
-5.738283333333243
 22
4.096808333333342
 32
0.000000000000000
 13
-5.738283333333243
 23
-4.096808333333342
 33
0.000000000000000
 40
0.000000000000000
 40
0.000000000000000
 40
0.000000000000000
 40
0.000000000000000
 40
1.000000000000000
 40
1.000000000000000
 40
1.000000000000000
 40
1.000000000000000
 10
67.46597510741879
 20
89.74919724701847
 30
0.000000000000000
 10
65.55321399630770
 20
91.11480002479625
 30
0.000000000000000
 10
62.98322788519658
 20
91.11480002479625
 30
0.000000000000000
 10
61.07046677408550
 20
89.74919724701847
 30
0.000000000000000
  0
SPLINE
  5
99
100
AcDbEntity
  8
A2
  6
CONTINUOUS
 62
4
100
AcDbSpline
210
0.000000000000000
220
0.000000000000000
230
1.000000000000000
 70
     8
 71
     3
 72
     8
 73
     4
 74
     0
 42
1.000000000000000e-07
 43
1.000000000000000e-07
 12
-0.7302500000000691
 22
-0.5228166666666425
 32
0.000000000000000
 13
-0.1862666666667678
 23
-0.8794749999998430
 33
0.000000000000000
 40
0.000000000000000
 40
0.000000000000000
 40
0.000000000000000
 40
0.000000000000000
 40
1.000000000000000
 40
1.000000000000000
 40
1.000000000000000
 40
1.000000000000000
 10
61.07046677408550
 20
89.74919724701847
 30
0.000000000000000
 10
60.82705010741881
 20
89.57492502479626
 30
0.000000000000000
 10
60.65701121852992
 20
89.31633891368516
 30
0.000000000000000
 10
60.59492232964100
 20
89.02318058035188
 30
0.000000000000000
  0
LINE
  5
9A
100
AcDbEntity
  8
A2
  6
CONTINUOUS
 62
4
100
AcDbLine
 10
60.59492232964100
 20
89.02318058035188
 30
0.000000000000000
 11
60.85209732964102
 21
89.02318058035188
 31
0.000000000000000
  0
SPLINE
  5
9B
100
AcDbEntity
  8
A2
  6
CONTINUOUS
 62
4
100
AcDbSpline
210
0.000000000000000
220
0.000000000000000
230
1.000000000000000
 70
     8
 71
     3
 72
     8
 73
     4
 74
     0
 42
1.000000000000000e-07
 43
1.000000000000000e-07
 12
0.1725083333332691
 22
0.6328833333332682
 32
0.000000000000000
 13
0.5333999999999719
 23
0.3810000000000286
 33
0.000000000000000
 40
0.000000000000000
 40
0.000000000000000
 40
0.000000000000000
 40
0.000000000000000
 40
1.000000000000000
 40
1.000000000000000
 40
1.000000000000000
 40
1.000000000000000
 10
60.85209732964102
 20
89.02318058035188
 30
0.000000000000000
 10
60.90960010741878
 20
89.23414169146297
 30
0.000000000000000
 10
61.03801121852990
 20
89.41864446924076
 30
0.000000000000000
 10
61.21581121852989
 20
89.54564446924077
 30
0.000000000000000
  0
SPLINE
  5
9C
100
AcDbEntity
  8
A2
  6
CONTINUOUS
 62
4
100
AcDbSpline
210
0.000000000000000
220
0.000000000000000
230
1.000000000000000
 70
     8
 71
     3
 72
     8
 73
     4
 74
     0
 42
1.000000000000000e-07
 43
1.000000000000000e-07
 12
0.2148416666667572
 22
0.1523999999999432
 32
0.000000000000000
 13
0.2222500000000878
 23
0.1418166666666139
 33
0.000000000000000
 40
0.000000000000000
 40
0.000000000000000
 40
0.000000000000000
 40
0.000000000000000
 40
1.000000000000000
 40
1.000000000000000
 40
1.000000000000000
 40
1.000000000000000
 10
61.21581121852989
 20
89.54564446924077
 30
0.000000000000000
 10
61.28742510741881
 20
89.59644446924075
 30
0.000000000000000
 10
61.36009732964100
 20
89.64583335812965
 30
0.000000000000000
 10
61.43418066297436
 20
89.69310558035185
 30
0.000000000000000
  0
LINE
  5
9D
100
AcDbEntity
  8
A2
  6
CONTINUOUS
 62
4
100
AcDbLine
 10
61.43418066297436
 20
89.69310558035185
 30
0.000000000000000
 11
61.43418066297436
 21
88.05304169146295
 31
0.000000000000000
  0
SPLINE
  5
9E
100
AcDbEntity
  8
A2
  6
CONTINUOUS
 62
4
100
AcDbSpline
210
0.000000000000000
220
0.000000000000000
230
1.000000000000000
 70
     8
 71
     3
 72
     8
 73
     4
 74
     0
 42
1.000000000000000e-07
 43
1.000000000000000e-07
 12
0.2455333333334124
 22
-0.1651000000001659
 32
0.000000000000000
 13
0.2550583333334089
 23
-0.1502833333331637
 33
0.000000000000000
 40
0.000000000000000
 40
0.000000000000000
 40
0.000000000000000
 40
0.000000000000000
 40
1.000000000000000
 40
1.000000000000000
 40
1.000000000000000
 40
1.000000000000000
 10
61.43418066297436
 20
88.05304169146295
 30
0.000000000000000
 10
61.51602510741883
 20
87.99800835812955
 30
0.000000000000000
 10
61.59928066297436
 20
87.94544446924066
 30
0.000000000000000
 10
61.68430010741883
 20
87.89535002479626
 30
0.000000000000000
  0
LINE
  5
9F
100
AcDbEntity
  8
A2
  6
CONTINUOUS
 62
4
100
AcDbLine
 10
61.68430010741883
 20
87.89535002479626
 30
0.000000000000000
 11
61.68430010741883
 21
89.84374169146285
 31
0.000000000000000
  0
SPLINE
  5
A0
100
AcDbEntity
  8
A2
  6
CONTINUOUS
 62
4
100
AcDbSpline
210
0.000000000000000
220
0.000000000000000
230
1.000000000000000
 70
     8
 71
     3
 72
     8
 73
     4
 74
     0
 42
1.000000000000000e-07
 43
1.000000000000000e-07
 12
5.078941666666651
 22
2.871258333333628
 32
0.000000000000000
 13
4.914900000000046
 23
-3.146424999999851
 33
0.000000000000000
 40
0.000000000000000
 40
0.000000000000000
 40
0.000000000000000
 40
0.000000000000000
 40
1.000000000000000
 40
1.000000000000000
 40
1.000000000000000
 40
1.000000000000000
 10
61.68430010741883
 20
89.84374169146285
 30
0.000000000000000
 10
63.37728066297438
 20
90.80082780257406
 30
0.000000000000000
 10
65.46149177408546
 20
90.74367780257406
 30
0.000000000000000
 10
67.09979177408547
 20
89.69486946924077
 30
0.000000000000000
  0
LINE
  5
A1
100
AcDbEntity
  8
A2
  6
CONTINUOUS
 62
4
100
AcDbLine
 10
67.09979177408569
 20
89.69486946924090
 30
0.000000000000000
 11
66.57626955186345
 21
87.74400835812966
 31
0.000000000000000
  0
SPLINE
  5
A2
100
AcDbEntity
  8
A2
  6
CONTINUOUS
 62
4
100
AcDbSpline
210
0.000000000000000
220
0.000000000000000
230
1.000000000000000
 70
     8
 71
     3
 72
     8
 73
     4
 74
     0
 42
1.000000000000000e-07
 43
1.000000000000000e-07
 12
0.3100916666665512
 22
0.1576916666667216
 32
0.000000000000000
 13
0.2973916666667265
 23
0.1788583333334941
 33
0.000000000000000
 40
0.000000000000000
 40
0.000000000000000
 40
0.000000000000000
 40
0.000000000000000
 40
1.000000000000000
 40
1.000000000000000
 40
1.000000000000000
 40
1.000000000000000
 10
66.57626955186328
 20
87.74400835812956
 30
0.000000000000000
 10
66.67963344075213
 20
87.79657224701846
 30
0.000000000000000
 10
66.78123344075215
 20
87.85266391368516
 30
0.000000000000000
 10
66.88036399630772
 20
87.91228335812967
 30
0.000000000000000
  0
LINE
  5
A3
100
AcDbEntity
  8
A2
  6
CONTINUOUS
 62
4
100
AcDbLine
 10
66.88036399630766
 20
87.91228335812967
 30
0.000000000000000
 11
67.07756677408543
 21
88.64853058035185
 31
0.000000000000000
  0
LINE
  5
A4
100
AcDbEntity
  8
A2
  6
CONTINUOUS
 62
4
100
AcDbLine
 10
67.07756677408548
 20
88.64853058035187
 30
0.000000000000000
 11
67.71009732964103
 21
88.64853058035187
 31
0.000000000000000
  0
SPLINE
  5
A5
100
AcDbEntity
  8
A2
  6
CONTINUOUS
 62
4
100
AcDbSpline
210
0.000000000000000
220
0.000000000000000
230
1.000000000000000
 70
     8
 71
     3
 72
     8
 73
     4
 74
     0
 42
1.000000000000000e-07
 43
1.000000000000000e-07
 12
-0.05397499999997990
 22
-0.3989916666669728
 32
0.000000000000000
 13
-0.2106083333332549
 23
-0.3428999999999292
 33
0.000000000000000
 40
0.000000000000000
 40
0.000000000000000
 40
0.000000000000000
 40
0.000000000000000
 40
1.000000000000000
 40
1.000000000000000
 40
1.000000000000000
 40
1.000000000000000
 10
67.71009732964103
 20
88.64853058035187
 30
0.000000000000000
 10
67.69210566297437
 20
88.51553335812956
 30
0.000000000000000
 10
67.64624455186322
 20
88.38782780257405
 30
0.000000000000000
 10
67.57604177408547
 20
88.27352780257407
 30
0.000000000000000
  0
LINE
  5
A6
100
AcDbEntity
  8
A2
  6
CONTINUOUS
 62
4
100
AcDbLine
 10
67.57604177408547
 20
88.27352780257407
 30
0.000000000000000
 11
67.85896955186325
 21
88.27352780257407
 31
0.000000000000000
  0
SPLINE
  5
A7
100
AcDbEntity
  8
A2
  6
CONTINUOUS
 62
4
100
AcDbSpline
210
0.000000000000000
220
0.000000000000000
230
1.000000000000000
 70
     8
 71
     3
 72
     8
 73
     4
 74
     0
 42
1.000000000000000e-07
 43
1.000000000000000e-07
 12
0.7196666666667397
 22
1.566333333333262
 32
0.000000000000000
 13
-1.403349999999989
 23
1.002241666666578
 33
0.000000000000000
 40
0.000000000000000
 40
0.000000000000000
 40
0.000000000000000
 40
0.000000000000000
 40
1.000000000000000
 40
1.000000000000000
 40
1.000000000000000
 40
1.000000000000000
 10
67.85896955186325
 20
88.27352780257407
 30
0.000000000000000
 10
68.09885844075217
 20
88.79563891368515
 30
0.000000000000000
 10
67.93375844075211
 20
89.41511669146296
 30
0.000000000000000
 10
67.46597510741879
 20
89.74919724701847
 30
0.000000000000000
  0
SPLINE
  5
A8
100
AcDbEntity
  8
A2
  6
CONTINUOUS
 62
4
100
AcDbSpline
210
0.000000000000000
220
0.000000000000000
230
1.000000000000000
 70
     8
 71
     3
 72
     8
 73
     4
 74
     0
 42
1.000000000000000e-07
 43
1.000000000000000e-07
 12
0.02963333333315177
 22
0.02116666666648825
 32
0.000000000000000
 13
0.02857499999998936
 23
0.02222499999993488
 33
0.000000000000000
 40
0.000000000000000
 40
0.000000000000000
 40
0.000000000000000
 40
0.000000000000000
 40
1.000000000000000
 40
1.000000000000000
 40
1.000000000000000
 40
1.000000000000000
 10
67.32063066297439
 20
88.00135974701855
 30
0.000000000000000
 10
67.33050844075211
 20
88.00841530257405
 30
0.000000000000000
 10
67.34109177408550
 20
88.01617641368527
 30
0.000000000000000
 10
67.35061677408549
 20
88.02358474701857
 30
0.000000000000000
  0
LINE
  5
A9
100
AcDbEntity
  8
A2
  6
CONTINUOUS
 62
4
100
AcDbLine
 10
67.35061677408549
 20
88.02358474701857
 30
0.000000000000000
 11
67.70445288519659
 21
88.02358474701857
 31
0.000000000000000
  0
SPLINE
  5
AA
100
AcDbEntity
  8
A2
  6
CONTINUOUS
 62
4
100
AcDbSpline
210
0.000000000000000
220
0.000000000000000
230
1.000000000000000
 70
     8
 71
     3
 72
     8
 73
     4
 74
     0
 42
1.000000000000000e-07
 43
1.000000000000000e-07
 12
-0.2063749999999231
 22
-0.2582333333334077
 32
0.000000000000000
 13
-0.2688166666667371
 23
-0.1915583333333188
 33
0.000000000000000
 40
0.000000000000000
 40
0.000000000000000
 40
0.000000000000000
 40
0.000000000000000
 40
1.000000000000000
 40
1.000000000000000
 40
1.000000000000000
 40
1.000000000000000
 10
67.70445288519659
 20
88.02358474701857
 30
0.000000000000000
 10
67.63566121852995
 20
87.93750696924077
 30
0.000000000000000
 10
67.55558066297436
 20
87.86165974701855
 30
0.000000000000000
 10
67.46597510741879
 20
87.79780696924077
 30
0.000000000000000
  0
SPLINE
  5
AB
100
AcDbEntity
  8
A2
  6
CONTINUOUS
 62
4
100
AcDbSpline
210
0.000000000000000
220
0.000000000000000
230
1.000000000000000
 70
     8
 71
     3
 72
     8
 73
     4
 74
     0
 42
1.000000000000000e-07
 43
1.000000000000000e-07
 12
-5.739341666666576
 22
-4.096808333333456
 32
0.000000000000000
 13
-5.738283333333413
 23
4.097866666666846
 33
0.000000000000000
 40
0.000000000000000
 40
0.000000000000000
 40
0.000000000000000
 40
0.000000000000000
 40
1.000000000000000
 40
1.000000000000000
 40
1.000000000000000
 40
1.000000000000000
 10
67.46597510741879
 20
87.79780696924077
 30
0.000000000000000
 10
65.55286121852993
 20
86.43220419146296
 30
0.000000000000000
 10
62.98322788519658
 20
86.43185141368515
 30
0.000000000000000
 10
61.07046677408544
 20
87.79780696924077
 30
0.000000000000000
  0
SPLINE
  5
AC
100
AcDbEntity
  8
A2
  6
CONTINUOUS
 62
4
100
AcDbSpline
210
0.000000000000000
220
0.000000000000000
230
1.000000000000000
 70
     8
 71
     3
 72
     8
 73
     4
 74
     0
 42
1.000000000000000e-07
 43
1.000000000000000e-07
 12
-0.9450916666666558
 22
0.6752166666665858
 32
0.000000000000000
 13
0.000000000000000
 23
1.160991666666632
 33
0.000000000000000
 40
0.000000000000000
 40
0.000000000000000
 40
0.000000000000000
 40
0.000000000000000
 40
1.000000000000000
 40
1.000000000000000
 40
1.000000000000000
 40
1.000000000000000
 10
61.07046677408544
 20
87.79780696924077
 30
0.000000000000000
 10
60.75543621852989
 20
88.02287919146296
 30
0.000000000000000
 10
60.56846399630768
 20
88.38624030257405
 30
0.000000000000000
 10
60.56846399630768
 20
88.77323752479627
 30
0.000000000000000
  0
LINE
  5
AD
100
AcDbEntity
  8
A2
  6
CONTINUOUS
 62
4
100
AcDbLine
 10
60.56846399630768
 20
88.77323752479627
 30
0.000000000000000
 11
60.81858344075214
 21
88.77323752479627
 31
0.000000000000000
  0
SPLINE
  5
AE
100
AcDbEntity
  8
A2
  6
CONTINUOUS
 62
4
100
AcDbSpline
210
0.000000000000000
220
0.000000000000000
230
1.000000000000000
 70
     8
 71
     3
 72
     8
 73
     4
 74
     0
 42
1.000000000000000e-07
 43
1.000000000000000e-07
 12
0.000000000000000
 22
-0.9186333333329912
 32
0.000000000000000
 13
0.7482416666665586
 23
-0.5334000000000856
 33
0.000000000000000
 40
0.000000000000000
 40
0.000000000000000
 40
0.000000000000000
 40
0.000000000000000
 40
1.000000000000000
 40
1.000000000000000
 40
1.000000000000000
 40
1.000000000000000
 10
60.81858344075214
 20
88.77323752479627
 30
0.000000000000000
 10
60.81858344075214
 20
88.46702641368528
 30
0.000000000000000
 10
60.96639732964103
 20
88.17915974701857
 30
0.000000000000000
 10
61.21581121852989
 20
88.00135974701855
 30
0.000000000000000
  0
SPLINE
  5
AF
100
AcDbEntity
  8
A2
  6
CONTINUOUS
 62
4
100
AcDbSpline
210
0.000000000000000
220
0.000000000000000
230
1.000000000000000
 70
     8
 71
     3
 72
     8
 73
     4
 74
     0
 42
1.000000000000000e-07
 43
1.000000000000000e-07
 12
5.477933333333340
 22
-3.911600000000078
 32
0.000000000000000
 13
5.477933333333340
 23
3.911600000000078
 33
0.000000000000000
 40
0.000000000000000
 40
0.000000000000000
 40
0.000000000000000
 40
0.000000000000000
 40
1.000000000000000
 40
1.000000000000000
 40
1.000000000000000
 40
1.000000000000000
 10
61.21581121852989
 20
88.00135974701855
 30
0.000000000000000
 10
63.04178899630767
 20
86.69749308035186
 30
0.000000000000000
 10
65.49465288519661
 20
86.69749308035186
 30
0.000000000000000
 10
67.32063066297439
 20
88.00135974701855
 30
0.000000000000000
  0
SPLINE
  5
B0
100
AcDbEntity
  8
A2
  6
CONTINUOUS
 62
4
100
AcDbSpline
210
0.000000000000000
220
0.000000000000000
230
1.000000000000000
 70
     8
 71
     3
 72
     8
 73
     4
 74
     0
 42
1.000000000000000e-07
 43
1.000000000000000e-07
 12
0.1608666666667773
 22
-0.04550833333325954
 32
0.000000000000000
 13
0.2148416666667572
 23
-0.04868333333342889
 33
0.000000000000000
 40
0.000000000000000
 40
0.000000000000000
 40
0.000000000000000
 40
0.000000000000000
 40
1.000000000000000
 40
1.000000000000000
 40
1.000000000000000
 40
1.000000000000000
 10
62.93468566297434
 20
87.36833530257407
 30
0.000000000000000
 10
62.98830788519660
 20
87.35316585812966
 30
0.000000000000000
 10
63.07614955186323
 20
87.33129363590747
 30
0.000000000000000
 10
63.14776344075215
 20
87.31506585812967
 30
0.000000000000000
  0
SPLINE
  5
B1
100
AcDbEntity
  8
A2
  6
CONTINUOUS
 62
4
100
AcDbSpline
210
0.000000000000000
220
0.000000000000000
230
1.000000000000000
 70
     8
 71
     3
 72
     8
 73
     4
 74
     0
 42
1.000000000000000e-07
 43
1.000000000000000e-07
 12
0.2698749999998995
 22
-0.06032499999986385
 32
0.000000000000000
 13
0.06032499999997754
 23
0.2688166666668508
 33
0.000000000000000
 40
0.000000000000000
 40
0.000000000000000
 40
0.000000000000000
 40
0.000000000000000
 40
1.000000000000000
 40
1.000000000000000
 40
1.000000000000000
 40
1.000000000000000
 10
63.14776344075215
 20
87.31506585812967
 30
0.000000000000000
 10
63.23772177408545
 20
87.29495752479637
 30
0.000000000000000
 10
63.32697455186325
 20
87.35140196924077
 30
0.000000000000000
 10
63.34708288519658
 20
87.44100752479638
 30
0.000000000000000
  0
SPLINE
  5
B2
100
AcDbEntity
  8
A2
  6
CONTINUOUS
 62
4
100
AcDbSpline
210
0.000000000000000
220
0.000000000000000
230
1.000000000000000
 70
     8
 71
     3
 72
     8
 73
     4
 74
     0
 42
1.000000000000000e-07
 43
1.000000000000000e-07
 12
0.008466666666663514
 22
0.03598333333314940
 32
0.000000000000000
 13
0.000000000000000
 23
0.03704166666653919
 33
0.000000000000000
 40
0.000000000000000
 40
0.000000000000000
 40
0.000000000000000
 40
0.000000000000000
 40
1.000000000000000
 40
1.000000000000000
 40
1.000000000000000
 40
1.000000000000000
 10
63.34708288519658
 20
87.44100752479638
 30
0.000000000000000
 10
63.34990510741880
 20
87.45300196924076
 30
0.000000000000000
 10
63.35131621852991
 20
87.46534919146298
 30
0.000000000000000
 10
63.35131621852991
 20
87.47769641368517
 30
0.000000000000000
  0
LINE
  5
B3
100
AcDbEntity
  8
A2
  6
CONTINUOUS
 62
4
100
AcDbLine
 10
63.35131621852991
 20
87.47769641368517
 30
0.000000000000000
 11
63.35131621852991
 21
88.27321030257407
 31
0.000000000000000
  0
LINE
  5
B4
100
AcDbEntity
  8
A2
  6
CONTINUOUS
 62
4
100
AcDbLine
 10
63.35131621852991
 20
88.27321030257407
 30
0.000000000000000
 11
63.10119677408544
 21
88.27321030257407
 31
0.000000000000000
  0
LINE
  5
B5
100
AcDbEntity
  8
A2
  6
CONTINUOUS
 62
4
100
AcDbLine
 10
63.10119677408544
 20
88.27321030257407
 30
0.000000000000000
 11
63.10119677408544
 21
87.58317696924077
 31
0.000000000000000
  0
SPLINE
  5
B6
100
AcDbEntity
  8
A2
  6
CONTINUOUS
 62
4
100
AcDbSpline
210
0.000000000000000
220
0.000000000000000
230
1.000000000000000
 70
     8
 71
     3
 72
     8
 73
     4
 74
     0
 42
1.000000000000000e-07
 43
1.000000000000000e-07
 12
-0.1682749999999373
 22
0.04127499999987094
 32
0.000000000000000
 13
-0.1651000000001090
 23
0.04762499999998226
 33
0.000000000000000
 40
0.000000000000000
 40
0.000000000000000
 40
0.000000000000000
 40
0.000000000000000
 40
1.000000000000000
 40
1.000000000000000
 40
1.000000000000000
 40
1.000000000000000
 10
63.10119677408544
 20
87.58317696924077
 30
0.000000000000000
 10
63.04510510741880
 20
87.59693530257407
 30
0.000000000000000
 10
62.98971899630771
 20
87.61175196924076
 30
0.000000000000000
 10
62.93468566297434
 20
87.62762696924075
 30
0.000000000000000
  0
LINE
  5
B7
100
AcDbEntity
  8
A2
  6
CONTINUOUS
 62
4
100
AcDbLine
 10
62.93468566297434
 20
87.62762696924075
 30
0.000000000000000
 11
62.93468566297434
 21
89.91927141368517
 31
0.000000000000000
  0
SPLINE
  5
B8
100
AcDbEntity
  8
A2
  6
CONTINUOUS
 62
4
100
AcDbSpline
210
0.000000000000000
220
0.000000000000000
230
1.000000000000000
 70
     8
 71
     3
 72
     8
 73
     4
 74
     0
 42
1.000000000000000e-07
 43
1.000000000000000e-07
 12
0.1651000000001090
 22
0.04656666666659248
 32
0.000000000000000
 13
0.1682749999999373
 23
0.04127499999987094
 33
0.000000000000000
 40
0.000000000000000
 40
0.000000000000000
 40
0.000000000000000
 40
0.000000000000000
 40
1.000000000000000
 40
1.000000000000000
 40
1.000000000000000
 40
1.000000000000000
 10
62.93468566297434
 20
89.91927141368517
 30
0.000000000000000
 10
62.98971899630771
 20
89.93479363590735
 30
0.000000000000000
 10
63.04510510741880
 20
89.94996308035185
 30
0.000000000000000
 10
63.10119677408544
 20
89.96372141368515
 30
0.000000000000000
  0
LINE
  5
B9
100
AcDbEntity
  8
A2
  6
CONTINUOUS
 62
4
100
AcDbLine
 10
63.10119677408544
 20
89.96372141368515
 30
0.000000000000000
 11
63.10119677408544
 21
89.27333530257407
 31
0.000000000000000
  0
LINE
  5
BA
100
AcDbEntity
  8
A2
  6
CONTINUOUS
 62
4
100
AcDbLine
 10
63.10119677408544
 20
89.27333530257407
 30
0.000000000000000
 11
63.35131621852991
 21
89.27333530257407
 31
0.000000000000000
  0
LINE
  5
BB
100
AcDbEntity
  8
A2
  6
CONTINUOUS
 62
4
100
AcDbLine
 10
63.35131621852991
 20
89.27333530257407
 30
0.000000000000000
 11
63.35131621852991
 21
90.06920196924075
 31
0.000000000000000
  0
SPLINE
  5
BC
100
AcDbEntity
  8
A2
  6
CONTINUOUS
 62
4
100
AcDbSpline
210
0.000000000000000
220
0.000000000000000
230
1.000000000000000
 70
     8
 71
     3
 72
     8
 73
     4
 74
     0
 42
1.000000000000000e-07
 43
1.000000000000000e-07
 12
0.000000000000000
 22
0.2762250000000677
 32
0.000000000000000
 13
-0.2762250000000677
 23
0.000000000000000
 33
0.000000000000000
 40
0.000000000000000
 40
0.000000000000000
 40
0.000000000000000
 40
0.000000000000000
 40
1.000000000000000
 40
1.000000000000000
 40
1.000000000000000
 40
1.000000000000000
 10
63.35131621852991
 20
90.06920196924075
 30
0.000000000000000
 10
63.35131621852991
 20
90.16127696924077
 30
0.000000000000000
 10
63.27652732964105
 20
90.23571308035186
 30
0.000000000000000
 10
63.18445232964103
 20
90.23571308035186
 30
0.000000000000000
  0
SPLINE
  5
BD
100
AcDbEntity
  8
A2
  6
CONTINUOUS
 62
4
100
AcDbSpline
210
0.000000000000000
220
0.000000000000000
230
1.000000000000000
 70
     8
 71
     3
 72
     8
 73
     4
 74
     0
 42
1.000000000000000e-07
 43
1.000000000000000e-07
 12
-0.03598333333331993
 22
0.000000000000000
 32
0.000000000000000
 13
-0.03704166666665287
 23
-0.008466666666834044
 33
0.000000000000000
 40
0.000000000000000
 40
0.000000000000000
 40
0.000000000000000
 40
0.000000000000000
 40
1.000000000000000
 40
1.000000000000000
 40
1.000000000000000
 40
1.000000000000000
 10
63.18445232964103
 20
90.23571308035186
 30
0.000000000000000
 10
63.17245788519659
 20
90.23571308035186
 30
0.000000000000000
 10
63.16011066297437
 20
90.23465474701855
 30
0.000000000000000
 10
63.14776344075215
 20
90.23183252479627
 30
0.000000000000000
  0
SPLINE
  5
BE
100
AcDbEntity
  8
A2
  6
CONTINUOUS
 62
4
100
AcDbSpline
210
0.000000000000000
220
0.000000000000000
230
1.000000000000000
 70
     8
 71
     3
 72
     8
 73
     4
 74
     0
 42
1.000000000000000e-07
 43
1.000000000000000e-07
 12
-0.04550833333331639
 22
-0.009524999999996453
 32
0.000000000000000
 13
-0.04762500000015280
 23
-0.01164166666677602
 33
0.000000000000000
 40
0.000000000000000
 40
0.000000000000000
 40
0.000000000000000
 40
0.000000000000000
 40
1.000000000000000
 40
1.000000000000000
 40
1.000000000000000
 40
1.000000000000000
 10
63.14776344075215
 20
90.23183252479627
 30
0.000000000000000
 10
63.13259399630771
 20
90.22865752479628
 30
0.000000000000000
 10
63.11707177408550
 20
90.22477696924075
 30
0.000000000000000
 10
63.10119677408544
 20
90.22089641368517
 30
0.000000000000000
  0
SPLINE
  5
BF
100
AcDbEntity
  8
A2
  6
CONTINUOUS
 62
4
100
AcDbSpline
210
0.000000000000000
220
0.000000000000000
230
1.000000000000000
 70
     8
 71
     3
 72
     8
 73
     4
 74
     0
 42
1.000000000000000e-07
 43
1.000000000000000e-07
 12
-0.1703916666666032
 22
-0.04021666666648116
 32
0.000000000000000
 13
-0.1714500000001067
 23
-0.04656666666659248
 33
0.000000000000000
 40
0.000000000000000
 40
0.000000000000000
 40
0.000000000000000
 40
0.000000000000000
 40
1.000000000000000
 40
1.000000000000000
 40
1.000000000000000
 40
1.000000000000000
 10
63.10119677408544
 20
90.22089641368517
 30
0.000000000000000
 10
63.04439955186324
 20
90.20749085812967
 30
0.000000000000000
 10
62.98689677408549
 20
90.19302696924076
 30
0.000000000000000
 10
62.92974677408545
 20
90.17750474701857
 30
0.000000000000000
  0
SPLINE
  5
C0
100
AcDbEntity
  8
A2
  6
CONTINUOUS
 62
4
100
AcDbSpline
210
0.000000000000000
220
0.000000000000000
230
1.000000000000000
 70
     8
 71
     3
 72
     8
 73
     4
 74
     0
 42
1.000000000000000e-07
 43
1.000000000000000e-07
 12
-0.4339166666666756
 22
-0.1185333333333460
 32
0.000000000000000
 13
0.000000000000000
 23
-0.4508499999999458
 33
0.000000000000000
 40
0.000000000000000
 40
0.000000000000000
 40
0.000000000000000
 40
0.000000000000000
 40
1.000000000000000
 40
1.000000000000000
 40
1.000000000000000
 40
1.000000000000000
 10
62.92974677408545
 20
90.17750474701857
 30
0.000000000000000
 10
62.78510788519656
 20
90.13799363590745
 30
0.000000000000000
 10
62.68456621852993
 20
90.00640752479627
 30
0.000000000000000
 10
62.68456621852993
 20
89.85612419146297
 30
0.000000000000000
  0
LINE
  5
C1
100
AcDbEntity
  8
A2
  6
CONTINUOUS
 62
4
100
AcDbLine
 10
62.68456621852993
 20
89.85612419146297
 30
0.000000000000000
 11
62.68456621852993
 21
87.69112696924076
 31
0.000000000000000
  0
SPLINE
  5
C2
100
AcDbEntity
  8
A2
  6
CONTINUOUS
 62
4
100
AcDbSpline
210
0.000000000000000
220
0.000000000000000
230
1.000000000000000
 70
     8
 71
     3
 72
     8
 73
     4
 74
     0
 42
1.000000000000000e-07
 43
1.000000000000000e-07
 12
0.000000000000000
 22
-0.4508499999998890
 32
0.000000000000000
 13
0.4339166666666756
 23
-0.1185333333332892
 33
0.000000000000000
 40
0.000000000000000
 40
0.000000000000000
 40
0.000000000000000
 40
0.000000000000000
 40
1.000000000000000
 40
1.000000000000000
 40
1.000000000000000
 40
1.000000000000000
 10
62.68456621852993
 20
87.69112696924076
 30
0.000000000000000
 10
62.68456621852993
 20
87.54084363590745
 30
0.000000000000000
 10
62.78510788519656
 20
87.40890474701855
 30
0.000000000000000
 10
62.92974677408545
 20
87.36939363590746
 30
0.000000000000000
  0
SPLINE
  5
C3
100
AcDbEntity
  8
A2
  6
CONTINUOUS
 62
4
100
AcDbSpline
210
0.000000000000000
220
0.000000000000000
230
1.000000000000000
 70
     8
 71
     3
 72
     8
 73
     4
 74
     0
 42
1.000000000000000e-07
 43
1.000000000000000e-07
 12
-0.2021416666665914
 22
0.03598333333349046
 32
0.000000000000000
 13
-0.2031999999999243
 23
0.02857499999998936
 33
0.000000000000000
 40
0.000000000000000
 40
0.000000000000000
 40
0.000000000000000
 40
0.000000000000000
 40
1.000000000000000
 40
1.000000000000000
 40
1.000000000000000
 40
1.000000000000000
 10
65.16057232964101
 20
90.27787002479626
 30
0.000000000000000
 10
65.09319177408548
 20
90.28986446924075
 30
0.000000000000000
 10
65.02545844075212
 20
90.30044780257406
 30
0.000000000000000
 10
64.95772510741881
 20
90.30997280257405
 30
0.000000000000000
  0
SPLINE
  5
C4
100
AcDbEntity
  8
A2
  6
CONTINUOUS
 62
4
100
AcDbSpline
210
0.000000000000000
220
0.000000000000000
230
1.000000000000000
 70
     8
 71
     3
 72
     8
 73
     4
 74
     0
 42
1.000000000000000e-07
 43
1.000000000000000e-07
 12
-0.2730500000000688
 22
0.03704166666665287
 32
0.000000000000000
 13
-0.03809999999998581
 23
-0.2730500000001257
 33
0.000000000000000
 40
0.000000000000000
 40
0.000000000000000
 40
0.000000000000000
 40
0.000000000000000
 40
1.000000000000000
 40
1.000000000000000
 40
1.000000000000000
 40
1.000000000000000
 10
64.95772510741881
 20
90.30997280257405
 30
0.000000000000000
 10
64.86670844075212
 20
90.32232002479627
 30
0.000000000000000
 10
64.78274732964104
 20
90.25846724701857
 30
0.000000000000000
 10
64.77004732964105
 20
90.16745058035185
 30
0.000000000000000
  0
SPLINE
  5
C5
100
AcDbEntity
  8
A2
  6
CONTINUOUS
 62
4
100
AcDbSpline
210
0.000000000000000
220
0.000000000000000
230
1.000000000000000
 70
     8
 71
     3
 72
     8
 73
     4
 74
     0
 42
1.000000000000000e-07
 43
1.000000000000000e-07
 12
-0.003174999999998818
 22
-0.02328333333326782
 32
0.000000000000000
 13
0.000000000000000
 23
-0.02222499999993488
 33
0.000000000000000
 40
0.000000000000000
 40
0.000000000000000
 40
0.000000000000000
 40
0.000000000000000
 40
1.000000000000000
 40
1.000000000000000
 40
1.000000000000000
 40
1.000000000000000
 10
64.77004732964105
 20
90.16745058035185
 30
0.000000000000000
 10
64.76898899630771
 20
90.15968946924077
 30
0.000000000000000
 10
64.76863621852993
 20
90.15228113590736
 30
0.000000000000000
 10
64.76863621852993
 20
90.14487280257406
 30
0.000000000000000
  0
LINE
  5
C6
100
AcDbEntity
  8
A2
  6
CONTINUOUS
 62
4
100
AcDbLine
 10
64.76863621852993
 20
90.14487280257406
 30
0.000000000000000
 11
64.76863621852993
 21
87.40237835812967
 31
0.000000000000000
  0
SPLINE
  5
C7
100
AcDbEntity
  8
A2
  6
CONTINUOUS
 62
4
100
AcDbSpline
210
0.000000000000000
220
0.000000000000000
230
1.000000000000000
 70
     8
 71
     3
 72
     8
 73
     4
 74
     0
 42
1.000000000000000e-07
 43
1.000000000000000e-07
 12
0.000000000000000
 22
-0.2762249999999540
 32
0.000000000000000
 13
0.2751666666667347
 23
0.000000000000000
 33
0.000000000000000
 40
0.000000000000000
 40
0.000000000000000
 40
0.000000000000000
 40
0.000000000000000
 40
1.000000000000000
 40
1.000000000000000
 40
1.000000000000000
 40
1.000000000000000
 10
64.76863621852993
 20
87.40237835812967
 30
0.000000000000000
 10
64.76863621852993
 20
87.31030335812967
 30
0.000000000000000
 10
64.84342510741880
 20
87.23551446924075
 30
0.000000000000000
 10
64.93514732964104
 20
87.23551446924075
 30
0.000000000000000
  0
SPLINE
  5
C8
100
AcDbEntity
  8
A2
  6
CONTINUOUS
 62
4
100
AcDbSpline
210
0.000000000000000
220
0.000000000000000
230
1.000000000000000
 70
     8
 71
     3
 72
     8
 73
     4
 74
     0
 42
1.000000000000000e-07
 43
1.000000000000000e-07
 12
0.02222499999999172
 22
0.000000000000000
 32
0.000000000000000
 13
0.02222499999999172
 23
0.003175000000169348
 33
0.000000000000000
 40
0.000000000000000
 40
0.000000000000000
 40
0.000000000000000
 40
0.000000000000000
 40
1.000000000000000
 40
1.000000000000000
 40
1.000000000000000
 40
1.000000000000000
 10
64.93514732964104
 20
87.23551446924075
 30
0.000000000000000
 10
64.94255566297437
 20
87.23551446924075
 30
0.000000000000000
 10
64.95031677408548
 20
87.23586724701848
 30
0.000000000000000
 10
64.95772510741881
 20
87.23692558035187
 30
0.000000000000000
  0
SPLINE
  5
C9
100
AcDbEntity
  8
A2
  6
CONTINUOUS
 62
4
100
AcDbSpline
210
0.000000000000000
220
0.000000000000000
230
1.000000000000000
 70
     8
 71
     3
 72
     8
 73
     4
 74
     0
 42
1.000000000000000e-07
 43
1.000000000000000e-07
 12
0.2031999999999243
 22
0.02857499999998936
 32
0.000000000000000
 13
0.2021416666665914
 23
0.03598333333349046
 33
0.000000000000000
 40
0.000000000000000
 40
0.000000000000000
 40
0.000000000000000
 40
0.000000000000000
 40
1.000000000000002
 40
1.000000000000002
 40
1.000000000000002
 40
1.000000000000002
 10
64.95772510741881
 20
87.23692558035187
 30
0.000000000000000
 10
65.02545844075212
 20
87.24645058035186
 30
0.000000000000000
 10
65.09319177408548
 20
87.25703391368516
 30
0.000000000000000
 10
65.16057232964101
 20
87.26902835812966
 30
0.000000000000000
  0
SPLINE
  5
CA
100
AcDbEntity
  8
A2
  6
CONTINUOUS
 62
4
100
AcDbSpline
210
0.000000000000000
220
0.000000000000000
230
1.000000000000000
 70
     8
 71
     3
 72
     8
 73
     4
 74
     0
 42
1.000000000000000e-07
 43
1.000000000000000e-07
 12
0.4762499999999932
 22
0.08572499999996808
 32
0.000000000000000
 13
0.000000000000000
 23
0.4847166666665998
 33
0.000000000000000
 40
0.000000000000000
 40
0.000000000000000
 40
0.000000000000000
 40
0.000000000000000
 40
1.000000000000000
 40
1.000000000000000
 40
1.000000000000000
 40
1.000000000000000
 10
65.16057232964101
 20
87.26902835812966
 30
0.000000000000000
 10
65.31932232964101
 20
87.29760335812965
 30
0.000000000000000
 10
65.43538621852991
 20
87.43553946924077
 30
0.000000000000000
 10
65.43538621852991
 20
87.59711169146296
 30
0.000000000000000
  0
LINE
  5
CB
100
AcDbEntity
  8
A2
  6
CONTINUOUS
 62
4
100
AcDbLine
 10
65.43538621852991
 20
87.59711169146296
 30
0.000000000000000
 11
65.43538621852991
 21
88.89815613590746
 31
0.000000000000000
  0
LINE
  5
CC
100
AcDbEntity
  8
A2
  6
CONTINUOUS
 62
4
100
AcDbLine
 10
65.43538621852991
 20
88.89815613590746
 30
0.000000000000000
 11
65.10165844075215
 21
88.89815613590746
 31
0.000000000000000
  0
LINE
  5
CD
100
AcDbEntity
  8
A2
  6
CONTINUOUS
 62
4
100
AcDbLine
 10
65.10165844075215
 20
88.89815613590746
 30
0.000000000000000
 11
65.10165844075215
 21
88.64838946924066
 31
0.000000000000000
  0
LINE
  5
CE
100
AcDbEntity
  8
A2
  6
CONTINUOUS
 62
4
100
AcDbLine
 10
65.10165844075215
 20
88.64838946924066
 30
0.000000000000000
 11
65.18491399630767
 21
88.64838946924066
 31
0.000000000000000
  0
LINE
  5
CF
100
AcDbEntity
  8
A2
  6
CONTINUOUS
 62
4
100
AcDbLine
 10
65.18491399630767
 20
88.64838946924066
 30
0.000000000000000
 11
65.18491399630767
 21
87.52796724701857
 31
0.000000000000000
  0
SPLINE
  5
D0
100
AcDbEntity
  8
A2
  6
CONTINUOUS
 62
4
100
AcDbSpline
210
0.000000000000000
220
0.000000000000000
230
1.000000000000000
 70
     8
 71
     3
 72
     8
 73
     4
 74
     0
 42
1.000000000000000e-07
 43
1.000000000000000e-07
 12
-0.1661583333332715
 22
-0.03175000000021555
 32
0.000000000000000
 13
-0.1661583333332715
 23
-0.02539999999982001
 33
0.000000000000000
 40
0.000000000000000
 40
0.000000000000000
 40
0.000000000000000
 40
0.000000000000000
 40
1.000000000000000
 40
1.000000000000000
 40
1.000000000000000
 40
1.000000000000000
 10
65.18491399630767
 20
87.52796724701857
 30
0.000000000000000
 10
65.12952788519658
 20
87.51738391368515
 30
0.000000000000000
 10
65.07414177408549
 20
87.50715335812957
 30
0.000000000000000
 10
65.01875566297440
 20
87.49868669146296
 30
0.000000000000000
  0
LINE
  5
D1
100
AcDbEntity
  8
A2
  6
CONTINUOUS
 62
4
100
AcDbLine
 10
65.01875566297440
 20
87.49868669146296
 30
0.000000000000000
 11
65.01875566297440
 21
90.04856446924076
 31
0.000000000000000
  0
SPLINE
  5
D2
100
AcDbEntity
  8
A2
  6
CONTINUOUS
 62
4
100
AcDbSpline
210
0.000000000000000
220
0.000000000000000
230
1.000000000000000
 70
     8
 71
     3
 72
     8
 73
     4
 74
     0
 42
1.000000000000000e-07
 43
1.000000000000000e-07
 12
0.1661583333332715
 22
-0.02751666666688379
 32
0.000000000000000
 13
0.1661583333332715
 23
-0.03069166666682577
 33
0.000000000000000
 40
0.000000000000000
 40
0.000000000000000
 40
0.000000000000000
 40
0.000000000000000
 40
1.000000000000000
 40
1.000000000000000
 40
1.000000000000000
 40
1.000000000000000
 10
65.01875566297440
 20
90.04856446924076
 30
0.000000000000000
 10
65.07414177408549
 20
90.03939224701845
 30
0.000000000000000
 10
65.12952788519658
 20
90.02951446924077
 30
0.000000000000000
 10
65.18491399630767
 20
90.01928391368516
 30
0.000000000000000
  0
LINE
  5
D3
100
AcDbEntity
  8
A2
  6
CONTINUOUS
 62
4
100
AcDbLine
 10
65.18491399630767
 20
90.01928391368516
 30
0.000000000000000
 11
65.18491399630767
 21
89.27351169146296
 31
0.000000000000000
  0
LINE
  5
D4
100
AcDbEntity
  8
A2
  6
CONTINUOUS
 62
4
100
AcDbLine
 10
65.18491399630767
 20
89.27351169146296
 30
0.000000000000000
 11
65.43538621852991
 21
89.27351169146296
 31
0.000000000000000
  0
LINE
  5
D5
100
AcDbEntity
  8
A2
  6
CONTINUOUS
 62
4
100
AcDbLine
 10
65.43538621852991
 20
89.27351169146296
 30
0.000000000000000
 11
65.43538621852991
 21
89.94978669146296
 31
0.000000000000000
  0
SPLINE
  5
D6
100
AcDbEntity
  8
A2
  6
CONTINUOUS
 62
4
100
AcDbSpline
210
0.000000000000000
220
0.000000000000000
230
1.000000000000000
 70
     8
 71
     3
 72
     8
 73
     4
 74
     0
 42
1.000000000000000e-07
 43
1.000000000000000e-07
 12
0.000000000000000
 22
0.4847166666665998
 32
0.000000000000000
 13
-0.4762499999999932
 23
0.08466666666657829
 33
0.000000000000000
 40
0.000000000000000
 40
0.000000000000000
 40
0.000000000000000
 40
0.000000000000000
 40
1.000000000000000
 40
1.000000000000000
 40
1.000000000000000
 40
1.000000000000000
 10
65.43538621852991
 20
89.94978669146296
 30
0.000000000000000
 10
65.43538621852991
 20
90.11135891368515
 30
0.000000000000000
 10
65.31932232964101
 20
90.24964780257407
 30
0.000000000000000
 10
65.16057232964101
 20
90.27787002479626
 30
0.000000000000000
  0
SPLINE
  5
D7
100
AcDbEntity
  8
A2
  6
CONTINUOUS
 62
4
100
AcDbSpline
210
0.000000000000000
220
0.000000000000000
230
1.000000000000000
 70
     8
 71
     3
 72
     8
 73
     4
 74
     0
 42
1.000000000000000e-07
 43
1.000000000000000e-07
 12
-0.1682750000001079
 22
0.07725833333336141
 32
0.000000000000000
 13
-0.1661583333334420
 23
0.08254999999979873
 33
0.000000000000000
 40
0.000000000000000
 40
0.000000000000000
 40
0.000000000000000
 40
0.000000000000000
 40
1.000000000000000
 40
1.000000000000000
 40
1.000000000000000
 40
1.000000000000000
 10
62.26772399630772
 20
87.87305446924076
 30
0.000000000000000
 10
62.21163232964101
 20
87.89880724701855
 30
0.000000000000000
 10
62.15624621852992
 20
87.92561835812965
 30
0.000000000000000
 10
62.10086010741878
 20
87.95313502479625
 30
0.000000000000000
  0
LINE
  5
D8
100
AcDbEntity
  8
A2
  6
CONTINUOUS
 62
4
100
AcDbLine
 10
62.10086010741878
 20
87.95313502479625
 30
0.000000000000000
 11
62.10086010741878
 21
89.59425724701858
 31
0.000000000000000
  0
SPLINE
  5
D9
100
AcDbEntity
  8
A2
  6
CONTINUOUS
 62
4
100
AcDbSpline
210
0.000000000000000
220
0.000000000000000
230
1.000000000000000
 70
     8
 71
     3
 72
     8
 73
     4
 74
     0
 42
1.000000000000000e-07
 43
1.000000000000000e-07
 12
0.1661583333334420
 22
0.08149166666663632
 32
0.000000000000000
 13
0.1682750000001079
 23
0.07620000000002847
 33
0.000000000000000
 40
0.000000000000000
 40
0.000000000000000
 40
0.000000000000000
 40
0.000000000000000
 40
1.000000000000000
 40
1.000000000000000
 40
1.000000000000000
 40
1.000000000000000
 10
62.10086010741878
 20
89.59425724701858
 30
0.000000000000000
 10
62.15624621852992
 20
89.62142113590745
 30
0.000000000000000
 10
62.21163232964101
 20
89.64823224701856
 30
0.000000000000000
 10
62.26772399630772
 20
89.67363224701857
 30
0.000000000000000
  0
LINE
  5
DA
100
AcDbEntity
  8
A2
  6
CONTINUOUS
 62
4
100
AcDbLine
 10
62.26772399630772
 20
89.67363224701857
 30
0.000000000000000
 11
62.26772399630772
 21
87.87305446924076
 31
0.000000000000000
  0
SPLINE
  5
DB
100
AcDbEntity
  8
A2
  6
CONTINUOUS
 62
4
100
AcDbSpline
210
0.000000000000000
220
0.000000000000000
230
1.000000000000000
 70
     8
 71
     3
 72
     8
 73
     4
 74
     0
 42
1.000000000000000e-07
 43
1.000000000000000e-07
 12
-0.06667499999997517
 22
0.000000000000000
 32
0.000000000000000
 13
-0.06032499999997754
 23
-0.02645833333315295
 33
0.000000000000000
 40
0.000000000000000
 40
0.000000000000000
 40
0.000000000000000
 40
0.000000000000000
 40
1.000000000000000
 40
1.000000000000000
 40
1.000000000000000
 40
1.000000000000000
 10
62.35097955186324
 20
89.96784891368516
 30
0.000000000000000
 10
62.32875455186325
 20
89.96784891368516
 30
0.000000000000000
 10
62.30652955186326
 20
89.96326280257405
 30
0.000000000000000
 10
62.28642121852993
 20
89.95444335812967
 30
0.000000000000000
  0
SPLINE
  5
DC
100
AcDbEntity
  8
A2
  6
CONTINUOUS
 62
4
100
AcDbSpline
210
0.000000000000000
220
0.000000000000000
230
1.000000000000000
 70
     8
 71
     3
 72
     8
 73
     4
 74
     0
 42
1.000000000000000e-07
 43
1.000000000000000e-07
 12
-0.2518833333334101
 22
-0.1058333333334076
 32
0.000000000000000
 13
-0.2434166666667466
 23
-0.1185333333332892
 33
0.000000000000000
 40
0.000000000000000
 40
0.000000000000000
 40
0.000000000000000
 40
0.000000000000000
 40
1.000000000000000
 40
1.000000000000000
 40
1.000000000000000
 40
1.000000000000000
 10
62.28642121852993
 20
89.95444335812967
 30
0.000000000000000
 10
62.20246010741879
 20
89.91916558035187
 30
0.000000000000000
 10
62.11955732964105
 20
89.88141835812966
 30
0.000000000000000
 10
62.03841844075213
 20
89.84190724701857
 30
0.000000000000000
  0
SPLINE
  5
DD
100
AcDbEntity
  8
A2
  6
CONTINUOUS
 62
4
100
AcDbSpline
210
0.000000000000000
220
0.000000000000000
230
1.000000000000000
 70
     8
 71
     3
 72
     8
 73
     4
 74
     0
 42
1.000000000000000e-07
 43
1.000000000000000e-07
 12
-0.3450166666667087
 22
-0.1693333333331566
 32
0.000000000000000
 13
0.000000000000000
 23
-0.3809999999999718
 33
0.000000000000000
 40
0.000000000000000
 40
0.000000000000000
 40
0.000000000000000
 40
0.000000000000000
 40
1.000000000000000
 40
1.000000000000000
 40
1.000000000000000
 40
1.000000000000000
 10
62.03841844075213
 20
89.84190724701857
 30
0.000000000000000
 10
61.92341288519656
 20
89.78546280257417
 30
0.000000000000000
 10
61.85074066297437
 20
89.66939891368516
 30
0.000000000000000
 10
61.85074066297437
 20
89.54239891368518
 30
0.000000000000000
  0
LINE
  5
DE
100
AcDbEntity
  8
A2
  6
CONTINUOUS
 62
4
100
AcDbLine
 10
61.85074066297437
 20
89.54239891368518
 30
0.000000000000000
 11
61.85074066297437
 21
88.00464058035188
 31
0.000000000000000
  0
SPLINE
  5
DF
100
AcDbEntity
  8
A2
  6
CONTINUOUS
 62
4
100
AcDbSpline
210
0.000000000000000
220
0.000000000000000
230
1.000000000000000
 70
     8
 71
     3
 72
     8
 73
     4
 74
     0
 42
1.000000000000000e-07
 43
1.000000000000000e-07
 12
0.000000000000000
 22
-0.3820583333334753
 32
0.000000000000000
 13
0.3450166666667087
 23
-0.1682749999997668
 33
0.000000000000000
 40
0.000000000000000
 40
0.000000000000000
 40
0.000000000000000
 40
0.000000000000000
 40
1.000000000000000
 40
1.000000000000000
 40
1.000000000000000
 40
1.000000000000000
 10
61.85074066297437
 20
88.00464058035188
 30
0.000000000000000
 10
61.85074066297437
 20
87.87728780257406
 30
0.000000000000000
 10
61.92341288519656
 20
87.76122391368516
 30
0.000000000000000
 10
62.03841844075213
 20
87.70513224701857
 30
0.000000000000000
  0
SPLINE
  5
E0
100
AcDbEntity
  8
A2
  6
CONTINUOUS
 62
4
100
AcDbSpline
210
0.000000000000000
220
0.000000000000000
230
1.000000000000000
 70
     8
 71
     3
 72
     8
 73
     4
 74
     0
 42
1.000000000000000e-07
 43
1.000000000000000e-07
 12
0.06138333333331047
 22
-0.03069166666682577
 32
0.000000000000000
 13
0.06244166666664341
 23
-0.02963333333343598
 33
0.000000000000000
 40
0.000000000000000
 40
0.000000000000000
 40
0.000000000000000
 40
0.000000000000000
 40
0.9999999999999964
 40
0.9999999999999964
 40
0.9999999999999964
 40
0.9999999999999964
 10
62.03841844075213
 20
87.70513224701857
 30
0.000000000000000
 10
62.05887955186324
 20
87.69490169146296
 30
0.000000000000000
 10
62.08004621852989
 20
87.68502391368516
 30
0.000000000000000
 10
62.10086010741878
 20
87.67514613590735
 30
0.000000000000000
  0
SPLINE
  5
E1
100
AcDbEntity
  8
A2
  6
CONTINUOUS
 62
4
100
AcDbSpline
210
0.000000000000000
220
0.000000000000000
230
1.000000000000000
 70
     8
 71
     3
 72
     8
 73
     4
 74
     0
 42
1.000000000000000e-07
 43
1.000000000000000e-07
 12
0.1830916666667690
 22
-0.08678333333301680
 32
0.000000000000000
 13
0.1873249999999302
 23
-0.08043333333330338
 33
0.000000000000000
 40
0.000000000000000
 40
0.000000000000000
 40
0.000000000000000
 40
0.000000000000000
 40
1.000000000000000
 40
1.000000000000000
 40
1.000000000000000
 40
1.000000000000000
 10
62.10086010741878
 20
87.67514613590735
 30
0.000000000000000
 10
62.16189066297436
 20
87.64621835812967
 30
0.000000000000000
 10
62.22397955186329
 20
87.61905446924077
 30
0.000000000000000
 10
62.28642121852993
 20
87.59224335812966
 30
0.000000000000000
  0
SPLINE
  5
E2
100
AcDbEntity
  8
A2
  6
CONTINUOUS
 62
4
100
AcDbSpline
210
0.000000000000000
220
0.000000000000000
230
1.000000000000000
 70
     8
 71
     3
 72
     8
 73
     4
 74
     0
 42
1.000000000000000e-07
 43
1.000000000000000e-07
 12
0.2539999999999054
 22
-0.1068916666667974
 32
0.000000000000000
 13
0.1068916666666269
 23
0.2539999999997349
 33
0.000000000000000
 40
0.000000000000000
 40
0.000000000000000
 40
0.000000000000000
 40
0.000000000000000
 40
1.000000000000000
 40
1.000000000000000
 40
1.000000000000000
 40
1.000000000000000
 10
62.28642121852993
 20
87.59224335812966
 30
0.000000000000000
 10
62.37108788519657
 20
87.55661280257407
 30
0.000000000000000
 10
62.46880732964103
 20
87.59612391368528
 30
0.000000000000000
 10
62.50443788519657
 20
87.68079058035185
 30
0.000000000000000
  0
SPLINE
  5
E3
100
AcDbEntity
  8
A2
  6
CONTINUOUS
 62
4
100
AcDbSpline
210
0.000000000000000
220
0.000000000000000
230
1.000000000000000
 70
     8
 71
     3
 72
     8
 73
     4
 74
     0
 42
1.000000000000000e-07
 43
1.000000000000000e-07
 12
0.02645833333332348
 22
0.06244166666675710
 32
0.000000000000000
 13
0.000000000000000
 23
0.06667500000003201
 33
0.000000000000000
 40
0.000000000000000
 40
0.000000000000000
 40
0.000000000000000
 40
0.000000000000000
 40
1.000000000000000
 40
1.000000000000000
 40
1.000000000000000
 40
1.000000000000000
 10
62.50443788519657
 20
87.68079058035185
 30
0.000000000000000
 10
62.51325732964101
 20
87.70160446924076
 30
0.000000000000000
 10
62.51749066297435
 20
87.72382946924075
 30
0.000000000000000
 10
62.51749066297435
 20
87.74605446924078
 30
0.000000000000000
  0
LINE
  5
E4
100
AcDbEntity
  8
A2
  6
CONTINUOUS
 62
4
100
AcDbLine
 10
62.51749066297435
 20
87.74605446924078
 30
0.000000000000000
 11
62.51749066297435
 21
89.80133780257405
 31
0.000000000000000
  0
SPLINE
  5
E5
100
AcDbEntity
  8
A2
  6
CONTINUOUS
 62
4
100
AcDbSpline
210
0.000000000000000
220
0.000000000000000
230
1.000000000000000
 70
     8
 71
     3
 72
     8
 73
     4
 74
     0
 42
1.000000000000000e-07
 43
1.000000000000000e-07
 12
0.000000000000000
 22
0.2762250000000677
 32
0.000000000000000
 13
-0.2762250000000677
 23
0.000000000000000
 33
0.000000000000000
 40
0.000000000000000
 40
0.000000000000000
 40
0.000000000000000
 40
0.000000000000000
 40
1.000000000000000
 40
1.000000000000000
 40
1.000000000000000
 40
1.000000000000000
 10
62.51749066297435
 20
89.80133780257405
 30
0.000000000000000
 10
62.51749066297435
 20
89.89341280257408
 30
0.000000000000000
 10
62.44305455186326
 20
89.96784891368516
 30
0.000000000000000
 10
62.35097955186324
 20
89.96784891368516
 30
0.000000000000000
  0
LINE
  5
E6
100
AcDbEntity
  8
A2
  6
CONTINUOUS
 62
4
100
AcDbLine
 10
63.76805260741883
 20
90.33230363590745
 30
0.000000000000000
 11
63.76805260741883
 21
88.89826196924075
 31
0.000000000000000
  0
LINE
  5
E7
100
AcDbEntity
  8
A2
  6
CONTINUOUS
 62
4
100
AcDbLine
 10
63.76805260741883
 20
88.89826196924075
 30
0.000000000000000
 11
63.93491649630771
 21
88.89826196924075
 31
0.000000000000000
  0
LINE
  5
E8
100
AcDbEntity
  8
A2
  6
CONTINUOUS
 62
4
100
AcDbLine
 10
63.93491649630771
 20
88.89826196924075
 30
0.000000000000000
 11
63.93491649630771
 21
90.34606196924075
 31
0.000000000000000
  0
SPLINE
  5
E9
100
AcDbEntity
  8
A2
  6
CONTINUOUS
 62
4
100
AcDbSpline
210
0.000000000000000
220
0.000000000000000
230
1.000000000000000
 70
     8
 71
     3
 72
     8
 73
     4
 74
     0
 42
1.000000000000000e-07
 43
1.000000000000000e-07
 12
0.2497666666666021
 22
0.01587500000016462
 32
0.000000000000000
 13
0.2508249999999066
 23
0.004233333333218070
 33
0.000000000000000
 40
0.000000000000000
 40
0.000000000000000
 40
0.000000000000000
 40
0.000000000000000
 40
1.000000000000000
 40
1.000000000000000
 40
1.000000000000000
 40
1.000000000000000
 10
63.93491649630771
 20
90.34606196924075
 30
0.000000000000000
 10
64.01817205186325
 20
90.35135363590747
 30
0.000000000000000
 10
64.10142760741883
 20
90.35452863590747
 30
0.000000000000000
 10
64.18503594075213
 20
90.35593974701855
 30
0.000000000000000
  0
LINE
  5
EA
100
AcDbEntity
  8
A2
  6
CONTINUOUS
 62
4
100
AcDbLine
 10
64.18503594075213
 20
90.35593974701855
 30
0.000000000000000
 11
64.18503594075213
 21
87.19081752479637
 31
0.000000000000000
  0
SPLINE
  5
EB
100
AcDbEntity
  8
A2
  6
CONTINUOUS
 62
4
100
AcDbSpline
210
0.000000000000000
220
0.000000000000000
230
1.000000000000000
 70
     8
 71
     3
 72
     8
 73
     4
 74
     0
 42
1.000000000000000e-07
 43
1.000000000000000e-07
 12
-0.2508249999999066
 22
0.004233333333274913
 32
0.000000000000000
 13
-0.2497666666666021
 23
0.01693333333349756
 33
0.000000000000000
 40
0.000000000000000
 40
0.000000000000000
 40
0.000000000000000
 40
0.000000000000000
 40
1.000000000000000
 40
1.000000000000000
 40
1.000000000000000
 40
1.000000000000000
 10
64.18503594075213
 20
87.19081752479637
 30
0.000000000000000
 10
64.10142760741883
 20
87.19222863590745
 30
0.000000000000000
 10
64.01817205186325
 20
87.19575641368517
 30
0.000000000000000
 10
63.93491649630771
 20
87.20140085812967
 30
0.000000000000000
  0
LINE
  5
EC
100
AcDbEntity
  8
A2
  6
CONTINUOUS
 62
4
100
AcDbLine
 10
63.93491649630771
 20
87.20140085812967
 30
0.000000000000000
 11
63.93491649630771
 21
88.64849530257406
 31
0.000000000000000
  0
LINE
  5
ED
100
AcDbEntity
  8
A2
  6
CONTINUOUS
 62
4
100
AcDbLine
 10
63.93491649630771
 20
88.64849530257406
 30
0.000000000000000
 11
63.76805260741883
 21
88.64849530257406
 31
0.000000000000000
  0
LINE
  5
EE
100
AcDbEntity
  8
A2
  6
CONTINUOUS
 62
4
100
AcDbLine
 10
63.76805260741883
 20
88.64849530257406
 30
0.000000000000000
 11
63.76805260741883
 21
87.21480641368517
 31
0.000000000000000
  0
SPLINE
  5
EF
100
AcDbEntity
  8
A2
  6
CONTINUOUS
 62
4
100
AcDbSpline
210
0.000000000000000
220
0.000000000000000
230
1.000000000000000
 70
     8
 71
     3
 72
     8
 73
     4
 74
     0
 42
1.000000000000000e-07
 43
1.000000000000000e-07
 12
-0.2497666666667442
 22
0.02540000000004738
 32
0.000000000000000
 13
-0.2476500000000783
 23
0.03704166666693709
 33
0.000000000000000
 40
0.000000000000000
 40
0.000000000000000
 40
0.000000000000000
 40
0.000000000000000
 40
1.000000000000000
 40
1.000000000000000
 40
1.000000000000000
 40
1.000000000000000
 10
63.76805260741883
 20
87.21480641368517
 30
0.000000000000000
 10
63.68479705186325
 20
87.22327308035186
 30
0.000000000000000
 10
63.60083594075217
 20
87.23350363590735
 30
0.000000000000000
 10
63.51828594075214
 20
87.24585085812966
 30
0.000000000000000
  0
LINE
  5
F0
100
AcDbEntity
  8
A2
  6
CONTINUOUS
 62
4
100
AcDbLine
 10
63.51828594075214
 20
87.24585085812966
 30
0.000000000000000
 11
63.51828594075214
 21
90.30125919146296
 31
0.000000000000000
  0
SPLINE
  5
F1
100
AcDbEntity
  8
A2
  6
CONTINUOUS
 62
4
100
AcDbSpline
210
0.000000000000000
220
0.000000000000000
230
1.000000000000000
 70
     8
 71
     3
 72
     8
 73
     4
 74
     0
 42
1.000000000000000e-07
 43
1.000000000000000e-07
 12
0.2476500000000783
 22
0.03598333333349046
 32
0.000000000000000
 13
0.2497666666667442
 23
0.02434166666699866
 33
0.000000000000000
 40
0.000000000000000
 40
0.000000000000000
 40
0.000000000000000
 40
0.000000000000000
 40
1.000000000000000
 40
1.000000000000000
 40
1.000000000000000
 40
1.000000000000000
 10
63.51828594075214
 20
90.30125919146296
 30
0.000000000000000
 10
63.60083594075217
 20
90.31325363590746
 30
0.000000000000000
 10
63.68479705186325
 20
90.32418974701845
 30
0.000000000000000
 10
63.76805260741883
 20
90.33230363590745
 30
0.000000000000000
  0
LINE
  5
F2
100
AcDbEntity
  8
A2
  6
CONTINUOUS
 62
4
100
AcDbLine
 10
66.26868260741878
 20
88.98165863590735
 30
0.000000000000000
 11
66.26868260741878
 21
89.94721141368517
 31
0.000000000000000
  0
SPLINE
  5
F3
100
AcDbEntity
  8
A2
  6
CONTINUOUS
 62
4
100
AcDbSpline
210
0.000000000000000
220
0.000000000000000
230
1.000000000000000
 70
     8
 71
     3
 72
     8
 73
     4
 74
     0
 42
1.000000000000000e-07
 43
1.000000000000000e-07
 12
-0.2465916666665748
 22
0.1037166666666280
 32
0.000000000000000
 13
-0.2518833333332395
 23
0.09207500000013624
 33
0.000000000000000
 40
0.000000000000000
 40
0.000000000000000
 40
0.000000000000000
 40
0.000000000000000
 40
1.000000000000000
 40
1.000000000000000
 40
1.000000000000000
 40
1.000000000000000
 10
66.26868260741878
 20
89.94721141368517
 30
0.000000000000000
 10
66.18648538519659
 20
89.98178363590738
 30
0.000000000000000
 10
66.10287705186323
 20
90.01529752479625
 30
0.000000000000000
 10
66.01891594075215
 20
90.04598919146297
 30
0.000000000000000
  0
LINE
  5
F4
100
AcDbEntity
  8
A2
  6
CONTINUOUS
 62
4
100
AcDbLine
 10
66.01891594075215
 20
90.04598919146297
 30
0.000000000000000
 11
66.01891594075215
 21
88.98165863590735
 31
0.000000000000000
  0
SPLINE
  5
F5
100
AcDbEntity
  8
A2
  6
CONTINUOUS
 62
4
100
AcDbSpline
210
0.000000000000000
220
0.000000000000000
230
1.000000000000000
 70
     8
 71
     3
 72
     8
 73
     4
 74
     0
 42
1.000000000000000e-07
 43
1.000000000000000e-07
 12
0.000000000000000
 22
-0.4074583333331816
 32
0.000000000000000
 13
0.3778250000000298
 23
-0.1534583333331057
 33
0.000000000000000
 40
0.000000000000000
 40
0.000000000000000
 40
0.000000000000000
 40
0.000000000000000
 40
1.000000000000000
 40
1.000000000000000
 40
1.000000000000000
 40
1.000000000000000
 10
66.01891594075215
 20
88.98165863590735
 30
0.000000000000000
 10
66.01891594075215
 20
88.84583919146296
 30
0.000000000000000
 10
66.10111316297434
 20
88.72413085812956
 30
0.000000000000000
 10
66.22705482964102
 20
88.67297808035185
 30
0.000000000000000
  0
LINE
  5
F6
100
AcDbEntity
  8
A2
  6
CONTINUOUS
 62
4
100
AcDbLine
 10
66.22705482964102
 20
88.67297808035185
 30
0.000000000000000
 11
66.22705482964102
 21
87.58289474701847
 31
0.000000000000000
  0
SPLINE
  5
F7
100
AcDbEntity
  8
A2
  6
CONTINUOUS
 62
4
100
AcDbSpline
210
0.000000000000000
220
0.000000000000000
230
1.000000000000000
 70
     8
 71
     3
 72
     8
 73
     4
 74
     0
 42
1.000000000000000e-07
 43
1.000000000000000e-07
 12
0.2529416666667430
 22
0.1037166666669123
 32
0.000000000000000
 13
0.2465916666667454
 23
0.1195916666666790
 33
0.000000000000000
 40
0.000000000000000
 40
0.000000000000000
 40
0.000000000000000
 40
0.000000000000000
 40
0.9999999999999982
 40
0.9999999999999982
 40
0.9999999999999982
 40
0.9999999999999982
 10
66.22705482964102
 20
87.58289474701847
 30
0.000000000000000
 10
66.31136871852993
 20
87.61746696924077
 30
0.000000000000000
 10
66.39532982964101
 20
87.65521419146297
 30
0.000000000000000
 10
66.47752705186326
 20
87.69507808035188
 30
0.000000000000000
  0
LINE
  5
F8
100
AcDbEntity
  8
A2
  6
CONTINUOUS
 62
4
100
AcDbLine
 10
66.47752705186326
 20
87.69507808035188
 30
0.000000000000000
 11
66.47752705186326
 21
88.67297808035185
 31
0.000000000000000
  0
SPLINE
  5
F9
100
AcDbEntity
  8
A2
  6
CONTINUOUS
 62
4
100
AcDbSpline
210
0.000000000000000
220
0.000000000000000
230
1.000000000000000
 70
     8
 71
     3
 72
     8
 73
     4
 74
     0
 42
1.000000000000000e-07
 43
1.000000000000000e-07
 12
0.3778250000000298
 22
0.1534583333331057
 32
0.000000000000000
 13
0.000000000000000
 23
0.4074583333331816
 33
0.000000000000000
 40
0.000000000000000
 40
0.000000000000000
 40
0.000000000000000
 40
0.000000000000000
 40
1.000000000000000
 40
1.000000000000000
 40
1.000000000000000
 40
1.000000000000000
 10
66.47752705186326
 20
88.67297808035185
 30
0.000000000000000
 10
66.60346871852994
 20
88.72413085812956
 30
0.000000000000000
 10
66.68566594075213
 20
88.84583919146296
 30
0.000000000000000
 10
66.68566594075213
 20
88.98165863590735
 30
0.000000000000000
  0
LINE
  5
FA
100
AcDbEntity
  8
A2
  6
CONTINUOUS
 62
4
100
AcDbLine
 10
66.68566594075213
 20
88.98165863590735
 30
0.000000000000000
 11
66.68566594075213
 21
89.74577530257407
 31
0.000000000000000
  0
SPLINE
  5
FB
100
AcDbEntity
  8
A2
  6
CONTINUOUS
 62
4
100
AcDbSpline
210
0.000000000000000
220
0.000000000000000
230
1.000000000000000
 70
     8
 71
     3
 72
     8
 73
     4
 74
     0
 42
1.000000000000000e-07
 43
1.000000000000000e-07
 12
-0.2455333333332419
 22
0.1322916666665606
 32
0.000000000000000
 13
-0.2529416666665725
 23
0.1195916666666790
 33
0.000000000000000
 40
0.000000000000000
 40
0.000000000000000
 40
0.000000000000000
 40
0.000000000000000
 40
1.000000000000000
 40
1.000000000000000
 40
1.000000000000000
 40
1.000000000000000
 10
66.68566594075213
 20
89.74577530257407
 30
0.000000000000000
 10
66.60382149630772
 20
89.78987252479625
 30
0.000000000000000
 10
66.51986038519658
 20
89.83220585812957
 30
0.000000000000000
 10
66.43554649630772
 20
89.87206974701847
 30
0.000000000000000
  0
LINE
  5
FC
100
AcDbEntity
  8
A2
  6
CONTINUOUS
 62
4
100
AcDbLine
 10
66.43554649630772
 20
89.87206974701847
 30
0.000000000000000
 11
66.43554649630772
 21
88.98165863590735
 31
0.000000000000000
  0
SPLINE
  5
FD
100
AcDbEntity
  8
A2
  6
CONTINUOUS
 62
4
100
AcDbSpline
210
0.000000000000000
220
0.000000000000000
230
1.000000000000000
 70
     8
 71
     3
 72
     8
 73
     4
 74
     0
 42
1.000000000000000e-07
 43
1.000000000000000e-07
 12
0.000000000000000
 22
-0.1375833333332821
 32
0.000000000000000
 13
-0.1375833333332821
 23
0.000000000000000
 33
0.000000000000000
 40
0.000000000000000
 40
0.000000000000000
 40
0.000000000000000
 40
0.000000000000000
 40
1.000000000000000
 40
1.000000000000000
 40
1.000000000000000
 40
1.000000000000000
 10
66.43554649630772
 20
88.98165863590735
 30
0.000000000000000
 10
66.43554649630772
 20
88.93579752479626
 30
0.000000000000000
 10
66.39815205186324
 20
88.89840308035186
 30
0.000000000000000
 10
66.35229094075214
 20
88.89840308035186
 30
0.000000000000000
  0
SPLINE
  5
FE
100
AcDbEntity
  8
A2
  6
CONTINUOUS
 62
4
100
AcDbSpline
210
0.000000000000000
220
0.000000000000000
230
1.000000000000000
 70
     8
 71
     3
 72
     8
 73
     4
 74
     0
 42
1.000000000000000e-07
 43
1.000000000000000e-07
 12
-0.1386416666667856
 22
0.000000000000000
 32
0.000000000000000
 13
0.000000000000000
 23
0.1375833333332821
 33
0.000000000000000
 40
0.000000000000000
 40
0.000000000000000
 40
0.000000000000000
 40
0.000000000000000
 40
1.000000000000000
 40
1.000000000000000
 40
1.000000000000000
 40
1.000000000000000
 10
66.35229094075214
 20
88.89840308035186
 30
0.000000000000000
 10
66.30607705186321
 20
88.89840308035186
 30
0.000000000000000
 10
66.26868260741878
 20
88.93579752479626
 30
0.000000000000000
 10
66.26868260741878
 20
88.98165863590735
 30
0.000000000000000
  0
SPLINE
  5
FF
100
AcDbEntity
  8
A2
  6
CONTINUOUS
 62
4
100
AcDbSpline
210
0.000000000000000
220
0.000000000000000
230
1.000000000000000
 70
     8
 71
     3
 72
     8
 73
     4
 74
     0
 42
1.000000000000000e-07
 43
1.000000000000000e-07
 12
0.005291666666664696
 22
-0.002116666666495348
 32
0.000000000000000
 13
0.004233333333331757
 23
0.000000000000000
 33
0.000000000000000
 40
0.000000000000000
 40
0.000000000000000
 40
0.000000000000000
 40
0.000000000000000
 40
1.000000000000000
 40
1.000000000000000
 40
1.000000000000000
 40
1.000000000000000
 10
62.92985260741880
 20
87.36953474701845
 30
0.000000000000000
 10
62.93161649630769
 20
87.36882919146295
 30
0.000000000000000
 10
62.93338038519658
 20
87.36847641368517
 30
0.000000000000000
 10
62.93479149630769
 20
87.36847641368517
 30
0.000000000000000
  0
SPLINE
  5
100
100
AcDbEntity
  8
A2
  6
CONTINUOUS
 62
4
100
AcDbSpline
210
0.000000000000000
220
0.000000000000000
230
1.000000000000000
 70
     8
 71
     3
 72
     8
 73
     4
 74
     0
 42
1.000000000000000e-07
 43
1.000000000000000e-07
 12
-0.2476500000000783
 22
0.08149166666669316
 32
0.000000000000000
 13
-0.2508250000000771
 23
0.06773333333336495
 33
0.000000000000000
 40
0.000000000000000
 40
0.000000000000000
 40
0.000000000000000
 40
0.000000000000000
 40
1.000000000000000
 40
1.000000000000000
 40
1.000000000000000
 40
1.000000000000000
 10
65.85198149630770
 20
90.10409169146295
 30
0.000000000000000
 10
65.76943149630767
 20
90.13125558035186
 30
0.000000000000000
 10
65.68582316297437
 20
90.15595002479627
 30
0.000000000000000
 10
65.60221482964101
 20
90.17852780257407
 30
0.000000000000000
  0
LINE
  5
101
100
AcDbEntity
  8
A2
  6
CONTINUOUS
 62
4
100
AcDbLine
 10
65.60221482964101
 20
90.17852780257407
 30
0.000000000000000
 11
65.60221482964101
 21
87.36830002479626
 31
0.000000000000000
  0
SPLINE
  5
102
100
AcDbEntity
  8
A2
  6
CONTINUOUS
 62
4
100
AcDbSpline
210
0.000000000000000
220
0.000000000000000
230
1.000000000000000
 70
     8
 71
     3
 72
     8
 73
     4
 74
     0
 42
1.000000000000000e-07
 43
1.000000000000000e-07
 12
0.2508250000000771
 22
0.06773333333342180
 32
0.000000000000000
 13
0.2476500000000783
 23
0.08255000000002610
 33
0.000000000000000
 40
0.000000000000000
 40
0.000000000000000
 40
0.000000000000000
 40
0.000000000000000
 40
1.000000000000000
 40
1.000000000000000
 40
1.000000000000000
 40
1.000000000000000
 10
65.60221482964101
 20
87.36830002479626
 30
0.000000000000000
 10
65.68582316297437
 20
87.39087780257405
 30
0.000000000000000
 10
65.76943149630767
 20
87.41592502479627
 30
0.000000000000000
 10
65.85198149630770
 20
87.44344169146295
 30
0.000000000000000
  0
LINE
  5
103
100
AcDbEntity
  8
A2
  6
CONTINUOUS
 62
4
100
AcDbLine
 10
65.85198149630770
 20
87.44344169146295
 30
0.000000000000000
 11
65.85198149630770
 21
90.10409169146295
 31
0.000000000000000
  0
SPLINE
  5
104
100
AcDbEntity
  8
A2
  6
CONTINUOUS
 62
4
100
AcDbSpline
210
0.000000000000000
220
0.000000000000000
230
1.000000000000000
 70
     8
 71
     3
 72
     8
 73
     4
 74
     0
 42
1.000000000000000e-07
 43
1.000000000000000e-07
 12
-0.2497666666665737
 22
0.01693333333315650
 32
0.000000000000000
 13
-0.2508250000000771
 23
0.004233333333331757
 33
0.000000000000000
 40
0.000000000000000
 40
0.000000000000000
 40
0.000000000000000
 40
0.000000000000000
 40
1.000000000000000
 40
1.000000000000000
 40
1.000000000000000
 40
1.000000000000000
 10
64.60159594075213
 20
90.34592085812967
 30
0.000000000000000
 10
64.51834038519661
 20
90.35156530257406
 30
0.000000000000000
 10
64.43508482964103
 20
90.35474030257406
 30
0.000000000000000
 10
64.35147649630767
 20
90.35615141368517
 30
0.000000000000000
  0
LINE
  5
105
100
AcDbEntity
  8
A2
  6
CONTINUOUS
 62
4
100
AcDbLine
 10
64.35147649630767
 20
90.35615141368517
 30
0.000000000000000
 11
64.35147649630767
 21
87.19067641368515
 31
0.000000000000000
  0
SPLINE
  5
106
100
AcDbEntity
  8
A2
  6
CONTINUOUS
 62
4
100
AcDbSpline
210
0.000000000000000
220
0.000000000000000
230
1.000000000000000
 70
     8
 71
     3
 72
     8
 73
     4
 74
     0
 42
1.000000000000000e-07
 43
1.000000000000000e-07
 12
0.2508250000000771
 22
0.004233333333331757
 32
0.000000000000000
 13
0.2497666666665737
 23
0.01693333333315650
 33
0.000000000000000
 40
0.000000000000000
 40
0.000000000000000
 40
0.000000000000000
 40
0.000000000000000
 40
1.000000000000000
 40
1.000000000000000
 40
1.000000000000000
 40
1.000000000000000
 10
64.35147649630767
 20
87.19067641368515
 30
0.000000000000000
 10
64.43508482964103
 20
87.19208752479626
 30
0.000000000000000
 10
64.51834038519661
 20
87.19561530257407
 30
0.000000000000000
 10
64.60159594075213
 20
87.20125974701845
 30
0.000000000000000
  0
LINE
  5
107
100
AcDbEntity
  8
A2
  6
CONTINUOUS
 62
4
100
AcDbLine
 10
64.60159594075213
 20
87.20125974701845
 30
0.000000000000000
 11
64.60159594075213
 21
90.34592085812967
 31
0.000000000000000
  0
LINE
  5
108
100
AcDbEntity
  8
A4
  6
CENTER
 62
1
100
AcDbLine
 10
59.06822094075073
 20
88.77343596229626
 30
0.000000000000000
 11
69.46822094075213
 21
88.77343596229626
 31
0.000000000000000
  0
LINE
  5
109
100
AcDbEntity
  8
A4
  6
CENTER
 62
1
100
AcDbLine
 10
64.26822094075209
 20
85.27347259424057
 30
0.000000000000000
 11
64.26822094075209
 21
92.27339933035178
 31
0.000000000000000
  0
LINE
  5
10A
100
AcDbEntity
  8
A1
  6
CONTINUOUS
 62
7
100
AcDbLine
 10
43.86822094075209
 20
43.03153575215909
 30
0.000000000000000
 11
42.36822094075207
 21
44.53153575215909
 31
0.000000000000000
  0
LINE
  5
10B
100
AcDbEntity
  8
A1
  6
CONTINUOUS
 62
7
100
AcDbLine
 10
43.86822094075207
 20
50.03153575215910
 30
0.000000000000000
 11
42.36822094075206
 21
48.53153575215907
 31
0.000000000000000
  0
LINE
  5
10C
100
AcDbEntity
  8
A1
  6
CONTINUOUS
 62
7
100
AcDbLine
 10
43.86822094075205
 20
43.03153575215908
 30
0.000000000000000
 11
43.86822094075205
 21
50.03153575215908
 31
0.000000000000000
  0
CIRCLE
  5
10D
100
AcDbEntity
  8
A1
  6
CONTINUOUS
 62
7
100
AcDbCircle
 10
76.76822094075200
 20
115.6734359622963
 30
0.000000000000000
 40
1.600000000000000
  0
CIRCLE
  5
10E
100
AcDbEntity
  8
A1
  6
CONTINUOUS
 62
7
100
AcDbCircle
 10
51.76822094075208
 20
115.6734359622962
 30
0.000000000000000
 40
1.600000000000000
  0
CIRCLE
  5
10F
100
AcDbEntity
  8
A1
  6
CONTINUOUS
 62
7
100
AcDbCircle
 10
51.76822094075208
 20
88.87343596229623
 30
0.000000000000000
 40
1.600000000000000
  0
CIRCLE
  5
110
100
AcDbEntity
  8
A1
  6
CONTINUOUS
 62
7
100
AcDbCircle
 10
76.76822094075200
 20
88.87343596229623
 30
0.000000000000000
 40
1.600000000000000
  0
LINE
  5
111
100
AcDbEntity
  8
A1
  6
CONTINUOUS
 62
7
100
AcDbLine
 10
108.8682209407522
 20
107.7734359622963
 30
0.000000000000000
 11
109.8682209407522
 21
107.7734359622963
 31
0.000000000000000
  0
LINE
  5
112
100
AcDbEntity
  8
A1
  6
CONTINUOUS
 62
7
100
AcDbLine
 10
108.8682209407522
 20
102.2734359622963
 30
0.000000000000000
 11
108.8682209407522
 21
108.5234359622962
 31
0.000000000000000
  0
LINE
  5
113
100
AcDbEntity
  8
A1
  6
CONTINUOUS
 62
7
100
AcDbLine
 10
96.86822094075228
 20
97.27343596229623
 30
0.000000000000000
 11
96.86822094075228
 21
102.2734359622963
 31
0.000000000000000
  0
LINE
  5
114
100
AcDbEntity
  8
A1
  6
CONTINUOUS
 62
7
100
AcDbLine
 10
97.66822094075218
 20
108.6234359622963
 30
0.000000000000000
 11
97.66822094075218
 21
102.2734359622963
 31
0.000000000000000
  0
LINE
  5
115
100
AcDbEntity
  8
A1
  6
CONTINUOUS
 62
7
100
AcDbLine
 10
97.66822094075218
 20
95.92343596229621
 30
0.000000000000000
 11
97.66822094075218
 21
102.2734359622963
 31
0.000000000000000
  0
LINE
  5
116
100
AcDbEntity
  8
A1
  6
CONTINUOUS
 62
7
100
AcDbLine
 10
108.8682209407522
 20
102.2734359622963
 30
0.000000000000000
 11
108.8682209407522
 21
96.02343596229623
 31
0.000000000000000
  0
LINE
  5
117
100
AcDbEntity
  8
A1
  6
CONTINUOUS
 62
7
100
AcDbLine
 10
96.86822094075228
 20
107.2734359622963
 30
0.000000000000000
 11
96.86822094075228
 21
102.2734359622963
 31
0.000000000000000
  0
LINE
  5
118
100
AcDbEntity
  8
A1
  6
CONTINUOUS
 62
7
100
AcDbLine
 10
108.8682209407522
 20
96.77343596229626
 30
0.000000000000000
 11
109.8682209407522
 21
96.77343596229626
 31
0.000000000000000
  0
LINE
  5
119
100
AcDbEntity
  8
A1
  6
CONTINUOUS
 62
7
100
AcDbLine
 10
97.66822094075216
 20
96.27343596229625
 30
0.000000000000000
 11
96.86822094075227
 21
97.27343596229625
 31
0.000000000000000
  0
LINE
  5
11A
100
AcDbEntity
  8
A1
  6
CONTINUOUS
 62
7
100
AcDbLine
 10
97.66822094075216
 20
108.2734359622963
 30
0.000000000000000
 11
96.86822094075228
 21
107.2734359622963
 31
0.000000000000000
  0
LINE
  5
11B
100
AcDbEntity
  8
A1
  6
CONTINUOUS
 62
7
100
AcDbLine
 10
108.8682209407520
 20
107.3016258895086
 30
0.000000000000000
 11
97.65822132489838
 21
107.3821487568693
 31
0.000000000000000
  0
LINE
  5
11C
100
AcDbEntity
  8
A1
  6
CONTINUOUS
 62
7
100
AcDbLine
 10
108.8952873195238
 20
104.8579902659994
 30
0.000000000000000
 11
97.64472152405270
 21
104.8995314411636
 31
0.000000000000000
  0
LINE
  5
11D
100
AcDbEntity
  8
A1
  6
CONTINUOUS
 62
7
100
AcDbLine
 10
108.9147242420975
 20
106.0795935794859
 30
0.000000000000000
 11
97.65038817804489
 21
106.1408459894175
 31
0.000000000000000
  0
LINE
  5
11E
100
AcDbEntity
  8
A1
  6
CONTINUOUS
 62
7
100
AcDbLine
 10
108.8801147067018
 20
103.6363265474172
 30
0.000000000000000
 11
97.64122138018340
 21
103.6582088933678
 31
0.000000000000000
  0
LINE
  5
11F
100
AcDbEntity
  8
A1
  6
CONTINUOUS
 62
7
100
AcDbLine
 10
108.8625630978441
 20
101.1928774378674
 30
0.000000000000000
 11
97.64072065886167
 21
101.1755549242971
 31
0.000000000000000
  0
LINE
  5
120
100
AcDbEntity
  8
A1
  6
CONTINUOUS
 62
7
100
AcDbLine
 10
108.8692065885045
 20
102.4146173093260
 30
0.000000000000000
 11
97.63988775709869
 21
102.4168821273134
 31
0.000000000000000
  0
LINE
  5
121
100
AcDbEntity
  8
A1
  6
CONTINUOUS
 62
7
100
AcDbLine
 10
108.8620702709654
 20
98.74936534109864
 30
0.000000000000000
 11
97.64888602018127
 21
98.69291433256036
 31
0.000000000000000
  0
LINE
  5
122
100
AcDbEntity
  8
A1
  6
CONTINUOUS
 62
7
100
AcDbLine
 10
108.8601843156696
 20
99.97112181955606
 30
0.000000000000000
 11
97.64372008293482
 21
99.93423106561687
 31
0.000000000000000
  0
LINE
  5
123
100
AcDbEntity
  8
A1
  6
CONTINUOUS
 62
7
100
AcDbLine
 10
108.8682209407523
 20
97.52762288921235
 30
0.000000000000000
 11
97.65621845486508
 21
97.45160850639375
 31
0.000000000000000
  0
LINE
  5
124
100
AcDbEntity
  8
A1
  6
CONTINUOUS
 62
7
100
AcDbLine
 10
108.8786362500855
 20
96.30590935044340
 30
0.000000000000000
 11
97.66571736464991
 21
96.21031736834983
 31
0.000000000000000
  0
LINE
  5
125
100
AcDbEntity
  8
A1
  6
CONTINUOUS
 62
7
100
AcDbLine
 10
108.8682209407521
 20
96.02343596229620
 30
0.000000000000000
 11
97.66822094075218
 21
95.92343596229620
 31
0.000000000000000
  0
LINE
  5
126
100
AcDbEntity
  8
A1
  6
CONTINUOUS
 62
7
100
AcDbLine
 10
108.8682209407521
 20
108.5234359622962
 30
0.000000000000000
 11
97.66822094075218
 21
108.6234359622963
 31
0.000000000000000
  0
LINE
  5
127
100
AcDbEntity
  8
A4
  6
CENTER
 62
1
100
AcDbLine
 10
91.62411070848708
 20
102.2734359622963
 30
0.000000000000000
 11
109.8682209407522
 21
102.2734359622963
 31
0.000000000000000
  0
LINE
  5
128
100
AcDbEntity
  8
A1
  6
CONTINUOUS
 62
7
100
AcDbLine
 10
109.8682209407522
 20
96.77343596229626
 30
0.000000000000000
 11
109.8682209407522
 21
107.7734359622963
 31
0.000000000000000
  0
LINE
  5
129
100
AcDbEntity
  8
A1
  6
CONTINUOUS
 62
7
100
AcDbLine
 10
84.26822094075209
 20
98.27343596229626
 30
0.000000000000000
 11
96.86822094075228
 21
98.27343596229626
 31
0.000000000000000
  0
LINE
  5
12A
100
AcDbEntity
  8
A1
  6
CONTINUOUS
 62
7
100
AcDbLine
 10
84.26822094075209
 20
106.2734359622963
 30
0.000000000000000
 11
96.86822094075228
 21
106.2734359622963
 31
0.000000000000000
  0
LINE
  5
12B
100
AcDbEntity
  8
A1
  6
CONTINUOUS
 62
7
100
AcDbLine
 10
108.8682209407522
 20
52.03153575215909
 30
0.000000000000000
 11
109.8682209407522
 21
52.03153575215909
 31
0.000000000000000
  0
LINE
  5
12C
100
AcDbEntity
  8
A1
  6
CONTINUOUS
 62
7
100
AcDbLine
 10
108.8682209407522
 20
46.53153575215909
 30
0.000000000000000
 11
108.8682209407522
 21
52.78153575215906
 31
0.000000000000000
  0
LINE
  5
12D
100
AcDbEntity
  8
A1
  6
CONTINUOUS
 62
7
100
AcDbLine
 10
97.66822094075218
 20
52.88153575215908
 30
0.000000000000000
 11
97.66822094075218
 21
46.53153575215909
 31
0.000000000000000
  0
LINE
  5
12E
100
AcDbEntity
  8
A1
  6
CONTINUOUS
 62
7
100
AcDbLine
 10
97.66822094075218
 20
40.18153575215904
 30
0.000000000000000
 11
97.66822094075218
 21
46.53153575215909
 31
0.000000000000000
  0
LINE
  5
12F
100
AcDbEntity
  8
A1
  6
CONTINUOUS
 62
7
100
AcDbLine
 10
108.8682209407522
 20
46.53153575215909
 30
0.000000000000000
 11
108.8682209407522
 21
40.28153575215906
 31
0.000000000000000
  0
LINE
  5
130
100
AcDbEntity
  8
A1
  6
CONTINUOUS
 62
7
100
AcDbLine
 10
108.8682209407522
 20
41.03153575215909
 30
0.000000000000000
 11
109.8682209407522
 21
41.03153575215909
 31
0.000000000000000
  0
LINE
  5
131
100
AcDbEntity
  8
A1
  6
CONTINUOUS
 62
7
100
AcDbLine
 10
97.66822094075216
 20
40.53153575215905
 30
0.000000000000000
 11
96.86822094075227
 21
41.53153575215906
 31
0.000000000000000
  0
LINE
  5
132
100
AcDbEntity
  8
A1
  6
CONTINUOUS
 62
7
100
AcDbLine
 10
97.66822094075219
 20
52.53153575215908
 30
0.000000000000000
 11
96.86822094075228
 21
51.53153575215908
 31
0.000000000000000
  0
LINE
  5
133
100
AcDbEntity
  8
A1
  6
CONTINUOUS
 62
7
100
AcDbLine
 10
108.8682209407521
 20
51.55972567937143
 30
0.000000000000000
 11
97.65822132489849
 21
51.64024854673212
 31
0.000000000000000
  0
LINE
  5
134
100
AcDbEntity
  8
A1
  6
CONTINUOUS
 62
7
100
AcDbLine
 10
108.8952873195239
 20
49.11609005586228
 30
0.000000000000000
 11
97.64472152405258
 21
49.15763123102650
 31
0.000000000000000
  0
LINE
  5
135
100
AcDbEntity
  8
A1
  6
CONTINUOUS
 62
7
100
AcDbLine
 10
108.9147242420976
 20
50.33769336934868
 30
0.000000000000000
 11
97.65038817804498
 21
50.39894577928020
 31
0.000000000000000
  0
LINE
  5
136
100
AcDbEntity
  8
A1
  6
CONTINUOUS
 62
7
100
AcDbLine
 10
108.8801147067017
 20
47.89442633728007
 30
0.000000000000000
 11
97.64122138018330
 21
47.91630868323061
 31
0.000000000000000
  0
LINE
  5
137
100
AcDbEntity
  8
A1
  6
CONTINUOUS
 62
7
100
AcDbLine
 10
108.8625630978442
 20
45.45097722773026
 30
0.000000000000000
 11
97.64072065886171
 21
45.43365471415997
 31
0.000000000000000
  0
LINE
  5
138
100
AcDbEntity
  8
A1
  6
CONTINUOUS
 62
7
100
AcDbLine
 10
108.8692065885045
 20
46.67271709918885
 30
0.000000000000000
 11
97.63988775709878
 21
46.67498191717621
 31
0.000000000000000
  0
LINE
  5
139
100
AcDbEntity
  8
A1
  6
CONTINUOUS
 62
7
100
AcDbLine
 10
108.8620702709655
 20
43.00746513096146
 30
0.000000000000000
 11
97.64888602018128
 21
42.95101412242318
 31
0.000000000000000
  0
LINE
  5
13A
100
AcDbEntity
  8
A1
  6
CONTINUOUS
 62
7
100
AcDbLine
 10
108.8601843156696
 20
44.22922160941890
 30
0.000000000000000
 11
97.64372008293481
 21
44.19233085547971
 31
0.000000000000000
  0
LINE
  5
13B
100
AcDbEntity
  8
A1
  6
CONTINUOUS
 62
7
100
AcDbLine
 10
108.8682209407522
 20
41.78572267907522
 30
0.000000000000000
 11
97.65621845486521
 21
41.70970829625662
 31
0.000000000000000
  0
LINE
  5
13C
100
AcDbEntity
  8
A1
  6
CONTINUOUS
 62
7
100
AcDbLine
 10
108.8786362500855
 20
40.56400914030625
 30
0.000000000000000
 11
97.66571736464981
 21
40.46841715821267
 31
0.000000000000000
  0
LINE
  5
13D
100
AcDbEntity
  8
A1
  6
CONTINUOUS
 62
7
100
AcDbLine
 10
108.8682209407521
 20
40.28153575215906
 30
0.000000000000000
 11
97.66822094075218
 21
40.18153575215904
 31
0.000000000000000
  0
LINE
  5
13E
100
AcDbEntity
  8
A1
  6
CONTINUOUS
 62
7
100
AcDbLine
 10
108.8682209407519
 20
52.78153575215902
 30
0.000000000000000
 11
97.66822094075208
 21
52.88153575215905
 31
0.000000000000000
  0
LINE
  5
13F
100
AcDbEntity
  8
A1
  6
CONTINUOUS
 62
7
100
AcDbLine
 10
109.8682209407522
 20
41.03153575215909
 30
0.000000000000000
 11
109.8682209407522
 21
52.03153575215909
 31
0.000000000000000
  0
LINE
  5
140
100
AcDbEntity
  8
A1
  6
CONTINUOUS
 62
7
100
AcDbLine
 10
96.86822094075228
 20
41.53153575215906
 30
0.000000000000000
 11
96.86822094075228
 21
51.53153575215914
 31
0.000000000000000
  0
LINE
  5
141
100
AcDbEntity
  8
A1
  6
CONTINUOUS
 62
7
100
AcDbLine
 10
43.86822094075200
 20
98.77343596229622
 30
0.000000000000000
 11
42.36822094075200
 21
100.2734359622962
 31
0.000000000000000
  0
LINE
  5
142
100
AcDbEntity
  8
A1
  6
CONTINUOUS
 62
7
100
AcDbLine
 10
43.86822094075205
 20
98.77343596229628
 30
0.000000000000000
 11
43.86822094075205
 21
105.7734359622963
 31
0.000000000000000
  0
LINE
  5
143
100
AcDbEntity
  8
A1
  6
CONTINUOUS
 62
7
100
AcDbLine
 10
43.86822094075205
 20
98.77343596229629
 30
0.000000000000000
 11
44.26822094075208
 21
98.77343596229629
 31
0.000000000000000
  0
LINE
  5
144
100
AcDbEntity
  8
A1
  6
CONTINUOUS
 62
7
100
AcDbLine
 10
43.86822094075200
 20
105.7734359622963
 30
0.000000000000000
 11
42.36822094075210
 21
104.2734359622963
 31
0.000000000000000
  0
LINE
  5
145
100
AcDbEntity
  8
A1
  6
CONTINUOUS
 62
7
100
AcDbLine
 10
44.26822094075208
 20
105.7734359622963
 30
0.000000000000000
 11
43.86822094075202
 21
105.7734359622963
 31
0.000000000000000
  0
LINE
  5
146
100
AcDbEntity
  8
A1
  6
CONTINUOUS
 62
7
100
AcDbLine
 10
42.36822094075207
 20
100.2734359622963
 30
0.000000000000000
 11
42.36822094075207
 21
104.2734359622963
 31
0.000000000000000
  0
LINE
  5
147
100
AcDbEntity
  8
A5
  6
PHANTOM
 62
6
100
AcDbLine
 10
35.36822094075202
 20
50.03153575215906
 30
0.000000000000000
 11
35.36822094075202
 21
43.03153575215906
 31
0.000000000000000
  0
LINE
  5
148
100
AcDbEntity
  8
A5
  6
PHANTOM
 62
6
100
AcDbLine
 10
40.76228109067016
 20
50.03153575215906
 30
0.000000000000000
 11
35.36822094075199
 21
50.03153575215906
 31
0.000000000000000
  0
LINE
  5
149
100
AcDbEntity
  8
A5
  6
PHANTOM
 62
6
100
AcDbLine
 10
33.86822094075206
 20
48.53153575215914
 30
0.000000000000000
 11
35.36822094075202
 21
50.03153575215914
 31
0.000000000000000
  0
LINE
  5
14A
100
AcDbEntity
  8
A5
  6
PHANTOM
 62
6
100
AcDbLine
 10
33.86822094075196
 20
48.53153575215909
 30
0.000000000000000
 11
33.86822094075196
 21
44.53153575215906
 31
0.000000000000000
  0
LINE
  5
14B
100
AcDbEntity
  8
A5
  6
PHANTOM
 62
6
100
AcDbLine
 10
35.36822094075196
 20
43.03153575215906
 30
0.000000000000000
 11
40.76228109067016
 21
43.03153575215906
 31
0.000000000000000
  0
LINE
  5
14C
100
AcDbEntity
  8
A5
  6
PHANTOM
 62
6
100
AcDbLine
 10
33.86822094075202
 20
44.53153575215912
 30
0.000000000000000
 11
35.36822094075205
 21
43.03153575215911
 31
0.000000000000000
  0
LINE
  5
14D
100
AcDbEntity
  8
A5
  6
PHANTOM
 62
6
100
AcDbLine
 10
34.86822094075210
 20
98.77343596229625
 30
0.000000000000000
 11
33.36822094075207
 21
100.2734359622962
 31
0.000000000000000
  0
LINE
  5
14E
100
AcDbEntity
  8
A5
  6
PHANTOM
 62
6
100
AcDbLine
 10
33.36822094075208
 20
104.2734359622963
 30
0.000000000000000
 11
34.86822094075211
 21
105.7734359622963
 31
0.000000000000000
  0
LINE
  5
14F
100
AcDbEntity
  8
A5
  6
PHANTOM
 62
6
100
AcDbLine
 10
34.86822094075216
 20
105.7734359622963
 30
0.000000000000000
 11
34.86822094075216
 21
98.77343596229626
 31
0.000000000000000
  0
ENDSEC
  0
SECTION
  2
OBJECTS
  0
DICTIONARY
  5
183
100
AcDbDictionary
  3
ACAD_GROUP
350
184
  3
ACAD_LAYOUT
350
185
  3
ACAD_MLINESTYLE
350
186
  0
DICTIONARY
  5
184
102
{ACAD_REACTORS
330
183
102
}
330
183
100
AcDbDictionary
  0
DICTIONARY
  5
185
102
{ACAD_REACTORS
330
183
102
}
330
183
100
AcDbDictionary
  3
Model
350
187
  3
ﾚｲｱｳﾄ1
350
188
  3
ﾚｲｱｳﾄ2
350
189
  0
DICTIONARY
  5
186
102
{ACAD_REACTORS
330
183
102
}
330
183
100
AcDbDictionary
  3
STANDARD
350
18A
  0
LAYOUT
  5
187
102
{ACAD_REACTORS
330
185
102
}
330
185
100
AcDbPlotSettings
 70
11952
  4
A3
 44
297.000000
 45
420.000000
 73
  1
 72
  1
100
AcDbLayout
  1
Model
 71
0
330
17A
  0
LAYOUT
  5
188
102
{ACAD_REACTORS
330
185
102
}
330
185
100
AcDbPlotSettings
100
AcDbLayout
  1
ﾚｲｱｳﾄ1
 71
1
330
17B
  0
LAYOUT
  5
189
102
{ACAD_REACTORS
330
185
102
}
330
185
100
AcDbPlotSettings
100
AcDbLayout
  1
ﾚｲｱｳﾄ2
 71
2
330
17C
  0
MLINESTYLE
  5
18A
102
{ACAD_REACTORS
330
186
102
}
330
186
100
AcDbMlineStyle
  2
STANDARD
 70
     0
  3

 62
   256
 51
90.00
 52
90.00
 71
     2
 49
0.50
 62
   256
  6
BYLAYER
 49
-0.50
 62
   256
  6
BYLAYER
  0
ENDSEC
  0
EOF
