  0
SECTION
  2
HEADER
  9
$ACADVER
  1
AC1027
  9
$DWGCODEPAGE
  3
ANSI_932
  9
$LTSCALE
 40
20.0
  9
$FILLMODE
 70
     1
  9
$CLAYER
  8
0
  9
$PDMODE
 70
     0
  9
$SPLFRAME
 70
     0
  9
$SPLINETYPE
 70
     6
  9
$SPLINESEGS
 70
     8
  9
$DIMASZ
 40
2.000000
  9
$DIMEXE
 40
1.500000
  9
$DIMEXO
 40
0.800000
  9
$DIMTAD
 70
     1
  9
$DIMTIH
 70
     0
  9
$DIMTOH
 70
     0
  9
$DIMTVP
 40
0.500000
  9
$DIMTXT
 40
3.100000
  9
$EXTMIN
 10
0.000000
 20
0.000000
 30
0.000000
  9
$EXTMAX
 10
297.000000
 20
420.000000
 30
0.000000
  9
$MEASUREMENT
 70
  1
  9
$LIMMIN
 10
0.000000
 20
0.000000
  9
$LIMMAX
 10
297.000000
 20
420.000000
  9
$HANDSEED
  5
28D
  9
$LWDISPLAY
290
     0
  9
$DIMBLK
  1
_OPEN
  9
$DIMDEC
 70
     2
  9
$DIMADEC
 70
     2
  9
$DIMAUNIT
 70
     0
  9
$DIMZIN
 70
     8
  9
$DIMAZIN
 70
     2
  9
$DIMTOFL
 70
     1
  0
ENDSEC
  0
SECTION
  2
CLASSES
  0
ENDSEC
  0
SECTION
  2
TABLES
  0
TABLE
  2
VPORT
  5
251
100
AcDbSymbolTable
 70
     1
  0
VPORT
  5
252
100
AcDbSymbolTableRecord
100
AcDbViewportTableRecord
  2
*ACTIVE
 70
     0
 12
146.657914
 22
119.220156
 40
202.440311
 41
1.350106
  0
ENDTAB
  0
TABLE
  2
LTYPE
  5
253
100
AcDbSymbolTable
 70
     3
  0
LTYPE
  5
254
100
AcDbSymbolTableRecord
100
AcDbLinetypeTableRecord
  2
BYBLOCK
 70
     0
  3

 72
    65
 73
     0
 40
0.0
  0
LTYPE
  5
255
100
AcDbSymbolTableRecord
100
AcDbLinetypeTableRecord
  2
BYLAYER
 70
     0
  3

 72
    65
 73
     0
 40
0.0
  0
LTYPE
  5
256
100
AcDbSymbolTableRecord
100
AcDbLinetypeTableRecord
  2
CONTINUOUS
 70
     0
  3
Solid line (NEC CAE2D for Win R18.0 : 2025.08.29)
 72
    65
 73
     0
 40
0.0
  0
LTYPE
  5
257
100
AcDbSymbolTableRecord
100
AcDbLinetypeTableRecord
  2
DASHED
 70
     0
  3
__ __ __ __ __ __ __ __ __ __ __ __ __ _
 72
    65
 73
     2
 40
0.75
 49
0.5
 74
     0
 49
-0.25
 74
     0
  0
LTYPE
  5
258
100
AcDbSymbolTableRecord
100
AcDbLinetypeTableRecord
  2
CENTER
 70
     0
  3
____ _ ____ _ ____ _ ____ _ ____ _ ____
 72
    65
 73
     4
 40
2.0
 49
1.25
 74
     0
 49
-0.25
 74
     0
 49
0.25
 74
     0
 49
-0.25
 74
     0
  0
ENDTAB
  0
TABLE
  2
LAYER
  5
259
100
AcDbSymbolTable
 70
    21
  0
LAYER
  5
25A
100
AcDbSymbolTableRecord
100
AcDbLayerTableRecord
  2
0
 70
     0
 62
     7
  6
CONTINUOUS
370
    -3
390

  0
LAYER
  5
25B
100
AcDbSymbolTableRecord
100
AcDbLayerTableRecord
  2
DXF0
 70
     0
 62
     7
  6
CONTINUOUS
370
    -3
390

  0
LAYER
  5
25C
100
AcDbSymbolTableRecord
100
AcDbLayerTableRecord
  2
DXF0
 70
     0
 62
     7
  6
CONTINUOUS
370
    -3
390

  0
LAYER
  5
25D
100
AcDbSymbolTableRecord
100
AcDbLayerTableRecord
  2
A0
 70
     0
 62
     9
  6
CONTINUOUS
370
    -3
390

  0
LAYER
  5
25E
100
AcDbSymbolTableRecord
100
AcDbLayerTableRecord
  2
A1
 70
     0
 62
    12
  6
CONTINUOUS
370
    -3
390

  0
LAYER
  5
25F
100
AcDbSymbolTableRecord
100
AcDbLayerTableRecord
  2
A2
 70
     0
 62
     9
  6
CONTINUOUS
370
    -3
390

  0
LAYER
  5
260
100
AcDbSymbolTableRecord
100
AcDbLayerTableRecord
  2
A3
 70
     0
 62
    12
  6
CONTINUOUS
370
    -3
390

  0
LAYER
  5
261
100
AcDbSymbolTableRecord
100
AcDbLayerTableRecord
  2
A4
 70
     0
 62
     9
  6
CONTINUOUS
370
    -3
390

  0
LAYER
  5
262
100
AcDbSymbolTableRecord
100
AcDbLayerTableRecord
  2
A5
 70
     0
 62
     8
  6
CONTINUOUS
370
    -3
390

  0
LAYER
  5
263
100
AcDbSymbolTableRecord
100
AcDbLayerTableRecord
  2
A6
 70
     0
 62
    12
  6
CONTINUOUS
370
    -3
390

  0
LAYER
  5
264
100
AcDbSymbolTableRecord
100
AcDbLayerTableRecord
  2
A7
 70
     0
 62
    10
  6
CONTINUOUS
370
    -3
390

  0
LAYER
  5
265
100
AcDbSymbolTableRecord
100
AcDbLayerTableRecord
  2
A8
 70
     0
 62
    10
  6
CONTINUOUS
370
    -3
390

  0
LAYER
  5
266
100
AcDbSymbolTableRecord
100
AcDbLayerTableRecord
  2
A9
 70
     0
 62
     9
  6
CONTINUOUS
370
    -3
390

  0
LAYER
  5
267
100
AcDbSymbolTableRecord
100
AcDbLayerTableRecord
  2
A10
 70
     0
 62
     6
  6
CONTINUOUS
370
    -3
390

  0
LAYER
  5
268
100
AcDbSymbolTableRecord
100
AcDbLayerTableRecord
  2
A20
 70
     0
 62
     1
  6
CONTINUOUS
370
    -3
390

  0
LAYER
  5
269
100
AcDbSymbolTableRecord
100
AcDbLayerTableRecord
  2
A30
 70
     0
 62
     1
  6
CONTINUOUS
370
    -3
390

  0
LAYER
  5
26A
100
AcDbSymbolTableRecord
100
AcDbLayerTableRecord
  2
A40
 70
     0
 62
     9
  6
CONTINUOUS
370
    -3
390

  0
LAYER
  5
26B
100
AcDbSymbolTableRecord
100
AcDbLayerTableRecord
  2
A50
 70
     0
 62
    12
  6
CONTINUOUS
370
    -3
390

  0
LAYER
  5
26C
100
AcDbSymbolTableRecord
100
AcDbLayerTableRecord
  2
A1023
 70
     0
 62
     8
  6
CONTINUOUS
370
    -3
390

  0
LAYER
  5
26D
100
AcDbSymbolTableRecord
100
AcDbLayerTableRecord
  2
DXF1023
 70
     0
 62
     8
  6
CONTINUOUS
370
    -3
390

  0
LAYER
  5
26E
100
AcDbSymbolTableRecord
100
AcDbLayerTableRecord
  2
DXF1023
 70
     0
 62
    16
  6
CONTINUOUS
370
    -3
390

  0
ENDTAB
  0
TABLE
  2
STYLE
  5
26F
100
AcDbSymbolTable
 70
     4
  0
STYLE
  5
270
100
AcDbSymbolTableRecord
100
AcDbTextStyleTableRecord
  2
STANDARD
 70
    64
 40
0.0
 41
1.0
 50
0.0
 71
     0
 42
3.000000000000000
  3
TXT
  4

  0
STYLE
  5
271
100
AcDbSymbolTableRecord
100
AcDbTextStyleTableRecord
  2
ANKTATE
 70
    68
 40
0.0
 41
1.0
 50
0.0
 71
     0
 42
3.000000000000000
  3
TXT
  4

  0
STYLE
  5
272
100
AcDbSymbolTableRecord
100
AcDbTextStyleTableRecord
  2
KNJYOKO
 70
    64
 40
0.0
 41
1.0
 50
0.0
 71
     0
 42
3.000000000000000
  3
TXT
  4
BIGFONT
  0
STYLE
  5
273
100
AcDbSymbolTableRecord
100
AcDbTextStyleTableRecord
  2
KNJTATE
 70
    68
 40
0.0
 41
1.0
 50
0.0
 71
     0
 42
3.000000000000000
  3
TXT
  4
BIGFONT
  0
ENDTAB
  0
TABLE
  2
VIEW
  5
274
100
AcDbSymbolTable
 70
     0
  0
ENDTAB
  0
TABLE
  2
UCS
  5
275
100
AcDbSymbolTable
 70
     0
  0
ENDTAB
  0
TABLE
  2
APPID
  5
276
100
AcDbSymbolTable
 70
     1
  0
APPID
  5
277
100
AcDbSymbolTableRecord
100
AcDbRegAppTableRecord
  2
ACAD
 70
     0
  0
ENDTAB
  0
TABLE
  2
DIMSTYLE
  5
278
100
AcDbSymbolTable
 70
     2
100
AcDbDimStyleTable
  0
DIMSTYLE
105
279
100
AcDbSymbolTableRecord
100
AcDbDimStyleTableRecord
  2
STANDARD
 70
     0
 41
2.000000
 44
1.500000
 42
0.800000
145
0.661290
140
3.100000
144
1.000000
146
0.645161
340
270
  0
DIMSTYLE
105
27A
100
AcDbSymbolTableRecord
100
AcDbDimStyleTableRecord
  2
DXF001
 70
     0
 41
2.000000
 44
1.500000
 42
0.800000
145
0.661290
140
3.100000
144
1.000000
146
0.645161
 77
     1
 73
     0
 74
     0
271
     2
179
     2
275
     0
 78
     8
 79
     2
172
     1
340
270
  0
ENDTAB
  0
TABLE
  2
BLOCK_RECORD
  5
27B
100
AcDbSymbolTable
 70
    12
  0
BLOCK_RECORD
  5
27C
100
AcDbSymbolTableRecord
100
AcDbBlockTableRecord
  2
*MODEL_SPACE
  0
BLOCK_RECORD
  5
27D
100
AcDbSymbolTableRecord
100
AcDbBlockTableRecord
  2
*PAPER_SPACE
  0
BLOCK_RECORD
  5
27E
100
AcDbSymbolTableRecord
100
AcDbBlockTableRecord
  2
*PAPER_SPACE0
  0
BLOCK_RECORD
  5
1
100
AcDbSymbolTableRecord
100
AcDbBlockTableRecord
  2
_NONE
  0
BLOCK_RECORD
  5
4
100
AcDbSymbolTableRecord
100
AcDbBlockTableRecord
  2
_CLOSED
  0
BLOCK_RECORD
  5
B
100
AcDbSymbolTableRecord
100
AcDbBlockTableRecord
  2
_DOT
  0
BLOCK_RECORD
  5
13
100
AcDbSymbolTableRecord
100
AcDbBlockTableRecord
  2
_OPEN
  0
BLOCK_RECORD
  5
19
100
AcDbSymbolTableRecord
100
AcDbBlockTableRecord
  2
_ORIGIN
  0
BLOCK_RECORD
  5
1E
100
AcDbSymbolTableRecord
100
AcDbBlockTableRecord
  2
_OPEN30
  0
BLOCK_RECORD
  5
24
100
AcDbSymbolTableRecord
100
AcDbBlockTableRecord
  2
_BOXFILLED
  0
BLOCK_RECORD
  5
29
100
AcDbSymbolTableRecord
100
AcDbBlockTableRecord
  2
_BOXBLANK
  0
BLOCK_RECORD
  5
31
100
AcDbSymbolTableRecord
100
AcDbBlockTableRecord
  2
_OBLIQUE
  0
BLOCK_RECORD
  5
35
100
AcDbSymbolTableRecord
100
AcDbBlockTableRecord
  2
_OPEN90
  0
BLOCK_RECORD
  5
3B
100
AcDbSymbolTableRecord
100
AcDbBlockTableRecord
  2
_CLOSEDBLANK
  0
BLOCK_RECORD
  5
41
100
AcDbSymbolTableRecord
100
AcDbBlockTableRecord
  2
_DOTBLANK
  0
ENDTAB
  0
ENDSEC
  0
SECTION
  2
BLOCKS
  0
BLOCK
  5
27F
100
AcDbEntity
  8
0
100
AcDbBlockBegin
  2
*MODEL_SPACE
 70
     0
 10
0.0
 20
0.0
 30
0.0
  3
*MODEL_SPACE
  1

  0
ENDBLK
  5
280
100
AcDbEntity
  8
0
100
AcDbBlockEnd
  0
BLOCK
  5
281
100
AcDbEntity
  8
0
100
AcDbBlockBegin
  2
*PAPER_SPACE
 70
     0
 10
0.0
 20
0.0
 30
0.0
  3
*PAPER_SPACE
  1

  0
ENDBLK
  5
282
100
AcDbEntity
  8
0
100
AcDbBlockEnd
  0
BLOCK
  5
283
100
AcDbEntity
  8
0
100
AcDbBlockBegin
  2
*PAPER_SPACE0
 70
     0
 10
0.0
 20
0.0
 30
0.0
  3
*PAPER_SPACE0
  1

  0
ENDBLK
  5
284
100
AcDbEntity
  8
0
100
AcDbBlockEnd
  0
BLOCK
  5
2
330
1
100
AcDbEntity
  8
0
100
AcDbBlockBegin
  2
_NONE
 70
     0
 10
0.0
 20
0.0
 30
0.0
  3
_NONE
  1

  0
ENDBLK
  5
3
330
1
100
AcDbEntity
  8
0
100
AcDbBlockEnd
  0
BLOCK
  5
5
330
4
100
AcDbEntity
  8
0
100
AcDbBlockBegin
  2
_CLOSED
 70
     0
 10
0.0
 20
0.0
 30
0.0
  3
_CLOSED
  1

  0
LINE
  5
6
330
4
100
AcDbEntity
  8
0
  6
BYBLOCK
 62
     0
370
    -2
100
AcDbLine
 10
-1.0
 20
0.166667
 30
0.0
 11
0.0
 21
0.0
 31
0.0
  0
LINE
  5
7
330
4
100
AcDbEntity
  8
0
  6
BYBLOCK
 62
     0
370
    -2
100
AcDbLine
 10
0.0
 20
0.0
 30
0.0
 11
-1.0
 21
-0.166667
 31
0.0
  0
LINE
  5
8
330
4
100
AcDbEntity
  8
0
  6
BYBLOCK
 62
     0
370
    -2
100
AcDbLine
 10
-1.0
 20
0.166667
 30
0.0
 11
-1.0
 21
-0.166667
 31
0.0
  0
LINE
  5
9
330
4
100
AcDbEntity
  8
0
  6
BYBLOCK
 62
     0
370
    -2
100
AcDbLine
 10
0.0
 20
0.0
 30
0.0
 11
-1.0
 21
0.0
 31
0.0
  0
ENDBLK
  5
A
330
4
100
AcDbEntity
  8
0
100
AcDbBlockEnd
  0
BLOCK
  5
C
330
B
100
AcDbEntity
  8
0
100
AcDbBlockBegin
  2
_DOT
 70
     0
 10
0.0
 20
0.0
 30
0.0
  3
_DOT
  1

  0
POLYLINE
  5
D
330
B
100
AcDbEntity
  8
0
  6
BYBLOCK
 62
     0
370
    -2
100
AcDb2dPolyline
 66
     1
 10
0.0
 20
0.0
 30
0.0
 70
     1
 40
0.5
 41
0.5
  0
VERTEX
  5
E
330
B
100
AcDbEntity
  8
0
  6
BYBLOCK
 62
     0
370
    -2
100
AcDbVertex
100
AcDb2dVertex
 10
-0.25
 20
0.0
 30
0.0
 42
1.0
  0
VERTEX
  5
F
330
B
100
AcDbEntity
  8
0
  6
BYBLOCK
 62
     0
370
    -2
100
AcDbVertex
100
AcDb2dVertex
 10
0.25
 20
0.0
 30
0.0
 42
1.0
  0
SEQEND
  5
10
330
B
100
AcDbEntity
  8
0
  6
BYBLOCK
 62
     0
370
    -2
  0
LINE
  5
11
330
B
100
AcDbEntity
  8
0
  6
BYBLOCK
 62
     0
370
    -2
100
AcDbLine
 10
-0.5
 20
0.0
 30
0.0
 11
-1.0
 21
0.0
 31
0.0
  0
ENDBLK
  5
12
330
B
100
AcDbEntity
  8
0
100
AcDbBlockEnd
  0
BLOCK
  5
14
330
13
100
AcDbEntity
  8
0
100
AcDbBlockBegin
  2
_OPEN
 70
     0
 10
0.0
 20
0.0
 30
0.0
  3
_OPEN
  1

  0
LINE
  5
15
330
13
100
AcDbEntity
  8
0
  6
BYBLOCK
 62
     0
370
    -2
100
AcDbLine
 10
-1.0
 20
0.166667
 30
0.0
 11
0.0
 21
0.0
 31
0.0
  0
LINE
  5
16
330
13
100
AcDbEntity
  8
0
  6
BYBLOCK
 62
     0
370
    -2
100
AcDbLine
 10
0.0
 20
0.0
 30
0.0
 11
-1.0
 21
-0.166667
 31
0.0
  0
LINE
  5
17
330
13
100
AcDbEntity
  8
0
  6
BYBLOCK
 62
     0
370
    -2
100
AcDbLine
 10
0.0
 20
0.0
 30
0.0
 11
-1.0
 21
0.0
 31
0.0
  0
ENDBLK
  5
18
330
13
100
AcDbEntity
  8
0
100
AcDbBlockEnd
  0
BLOCK
  5
1A
330
19
100
AcDbEntity
  8
0
100
AcDbBlockBegin
  2
_ORIGIN
 70
     0
 10
0.0
 20
0.0
 30
0.0
  3
_ORIGIN
  1

  0
CIRCLE
  5
1B
330
19
100
AcDbEntity
  8
0
  6
BYBLOCK
 62
     0
370
    -2
100
AcDbCircle
 10
0.0
 20
0.0
 30
0.0
 40
0.5
  0
LINE
  5
1C
330
19
100
AcDbEntity
  8
0
  6
BYBLOCK
 62
     0
370
    -2
100
AcDbLine
 10
0.0
 20
0.0
 30
0.0
 11
-1.0
 21
0.0
 31
0.0
  0
ENDBLK
  5
1D
330
19
100
AcDbEntity
  8
0
100
AcDbBlockEnd
  0
BLOCK
  5
1F
330
1E
100
AcDbEntity
  8
0
100
AcDbBlockBegin
  2
_OPEN30
 70
     0
 10
0.0
 20
0.0
 30
0.0
  3
_OPEN30
  1

  0
LINE
  5
20
330
1E
100
AcDbEntity
  8
0
  6
BYBLOCK
 62
     0
370
    -2
100
AcDbLine
 10
-1.0
 20
0.267949
 30
0.0
 11
0.0
 21
0.0
 31
0.0
  0
LINE
  5
21
330
1E
100
AcDbEntity
  8
0
  6
BYBLOCK
 62
     0
370
    -2
100
AcDbLine
 10
0.0
 20
0.0
 30
0.0
 11
-1.0
 21
-0.267949
 31
0.0
  0
LINE
  5
22
330
1E
100
AcDbEntity
  8
0
  6
BYBLOCK
 62
     0
370
    -2
100
AcDbLine
 10
0.0
 20
0.0
 30
0.0
 11
-1.0
 21
0.0
 31
0.0
  0
ENDBLK
  5
23
330
1E
100
AcDbEntity
  8
0
100
AcDbBlockEnd
  0
BLOCK
  5
25
330
24
100
AcDbEntity
  8
0
100
AcDbBlockBegin
  2
_BOXFILLED
 70
     0
 10
0.0
 20
0.0
 30
0.0
  3
_BOXFILLED
  1

  0
SOLID
  5
26
330
24
100
AcDbEntity
  8
0
  6
BYBLOCK
 62
     0
370
    -2
100
AcDbTrace
 10
-0.5
 20
0.5
 30
0.0
 11
0.5
 21
0.5
 31
0.0
 12
-0.5
 22
-0.5
 32
0.0
 13
0.5
 23
-0.5
 33
0.0
  0
LINE
  5
27
330
24
100
AcDbEntity
  8
0
  6
BYBLOCK
 62
     0
370
    -2
100
AcDbLine
 10
-0.5
 20
0.0
 30
0.0
 11
-1.0
 21
0.0
 31
0.0
  0
ENDBLK
  5
28
330
24
100
AcDbEntity
  8
0
100
AcDbBlockEnd
  0
BLOCK
  5
2A
330
29
100
AcDbEntity
  8
0
100
AcDbBlockBegin
  2
_BOXBLANK
 70
     0
 10
0.0
 20
0.0
 30
0.0
  3
_BOXBLANK
  1

  0
LINE
  5
2B
330
29
100
AcDbEntity
  8
0
  6
BYBLOCK
 62
     0
370
    -2
100
AcDbLine
 10
-0.5
 20
-0.5
 30
0.0
 11
0.5
 21
-0.5
 31
0.0
  0
LINE
  5
2C
330
29
100
AcDbEntity
  8
0
  6
BYBLOCK
 62
     0
370
    -2
100
AcDbLine
 10
0.5
 20
-0.5
 30
0.0
 11
0.5
 21
0.5
 31
0.0
  0
LINE
  5
2D
330
29
100
AcDbEntity
  8
0
  6
BYBLOCK
 62
     0
370
    -2
100
AcDbLine
 10
0.5
 20
0.5
 30
0.0
 11
-0.5
 21
0.5
 31
0.0
  0
LINE
  5
2E
330
29
100
AcDbEntity
  8
0
  6
BYBLOCK
 62
     0
370
    -2
100
AcDbLine
 10
-0.5
 20
0.5
 30
0.0
 11
-0.5
 21
-0.5
 31
0.0
  0
LINE
  5
2F
330
29
100
AcDbEntity
  8
0
  6
BYBLOCK
 62
     0
370
    -2
100
AcDbLine
 10
-0.5
 20
0.0
 30
0.0
 11
-1.0
 21
0.0
 31
0.0
  0
ENDBLK
  5
30
330
29
100
AcDbEntity
  8
0
100
AcDbBlockEnd
  0
BLOCK
  5
32
330
31
100
AcDbEntity
  8
0
100
AcDbBlockBegin
  2
_OBLIQUE
 70
     0
 10
0.0
 20
0.0
 30
0.0
  3
_OBLIQUE
  1

  0
LINE
  5
33
330
31
100
AcDbEntity
  8
0
  6
BYBLOCK
 62
     0
370
    -2
100
AcDbLine
 10
-0.5
 20
-0.5
 30
0.0
 11
0.5
 21
0.5
 31
0.0
  0
ENDBLK
  5
34
330
31
100
AcDbEntity
  8
0
100
AcDbBlockEnd
  0
BLOCK
  5
36
330
35
100
AcDbEntity
  8
0
100
AcDbBlockBegin
  2
_OPEN90
 70
     0
 10
0.0
 20
0.0
 30
0.0
  3
_OPEN90
  1

  0
LINE
  5
37
330
35
100
AcDbEntity
  8
0
  6
BYBLOCK
 62
     0
370
    -2
100
AcDbLine
 10
-0.5
 20
0.5
 30
0.0
 11
0.0
 21
0.0
 31
0.0
  0
LINE
  5
38
330
35
100
AcDbEntity
  8
0
  6
BYBLOCK
 62
     0
370
    -2
100
AcDbLine
 10
0.0
 20
0.0
 30
0.0
 11
-0.5
 21
-0.5
 31
0.0
  0
LINE
  5
39
330
35
100
AcDbEntity
  8
0
  6
BYBLOCK
 62
     0
370
    -2
100
AcDbLine
 10
0.0
 20
0.0
 30
0.0
 11
-1.0
 21
0.0
 31
0.0
  0
ENDBLK
  5
3A
330
35
100
AcDbEntity
  8
0
100
AcDbBlockEnd
  0
BLOCK
  5
3C
330
3B
100
AcDbEntity
  8
0
100
AcDbBlockBegin
  2
_CLOSEDBLANK
 70
     0
 10
0.0
 20
0.0
 30
0.0
  3
_CLOSEDBLANK
  1

  0
LINE
  5
3D
330
3B
100
AcDbEntity
  8
0
  6
BYBLOCK
 62
     0
370
    -2
100
AcDbLine
 10
-1.0
 20
0.1666666666666666
 30
0.0
 11
0.0
 21
0.0
 31
0.0
  0
LINE
  5
3E
330
3B
100
AcDbEntity
  8
0
  6
BYBLOCK
 62
     0
370
    -2
100
AcDbLine
 10
0.0
 20
0.0
 30
0.0
 11
-1.0
 21
-0.1666666666666666
 31
0.0
  0
LINE
  5
3F
330
3B
100
AcDbEntity
  8
0
  6
BYBLOCK
 62
     0
370
    -2
100
AcDbLine
 10
-1.0
 20
0.1666666666666666
 30
0.0
 11
-1.0
 21
-0.1666666666666666
 31
0.0
  0
ENDBLK
  5
40
330
3B
100
AcDbEntity
  8
0
100
AcDbBlockEnd
  0
BLOCK
  5
42
330
41
100
AcDbEntity
  8
0
100
AcDbBlockBegin
  2
_DOTBLANK
 70
     0
 10
0.0
 20
0.0
 30
0.0
  3
_DOTBLANK
  1

  0
CIRCLE
  5
43
330
41
100
AcDbEntity
  8
0
  6
BYBLOCK
 62
     0
370
    -2
100
AcDbCircle
 10
0.0
 20
0.0
 30
0.0
 40
0.5
  0
LINE
  5
44
330
41
100
AcDbEntity
  8
0
  6
BYBLOCK
 62
     0
370
    -2
100
AcDbLine
 10
-0.5
 20
0.0
 30
0.0
 11
-1.0
 21
0.0
 31
0.0
  0
ENDBLK
  5
45
330
41
100
AcDbEntity
  8
0
100
AcDbBlockEnd
  0
ENDSEC
  0
SECTION
  2
ENTITIES
  0
MTEXT
  5
46
100
AcDbEntity
  8
A7
  6
CONTINUOUS
 62
3
100
AcDbMText
 10
9.999997526638502
 20
18.00000076076889
 30
0.000000000000000
 40
3.000000000000000
 41
0.000000000000000
 44
0.6739999771118164
 71
     7
 72
     1
  1
{\H0.94x;{TYPE No.TL-450SUS}}
 11
1.000000000000000
 21
0.000000000000000
 31
0.000000000000000
  7
STANDARD
  0
POINT
  5
47
100
AcDbEntity
  8
A7
  6
CONTINUOUS
 62
3
100
AcDbPoint
 10
9.999997526638502
 20
18.00000076076889
 30
0.000000000000000
  0
ARC
  5
48
100
AcDbEntity
  8
0
  6
CONTINUOUS
 62
7
100
AcDbCircle
 10
145.8553047172778
 20
94.00000000276819
 30
0.000000000000000
 40
1.500000000000000
100
AcDbArc
 50
90.00000000000000
 51
180.0000000000000
  0
ARC
  5
49
100
AcDbEntity
  8
0
  6
CONTINUOUS
 62
7
100
AcDbCircle
 10
167.8553047172778
 20
94.00000000276819
 30
0.000000000000000
 40
1.500000000000000
100
AcDbArc
 50
0.000000000000000
 51
90.00000000000000
  0
LINE
  5
4A
100
AcDbEntity
  8
0
  6
CONTINUOUS
 62
7
100
AcDbLine
 10
145.8553047172778
 20
95.50000000276819
 30
0.000000000000000
 11
147.0553047172779
 21
95.50000000276819
 31
0.000000000000000
  0
LINE
  5
4B
100
AcDbEntity
  8
0
  6
CONTINUOUS
 62
7
100
AcDbLine
 10
144.3553047172778
 20
74.50000000276819
 30
0.000000000000000
 11
144.3553047172778
 21
94.00000000276819
 31
0.000000000000000
  0
LINE
  5
4C
100
AcDbEntity
  8
0
  6
CONTINUOUS
 62
7
100
AcDbLine
 10
167.3553047172778
 20
72.50000000276819
 30
0.000000000000000
 11
167.0849780892099
 21
72.50000000276819
 31
0.000000000000000
  0
LINE
  5
4D
100
AcDbEntity
  8
0
  6
CONTINUOUS
 62
7
100
AcDbLine
 10
169.3553047172778
 20
94.00000000276819
 30
0.000000000000000
 11
169.3553047172778
 21
74.50000000276819
 31
0.000000000000000
  0
LINE
  5
4E
100
AcDbEntity
  8
0
  6
CONTINUOUS
 62
7
100
AcDbLine
 10
166.8553047172778
 20
95.50000000276820
 30
0.000000000000000
 11
167.8553047172778
 21
95.50000000276820
 31
0.000000000000000
  0
LINE
  5
4F
100
AcDbEntity
  8
0
  6
CONTINUOUS
 62
7
100
AcDbLine
 10
162.0774148921355
 20
72.50000000276822
 30
0.000000000000000
 11
151.6331945424208
 21
72.50000000276820
 31
0.000000000000000
  0
LINE
  5
50
100
AcDbEntity
  8
0
  6
CONTINUOUS
 62
7
100
AcDbLine
 10
146.6256313453456
 20
72.50000000276819
 30
0.000000000000000
 11
146.3553047172777
 21
72.50000000276819
 31
0.000000000000000
  0
LINE
  5
51
100
AcDbEntity
  8
0
  6
CONTINUOUS
 62
7
100
AcDbLine
 10
146.3553047172779
 20
112.5000000027682
 30
0.000000000000000
 11
146.3553047172779
 21
100.5000000027682
 31
0.000000000000000
  0
LINE
  5
52
100
AcDbEntity
  8
0
  6
CONTINUOUS
 62
7
100
AcDbLine
 10
167.3553047172779
 20
100.5000000027682
 30
0.000000000000000
 11
167.3553047172779
 21
112.5000000027682
 31
0.000000000000000
  0
LINE
  5
53
100
AcDbEntity
  8
0
  6
CONTINUOUS
 62
7
100
AcDbLine
 10
170.3553047172779
 20
100.5000000027682
 30
0.000000000000000
 11
167.3553047172779
 21
100.5000000027682
 31
0.000000000000000
  0
LINE
  5
54
100
AcDbEntity
  8
0
  6
CONTINUOUS
 62
7
100
AcDbLine
 10
170.3553047172779
 20
112.5000000027682
 30
0.000000000000000
 11
170.3553047172779
 21
100.5000000027682
 31
0.000000000000000
  0
LINE
  5
55
100
AcDbEntity
  8
0
  6
CONTINUOUS
 62
7
100
AcDbLine
 10
143.3553047172779
 20
100.5000000027682
 30
0.000000000000000
 11
146.3553047172779
 21
100.5000000027682
 31
0.000000000000000
  0
LINE
  5
56
100
AcDbEntity
  8
0
  6
CONTINUOUS
 62
7
100
AcDbLine
 10
143.3553047172779
 20
112.5000000027682
 30
0.000000000000000
 11
143.3553047172779
 21
100.5000000027682
 31
0.000000000000000
  0
LINE
  5
57
100
AcDbEntity
  8
0
  6
CONTINUOUS
 62
7
100
AcDbLine
 10
162.8181875444440
 20
85.96288282993461
 30
0.000000000000000
 11
164.3553047172775
 21
87.50000000276805
 31
0.000000000000000
  0
LINE
  5
58
100
AcDbEntity
  8
0
  6
CONTINUOUS
 62
7
100
AcDbLine
 10
150.3553047172778
 20
89.50000000276820
 30
0.000000000000000
 11
163.3553047172778
 21
89.50000000276820
 31
0.000000000000000
  0
LINE
  5
59
100
AcDbEntity
  8
0
  6
CONTINUOUS
 62
7
100
AcDbLine
 10
163.8553047172778
 20
90.00000000276820
 30
0.000000000000000
 11
163.8553047172778
 21
99.00000000276820
 31
0.000000000000000
  0
LINE
  5
5A
100
AcDbEntity
  8
0
  6
CONTINUOUS
 62
7
100
AcDbLine
 10
163.3553047172778
 20
99.50000000276820
 30
0.000000000000000
 11
150.3553047172778
 21
99.50000000276820
 31
0.000000000000000
  0
LINE
  5
5B
100
AcDbEntity
  8
0
  6
CONTINUOUS
 62
7
100
AcDbLine
 10
149.8553047172778
 20
99.00000000276820
 30
0.000000000000000
 11
149.8553047172778
 21
90.00000000276820
 31
0.000000000000000
  0
LINE
  5
5C
100
AcDbEntity
  8
0
  6
CONTINUOUS
 62
7
100
AcDbLine
 10
149.8553047172778
 20
96.50000000276820
 30
0.000000000000000
 11
149.3553047172778
 21
96.50000000276820
 31
0.000000000000000
  0
LINE
  5
5D
100
AcDbEntity
  8
0
  6
CONTINUOUS
 62
7
100
AcDbLine
 10
149.3553047172778
 20
92.50000000276820
 30
0.000000000000000
 11
149.8553047172778
 21
92.50000000276820
 31
0.000000000000000
  0
LINE
  5
5E
100
AcDbEntity
  8
0
  6
CONTINUOUS
 62
7
100
AcDbLine
 10
163.8553047172778
 20
92.50000000276820
 30
0.000000000000000
 11
164.3553047172778
 21
92.50000000276820
 31
0.000000000000000
  0
LINE
  5
5F
100
AcDbEntity
  8
0
  6
CONTINUOUS
 62
7
100
AcDbLine
 10
164.3553047172778
 20
96.50000000276820
 30
0.000000000000000
 11
163.8553047172778
 21
96.50000000276820
 31
0.000000000000000
  0
LINE
  5
60
100
AcDbEntity
  8
0
  6
CONTINUOUS
 62
7
100
AcDbLine
 10
163.3553047172778
 20
99.50000000276788
 30
0.000000000000000
 11
163.8553047172778
 21
99.00000000276795
 31
0.000000000000000
  0
LINE
  5
61
100
AcDbEntity
  8
0
  6
CONTINUOUS
 62
7
100
AcDbLine
 10
149.8553047172778
 20
99.00000000276806
 30
0.000000000000000
 11
150.3553047172778
 21
99.50000000276803
 31
0.000000000000000
  0
LINE
  5
62
100
AcDbEntity
  8
0
  6
CONTINUOUS
 62
7
100
AcDbLine
 10
150.3553047172778
 20
89.50000000276788
 30
0.000000000000000
 11
149.8553047172778
 21
90.00000000276788
 31
0.000000000000000
  0
LINE
  5
63
100
AcDbEntity
  8
0
  6
CONTINUOUS
 62
7
100
AcDbLine
 10
163.8553047172778
 20
90.00000000276810
 30
0.000000000000000
 11
163.3553047172778
 21
89.50000000276810
 31
0.000000000000000
  0
LINE
  5
64
100
AcDbEntity
  8
0
  6
CONTINUOUS
 62
7
100
AcDbLine
 10
163.3553047172778
 20
99.50000000276820
 30
0.000000000000000
 11
163.3553047172778
 21
89.50000000276820
 31
0.000000000000000
  0
LINE
  5
65
100
AcDbEntity
  8
0
  6
CONTINUOUS
 62
7
100
AcDbLine
 10
150.3553047172778
 20
99.50000000276820
 30
0.000000000000000
 11
150.3553047172778
 21
89.50000000276820
 31
0.000000000000000
  0
ARC
  5
66
100
AcDbEntity
  8
0
  6
CONTINUOUS
 62
7
100
AcDbCircle
 10
164.5661324462778
 20
72.50000000276819
 30
0.000000000000000
 40
3.000000000000000
100
AcDbArc
 50
229.3100993769999
 51
305.3549646769999
  0
ARC
  5
67
100
AcDbEntity
  8
0
  6
CONTINUOUS
 62
7
100
AcDbCircle
 10
149.1444769882778
 20
72.50000000276819
 30
0.000000000000000
 40
3.000000000000000
100
AcDbArc
 50
234.6450353230000
 51
310.6899006230001
  0
LINE
  5
68
100
AcDbEntity
  8
0
  6
CONTINUOUS
 62
7
100
AcDbLine
 10
164.6816908222778
 20
87.50000000276820
 30
0.000000000000000
 11
166.4878690172778
 21
87.50000000276820
 31
0.000000000000000
  0
LINE
  5
69
100
AcDbEntity
  8
0
  6
CONTINUOUS
 62
7
100
AcDbLine
 10
166.6553047172778
 20
111.0000000027682
 30
0.000000000000000
 11
166.6553047172778
 21
87.50000000276819
 31
0.000000000000000
  0
LINE
  5
6A
100
AcDbEntity
  8
0
  6
CONTINUOUS
 62
7
100
AcDbLine
 10
164.3553047172778
 20
111.0000000027682
 30
0.000000000000000
 11
166.6553047172778
 21
111.0000000027682
 31
0.000000000000000
  0
LINE
  5
6B
100
AcDbEntity
  8
0
  6
CONTINUOUS
 62
7
100
AcDbLine
 10
149.0289186132778
 20
87.50000000276820
 30
0.000000000000000
 11
147.2227404182778
 21
87.50000000276820
 31
0.000000000000000
  0
LINE
  5
6C
100
AcDbEntity
  8
0
  6
CONTINUOUS
 62
7
100
AcDbLine
 10
164.3553047172778
 20
87.50000000276819
 30
0.000000000000000
 11
164.3553047172778
 21
111.0000000027682
 31
0.000000000000000
  0
LINE
  5
6D
100
AcDbEntity
  8
0
  6
CONTINUOUS
 62
7
100
AcDbLine
 10
147.0553047172779
 20
111.0000000027682
 30
0.000000000000000
 11
147.0553047172779
 21
87.50000000276819
 31
0.000000000000000
  0
LINE
  5
6E
100
AcDbEntity
  8
0
  6
CONTINUOUS
 62
7
100
AcDbLine
 10
149.3553047172778
 20
111.0000000027682
 30
0.000000000000000
 11
147.0553047172779
 21
111.0000000027682
 31
0.000000000000000
  0
LINE
  5
6F
100
AcDbEntity
  8
0
  6
CONTINUOUS
 62
7
100
AcDbLine
 10
149.3553047172778
 20
87.50000000276819
 30
0.000000000000000
 11
149.3553047172778
 21
111.0000000027682
 31
0.000000000000000
  0
LINE
  5
70
100
AcDbEntity
  8
0
  6
CONTINUOUS
 62
7
100
AcDbLine
 10
150.8924218901122
 20
85.96288282993370
 30
0.000000000000000
 11
149.3553047172776
 21
87.50000000276813
 31
0.000000000000000
  0
LINE
  5
71
100
AcDbEntity
  8
0
  6
CONTINUOUS
 62
7
100
AcDbLine
 10
152.6053047172778
 20
109.2500000027682
 30
0.000000000000000
 11
152.6053047172778
 21
103.7500000027682
 31
0.000000000000000
  0
LINE
  5
72
100
AcDbEntity
  8
A1
  6
CENTER
 62
1
100
AcDbLine
 10
149.7053047172778
 20
78.50000000276819
 30
0.000000000000000
 11
164.0053047172778
 21
78.50000000276819
 31
0.000000000000000
  0
LINE
  5
73
100
AcDbEntity
  8
A1
  6
CENTER
 62
1
100
AcDbLine
 10
142.8553047172778
 20
94.50000000276819
 30
0.000000000000000
 11
170.8553047172778
 21
94.50000000276819
 31
0.000000000000000
  0
POINT
  5
74
100
AcDbEntity
  8
A10
  6
CONTINUOUS
 62
3
100
AcDbPoint
 10
160.0991450339395
 20
89.50000000276819
 30
0.000000000000000
  0
POINT
  5
75
100
AcDbEntity
  8
A10
  6
CONTINUOUS
 62
3
100
AcDbPoint
 10
153.6114644006161
 20
89.50000000276819
 30
0.000000000000000
  0
ARC
  5
76
100
AcDbEntity
  8
0
  6
CONTINUOUS
 62
7
100
AcDbCircle
 10
144.0821228990961
 20
106.5000000027682
 30
0.000000000000000
 40
3.476818181818191
100
AcDbArc
 50
102.0665060123998
 51
257.9334939875983
  0
ARC
  5
77
100
AcDbEntity
  8
0
  6
CONTINUOUS
 62
7
100
AcDbCircle
 10
169.6284865354597
 20
106.5000000027682
 30
0.000000000000000
 40
3.476818181818191
100
AcDbArc
 50
282.0665060124017
 51
437.9334939876002
  0
LINE
  5
78
100
AcDbEntity
  8
0
  6
CONTINUOUS
 62
7
100
AcDbLine
 10
146.3553047172779
 20
104.5000000027681
 30
0.000000000000000
 11
147.0553047172779
 21
104.5000000027681
 31
0.000000000000000
  0
LINE
  5
79
100
AcDbEntity
  8
0
  6
CONTINUOUS
 62
7
100
AcDbLine
 10
146.3553047172779
 20
108.5000000027683
 30
0.000000000000000
 11
147.0553047172779
 21
108.5000000027683
 31
0.000000000000000
  0
LINE
  5
7A
100
AcDbEntity
  8
0
  6
CONTINUOUS
 62
7
100
AcDbLine
 10
166.6553047172777
 20
108.5000000027683
 30
0.000000000000000
 11
167.3553047172779
 21
108.5000000027683
 31
0.000000000000000
  0
LINE
  5
7B
100
AcDbEntity
  8
0
  6
CONTINUOUS
 62
7
100
AcDbLine
 10
166.6553047172777
 20
104.5000000027681
 30
0.000000000000000
 11
167.3553047172779
 21
104.5000000027681
 31
0.000000000000000
  0
ARC
  5
7C
100
AcDbEntity
  8
0
  6
CONTINUOUS
 62
7
100
AcDbCircle
 10
156.8553047172778
 20
59.50000000276820
 30
0.000000000000000
 40
9.500000000000000
100
AcDbArc
 50
183.1494288099572
 51
356.8505711900432
  0
ARC
  5
7D
100
AcDbEntity
  8
0
  6
CONTINUOUS
 62
7
100
AcDbCircle
 10
156.8553047172778
 20
59.50000000276820
 30
0.000000000000000
 40
4.500000000000000
100
AcDbArc
 50
183.1494288099568
 51
356.8505711900431
  0
LINE
  5
7E
100
AcDbEntity
  8
0
  6
CONTINUOUS
 62
7
100
AcDbLine
 10
166.3409563467472
 20
58.97806785742868
 30
0.000000000000000
 11
167.8553047172777
 21
86.50000000276793
 31
0.000000000000000
  0
LINE
  5
7F
100
AcDbEntity
  8
0
  6
CONTINUOUS
 62
7
100
AcDbLine
 10
161.3485081207103
 20
59.25276898655478
 30
0.000000000000000
 11
162.8181875444442
 21
85.96288282993468
 31
0.000000000000000
  0
LINE
  5
80
100
AcDbEntity
  8
0
  6
CONTINUOUS
 62
7
100
AcDbLine
 10
152.3621013138459
 20
59.25276898655481
 30
0.000000000000000
 11
150.8924218901120
 21
85.96288282993473
 31
0.000000000000000
  0
LINE
  5
81
100
AcDbEntity
  8
0
  6
CONTINUOUS
 62
7
100
AcDbLine
 10
147.3696530878085
 20
58.97806785742858
 30
0.000000000000000
 11
145.8553047172779
 21
86.50000000276788
 31
0.000000000000000
  0
LINE
  5
82
100
AcDbEntity
  8
0
  6
CONTINUOUS
 62
7
100
AcDbLine
 10
166.6553047172777
 20
87.50000000276825
 30
0.000000000000000
 11
167.8553047172779
 21
86.50000000276788
 31
0.000000000000000
  0
LINE
  5
83
100
AcDbEntity
  8
0
  6
CONTINUOUS
 62
7
100
AcDbLine
 10
147.0553047172779
 20
87.50000000276826
 30
0.000000000000000
 11
145.8553047172780
 21
86.50000000276800
 31
0.000000000000000
  0
LINE
  5
84
100
AcDbEntity
  8
0
  6
CONTINUOUS
 62
7
100
AcDbLine
 10
150.6053047172784
 20
103.7500000027682
 30
0.000000000000000
 11
152.6053047172778
 21
103.7500000027682
 31
0.000000000000000
  0
LINE
  5
85
100
AcDbEntity
  8
0
  6
CONTINUOUS
 62
7
100
AcDbLine
 10
150.6053047172777
 20
109.2500000027682
 30
0.000000000000000
 11
152.6053047172778
 21
109.2500000027682
 31
0.000000000000000
  0
LINE
  5
86
100
AcDbEntity
  8
0
  6
CONTINUOUS
 62
7
100
AcDbLine
 10
163.1053047172777
 20
109.2500000027682
 30
0.000000000000000
 11
161.1053047172778
 21
109.2500000027682
 31
0.000000000000000
  0
LINE
  5
87
100
AcDbEntity
  8
0
  6
CONTINUOUS
 62
7
100
AcDbLine
 10
161.1053047172778
 20
109.2500000027682
 30
0.000000000000000
 11
161.1053047172778
 21
103.7500000027682
 31
0.000000000000000
  0
LINE
  5
88
100
AcDbEntity
  8
0
  6
CONTINUOUS
 62
7
100
AcDbLine
 10
163.1053047172770
 20
103.7500000027682
 30
0.000000000000000
 11
161.1053047172778
 21
103.7500000027682
 31
0.000000000000000
  0
LINE
  5
89
100
AcDbEntity
  8
0
  6
CONTINUOUS
 62
7
100
AcDbLine
 10
149.3553047172774
 20
108.5000000027682
 30
0.000000000000000
 11
150.6053047172776
 21
109.2500000027682
 31
0.000000000000000
  0
LINE
  5
8A
100
AcDbEntity
  8
0
  6
CONTINUOUS
 62
7
100
AcDbLine
 10
149.3553047172773
 20
104.5000000027686
 30
0.000000000000000
 11
150.6053047172776
 21
103.7500000027686
 31
0.000000000000000
  0
LINE
  5
8B
100
AcDbEntity
  8
0
  6
CONTINUOUS
 62
7
100
AcDbLine
 10
164.3553047172780
 20
104.5000000027687
 30
0.000000000000000
 11
163.1053047172776
 21
103.7500000027687
 31
0.000000000000000
  0
LINE
  5
8C
100
AcDbEntity
  8
0
  6
CONTINUOUS
 62
7
100
AcDbLine
 10
164.3553047172782
 20
108.5000000027683
 30
0.000000000000000
 11
163.1053047172778
 21
109.2500000027682
 31
0.000000000000000
  0
ARC
  5
8D
100
AcDbEntity
  8
0
  6
CONTINUOUS
 62
7
100
AcDbCircle
 10
167.3553047172778
 20
74.50000000276819
 30
0.000000000000000
 40
2.000000000000000
100
AcDbArc
 50
270.0000000000000
 51
360.0000000000000
  0
ARC
  5
8E
100
AcDbEntity
  8
0
  6
CONTINUOUS
 62
7
100
AcDbCircle
 10
146.3553047172777
 20
74.50000000276819
 30
0.000000000000000
 40
2.000000000000000
100
AcDbArc
 50
180.0000000000000
 51
270.0000000000000
  0
LINE
  5
8F
100
AcDbEntity
  8
0
  6
CONTINUOUS
 62
7
100
AcDbLine
 10
154.3553047172778
 20
84.86925739040875
 30
0.000000000000000
 11
159.3553047172778
 21
84.86925739040875
 31
0.000000000000000
  0
LINE
  5
90
100
AcDbEntity
  8
0
  6
CONTINUOUS
 62
7
100
AcDbLine
 10
159.8553047172778
 20
125.8692573904088
 30
0.000000000000000
 11
153.8553047172778
 21
125.8692573904088
 31
0.000000000000000
  0
LINE
  5
91
100
AcDbEntity
  8
0
  6
CONTINUOUS
 62
7
100
AcDbLine
 10
154.3553047172775
 20
84.86925739040882
 30
0.000000000000000
 11
153.8553047172776
 21
85.36925739040875
 31
0.000000000000000
  0
LINE
  5
92
100
AcDbEntity
  8
0
  6
CONTINUOUS
 62
7
100
AcDbLine
 10
159.8553047172775
 20
85.36925739040862
 30
0.000000000000000
 11
159.3553047172776
 21
84.86925739040865
 31
0.000000000000000
  0
LINE
  5
93
100
AcDbEntity
  8
0
  6
CONTINUOUS
 62
7
100
AcDbLine
 10
159.8553047172778
 20
85.36925739040875
 30
0.000000000000000
 11
153.8553047172778
 21
85.36925739040875
 31
0.000000000000000
  0
LINE
  5
94
100
AcDbEntity
  8
0
  6
CONTINUOUS
 62
7
100
AcDbLine
 10
159.3553047172778
 20
125.8692573904088
 30
0.000000000000000
 11
159.3553047172778
 21
134.6428677114088
 31
0.000000000000000
  0
LINE
  5
95
100
AcDbEntity
  8
0
  6
CONTINUOUS
 62
7
100
AcDbLine
 10
159.3553047172774
 20
134.6428677114086
 30
0.000000000000000
 11
158.1053047172775
 21
135.8928677114086
 31
0.000000000000000
  0
LINE
  5
96
100
AcDbEntity
  8
0
  6
CONTINUOUS
 62
7
100
AcDbLine
 10
158.1053047172778
 20
145.8928677114088
 30
0.000000000000000
 11
155.6053047172778
 21
145.8928677114088
 31
0.000000000000000
  0
LINE
  5
97
100
AcDbEntity
  8
0
  6
CONTINUOUS
 62
7
100
AcDbLine
 10
155.6053047172774
 20
135.8928677114087
 30
0.000000000000000
 11
154.3553047172774
 21
134.6428677114086
 31
0.000000000000000
  0
LINE
  5
98
100
AcDbEntity
  8
0
  6
CONTINUOUS
 62
7
100
AcDbLine
 10
154.3553047172778
 20
134.6428677114088
 30
0.000000000000000
 11
154.3553047172778
 21
125.8692573904088
 31
0.000000000000000
  0
LINE
  5
99
100
AcDbEntity
  8
0
  6
CONTINUOUS
 62
7
100
AcDbLine
 10
160.7553047172779
 20
137.2692573904088
 30
0.000000000000000
 11
160.7553047172779
 21
146.8692573904088
 31
0.000000000000000
  0
LINE
  5
9A
100
AcDbEntity
  8
0
  6
CONTINUOUS
 62
7
100
AcDbLine
 10
160.7553047172779
 20
137.2692573904088
 30
0.000000000000000
 11
158.7553047172779
 21
137.2692573904088
 31
0.000000000000000
  0
LINE
  5
9B
100
AcDbEntity
  8
0
  6
CONTINUOUS
 62
7
100
AcDbLine
 10
154.9553047172777
 20
137.2692573904087
 30
0.000000000000000
 11
152.9553047172777
 21
137.2692573904087
 31
0.000000000000000
  0
LINE
  5
9C
100
AcDbEntity
  8
0
  6
CONTINUOUS
 62
7
100
AcDbLine
 10
152.9553047172777
 20
137.2692573904088
 30
0.000000000000000
 11
152.9553047172777
 21
146.9293257002723
 31
0.000000000000000
  0
LINE
  5
9D
100
AcDbEntity
  8
0
  6
CONTINUOUS
 62
7
100
AcDbLine
 10
144.8553047172778
 20
172.8692573904088
 30
0.000000000000000
 11
168.8553047172778
 21
172.8692573904088
 31
0.000000000000000
  0
LINE
  5
9E
100
AcDbEntity
  8
0
  6
CONTINUOUS
 62
7
100
AcDbLine
 10
144.8553047172778
 20
167.8692573904088
 30
0.000000000000000
 11
168.8553047172778
 21
167.8692573904088
 31
0.000000000000000
  0
LINE
  5
9F
100
AcDbEntity
  8
A1
  6
CENTER
 62
1
100
AcDbLine
 10
148.6181341892777
 20
142.0692573904088
 30
0.000000000000000
 11
165.5053047172778
 21
142.0692573904088
 31
0.000000000000000
  0
POINT
  5
A0
100
AcDbEntity
  8
A10
  6
CONTINUOUS
 62
3
100
AcDbPoint
 10
156.8553047171182
 20
142.7981895782491
 30
0.000000000000000
  0
LINE
  5
A1
100
AcDbEntity
  8
0
  6
CONTINUOUS
 62
7
100
AcDbLine
 10
155.6053047172778
 20
145.8928677114088
 30
0.000000000000000
 11
155.6053047172778
 21
135.8928677114087
 31
0.000000000000000
  0
LINE
  5
A2
100
AcDbEntity
  8
0
  6
CONTINUOUS
 62
7
100
AcDbLine
 10
158.1053047172778
 20
145.8928677114088
 30
0.000000000000000
 11
158.1053047172778
 21
135.8928677114086
 31
0.000000000000000
  0
LINE
  5
A3
100
AcDbEntity
  8
0
  6
CONTINUOUS
 62
7
100
AcDbLine
 10
158.1053047172778
 20
140.0692573904088
 30
0.000000000000000
 11
158.7553047172779
 21
140.0692573904088
 31
0.000000000000000
  0
LINE
  5
A4
100
AcDbEntity
  8
0
  6
CONTINUOUS
 62
7
100
AcDbLine
 10
154.9553047172777
 20
140.0692573904088
 30
0.000000000000000
 11
155.6053047172778
 21
140.0692573904088
 31
0.000000000000000
  0
LINE
  5
A5
100
AcDbEntity
  8
0
  6
CONTINUOUS
 62
7
100
AcDbLine
 10
158.1053047172778
 20
144.0692573904088
 30
0.000000000000000
 11
158.7553047172779
 21
144.0692573904088
 31
0.000000000000000
  0
LINE
  5
A6
100
AcDbEntity
  8
0
  6
CONTINUOUS
 62
7
100
AcDbLine
 10
154.9553047172777
 20
144.0692573904088
 30
0.000000000000000
 11
155.6053047172778
 21
144.0692573904088
 31
0.000000000000000
  0
LINE
  5
A7
100
AcDbEntity
  8
0
  6
CONTINUOUS
 62
7
100
AcDbLine
 10
160.7553047172772
 20
144.0692573904086
 30
0.000000000000000
 11
162.0053047172777
 21
144.8192573904087
 31
0.000000000000000
  0
LINE
  5
A8
100
AcDbEntity
  8
0
  6
CONTINUOUS
 62
7
100
AcDbLine
 10
162.0053047172779
 20
144.8192573904088
 30
0.000000000000000
 11
164.0053047172778
 21
144.8192573904088
 31
0.000000000000000
  0
LINE
  5
A9
100
AcDbEntity
  8
0
  6
CONTINUOUS
 62
7
100
AcDbLine
 10
164.0053047172778
 20
144.8192573904088
 30
0.000000000000000
 11
164.0053047172778
 21
139.3192573904088
 31
0.000000000000000
  0
LINE
  5
AA
100
AcDbEntity
  8
0
  6
CONTINUOUS
 62
7
100
AcDbLine
 10
162.0053047172786
 20
139.3192573904088
 30
0.000000000000000
 11
164.0053047172778
 21
139.3192573904088
 31
0.000000000000000
  0
LINE
  5
AB
100
AcDbEntity
  8
0
  6
CONTINUOUS
 62
7
100
AcDbLine
 10
160.7553047172775
 20
140.0692573904091
 30
0.000000000000000
 11
162.0053047172779
 21
139.3192573904091
 31
0.000000000000000
  0
ARC
  5
AC
100
AcDbEntity
  8
0
  6
CONTINUOUS
 62
7
100
AcDbCircle
 10
144.8553047172778
 20
166.3692573904088
 30
0.000000000000000
 40
6.500000000000000
100
AcDbArc
 50
90.00000000000000
 51
215.5000000000001
  0
ARC
  5
AD
100
AcDbEntity
  8
0
  6
CONTINUOUS
 62
7
100
AcDbCircle
 10
144.8553047172778
 20
166.3692573904088
 30
0.000000000000000
 40
1.500000000000000
100
AcDbArc
 50
90.00000000000000
 51
215.4999999999994
  0
LINE
  5
AE
100
AcDbEntity
  8
0
  6
CONTINUOUS
 62
7
100
AcDbLine
 10
143.6341314397428
 20
165.4982029568424
 30
0.000000000000000
 11
154.0258823090594
 21
150.9295055489813
 31
0.000000000000000
  0
LINE
  5
AF
100
AcDbEntity
  8
0
  6
CONTINUOUS
 62
7
100
AcDbLine
 10
139.5635538479614
 20
162.5946881782876
 30
0.000000000000000
 11
148.6102364336094
 21
149.9117069566696
 31
0.000000000000000
  0
LINE
  5
B0
100
AcDbEntity
  8
0
  6
CONTINUOUS
 62
7
100
AcDbLine
 10
152.9553047172775
 20
146.8692573904090
 30
0.000000000000000
 11
148.6102364336094
 21
149.9117069566695
 31
0.000000000000000
  0
ARC
  5
B1
100
AcDbEntity
  8
0
  6
CONTINUOUS
 62
7
100
AcDbCircle
 10
149.9553047172777
 20
148.0259907704265
 30
0.000000000000000
 40
5.000000000000000
100
AcDbArc
 50
0.000000000000000
 51
35.50000000000048
  0
ARC
  5
B2
100
AcDbEntity
  8
0
  6
CONTINUOUS
 62
7
100
AcDbCircle
 10
163.7553047172779
 20
148.0259907704265
 30
0.000000000000000
 40
5.000000000000000
100
AcDbArc
 50
144.4999999999995
 51
180.0000000000000
  0
LINE
  5
B3
100
AcDbEntity
  8
0
  6
CONTINUOUS
 62
7
100
AcDbLine
 10
160.7553047172780
 20
146.8692573904088
 30
0.000000000000000
 11
165.1003730009460
 21
149.9117069566691
 31
0.000000000000000
  0
LINE
  5
B4
100
AcDbEntity
  8
0
  6
CONTINUOUS
 62
7
100
AcDbLine
 10
174.1470555865944
 20
162.5946881782875
 30
0.000000000000000
 11
165.1003730009465
 21
149.9117069566696
 31
0.000000000000000
  0
ARC
  5
B5
100
AcDbEntity
  8
0
  6
CONTINUOUS
 62
7
100
AcDbCircle
 10
168.8553047172778
 20
166.3692573904088
 30
0.000000000000000
 40
1.500000000000000
100
AcDbArc
 50
324.5000000000006
 51
450.0000000000000
  0
LINE
  5
B6
100
AcDbEntity
  8
0
  6
CONTINUOUS
 62
7
100
AcDbLine
 10
170.0764779948128
 20
165.4982029568421
 30
0.000000000000000
 11
159.6847271254965
 21
150.9295055489813
 31
0.000000000000000
  0
ARC
  5
B7
100
AcDbEntity
  8
0
  6
CONTINUOUS
 62
7
100
AcDbCircle
 10
168.8553047172778
 20
166.3692573904088
 30
0.000000000000000
 40
6.500000000000000
100
AcDbArc
 50
324.4999999999999
 51
450.0000000000000
  0
LINE
  5
B8
100
AcDbEntity
  8
0
  6
CONTINUOUS
 62
7
100
AcDbLine
 10
158.7553047172779
 20
148.0259907704265
 30
0.000000000000000
 11
158.7553047172925
 21
137.2692573904098
 31
0.000000000000000
  0
LINE
  5
B9
100
AcDbEntity
  8
0
  6
CONTINUOUS
 62
7
100
AcDbLine
 10
154.9553047172777
 20
137.2692573904088
 30
0.000000000000000
 11
154.9553047172777
 21
148.0259907704265
 31
0.000000000000000
  0
ARC
  5
BA
100
AcDbEntity
  8
0
  6
CONTINUOUS
 62
7
100
AcDbCircle
 10
153.4681341892774
 20
142.0692573904088
 30
0.000000000000000
 40
4.000000000000000
100
AcDbArc
 50
97.34879259399999
 51
262.7365255800000
  0
CIRCLE
  5
BB
100
AcDbEntity
  8
0
  6
CONTINUOUS
 62
7
100
AcDbCircle
 10
156.8553047172778
 20
78.50000000276819
 30
0.000000000000000
 40
5.150000000000000
  0
ARC
  5
BC
100
AcDbEntity
  8
0
  6
CONTINUOUS
 62
7
100
AcDbCircle
 10
156.8553047172778
 20
93.50000000276816
 30
0.000000000000000
 40
5.150000000000000
100
AcDbArc
 50
230.9593273636403
 51
234.3717169646578
  0
ARC
  5
BD
100
AcDbEntity
  8
0
  6
CONTINUOUS
 62
7
100
AcDbCircle
 10
156.8553047172778
 20
93.50000000276816
 30
0.000000000000000
 40
5.150000000000000
100
AcDbArc
 50
305.6282830353422
 51
309.0406726363597
  0
LINE
  5
BE
100
AcDbEntity
  8
0
  6
CONTINUOUS
 62
7
100
AcDbLine
 10
153.8553047172778
 20
85.36925739040876
 30
0.000000000000000
 11
153.8553047172778
 21
89.50000000276819
 31
0.000000000000000
  0
LINE
  5
BF
100
AcDbEntity
  8
0
  6
CONTINUOUS
 62
7
100
AcDbLine
 10
153.8553047172778
 20
99.50000000276816
 30
0.000000000000000
 11
153.8553047172778
 21
125.8692573904088
 31
0.000000000000000
  0
LINE
  5
C0
100
AcDbEntity
  8
DXF0
  6
CONTINUOUS
 62
4
100
AcDbLine
 10
154.3553047172778
 20
84.86925739040876
 30
0.000000000000000
 11
154.3553047172778
 21
89.50000000276819
 31
0.000000000000000
  0
LINE
  5
C1
100
AcDbEntity
  8
DXF0
  6
CONTINUOUS
 62
4
100
AcDbLine
 10
154.3553047172778
 20
99.50000000276816
 30
0.000000000000000
 11
154.3553047172778
 21
125.8692573904088
 31
0.000000000000000
  0
LINE
  5
C2
100
AcDbEntity
  8
DXF0
  6
CONTINUOUS
 62
4
100
AcDbLine
 10
159.3553047172778
 20
84.86925739040876
 30
0.000000000000000
 11
159.3553047172778
 21
89.50000000276819
 31
0.000000000000000
  0
LINE
  5
C3
100
AcDbEntity
  8
DXF0
  6
CONTINUOUS
 62
4
100
AcDbLine
 10
159.3553047172778
 20
99.50000000276819
 30
0.000000000000000
 11
159.3553047172778
 21
125.8692573904088
 31
0.000000000000000
  0
LINE
  5
C4
100
AcDbEntity
  8
0
  6
CONTINUOUS
 62
7
100
AcDbLine
 10
159.8553047172778
 20
85.36925739040876
 30
0.000000000000000
 11
159.8553047172778
 21
89.50000000276819
 31
0.000000000000000
  0
LINE
  5
C5
100
AcDbEntity
  8
0
  6
CONTINUOUS
 62
7
100
AcDbLine
 10
159.8553047172778
 20
99.50000000276816
 30
0.000000000000000
 11
159.8553047172778
 21
125.8692573904088
 31
0.000000000000000
  0
LINE
  5
C6
100
AcDbEntity
  8
0
  6
CONTINUOUS
 62
7
100
AcDbLine
 10
143.3553047172779
 20
112.5000000027682
 30
0.000000000000000
 11
153.8553047172778
 21
112.5000000027682
 31
0.000000000000000
  0
LINE
  5
C7
100
AcDbEntity
  8
0
  6
CONTINUOUS
 62
7
100
AcDbLine
 10
159.8553047172778
 20
112.5000000027682
 30
0.000000000000000
 11
170.3553047172779
 21
112.5000000027682
 31
0.000000000000000
  0
CIRCLE
  5
C8
100
AcDbEntity
  8
0
  6
CONTINUOUS
 62
7
100
AcDbCircle
 10
156.8553047172778
 20
78.50000000276816
 30
0.000000000000000
 40
2.650000000000000
  0
CIRCLE
  5
C9
100
AcDbEntity
  8
A0
  6
DASHED
 62
2
100
AcDbCircle
 10
156.8553047172778
 20
93.50000000276816
 30
0.000000000000000
 40
2.650000000000000
  0
ARC
  5
CA
100
AcDbEntity
  8
A0
  6
DASHED
 62
2
100
AcDbCircle
 10
156.8553047172778
 20
93.50000000276816
 30
0.000000000000000
 40
5.150000000000000
100
AcDbArc
 50
309.0406726363597
 51
590.9593273636408
  0
ARC
  5
CB
100
AcDbEntity
  8
0
  6
CONTINUOUS
 62
7
100
AcDbCircle
 10
156.8553047172778
 20
93.50000000276816
 30
0.000000000000000
 40
5.150000000000000
100
AcDbArc
 50
234.3717169646578
 51
305.6282830353422
  0
CIRCLE
  5
CC
100
AcDbEntity
  8
A0
  6
DASHED
 62
2
100
AcDbCircle
 10
57.30532308359885
 20
141.9902201618674
 30
0.000000000000000
 40
2.000000000000000
  0
LINE
  5
CD
100
AcDbEntity
  8
0
  6
CONTINUOUS
 62
7
100
AcDbLine
 10
60.56839646530570
 20
137.3659472816365
 30
0.000000000000000
 11
54.45670922723114
 21
137.0706370559606
 31
0.000000000000000
  0
LINE
  5
CE
100
AcDbEntity
  8
0
  6
CONTINUOUS
 62
7
100
AcDbLine
 10
59.49063858639959
 20
148.5632372869478
 30
0.000000000000000
 11
58.43543686687697
 21
170.4015020256996
 31
0.000000000000000
  0
LINE
  5
CF
100
AcDbEntity
  8
0
  6
CONTINUOUS
 62
7
100
AcDbLine
 10
53.44126346474128
 20
170.1601888789521
 30
0.000000000000000
 11
54.49646518533351
 21
148.3219241410804
 31
0.000000000000000
  0
LINE
  5
D0
100
AcDbEntity
  8
0
  6
CONTINUOUS
 62
7
100
AcDbLine
 10
53.00000000005411
 20
96.50000000278312
 30
0.000000000000000
 11
50.00000000005411
 21
96.50000000278662
 31
0.000000000000000
  0
LINE
  5
D1
100
AcDbEntity
  8
0
  6
CONTINUOUS
 62
7
100
AcDbLine
 10
53.00000000002618
 20
72.50000000278312
 30
0.000000000000000
 11
50.00000000002618
 21
72.50000000278662
 31
0.000000000000000
  0
LINE
  5
D2
100
AcDbEntity
  8
0
  6
CONTINUOUS
 62
7
100
AcDbLine
 10
53.00000000005877
 20
100.5000000027831
 30
0.000000000000000
 11
53.00000000002618
 21
72.50000000278312
 31
0.000000000000000
  0
LINE
  5
D3
100
AcDbEntity
  8
0
  6
CONTINUOUS
 62
7
100
AcDbLine
 10
60.00000000005877
 20
100.5000000027750
 30
0.000000000000000
 11
50.00000000005877
 21
100.5000000027866
 31
0.000000000000000
  0
LINE
  5
D4
100
AcDbEntity
  8
0
  6
CONTINUOUS
 62
7
100
AcDbLine
 10
50.00000000007274
 20
112.5000000027866
 30
0.000000000000000
 11
50.00000000002618
 21
72.50000000278662
 31
0.000000000000000
  0
LINE
  5
D5
100
AcDbEntity
  8
0
  6
CONTINUOUS
 62
7
100
AcDbLine
 10
60.00000000007274
 20
112.5000000027750
 30
0.000000000000000
 11
50.00000000007274
 21
112.5000000027866
 31
0.000000000000000
  0
ARC
  5
D6
100
AcDbEntity
  8
0
  6
CONTINUOUS
 62
7
100
AcDbCircle
 10
60.00000000006575
 20
106.5000000027750
 30
0.000000000000000
 40
6.000000000000000
100
AcDbArc
 50
269.9999999999333
 51
449.9999999999333
  0
CIRCLE
  5
D7
100
AcDbEntity
  8
0
  6
CONTINUOUS
 62
7
100
AcDbCircle
 10
59.59999999994413
 20
94.50000000245220
 30
0.000000000000000
 40
2.000000000000000
  0
CIRCLE
  5
D8
100
AcDbEntity
  8
A0
  6
DASHED
 62
2
100
AcDbCircle
 10
59.02084845011235
 20
106.4860161667153
 30
0.000000000000000
 40
2.000000000000000
  0
LINE
  5
D9
100
AcDbEntity
  8
0
  6
CONTINUOUS
 62
7
100
AcDbLine
 10
58.57372055892989
 20
64.86602540570512
 30
0.000000000000000
 11
66.43493649123694
 21
51.25000000014097
 31
0.000000000000000
  0
LINE
  5
DA
100
AcDbEntity
  8
0
  6
CONTINUOUS
 62
7
100
AcDbLine
 10
57.09999999987401
 20
87.50000000243044
 30
0.000000000000000
 11
57.10000000082756
 21
70.36602540462714
 31
0.000000000000000
  0
LINE
  5
DB
100
AcDbEntity
  8
DXF0
  6
CONTINUOUS
 62
4
100
AcDbLine
 10
62.10000000050221
 20
70.36602540540351
 30
0.000000000000000
 11
62.10000000065869
 21
87.50000000254367
 31
0.000000000000000
  0
LINE
  5
DC
100
AcDbEntity
  8
0
  6
CONTINUOUS
 62
7
100
AcDbLine
 10
70.76506351008479
 20
53.74999999981569
 30
0.000000000000000
 11
62.90384757782145
 21
67.36602540530416
 31
0.000000000000000
  0
ARC
  5
DD
100
AcDbEntity
  8
0
  6
CONTINUOUS
 62
7
100
AcDbCircle
 10
59.59999999986690
 20
89.37500000261139
 30
0.000000000000000
 40
3.125000000000000
100
AcDbArc
 50
223.5113416288968
 51
315.9699101538968
  0
ARC
  5
DE
100
AcDbEntity
  8
0
  6
CONTINUOUS
 62
7
100
AcDbCircle
 10
65.60157595721316
 20
92.76528311412403
 30
0.000000000000000
 40
10.00000000000000
100
AcDbArc
 50
180.2953382488968
 51
211.7711855028969
  0
ARC
  5
DF
100
AcDbEntity
  8
0
  6
CONTINUOUS
 62
7
100
AcDbCircle
 10
53.59842404296680
 20
92.76528311456732
 30
0.000000000000000
 40
10.00000000000000
100
AcDbArc
 50
328.2288144968969
 51
359.7046617508968
  0
LINE
  5
E0
100
AcDbEntity
  8
0
  6
CONTINUOUS
 62
7
100
AcDbLine
 10
61.07741002900510
 20
87.50000000313169
 30
0.000000000000000
 11
57.93502406965225
 21
87.50000000254103
 31
0.000000000000000
  0
LINE
  5
E1
100
AcDbEntity
  8
0
  6
CONTINUOUS
 62
7
100
AcDbLine
 10
55.69242928833133
 20
92.52284348336218
 30
0.000000000000000
 11
55.31897090821379
 21
100.3001453067139
 31
0.000000000000000
  0
LINE
  5
E2
100
AcDbEntity
  8
0
  6
CONTINUOUS
 62
7
100
AcDbLine
 10
63.24375831066043
 20
101.8812757978416
 30
0.000000000000000
 11
63.67999019652574
 21
92.90879392913314
 31
0.000000000000000
  0
CIRCLE
  5
E3
100
AcDbEntity
  8
A0
  6
DASHED
 62
2
100
AcDbCircle
 10
59.59999999994413
 20
94.50000000245220
 30
0.000000000000000
 40
4.000000000000000
  0
LINE
  5
E4
100
AcDbEntity
  8
0
  6
CONTINUOUS
 62
7
100
AcDbLine
 10
55.58781096685445
 20
125.7356284108810
 30
0.000000000000000
 11
55.16551296173377
 21
134.4754318651586
 31
0.000000000000000
  0
LINE
  5
E5
100
AcDbEntity
  8
0
  6
CONTINUOUS
 62
7
100
AcDbLine
 10
60.15968636287380
 20
134.7167450109361
 30
0.000000000000000
 11
60.58198436800527
 21
125.9769415564350
 31
0.000000000000000
  0
LINE
  5
E6
100
AcDbEntity
  8
0
  6
CONTINUOUS
 62
7
100
AcDbLine
 10
62.60000000046239
 20
85.36925739111641
 30
0.000000000000000
 11
62.10000000057876
 21
84.86925739046721
 31
0.000000000000000
  0
LINE
  5
E7
100
AcDbEntity
  8
0
  6
CONTINUOUS
 62
7
100
AcDbLine
 10
56.59999999950037
 20
85.36925739112341
 30
0.000000000000000
 11
57.09999999938283
 21
84.86925739047305
 31
0.000000000000000
  0
LINE
  5
E8
100
AcDbEntity
  8
0
  6
CONTINUOUS
 62
7
100
AcDbLine
 10
61.08254120500711
 20
125.9774900651122
 30
0.000000000000000
 11
55.08953312303586
 21
125.6879142904189
 31
0.000000000000000
  0
ARC
  5
E9
100
AcDbEntity
  8
0
  6
CONTINUOUS
 62
7
100
AcDbCircle
 10
68.60000000066094
 20
52.49999999997835
 30
0.000000000000000
 40
2.500000000000000
100
AcDbArc
 50
29.99999999689707
 51
209.9999999968971
  0
ARC
  5
EA
100
AcDbEntity
  8
0
  6
CONTINUOUS
 62
7
100
AcDbCircle
 10
68.60000000066094
 20
52.49999999997835
 30
0.000000000000000
 40
2.500000000000000
100
AcDbArc
 50
209.9999999968971
 51
389.9999999968970
  0
LINE
  5
EB
100
AcDbEntity
  8
A1
  6
CENTER
 62
1
100
AcDbLine
 10
70.60000000049182
 20
49.03589838474278
 30
0.000000000000000
 11
60.73878406779952
 21
66.11602540650379
 31
0.000000000000000
  0
LINE
  5
EC
100
AcDbEntity
  8
A1
  6
CENTER
 62
1
100
AcDbLine
 10
65.13589838542538
 20
50.50000000014789
 30
0.000000000000000
 11
72.06410161589662
 21
54.49999999980890
 31
0.000000000000000
  0
LINE
  5
ED
100
AcDbEntity
  8
A1
  6
CENTER
 62
1
100
AcDbLine
 10
54.10000000006577
 20
106.5000000027818
 30
0.000000000000000
 11
65.10000000006576
 21
106.5000000027690
 31
0.000000000000000
  0
LINE
  5
EE
100
AcDbEntity
  8
A0
  6
DASHED
 62
2
100
AcDbLine
 10
50.00000000005372
 20
96.15000000282443
 30
0.000000000000000
 11
50.50000000009874
 21
96.15000000282419
 31
0.000000000000000
  0
LINE
  5
EF
100
AcDbEntity
  8
A0
  6
DASHED
 62
2
100
AcDbLine
 10
50.00000000004751
 20
90.85000000277783
 30
0.000000000000000
 11
50.50000000005593
 21
90.85000000277716
 31
0.000000000000000
  0
LINE
  5
F0
100
AcDbEntity
  8
A0
  6
DASHED
 62
2
100
AcDbLine
 10
53.00000000004469
 20
88.35000000278322
 30
0.000000000000000
 11
50.50000000005586
 21
90.85000000277735
 31
0.000000000000000
  0
LINE
  5
F1
100
AcDbEntity
  8
A0
  6
DASHED
 62
2
100
AcDbLine
 10
53.00000000005661
 20
98.65000000278314
 30
0.000000000000000
 11
50.50000000009833
 21
96.15000000282384
 31
0.000000000000000
  0
LINE
  5
F2
100
AcDbEntity
  8
A0
  6
DASHED
 62
2
100
AcDbLine
 10
50.50000000009826
 20
96.15000000282390
 30
0.000000000000000
 11
50.50000000009209
 21
90.85000000277719
 31
0.000000000000000
  0
LINE
  5
F3
100
AcDbEntity
  8
A0
  6
DASHED
 62
2
100
AcDbLine
 10
53.00000000003912
 20
83.65000000278320
 30
0.000000000000000
 11
50.50000000008086
 21
81.15000000282393
 31
0.000000000000000
  0
LINE
  5
F4
100
AcDbEntity
  8
A0
  6
DASHED
 62
2
100
AcDbLine
 10
50.00000000003627
 20
81.15000000282440
 30
0.000000000000000
 11
50.50000000008129
 21
81.15000000282416
 31
0.000000000000000
  0
LINE
  5
F5
100
AcDbEntity
  8
A0
  6
DASHED
 62
2
100
AcDbLine
 10
50.50000000008080
 20
81.15000000282387
 30
0.000000000000000
 11
50.50000000007464
 21
75.85000000277719
 31
0.000000000000000
  0
LINE
  5
F6
100
AcDbEntity
  8
A0
  6
DASHED
 62
2
100
AcDbLine
 10
53.00000000002724
 20
73.35000000278319
 30
0.000000000000000
 11
50.50000000003838
 21
75.85000000277736
 31
0.000000000000000
  0
LINE
  5
F7
100
AcDbEntity
  8
A0
  6
DASHED
 62
2
100
AcDbLine
 10
50.00000000003011
 20
75.85000000277783
 30
0.000000000000000
 11
50.50000000003853
 21
75.85000000277716
 31
0.000000000000000
  0
LINE
  5
F8
100
AcDbEntity
  8
A1
  6
CENTER
 62
1
100
AcDbLine
 10
54.50000000005062
 20
93.50000000278141
 30
0.000000000000000
 11
48.50000000005073
 21
93.50000000278840
 31
0.000000000000000
  0
LINE
  5
F9
100
AcDbEntity
  8
A1
  6
CENTER
 62
1
100
AcDbLine
 10
54.50000000003327
 20
78.50000000278138
 30
0.000000000000000
 11
48.50000000003316
 21
78.50000000278837
 31
0.000000000000000
  0
ARC
  5
FA
100
AcDbEntity
  8
0
  6
CONTINUOUS
 62
7
100
AcDbCircle
 10
55.93835016530907
 20
170.2808454523228
 30
0.000000000000000
 40
2.500000000000000
100
AcDbArc
 50
2.766319591474478
 51
182.7663195915991
  0
ARC
  5
FB
100
AcDbEntity
  8
A0
  6
DASHED
 62
2
100
AcDbCircle
 10
55.93835016530907
 20
170.2808454523228
 30
0.000000000000000
 40
2.500000000000000
100
AcDbArc
 50
182.7663195914744
 51
362.7663195914744
  0
CIRCLE
  5
FC
100
AcDbEntity
  8
0
  6
CONTINUOUS
 62
7
100
AcDbCircle
 10
59.02084845011235
 20
106.4860161667153
 30
0.000000000000000
 40
3.400000000000000
  0
ARC
  5
FD
100
AcDbEntity
  8
0
  6
CONTINUOUS
 62
7
100
AcDbCircle
 10
68.10000000082771
 20
70.36602540523930
 30
0.000000000000000
 40
11.00000000000000
100
AcDbArc
 50
179.9999999999334
 51
209.9999999971969
  0
ARC
  5
FE
100
AcDbEntity
  8
0
  6
CONTINUOUS
 62
7
100
AcDbCircle
 10
68.10000000050222
 20
70.36602540534872
 30
0.000000000000000
 40
6.000000000000000
100
AcDbArc
 50
179.9999999999334
 51
209.9999999971968
  0
ARC
  5
FF
100
AcDbEntity
  8
A1
  6
CENTER
 62
1
100
AcDbCircle
 10
68.10000000002371
 20
70.36602540640584
 30
0.000000000000000
 40
8.500000000000000
100
AcDbArc
 50
179.9999999999334
 51
209.9999999971962
  0
LINE
  5
100
100
AcDbEntity
  8
0
  6
CONTINUOUS
 62
7
100
AcDbLine
 10
60.12046788106328
 20
146.9555039694640
 30
0.000000000000000
 11
54.02457602145851
 21
146.6609569598179
 31
0.000000000000000
  0
ARC
  5
101
100
AcDbEntity
  8
0
  6
CONTINUOUS
 62
7
100
AcDbCircle
 10
56.94981665069610
 20
149.3477172644077
 30
0.000000000000000
 40
0.5000000000000000
100
AcDbArc
 50
45.73405085914171
 51
139.7985883238030
  0
CIRCLE
  5
102
100
AcDbEntity
  8
0
  6
CONTINUOUS
 62
7
100
AcDbCircle
 10
57.30418257124101
 20
142.0138239990655
 30
0.000000000000000
 40
3.400000000000000
  0
LINE
  5
103
100
AcDbEntity
  8
0
  6
CONTINUOUS
 62
7
100
AcDbLine
 10
59.79413268446292
 20
135.9505401951157
 30
0.000000000000000
 11
55.41041006725327
 21
135.7387233818002
 31
0.000000000000000
  0
ARC
  5
104
100
AcDbEntity
  8
0
  6
CONTINUOUS
 62
7
100
AcDbCircle
 10
66.16791755481856
 20
141.6517684300522
 30
0.000000000000000
 40
13.13593214517368
100
AcDbArc
 50
199.3684117540274
 51
213.1144667926090
  0
ARC
  5
105
100
AcDbEntity
  8
0
  6
CONTINUOUS
 62
7
100
AcDbCircle
 10
68.56955701395121
 20
141.2587591672938
 30
0.000000000000000
 40
15.51580526629516
100
AcDbArc
 50
156.5633738714558
 51
192.6920808132296
  0
ARC
  5
106
100
AcDbEntity
  8
0
  6
CONTINUOUS
 62
7
100
AcDbCircle
 10
54.40844659804708
 20
138.0694717362877
 30
0.000000000000000
 40
1.000000000000000
100
AcDbArc
 50
192.6920808132298
 51
272.7663195914745
  0
ARC
  5
107
100
AcDbEntity
  8
0
  6
CONTINUOUS
 62
7
100
AcDbCircle
 10
52.49879582468010
 20
148.2253988826939
 30
0.000000000000000
 40
2.000000000000000
100
AcDbArc
 50
336.5633738714561
 51
362.7663195914744
  0
ARC
  5
108
100
AcDbEntity
  8
0
  6
CONTINUOUS
 62
7
100
AcDbCircle
 10
60.56671452606034
 20
138.3670326912018
 30
0.000000000000000
 40
1.000000000000000
100
AcDbArc
 50
272.7663195914745
 51
352.8405583697191
  0
ARC
  5
109
100
AcDbEntity
  8
0
  6
CONTINUOUS
 62
7
100
AcDbCircle
 10
46.16408647838217
 20
140.1761506666902
 30
0.000000000000000
 40
15.51580526629516
100
AcDbArc
 50
352.8405583697193
 51
388.9692653119436
  0
ARC
  5
10A
100
AcDbEntity
  8
0
  6
CONTINUOUS
 62
7
100
AcDbCircle
 10
61.48830794705798
 20
148.6597625452328
 30
0.000000000000000
 40
2.000000000000000
100
AcDbArc
 50
182.7663195914744
 51
208.9692653119436
  0
ARC
  5
10B
100
AcDbEntity
  8
0
  6
CONTINUOUS
 62
7
100
AcDbCircle
 10
48.51664663556409
 20
140.7988777972354
 30
0.000000000000000
 40
13.13593214517368
100
AcDbArc
 50
332.4181723903400
 51
346.1642274289215
  0
ARC
  5
10C
100
AcDbEntity
  8
0
  6
CONTINUOUS
 62
7
100
AcDbCircle
 10
57.44153668381183
 20
139.1711680246928
 30
0.000000000000000
 40
4.580417236955469
100
AcDbArc
 50
244.1405278736610
 51
301.3921113089999
  0
LINE
  5
10D
100
AcDbEntity
  8
0
  6
CONTINUOUS
 62
7
100
AcDbLine
 10
54.02457602145841
 20
146.6609569598179
 30
0.000000000000000
 11
56.56792658801614
 21
149.6704555175270
 31
0.000000000000000
  0
LINE
  5
10E
100
AcDbEntity
  8
0
  6
CONTINUOUS
 62
7
100
AcDbLine
 10
60.12046788108238
 20
146.9555039694648
 30
0.000000000000000
 11
57.29881156379906
 21
149.7057711020171
 31
0.000000000000000
  0
LINE
  5
10F
100
AcDbEntity
  8
0
  6
CONTINUOUS
 62
7
100
AcDbLine
 10
62.10000000065381
 20
84.86925739046735
 30
0.000000000000000
 11
62.10000000059011
 21
87.50000000377823
 31
0.000000000000000
  0
LINE
  5
110
100
AcDbEntity
  8
DXF0
  6
CONTINUOUS
 62
4
100
AcDbLine
 10
61.23942884502544
 20
112.3705890820993
 30
0.000000000000000
 11
60.58312386409821
 21
125.9533587505185
 31
0.000000000000000
  0
LINE
  5
111
100
AcDbEntity
  8
0
  6
CONTINUOUS
 62
7
100
AcDbLine
 10
62.60000000046989
 20
85.36925739111638
 30
0.000000000000000
 11
62.60000000046510
 21
88.40963961659958
 31
0.000000000000000
  0
LINE
  5
112
100
AcDbEntity
  8
0
  6
CONTINUOUS
 62
7
100
AcDbLine
 10
61.74631032455392
 20
112.2402439218594
 30
0.000000000000000
 11
61.08254120500767
 21
125.9774900651123
 31
0.000000000000000
  0
LINE
  5
113
100
AcDbEntity
  8
0
  6
CONTINUOUS
 62
7
100
AcDbLine
 10
56.59999999949147
 20
85.36925739112347
 30
0.000000000000000
 11
56.59999999950334
 21
88.40963961659340
 31
0.000000000000000
  0
LINE
  5
114
100
AcDbEntity
  8
0
  6
CONTINUOUS
 62
7
100
AcDbLine
 10
55.72675911087375
 20
112.5000000027799
 30
0.000000000000000
 11
55.08953312226923
 21
125.6879142903818
 31
0.000000000000000
  0
LINE
  5
115
100
AcDbEntity
  8
DXF0
  6
CONTINUOUS
 62
4
100
AcDbLine
 10
57.09999999930644
 20
84.86925739047325
 30
0.000000000000000
 11
57.09999999937627
 21
87.50000000367976
 31
0.000000000000000
  0
LINE
  5
116
100
AcDbEntity
  8
DXF0
  6
CONTINUOUS
 62
4
100
AcDbLine
 10
56.22734245093296
 20
112.5000000027794
 30
0.000000000000000
 11
55.58895046317882
 21
125.7120456049756
 31
0.000000000000000
  0
LINE
  5
117
100
AcDbEntity
  8
0
  6
CONTINUOUS
 62
7
100
AcDbLine
 10
62.60000000046234
 20
85.36925739111648
 30
0.000000000000000
 11
62.10000000063923
 21
85.36925739111706
 31
0.000000000000000
  0
LINE
  5
118
100
AcDbEntity
  8
0
  6
CONTINUOUS
 62
7
100
AcDbLine
 10
57.09999999999259
 20
85.36925739112290
 30
0.000000000000000
 11
56.59999999950033
 21
85.36925739112348
 31
0.000000000000000
  0
LINE
  5
119
100
AcDbEntity
  8
A1
  6
CENTER
 62
1
100
AcDbLine
 10
65.09999999994403
 20
94.50000000245032
 30
0.000000000000000
 11
54.09999999994402
 21
94.50000000246312
 31
0.000000000000000
  0
LINE
  5
11A
100
AcDbEntity
  8
A1
  6
CENTER
 62
1
100
AcDbLine
 10
59.60000000002370
 20
70.36602540641572
 30
0.000000000000000
 11
59.60000000008422
 21
174.3692573904703
 31
0.000000000000000
  0
LINE
  5
11B
100
AcDbEntity
  8
A1
  6
CENTER
 62
1
100
AcDbLine
 10
156.8553047172778
 20
51.88823105022971
 30
0.000000000000000
 11
156.8553047172778
 21
174.3692573904088
 31
0.000000000000000
  0
LINE
  5
11C
100
AcDbEntity
  8
A1
  6
CENTER
 62
1
100
AcDbLine
 10
163.5053047172778
 20
93.50000000276816
 30
0.000000000000000
 11
150.2053047172778
 21
93.50000000276816
 31
0.000000000000000
  0
LINE
  5
11D
100
AcDbEntity
  8
A1
  6
CENTER
 62
1
100
AcDbLine
 10
156.8553047172778
 20
100.1500000027682
 30
0.000000000000000
 11
156.8553047172778
 21
92.00000000276816
 31
0.000000000000000
  0
LINE
  5
11E
100
AcDbEntity
  8
A1
  6
CENTER
 62
1
100
AcDbLine
 10
139.1053047172779
 20
106.5000000027682
 30
0.000000000000000
 11
174.6053047172779
 21
106.5000000027682
 31
0.000000000000000
  0
ARC
  5
11F
100
AcDbEntity
  8
0
  6
CONTINUOUS
 62
7
100
AcDbCircle
 10
144.1886942548938
 20
87.00000000276822
 30
0.000000000000000
 40
6.611031488383896
100
AcDbArc
 50
22.94395355653779
 51
22.96711016997811
  0
LINE
  5
120
100
AcDbEntity
  8
A1
  6
CENTER
 62
1
100
AcDbLine
 10
59.93368888662204
 20
170.4738959689688
 30
0.000000000000000
 11
51.94301144399611
 21
170.0877949356768
 31
0.000000000000000
  0
LINE
  5
121
100
AcDbEntity
  8
A1
  6
CENTER
 62
1
100
AcDbLine
 10
55.86595622156682
 20
171.7790974728152
 30
0.000000000000000
 11
56.13140068195506
 21
166.2855067310099
 31
0.000000000000000
  0
SPLINE
  5
122
100
AcDbEntity
  8
0
  6
CONTINUOUS
 62
7
100
AcDbSpline
210
0.000000000000000
220
0.000000000000000
230
1.000000000000000
 70
     8
 71
     3
 72
    58
 73
    54
 74
     0
 42
1.000000000000000e-07
 43
1.000000000000000e-07
 12
-0.5236059992676019
 22
-0.8519605375477113
 32
0.000000000000000
 13
-0.5245780713139538
 23
0.8513623477119836
 33
0.000000000000000
 40
0.000000000000000
 40
0.000000000000000
 40
0.000000000000000
 40
0.000000000000000
 40
0.03534889513772120
 40
0.1030534259583422
 40
0.1852966086761205
 40
0.2818114117993977
 40
0.3923398688548277
 40
0.5165932271791879
 40
0.6542308732660010
 40
0.8048495703783038
 40
0.9679796997040617
 40
1.143086505045668
 40
1.329574905372006
 40
1.526796735396648
 40
1.734059469314875
 40
1.950635638693711
 40
2.175772294420613
 40
2.408699991845728
 40
2.648640899438633
 40
2.894815743917139
 40
3.146449407640696
 40
3.402775085835360
 40
3.663036991095448
 40
3.926491660327893
 40
4.192407975193435
 40
4.460066051924333
 40
4.728755191156367
 40
4.997771104181677
 40
5.266408898060505
 40
5.533872001796040
 40
5.799459786669438
 40
6.062468079386701
 40
6.322186022816651
 40
6.577893573250359
 40
6.828859810955312
 40
7.074342266816905
 40
7.313587443556519
 40
7.545832680234888
 40
7.770309472541870
 40
7.986248317433627
 40
8.192885097490867
 40
8.389468956329834
 40
8.575271540046103
 40
8.749597390018584
 40
8.911795169519902
 40
9.061269292727779
 40
9.197491406407700
 40
9.320011065750501
 40
9.428464872455386
 40
9.522583347378298
 40
9.602194954105100
 40
9.667227060969211
 40
9.705802063751896
 40
9.705802063751896
 40
9.705802063751896
 40
9.705802063751896
 10
161.3239752616121
 20
204.1469732931780
 30
0.000000000000000
 10
161.3178056304249
 20
204.1369346719436
 30
0.000000000000000
 10
161.2992436698207
 20
204.1080154886837
 30
0.000000000000000
 10
161.2624894535567
 20
204.0583017498669
 30
0.000000000000000
 10
161.2094740363679
 20
203.9954787261580
 30
0.000000000000000
 10
161.1428362157244
 20
203.9256991816523
 30
0.000000000000000
 10
161.0621263538681
 20
203.8502455353062
 30
0.000000000000000
 10
160.9670172352919
 20
203.7703785127329
 30
0.000000000000000
 10
160.8573818285098
 20
203.6872996129656
 30
0.000000000000000
 10
160.7332564004846
 20
203.6021659340354
 30
0.000000000000000
 10
160.5948383640254
 20
203.5160808296807
 30
0.000000000000000
 10
160.4424701786728
 20
203.4300893903733
 30
0.000000000000000
 10
160.2766250427224
 20
203.3451718586667
 30
0.000000000000000
 10
160.0978901462766
 20
203.2622385015833
 30
0.000000000000000
 10
159.9069496052876
 20
203.1821256593609
 30
0.000000000000000
 10
159.7045673058979
 20
203.1055934398833
 30
0.000000000000000
 10
159.4915704043190
 20
203.0333250137175
 30
0.000000000000000
 10
159.2688339662368
 20
202.9659274150320
 30
0.000000000000000
 10
159.0372671669538
 20
202.9039336338912
 30
0.000000000000000
 10
158.7978013404071
 20
202.8478057383624
 30
0.000000000000000
 10
158.5513800532757
 20
202.7979387368065
 30
0.000000000000000
 10
158.2989512717821
 20
202.7546648871810
 30
0.000000000000000
 10
158.0414615938201
 20
202.7182581714161
 30
0.000000000000000
 10
157.7798524374016
 20
202.6889386751078
 30
0.000000000000000
 10
157.5150580088550
 20
202.6668766418117
 30
0.000000000000000
 10
157.2480048201500
 20
202.6521960043602
 30
0.000000000000000
 10
156.9796124820771
 20
202.6449772307763
 30
0.000000000000000
 10
156.7107967217188
 20
202.6452593570576
 30
0.000000000000000
 10
156.4425022177031
 20
202.6530400438591
 30
0.000000000000000
 10
156.1756718935581
 20
202.6682727677643
 30
0.000000000000000
 10
155.9112468050471
 20
202.6908664528834
 30
0.000000000000000
 10
155.6501370596664
 20
202.7206890905443
 30
0.000000000000000
 10
155.3932557991880
 20
202.7575645257327
 30
0.000000000000000
 10
155.1415202821085
 20
202.8012692821294
 30
0.000000000000000
 10
154.8958517202235
 20
202.8515286035699
 30
0.000000000000000
 10
154.6571735781592
 20
202.9080118501645
 30
0.000000000000000
 10
154.4264080523344
 20
202.9703274284862
 30
0.000000000000000
 10
154.2044704792926
 20
203.0380174778975
 30
0.000000000000000
 10
153.9922614657654
 20
203.1105525807686
 30
0.000000000000000
 10
153.7906565872490
 20
203.1873268120631
 30
0.000000000000000
 10
153.6004935729401
 20
203.2676534931308
 30
0.000000000000000
 10
153.4225569788842
 20
203.3507620586339
 30
0.000000000000000
 10
153.2575604741805
 20
203.4357964932136
 30
0.000000000000000
 10
153.1061269461370
 20
203.5218157909849
 30
0.000000000000000
 10
152.9687669470000
 20
203.6077969897565
 30
0.000000000000000
 10
152.8458556002152
 20
203.6926409691360
 30
0.000000000000000
 10
152.7376101159182
 20
203.7751822161574
 30
0.000000000000000
 10
152.6440640284838
 20
203.8542000488308
 30
0.000000000000000
 10
152.5650541091483
 20
203.9284401546064
 30
0.000000000000000
 10
152.5001733809796
 20
203.9966187806529
 30
0.000000000000000
 10
152.4488350751366
 20
204.0574934958085
 30
0.000000000000000
 10
152.4123891537079
 20
204.1065647244747
 30
0.000000000000000
 10
152.3936454537619
 20
204.1355891275753
 30
0.000000000000000
 10
152.3869002535750
 20
204.1465362292193
 30
0.000000000000000
  0
SPLINE
  5
123
100
AcDbEntity
  8
0
  6
CONTINUOUS
 62
7
100
AcDbSpline
210
0.000000000000000
220
0.000000000000000
230
1.000000000000000
 70
     8
 71
     3
 72
    77
 73
    73
 74
     0
 42
1.000000000000000e-07
 43
1.000000000000000e-07
 12
0.09500552411327590
 22
-0.9954767452773012
 32
0.000000000000000
 13
0.09497330596695974
 23
0.9954798195617514
 33
0.000000000000000
 40
0.000000000000000
 40
0.000000000000000
 40
0.000000000000000
 40
0.000000000000000
 40
0.2230442981352879
 40
0.5184471369317425
 40
0.8144413763201492
 40
1.111827466076539
 40
1.411209223400176
 40
1.713207601604544
 40
2.018453271238478
 40
2.327574729381033
 40
2.641179995474167
 40
2.959831512809098
 40
3.284014962813647
 40
3.614104431415905
 40
3.950328556617722
 40
4.292744282208191
 40
4.641225508919591
 40
4.995472104411005
 40
5.355040135703290
 40
5.719122561858798
 40
6.087106823183980
 40
6.458449775247867
 40
6.832658517670565
 40
7.209304614702281
 40
7.588025919531654
 40
7.968520499749148
 40
8.350536703890006
 40
8.733862329871776
 40
9.118314654666248
 40
9.503732129715516
 40
9.889967928131501
 40
10.27688519646907
 40
10.66435372516831
 40
11.05224772680632
 40
11.44044444524102
 40
11.82882339552007
 40
12.21726623263277
 40
12.60565580597997
 40
12.99383092728889
 40
13.38157523465505
 40
13.76878082293678
 40
14.15534397502729
 40
14.54116553069156
 40
14.92615109582917
 40
15.31021102471352
 40
15.69326002378882
 40
16.07521615759511
 40
16.45599896382473
 40
16.83552630835025
 40
17.21370955007956
 40
17.59044657601422
 40
17.96561237190387
 40
18.33904710858092
 40
18.71054236612608
 40
19.07982718069157
 40
19.44655703998539
 40
19.81031042121715
 40
20.17059815455922
 40
20.52663302332891
 40
20.87781210338389
 40
21.22369849702829
 40
21.56399151049847
 40
21.89855843412508
 40
22.22744274173230
 40
22.55084984239583
 40
22.86911767664467
 40
23.18268120970070
 40
23.49203836947786
 40
23.79772203439498
 40
24.10027986007553
 40
24.40026177946013
 40
24.58887688236759
 40
24.58887688236759
 40
24.58887688236759
 40
24.58887688236759
 10
147.3771538180079
 20
203.7276577840760
 30
0.000000000000000
 10
147.3842172981562
 20
203.6536459800892
 30
0.000000000000000
 10
147.4045518524651
 20
203.4819638925209
 30
0.000000000000000
 10
147.4508210913972
 20
203.2142851240680
 30
0.000000000000000
 10
147.5187294948623
 20
202.9257323545161
 30
0.000000000000000
 10
147.6040282386657
 20
202.6404508216960
 30
0.000000000000000
 10
147.7066018389030
 20
202.3587881978865
 30
0.000000000000000
 10
147.8263501933014
 20
202.0811352822259
 30
0.000000000000000
 10
147.9631981672635
 20
201.8078675479463
 30
0.000000000000000
 10
148.1170912343588
 20
201.5393583598390
 30
0.000000000000000
 10
148.2879819181443
 20
201.2759951370029
 30
0.000000000000000
 10
148.4758085513749
 20
201.0181965673327
 30
0.000000000000000
 10
148.6804655479225
 20
200.7664285578649
 30
0.000000000000000
 10
148.9017672150395
 20
200.5212155144722
 30
0.000000000000000
 10
149.1394093368872
 20
200.2831431980946
 30
0.000000000000000
 10
149.3929352664891
 20
200.0528499659436
 30
0.000000000000000
 10
149.6617145312072
 20
199.8310051608592
 30
0.000000000000000
 10
149.9449408777847
 20
199.6182765865067
 30
0.000000000000000
 10
150.2415797143350
 20
199.4153424058178
 30
0.000000000000000
 10
150.5504646730573
 20
199.2227954251024
 30
0.000000000000000
 10
150.8703707465357
 20
199.0411040500968
 30
0.000000000000000
 10
151.2001552734170
 20
198.8705644546375
 30
0.000000000000000
 10
151.5387404759152
 20
198.7113505797889
 30
0.000000000000000
 10
151.8851254089008
 20
198.5635384100373
 30
0.000000000000000
 10
152.2383976065968
 20
198.4271265883859
 30
0.000000000000000
 10
152.5977337755010
 20
198.3020577256562
 30
0.000000000000000
 10
152.9623934398622
 20
198.1882376128973
 30
0.000000000000000
 10
153.3317089627627
 20
198.0855510152067
 30
0.000000000000000
 10
153.7050744268577
 20
197.9938737892196
 30
0.000000000000000
 10
154.0819348920989
 20
197.9130816843800
 30
0.000000000000000
 10
154.4617767885574
 20
197.8430564480150
 30
0.000000000000000
 10
154.8441196993194
 20
197.7836898915106
 30
0.000000000000000
 10
155.2285095007275
 20
197.7348864932737
 30
0.000000000000000
 10
155.6145126900088
 20
197.6965650162941
 30
0.000000000000000
 10
156.0017116942813
 20
197.6686594305370
 30
0.000000000000000
 10
156.3897010096914
 20
197.6511195829391
 30
0.000000000000000
 10
156.7780836231843
 20
197.6439110165645
 30
0.000000000000000
 10
157.1664526800434
 20
197.6470175553781
 30
0.000000000000000
 10
157.5543695523415
 20
197.6604338708534
 30
0.000000000000000
 10
157.9413971618125
 20
197.6841666105387
 30
0.000000000000000
 10
158.3271134428055
 20
197.7182358185743
 30
0.000000000000000
 10
158.7111281712428
 20
197.7626801800766
 30
0.000000000000000
 10
159.0930452605529
 20
197.8175563657957
 30
0.000000000000000
 10
159.4724595833580
 20
197.8829393784327
 30
0.000000000000000
 10
159.8489532747334
 20
197.9589228089026
 30
0.000000000000000
 10
160.2220913340484
 20
198.0456188133677
 30
0.000000000000000
 10
160.5914162873143
 20
198.1431576015604
 30
0.000000000000000
 10
160.9564416400905
 20
198.2516860997331
 30
0.000000000000000
 10
161.3166438476691
 20
198.3713653140273
 30
0.000000000000000
 10
161.6714525853757
 20
198.5023657482163
 30
0.000000000000000
 10
162.0202392667649
 20
198.6448600509065
 30
0.000000000000000
 10
162.3623041006215
 20
198.7990119294653
 30
0.000000000000000
 10
162.6968625775948
 20
198.9649603686010
 30
0.000000000000000
 10
163.0230331875327
 20
199.1427984863754
 30
0.000000000000000
 10
163.3398293382531
 20
199.3325471452305
 30
0.000000000000000
 10
163.6461596143100
 20
199.5341248748490
 30
0.000000000000000
 10
163.9408410635435
 20
199.7473176797258
 30
0.000000000000000
 10
164.2225624243469
 20
199.9717011607848
 30
0.000000000000000
 10
164.4899919850069
 20
200.2066510693728
 30
0.000000000000000
 10
164.7418731502585
 20
200.4513702634467
 30
0.000000000000000
 10
164.9771495535216
 20
200.7049923708449
 30
0.000000000000000
 10
165.1949665312084
 20
200.9666010081134
 30
0.000000000000000
 10
165.3946737130114
 20
201.2352604289554
 30
0.000000000000000
 10
165.5758217949385
 20
201.5100559660001
 30
0.000000000000000
 10
165.7381385639722
 20
201.7901202887226
 30
0.000000000000000
 10
165.8814932232211
 20
202.0746440377068
 30
0.000000000000000
 10
166.0058586354256
 20
202.3628740822316
 30
0.000000000000000
 10
166.1112775781769
 20
202.6541037981357
 30
0.000000000000000
 10
166.1978388620638
 20
202.9476629597203
 30
0.000000000000000
 10
166.2656542038932
 20
203.2429014169169
 30
0.000000000000000
 10
166.3088934386537
 20
203.5032266501315
 30
0.000000000000000
 10
166.3274844832548
 20
203.6650702745396
 30
0.000000000000000
 10
166.3334556165476
 20
203.7276577840759
 30
0.000000000000000
  0
ELLIPSE
  5
124
100
AcDbEntity
  8
0
  6
CONTINUOUS
 62
7
100
AcDbEllipse
 10
156.8553047172790
 20
204.1868793759142
 30
0.000000000000000
 11
-4.499999999999999
 21
0.000000000000000
 31
0.000000000000000
210
0.000000000000000
220
0.000000000000000
230
1.000000000000000
 40
0.8981004186379358
 41
0.05496790229086370
 42
3.086624751289042
  0
ELLIPSE
  5
125
100
AcDbEntity
  8
0
  6
CONTINUOUS
 62
7
100
AcDbEllipse
 10
148.6561243894849
 20
209.1454274912755
 30
0.000000000000000
 11
0.000000000000000
 21
3.044622039020410
 31
0.000000000000000
210
0.000000000000000
220
0.000000000000000
230
1.000000000000000
 40
0.7682212795972613
 41
2.339211828877414
 42
2.387784764339042
  0
ELLIPSE
  5
126
100
AcDbEntity
  8
0
  6
CONTINUOUS
 62
7
100
AcDbEllipse
 10
165.0544850450706
 20
209.1454274912755
 30
0.000000000000000
 11
0.000000000000000
 21
3.044622039020410
 31
0.000000000000000
210
0.000000000000000
220
0.000000000000000
230
1.000000000000000
 40
0.7682212795972613
 41
3.895400542840545
 42
3.943973478302185
  0
ELLIPSE
  5
127
100
AcDbEntity
  8
0
  6
CONTINUOUS
 62
7
100
AcDbEllipse
 10
148.2428521392907
 20
209.1454274904735
 30
0.000000000000000
 11
-2.649569750821423
 21
0.000000000000000
 31
0.000000000000000
210
0.000000000000000
220
0.000000000000000
230
1.000000000000000
 40
0.9435494193821268
 41
2.004089142378781
 42
2.214297436061239
  0
ELLIPSE
  5
128
100
AcDbEntity
  8
0
  6
CONTINUOUS
 62
7
100
AcDbEllipse
 10
148.2493143305223
 20
209.1454274904746
 30
0.000000000000000
 11
0.000000000000000
 21
2.500000000000000
 31
0.000000000000000
210
0.000000000000000
220
0.000000000000000
230
1.000000000000000
 40
0.9576038452974196
 41
2.498091544402053
 42
2.579986918535279
  0
ELLIPSE
  5
129
100
AcDbEntity
  8
0
  6
CONTINUOUS
 62
7
100
AcDbEllipse
 10
165.4612951040332
 20
209.1454274904746
 30
0.000000000000000
 11
0.000000000000000
 21
2.500000000000000
 31
0.000000000000000
210
0.000000000000000
220
0.000000000000000
230
1.000000000000000
 40
0.9576038452974196
 41
3.703198388644307
 42
3.785093762777533
  0
ELLIPSE
  5
12A
100
AcDbEntity
  8
0
  6
CONTINUOUS
 62
7
100
AcDbEllipse
 10
165.4677572952648
 20
209.1454274904735
 30
0.000000000000000
 11
-2.649569750821423
 21
0.000000000000000
 31
0.000000000000000
210
0.000000000000000
220
0.000000000000000
230
1.000000000000000
 40
0.9435494193821268
 41
0.9272952175286210
 42
1.137503511211013
  0
ARC
  5
12B
100
AcDbEntity
  8
0
  6
CONTINUOUS
 62
7
100
AcDbCircle
 10
148.2053047172778
 20
209.1454274910988
 30
0.000000000000000
 40
3.998439914518033
100
AcDbArc
 50
253.2849457070258
 51
286.7150542929513
  0
ARC
  5
12C
100
AcDbEntity
  8
0
  6
CONTINUOUS
 62
7
100
AcDbCircle
 10
165.5053047172777
 20
209.1454274910988
 30
0.000000000000000
 40
3.998439914518033
100
AcDbArc
 50
253.2849457070487
 51
286.7150542929742
  0
ARC
  5
12D
100
AcDbEntity
  8
0
  6
CONTINUOUS
 62
7
100
AcDbCircle
 10
148.2053047172778
 20
209.1454274910988
 30
0.000000000000000
 40
3.992974947696098
100
AcDbArc
 50
253.2613953835112
 51
286.7386046164660
  0
ARC
  5
12E
100
AcDbEntity
  8
0
  6
CONTINUOUS
 62
7
100
AcDbCircle
 10
165.5053047172777
 20
209.1454274910988
 30
0.000000000000000
 40
3.992974947696098
100
AcDbArc
 50
253.2613953835341
 51
286.7386046164888
  0
LINE
  5
12F
100
AcDbEntity
  8
0
  6
CONTINUOUS
 62
7
100
AcDbLine
 10
166.3334556165463
 20
203.7276577840760
 30
0.000000000000000
 11
166.4802230663203
 21
205.2676631915685
 31
0.000000000000000
  0
LINE
  5
130
100
AcDbEntity
  8
0
  6
CONTINUOUS
 62
7
100
AcDbLine
 10
147.2303863682351
 20
205.2676631915685
 30
0.000000000000000
 11
147.3771538180090
 21
203.7276577840759
 31
0.000000000000000
  0
LINE
  5
131
100
AcDbEntity
  8
0
  6
CONTINUOUS
 62
7
100
AcDbLine
 10
149.3553047172762
 20
205.3216402411420
 30
0.000000000000000
 11
149.3553047172762
 21
205.3159338235215
 31
0.000000000000000
  0
LINE
  5
132
100
AcDbEntity
  8
0
  6
CONTINUOUS
 62
7
100
AcDbLine
 10
147.0553047172779
 20
205.3216402411424
 30
0.000000000000000
 11
147.0553047172779
 21
205.3159338235219
 31
0.000000000000000
  0
LINE
  5
133
100
AcDbEntity
  8
0
  6
CONTINUOUS
 62
7
100
AcDbLine
 10
164.3553047172793
 20
205.3216402411420
 30
0.000000000000000
 11
164.3553047172793
 21
205.3159338235215
 31
0.000000000000000
  0
LINE
  5
134
100
AcDbEntity
  8
0
  6
CONTINUOUS
 62
7
100
AcDbLine
 10
166.6553047172777
 20
205.3216402411424
 30
0.000000000000000
 11
166.6553047172777
 21
205.3159338235219
 31
0.000000000000000
  0
LINE
  5
135
100
AcDbEntity
  8
0
  6
CONTINUOUS
 62
7
100
AcDbLine
 10
149.3553047172762
 20
205.3216402411420
 30
0.000000000000000
 11
149.3553047172762
 21
209.3963428119535
 31
0.000000000000000
  0
LINE
  5
136
100
AcDbEntity
  8
0
  6
CONTINUOUS
 62
7
100
AcDbLine
 10
147.0553047172779
 20
209.5538579702283
 30
0.000000000000000
 11
147.0553047172779
 21
205.3216402411424
 31
0.000000000000000
  0
LINE
  5
137
100
AcDbEntity
  8
0
  6
CONTINUOUS
 62
7
100
AcDbLine
 10
166.6553047172777
 20
209.5538579702283
 30
0.000000000000000
 11
166.6553047172777
 21
205.3216402411424
 31
0.000000000000000
  0
LINE
  5
138
100
AcDbEntity
  8
0
  6
CONTINUOUS
 62
7
100
AcDbLine
 10
164.3553047172793
 20
205.3216402411420
 30
0.000000000000000
 11
164.3553047172793
 21
209.3963428119535
 31
0.000000000000000
  0
SPLINE
  5
139
100
AcDbEntity
  8
0
  6
CONTINUOUS
 62
7
100
AcDbSpline
210
0.000000000000000
220
0.000000000000000
230
1.000000000000000
 70
     8
 71
     3
 72
    11
 73
     7
 74
     0
 42
1.000000000000000e-07
 43
1.000000000000000e-07
 12
-0.5458183658174676
 22
-0.8379035216148623
 32
0.000000000000000
 13
-0.7527543938774670
 23
-0.6583014677917163
 33
0.000000000000000
 40
0.000000000000000
 40
0.000000000000000
 40
0.000000000000000
 40
0.000000000000000
 40
0.1271771978570332
 40
0.4142765309740547
 40
0.7007473096226051
 40
0.9798361142075436
 40
0.9798361142075436
 40
0.9798361142075436
 40
0.9798361142075436
 10
158.7448720914182
 20
208.9157516011060
 30
0.000000000000000
 10
158.7217335413170
 20
208.8802308604548
 30
0.000000000000000
 10
158.6443309398603
 20
208.7658417479706
 30
0.000000000000000
 10
158.5025188523979
 20
208.5798950282905
 30
0.000000000000000
 10
158.3124126981975
 20
208.3682171701068
 30
0.000000000000000
 10
158.1753331585888
 20
208.2384554517507
 30
0.000000000000000
 10
158.1053047172777
 20
208.1772139285165
 30
0.000000000000000
  0
SPLINE
  5
13A
100
AcDbEntity
  8
0
  6
CONTINUOUS
 62
7
100
AcDbSpline
210
0.000000000000000
220
0.000000000000000
230
1.000000000000000
 70
     8
 71
     3
 72
    11
 73
     7
 74
     0
 42
1.000000000000000e-07
 43
1.000000000000000e-07
 12
-0.7526719027853233
 22
0.6583957827610902
 32
0.000000000000000
 13
-0.5464333607233129
 23
0.8375025864352210
 33
0.000000000000000
 40
0.000000000000000
 40
0.000000000000000
 40
0.000000000000000
 40
0.000000000000000
 40
0.3006091212312998
 40
0.6098217628422806
 40
0.9383705909628453
 40
0.9789827483343441
 40
0.9789827483343441
 40
0.9789827483343441
 40
0.9789827483343441
 10
155.6053047172777
 20
208.1772139285181
 30
0.000000000000000
 10
155.5298847041871
 20
208.2431871877442
 30
0.000000000000000
 10
155.3824790520493
 20
208.3835878981875
 30
0.000000000000000
 10
155.1753924227055
 20
208.6184963763972
 30
0.000000000000000
 10
155.0413763944606
 20
208.8010780007176
 30
0.000000000000000
 10
154.9735624352615
 20
208.9037573947345
 30
0.000000000000000
 10
154.9661651560486
 20
208.9150949903476
 30
0.000000000000000
  0
ELLIPSE
  5
13B
100
AcDbEntity
  8
0
  6
CONTINUOUS
 62
7
100
AcDbEllipse
 10
156.8553047172777
 20
210.5696063578416
 30
0.000000000000000
 11
-3.000000000332477
 21
0.000000000000000
 31
0.000000000000000
210
0.000000000000000
220
0.000000000000000
230
1.000000000000000
 40
0.9988061373414341
 41
0.8849433622668695
 42
1.139484356734694
  0
ELLIPSE
  5
13C
100
AcDbEntity
  8
0
  6
CONTINUOUS
 62
7
100
AcDbEllipse
 10
156.8553047172777
 20
210.5696063578416
 30
0.000000000000000
 11
-3.000000000332477
 21
0.000000000000000
 31
0.000000000000000
210
0.000000000000000
220
0.000000000000000
230
1.000000000000000
 40
0.9988061373414341
 41
2.001526117765652
 42
2.256649291322997
  0
ELLIPSE
  5
13D
100
AcDbEntity
  8
0
  6
CONTINUOUS
 62
7
100
AcDbEllipse
 10
156.8553047172777
 20
211.5477551124898
 30
0.000000000000000
 11
-3.463362837793174
 21
0.000000000000000
 31
0.000000000000000
210
0.000000000000000
220
0.000000000000000
230
1.000000000000000
 40
0.9988061373414341
 41
1.201541173643325
 42
1.940051479946469
  0
ARC
  5
13E
100
AcDbEntity
  8
0
  6
CONTINUOUS
 62
7
100
AcDbCircle
 10
156.8553047941801
 20
211.3430015454697
 30
0.000000000000000
 40
4.289954404779938
100
AcDbArc
 50
73.03098029456578
 51
106.9470628639177
  0
ARC
  5
13F
100
AcDbEntity
  8
0
  6
CONTINUOUS
 62
7
100
AcDbCircle
 10
156.8553047641419
 20
211.3018176948557
 30
0.000000000000000
 40
4.289954450222693
100
AcDbArc
 50
253.0419627088686
 51
286.9713949782531
  0
LINE
  5
140
100
AcDbEntity
  8
0
  6
CONTINUOUS
 62
7
100
AcDbLine
 10
158.1053047172777
 20
215.4468056896645
 30
0.000000000000000
 11
158.1053047172777
 21
215.2482407953784
 31
0.000000000000000
  0
LINE
  5
141
100
AcDbEntity
  8
0
  6
CONTINUOUS
 62
7
100
AcDbLine
 10
155.6053047172777
 20
215.4468056928760
 30
0.000000000000000
 11
155.6053047172777
 21
215.2495478005154
 31
0.000000000000000
  0
LINE
  5
142
100
AcDbEntity
  8
0
  6
CONTINUOUS
 62
7
100
AcDbLine
 10
158.1053047172777
 20
210.2422667268635
 30
0.000000000000000
 11
158.1053047172777
 21
208.3216913572957
 31
0.000000000000000
  0
LINE
  5
143
100
AcDbEntity
  8
0
  6
CONTINUOUS
 62
7
100
AcDbLine
 10
155.6053047172777
 20
210.2422667268635
 30
0.000000000000000
 11
155.6053047172777
 21
208.3216913572927
 31
0.000000000000000
  0
LINE
  5
144
100
AcDbEntity
  8
0
  6
CONTINUOUS
 62
7
100
AcDbLine
 10
158.7537867318082
 20
208.9295042491371
 30
0.000000000000000
 11
158.7448720914180
 21
208.9157516011059
 31
0.000000000000000
  0
LINE
  5
145
100
AcDbEntity
  8
0
  6
CONTINUOUS
 62
7
100
AcDbLine
 10
155.6053047172777
 20
208.3216913572927
 30
0.000000000000000
 11
155.6053047172777
 21
207.1980135157677
 31
0.000000000000000
  0
LINE
  5
146
100
AcDbEntity
  8
0
  6
CONTINUOUS
 62
7
100
AcDbLine
 10
154.9661651560484
 20
208.9150949903474
 30
0.000000000000000
 11
154.9565953395264
 21
208.9298567723698
 31
0.000000000000000
  0
LINE
  5
147
100
AcDbEntity
  8
0
  6
CONTINUOUS
 62
7
100
AcDbLine
 10
158.1053047172777
 20
208.3216913573165
 30
0.000000000000000
 11
158.1053047172777
 21
207.1980135152304
 31
0.000000000000000
  0
ARC
  5
148
100
AcDbEntity
  8
0
  6
CONTINUOUS
 62
7
100
AcDbCircle
 10
144.0821228990960
 20
209.1454274910765
 30
0.000000000000000
 40
3.476818181818191
100
AcDbArc
 50
165.6063924337863
 51
257.9334939875982
  0
ARC
  5
149
100
AcDbEntity
  8
0
  6
CONTINUOUS
 62
7
100
AcDbCircle
 10
169.6284865354596
 20
209.1454274910765
 30
0.000000000000000
 40
3.476818181818191
100
AcDbArc
 50
0.000000000000000
 51
14.40316751072874
  0
ARC
  5
14A
100
AcDbEntity
  8
0
  6
CONTINUOUS
 62
7
100
AcDbCircle
 10
169.6284865354596
 20
209.1454274910765
 30
0.000000000000000
 40
3.476818181818191
100
AcDbArc
 50
282.0665060124017
 51
360.0000000000000
  0
ARC
  5
14B
100
AcDbEntity
  8
0
  6
CONTINUOUS
 62
7
100
AcDbCircle
 10
167.3553047172778
 20
215.7454274910275
 30
0.000000000000000
 40
3.000000000000000
100
AcDbArc
 50
359.9999999999996
 51
450.0000000000000
  0
ARC
  5
14C
100
AcDbEntity
  8
0
  6
CONTINUOUS
 62
7
100
AcDbCircle
 10
146.3553047172778
 20
215.7454274910275
 30
0.000000000000000
 40
3.000000000000000
100
AcDbArc
 50
90.00000000000000
 51
180.0000000000004
  0
LINE
  5
14D
100
AcDbEntity
  8
0
  6
CONTINUOUS
 62
7
100
AcDbLine
 10
144.8076178345646
 20
218.7454274910275
 30
0.000000000000000
 11
144.3553047172778
 21
218.7454274910275
 31
0.000000000000000
  0
LINE
  5
14E
100
AcDbEntity
  8
0
  6
CONTINUOUS
 62
7
100
AcDbLine
 10
144.3553047172778
 20
217.9814954685273
 30
0.000000000000000
 11
144.3553047172778
 21
218.7454274910275
 31
0.000000000000000
  0
LINE
  5
14F
100
AcDbEntity
  8
0
  6
CONTINUOUS
 62
7
100
AcDbLine
 10
169.3553047172778
 20
218.7454274910275
 30
0.000000000000000
 11
168.9029915999910
 21
218.7454274910275
 31
0.000000000000000
  0
LINE
  5
150
100
AcDbEntity
  8
0
  6
CONTINUOUS
 62
7
100
AcDbLine
 10
169.3553047172778
 20
217.9814954685274
 30
0.000000000000000
 11
169.3553047172778
 21
218.7454274910275
 31
0.000000000000000
  0
LINE
  5
151
100
AcDbEntity
  8
0
  6
CONTINUOUS
 62
7
100
AcDbLine
 10
167.3553047172778
 20
218.7454274910275
 30
0.000000000000000
 11
168.9029915999909
 21
218.7454274910275
 31
0.000000000000000
  0
LINE
  5
152
100
AcDbEntity
  8
0
  6
CONTINUOUS
 62
7
100
AcDbLine
 10
144.8076178345646
 20
218.7454274910275
 30
0.000000000000000
 11
146.3553047172778
 21
218.7454274910275
 31
0.000000000000000
  0
LINE
  5
153
100
AcDbEntity
  8
0
  6
CONTINUOUS
 62
7
100
AcDbLine
 10
166.6553047172777
 20
207.1454274910764
 30
0.000000000000000
 11
167.3553047172778
 21
207.1454274910764
 31
0.000000000000000
  0
LINE
  5
154
100
AcDbEntity
  8
0
  6
CONTINUOUS
 62
7
100
AcDbLine
 10
146.3553047172778
 20
207.1454274910764
 30
0.000000000000000
 11
147.0553047172778
 21
207.1454274910764
 31
0.000000000000000
  0
LINE
  5
155
100
AcDbEntity
  8
0
  6
CONTINUOUS
 62
7
100
AcDbLine
 10
150.6053047172778
 20
208.3954274910765
 30
0.000000000000000
 11
150.7825453375414
 21
208.3954274910765
 31
0.000000000000000
  0
LINE
  5
156
100
AcDbEntity
  8
0
  6
CONTINUOUS
 62
7
100
AcDbLine
 10
161.1053047172778
 20
208.3954274910765
 30
0.000000000000000
 11
161.1053047172778
 21
209.1498182412022
 31
0.000000000000000
  0
LINE
  5
157
100
AcDbEntity
  8
0
  6
CONTINUOUS
 62
7
100
AcDbLine
 10
163.1053047172778
 20
208.3954274910765
 30
0.000000000000000
 11
161.1053047172778
 21
208.3954274910765
 31
0.000000000000000
  0
LINE
  5
158
100
AcDbEntity
  8
0
  6
CONTINUOUS
 62
7
100
AcDbLine
 10
164.3553047172780
 20
208.3954274910765
 30
0.000000000000000
 11
163.1053047172778
 21
208.3954274910765
 31
0.000000000000000
  0
LINE
  5
159
100
AcDbEntity
  8
0
  6
CONTINUOUS
 62
7
100
AcDbLine
 10
163.1053047172778
 20
208.3954274910765
 30
0.000000000000000
 11
163.1053047172778
 21
208.6098182412024
 31
0.000000000000000
  0
LINE
  5
15A
100
AcDbEntity
  8
0
  6
CONTINUOUS
 62
7
100
AcDbLine
 10
150.6053047172778
 20
208.3954274910765
 30
0.000000000000000
 11
150.6053047172778
 21
208.5662170860175
 31
0.000000000000000
  0
LINE
  5
15B
100
AcDbEntity
  8
0
  6
CONTINUOUS
 62
7
100
AcDbLine
 10
150.6053047172778
 20
208.3954274910765
 30
0.000000000000000
 11
149.3553047172776
 21
208.3954274910765
 31
0.000000000000000
  0
LINE
  5
15C
100
AcDbEntity
  8
0
  6
CONTINUOUS
 62
7
100
AcDbLine
 10
143.3553047172778
 20
202.7454274910344
 30
0.000000000000000
 11
146.3553047172778
 21
202.7454274910344
 31
0.000000000000000
  0
LINE
  5
15D
100
AcDbEntity
  8
0
  6
CONTINUOUS
 62
7
100
AcDbLine
 10
146.3553047172778
 20
202.7454274910344
 30
0.000000000000000
 11
146.3553047172778
 21
208.7454274910275
 31
0.000000000000000
  0
LINE
  5
15E
100
AcDbEntity
  8
0
  6
CONTINUOUS
 62
7
100
AcDbLine
 10
143.3553047172778
 20
202.7454274910344
 30
0.000000000000000
 11
143.3553047172778
 21
208.7454274910275
 31
0.000000000000000
  0
LINE
  5
15F
100
AcDbEntity
  8
0
  6
CONTINUOUS
 62
7
100
AcDbLine
 10
167.3553047172779
 20
202.7454274910344
 30
0.000000000000000
 11
170.3553047172778
 21
202.7454274910344
 31
0.000000000000000
  0
LINE
  5
160
100
AcDbEntity
  8
0
  6
CONTINUOUS
 62
7
100
AcDbLine
 10
167.3553047172779
 20
202.7454274910344
 30
0.000000000000000
 11
167.3553047172779
 21
208.7454274910275
 31
0.000000000000000
  0
LINE
  5
161
100
AcDbEntity
  8
0
  6
CONTINUOUS
 62
7
100
AcDbLine
 10
170.3553047172778
 20
202.7454274910344
 30
0.000000000000000
 11
170.3553047172778
 21
208.7454274910275
 31
0.000000000000000
  0
LINE
  5
162
100
AcDbEntity
  8
0
  6
CONTINUOUS
 62
7
100
AcDbLine
 10
146.3553047172778
 20
215.7454274910414
 30
0.000000000000000
 11
167.3553047172778
 21
215.7454274910414
 31
0.000000000000000
  0
LINE
  5
163
100
AcDbEntity
  8
0
  6
CONTINUOUS
 62
7
100
AcDbLine
 10
143.3553047172778
 20
215.2284768125447
 30
0.000000000000000
 11
143.3553047172778
 21
215.7454274910275
 31
0.000000000000000
  0
LINE
  5
164
100
AcDbEntity
  8
0
  6
CONTINUOUS
 62
7
100
AcDbLine
 10
143.3553047172778
 20
208.7454274910275
 30
0.000000000000000
 11
143.3553047172778
 21
209.8072519204966
 31
0.000000000000000
  0
LINE
  5
165
100
AcDbEntity
  8
0
  6
CONTINUOUS
 62
7
100
AcDbLine
 10
170.3553047172778
 20
215.2283848424962
 30
0.000000000000000
 11
170.3553047172778
 21
215.7454274910275
 31
0.000000000000000
  0
LINE
  5
166
100
AcDbEntity
  8
0
  6
CONTINUOUS
 62
7
100
AcDbLine
 10
170.3553047172778
 20
208.7454274910275
 30
0.000000000000000
 11
170.3553047172778
 21
209.8072519204967
 31
0.000000000000000
  0
LINE
  5
167
100
AcDbEntity
  8
0
  6
CONTINUOUS
 62
7
100
AcDbLine
 10
146.3553047172778
 20
218.7454274910275
 30
0.000000000000000
 11
167.3553047172778
 21
218.7454274910275
 31
0.000000000000000
  0
LINE
  5
168
100
AcDbEntity
  8
0
  6
CONTINUOUS
 62
7
100
AcDbLine
 10
146.3553047172778
 20
215.2422667268635
 30
0.000000000000000
 11
146.3553047172778
 21
215.7454274910414
 31
0.000000000000000
  0
LINE
  5
169
100
AcDbEntity
  8
0
  6
CONTINUOUS
 62
7
100
AcDbLine
 10
146.3553047172778
 20
208.7454274910275
 30
0.000000000000000
 11
146.3553047172778
 21
209.6017973662250
 31
0.000000000000000
  0
LINE
  5
16A
100
AcDbEntity
  8
0
  6
CONTINUOUS
 62
7
100
AcDbLine
 10
167.3553047172778
 20
215.2422667268635
 30
0.000000000000000
 11
167.3553047172778
 21
215.7454274910414
 31
0.000000000000000
  0
LINE
  5
16B
100
AcDbEntity
  8
0
  6
CONTINUOUS
 62
7
100
AcDbLine
 10
167.3553047172779
 20
208.7454274910275
 30
0.000000000000000
 11
167.3553047172779
 21
209.6017973662250
 31
0.000000000000000
  0
SPLINE
  5
16C
100
AcDbEntity
  8
0
  6
CONTINUOUS
 62
7
100
AcDbSpline
210
0.000000000000000
220
0.000000000000000
230
1.000000000000000
 70
     8
 71
     3
 72
    21
 73
    17
 74
     0
 42
1.000000000000000e-07
 43
1.000000000000000e-07
 12
0.7694768438068422
 22
-0.6386747112942430
 32
0.000000000000000
 13
0.7694202460550059
 23
0.6387428942541646
 33
0.000000000000000
 40
0.000000000000000
 40
0.000000000000000
 40
0.000000000000000
 40
0.000000000000000
 40
0.2168618031444176
 40
0.4774928211330699
 40
0.7385891402428292
 40
0.9914819162396766
 40
1.244906148156621
 40
1.507152711352144
 40
1.769794811903588
 40
2.009665902315393
 40
2.249571825233835
 40
2.496681429221963
 40
2.743505213763447
 40
3.210069716851264
 40
3.687257643650092
 40
4.125582941376411
 40
4.125582941376411
 40
4.125582941376411
 40
4.125582941376411
 10
154.9544591971242
 20
207.0259992370367
 30
0.000000000000000
 10
155.0100825757328
 20
206.9798311871987
 30
0.000000000000000
 10
155.1362436260029
 20
206.8825362269029
 30
0.000000000000000
 10
155.3427730943686
 20
206.7479682955522
 30
0.000000000000000
 10
155.5707788563428
 20
206.6260868181451
 30
0.000000000000000
 10
155.8062311682903
 20
206.5253183411966
 30
0.000000000000000
 10
156.0497272378306
 20
206.4446880150039
 30
0.000000000000000
 10
156.3025309477756
 20
206.3848997473951
 30
0.000000000000000
 10
156.5551485083955
 20
206.3482610360699
 30
0.000000000000000
 10
156.8024704336847
 20
206.3338223524616
 30
0.000000000000000
 10
157.0449683552267
 20
206.3392862637804
 30
0.000000000000000
 10
157.2885167915359
 20
206.3651038275243
 30
0.000000000000000
 10
157.6033023935431
 20
206.4252331998998
 30
0.000000000000000
 10
157.9829924722204
 20
206.5466994023340
 30
0.000000000000000
 10
158.3958128759541
 20
206.7554010501933
 30
0.000000000000000
 10
158.6449996981147
 20
206.9337267017430
 30
0.000000000000000
 10
158.7574184842576
 20
207.0270524248412
 30
0.000000000000000
  0
SPLINE
  5
16D
100
AcDbEntity
  8
0
  6
CONTINUOUS
 62
7
100
AcDbSpline
210
0.000000000000000
220
0.000000000000000
230
1.000000000000000
 70
     8
 71
     3
 72
    25
 73
    21
 74
     0
 42
1.000000000000000e-07
 43
1.000000000000000e-07
 12
0.8021635282530042
 22
-0.5971044079060448
 32
0.000000000000000
 13
0.8025170712953695
 23
0.5966291564104722
 33
0.000000000000000
 40
0.000000000000000
 40
0.000000000000000
 40
0.000000000000000
 40
0.000000000000000
 40
0.1192168976953251
 40
0.3769547788516092
 40
0.9054091869643243
 40
1.220164842810858
 40
1.536839619205006
 40
1.861760747164101
 40
2.188325170419301
 40
2.573598339972627
 40
2.959946048228491
 40
3.355895981203556
 40
3.751296978053233
 40
4.171781742468188
 40
4.589842084031831
 40
5.018812674665110
 40
5.444249274343205
 40
5.734790776748131
 40
6.024106894285877
 40
6.203949521393442
 40
6.203949521393442
 40
6.203949521393442
 40
6.203949521393442
 10
153.9230394784359
 20
206.9810684762703
 30
0.000000000000000
 10
153.9549166275301
 20
206.9573401645667
 30
0.000000000000000
 10
154.0569844231741
 20
206.8840099207971
 30
0.000000000000000
 10
154.3116171329662
 20
206.7215418347817
 30
0.000000000000000
 10
154.6414459093388
 20
206.5577341299272
 30
0.000000000000000
 10
155.0031701402760
 20
206.4205703967259
 30
0.000000000000000
 10
155.3083806273907
 20
206.3277165199715
 30
0.000000000000000
 10
155.6225927282552
 20
206.2532481611138
 30
0.000000000000000
 10
155.9631395813662
 20
206.1933881523033
 30
0.000000000000000
 10
156.3270748180116
 20
206.1517253411799
 30
0.000000000000000
 10
156.7159688167445
 20
206.1313909671920
 30
0.000000000000000
 10
157.1087706314520
 20
206.1347567997898
 30
0.000000000000000
 10
157.5119704791929
 20
206.1632486318935
 30
0.000000000000000
 10
157.9197929173084
 20
206.2192938038150
 30
0.000000000000000
 10
158.3334664625856
 20
206.3072010438422
 30
0.000000000000000
 10
158.7403615882111
 20
206.4287826185045
 30
0.000000000000000
 10
159.0951166157843
 20
206.5712724154624
 30
0.000000000000000
 10
159.3942082548076
 20
206.7230025211134
 30
0.000000000000000
 10
159.6108956433674
 20
206.8546174737601
 30
0.000000000000000
 10
159.7387634857497
 20
206.9447821772211
 30
0.000000000000000
 10
159.7868724118832
 20
206.9805486288537
 30
0.000000000000000
  0
ARC
  5
16E
100
AcDbEntity
  8
0
  6
CONTINUOUS
 62
7
100
AcDbCircle
 10
158.0034649951352
 20
209.3849117855942
 30
0.000000000000000
 40
3.001570420416381
100
AcDbArc
 50
336.5559871926774
 51
355.8076731494374
  0
LINE
  5
16F
100
AcDbEntity
  8
0
  6
CONTINUOUS
 62
7
100
AcDbLine
 10
149.3553047172776
 20
207.1454274911984
 30
0.000000000000000
 11
149.8553047172777
 21
207.1454274911984
 31
0.000000000000000
  0
LINE
  5
170
100
AcDbEntity
  8
0
  6
CONTINUOUS
 62
7
100
AcDbLine
 10
163.8553047172777
 20
207.1454274911983
 30
0.000000000000000
 11
164.3553047172780
 21
207.1454274911983
 31
0.000000000000000
  0
LINE
  5
171
100
AcDbEntity
  8
0
  6
CONTINUOUS
 62
7
100
AcDbLine
 10
163.3553047172777
 20
204.1454274911986
 30
0.000000000000000
 11
163.8553047172776
 21
204.6454274911984
 31
0.000000000000000
  0
LINE
  5
172
100
AcDbEntity
  8
0
  6
CONTINUOUS
 62
7
100
AcDbLine
 10
163.8553047172776
 20
204.6454274911984
 30
0.000000000000000
 11
163.8553047172776
 21
208.3937662874831
 31
0.000000000000000
  0
LINE
  5
173
100
AcDbEntity
  8
0
  6
CONTINUOUS
 62
7
100
AcDbLine
 10
150.3553047172777
 20
204.1454274911985
 30
0.000000000000000
 11
163.3553047172778
 21
204.1454274911985
 31
0.000000000000000
  0
LINE
  5
174
100
AcDbEntity
  8
0
  6
CONTINUOUS
 62
7
100
AcDbLine
 10
163.3553047172778
 20
204.1454274911986
 30
0.000000000000000
 11
163.3553047172778
 21
208.3950577648052
 31
0.000000000000000
  0
LINE
  5
175
100
AcDbEntity
  8
0
  6
CONTINUOUS
 62
7
100
AcDbLine
 10
149.8553047172777
 20
204.6454274911984
 30
0.000000000000000
 11
150.3553047172777
 21
204.1454274911984
 31
0.000000000000000
  0
LINE
  5
176
100
AcDbEntity
  8
0
  6
CONTINUOUS
 62
7
100
AcDbLine
 10
149.8553047172777
 20
204.6454274911984
 30
0.000000000000000
 11
149.8553047172777
 21
208.3937662874831
 31
0.000000000000000
  0
LINE
  5
177
100
AcDbEntity
  8
0
  6
CONTINUOUS
 62
7
100
AcDbLine
 10
150.3553047172777
 20
204.1454274911984
 30
0.000000000000000
 11
150.3553047172777
 21
208.3950577648053
 31
0.000000000000000
  0
SPLINE
  5
178
100
AcDbEntity
  8
0
  6
CONTINUOUS
 62
7
100
AcDbSpline
210
0.000000000000000
220
0.000000000000000
230
1.000000000000000
 70
     8
 71
     3
 72
    13
 73
     9
 74
     0
 42
1.000000000000000e-07
 43
1.000000000000000e-07
 12
0.8519265165587058
 22
0.5236613508595838
 32
0.000000000000000
 13
-0.007857985709051718
 23
-0.9999691255543439
 33
0.000000000000000
 40
0.000000000000000
 40
0.000000000000000
 40
0.000000000000000
 40
0.000000000000000
 40
0.1933892760180870
 40
0.3317429946480687
 40
0.4260348993854521
 40
0.4947209582517249
 40
0.5477230245037137
 40
0.5820498696601957
 40
0.5820498696601957
 40
0.5820498696601957
 40
0.5820498696601957
 10
154.4553047172777
 20
209.6344388673234
 30
0.000000000000000
 10
154.5102225346970
 20
209.6681956971639
 30
0.000000000000000
 10
154.6087205044007
 20
209.7187690342652
 30
0.000000000000000
 10
154.7403792634247
 20
209.7737795640416
 30
0.000000000000000
 10
154.8387892872360
 20
209.7945112615208
 30
0.000000000000000
 10
154.9145110951535
 20
209.7842577856153
 30
0.000000000000000
 10
154.9507100783804
 20
209.7409406748225
 30
0.000000000000000
 10
154.9553704287964
 20
209.7114731652556
 30
0.000000000000000
 10
154.9552805155102
 20
209.7000312368109
 30
0.000000000000000
  0
SPLINE
  5
179
100
AcDbEntity
  8
0
  6
CONTINUOUS
 62
7
100
AcDbSpline
210
0.000000000000000
220
0.000000000000000
230
1.000000000000000
 70
     8
 71
     3
 72
    10
 73
     6
 74
     0
 42
1.000000000000000e-07
 43
1.000000000000000e-07
 12
0.2766458342157421
 22
-0.9609719467352988
 32
0.000000000000000
 13
0.01693103490811154
 23
-0.9998566597555509
 33
0.000000000000000
 40
0.000000000000000
 40
0.000000000000000
 40
0.000000000000000
 40
0.000000000000000
 40
0.04345749258183220
 40
0.3039913799479367
 40
0.5413400348604478
 40
0.5413400348604478
 40
0.5413400348604478
 40
0.5413400348604478
 10
154.8711803994954
 20
210.2414453034374
 30
0.000000000000000
 10
154.8751878442581
 20
210.2275248263552
 30
0.000000000000000
 10
154.9022674587363
 20
210.1298896858897
 30
0.000000000000000
 10
154.9415079355191
 20
209.9532242146185
 30
0.000000000000000
 10
154.9539651978237
 20
209.7871632160011
 30
0.000000000000000
 10
154.9553047172776
 20
209.7080583382350
 30
0.000000000000000
  0
SPLINE
  5
17A
100
AcDbEntity
  8
0
  6
CONTINUOUS
 62
7
100
AcDbSpline
210
0.000000000000000
220
0.000000000000000
230
1.000000000000000
 70
     8
 71
     3
 72
    10
 73
     6
 74
     0
 42
1.000000000000000e-07
 43
1.000000000000000e-07
 12
-0.2766458342157421
 22
-0.9609719467352988
 32
0.000000000000000
 13
-0.01693103490788417
 23
-0.9998566597555509
 33
0.000000000000000
 40
0.000000000000000
 40
0.000000000000000
 40
0.000000000000000
 40
0.000000000000000
 40
0.04345749258183220
 40
0.3039913799479367
 40
0.5413400348604480
 40
0.5413400348604480
 40
0.5413400348604480
 40
0.5413400348604480
 10
158.8394290350601
 20
210.2414453034374
 30
0.000000000000000
 10
158.8354215902974
 20
210.2275248263552
 30
0.000000000000000
 10
158.8083419758192
 20
210.1298896858897
 30
0.000000000000000
 10
158.7691014990365
 20
209.9532242146185
 30
0.000000000000000
 10
158.7566442367318
 20
209.7871632160011
 30
0.000000000000000
 10
158.7553047172779
 20
209.7080583382350
 30
0.000000000000000
  0
SPLINE
  5
17B
100
AcDbEntity
  8
0
  6
CONTINUOUS
 62
7
100
AcDbSpline
210
0.000000000000000
220
0.000000000000000
230
1.000000000000000
 70
     8
 71
     3
 72
    13
 73
     9
 74
     0
 42
1.000000000000000e-07
 43
1.000000000000000e-07
 12
-0.8519265165573415
 22
0.5236613508595838
 32
0.000000000000000
 13
0.007857985707232729
 23
-0.9999691255543439
 33
0.000000000000000
 40
0.000000000000000
 40
0.000000000000000
 40
0.000000000000000
 40
0.000000000000000
 40
0.1933892760180902
 40
0.3317429946480718
 40
0.4260348993854517
 40
0.4947209582517245
 40
0.5477230245037156
 40
0.5820498696601976
 40
0.5820498696601976
 40
0.5820498696601976
 40
0.5820498696601976
 10
159.2553047172778
 20
209.6344388673234
 30
0.000000000000000
 10
159.2003868998586
 20
209.6681956971639
 30
0.000000000000000
 10
159.1018889301549
 20
209.7187690342652
 30
0.000000000000000
 10
158.9702301711309
 20
209.7737795640416
 30
0.000000000000000
 10
158.8718201473195
 20
209.7945112615208
 30
0.000000000000000
 10
158.7960983394020
 20
209.7842577856153
 30
0.000000000000000
 10
158.7598993561751
 20
209.7409406748226
 30
0.000000000000000
 10
158.7552390057591
 20
209.7114731652556
 30
0.000000000000000
 10
158.7553289190453
 20
209.7000312368109
 30
0.000000000000000
  0
SPLINE
  5
17C
100
AcDbEntity
  8
0
  6
CONTINUOUS
 62
7
100
AcDbSpline
210
0.000000000000000
220
0.000000000000000
230
1.000000000000000
 70
     8
 71
     3
 72
    49
 73
    45
 74
     0
 42
1.000000000000000e-07
 43
1.000000000000000e-07
 12
-0.0001335748033852724
 22
0.9999999910792212
 32
0.000000000000000
 13
-0.9999999999990905
 23
-9.681589290266857e-07
 33
0.000000000000000
 40
0.000000000000000
 40
0.000000000000000
 40
0.000000000000000
 40
0.000000000000000
 40
0.1593580424195122
 40
0.3699403208054007
 40
0.5776033216366490
 40
0.7824283673053043
 40
0.9844506823280096
 40
1.183660044294125
 40
1.379990967948327
 40
1.573314064167294
 40
1.763417902614698
 40
1.949968191897789
 40
2.132442540718747
 40
2.310028139576614
 40
2.481490176722626
 40
2.645089452177035
 40
2.798763761846260
 40
2.940794994179541
 40
3.070704318278538
 40
3.189629708016589
 40
3.299988500192776
 40
3.404433695465415
 40
3.506062045420628
 40
3.609778538856065
 40
3.722710922529507
 40
3.858302316492779
 40
4.053982859073590
 40
4.245352122907253
 40
4.432481831268652
 40
4.621148237047261
 40
4.833226328903002
 40
5.050656618436616
 40
5.275153445017667
 40
5.507371932693251
 40
5.747315162473599
 40
5.994626617426896
 40
6.248726541465935
 40
6.508884999197097
 40
6.774265724371713
 40
7.043955042838234
 40
7.316982597409189
 40
7.592337337523230
 40
7.868980693395758
 40
7.944761223675957
 40
7.944761223675957
 40
7.944761223675957
 40
7.944761223675957
 10
175.3553047129905
 20
212.5470143385732
 30
0.000000000000000
 10
175.3552976175841
 20
212.6001336855725
 30
0.000000000000000
 10
175.3513801242637
 20
212.7234759259994
 30
0.000000000000000
 10
175.3310709820707
 20
212.9151680691182
 30
0.000000000000000
 10
175.2920310563098
 20
213.1193961262261
 30
0.000000000000000
 10
175.2371233106453
 20
213.3169730424284
 30
0.000000000000000
 10
175.1673782129725
 20
213.5068029311889
 30
0.000000000000000
 10
175.0838967680041
 20
213.6878824523167
 30
0.000000000000000
 10
174.9878584181374
 20
213.8592999630633
 30
0.000000000000000
 10
174.8805299930977
 20
214.0202371267884
 30
0.000000000000000
 10
174.7632835635460
 20
214.1699668992268
 30
0.000000000000000
 10
174.6376308303600
 20
214.3078467228472
 30
0.000000000000000
 10
174.5052853084092
 20
214.4333076886518
 30
0.000000000000000
 10
174.3682583083281
 20
214.5458492137196
 30
0.000000000000000
 10
174.2289694889481
 20
214.6450638742894
 30
0.000000000000000
 10
174.0902760604221
 20
214.7307405391613
 30
0.000000000000000
 10
173.9552369229638
 20
214.8030739181997
 30
0.000000000000000
 10
173.8265142243374
 20
214.8628877227862
 30
0.000000000000000
 10
173.7056486862674
 20
214.9116727096947
 30
0.000000000000000
 10
173.5926462741080
 20
214.9513578326765
 30
0.000000000000000
 10
173.4862416224385
 20
214.9839031104189
 30
0.000000000000000
 10
173.3842962452269
 20
215.0110514773216
 30
0.000000000000000
 10
173.2836755637994
 20
215.0343370004450
 30
0.000000000000000
 10
173.1796322720106
 20
215.0551606912599
 30
0.000000000000000
 10
173.0638929233172
 20
215.0749999547655
 30
0.000000000000000
 10
172.9173212588985
 20
215.0961144098225
 30
0.000000000000000
 10
172.7442471227957
 20
215.1162065897936
 30
0.000000000000000
 10
172.5536862332953
 20
215.1341331093296
 30
0.000000000000000
 10
172.3652109010267
 20
215.1489952059679
 30
0.000000000000000
 10
172.1696957911008
 20
215.1622089296859
 30
0.000000000000000
 10
171.9639834420433
 20
215.1741897373722
 30
0.000000000000000
 10
171.7462556368033
 20
215.1851512005625
 30
0.000000000000000
 10
171.5217533395366
 20
215.1949632574241
 30
0.000000000000000
 10
171.2896997096632
 20
215.2037687963734
 30
0.000000000000000
 10
171.0500035082134
 20
215.2116377157383
 30
0.000000000000000
 10
170.8029826742450
 20
215.2186027972557
 30
0.000000000000000
 10
170.5491980452493
 20
215.2246775729117
 30
0.000000000000000
 10
170.2893694866069
 20
215.2298653551219
 30
0.000000000000000
 10
170.0243275899002
 20
215.2341642047579
 30
0.000000000000000
 10
169.7549827035002
 20
215.2375698613567
 30
0.000000000000000
 10
169.4823031672955
 20
215.2400775828793
 30
0.000000000000000
 10
169.2072988148038
 20
215.2416831798244
 30
0.000000000000000
 10
168.9980395196148
 20
215.2422140842109
 30
0.000000000000000
 10
168.8805648940378
 20
215.2422667513426
 30
0.000000000000000
 10
168.8553047172778
 20
215.2422667268867
 30
0.000000000000000
  0
SPLINE
  5
17D
100
AcDbEntity
  8
0
  6
CONTINUOUS
 62
7
100
AcDbSpline
210
0.000000000000000
220
0.000000000000000
230
1.000000000000000
 70
     8
 71
     3
 72
    48
 73
    44
 74
     0
 42
1.000000000000000e-07
 43
1.000000000000000e-07
 12
-0.9999999999949978
 22
2.956753633043263e-06
 32
0.000000000000000
 13
8.484368299832568e-05
 23
-0.9999999963911250
 33
0.000000000000000
 40
0.000000000000000
 40
0.000000000000000
 40
0.000000000000000
 40
0.000000000000000
 40
0.1456214284698071
 40
0.4218852024049198
 40
0.6964785101362019
 40
0.9683192313963012
 40
1.236384726522544
 40
1.499685813579700
 40
1.757279412032162
 40
2.008283568919401
 40
2.251896377959445
 40
2.487421356604135
 40
2.714303870319281
 40
2.932187337584329
 40
3.141007091530434
 40
3.341161964625095
 40
3.533864677524696
 40
3.721971005177458
 40
3.912420200966464
 40
4.126717357153805
 40
4.296302809504582
 40
4.406685130229056
 40
4.515779570911173
 40
4.626184653399919
 40
4.742531439501504
 40
4.867463836057597
 40
5.003683036931526
 40
5.153647086187746
 40
5.317672952072452
 40
5.493738379100132
 40
5.678568803580003
 40
5.869184113466401
 40
6.063503431969318
 40
6.260208200867883
 40
6.458480150355033
 40
6.657808518860152
 40
6.857868466781058
 40
7.058447562629775
 40
7.259396988350594
 40
7.482233961553999
 40
7.702113888923875
 40
7.918550311591397
 40
7.945045271836307
 40
7.945045271836307
 40
7.945045271836307
 40
7.945045271836307
 10
144.8553047172778
 20
215.2422667268867
 30
0.000000000000000
 10
144.8067642411214
 20
215.2422668704089
 30
0.000000000000000
 10
144.6661358259764
 20
215.2421453663864
 30
0.000000000000000
 10
144.4339771870569
 20
215.2413642230186
 30
0.000000000000000
 10
144.1597501966624
 20
215.2395335956684
 30
0.000000000000000
 10
143.8882635300145
 20
215.2368056389952
 30
0.000000000000000
 10
143.6205516624997
 20
215.2331869794346
 30
0.000000000000000
 10
143.3576028716512
 20
215.2286853265863
 30
0.000000000000000
 10
143.1003587923220
 20
215.2233086868091
 30
0.000000000000000
 10
142.8496989918071
 20
215.2170641064064
 30
0.000000000000000
 10
142.6064213604103
 20
215.2099557039714
 30
0.000000000000000
 10
142.3712154530232
 20
215.2019815673829
 30
0.000000000000000
 10
142.1446235564981
 20
215.1931286663491
 30
0.000000000000000
 10
141.9269792011434
 20
215.1833641168463
 30
0.000000000000000
 10
141.7183012081256
 20
215.1726191208340
 30
0.000000000000000
 10
141.5180908013552
 20
215.1607570759863
 30
0.000000000000000
 10
141.3248870538372
 20
215.1475012927098
 30
0.000000000000000
 10
141.1350740995958
 20
215.1322426701726
 30
0.000000000000000
 10
140.9383554241860
 20
215.1133145322186
 30
0.000000000000000
 10
140.7482480610356
 20
215.0904641591033
 30
0.000000000000000
 10
140.5854064360447
 20
215.0651792471850
 30
0.000000000000000
 10
140.4579864122110
 20
215.0409402327849
 30
0.000000000000000
 10
140.3506288182824
 20
215.0170664121840
 30
0.000000000000000
 10
140.2422247020613
 20
214.9890227096653
 30
0.000000000000000
 10
140.1299071990559
 20
214.9553380870750
 30
0.000000000000000
 10
140.0109971678783
 20
214.9140453304760
 30
0.000000000000000
 10
139.8837986948099
 20
214.8628957235095
 30
0.000000000000000
 10
139.7477185586626
 20
214.7994319106946
 30
0.000000000000000
 10
139.6040105902856
 20
214.7215366429534
 30
0.000000000000000
 10
139.4559088134813
 20
214.6281017392935
 30
0.000000000000000
 10
139.3076155487438
 20
214.5191763528312
 30
0.000000000000000
 10
139.1631370599291
 20
214.3956272044044
 30
0.000000000000000
 10
139.0256553058223
 20
214.2586513066251
 30
0.000000000000000
 10
138.8975197391555
 20
214.1095029755880
 30
0.000000000000000
 10
138.7804699014945
 20
213.9494253067994
 30
0.000000000000000
 10
138.6758320120191
 20
213.7796524877509
 30
0.000000000000000
 10
138.5846456983631
 20
213.6014246059861
 30
0.000000000000000
 10
138.5077386307347
 20
213.4159966955843
 30
0.000000000000000
 10
138.4435468595090
 20
213.2177933801342
 30
0.000000000000000
 10
138.3948217500125
 20
213.0085453038558
 30
0.000000000000000
 10
138.3640007846232
 20
212.7907289076983
 30
0.000000000000000
 10
138.3557235278903
 20
212.6364582578669
 30
0.000000000000000
 10
138.3553039773010
 20
212.5554828654654
 30
0.000000000000000
 10
138.3553047266110
 20
212.5466512120823
 30
0.000000000000000
  0
SPLINE
  5
17E
100
AcDbEntity
  8
0
  6
CONTINUOUS
 62
7
100
AcDbSpline
210
0.000000000000000
220
0.000000000000000
230
1.000000000000000
 70
     8
 71
     3
 72
    28
 73
    24
 74
     0
 42
1.000000000000000e-07
 43
1.000000000000000e-07
 12
0.9999999999949978
 22
3.143642061331775e-06
 32
0.000000000000000
 13
0.9900182795536239
 23
-0.1409390155458823
 33
0.000000000000000
 40
0.000000000000000
 40
0.000000000000000
 40
0.000000000000000
 40
0.000000000000000
 40
0.1369868516338566
 40
0.3967725620410181
 40
0.6545847442500683
 40
0.9090331815932324
 40
1.158774170757664
 40
1.402471728496708
 40
1.638797939430636
 40
1.866432215385024
 40
2.084059086943603
 40
2.290364143787243
 40
2.484027787520962
 40
2.663716693846459
 40
2.828073545458757
 40
2.975707179746944
 40
3.105188663587701
 40
3.215065190208966
 40
3.303913784544504
 40
3.364015668614575
 40
3.405348400168072
 40
3.428693773083805
 40
3.435401900489008
 40
3.435401900489008
 40
3.435401900489008
 40
3.435401900489008
 10
168.8553047172778
 20
210.2422667268867
 30
0.000000000000000
 10
168.9009670011555
 20
210.2422668704326
 30
0.000000000000000
 10
169.0332245368339
 20
210.2421543784711
 30
0.000000000000000
 10
169.2514186386475
 20
210.2414192561024
 30
0.000000000000000
 10
169.5087621530962
 20
210.2397021285496
 30
0.000000000000000
 10
169.7627503746299
 20
210.2371511146179
 30
0.000000000000000
 10
170.0120238201047
 20
210.2337847526428
 30
0.000000000000000
 10
170.2552437571034
 20
210.2296274633898
 30
0.000000000000000
 10
170.4910791156551
 20
210.2247110779799
 30
0.000000000000000
 10
170.7182056292557
 20
210.2190755061024
 30
0.000000000000000
 10
170.9353035117613
 20
210.2127701104543
 30
0.000000000000000
 10
171.1410533245784
 20
210.2058556359115
 30
0.000000000000000
 10
171.3341297741896
 20
210.1984070518853
 30
0.000000000000000
 10
171.5131935244345
 20
210.1905177713176
 30
0.000000000000000
 10
171.6768819212318
 20
210.1823056088286
 30
0.000000000000000
 10
171.8238015706713
 20
210.1739219785605
 30
0.000000000000000
 10
171.9525291474284
 20
210.1655627410509
 30
0.000000000000000
 10
172.0616348040494
 20
210.1574885530716
 30
0.000000000000000
 10
172.1476048710400
 20
210.1502131053108
 30
0.000000000000000
 10
172.2107424480609
 20
210.1441329049333
 30
0.000000000000000
 10
172.2520889859541
 20
210.1396038900248
 30
0.000000000000000
 10
172.2757124503300
 20
210.1367356562254
 30
0.000000000000000
 10
172.2856339201329
 20
210.1353484915786
 30
0.000000000000000
 10
172.2878476430505
 20
210.1350333459544
 30
0.000000000000000
  0
SPLINE
  5
17F
100
AcDbEntity
  8
0
  6
CONTINUOUS
 62
7
100
AcDbSpline
210
0.000000000000000
220
0.000000000000000
230
1.000000000000000
 70
     8
 71
     3
 72
    34
 73
    30
 74
     0
 42
1.000000000000000e-07
 43
1.000000000000000e-07
 12
0.9976904648092386
 22
0.06792449063232198
 32
0.000000000000000
 13
-5.198375038162339e-05
 23
0.9999999986484909
 33
0.000000000000000
 40
0.000000000000000
 40
0.000000000000000
 40
0.000000000000000
 40
0.000000000000000
 40
0.09362604551569280
 40
0.2848168922215351
 40
0.4747474397772803
 40
0.6869616674196675
 40
0.8504878633459678
 40
0.9617022287456454
 40
1.071010524643665
 40
1.180922376313220
 40
1.296139352243509
 40
1.419723188136628
 40
1.554101321458654
 40
1.701989725847777
 40
1.864045678368426
 40
2.038553198604884
 40
2.222313121222123
 40
2.412237883685094
 40
2.606115419431106
 40
2.802533444495412
 40
3.000614869461073
 40
3.199813192906176
 40
3.399782008881607
 40
3.600295805041923
 40
3.801198194720635
 40
4.024501796649156
 40
4.244851166338657
 40
4.461720559179509
 40
4.516028340005175
 40
4.516028340005175
 40
4.516028340005175
 40
4.516028340005175
 10
172.2825788187083
 20
209.9392410009863
 30
0.000000000000000
 10
172.3137154229979
 20
209.9413608348035
 30
0.000000000000000
 10
172.4084143532610
 20
209.9481122772789
 30
0.000000000000000
 10
172.5661698337535
 20
209.9606657178516
 30
0.000000000000000
 10
172.7630632718179
 20
209.9794542781918
 30
0.000000000000000
 10
172.9503330076747
 20
210.0017044238309
 30
0.000000000000000
 10
173.1108303288669
 20
210.0261684186149
 30
0.000000000000000
 10
173.2367092353023
 20
210.0495566478534
 30
0.000000000000000
 10
173.3443576428431
 20
210.0729633833870
 30
0.000000000000000
 10
173.4524502000614
 20
210.1003265634291
 30
0.000000000000000
 10
173.5640105546215
 20
210.1330759775985
 30
0.000000000000000
 10
173.6818235300165
 20
210.1731251139327
 30
0.000000000000000
 10
173.8077587268990
 20
210.2226948337643
 30
0.000000000000000
 10
173.9425694468385
 20
210.2842173858539
 30
0.000000000000000
 10
174.0853305605906
 20
210.3599168196016
 30
0.000000000000000
 10
174.2330453999242
 20
210.4510689496714
 30
0.000000000000000
 10
174.3815749067258
 20
210.5577816228887
 30
0.000000000000000
 10
174.5268277899623
 20
210.6792747162769
 30
0.000000000000000
 10
174.6654906974210
 20
210.8143757263330
 30
0.000000000000000
 10
174.7951056734715
 20
210.9618312641813
 30
0.000000000000000
 10
174.9138583874341
 20
211.1203960829337
 30
0.000000000000000
 10
175.0203719058033
 20
211.2888355768654
 30
0.000000000000000
 10
175.1135705193922
 20
211.4659112151103
 30
0.000000000000000
 10
175.1925989656079
 20
211.6503709303163
 30
0.000000000000000
 10
175.2591312323817
 20
211.8479255515524
 30
0.000000000000000
 10
175.3103427844655
 20
212.0568853613015
 30
0.000000000000000
 10
175.3437096406972
 20
212.2747916700165
 30
0.000000000000000
 10
175.3543325149592
 20
212.4385211741344
 30
0.000000000000000
 10
175.3553056540312
 20
212.5289117449841
 30
0.000000000000000
 10
175.3553047129905
 20
212.5470143385682
 30
0.000000000000000
  0
SPLINE
  5
180
100
AcDbEntity
  8
0
  6
CONTINUOUS
 62
7
100
AcDbSpline
210
0.000000000000000
220
0.000000000000000
230
1.000000000000000
 70
     8
 71
     3
 72
    29
 73
    25
 74
     0
 42
1.000000000000000e-07
 43
1.000000000000000e-07
 12
0.9897502409585286
 22
0.1428091748675797
 32
0.000000000000000
 13
1.000000000000000
 23
-9.074610716197640e-07
 33
0.000000000000000
 40
0.000000000000000
 40
0.000000000000000
 40
0.000000000000000
 40
0.000000000000000
 40
0.003477608503194500
 40
0.02153756566589930
 40
0.05649037372932690
 40
0.1098041927658318
 40
0.1824971084719172
 40
0.2749841049602437
 40
0.3870733788699056
 40
0.5180791184659451
 40
0.6669790315236740
 40
0.8325559231362044
 40
1.013496918457357
 40
1.208451181332766
 40
1.416058088088787
 40
1.634958098161746
 40
1.863795026307166
 40
2.101214856020854
 40
2.345863751668074
 40
2.596386467567217
 40
2.851425579925635
 40
3.109621591491328
 40
3.369613791028005
 40
3.435402196226106
 40
3.435402196226106
 40
3.435402196226106
 40
3.435402196226106
 10
141.4227617915050
 20
210.1350333459543
 30
0.000000000000000
 10
141.4239091127897
 20
210.1351988907546
 30
0.000000000000000
 10
141.4310161131836
 20
210.1362148053270
 30
0.000000000000000
 10
141.4497012094889
 20
210.1385572328667
 30
0.000000000000000
 10
141.4849168542508
 20
210.1425617468706
 30
0.000000000000000
 10
141.5383046246213
 20
210.1479095912361
 30
0.000000000000000
 10
141.6108510711769
 20
210.1543575604491
 30
0.000000000000000
 10
141.7029918795944
 20
210.1615947690649
 30
0.000000000000000
 10
141.8145848429247
 20
210.1693480336992
 30
0.000000000000000
 10
141.9450052838426
 20
210.1773588775000
 30
0.000000000000000
 10
142.0932823311869
 20
210.1854068891989
 30
0.000000000000000
 10
142.2582335407358
 20
210.1933067400318
 30
0.000000000000000
 10
142.4385650465185
 20
210.2009073800555
 30
0.000000000000000
 10
142.6329340298263
 20
210.2080865967474
 30
0.000000000000000
 10
142.8399814149642
 20
210.2147459150616
 30
0.000000000000000
 10
143.0583459523502
 20
210.2208058416586
 30
0.000000000000000
 10
143.2866683874526
 20
210.2262021101713
 30
0.000000000000000
 10
143.5235912697194
 20
210.2308828066664
 30
0.000000000000000
 10
143.7677574254756
 20
210.2348063203606
 30
0.000000000000000
 10
144.0178085376023
 20
210.2379396861819
 30
0.000000000000000
 10
144.2723844189311
 20
210.2402581479495
 30
0.000000000000000
 10
144.5301230392341
 20
210.2417420690186
 30
0.000000000000000
 10
144.7247817161831
 20
210.2422245781392
 30
0.000000000000000
 10
144.8333752488784
 20
210.2422667467868
 30
0.000000000000000
 10
144.8553047172778
 20
210.2422667268867
 30
0.000000000000000
  0
SPLINE
  5
181
100
AcDbEntity
  8
0
  6
CONTINUOUS
 62
7
100
AcDbSpline
210
0.000000000000000
220
0.000000000000000
230
1.000000000000000
 70
     8
 71
     3
 72
    35
 73
    31
 74
     0
 42
1.000000000000000e-07
 43
1.000000000000000e-07
 12
0.0001968062147170713
 22
-0.9999999806336746
 32
0.000000000000000
 13
0.9976746329139132
 23
-0.06815663463203236
 33
0.000000000000000
 40
0.000000000000000
 40
0.000000000000000
 40
0.000000000000000
 40
0.000000000000000
 40
0.1867505463652357
 40
0.3969480380370726
 40
0.6042395131012664
 40
0.8087001494100885
 40
1.010359324890483
 40
1.209200762585643
 40
1.405150402209241
 40
1.598070187951214
 40
1.787735375650396
 40
1.973791674859959
 40
2.155685664826769
 40
2.332557456866712
 40
2.503108657430251
 40
2.665539027592915
 40
2.817782707025480
 40
2.958235132665487
 40
3.086623638224596
 40
3.204281057649025
 40
3.313751704750921
 40
3.417595278333229
 40
3.519190667386476
 40
3.623625096993389
 40
3.738514216324400
 40
3.878806837201330
 40
4.089121731418382
 40
4.279243632977950
 40
4.465631351123828
 40
4.515728436502179
 40
4.515728436502179
 40
4.515728436502179
 40
4.515728436502179
 10
138.3553047266110
 20
212.5466512120833
 30
0.000000000000000
 10
138.3553169778337
 20
212.4844010311671
 30
0.000000000000000
 10
138.3602457220940
 20
212.3520366403651
 30
0.000000000000000
 10
138.3836711091625
 20
212.1517564639297
 30
0.000000000000000
 10
138.4248234777389
 20
211.9483238153069
 30
0.000000000000000
 10
138.4817145105770
 20
211.7516920255419
 30
0.000000000000000
 10
138.5533042335360
 20
211.5629417011164
 30
0.000000000000000
 10
138.6384819718800
 20
211.3830654029082
 30
0.000000000000000
 10
138.7360575978400
 20
211.2129623940740
 30
0.000000000000000
 10
138.8447518135749
 20
211.0534391586930
 30
0.000000000000000
 10
138.9631769429517
 20
210.9052111477126
 30
0.000000000000000
 10
139.0897993008165
 20
210.7689107803676
 30
0.000000000000000
 10
139.2228728883321
 20
210.6450980912909
 30
0.000000000000000
 10
139.3603393627539
 20
210.5342640979571
 30
0.000000000000000
 10
139.4997203939095
 20
210.4367988660556
 30
0.000000000000000
 10
139.6381115260789
 20
210.3528746579575
 30
0.000000000000000
 10
139.7724648720071
 20
210.2822258982340
 30
0.000000000000000
 10
139.9002251877755
 20
210.2239386528704
 30
0.000000000000000
 10
140.0200380868020
 20
210.1764476395136
 30
0.000000000000000
 10
140.1320997830675
 20
210.1377928302265
 30
0.000000000000000
 10
140.2377837231445
 20
210.1060421363342
 30
0.000000000000000
 10
140.3393573233854
 20
210.0794769066588
 30
0.000000000000000
 10
140.4400975631980
 20
210.0565902400679
 30
0.000000000000000
 10
140.5450811302795
 20
210.0359821593289
 30
0.000000000000000
 10
140.6633139384927
 20
210.0161404260920
 30
0.000000000000000
 10
140.8169869262133
 20
209.9945452317840
 30
0.000000000000000
 10
140.9961313369309
 20
209.9744508251355
 30
0.000000000000000
 10
141.1909429431693
 20
209.9567345270517
 30
0.000000000000000
 10
141.3327344426298
 20
209.9458817391174
 30
0.000000000000000
 10
141.4113704187589
 20
209.9403791505677
 30
0.000000000000000
 10
141.4280306158472
 20
209.9392410009863
 30
0.000000000000000
  0
ELLIPSE
  5
182
100
AcDbEntity
  8
0
  6
CONTINUOUS
 62
7
100
AcDbEllipse
 10
152.6840811127374
 20
211.6742279154600
 30
0.000000000000000
 11
-3.070817277930598
 21
0.000000000000000
 31
0.000000000000000
210
0.000000000000000
220
0.000000000000000
230
1.000000000000000
 40
0.8131435762387977
 41
1.659234503629431
 42
2.185592768317785
  0
ELLIPSE
  5
183
100
AcDbEntity
  8
0
  6
CONTINUOUS
 62
7
100
AcDbEllipse
 10
161.0265283218181
 20
211.6742279154600
 30
0.000000000000000
 11
-3.070817277930598
 21
0.000000000000000
 31
0.000000000000000
210
0.000000000000000
220
0.000000000000000
230
1.000000000000000
 40
0.8131435762387977
 41
0.9559998852720089
 42
1.482358149960363
  0
ARC
  5
184
100
AcDbEntity
  8
0
  6
CONTINUOUS
 62
7
100
AcDbCircle
 10
153.4681341892774
 20
211.3598182412024
 30
0.000000000000000
 40
4.000000000000000
100
AcDbArc
 50
210.1362126861595
 51
262.6339847723876
  0
ARC
  5
185
100
AcDbEntity
  8
0
  6
CONTINUOUS
 62
7
100
AcDbCircle
 10
153.4681341892774
 20
211.3598182412024
 30
0.000000000000000
 40
4.000000000000000
100
AcDbArc
 50
97.36601522761245
 51
103.9248686957713
  0
LINE
  5
186
100
AcDbEntity
  8
0
  6
CONTINUOUS
 62
7
100
AcDbLine
 10
158.1053047172777
 20
209.3598182412024
 30
0.000000000000000
 11
158.7553047172779
 21
209.3598182412024
 31
0.000000000000000
  0
LINE
  5
187
100
AcDbEntity
  8
0
  6
CONTINUOUS
 62
7
100
AcDbLine
 10
154.9553047172776
 20
209.3598182412024
 30
0.000000000000000
 11
155.6053047172777
 21
209.3598182412024
 31
0.000000000000000
  0
LINE
  5
188
100
AcDbEntity
  8
0
  6
CONTINUOUS
 62
7
100
AcDbLine
 10
162.0053047172778
 20
208.6098182412024
 30
0.000000000000000
 11
164.0053047172777
 21
208.6098182412024
 31
0.000000000000000
  0
LINE
  5
189
100
AcDbEntity
  8
0
  6
CONTINUOUS
 62
7
100
AcDbLine
 10
164.0053047172777
 20
208.6098182412024
 30
0.000000000000000
 11
164.0053047172777
 21
209.3723731139550
 31
0.000000000000000
  0
LINE
  5
18A
100
AcDbEntity
  8
0
  6
CONTINUOUS
 62
7
100
AcDbLine
 10
161.0694792179078
 20
209.1713135408242
 30
0.000000000000000
 11
162.0053047172778
 21
208.6098182412024
 31
0.000000000000000
  0
LINE
  5
18B
100
AcDbEntity
  8
0
  6
CONTINUOUS
 62
7
100
AcDbLine
 10
162.0053047172778
 20
208.6098182412024
 30
0.000000000000000
 11
162.0053047172778
 21
209.2354034111072
 31
0.000000000000000
  0
LINE
  5
18C
100
AcDbEntity
  8
0
  6
CONTINUOUS
 62
7
100
AcDbLine
 10
160.7553047172779
 20
215.2422667268635
 30
0.000000000000000
 11
160.7553047172779
 21
215.6098071584218
 31
0.000000000000000
  0
LINE
  5
18D
100
AcDbEntity
  8
0
  6
CONTINUOUS
 62
7
100
AcDbLine
 10
158.7553047172779
 20
215.2422667268635
 30
0.000000000000000
 11
158.7553047172779
 21
215.6098071584218
 31
0.000000000000000
  0
LINE
  5
18E
100
AcDbEntity
  8
0
  6
CONTINUOUS
 62
7
100
AcDbLine
 10
160.7553047172779
 20
215.6098071584218
 30
0.000000000000000
 11
158.7553047172779
 21
215.6098071584218
 31
0.000000000000000
  0
LINE
  5
18F
100
AcDbEntity
  8
0
  6
CONTINUOUS
 62
7
100
AcDbLine
 10
152.9553047172776
 20
215.2422667268635
 30
0.000000000000000
 11
152.9553047172776
 21
215.6098071584218
 31
0.000000000000000
  0
LINE
  5
190
100
AcDbEntity
  8
0
  6
CONTINUOUS
 62
7
100
AcDbLine
 10
154.9553047172776
 20
215.2422667268635
 30
0.000000000000000
 11
154.9553047172776
 21
215.6098071584218
 31
0.000000000000000
  0
LINE
  5
191
100
AcDbEntity
  8
0
  6
CONTINUOUS
 62
7
100
AcDbLine
 10
154.9553047172776
 20
215.6098071584218
 30
0.000000000000000
 11
152.9553047172776
 21
215.6098071584218
 31
0.000000000000000
  0
LINE
  5
192
100
AcDbEntity
  8
0
  6
CONTINUOUS
 62
7
100
AcDbLine
 10
158.7553047172779
 20
206.9830268962371
 30
0.000000000000000
 11
160.7553047172779
 21
206.9830268962371
 31
0.000000000000000
  0
LINE
  5
193
100
AcDbEntity
  8
0
  6
CONTINUOUS
 62
7
100
AcDbLine
 10
158.7553047172779
 20
206.9830268962371
 30
0.000000000000000
 11
158.7553047172779
 21
208.9287898582844
 31
0.000000000000000
  0
LINE
  5
194
100
AcDbEntity
  8
0
  6
CONTINUOUS
 62
7
100
AcDbLine
 10
160.7553047172779
 20
206.9830268962371
 30
0.000000000000000
 11
160.7553047172779
 21
208.9287898582844
 31
0.000000000000000
  0
LINE
  5
195
100
AcDbEntity
  8
0
  6
CONTINUOUS
 62
7
100
AcDbLine
 10
152.9553047172776
 20
206.9830268962371
 30
0.000000000000000
 11
154.9553047172776
 21
206.9830268962371
 31
0.000000000000000
  0
LINE
  5
196
100
AcDbEntity
  8
0
  6
CONTINUOUS
 62
7
100
AcDbLine
 10
154.9553047172776
 20
206.9830268962371
 30
0.000000000000000
 11
154.9553047172776
 21
208.9287898582844
 31
0.000000000000000
  0
LINE
  5
197
100
AcDbEntity
  8
0
  6
CONTINUOUS
 62
7
100
AcDbLine
 10
152.9553047172776
 20
206.9830268962371
 30
0.000000000000000
 11
152.9553047172776
 21
208.9287898582844
 31
0.000000000000000
  0
LINE
  5
198
100
AcDbEntity
  8
0
  6
CONTINUOUS
 62
7
100
AcDbLine
 10
152.9553047172776
 20
209.1869711761382
 30
0.000000000000000
 11
152.9553047172776
 21
209.1772125715688
 31
0.000000000000000
  0
LINE
  5
199
100
AcDbEntity
  8
0
  6
CONTINUOUS
 62
7
100
AcDbLine
 10
160.7553047172779
 20
209.1869711761382
 30
0.000000000000000
 11
160.7553047172779
 21
209.1772125715688
 31
0.000000000000000
  0
LINE
  5
19A
100
AcDbEntity
  8
0
  6
CONTINUOUS
 62
7
100
AcDbLine
 10
154.9553047172776
 20
209.7080583382335
 30
0.000000000000000
 11
154.9553047172776
 21
209.0893551799948
 31
0.000000000000000
  0
LINE
  5
19B
100
AcDbEntity
  8
0
  6
CONTINUOUS
 62
7
100
AcDbLine
 10
154.9553047172776
 20
210.2422667268635
 30
0.000000000000000
 11
154.9553047172776
 21
209.7080583382335
 31
0.000000000000000
  0
LINE
  5
19C
100
AcDbEntity
  8
0
  6
CONTINUOUS
 62
7
100
AcDbLine
 10
158.7553047172779
 20
209.7080583382335
 30
0.000000000000000
 11
158.7553047172779
 21
209.0893551799948
 31
0.000000000000000
  0
LINE
  5
19D
100
AcDbEntity
  8
0
  6
CONTINUOUS
 62
7
100
AcDbLine
 10
158.7553047172779
 20
210.2422667268635
 30
0.000000000000000
 11
158.7553047172779
 21
209.7080583382335
 31
0.000000000000000
  0
LINE
  5
19E
100
AcDbEntity
  8
0
  6
CONTINUOUS
 62
7
100
AcDbLine
 10
160.7553047172779
 20
208.9287898582844
 30
0.000000000000000
 11
160.7553047172779
 21
209.1772125715688
 31
0.000000000000000
  0
LINE
  5
19F
100
AcDbEntity
  8
0
  6
CONTINUOUS
 62
7
100
AcDbLine
 10
158.7553047172779
 20
208.9287898582844
 30
0.000000000000000
 11
158.7553047172779
 21
209.0893551799948
 31
0.000000000000000
  0
LINE
  5
1A0
100
AcDbEntity
  8
0
  6
CONTINUOUS
 62
7
100
AcDbLine
 10
152.9553047172776
 20
208.9287898582844
 30
0.000000000000000
 11
152.9553047172776
 21
209.1772125715688
 31
0.000000000000000
  0
LINE
  5
1A1
100
AcDbEntity
  8
0
  6
CONTINUOUS
 62
7
100
AcDbLine
 10
154.9553047172776
 20
208.9287898582844
 30
0.000000000000000
 11
154.9553047172776
 21
209.0893551799948
 31
0.000000000000000
  0
LINE
  5
1A2
100
AcDbEntity
  8
0
  6
CONTINUOUS
 62
7
100
AcDbLine
 10
154.9553047172776
 20
209.7080583382351
 30
0.000000000000000
 11
154.9553047172776
 21
210.2422667268635
 31
0.000000000000000
  0
LINE
  5
1A3
100
AcDbEntity
  8
0
  6
CONTINUOUS
 62
7
100
AcDbLine
 10
154.9553047172776
 20
209.7080583382350
 30
0.000000000000000
 11
154.9552805155101
 21
209.7000312368108
 31
0.000000000000000
  0
LINE
  5
1A4
100
AcDbEntity
  8
0
  6
CONTINUOUS
 62
7
100
AcDbLine
 10
158.7553047172779
 20
210.2422667268635
 30
0.000000000000000
 11
158.7553047172779
 21
209.7080583382351
 31
0.000000000000000
  0
LINE
  5
1A5
100
AcDbEntity
  8
0
  6
CONTINUOUS
 62
7
100
AcDbLine
 10
158.7553047172779
 20
209.7080583382350
 30
0.000000000000000
 11
158.7553289190454
 21
209.7000312368109
 31
0.000000000000000
  0
LINE
  5
1A6
100
AcDbEntity
  8
0
  6
CONTINUOUS
 62
7
100
AcDbLine
 10
141.4280306158468
 20
209.9392410009863
 30
0.000000000000000
 11
152.9553047172776
 21
209.1497973468274
 31
0.000000000000000
  0
LINE
  5
1A7
100
AcDbEntity
  8
0
  6
CONTINUOUS
 62
7
100
AcDbLine
 10
160.7553047172779
 20
209.1497973468274
 30
0.000000000000000
 11
172.2825788187086
 21
209.9392410009863
 31
0.000000000000000
  0
LINE
  5
1A8
100
AcDbEntity
  8
0
  6
CONTINUOUS
 62
7
100
AcDbLine
 10
144.8553047172778
 20
210.2422667268635
 30
0.000000000000000
 11
168.8553047172778
 21
210.2422667268635
 31
0.000000000000000
  0
LINE
  5
1A9
100
AcDbEntity
  8
0
  6
CONTINUOUS
 62
7
100
AcDbLine
 10
168.8553047172778
 20
215.2422667268635
 30
0.000000000000000
 11
144.8553047172778
 21
215.2422667268635
 31
0.000000000000000
  0
LINE
  5
1AA
100
AcDbEntity
  8
A1
  6
CENTER
 62
1
100
AcDbLine
 10
156.8553047172778
 20
195.9072402247480
 30
0.000000000000000
 11
156.8553047172778
 21
220.4403113208566
 31
0.000000000000000
  0
ARC
  5
1AB
100
AcDbEntity
  8
DXF0
  6
CONTINUOUS
 62
4
100
AcDbCircle
 10
148.8553047172778
 20
88.66663455270458
 30
0.000000000000000
 40
1.145412728988863
100
AcDbArc
 50
35.53767779200084
 51
64.11770004789807
  0
ARC
  5
1AC
100
AcDbEntity
  8
DXF0
  6
CONTINUOUS
 62
4
100
AcDbCircle
 10
145.1220163473706
 20
86.00000000276822
 30
0.000000000000000
 40
5.733264282363177
100
AcDbArc
 50
0.000000000000000
 51
35.53767779200084
  0
LINE
  5
1AD
100
AcDbEntity
  8
DXF0
  6
CONTINUOUS
 62
4
100
AcDbLine
 10
150.0742725346863
 20
88.88885409853266
 30
0.000000000000000
 11
149.3553047172778
 21
88.88885409853266
 31
0.000000000000000
  0
ARC
  5
1AE
100
AcDbEntity
  8
DXF0
  6
CONTINUOUS
 62
4
100
AcDbCircle
 10
149.6752942991235
 20
88.22219546104850
 30
0.000000000000000
 40
0.2222195458280301
100
AcDbArc
 50
26.01436599963663
 51
90.00000000000000
  0
LINE
  5
1AF
100
AcDbEntity
  8
DXF0
  6
CONTINUOUS
 62
4
100
AcDbLine
 10
149.3553047172778
 20
88.44441500687658
 30
0.000000000000000
 11
149.6752942991235
 21
88.44441500687658
 31
0.000000000000000
  0
ARC
  5
1B0
100
AcDbEntity
  8
DXF0
  6
CONTINUOUS
 62
4
100
AcDbCircle
 10
149.9514969218381
 20
88.04441982438607
 30
0.000000000000000
 40
0.04444390916560601
100
AcDbArc
 50
270.0000000000000
 51
382.9439535565375
  0
LINE
  5
1B1
100
AcDbEntity
  8
DXF0
  6
CONTINUOUS
 62
4
100
AcDbLine
 10
149.9514969218381
 20
87.99997591522050
 30
0.000000000000000
 11
149.3553047172778
 21
87.99997591522050
 31
0.000000000000000
  0
ARC
  5
1B2
100
AcDbEntity
  8
DXF0
  6
CONTINUOUS
 62
4
100
AcDbCircle
 10
145.1220163473706
 20
86.00000000276822
 30
0.000000000000000
 40
5.288825190707117
100
AcDbArc
 50
22.94395355653779
 51
26.01436599963663
  0
LINE
  5
1B3
100
AcDbEntity
  8
DXF0
  6
CONTINUOUS
 62
4
100
AcDbLine
 10
150.0100382177177
 20
87.55553682356448
 30
0.000000000000000
 11
149.3553047172778
 21
87.55553682356448
 31
0.000000000000000
  0
ARC
  5
1B4
100
AcDbEntity
  8
DXF0
  6
CONTINUOUS
 62
4
100
AcDbCircle
 10
150.0100382177177
 20
87.33331727773646
 30
0.000000000000000
 40
0.2222195458280301
100
AcDbArc
 50
15.25752329045640
 51
90.00000000000000
  0
ARC
  5
1B5
100
AcDbEntity
  8
DXF0
  6
CONTINUOUS
 62
4
100
AcDbCircle
 10
145.1220163473706
 20
86.00000000276822
 30
0.000000000000000
 40
5.288825190707117
100
AcDbArc
 50
13.26811897055625
 51
15.25752329045639
  0
ARC
  5
1B6
100
AcDbEntity
  8
DXF0
  6
CONTINUOUS
 62
4
100
AcDbCircle
 10
150.2375083616664
 20
87.15554164107397
 30
0.000000000000000
 40
0.04444390916560601
100
AcDbArc
 50
270.0000000000000
 51
372.7289438731227
  0
LINE
  5
1B7
100
AcDbEntity
  8
DXF0
  6
CONTINUOUS
 62
4
100
AcDbLine
 10
149.7442069881373
 20
87.11109773190840
 30
0.000000000000000
 11
150.2375083616664
 21
87.11109773190840
 31
0.000000000000000
  0
ARC
  5
1B8
100
AcDbEntity
  8
0
  6
CONTINUOUS
 62
7
100
AcDbCircle
 10
145.1220163473706
 20
86.00000000276822
 30
0.000000000000000
 40
5.288825190707117
100
AcDbArc
 50
12.72894387312263
 51
13.26811897055621
  0
LINE
  5
1B9
100
AcDbEntity
  8
DXF0
  6
CONTINUOUS
 62
4
100
AcDbLine
 10
150.3686570020111
 20
86.66665864025232
 30
0.000000000000000
 11
150.1886460797935
 21
86.66665864025232
 31
0.000000000000000
  0
LINE
  5
1BA
100
AcDbEntity
  8
0
  6
CONTINUOUS
 62
7
100
AcDbLine
 10
81.35250236997665
 20
168.5232741444122
 30
0.000000000000000
 11
81.35250236999646
 21
185.5232741444100
 31
0.000000000000000
  0
LINE
  5
1BB
100
AcDbEntity
  8
0
  6
CONTINUOUS
 62
7
100
AcDbLine
 10
78.35250236999646
 20
185.5232741444134
 30
0.000000000000000
 11
78.35250236997665
 21
168.5232741444157
 31
0.000000000000000
  0
LINE
  5
1BC
100
AcDbEntity
  8
0
  6
CONTINUOUS
 62
7
100
AcDbLine
 10
81.35250236999646
 20
185.5232741444100
 30
0.000000000000000
 11
78.35250236999646
 21
185.5232741444135
 31
0.000000000000000
  0
LINE
  5
1BD
100
AcDbEntity
  8
A1
  6
CENTER
 62
1
100
AcDbLine
 10
82.85250236998947
 20
179.5232741444082
 30
0.000000000000000
 11
76.85250237000228
 21
179.5232741444152
 31
0.000000000000000
  0
LINE
  5
1BE
100
AcDbEntity
  8
A0
  6
DASHED
 62
2
100
AcDbLine
 10
81.35250237003015
 20
174.3732741444213
 30
0.000000000000000
 11
78.85250237014947
 21
176.8732741443077
 31
0.000000000000000
  0
LINE
  5
1BF
100
AcDbEntity
  8
A0
  6
DASHED
 62
2
100
AcDbLine
 10
81.35250236999549
 20
184.6732741444100
 30
0.000000000000000
 11
78.85250237005043
 21
182.1732741444707
 31
0.000000000000000
  0
LINE
  5
1C0
100
AcDbEntity
  8
A0
  6
DASHED
 62
2
100
AcDbLine
 10
78.35250236999259
 20
182.1732741444707
 30
0.000000000000000
 11
78.85250237003926
 21
182.1732741444708
 31
0.000000000000000
  0
LINE
  5
1C1
100
AcDbEntity
  8
A0
  6
DASHED
 62
2
100
AcDbLine
 10
78.35250236998640
 20
176.8732741443094
 30
0.000000000000000
 11
78.85250237003309
 21
176.8732741443077
 31
0.000000000000000
  0
LINE
  5
1C2
100
AcDbEntity
  8
A0
  6
DASHED
 62
2
100
AcDbLine
 10
78.85250237005042
 20
182.1732741444707
 30
0.000000000000000
 11
78.85250237004426
 21
176.8732741443077
 31
0.000000000000000
  0
LINE
  5
1C3
100
AcDbEntity
  8
0
  6
CONTINUOUS
 62
7
100
AcDbLine
 10
90.45250236998957
 20
170.4232741444099
 30
0.000000000000000
 11
84.37574248771129
 21
166.8048505466073
 31
0.000000000000000
  0
LINE
  5
1C4
100
AcDbEntity
  8
0
  6
CONTINUOUS
 62
7
100
AcDbLine
 10
85.91076894371153
 20
164.2273141658048
 30
0.000000000000000
 11
91.95250236998953
 21
167.8251979330566
 31
0.000000000000000
  0
LINE
  5
1C5
100
AcDbEntity
  8
0
  6
CONTINUOUS
 62
7
100
AcDbLine
 10
90.45250236998952
 20
170.4232741444099
 30
0.000000000000000
 11
91.95250236998950
 21
167.8251979330566
 31
0.000000000000000
  0
ARC
  5
1C6
100
AcDbEntity
  8
0
  6
CONTINUOUS
 62
7
100
AcDbCircle
 10
83.35250236998947
 20
168.5232741444099
 30
0.000000000000000
 40
5.000000000000000
100
AcDbArc
 50
180.0000000000000
 51
300.7740190866123
  0
ARC
  5
1C7
100
AcDbEntity
  8
0
  6
CONTINUOUS
 62
7
100
AcDbCircle
 10
83.35250236998947
 20
168.5232741444099
 30
0.000000000000000
 40
2.000000000000000
100
AcDbArc
 50
180.0000000000000
 51
300.7718014218526
  0
LINE
  5
1C8
100
AcDbEntity
  8
A1
  6
CENTER
 62
1
100
AcDbLine
 10
84.85250236998947
 20
168.5232741444099
 30
0.000000000000000
 11
76.85250236998947
 21
168.5232741444099
 31
0.000000000000000
  0
LINE
  5
1C9
100
AcDbEntity
  8
A1
  6
CENTER
 62
1
100
AcDbLine
 10
83.35250236998947
 20
170.0232741444099
 30
0.000000000000000
 11
83.35250236998947
 21
162.0232741444099
 31
0.000000000000000
  0
LINE
  5
1CA
100
AcDbEntity
  8
0
  6
CONTINUOUS
 62
7
100
AcDbLine
 10
213.1947952076956
 20
175.2888181787795
 30
0.000000000000000
 11
207.6264314386957
 21
166.5000000026195
 31
0.000000000000000
  0
ARC
  5
1CB
100
AcDbEntity
  8
0
  6
CONTINUOUS
 62
7
100
AcDbCircle
 10
191.6264314386956
 20
165.8019237913979
 30
0.000000000000000
 40
1.000000000000000
100
AcDbArc
 50
90.00000000000000
 51
180.0000000000000
  0
ARC
  5
1CC
100
AcDbEntity
  8
0
  6
CONTINUOUS
 62
7
100
AcDbCircle
 10
206.6264314386956
 20
165.8019237913979
 30
0.000000000000000
 40
1.000000000000000
100
AcDbArc
 50
0.000000000000000
 51
90.00000000000000
  0
ARC
  5
1CD
100
AcDbEntity
  8
0
  6
CONTINUOUS
 62
7
100
AcDbCircle
 10
191.6264314386956
 20
168.4000000027512
 30
0.000000000000000
 40
1.000000000000000
100
AcDbArc
 50
90.00000000000000
 51
180.0000000000000
  0
LINE
  5
1CE
100
AcDbEntity
  8
0
  6
CONTINUOUS
 62
7
100
AcDbLine
 10
206.6264314386957
 20
169.4000000027512
 30
0.000000000000000
 11
191.6264314386956
 21
169.4000000027512
 31
0.000000000000000
  0
LINE
  5
1CF
100
AcDbEntity
  8
0
  6
CONTINUOUS
 62
7
100
AcDbLine
 10
206.6264314386957
 20
166.8019237913979
 30
0.000000000000000
 11
191.6264314386956
 21
166.8019237913979
 31
0.000000000000000
  0
ARC
  5
1D0
100
AcDbEntity
  8
0
  6
CONTINUOUS
 62
7
100
AcDbCircle
 10
206.6264314386956
 20
168.4000000027512
 30
0.000000000000000
 40
1.000000000000000
100
AcDbArc
 50
0.000000000000000
 51
90.00000000000000
  0
LINE
  5
1D1
100
AcDbEntity
  8
0
  6
CONTINUOUS
 62
7
100
AcDbLine
 10
207.6264314386957
 20
162.5000000027796
 30
0.000000000000000
 11
207.6264314386957
 21
168.4000000027512
 31
0.000000000000000
  0
LINE
  5
1D2
100
AcDbEntity
  8
0
  6
CONTINUOUS
 62
7
100
AcDbLine
 10
190.6264314386956
 20
162.5000000027796
 30
0.000000000000000
 11
207.6264314386957
 21
162.5000000027796
 31
0.000000000000000
  0
LINE
  5
1D3
100
AcDbEntity
  8
0
  6
CONTINUOUS
 62
7
100
AcDbLine
 10
190.6264314386956
 20
168.4000000027512
 30
0.000000000000000
 11
190.6264314386956
 21
162.5000000027796
 31
0.000000000000000
  0
LINE
  5
1D4
100
AcDbEntity
  8
0
  6
CONTINUOUS
 62
7
100
AcDbLine
 10
185.0580676696956
 20
175.2888181787796
 30
0.000000000000000
 11
190.6264314386956
 21
166.5000000026193
 31
0.000000000000000
  0
LINE
  5
1D5
100
AcDbEntity
  8
0
  6
CONTINUOUS
 62
7
100
AcDbLine
 10
208.1264314386957
 20
184.5000000027795
 30
0.000000000000000
 11
190.1264314386956
 21
184.5000000027795
 31
0.000000000000000
  0
ARC
  5
1D6
100
AcDbEntity
  8
0
  6
CONTINUOUS
 62
7
100
AcDbCircle
 10
190.1264314386956
 20
178.5000000027796
 30
0.000000000000000
 40
6.000000000000000
100
AcDbArc
 50
90.00000000000000
 51
212.3572704600000
  0
LINE
  5
1D7
100
AcDbEntity
  8
A1
  6
CENTER
 62
1
100
AcDbLine
 10
190.6264314386956
 20
186.0000000027796
 30
0.000000000000000
 11
190.6264314386956
 21
171.3500000027796
 31
0.000000000000000
  0
LINE
  5
1D8
100
AcDbEntity
  8
A1
  6
CENTER
 62
1
100
AcDbLine
 10
207.6264314386956
 20
186.0000000027796
 30
0.000000000000000
 11
207.6264314386956
 21
171.3500000027796
 31
0.000000000000000
  0
ARC
  5
1D9
100
AcDbEntity
  8
0
  6
CONTINUOUS
 62
7
100
AcDbCircle
 10
208.1264314386956
 20
178.5000000027796
 30
0.000000000000000
 40
6.000000000000000
100
AcDbArc
 50
327.6427295400000
 51
450.0000000000000
  0
CIRCLE
  5
1DA
100
AcDbEntity
  8
0
  6
CONTINUOUS
 62
7
100
AcDbCircle
 10
207.6264314386956
 20
178.5000000027796
 30
0.000000000000000
 40
5.150000000000000
  0
CIRCLE
  5
1DB
100
AcDbEntity
  8
0
  6
CONTINUOUS
 62
7
100
AcDbCircle
 10
190.6264314386956
 20
178.5000000027796
 30
0.000000000000000
 40
5.150000000000000
  0
CIRCLE
  5
1DC
100
AcDbEntity
  8
0
  6
CONTINUOUS
 62
7
100
AcDbCircle
 10
190.6264314386956
 20
178.5000000027796
 30
0.000000000000000
 40
2.650000000000000
  0
CIRCLE
  5
1DD
100
AcDbEntity
  8
0
  6
CONTINUOUS
 62
7
100
AcDbCircle
 10
207.6264314386956
 20
178.5000000027796
 30
0.000000000000000
 40
2.650000000000000
  0
LINE
  5
1DE
100
AcDbEntity
  8
A1
  6
CENTER
 62
1
100
AcDbLine
 10
199.1264314386956
 20
161.0000000027796
 30
0.000000000000000
 11
199.1264314386956
 21
186.0000000027796
 31
0.000000000000000
  0
LINE
  5
1DF
100
AcDbEntity
  8
A1
  6
CENTER
 62
1
100
AcDbLine
 10
182.6264314386956
 20
178.5000000027796
 30
0.000000000000000
 11
215.6264314386956
 21
178.5000000027796
 31
0.000000000000000
  0
LINE
  5
1E0
100
AcDbEntity
  8
0
  6
CONTINUOUS
 62
7
100
AcDbLine
 10
214.1264314386956
 20
218.7454274910275
 30
0.000000000000000
 11
184.1264314386956
 21
218.7454274910275
 31
0.000000000000000
  0
LINE
  5
1E1
100
AcDbEntity
  8
0
  6
CONTINUOUS
 62
7
100
AcDbLine
 10
214.1264314386956
 20
215.7454274910275
 30
0.000000000000000
 11
184.1264314386956
 21
215.7454274910275
 31
0.000000000000000
  0
LINE
  5
1E2
100
AcDbEntity
  8
0
  6
CONTINUOUS
 62
7
100
AcDbLine
 10
206.6264314386955
 20
205.1454274910690
 30
0.000000000000000
 11
191.6264314386982
 21
205.1454274910690
 31
0.000000000000000
  0
LINE
  5
1E3
100
AcDbEntity
  8
0
  6
CONTINUOUS
 62
7
100
AcDbLine
 10
184.1264314386956
 20
218.7454274910275
 30
0.000000000000000
 11
184.1264314386956
 21
215.7454274910275
 31
0.000000000000000
  0
LINE
  5
1E4
100
AcDbEntity
  8
0
  6
CONTINUOUS
 62
7
100
AcDbLine
 10
214.1264314386957
 20
218.7454274910274
 30
0.000000000000000
 11
214.1264314386957
 21
215.7454274910274
 31
0.000000000000000
  0
LINE
  5
1E5
100
AcDbEntity
  8
0
  6
CONTINUOUS
 62
7
100
AcDbLine
 10
207.6264314386955
 20
206.1454274910276
 30
0.000000000000000
 11
207.6264314386936
 21
215.7454274910269
 31
0.000000000000000
  0
LINE
  5
1E6
100
AcDbEntity
  8
0
  6
CONTINUOUS
 62
7
100
AcDbLine
 10
190.6264314386981
 20
206.1454274910299
 30
0.000000000000000
 11
190.6264314387227
 21
215.7454274910269
 31
0.000000000000000
  0
LINE
  5
1E7
100
AcDbEntity
  8
0
  6
CONTINUOUS
 62
7
100
AcDbLine
 10
206.6264314386950
 20
206.6454274910691
 30
0.000000000000000
 11
191.6264314387048
 21
206.6454274910691
 31
0.000000000000000
  0
ARC
  5
1E8
100
AcDbEntity
  8
0
  6
CONTINUOUS
 62
7
100
AcDbCircle
 10
191.6264314387048
 20
207.6454274910691
 30
0.000000000000000
 40
1.000000000000000
100
AcDbArc
 50
180.0000000000000
 51
270.0000000000000
  0
ARC
  5
1E9
100
AcDbEntity
  8
0
  6
CONTINUOUS
 62
7
100
AcDbCircle
 10
191.6264314386982
 20
206.1454274910690
 30
0.000000000000000
 40
1.000000000000000
100
AcDbArc
 50
180.0000000000000
 51
270.0000000000000
  0
ARC
  5
1EA
100
AcDbEntity
  8
0
  6
CONTINUOUS
 62
7
100
AcDbCircle
 10
206.6264314386950
 20
207.6454274910691
 30
0.000000000000000
 40
1.000000000000000
100
AcDbArc
 50
270.0000000000000
 51
360.0000000000000
  0
ARC
  5
1EB
100
AcDbEntity
  8
0
  6
CONTINUOUS
 62
7
100
AcDbCircle
 10
206.6264314386955
 20
206.1454274910691
 30
0.000000000000000
 40
1.000000000000000
100
AcDbArc
 50
270.0000000000000
 51
360.0000000000000
  0
LINE
  5
1EC
100
AcDbEntity
  8
A1
  6
CENTER
 62
1
100
AcDbLine
 10
190.6264314386956
 20
220.1593062502885
 30
0.000000000000000
 11
190.6264314386956
 21
214.1139002136831
 31
0.000000000000000
  0
LINE
  5
1ED
100
AcDbEntity
  8
A1
  6
CENTER
 62
1
100
AcDbLine
 10
207.6264314386956
 20
220.1593062502885
 30
0.000000000000000
 11
207.6264314386956
 21
214.1139002136831
 31
0.000000000000000
  0
LINE
  5
1EE
100
AcDbEntity
  8
A1
  6
CENTER
 62
1
100
AcDbLine
 10
199.1264314386956
 20
220.1593062502885
 30
0.000000000000000
 11
199.1264314386956
 21
202.7454274910344
 31
0.000000000000000
  0
POINT
  5
1EF
100
AcDbEntity
  8
DXF0
  6
CONTINUOUS
 62
3
100
AcDbPoint
 10
276.8158306013766
 20
168.5232741444418
 30
0.000000000000000
  0
LINE
  5
1F0
100
AcDbEntity
  8
0
  6
CONTINUOUS
 62
7
100
AcDbLine
 10
278.8158306013894
 20
168.5232741444441
 30
0.000000000000000
 11
278.8158306013696
 21
185.5232741444418
 31
0.000000000000000
  0
LINE
  5
1F1
100
AcDbEntity
  8
0
  6
CONTINUOUS
 62
7
100
AcDbLine
 10
281.8158306013696
 20
185.5232741444453
 30
0.000000000000000
 11
281.8158306013894
 21
168.5232741444476
 31
0.000000000000000
  0
LINE
  5
1F2
100
AcDbEntity
  8
0
  6
CONTINUOUS
 62
7
100
AcDbLine
 10
278.8158306013696
 20
185.5232741444419
 30
0.000000000000000
 11
281.8158306013696
 21
185.5232741444454
 31
0.000000000000000
  0
LINE
  5
1F3
100
AcDbEntity
  8
A1
  6
CENTER
 62
1
100
AcDbLine
 10
277.3158306013766
 20
179.5232741444401
 30
0.000000000000000
 11
283.3158306013765
 21
179.5232741444471
 31
0.000000000000000
  0
LINE
  5
1F4
100
AcDbEntity
  8
A0
  6
DASHED
 62
2
100
AcDbLine
 10
278.8158306013359
 20
174.3732741444531
 30
0.000000000000000
 11
281.3158306012166
 21
176.8732741443397
 31
0.000000000000000
  0
LINE
  5
1F5
100
AcDbEntity
  8
A0
  6
DASHED
 62
2
100
AcDbLine
 10
278.8158306013706
 20
184.6732741444419
 30
0.000000000000000
 11
281.3158306013157
 21
182.1732741445027
 31
0.000000000000000
  0
LINE
  5
1F6
100
AcDbEntity
  8
A0
  6
DASHED
 62
2
100
AcDbLine
 10
281.8158306013735
 20
182.1732741445026
 30
0.000000000000000
 11
281.3158306013268
 21
182.1732741445026
 31
0.000000000000000
  0
LINE
  5
1F7
100
AcDbEntity
  8
A0
  6
DASHED
 62
2
100
AcDbLine
 10
281.8158306013797
 20
176.8732741443414
 30
0.000000000000000
 11
281.3158306013329
 21
176.8732741443396
 31
0.000000000000000
  0
LINE
  5
1F8
100
AcDbEntity
  8
A0
  6
DASHED
 62
2
100
AcDbLine
 10
281.3158306013157
 20
182.1732741445026
 30
0.000000000000000
 11
281.3158306013218
 21
176.8732741443396
 31
0.000000000000000
  0
LINE
  5
1F9
100
AcDbEntity
  8
0
  6
CONTINUOUS
 62
7
100
AcDbLine
 10
269.7158306013765
 20
170.4232741444418
 30
0.000000000000000
 11
275.7925904836547
 21
166.8048505466392
 31
0.000000000000000
  0
LINE
  5
1FA
100
AcDbEntity
  8
0
  6
CONTINUOUS
 62
7
100
AcDbLine
 10
274.2575640276544
 20
164.2273141658367
 30
0.000000000000000
 11
268.2158306013765
 21
167.8251979330885
 31
0.000000000000000
  0
LINE
  5
1FB
100
AcDbEntity
  8
0
  6
CONTINUOUS
 62
7
100
AcDbLine
 10
269.7158306013765
 20
170.4232741444419
 30
0.000000000000000
 11
268.2158306013765
 21
167.8251979330886
 31
0.000000000000000
  0
ARC
  5
1FC
100
AcDbEntity
  8
0
  6
CONTINUOUS
 62
7
100
AcDbCircle
 10
276.8158306013766
 20
168.5232741444418
 30
0.000000000000000
 40
5.000000000000000
100
AcDbArc
 50
239.2259809133877
 51
360.0000000000000
  0
ARC
  5
1FD
100
AcDbEntity
  8
0
  6
CONTINUOUS
 62
7
100
AcDbCircle
 10
276.8158306013766
 20
168.5232741444418
 30
0.000000000000000
 40
2.000000000000000
100
AcDbArc
 50
239.2281985781475
 51
360.0000000000000
  0
LINE
  5
1FE
100
AcDbEntity
  8
A1
  6
CENTER
 62
1
100
AcDbLine
 10
275.3158306013766
 20
168.5232741444418
 30
0.000000000000000
 11
283.3158306013766
 21
168.5232741444418
 31
0.000000000000000
  0
LINE
  5
1FF
100
AcDbEntity
  8
A1
  6
CENTER
 62
1
100
AcDbLine
 10
276.8158306013766
 20
170.0232741444418
 30
0.000000000000000
 11
276.8158306013766
 21
162.0232741444418
 31
0.000000000000000
  0
CIRCLE
  5
200
100
AcDbEntity
  8
A0
  6
DASHED
 62
2
100
AcDbCircle
 10
256.4052863509567
 20
141.9902201618674
 30
0.000000000000000
 40
2.000000000000000
  0
LINE
  5
201
100
AcDbEntity
  8
0
  6
CONTINUOUS
 62
7
100
AcDbLine
 10
253.1422129692499
 20
137.3659472816365
 30
0.000000000000000
 11
259.2539002073244
 21
137.0706370559606
 31
0.000000000000000
  0
LINE
  5
202
100
AcDbEntity
  8
0
  6
CONTINUOUS
 62
7
100
AcDbLine
 10
254.2199708481560
 20
148.5632372869478
 30
0.000000000000000
 11
255.2751725676786
 21
170.4015020256996
 31
0.000000000000000
  0
LINE
  5
203
100
AcDbEntity
  8
0
  6
CONTINUOUS
 62
7
100
AcDbLine
 10
260.2693459698143
 20
170.1601888789521
 30
0.000000000000000
 11
259.2141442492221
 21
148.3219241410804
 31
0.000000000000000
  0
LINE
  5
204
100
AcDbEntity
  8
0
  6
CONTINUOUS
 62
7
100
AcDbLine
 10
260.7106094345015
 20
96.50000000278312
 30
0.000000000000000
 11
263.7106094345015
 21
96.50000000278662
 31
0.000000000000000
  0
LINE
  5
205
100
AcDbEntity
  8
0
  6
CONTINUOUS
 62
7
100
AcDbLine
 10
260.7106094345294
 20
72.50000000278312
 30
0.000000000000000
 11
263.7106094345294
 21
72.50000000278662
 31
0.000000000000000
  0
LINE
  5
206
100
AcDbEntity
  8
0
  6
CONTINUOUS
 62
7
100
AcDbLine
 10
260.7106094344968
 20
100.5000000027831
 30
0.000000000000000
 11
260.7106094345294
 21
72.50000000278311
 31
0.000000000000000
  0
LINE
  5
207
100
AcDbEntity
  8
0
  6
CONTINUOUS
 62
7
100
AcDbLine
 10
253.7106094344968
 20
100.5000000027750
 30
0.000000000000000
 11
263.7106094344968
 21
100.5000000027866
 31
0.000000000000000
  0
LINE
  5
208
100
AcDbEntity
  8
0
  6
CONTINUOUS
 62
7
100
AcDbLine
 10
263.7106094344829
 20
112.5000000027866
 30
0.000000000000000
 11
263.7106094345294
 21
72.50000000278662
 31
0.000000000000000
  0
LINE
  5
209
100
AcDbEntity
  8
0
  6
CONTINUOUS
 62
7
100
AcDbLine
 10
253.7106094344828
 20
112.5000000027750
 30
0.000000000000000
 11
263.7106094344828
 21
112.5000000027866
 31
0.000000000000000
  0
ARC
  5
20A
100
AcDbEntity
  8
0
  6
CONTINUOUS
 62
7
100
AcDbCircle
 10
253.7106094344898
 20
106.5000000027750
 30
0.000000000000000
 40
6.000000000000000
100
AcDbArc
 50
90.00000000006666
 51
270.0000000000667
  0
CIRCLE
  5
20B
100
AcDbEntity
  8
0
  6
CONTINUOUS
 62
7
100
AcDbCircle
 10
254.1106094346114
 20
94.50000000245220
 30
0.000000000000000
 40
2.000000000000000
  0
CIRCLE
  5
20C
100
AcDbEntity
  8
A0
  6
DASHED
 62
2
100
AcDbCircle
 10
254.6897609844432
 20
106.4860161667153
 30
0.000000000000000
 40
2.000000000000000
  0
LINE
  5
20D
100
AcDbEntity
  8
0
  6
CONTINUOUS
 62
7
100
AcDbLine
 10
255.1368888756257
 20
64.86602540570512
 30
0.000000000000000
 11
247.2756729433186
 21
51.25000000014096
 31
0.000000000000000
  0
LINE
  5
20E
100
AcDbEntity
  8
0
  6
CONTINUOUS
 62
7
100
AcDbLine
 10
256.6106094346815
 20
87.50000000243044
 30
0.000000000000000
 11
256.6106094337280
 21
70.36602540462714
 31
0.000000000000000
  0
LINE
  5
20F
100
AcDbEntity
  8
DXF0
  6
CONTINUOUS
 62
4
100
AcDbLine
 10
251.6106094340534
 20
70.36602540540351
 30
0.000000000000000
 11
251.6106094338969
 21
87.50000000254367
 31
0.000000000000000
  0
LINE
  5
210
100
AcDbEntity
  8
0
  6
CONTINUOUS
 62
7
100
AcDbLine
 10
242.9455459244708
 20
53.74999999981570
 30
0.000000000000000
 11
250.8067618567341
 21
67.36602540530417
 31
0.000000000000000
  0
ARC
  5
211
100
AcDbEntity
  8
0
  6
CONTINUOUS
 62
7
100
AcDbCircle
 10
254.1106094346887
 20
89.37500000261139
 30
0.000000000000000
 40
3.125000000000000
100
AcDbArc
 50
224.0300898461033
 51
316.4886583711032
  0
ARC
  5
212
100
AcDbEntity
  8
0
  6
CONTINUOUS
 62
7
100
AcDbCircle
 10
248.1090334773424
 20
92.76528311412403
 30
0.000000000000000
 40
10.00000000000000
100
AcDbArc
 50
328.2288144971031
 51
359.7046617511032
  0
ARC
  5
213
100
AcDbEntity
  8
0
  6
CONTINUOUS
 62
7
100
AcDbCircle
 10
260.1121853915888
 20
92.76528311456732
 30
0.000000000000000
 40
10.00000000000000
100
AcDbArc
 50
180.2953382491032
 51
211.7711855031031
  0
LINE
  5
214
100
AcDbEntity
  8
0
  6
CONTINUOUS
 62
7
100
AcDbLine
 10
252.6331994055505
 20
87.50000000313169
 30
0.000000000000000
 11
255.7755853649033
 21
87.50000000254103
 31
0.000000000000000
  0
LINE
  5
215
100
AcDbEntity
  8
0
  6
CONTINUOUS
 62
7
100
AcDbLine
 10
258.0181801462242
 20
92.52284348336218
 30
0.000000000000000
 11
258.3916385263418
 21
100.3001453067139
 31
0.000000000000000
  0
LINE
  5
216
100
AcDbEntity
  8
0
  6
CONTINUOUS
 62
7
100
AcDbLine
 10
250.4668511238951
 20
101.8812757978416
 30
0.000000000000000
 11
250.0306192380298
 21
92.90879392913314
 31
0.000000000000000
  0
CIRCLE
  5
217
100
AcDbEntity
  8
A0
  6
DASHED
 62
2
100
AcDbCircle
 10
254.1106094346114
 20
94.50000000245220
 30
0.000000000000000
 40
4.000000000000000
  0
LINE
  5
218
100
AcDbEntity
  8
0
  6
CONTINUOUS
 62
7
100
AcDbLine
 10
258.1227984677012
 20
125.7356284108810
 30
0.000000000000000
 11
258.5450964728219
 21
134.4754318651586
 31
0.000000000000000
  0
LINE
  5
219
100
AcDbEntity
  8
0
  6
CONTINUOUS
 62
7
100
AcDbLine
 10
253.5509230716818
 20
134.7167450109361
 30
0.000000000000000
 11
253.1286250665503
 21
125.9769415564350
 31
0.000000000000000
  0
LINE
  5
21A
100
AcDbEntity
  8
0
  6
CONTINUOUS
 62
7
100
AcDbLine
 10
251.1106094340931
 20
85.36925739111641
 30
0.000000000000000
 11
251.6106094339768
 21
84.86925739046721
 31
0.000000000000000
  0
LINE
  5
21B
100
AcDbEntity
  8
0
  6
CONTINUOUS
 62
7
100
AcDbLine
 10
257.1106094350552
 20
85.36925739112343
 30
0.000000000000000
 11
256.6106094351728
 21
84.86925739047305
 31
0.000000000000000
  0
LINE
  5
21C
100
AcDbEntity
  8
0
  6
CONTINUOUS
 62
7
100
AcDbLine
 10
252.6280682295485
 20
125.9774900651122
 30
0.000000000000000
 11
258.6210763115197
 21
125.6879142904189
 31
0.000000000000000
  0
ARC
  5
21D
100
AcDbEntity
  8
0
  6
CONTINUOUS
 62
7
100
AcDbCircle
 10
245.1106094338946
 20
52.49999999997835
 30
0.000000000000000
 40
2.500000000000000
100
AcDbArc
 50
330.0000000031029
 51
510.0000000031030
  0
ARC
  5
21E
100
AcDbEntity
  8
0
  6
CONTINUOUS
 62
7
100
AcDbCircle
 10
245.1106094338946
 20
52.49999999997835
 30
0.000000000000000
 40
2.500000000000000
100
AcDbArc
 50
150.0000000031030
 51
330.0000000031029
  0
LINE
  5
21F
100
AcDbEntity
  8
A1
  6
CENTER
 62
1
100
AcDbLine
 10
243.1106094340638
 20
49.03589838474279
 30
0.000000000000000
 11
252.9718253667561
 21
66.11602540650379
 31
0.000000000000000
  0
LINE
  5
220
100
AcDbEntity
  8
A1
  6
CENTER
 62
1
100
AcDbLine
 10
248.5747110491302
 20
50.50000000014791
 30
0.000000000000000
 11
241.6465078186590
 21
54.49999999980891
 31
0.000000000000000
  0
LINE
  5
221
100
AcDbEntity
  8
A1
  6
CENTER
 62
1
100
AcDbLine
 10
259.6106094344898
 20
106.5000000027818
 30
0.000000000000000
 11
248.6106094344898
 21
106.5000000027690
 31
0.000000000000000
  0
LINE
  5
222
100
AcDbEntity
  8
A0
  6
DASHED
 62
2
100
AcDbLine
 10
263.7106094345019
 20
96.15000000282443
 30
0.000000000000000
 11
263.2106094344568
 21
96.15000000282419
 31
0.000000000000000
  0
LINE
  5
223
100
AcDbEntity
  8
A0
  6
DASHED
 62
2
100
AcDbLine
 10
263.7106094345081
 20
90.85000000277783
 30
0.000000000000000
 11
263.2106094344996
 21
90.85000000277716
 31
0.000000000000000
  0
LINE
  5
224
100
AcDbEntity
  8
A0
  6
DASHED
 62
2
100
AcDbLine
 10
260.7106094345109
 20
88.35000000278323
 30
0.000000000000000
 11
263.2106094344997
 21
90.85000000277738
 31
0.000000000000000
  0
LINE
  5
225
100
AcDbEntity
  8
A0
  6
DASHED
 62
2
100
AcDbLine
 10
260.7106094344990
 20
98.65000000278317
 30
0.000000000000000
 11
263.2106094344572
 21
96.15000000282387
 31
0.000000000000000
  0
LINE
  5
226
100
AcDbEntity
  8
A0
  6
DASHED
 62
2
100
AcDbLine
 10
263.2106094344574
 20
96.15000000282389
 30
0.000000000000000
 11
263.2106094344635
 21
90.85000000277718
 31
0.000000000000000
  0
LINE
  5
227
100
AcDbEntity
  8
A0
  6
DASHED
 62
2
100
AcDbLine
 10
260.7106094345165
 20
83.65000000278322
 30
0.000000000000000
 11
263.2106094344747
 21
81.15000000282394
 31
0.000000000000000
  0
LINE
  5
228
100
AcDbEntity
  8
A0
  6
DASHED
 62
2
100
AcDbLine
 10
263.7106094345193
 20
81.15000000282440
 30
0.000000000000000
 11
263.2106094344743
 21
81.15000000282416
 31
0.000000000000000
  0
LINE
  5
229
100
AcDbEntity
  8
A0
  6
DASHED
 62
2
100
AcDbLine
 10
263.2106094344748
 20
81.15000000282389
 30
0.000000000000000
 11
263.2106094344809
 21
75.85000000277721
 31
0.000000000000000
  0
LINE
  5
22A
100
AcDbEntity
  8
A0
  6
DASHED
 62
2
100
AcDbLine
 10
260.7106094345284
 20
73.35000000278319
 30
0.000000000000000
 11
263.2106094345172
 21
75.85000000277736
 31
0.000000000000000
  0
LINE
  5
22B
100
AcDbEntity
  8
A0
  6
DASHED
 62
2
100
AcDbLine
 10
263.7106094345255
 20
75.85000000277783
 30
0.000000000000000
 11
263.2106094345171
 21
75.85000000277716
 31
0.000000000000000
  0
LINE
  5
22C
100
AcDbEntity
  8
A1
  6
CENTER
 62
1
100
AcDbLine
 10
259.2106094345049
 20
93.50000000278141
 30
0.000000000000000
 11
265.2106094345048
 21
93.50000000278840
 31
0.000000000000000
  0
LINE
  5
22D
100
AcDbEntity
  8
A1
  6
CENTER
 62
1
100
AcDbLine
 10
259.2106094345223
 20
78.50000000278138
 30
0.000000000000000
 11
265.2106094345224
 21
78.50000000278837
 31
0.000000000000000
  0
ARC
  5
22E
100
AcDbEntity
  8
0
  6
CONTINUOUS
 62
7
100
AcDbCircle
 10
257.7722592692465
 20
170.2808454523228
 30
0.000000000000000
 40
2.500000000000000
100
AcDbArc
 50
357.2336804084009
 51
537.2336804085255
  0
ARC
  5
22F
100
AcDbEntity
  8
A0
  6
DASHED
 62
2
100
AcDbCircle
 10
257.7722592692465
 20
170.2808454523228
 30
0.000000000000000
 40
2.500000000000000
100
AcDbArc
 50
177.2336804085255
 51
357.2336804085256
  0
CIRCLE
  5
230
100
AcDbEntity
  8
0
  6
CONTINUOUS
 62
7
100
AcDbCircle
 10
254.6897609844432
 20
106.4860161667153
 30
0.000000000000000
 40
3.400000000000000
  0
ARC
  5
231
100
AcDbEntity
  8
0
  6
CONTINUOUS
 62
7
100
AcDbCircle
 10
245.6106094337279
 20
70.36602540523930
 30
0.000000000000000
 40
11.00000000000000
100
AcDbArc
 50
330.0000000028031
 51
360.0000000000666
  0
ARC
  5
232
100
AcDbEntity
  8
0
  6
CONTINUOUS
 62
7
100
AcDbCircle
 10
245.6106094340533
 20
70.36602540534872
 30
0.000000000000000
 40
6.000000000000000
100
AcDbArc
 50
330.0000000028032
 51
360.0000000000666
  0
ARC
  5
233
100
AcDbEntity
  8
A1
  6
CENTER
 62
1
100
AcDbCircle
 10
245.6106094345319
 20
70.36602540640584
 30
0.000000000000000
 40
8.500000000000000
100
AcDbArc
 50
330.0000000028038
 51
360.0000000000666
  0
LINE
  5
234
100
AcDbEntity
  8
0
  6
CONTINUOUS
 62
7
100
AcDbLine
 10
253.5901415534923
 20
146.9555039694640
 30
0.000000000000000
 11
259.6860334130971
 21
146.6609569598179
 31
0.000000000000000
  0
ARC
  5
235
100
AcDbEntity
  8
0
  6
CONTINUOUS
 62
7
100
AcDbCircle
 10
256.7607927838595
 20
149.3477172644077
 30
0.000000000000000
 40
0.5000000000000000
100
AcDbArc
 50
40.20141167619702
 51
134.2659491408583
  0
CIRCLE
  5
236
100
AcDbEntity
  8
0
  6
CONTINUOUS
 62
7
100
AcDbCircle
 10
256.4064268633146
 20
142.0138239990655
 30
0.000000000000000
 40
3.400000000000000
  0
LINE
  5
237
100
AcDbEntity
  8
0
  6
CONTINUOUS
 62
7
100
AcDbLine
 10
253.9164767500927
 20
135.9505401951157
 30
0.000000000000000
 11
258.3001993673024
 21
135.7387233818002
 31
0.000000000000000
  0
ARC
  5
238
100
AcDbEntity
  8
0
  6
CONTINUOUS
 62
7
100
AcDbCircle
 10
247.5426918797370
 20
141.6517684300522
 30
0.000000000000000
 40
13.13593214517368
100
AcDbArc
 50
326.8855332073910
 51
340.6315882459726
  0
ARC
  5
239
100
AcDbEntity
  8
0
  6
CONTINUOUS
 62
7
100
AcDbCircle
 10
245.1410524206044
 20
141.2587591672938
 30
0.000000000000000
 40
15.51580526629516
100
AcDbArc
 50
347.3079191867704
 51
383.4366261285442
  0
ARC
  5
23A
100
AcDbEntity
  8
0
  6
CONTINUOUS
 62
7
100
AcDbCircle
 10
259.3021628365085
 20
138.0694717362877
 30
0.000000000000000
 40
1.000000000000000
100
AcDbArc
 50
267.2336804085255
 51
347.3079191867702
  0
ARC
  5
23B
100
AcDbEntity
  8
0
  6
CONTINUOUS
 62
7
100
AcDbCircle
 10
261.2118136098755
 20
148.2253988826939
 30
0.000000000000000
 40
2.000000000000000
100
AcDbArc
 50
177.2336804085255
 51
203.4366261285439
  0
ARC
  5
23C
100
AcDbEntity
  8
0
  6
CONTINUOUS
 62
7
100
AcDbCircle
 10
253.1438949084952
 20
138.3670326912018
 30
0.000000000000000
 40
1.000000000000000
100
AcDbArc
 50
187.1594416302809
 51
267.2336804085255
  0
ARC
  5
23D
100
AcDbEntity
  8
0
  6
CONTINUOUS
 62
7
100
AcDbCircle
 10
267.5465229561734
 20
140.1761506666902
 30
0.000000000000000
 40
15.51580526629516
100
AcDbArc
 50
151.0307346880565
 51
187.1594416302807
  0
ARC
  5
23E
100
AcDbEntity
  8
0
  6
CONTINUOUS
 62
7
100
AcDbCircle
 10
252.2223014874976
 20
148.6597625452328
 30
0.000000000000000
 40
2.000000000000000
100
AcDbArc
 50
331.0307346880564
 51
357.2336804085256
  0
ARC
  5
23F
100
AcDbEntity
  8
0
  6
CONTINUOUS
 62
7
100
AcDbCircle
 10
265.1939627989915
 20
140.7988777972354
 30
0.000000000000000
 40
13.13593214517368
100
AcDbArc
 50
193.8357725710785
 51
207.5818276096601
  0
ARC
  5
240
100
AcDbEntity
  8
0
  6
CONTINUOUS
 62
7
100
AcDbCircle
 10
256.2690727507438
 20
139.1711680246928
 30
0.000000000000000
 40
4.580417236955469
100
AcDbArc
 50
238.6078886910002
 51
295.8594721263390
  0
LINE
  5
241
100
AcDbEntity
  8
0
  6
CONTINUOUS
 62
7
100
AcDbLine
 10
259.6860334130972
 20
146.6609569598179
 30
0.000000000000000
 11
257.1426828465394
 21
149.6704555175270
 31
0.000000000000000
  0
LINE
  5
242
100
AcDbEntity
  8
0
  6
CONTINUOUS
 62
7
100
AcDbLine
 10
253.5901415534732
 20
146.9555039694648
 30
0.000000000000000
 11
256.4117978707565
 21
149.7057711020171
 31
0.000000000000000
  0
LINE
  5
243
100
AcDbEntity
  8
0
  6
CONTINUOUS
 62
7
100
AcDbLine
 10
251.6106094339018
 20
84.86925739046735
 30
0.000000000000000
 11
251.6106094339655
 21
87.50000000377823
 31
0.000000000000000
  0
LINE
  5
244
100
AcDbEntity
  8
DXF0
  6
CONTINUOUS
 62
4
100
AcDbLine
 10
252.4711805895301
 20
112.3705890820993
 30
0.000000000000000
 11
253.1274855704573
 21
125.9533587505185
 31
0.000000000000000
  0
LINE
  5
245
100
AcDbEntity
  8
0
  6
CONTINUOUS
 62
7
100
AcDbLine
 10
251.1106094340857
 20
85.36925739111638
 30
0.000000000000000
 11
251.1106094340905
 21
88.40963961659958
 31
0.000000000000000
  0
LINE
  5
246
100
AcDbEntity
  8
0
  6
CONTINUOUS
 62
7
100
AcDbLine
 10
251.9642991100016
 20
112.2402439218594
 30
0.000000000000000
 11
252.6280682295479
 21
125.9774900651123
 31
0.000000000000000
  0
LINE
  5
247
100
AcDbEntity
  8
0
  6
CONTINUOUS
 62
7
100
AcDbLine
 10
257.1106094350641
 20
85.36925739112347
 30
0.000000000000000
 11
257.1106094350523
 21
88.40963961659340
 31
0.000000000000000
  0
LINE
  5
248
100
AcDbEntity
  8
0
  6
CONTINUOUS
 62
7
100
AcDbLine
 10
257.9838503236818
 20
112.5000000027799
 30
0.000000000000000
 11
258.6210763122863
 21
125.6879142903818
 31
0.000000000000000
  0
LINE
  5
249
100
AcDbEntity
  8
DXF0
  6
CONTINUOUS
 62
4
100
AcDbLine
 10
256.6106094352492
 20
84.86925739047325
 30
0.000000000000000
 11
256.6106094351793
 21
87.50000000367976
 31
0.000000000000000
  0
LINE
  5
24A
100
AcDbEntity
  8
DXF0
  6
CONTINUOUS
 62
4
100
AcDbLine
 10
257.4832669836226
 20
112.5000000027794
 30
0.000000000000000
 11
258.1216589713767
 21
125.7120456049756
 31
0.000000000000000
  0
LINE
  5
24B
100
AcDbEntity
  8
0
  6
CONTINUOUS
 62
7
100
AcDbLine
 10
251.1106094340932
 20
85.36925739111648
 30
0.000000000000000
 11
251.6106094339164
 21
85.36925739111706
 31
0.000000000000000
  0
LINE
  5
24C
100
AcDbEntity
  8
0
  6
CONTINUOUS
 62
7
100
AcDbLine
 10
256.6106094345630
 20
85.36925739112290
 30
0.000000000000000
 11
257.1106094350553
 21
85.36925739112348
 31
0.000000000000000
  0
LINE
  5
24D
100
AcDbEntity
  8
A1
  6
CENTER
 62
1
100
AcDbLine
 10
248.6106094346115
 20
94.50000000245031
 30
0.000000000000000
 11
259.6106094346115
 21
94.50000000246311
 31
0.000000000000000
  0
LINE
  5
24E
100
AcDbEntity
  8
A1
  6
CENTER
 62
1
100
AcDbLine
 10
254.1106094345319
 20
70.36602540641572
 30
0.000000000000000
 11
254.1106094344714
 21
174.3692573904703
 31
0.000000000000000
  0
LINE
  5
24F
100
AcDbEntity
  8
A1
  6
CENTER
 62
1
100
AcDbLine
 10
253.7769205479335
 20
170.4738959689688
 30
0.000000000000000
 11
261.7675979905594
 21
170.0877949356768
 31
0.000000000000000
  0
LINE
  5
250
100
AcDbEntity
  8
A1
  6
CENTER
 62
1
100
AcDbLine
 10
257.8446532129888
 20
171.7790974728152
 30
0.000000000000000
 11
257.5792087526006
 21
166.2855067310099
 31
0.000000000000000
  0
ENDSEC
  0
SECTION
  2
OBJECTS
  0
DICTIONARY
  5
285
100
AcDbDictionary
  3
ACAD_GROUP
350
286
  3
ACAD_LAYOUT
350
287
  3
ACAD_MLINESTYLE
350
288
  0
DICTIONARY
  5
286
102
{ACAD_REACTORS
330
285
102
}
330
285
100
AcDbDictionary
  0
DICTIONARY
  5
287
102
{ACAD_REACTORS
330
285
102
}
330
285
100
AcDbDictionary
  3
Model
350
289
  3
ﾚｲｱｳﾄ1
350
28A
  3
ﾚｲｱｳﾄ2
350
28B
  0
DICTIONARY
  5
288
102
{ACAD_REACTORS
330
285
102
}
330
285
100
AcDbDictionary
  3
STANDARD
350
28C
  0
LAYOUT
  5
289
102
{ACAD_REACTORS
330
287
102
}
330
287
100
AcDbPlotSettings
 70
11952
  4
A3
 44
297.000000
 45
420.000000
 73
  1
 72
  1
100
AcDbLayout
  1
Model
 71
0
330
27C
  0
LAYOUT
  5
28A
102
{ACAD_REACTORS
330
287
102
}
330
287
100
AcDbPlotSettings
100
AcDbLayout
  1
ﾚｲｱｳﾄ1
 71
1
330
27D
  0
LAYOUT
  5
28B
102
{ACAD_REACTORS
330
287
102
}
330
287
100
AcDbPlotSettings
100
AcDbLayout
  1
ﾚｲｱｳﾄ2
 71
2
330
27E
  0
MLINESTYLE
  5
28C
102
{ACAD_REACTORS
330
288
102
}
330
288
100
AcDbMlineStyle
  2
STANDARD
 70
     0
  3

 62
   256
 51
90.00
 52
90.00
 71
     2
 49
0.50
 62
   256
  6
BYLAYER
 49
-0.50
 62
   256
  6
BYLAYER
  0
ENDSEC
  0
EOF
