  0
SECTION
  2
HEADER
  9
$ACADVER
  1
AC1027
  9
$DWGCODEPAGE
  3
ANSI_932
  9
$LTSCALE
 40
20.0
  9
$FILLMODE
 70
     1
  9
$CLAYER
  8
0
  9
$PDMODE
 70
     0
  9
$SPLFRAME
 70
     0
  9
$SPLINETYPE
 70
     6
  9
$SPLINESEGS
 70
     8
  9
$DIMASZ
 40
2.000000
  9
$DIMEXE
 40
1.500000
  9
$DIMEXO
 40
0.800000
  9
$DIMTAD
 70
     1
  9
$DIMTIH
 70
     0
  9
$DIMTOH
 70
     0
  9
$DIMTVP
 40
0.500000
  9
$DIMTXT
 40
3.100000
  9
$EXTMIN
 10
0.000000
 20
0.000000
 30
0.000000
  9
$EXTMAX
 10
297.000000
 20
420.000000
 30
0.000000
  9
$MEASUREMENT
 70
  1
  9
$LIMMIN
 10
0.000000
 20
0.000000
  9
$LIMMAX
 10
297.000000
 20
420.000000
  9
$HANDSEED
  5
C8
  9
$LWDISPLAY
290
     0
  9
$DIMBLK
  1
_OPEN
  9
$DIMDEC
 70
     2
  9
$DIMADEC
 70
     2
  9
$DIMAUNIT
 70
     0
  9
$DIMZIN
 70
     8
  9
$DIMAZIN
 70
     2
  9
$DIMTOFL
 70
     1
  0
ENDSEC
  0
SECTION
  2
CLASSES
  0
ENDSEC
  0
SECTION
  2
TABLES
  0
TABLE
  2
VPORT
  5
8D
100
AcDbSymbolTable
 70
     1
  0
VPORT
  5
8E
100
AcDbSymbolTableRecord
100
AcDbViewportTableRecord
  2
*ACTIVE
 70
     0
 12
92.724237
 22
63.344360
 40
90.688719
 41
1.824356
  0
ENDTAB
  0
TABLE
  2
LTYPE
  5
8F
100
AcDbSymbolTable
 70
     3
  0
LTYPE
  5
90
100
AcDbSymbolTableRecord
100
AcDbLinetypeTableRecord
  2
BYBLOCK
 70
     0
  3

 72
    65
 73
     0
 40
0.0
  0
LTYPE
  5
91
100
AcDbSymbolTableRecord
100
AcDbLinetypeTableRecord
  2
BYLAYER
 70
     0
  3

 72
    65
 73
     0
 40
0.0
  0
LTYPE
  5
92
100
AcDbSymbolTableRecord
100
AcDbLinetypeTableRecord
  2
CONTINUOUS
 70
     0
  3
Solid line (NEC CAE2D for Win R18.0 : 2025.08.29)
 72
    65
 73
     0
 40
0.0
  0
LTYPE
  5
93
100
AcDbSymbolTableRecord
100
AcDbLinetypeTableRecord
  2
DASHED
 70
     0
  3
__ __ __ __ __ __ __ __ __ __ __ __ __ _
 72
    65
 73
     2
 40
0.75
 49
0.5
 74
     0
 49
-0.25
 74
     0
  0
LTYPE
  5
94
100
AcDbSymbolTableRecord
100
AcDbLinetypeTableRecord
  2
CENTER
 70
     0
  3
____ _ ____ _ ____ _ ____ _ ____ _ ____
 72
    65
 73
     4
 40
2.0
 49
1.25
 74
     0
 49
-0.25
 74
     0
 49
0.25
 74
     0
 49
-0.25
 74
     0
  0
ENDTAB
  0
TABLE
  2
LAYER
  5
95
100
AcDbSymbolTable
 70
    20
  0
LAYER
  5
96
100
AcDbSymbolTableRecord
100
AcDbLayerTableRecord
  2
0
 70
     0
 62
     7
  6
CONTINUOUS
370
    -3
390

  0
LAYER
  5
97
100
AcDbSymbolTableRecord
100
AcDbLayerTableRecord
  2
DXF0
 70
     0
 62
     7
  6
CONTINUOUS
370
    -3
390

  0
LAYER
  5
98
100
AcDbSymbolTableRecord
100
AcDbLayerTableRecord
  2
A0
 70
     0
 62
     9
  6
CONTINUOUS
370
    -3
390

  0
LAYER
  5
99
100
AcDbSymbolTableRecord
100
AcDbLayerTableRecord
  2
A1
 70
     0
 62
    12
  6
CONTINUOUS
370
    -3
390

  0
LAYER
  5
9A
100
AcDbSymbolTableRecord
100
AcDbLayerTableRecord
  2
A2
 70
     0
 62
     9
  6
CONTINUOUS
370
    -3
390

  0
LAYER
  5
9B
100
AcDbSymbolTableRecord
100
AcDbLayerTableRecord
  2
A3
 70
     0
 62
    12
  6
CONTINUOUS
370
    -3
390

  0
LAYER
  5
9C
100
AcDbSymbolTableRecord
100
AcDbLayerTableRecord
  2
A4
 70
     0
 62
     9
  6
CONTINUOUS
370
    -3
390

  0
LAYER
  5
9D
100
AcDbSymbolTableRecord
100
AcDbLayerTableRecord
  2
A5
 70
     0
 62
     8
  6
CONTINUOUS
370
    -3
390

  0
LAYER
  5
9E
100
AcDbSymbolTableRecord
100
AcDbLayerTableRecord
  2
A6
 70
     0
 62
    12
  6
CONTINUOUS
370
    -3
390

  0
LAYER
  5
9F
100
AcDbSymbolTableRecord
100
AcDbLayerTableRecord
  2
A7
 70
     0
 62
    10
  6
CONTINUOUS
370
    -3
390

  0
LAYER
  5
A0
100
AcDbSymbolTableRecord
100
AcDbLayerTableRecord
  2
A8
 70
     0
 62
    10
  6
CONTINUOUS
370
    -3
390

  0
LAYER
  5
A1
100
AcDbSymbolTableRecord
100
AcDbLayerTableRecord
  2
A9
 70
     0
 62
     9
  6
CONTINUOUS
370
    -3
390

  0
LAYER
  5
A2
100
AcDbSymbolTableRecord
100
AcDbLayerTableRecord
  2
A10
 70
     0
 62
     6
  6
CONTINUOUS
370
    -3
390

  0
LAYER
  5
A3
100
AcDbSymbolTableRecord
100
AcDbLayerTableRecord
  2
A20
 70
     0
 62
     1
  6
CONTINUOUS
370
    -3
390

  0
LAYER
  5
A4
100
AcDbSymbolTableRecord
100
AcDbLayerTableRecord
  2
A30
 70
     0
 62
     1
  6
CONTINUOUS
370
    -3
390

  0
LAYER
  5
A5
100
AcDbSymbolTableRecord
100
AcDbLayerTableRecord
  2
A40
 70
     0
 62
     9
  6
CONTINUOUS
370
    -3
390

  0
LAYER
  5
A6
100
AcDbSymbolTableRecord
100
AcDbLayerTableRecord
  2
A50
 70
     0
 62
    12
  6
CONTINUOUS
370
    -3
390

  0
LAYER
  5
A7
100
AcDbSymbolTableRecord
100
AcDbLayerTableRecord
  2
A1023
 70
     0
 62
     8
  6
CONTINUOUS
370
    -3
390

  0
LAYER
  5
A8
100
AcDbSymbolTableRecord
100
AcDbLayerTableRecord
  2
DXF30
 70
     0
 62
    12
  6
CONTINUOUS
370
    -3
390

  0
LAYER
  5
A9
100
AcDbSymbolTableRecord
100
AcDbLayerTableRecord
  2
DXF1023
 70
     0
 62
    16
  6
CONTINUOUS
370
    -3
390

  0
ENDTAB
  0
TABLE
  2
STYLE
  5
AA
100
AcDbSymbolTable
 70
     4
  0
STYLE
  5
AB
100
AcDbSymbolTableRecord
100
AcDbTextStyleTableRecord
  2
STANDARD
 70
    64
 40
0.0
 41
1.0
 50
0.0
 71
     0
 42
3.000000000000000
  3
TXT
  4

  0
STYLE
  5
AC
100
AcDbSymbolTableRecord
100
AcDbTextStyleTableRecord
  2
ANKTATE
 70
    68
 40
0.0
 41
1.0
 50
0.0
 71
     0
 42
3.000000000000000
  3
TXT
  4

  0
STYLE
  5
AD
100
AcDbSymbolTableRecord
100
AcDbTextStyleTableRecord
  2
KNJYOKO
 70
    64
 40
0.0
 41
1.0
 50
0.0
 71
     0
 42
3.000000000000000
  3
TXT
  4
BIGFONT
  0
STYLE
  5
AE
100
AcDbSymbolTableRecord
100
AcDbTextStyleTableRecord
  2
KNJTATE
 70
    68
 40
0.0
 41
1.0
 50
0.0
 71
     0
 42
3.000000000000000
  3
TXT
  4
BIGFONT
  0
ENDTAB
  0
TABLE
  2
VIEW
  5
AF
100
AcDbSymbolTable
 70
     0
  0
ENDTAB
  0
TABLE
  2
UCS
  5
B0
100
AcDbSymbolTable
 70
     0
  0
ENDTAB
  0
TABLE
  2
APPID
  5
B1
100
AcDbSymbolTable
 70
     1
  0
APPID
  5
B2
100
AcDbSymbolTableRecord
100
AcDbRegAppTableRecord
  2
ACAD
 70
     0
  0
ENDTAB
  0
TABLE
  2
DIMSTYLE
  5
B3
100
AcDbSymbolTable
 70
     2
100
AcDbDimStyleTable
  0
DIMSTYLE
105
B4
100
AcDbSymbolTableRecord
100
AcDbDimStyleTableRecord
  2
STANDARD
 70
     0
 41
2.000000
 44
1.500000
 42
0.800000
145
0.661290
140
3.100000
144
1.000000
146
0.645161
340
AB
  0
DIMSTYLE
105
B5
100
AcDbSymbolTableRecord
100
AcDbDimStyleTableRecord
  2
DXF001
 70
     0
 41
2.000000
 44
1.500000
 42
0.800000
145
0.661290
140
3.100000
144
1.000000
146
0.645161
 77
     1
 73
     0
 74
     0
271
     2
179
     2
275
     0
 78
     8
 79
     2
172
     1
340
AB
  0
ENDTAB
  0
TABLE
  2
BLOCK_RECORD
  5
B6
100
AcDbSymbolTable
 70
    12
  0
BLOCK_RECORD
  5
B7
100
AcDbSymbolTableRecord
100
AcDbBlockTableRecord
  2
*MODEL_SPACE
  0
BLOCK_RECORD
  5
B8
100
AcDbSymbolTableRecord
100
AcDbBlockTableRecord
  2
*PAPER_SPACE
  0
BLOCK_RECORD
  5
B9
100
AcDbSymbolTableRecord
100
AcDbBlockTableRecord
  2
*PAPER_SPACE0
  0
BLOCK_RECORD
  5
1
100
AcDbSymbolTableRecord
100
AcDbBlockTableRecord
  2
_NONE
  0
BLOCK_RECORD
  5
4
100
AcDbSymbolTableRecord
100
AcDbBlockTableRecord
  2
_CLOSED
  0
BLOCK_RECORD
  5
B
100
AcDbSymbolTableRecord
100
AcDbBlockTableRecord
  2
_DOT
  0
BLOCK_RECORD
  5
13
100
AcDbSymbolTableRecord
100
AcDbBlockTableRecord
  2
_OPEN
  0
BLOCK_RECORD
  5
19
100
AcDbSymbolTableRecord
100
AcDbBlockTableRecord
  2
_ORIGIN
  0
BLOCK_RECORD
  5
1E
100
AcDbSymbolTableRecord
100
AcDbBlockTableRecord
  2
_OPEN30
  0
BLOCK_RECORD
  5
24
100
AcDbSymbolTableRecord
100
AcDbBlockTableRecord
  2
_BOXFILLED
  0
BLOCK_RECORD
  5
29
100
AcDbSymbolTableRecord
100
AcDbBlockTableRecord
  2
_BOXBLANK
  0
BLOCK_RECORD
  5
31
100
AcDbSymbolTableRecord
100
AcDbBlockTableRecord
  2
_OBLIQUE
  0
BLOCK_RECORD
  5
35
100
AcDbSymbolTableRecord
100
AcDbBlockTableRecord
  2
_OPEN90
  0
BLOCK_RECORD
  5
3B
100
AcDbSymbolTableRecord
100
AcDbBlockTableRecord
  2
_CLOSEDBLANK
  0
BLOCK_RECORD
  5
41
100
AcDbSymbolTableRecord
100
AcDbBlockTableRecord
  2
_DOTBLANK
  0
ENDTAB
  0
ENDSEC
  0
SECTION
  2
BLOCKS
  0
BLOCK
  5
BA
100
AcDbEntity
  8
0
100
AcDbBlockBegin
  2
*MODEL_SPACE
 70
     0
 10
0.0
 20
0.0
 30
0.0
  3
*MODEL_SPACE
  1

  0
ENDBLK
  5
BB
100
AcDbEntity
  8
0
100
AcDbBlockEnd
  0
BLOCK
  5
BC
100
AcDbEntity
  8
0
100
AcDbBlockBegin
  2
*PAPER_SPACE
 70
     0
 10
0.0
 20
0.0
 30
0.0
  3
*PAPER_SPACE
  1

  0
ENDBLK
  5
BD
100
AcDbEntity
  8
0
100
AcDbBlockEnd
  0
BLOCK
  5
BE
100
AcDbEntity
  8
0
100
AcDbBlockBegin
  2
*PAPER_SPACE0
 70
     0
 10
0.0
 20
0.0
 30
0.0
  3
*PAPER_SPACE0
  1

  0
ENDBLK
  5
BF
100
AcDbEntity
  8
0
100
AcDbBlockEnd
  0
BLOCK
  5
2
330
1
100
AcDbEntity
  8
0
100
AcDbBlockBegin
  2
_NONE
 70
     0
 10
0.0
 20
0.0
 30
0.0
  3
_NONE
  1

  0
ENDBLK
  5
3
330
1
100
AcDbEntity
  8
0
100
AcDbBlockEnd
  0
BLOCK
  5
5
330
4
100
AcDbEntity
  8
0
100
AcDbBlockBegin
  2
_CLOSED
 70
     0
 10
0.0
 20
0.0
 30
0.0
  3
_CLOSED
  1

  0
LINE
  5
6
330
4
100
AcDbEntity
  8
0
  6
BYBLOCK
 62
     0
370
    -2
100
AcDbLine
 10
-1.0
 20
0.166667
 30
0.0
 11
0.0
 21
0.0
 31
0.0
  0
LINE
  5
7
330
4
100
AcDbEntity
  8
0
  6
BYBLOCK
 62
     0
370
    -2
100
AcDbLine
 10
0.0
 20
0.0
 30
0.0
 11
-1.0
 21
-0.166667
 31
0.0
  0
LINE
  5
8
330
4
100
AcDbEntity
  8
0
  6
BYBLOCK
 62
     0
370
    -2
100
AcDbLine
 10
-1.0
 20
0.166667
 30
0.0
 11
-1.0
 21
-0.166667
 31
0.0
  0
LINE
  5
9
330
4
100
AcDbEntity
  8
0
  6
BYBLOCK
 62
     0
370
    -2
100
AcDbLine
 10
0.0
 20
0.0
 30
0.0
 11
-1.0
 21
0.0
 31
0.0
  0
ENDBLK
  5
A
330
4
100
AcDbEntity
  8
0
100
AcDbBlockEnd
  0
BLOCK
  5
C
330
B
100
AcDbEntity
  8
0
100
AcDbBlockBegin
  2
_DOT
 70
     0
 10
0.0
 20
0.0
 30
0.0
  3
_DOT
  1

  0
POLYLINE
  5
D
330
B
100
AcDbEntity
  8
0
  6
BYBLOCK
 62
     0
370
    -2
100
AcDb2dPolyline
 66
     1
 10
0.0
 20
0.0
 30
0.0
 70
     1
 40
0.5
 41
0.5
  0
VERTEX
  5
E
330
B
100
AcDbEntity
  8
0
  6
BYBLOCK
 62
     0
370
    -2
100
AcDbVertex
100
AcDb2dVertex
 10
-0.25
 20
0.0
 30
0.0
 42
1.0
  0
VERTEX
  5
F
330
B
100
AcDbEntity
  8
0
  6
BYBLOCK
 62
     0
370
    -2
100
AcDbVertex
100
AcDb2dVertex
 10
0.25
 20
0.0
 30
0.0
 42
1.0
  0
SEQEND
  5
10
330
B
100
AcDbEntity
  8
0
  6
BYBLOCK
 62
     0
370
    -2
  0
LINE
  5
11
330
B
100
AcDbEntity
  8
0
  6
BYBLOCK
 62
     0
370
    -2
100
AcDbLine
 10
-0.5
 20
0.0
 30
0.0
 11
-1.0
 21
0.0
 31
0.0
  0
ENDBLK
  5
12
330
B
100
AcDbEntity
  8
0
100
AcDbBlockEnd
  0
BLOCK
  5
14
330
13
100
AcDbEntity
  8
0
100
AcDbBlockBegin
  2
_OPEN
 70
     0
 10
0.0
 20
0.0
 30
0.0
  3
_OPEN
  1

  0
LINE
  5
15
330
13
100
AcDbEntity
  8
0
  6
BYBLOCK
 62
     0
370
    -2
100
AcDbLine
 10
-1.0
 20
0.166667
 30
0.0
 11
0.0
 21
0.0
 31
0.0
  0
LINE
  5
16
330
13
100
AcDbEntity
  8
0
  6
BYBLOCK
 62
     0
370
    -2
100
AcDbLine
 10
0.0
 20
0.0
 30
0.0
 11
-1.0
 21
-0.166667
 31
0.0
  0
LINE
  5
17
330
13
100
AcDbEntity
  8
0
  6
BYBLOCK
 62
     0
370
    -2
100
AcDbLine
 10
0.0
 20
0.0
 30
0.0
 11
-1.0
 21
0.0
 31
0.0
  0
ENDBLK
  5
18
330
13
100
AcDbEntity
  8
0
100
AcDbBlockEnd
  0
BLOCK
  5
1A
330
19
100
AcDbEntity
  8
0
100
AcDbBlockBegin
  2
_ORIGIN
 70
     0
 10
0.0
 20
0.0
 30
0.0
  3
_ORIGIN
  1

  0
CIRCLE
  5
1B
330
19
100
AcDbEntity
  8
0
  6
BYBLOCK
 62
     0
370
    -2
100
AcDbCircle
 10
0.0
 20
0.0
 30
0.0
 40
0.5
  0
LINE
  5
1C
330
19
100
AcDbEntity
  8
0
  6
BYBLOCK
 62
     0
370
    -2
100
AcDbLine
 10
0.0
 20
0.0
 30
0.0
 11
-1.0
 21
0.0
 31
0.0
  0
ENDBLK
  5
1D
330
19
100
AcDbEntity
  8
0
100
AcDbBlockEnd
  0
BLOCK
  5
1F
330
1E
100
AcDbEntity
  8
0
100
AcDbBlockBegin
  2
_OPEN30
 70
     0
 10
0.0
 20
0.0
 30
0.0
  3
_OPEN30
  1

  0
LINE
  5
20
330
1E
100
AcDbEntity
  8
0
  6
BYBLOCK
 62
     0
370
    -2
100
AcDbLine
 10
-1.0
 20
0.267949
 30
0.0
 11
0.0
 21
0.0
 31
0.0
  0
LINE
  5
21
330
1E
100
AcDbEntity
  8
0
  6
BYBLOCK
 62
     0
370
    -2
100
AcDbLine
 10
0.0
 20
0.0
 30
0.0
 11
-1.0
 21
-0.267949
 31
0.0
  0
LINE
  5
22
330
1E
100
AcDbEntity
  8
0
  6
BYBLOCK
 62
     0
370
    -2
100
AcDbLine
 10
0.0
 20
0.0
 30
0.0
 11
-1.0
 21
0.0
 31
0.0
  0
ENDBLK
  5
23
330
1E
100
AcDbEntity
  8
0
100
AcDbBlockEnd
  0
BLOCK
  5
25
330
24
100
AcDbEntity
  8
0
100
AcDbBlockBegin
  2
_BOXFILLED
 70
     0
 10
0.0
 20
0.0
 30
0.0
  3
_BOXFILLED
  1

  0
SOLID
  5
26
330
24
100
AcDbEntity
  8
0
  6
BYBLOCK
 62
     0
370
    -2
100
AcDbTrace
 10
-0.5
 20
0.5
 30
0.0
 11
0.5
 21
0.5
 31
0.0
 12
-0.5
 22
-0.5
 32
0.0
 13
0.5
 23
-0.5
 33
0.0
  0
LINE
  5
27
330
24
100
AcDbEntity
  8
0
  6
BYBLOCK
 62
     0
370
    -2
100
AcDbLine
 10
-0.5
 20
0.0
 30
0.0
 11
-1.0
 21
0.0
 31
0.0
  0
ENDBLK
  5
28
330
24
100
AcDbEntity
  8
0
100
AcDbBlockEnd
  0
BLOCK
  5
2A
330
29
100
AcDbEntity
  8
0
100
AcDbBlockBegin
  2
_BOXBLANK
 70
     0
 10
0.0
 20
0.0
 30
0.0
  3
_BOXBLANK
  1

  0
LINE
  5
2B
330
29
100
AcDbEntity
  8
0
  6
BYBLOCK
 62
     0
370
    -2
100
AcDbLine
 10
-0.5
 20
-0.5
 30
0.0
 11
0.5
 21
-0.5
 31
0.0
  0
LINE
  5
2C
330
29
100
AcDbEntity
  8
0
  6
BYBLOCK
 62
     0
370
    -2
100
AcDbLine
 10
0.5
 20
-0.5
 30
0.0
 11
0.5
 21
0.5
 31
0.0
  0
LINE
  5
2D
330
29
100
AcDbEntity
  8
0
  6
BYBLOCK
 62
     0
370
    -2
100
AcDbLine
 10
0.5
 20
0.5
 30
0.0
 11
-0.5
 21
0.5
 31
0.0
  0
LINE
  5
2E
330
29
100
AcDbEntity
  8
0
  6
BYBLOCK
 62
     0
370
    -2
100
AcDbLine
 10
-0.5
 20
0.5
 30
0.0
 11
-0.5
 21
-0.5
 31
0.0
  0
LINE
  5
2F
330
29
100
AcDbEntity
  8
0
  6
BYBLOCK
 62
     0
370
    -2
100
AcDbLine
 10
-0.5
 20
0.0
 30
0.0
 11
-1.0
 21
0.0
 31
0.0
  0
ENDBLK
  5
30
330
29
100
AcDbEntity
  8
0
100
AcDbBlockEnd
  0
BLOCK
  5
32
330
31
100
AcDbEntity
  8
0
100
AcDbBlockBegin
  2
_OBLIQUE
 70
     0
 10
0.0
 20
0.0
 30
0.0
  3
_OBLIQUE
  1

  0
LINE
  5
33
330
31
100
AcDbEntity
  8
0
  6
BYBLOCK
 62
     0
370
    -2
100
AcDbLine
 10
-0.5
 20
-0.5
 30
0.0
 11
0.5
 21
0.5
 31
0.0
  0
ENDBLK
  5
34
330
31
100
AcDbEntity
  8
0
100
AcDbBlockEnd
  0
BLOCK
  5
36
330
35
100
AcDbEntity
  8
0
100
AcDbBlockBegin
  2
_OPEN90
 70
     0
 10
0.0
 20
0.0
 30
0.0
  3
_OPEN90
  1

  0
LINE
  5
37
330
35
100
AcDbEntity
  8
0
  6
BYBLOCK
 62
     0
370
    -2
100
AcDbLine
 10
-0.5
 20
0.5
 30
0.0
 11
0.0
 21
0.0
 31
0.0
  0
LINE
  5
38
330
35
100
AcDbEntity
  8
0
  6
BYBLOCK
 62
     0
370
    -2
100
AcDbLine
 10
0.0
 20
0.0
 30
0.0
 11
-0.5
 21
-0.5
 31
0.0
  0
LINE
  5
39
330
35
100
AcDbEntity
  8
0
  6
BYBLOCK
 62
     0
370
    -2
100
AcDbLine
 10
0.0
 20
0.0
 30
0.0
 11
-1.0
 21
0.0
 31
0.0
  0
ENDBLK
  5
3A
330
35
100
AcDbEntity
  8
0
100
AcDbBlockEnd
  0
BLOCK
  5
3C
330
3B
100
AcDbEntity
  8
0
100
AcDbBlockBegin
  2
_CLOSEDBLANK
 70
     0
 10
0.0
 20
0.0
 30
0.0
  3
_CLOSEDBLANK
  1

  0
LINE
  5
3D
330
3B
100
AcDbEntity
  8
0
  6
BYBLOCK
 62
     0
370
    -2
100
AcDbLine
 10
-1.0
 20
0.1666666666666666
 30
0.0
 11
0.0
 21
0.0
 31
0.0
  0
LINE
  5
3E
330
3B
100
AcDbEntity
  8
0
  6
BYBLOCK
 62
     0
370
    -2
100
AcDbLine
 10
0.0
 20
0.0
 30
0.0
 11
-1.0
 21
-0.1666666666666666
 31
0.0
  0
LINE
  5
3F
330
3B
100
AcDbEntity
  8
0
  6
BYBLOCK
 62
     0
370
    -2
100
AcDbLine
 10
-1.0
 20
0.1666666666666666
 30
0.0
 11
-1.0
 21
-0.1666666666666666
 31
0.0
  0
ENDBLK
  5
40
330
3B
100
AcDbEntity
  8
0
100
AcDbBlockEnd
  0
BLOCK
  5
42
330
41
100
AcDbEntity
  8
0
100
AcDbBlockBegin
  2
_DOTBLANK
 70
     0
 10
0.0
 20
0.0
 30
0.0
  3
_DOTBLANK
  1

  0
CIRCLE
  5
43
330
41
100
AcDbEntity
  8
0
  6
BYBLOCK
 62
     0
370
    -2
100
AcDbCircle
 10
0.0
 20
0.0
 30
0.0
 40
0.5
  0
LINE
  5
44
330
41
100
AcDbEntity
  8
0
  6
BYBLOCK
 62
     0
370
    -2
100
AcDbLine
 10
-0.5
 20
0.0
 30
0.0
 11
-1.0
 21
0.0
 31
0.0
  0
ENDBLK
  5
45
330
41
100
AcDbEntity
  8
0
100
AcDbBlockEnd
  0
ENDSEC
  0
SECTION
  2
ENTITIES
  0
MTEXT
  5
46
100
AcDbEntity
  8
A7
  6
CONTINUOUS
 62
3
100
AcDbMText
 10
9.999997526638502
 20
18.00000076076889
 30
0.000000000000000
 40
3.000000000000000
 41
0.000000000000000
 44
0.6739999771118164
 71
     7
 72
     1
  1
{\H0.94x;{TYPE No.TL-450SUS-K}}
 11
1.000000000000000
 21
0.000000000000000
 31
0.000000000000000
  7
STANDARD
  0
POINT
  5
47
100
AcDbEntity
  8
A7
  6
CONTINUOUS
 62
3
100
AcDbPoint
 10
9.999997526638502
 20
18.00000076076889
 30
0.000000000000000
  0
LINE
  5
48
100
AcDbEntity
  8
0
  6
CONTINUOUS
 62
7
100
AcDbLine
 10
40.32922575496464
 20
56.02941339265702
 30
0.000000000000000
 11
40.32922575498445
 21
73.02941339265473
 31
0.000000000000000
  0
LINE
  5
49
100
AcDbEntity
  8
0
  6
CONTINUOUS
 62
7
100
AcDbLine
 10
37.32922575498445
 20
73.02941339265823
 30
0.000000000000000
 11
37.32922575496464
 21
56.02941339266052
 31
0.000000000000000
  0
LINE
  5
4A
100
AcDbEntity
  8
0
  6
CONTINUOUS
 62
7
100
AcDbLine
 10
40.32922575498444
 20
73.02941339265480
 30
0.000000000000000
 11
37.32922575498444
 21
73.02941339265830
 31
0.000000000000000
  0
LINE
  5
4B
100
AcDbEntity
  8
A2
  6
CENTER
 62
1
100
AcDbLine
 10
41.82922575497746
 20
67.02941339265304
 30
0.000000000000000
 11
35.82922575499026
 21
67.02941339266003
 31
0.000000000000000
  0
LINE
  5
4C
100
AcDbEntity
  8
A1
  6
DASHED
 62
2
100
AcDbLine
 10
40.32922575501811
 20
61.87941339266602
 30
0.000000000000000
 11
37.82922575513743
 21
64.37941339255251
 31
0.000000000000000
  0
LINE
  5
4D
100
AcDbEntity
  8
A1
  6
DASHED
 62
2
100
AcDbLine
 10
40.32922575498345
 20
72.17941339265477
 30
0.000000000000000
 11
37.82922575503840
 21
69.67941339271553
 31
0.000000000000000
  0
LINE
  5
4E
100
AcDbEntity
  8
A1
  6
DASHED
 62
2
100
AcDbLine
 10
37.32922575498056
 20
69.67941339271547
 30
0.000000000000000
 11
37.82922575502724
 21
69.67941339271552
 31
0.000000000000000
  0
LINE
  5
4F
100
AcDbEntity
  8
A1
  6
DASHED
 62
2
100
AcDbLine
 10
37.32922575497437
 20
64.37941339255423
 30
0.000000000000000
 11
37.82922575502106
 21
64.37941339255251
 31
0.000000000000000
  0
LINE
  5
50
100
AcDbEntity
  8
A1
  6
DASHED
 62
2
100
AcDbLine
 10
37.82922575503839
 20
69.67941339271545
 30
0.000000000000000
 11
37.82922575503223
 21
64.37941339255252
 31
0.000000000000000
  0
LINE
  5
51
100
AcDbEntity
  8
0
  6
CONTINUOUS
 62
7
100
AcDbLine
 10
119.7072151786792
 20
63.81823156868303
 30
0.000000000000000
 11
114.1388514096793
 21
55.02941339252293
 31
0.000000000000000
  0
ARC
  5
52
100
AcDbEntity
  8
0
  6
CONTINUOUS
 62
7
100
AcDbCircle
 10
98.13885140967923
 20
54.33133718130140
 30
0.000000000000000
 40
1.000000000000000
100
AcDbArc
 50
90.00000000000000
 51
180.0000000000000
  0
ARC
  5
53
100
AcDbEntity
  8
0
  6
CONTINUOUS
 62
7
100
AcDbCircle
 10
113.1388514096792
 20
54.33133718130140
 30
0.000000000000000
 40
1.000000000000000
100
AcDbArc
 50
0.000000000000000
 51
90.00000000000000
  0
ARC
  5
54
100
AcDbEntity
  8
0
  6
CONTINUOUS
 62
7
100
AcDbCircle
 10
98.13885140967923
 20
56.92941339265469
 30
0.000000000000000
 40
1.000000000000000
100
AcDbArc
 50
90.00000000000000
 51
180.0000000000000
  0
LINE
  5
55
100
AcDbEntity
  8
0
  6
CONTINUOUS
 62
7
100
AcDbLine
 10
113.1388514096793
 20
57.92941339265469
 30
0.000000000000000
 11
98.13885140967921
 21
57.92941339265469
 31
0.000000000000000
  0
LINE
  5
56
100
AcDbEntity
  8
0
  6
CONTINUOUS
 62
7
100
AcDbLine
 10
113.1388514096793
 20
55.33133718130141
 30
0.000000000000000
 11
98.13885140967921
 21
55.33133718130141
 31
0.000000000000000
  0
ARC
  5
57
100
AcDbEntity
  8
0
  6
CONTINUOUS
 62
7
100
AcDbCircle
 10
113.1388514096792
 20
56.92941339265469
 30
0.000000000000000
 40
1.000000000000000
100
AcDbArc
 50
0.000000000000000
 51
90.00000000000000
  0
LINE
  5
58
100
AcDbEntity
  8
0
  6
CONTINUOUS
 62
7
100
AcDbLine
 10
114.1388514096793
 20
51.02941339268310
 30
0.000000000000000
 11
114.1388514096793
 21
56.92941339265469
 31
0.000000000000000
  0
LINE
  5
59
100
AcDbEntity
  8
0
  6
CONTINUOUS
 62
7
100
AcDbLine
 10
97.13885140967921
 20
51.02941339268310
 30
0.000000000000000
 11
114.1388514096793
 21
51.02941339268310
 31
0.000000000000000
  0
LINE
  5
5A
100
AcDbEntity
  8
0
  6
CONTINUOUS
 62
7
100
AcDbLine
 10
97.13885140967923
 20
56.92941339265469
 30
0.000000000000000
 11
97.13885140967923
 21
51.02941339268310
 31
0.000000000000000
  0
LINE
  5
5B
100
AcDbEntity
  8
0
  6
CONTINUOUS
 62
7
100
AcDbLine
 10
91.57048764067919
 20
63.81823156868310
 30
0.000000000000000
 11
97.13885140967921
 21
55.02941339252279
 31
0.000000000000000
  0
LINE
  5
5C
100
AcDbEntity
  8
0
  6
CONTINUOUS
 62
7
100
AcDbLine
 10
114.6388514096793
 20
73.02941339268304
 30
0.000000000000000
 11
96.63885140967921
 21
73.02941339268304
 31
0.000000000000000
  0
ARC
  5
5D
100
AcDbEntity
  8
0
  6
CONTINUOUS
 62
7
100
AcDbCircle
 10
96.63885140967923
 20
67.02941339268310
 30
0.000000000000000
 40
6.000000000000000
100
AcDbArc
 50
90.00000000000000
 51
212.3572704600000
  0
LINE
  5
5E
100
AcDbEntity
  8
A2
  6
CENTER
 62
1
100
AcDbLine
 10
97.13885140967923
 20
74.52941339268310
 30
0.000000000000000
 11
97.13885140967923
 21
59.87941339268312
 31
0.000000000000000
  0
LINE
  5
5F
100
AcDbEntity
  8
A2
  6
CENTER
 62
1
100
AcDbLine
 10
114.1388514096792
 20
74.52941339268310
 30
0.000000000000000
 11
114.1388514096792
 21
59.87941339268312
 31
0.000000000000000
  0
ARC
  5
60
100
AcDbEntity
  8
0
  6
CONTINUOUS
 62
7
100
AcDbCircle
 10
114.6388514096792
 20
67.02941339268310
 30
0.000000000000000
 40
6.000000000000000
100
AcDbArc
 50
327.6427295400000
 51
450.0000000000000
  0
CIRCLE
  5
61
100
AcDbEntity
  8
0
  6
CONTINUOUS
 62
7
100
AcDbCircle
 10
114.1388514096792
 20
67.02941339268310
 30
0.000000000000000
 40
5.150000000000000
  0
CIRCLE
  5
62
100
AcDbEntity
  8
0
  6
CONTINUOUS
 62
7
100
AcDbCircle
 10
97.13885140967923
 20
67.02941339268310
 30
0.000000000000000
 40
5.150000000000000
  0
CIRCLE
  5
63
100
AcDbEntity
  8
0
  6
CONTINUOUS
 62
7
100
AcDbCircle
 10
97.13885140967923
 20
67.02941339268310
 30
0.000000000000000
 40
2.650000000000000
  0
CIRCLE
  5
64
100
AcDbEntity
  8
0
  6
CONTINUOUS
 62
7
100
AcDbCircle
 10
114.1388514096792
 20
67.02941339268310
 30
0.000000000000000
 40
2.650000000000000
  0
LINE
  5
65
100
AcDbEntity
  8
A2
  6
CENTER
 62
1
100
AcDbLine
 10
105.6388514096792
 20
49.52941339268310
 30
0.000000000000000
 11
105.6388514096792
 21
74.52941339268310
 31
0.000000000000000
  0
LINE
  5
66
100
AcDbEntity
  8
A2
  6
CENTER
 62
1
100
AcDbLine
 10
89.13885140967923
 20
67.02941339268310
 30
0.000000000000000
 11
122.1388514096792
 21
67.02941339268310
 31
0.000000000000000
  0
LINE
  5
67
100
AcDbEntity
  8
0
  6
CONTINUOUS
 62
7
100
AcDbLine
 10
120.6388514096792
 20
107.2748408809310
 30
0.000000000000000
 11
90.63885140967923
 21
107.2748408809310
 31
0.000000000000000
  0
LINE
  5
68
100
AcDbEntity
  8
0
  6
CONTINUOUS
 62
7
100
AcDbLine
 10
120.6388514096792
 20
104.2748408809310
 30
0.000000000000000
 11
90.63885140967923
 21
104.2748408809310
 31
0.000000000000000
  0
LINE
  5
69
100
AcDbEntity
  8
0
  6
CONTINUOUS
 62
7
100
AcDbLine
 10
113.1388514096791
 20
93.67484088097254
 30
0.000000000000000
 11
98.13885140968179
 21
93.67484088097254
 31
0.000000000000000
  0
LINE
  5
6A
100
AcDbEntity
  8
0
  6
CONTINUOUS
 62
7
100
AcDbLine
 10
90.63885140967926
 20
107.2748408809310
 30
0.000000000000000
 11
90.63885140967926
 21
104.2748408809310
 31
0.000000000000000
  0
LINE
  5
6B
100
AcDbEntity
  8
0
  6
CONTINUOUS
 62
7
100
AcDbLine
 10
120.6388514096793
 20
107.2748408809309
 30
0.000000000000000
 11
120.6388514096793
 21
104.2748408809309
 31
0.000000000000000
  0
LINE
  5
6C
100
AcDbEntity
  8
0
  6
CONTINUOUS
 62
7
100
AcDbLine
 10
114.1388514096791
 20
94.67484088093114
 30
0.000000000000000
 11
114.1388514096772
 21
104.2748408809304
 31
0.000000000000000
  0
LINE
  5
6D
100
AcDbEntity
  8
0
  6
CONTINUOUS
 62
7
100
AcDbLine
 10
97.13885140968176
 20
94.67484088093347
 30
0.000000000000000
 11
97.13885140970629
 21
104.2748408809304
 31
0.000000000000000
  0
LINE
  5
6E
100
AcDbEntity
  8
0
  6
CONTINUOUS
 62
7
100
AcDbLine
 10
113.1388514096786
 20
95.17484088097257
 30
0.000000000000000
 11
98.13885140968841
 21
95.17484088097257
 31
0.000000000000000
  0
ARC
  5
6F
100
AcDbEntity
  8
0
  6
CONTINUOUS
 62
7
100
AcDbCircle
 10
98.13885140968841
 20
96.17484088097257
 30
0.000000000000000
 40
1.000000000000000
100
AcDbArc
 50
180.0000000000000
 51
270.0000000000000
  0
ARC
  5
70
100
AcDbEntity
  8
0
  6
CONTINUOUS
 62
7
100
AcDbCircle
 10
98.13885140968179
 20
94.67484088097254
 30
0.000000000000000
 40
1.000000000000000
100
AcDbArc
 50
180.0000000000000
 51
270.0000000000000
  0
ARC
  5
71
100
AcDbEntity
  8
0
  6
CONTINUOUS
 62
7
100
AcDbCircle
 10
113.1388514096786
 20
96.17484088097257
 30
0.000000000000000
 40
1.000000000000000
100
AcDbArc
 50
270.0000000000000
 51
360.0000000000000
  0
ARC
  5
72
100
AcDbEntity
  8
0
  6
CONTINUOUS
 62
7
100
AcDbCircle
 10
113.1388514096791
 20
94.67484088097260
 30
0.000000000000000
 40
1.000000000000000
100
AcDbArc
 50
270.0000000000000
 51
360.0000000000000
  0
LINE
  5
73
100
AcDbEntity
  8
A2
  6
CENTER
 62
1
100
AcDbLine
 10
97.13885140967923
 20
108.6887196401920
 30
0.000000000000000
 11
97.13885140967923
 21
102.6433136035866
 31
0.000000000000000
  0
LINE
  5
74
100
AcDbEntity
  8
A2
  6
CENTER
 62
1
100
AcDbLine
 10
114.1388514096792
 20
108.6887196401920
 30
0.000000000000000
 11
114.1388514096792
 21
102.6433136035866
 31
0.000000000000000
  0
LINE
  5
75
100
AcDbEntity
  8
A2
  6
CENTER
 62
1
100
AcDbLine
 10
105.6388514096792
 20
108.6887196401920
 30
0.000000000000000
 11
105.6388514096792
 21
91.27484088093789
 31
0.000000000000000
  0
LINE
  5
76
100
AcDbEntity
  8
0
  6
CONTINUOUS
 62
7
100
AcDbLine
 10
49.42922575497753
 20
57.92941339265469
 30
0.000000000000000
 11
43.35246587269926
 21
54.31098979485212
 31
0.000000000000000
  0
LINE
  5
77
100
AcDbEntity
  8
0
  6
CONTINUOUS
 62
7
100
AcDbLine
 10
44.88749232869953
 20
51.73345341404960
 30
0.000000000000000
 11
50.92922575497751
 21
55.33133718130137
 31
0.000000000000000
  0
LINE
  5
78
100
AcDbEntity
  8
0
  6
CONTINUOUS
 62
7
100
AcDbLine
 10
49.42922575497749
 20
57.92941339265469
 30
0.000000000000000
 11
50.92922575497747
 21
55.33133718130141
 31
0.000000000000000
  0
ARC
  5
79
100
AcDbEntity
  8
0
  6
CONTINUOUS
 62
7
100
AcDbCircle
 10
42.32922575497744
 20
56.02941339265469
 30
0.000000000000000
 40
5.000000000000000
100
AcDbArc
 50
180.0000000000000
 51
300.7740190866123
  0
ARC
  5
7A
100
AcDbEntity
  8
0
  6
CONTINUOUS
 62
7
100
AcDbCircle
 10
42.32922575497744
 20
56.02941339265469
 30
0.000000000000000
 40
2.000000000000000
100
AcDbArc
 50
180.0000000000000
 51
300.7718014218526
  0
LINE
  5
7B
100
AcDbEntity
  8
A2
  6
CENTER
 62
1
100
AcDbLine
 10
43.82922575497744
 20
56.02941339265469
 30
0.000000000000000
 11
35.82922575497744
 21
56.02941339265469
 31
0.000000000000000
  0
LINE
  5
7C
100
AcDbEntity
  8
A2
  6
CENTER
 62
1
100
AcDbLine
 10
42.32922575497744
 20
57.52941339265469
 30
0.000000000000000
 11
42.32922575497744
 21
49.52941339265469
 31
0.000000000000000
  0
LINE
  5
7D
100
AcDbEntity
  8
0
  6
CONTINUOUS
 62
7
100
AcDbLine
 10
170.9484770643938
 20
56.02941339265702
 30
0.000000000000000
 11
170.9484770643739
 21
73.02941339265473
 31
0.000000000000000
  0
LINE
  5
7E
100
AcDbEntity
  8
0
  6
CONTINUOUS
 62
7
100
AcDbLine
 10
173.9484770643739
 20
73.02941339265823
 30
0.000000000000000
 11
173.9484770643938
 21
56.02941339266052
 31
0.000000000000000
  0
LINE
  5
7F
100
AcDbEntity
  8
0
  6
CONTINUOUS
 62
7
100
AcDbLine
 10
170.9484770643739
 20
73.02941339265480
 30
0.000000000000000
 11
173.9484770643739
 21
73.02941339265830
 31
0.000000000000000
  0
LINE
  5
80
100
AcDbEntity
  8
A2
  6
CENTER
 62
1
100
AcDbLine
 10
169.4484770643809
 20
67.02941339265300
 30
0.000000000000000
 11
175.4484770643809
 21
67.02941339265999
 31
0.000000000000000
  0
LINE
  5
81
100
AcDbEntity
  8
A1
  6
DASHED
 62
2
100
AcDbLine
 10
170.9484770643403
 20
61.87941339266602
 30
0.000000000000000
 11
173.4484770642210
 21
64.37941339255252
 31
0.000000000000000
  0
LINE
  5
82
100
AcDbEntity
  8
A1
  6
DASHED
 62
2
100
AcDbLine
 10
170.9484770643749
 20
72.17941339265477
 30
0.000000000000000
 11
173.4484770643200
 21
69.67941339271553
 31
0.000000000000000
  0
LINE
  5
83
100
AcDbEntity
  8
A1
  6
DASHED
 62
2
100
AcDbLine
 10
173.9484770643778
 20
69.67941339271547
 30
0.000000000000000
 11
173.4484770643311
 21
69.67941339271552
 31
0.000000000000000
  0
LINE
  5
84
100
AcDbEntity
  8
A1
  6
DASHED
 62
2
100
AcDbLine
 10
173.9484770643840
 20
64.37941339255424
 30
0.000000000000000
 11
173.4484770643373
 21
64.37941339255252
 31
0.000000000000000
  0
LINE
  5
85
100
AcDbEntity
  8
A1
  6
DASHED
 62
2
100
AcDbLine
 10
173.4484770643200
 20
69.67941339271545
 30
0.000000000000000
 11
173.4484770643261
 21
64.37941339255252
 31
0.000000000000000
  0
LINE
  5
86
100
AcDbEntity
  8
0
  6
CONTINUOUS
 62
7
100
AcDbLine
 10
161.8484770643809
 20
57.92941339265469
 30
0.000000000000000
 11
167.9252369466591
 21
54.31098979485211
 31
0.000000000000000
  0
LINE
  5
87
100
AcDbEntity
  8
0
  6
CONTINUOUS
 62
7
100
AcDbLine
 10
166.3902104906588
 20
51.73345341404958
 30
0.000000000000000
 11
160.3484770643809
 21
55.33133718130136
 31
0.000000000000000
  0
LINE
  5
88
100
AcDbEntity
  8
0
  6
CONTINUOUS
 62
7
100
AcDbLine
 10
161.8484770643809
 20
57.92941339265471
 30
0.000000000000000
 11
160.3484770643809
 21
55.33133718130142
 31
0.000000000000000
  0
ARC
  5
89
100
AcDbEntity
  8
0
  6
CONTINUOUS
 62
7
100
AcDbCircle
 10
168.9484770643809
 20
56.02941339265469
 30
0.000000000000000
 40
5.000000000000000
100
AcDbArc
 50
239.2259809133877
 51
360.0000000000000
  0
ARC
  5
8A
100
AcDbEntity
  8
0
  6
CONTINUOUS
 62
7
100
AcDbCircle
 10
168.9484770643809
 20
56.02941339265469
 30
0.000000000000000
 40
2.000000000000000
100
AcDbArc
 50
239.2281985781475
 51
360.0000000000000
  0
LINE
  5
8B
100
AcDbEntity
  8
A2
  6
CENTER
 62
1
100
AcDbLine
 10
167.4484770643809
 20
56.02941339265469
 30
0.000000000000000
 11
175.4484770643809
 21
56.02941339265469
 31
0.000000000000000
  0
LINE
  5
8C
100
AcDbEntity
  8
A2
  6
CENTER
 62
1
100
AcDbLine
 10
168.9484770643809
 20
57.52941339265469
 30
0.000000000000000
 11
168.9484770643809
 21
49.52941339265469
 31
0.000000000000000
  0
ENDSEC
  0
SECTION
  2
OBJECTS
  0
DICTIONARY
  5
C0
100
AcDbDictionary
  3
ACAD_GROUP
350
C1
  3
ACAD_LAYOUT
350
C2
  3
ACAD_MLINESTYLE
350
C3
  0
DICTIONARY
  5
C1
102
{ACAD_REACTORS
330
C0
102
}
330
C0
100
AcDbDictionary
  0
DICTIONARY
  5
C2
102
{ACAD_REACTORS
330
C0
102
}
330
C0
100
AcDbDictionary
  3
Model
350
C4
  3
ﾚｲｱｳﾄ1
350
C5
  3
ﾚｲｱｳﾄ2
350
C6
  0
DICTIONARY
  5
C3
102
{ACAD_REACTORS
330
C0
102
}
330
C0
100
AcDbDictionary
  3
STANDARD
350
C7
  0
LAYOUT
  5
C4
102
{ACAD_REACTORS
330
C2
102
}
330
C2
100
AcDbPlotSettings
 70
11952
  4
A3
 44
297.000000
 45
420.000000
 73
  1
 72
  1
100
AcDbLayout
  1
Model
 71
0
330
B7
  0
LAYOUT
  5
C5
102
{ACAD_REACTORS
330
C2
102
}
330
C2
100
AcDbPlotSettings
100
AcDbLayout
  1
ﾚｲｱｳﾄ1
 71
1
330
B8
  0
LAYOUT
  5
C6
102
{ACAD_REACTORS
330
C2
102
}
330
C2
100
AcDbPlotSettings
100
AcDbLayout
  1
ﾚｲｱｳﾄ2
 71
2
330
B9
  0
MLINESTYLE
  5
C7
102
{ACAD_REACTORS
330
C3
102
}
330
C3
100
AcDbMlineStyle
  2
STANDARD
 70
     0
  3

 62
   256
 51
90.00
 52
90.00
 71
     2
 49
0.50
 62
   256
  6
BYLAYER
 49
-0.50
 62
   256
  6
BYLAYER
  0
ENDSEC
  0
EOF
