  0
SECTION
  2
HEADER
  9
$ACADVER
  1
AC1014
  9
$DWGCODEPAGE
  3
ANSI_932
  9
$LTSCALE
 40
20.0
  9
$FILLMODE
 70
     1
  9
$CLAYER
  8
0
  9
$PDMODE
 70
     0
  9
$SPLFRAME
 70
     0
  9
$SPLINETYPE
 70
     6
  9
$SPLINESEGS
 70
     8
  9
$DIMASZ
 40
2.000000
  9
$DIMEXE
 40
1.500000
  9
$DIMEXO
 40
0.800000
  9
$DIMTAD
 70
     1
  9
$DIMTIH
 70
     0
  9
$DIMTOH
 70
     0
  9
$DIMTVP
 40
0.500000
  9
$DIMTXT
 40
3.100000
  9
$EXTMIN
 10
0.000000
 20
0.000000
 30
0.000000
  9
$EXTMAX
 10
297.000000
 20
420.000000
 30
0.000000
  9
$MEASUREMENT
 70
  1
  9
$LIMMIN
 10
0.000000
 20
0.000000
  9
$LIMMAX
 10
297.000000
 20
420.000000
  9
$HANDLING
 70
     1
  9
$HANDSEED
  5
C6
  9
$DIMBLK
  1
_OPEN
  9
$DIMDEC
 70
     2
  9
$DIMAUNIT
 70
     0
  9
$DIMZIN
 70
     8
  9
$DIMTOFL
 70
     1
  0
ENDSEC
  0
SECTION
  2
CLASSES
  0
ENDSEC
  0
SECTION
  2
TABLES
  0
TABLE
  2
VPORT
  5
97
100
AcDbSymbolTable
 70
     1
  0
VPORT
  5
98
100
AcDbSymbolTableRecord
100
AcDbViewportTableRecord
  2
*ACTIVE
 70
     0
 12
96.671188
 22
64.313868
 40
92.627735
 41
1.871387
  0
ENDTAB
  0
TABLE
  2
LTYPE
  5
99
100
AcDbSymbolTable
 70
     2
  0
LTYPE
  5
9A
100
AcDbSymbolTableRecord
100
AcDbLinetypeTableRecord
  2
BYBLOCK
 70
     0
  3

 72
    65
 73
     0
 40
0.0
  0
LTYPE
  5
9B
100
AcDbSymbolTableRecord
100
AcDbLinetypeTableRecord
  2
BYLAYER
 70
     0
  3

 72
    65
 73
     0
 40
0.0
  0
LTYPE
  5
9C
100
AcDbSymbolTableRecord
100
AcDbLinetypeTableRecord
  2
CONTINUOUS
 70
     0
  3
Solid line (NEC CAE2D for Win R18.0 : 2025.02.25)
 72
    65
 73
     0
 40
0.0
  0
LTYPE
  5
9D
100
AcDbSymbolTableRecord
100
AcDbLinetypeTableRecord
  2
CENTER
 70
     0
  3
____ _ ____ _ ____ _ ____ _ ____ _ ____
 72
    65
 73
     4
 40
2.0
 49
1.25
 74
     0
 49
-0.25
 74
     0
 49
0.25
 74
     0
 49
-0.25
 74
     0
  0
ENDTAB
  0
TABLE
  2
LAYER
  5
9E
100
AcDbSymbolTable
 70
    16
  0
LAYER
  5
9F
100
AcDbSymbolTableRecord
100
AcDbLayerTableRecord
  2
0
 70
     0
 62
     7
  6
CONTINUOUS
  0
LAYER
  5
A0
100
AcDbSymbolTableRecord
100
AcDbLayerTableRecord
  2
A0
 70
     0
 62
     9
  6
CONTINUOUS
  0
LAYER
  5
A1
100
AcDbSymbolTableRecord
100
AcDbLayerTableRecord
  2
A1
 70
     0
 62
    12
  6
CONTINUOUS
  0
LAYER
  5
A2
100
AcDbSymbolTableRecord
100
AcDbLayerTableRecord
  2
A2
 70
     0
 62
     9
  6
CONTINUOUS
  0
LAYER
  5
A3
100
AcDbSymbolTableRecord
100
AcDbLayerTableRecord
  2
A4
 70
     0
 62
     9
  6
CONTINUOUS
  0
LAYER
  5
A4
100
AcDbSymbolTableRecord
100
AcDbLayerTableRecord
  2
A5
 70
     0
 62
     8
  6
CONTINUOUS
  0
LAYER
  5
A5
100
AcDbSymbolTableRecord
100
AcDbLayerTableRecord
  2
A6
 70
     0
 62
    12
  6
CONTINUOUS
  0
LAYER
  5
A6
100
AcDbSymbolTableRecord
100
AcDbLayerTableRecord
  2
A7
 70
     0
 62
    12
  6
CONTINUOUS
  0
LAYER
  5
A7
100
AcDbSymbolTableRecord
100
AcDbLayerTableRecord
  2
A8
 70
     0
 62
    10
  6
CONTINUOUS
  0
LAYER
  5
A8
100
AcDbSymbolTableRecord
100
AcDbLayerTableRecord
  2
A9
 70
     0
 62
     9
  6
CONTINUOUS
  0
LAYER
  5
A9
100
AcDbSymbolTableRecord
100
AcDbLayerTableRecord
  2
A10
 70
     0
 62
     6
  6
CONTINUOUS
  0
LAYER
  5
AA
100
AcDbSymbolTableRecord
100
AcDbLayerTableRecord
  2
A20
 70
     0
 62
     1
  6
CONTINUOUS
  0
LAYER
  5
AB
100
AcDbSymbolTableRecord
100
AcDbLayerTableRecord
  2
A30
 70
     0
 62
     1
  6
CONTINUOUS
  0
LAYER
  5
AC
100
AcDbSymbolTableRecord
100
AcDbLayerTableRecord
  2
A40
 70
     0
 62
     9
  6
CONTINUOUS
  0
LAYER
  5
AD
100
AcDbSymbolTableRecord
100
AcDbLayerTableRecord
  2
A50
 70
     0
 62
    12
  6
CONTINUOUS
  0
LAYER
  5
AE
100
AcDbSymbolTableRecord
100
AcDbLayerTableRecord
  2
A1023
 70
     0
 62
    16
  6
CONTINUOUS
  0
ENDTAB
  0
TABLE
  2
STYLE
  5
AF
100
AcDbSymbolTable
 70
     4
  0
STYLE
  5
B0
100
AcDbSymbolTableRecord
100
AcDbTextStyleTableRecord
  2
STANDARD
 70
    64
 40
0.0
 41
1.0
 50
0.0
 71
     0
 42
3.000000000000000
  3
TXT
  4

  0
STYLE
  5
B1
100
AcDbSymbolTableRecord
100
AcDbTextStyleTableRecord
  2
ANKTATE
 70
    68
 40
0.0
 41
1.0
 50
0.0
 71
     0
 42
3.000000000000000
  3
TXT
  4

  0
STYLE
  5
B2
100
AcDbSymbolTableRecord
100
AcDbTextStyleTableRecord
  2
KNJYOKO
 70
    64
 40
0.0
 41
1.0
 50
0.0
 71
     0
 42
3.000000000000000
  3
TXT
  4
BIGFONT
  0
STYLE
  5
B3
100
AcDbSymbolTableRecord
100
AcDbTextStyleTableRecord
  2
KNJTATE
 70
    68
 40
0.0
 41
1.0
 50
0.0
 71
     0
 42
3.000000000000000
  3
TXT
  4
BIGFONT
  0
ENDTAB
  0
TABLE
  2
VIEW
  5
B4
100
AcDbSymbolTable
 70
     0
  0
ENDTAB
  0
TABLE
  2
UCS
  5
B5
100
AcDbSymbolTable
 70
     0
  0
ENDTAB
  0
TABLE
  2
APPID
  5
B6
100
AcDbSymbolTable
 70
     1
  0
APPID
  5
B7
100
AcDbSymbolTableRecord
100
AcDbRegAppTableRecord
  2
ACAD
 70
     0
  0
ENDTAB
  0
TABLE
  2
DIMSTYLE
  5
B8
100
AcDbSymbolTable
 70
     2
  0
DIMSTYLE
105
B9
100
AcDbSymbolTableRecord
100
AcDbDimStyleTableRecord
  2
STANDARD
 70
     0
 41
2.000000
 44
1.500000
 42
0.800000
145
0.661290
140
3.100000
144
1.000000
146
0.645161
340
B0
  0
DIMSTYLE
105
BA
100
AcDbSymbolTableRecord
100
AcDbDimStyleTableRecord
  2
A001
 70
     0
 41
2.000000
 44
1.500000
 42
0.800000
145
0.661290
140
3.100000
144
1.000000
146
0.645161
 77
     1
 73
     0
 74
     0
271
     2
275
     0
 78
     8
172
     1
340
B0
  0
ENDTAB
  0
TABLE
  2
BLOCK_RECORD
  5
BB
100
AcDbSymbolTable
 70
    12
  0
BLOCK_RECORD
  5
BC
100
AcDbSymbolTableRecord
100
AcDbBlockTableRecord
  2
*MODEL_SPACE
  0
BLOCK_RECORD
  5
BD
100
AcDbSymbolTableRecord
100
AcDbBlockTableRecord
  2
*PAPER_SPACE
  0
BLOCK_RECORD
  5
1
100
AcDbSymbolTableRecord
100
AcDbBlockTableRecord
  2
_NONE
  0
BLOCK_RECORD
  5
4
100
AcDbSymbolTableRecord
100
AcDbBlockTableRecord
  2
_CLOSED
  0
BLOCK_RECORD
  5
B
100
AcDbSymbolTableRecord
100
AcDbBlockTableRecord
  2
_DOT
  0
BLOCK_RECORD
  5
13
100
AcDbSymbolTableRecord
100
AcDbBlockTableRecord
  2
_OPEN
  0
BLOCK_RECORD
  5
19
100
AcDbSymbolTableRecord
100
AcDbBlockTableRecord
  2
_ORIGIN
  0
BLOCK_RECORD
  5
1E
100
AcDbSymbolTableRecord
100
AcDbBlockTableRecord
  2
_OPEN30
  0
BLOCK_RECORD
  5
24
100
AcDbSymbolTableRecord
100
AcDbBlockTableRecord
  2
_BOXFILLED
  0
BLOCK_RECORD
  5
29
100
AcDbSymbolTableRecord
100
AcDbBlockTableRecord
  2
_BOXBLANK
  0
BLOCK_RECORD
  5
31
100
AcDbSymbolTableRecord
100
AcDbBlockTableRecord
  2
_OBLIQUE
  0
BLOCK_RECORD
  5
35
100
AcDbSymbolTableRecord
100
AcDbBlockTableRecord
  2
_OPEN90
  0
BLOCK_RECORD
  5
3B
100
AcDbSymbolTableRecord
100
AcDbBlockTableRecord
  2
_CLOSEDBLANK
  0
BLOCK_RECORD
  5
41
100
AcDbSymbolTableRecord
100
AcDbBlockTableRecord
  2
_DOTBLANK
  0
ENDTAB
  0
ENDSEC
  0
SECTION
  2
BLOCKS
  0
BLOCK
  5
BE
100
AcDbEntity
  8
0
100
AcDbBlockBegin
  2
*MODEL_SPACE
 70
     0
 10
0.0
 20
0.0
 30
0.0
  3
*MODEL_SPACE
  1

  0
ENDBLK
  5
BF
100
AcDbEntity
  8
0
100
AcDbBlockEnd
  0
BLOCK
  5
C0
100
AcDbEntity
  8
0
100
AcDbBlockBegin
  2
*PAPER_SPACE
 70
     0
 10
0.0
 20
0.0
 30
0.0
  3
*PAPER_SPACE
  1

  0
ENDBLK
  5
C1
100
AcDbEntity
  8
0
100
AcDbBlockEnd
  0
BLOCK
  5
2
100
AcDbEntity
  8
0
100
AcDbBlockBegin
  2
_NONE
 70
     0
 10
0.0
 20
0.0
 30
0.0
  3
_NONE
  1

  0
ENDBLK
  5
3
100
AcDbEntity
  8
0
100
AcDbBlockEnd
  0
BLOCK
  5
5
100
AcDbEntity
  8
0
100
AcDbBlockBegin
  2
_CLOSED
 70
     0
 10
0.0
 20
0.0
 30
0.0
  3
_CLOSED
  1

  0
LINE
  5
6
100
AcDbEntity
  8
0
  6
BYBLOCK
 62
     0
100
AcDbLine
 10
-1.0
 20
0.166667
 30
0.0
 11
0.0
 21
0.0
 31
0.0
  0
LINE
  5
7
100
AcDbEntity
  8
0
  6
BYBLOCK
 62
     0
100
AcDbLine
 10
0.0
 20
0.0
 30
0.0
 11
-1.0
 21
-0.166667
 31
0.0
  0
LINE
  5
8
100
AcDbEntity
  8
0
  6
BYBLOCK
 62
     0
100
AcDbLine
 10
-1.0
 20
0.166667
 30
0.0
 11
-1.0
 21
-0.166667
 31
0.0
  0
LINE
  5
9
100
AcDbEntity
  8
0
  6
BYBLOCK
 62
     0
100
AcDbLine
 10
0.0
 20
0.0
 30
0.0
 11
-1.0
 21
0.0
 31
0.0
  0
ENDBLK
  5
A
100
AcDbEntity
  8
0
100
AcDbBlockEnd
  0
BLOCK
  5
C
100
AcDbEntity
  8
0
100
AcDbBlockBegin
  2
_DOT
 70
     0
 10
0.0
 20
0.0
 30
0.0
  3
_DOT
  1

  0
POLYLINE
  5
D
100
AcDbEntity
  8
0
  6
BYBLOCK
 62
     0
100
AcDb2dPolyline
 66
     1
 10
0.0
 20
0.0
 30
0.0
 70
     1
 40
0.5
 41
0.5
  0
VERTEX
  5
E
100
AcDbEntity
  8
0
  6
BYBLOCK
 62
     0
100
AcDbVertex
100
AcDb2dVertex
 10
-0.25
 20
0.0
 30
0.0
 42
1.0
  0
VERTEX
  5
F
100
AcDbEntity
  8
0
  6
BYBLOCK
 62
     0
100
AcDbVertex
100
AcDb2dVertex
 10
0.25
 20
0.0
 30
0.0
 42
1.0
  0
SEQEND
  5
10
100
AcDbEntity
  8
0
  6
BYBLOCK
 62
     0
  0
LINE
  5
11
100
AcDbEntity
  8
0
  6
BYBLOCK
 62
     0
100
AcDbLine
 10
-0.5
 20
0.0
 30
0.0
 11
-1.0
 21
0.0
 31
0.0
  0
ENDBLK
  5
12
100
AcDbEntity
  8
0
100
AcDbBlockEnd
  0
BLOCK
  5
14
100
AcDbEntity
  8
0
100
AcDbBlockBegin
  2
_OPEN
 70
     0
 10
0.0
 20
0.0
 30
0.0
  3
_OPEN
  1

  0
LINE
  5
15
100
AcDbEntity
  8
0
  6
BYBLOCK
 62
     0
100
AcDbLine
 10
-1.0
 20
0.166667
 30
0.0
 11
0.0
 21
0.0
 31
0.0
  0
LINE
  5
16
100
AcDbEntity
  8
0
  6
BYBLOCK
 62
     0
100
AcDbLine
 10
0.0
 20
0.0
 30
0.0
 11
-1.0
 21
-0.166667
 31
0.0
  0
LINE
  5
17
100
AcDbEntity
  8
0
  6
BYBLOCK
 62
     0
100
AcDbLine
 10
0.0
 20
0.0
 30
0.0
 11
-1.0
 21
0.0
 31
0.0
  0
ENDBLK
  5
18
100
AcDbEntity
  8
0
100
AcDbBlockEnd
  0
BLOCK
  5
1A
100
AcDbEntity
  8
0
100
AcDbBlockBegin
  2
_ORIGIN
 70
     0
 10
0.0
 20
0.0
 30
0.0
  3
_ORIGIN
  1

  0
CIRCLE
  5
1B
100
AcDbEntity
  8
0
  6
BYBLOCK
 62
     0
100
AcDbCircle
 10
0.0
 20
0.0
 30
0.0
 40
0.5
  0
LINE
  5
1C
100
AcDbEntity
  8
0
  6
BYBLOCK
 62
     0
100
AcDbLine
 10
0.0
 20
0.0
 30
0.0
 11
-1.0
 21
0.0
 31
0.0
  0
ENDBLK
  5
1D
100
AcDbEntity
  8
0
100
AcDbBlockEnd
  0
BLOCK
  5
1F
100
AcDbEntity
  8
0
100
AcDbBlockBegin
  2
_OPEN30
 70
     0
 10
0.0
 20
0.0
 30
0.0
  3
_OPEN30
  1

  0
LINE
  5
20
100
AcDbEntity
  8
0
  6
BYBLOCK
 62
     0
100
AcDbLine
 10
-1.0
 20
0.267949
 30
0.0
 11
0.0
 21
0.0
 31
0.0
  0
LINE
  5
21
100
AcDbEntity
  8
0
  6
BYBLOCK
 62
     0
100
AcDbLine
 10
0.0
 20
0.0
 30
0.0
 11
-1.0
 21
-0.267949
 31
0.0
  0
LINE
  5
22
100
AcDbEntity
  8
0
  6
BYBLOCK
 62
     0
100
AcDbLine
 10
0.0
 20
0.0
 30
0.0
 11
-1.0
 21
0.0
 31
0.0
  0
ENDBLK
  5
23
100
AcDbEntity
  8
0
100
AcDbBlockEnd
  0
BLOCK
  5
25
100
AcDbEntity
  8
0
100
AcDbBlockBegin
  2
_BOXFILLED
 70
     0
 10
0.0
 20
0.0
 30
0.0
  3
_BOXFILLED
  1

  0
SOLID
  5
26
100
AcDbEntity
  8
0
  6
BYBLOCK
 62
     0
100
AcDbTrace
 10
-0.5
 20
0.5
 30
0.0
 11
0.5
 21
0.5
 31
0.0
 12
-0.5
 22
-0.5
 32
0.0
 13
0.5
 23
-0.5
 33
0.0
  0
LINE
  5
27
100
AcDbEntity
  8
0
  6
BYBLOCK
 62
     0
100
AcDbLine
 10
-0.5
 20
0.0
 30
0.0
 11
-1.0
 21
0.0
 31
0.0
  0
ENDBLK
  5
28
100
AcDbEntity
  8
0
100
AcDbBlockEnd
  0
BLOCK
  5
2A
100
AcDbEntity
  8
0
100
AcDbBlockBegin
  2
_BOXBLANK
 70
     0
 10
0.0
 20
0.0
 30
0.0
  3
_BOXBLANK
  1

  0
LINE
  5
2B
100
AcDbEntity
  8
0
  6
BYBLOCK
 62
     0
100
AcDbLine
 10
-0.5
 20
-0.5
 30
0.0
 11
0.5
 21
-0.5
 31
0.0
  0
LINE
  5
2C
100
AcDbEntity
  8
0
  6
BYBLOCK
 62
     0
100
AcDbLine
 10
0.5
 20
-0.5
 30
0.0
 11
0.5
 21
0.5
 31
0.0
  0
LINE
  5
2D
100
AcDbEntity
  8
0
  6
BYBLOCK
 62
     0
100
AcDbLine
 10
0.5
 20
0.5
 30
0.0
 11
-0.5
 21
0.5
 31
0.0
  0
LINE
  5
2E
100
AcDbEntity
  8
0
  6
BYBLOCK
 62
     0
100
AcDbLine
 10
-0.5
 20
0.5
 30
0.0
 11
-0.5
 21
-0.5
 31
0.0
  0
LINE
  5
2F
100
AcDbEntity
  8
0
  6
BYBLOCK
 62
     0
100
AcDbLine
 10
-0.5
 20
0.0
 30
0.0
 11
-1.0
 21
0.0
 31
0.0
  0
ENDBLK
  5
30
100
AcDbEntity
  8
0
100
AcDbBlockEnd
  0
BLOCK
  5
32
100
AcDbEntity
  8
0
100
AcDbBlockBegin
  2
_OBLIQUE
 70
     0
 10
0.0
 20
0.0
 30
0.0
  3
_OBLIQUE
  1

  0
LINE
  5
33
100
AcDbEntity
  8
0
  6
BYBLOCK
 62
     0
100
AcDbLine
 10
-0.5
 20
-0.5
 30
0.0
 11
0.5
 21
0.5
 31
0.0
  0
ENDBLK
  5
34
100
AcDbEntity
  8
0
100
AcDbBlockEnd
  0
BLOCK
  5
36
100
AcDbEntity
  8
0
100
AcDbBlockBegin
  2
_OPEN90
 70
     0
 10
0.0
 20
0.0
 30
0.0
  3
_OPEN90
  1

  0
LINE
  5
37
100
AcDbEntity
  8
0
  6
BYBLOCK
 62
     0
100
AcDbLine
 10
-0.5
 20
0.5
 30
0.0
 11
0.0
 21
0.0
 31
0.0
  0
LINE
  5
38
100
AcDbEntity
  8
0
  6
BYBLOCK
 62
     0
100
AcDbLine
 10
0.0
 20
0.0
 30
0.0
 11
-0.5
 21
-0.5
 31
0.0
  0
LINE
  5
39
100
AcDbEntity
  8
0
  6
BYBLOCK
 62
     0
100
AcDbLine
 10
0.0
 20
0.0
 30
0.0
 11
-1.0
 21
0.0
 31
0.0
  0
ENDBLK
  5
3A
100
AcDbEntity
  8
0
100
AcDbBlockEnd
  0
BLOCK
  5
3C
100
AcDbEntity
  8
0
100
AcDbBlockBegin
  2
_CLOSEDBLANK
 70
     0
 10
0.0
 20
0.0
 30
0.0
  3
_CLOSEDBLANK
  1

  0
LINE
  5
3D
100
AcDbEntity
  8
0
  6
BYBLOCK
 62
     0
100
AcDbLine
 10
-1.0
 20
0.1666666666666666
 30
0.0
 11
0.0
 21
0.0
 31
0.0
  0
LINE
  5
3E
100
AcDbEntity
  8
0
  6
BYBLOCK
 62
     0
100
AcDbLine
 10
0.0
 20
0.0
 30
0.0
 11
-1.0
 21
-0.1666666666666666
 31
0.0
  0
LINE
  5
3F
100
AcDbEntity
  8
0
  6
BYBLOCK
 62
     0
100
AcDbLine
 10
-1.0
 20
0.1666666666666666
 30
0.0
 11
-1.0
 21
-0.1666666666666666
 31
0.0
  0
ENDBLK
  5
40
100
AcDbEntity
  8
0
100
AcDbBlockEnd
  0
BLOCK
  5
42
100
AcDbEntity
  8
0
100
AcDbBlockBegin
  2
_DOTBLANK
 70
     0
 10
0.0
 20
0.0
 30
0.0
  3
_DOTBLANK
  1

  0
CIRCLE
  5
43
100
AcDbEntity
  8
0
  6
BYBLOCK
 62
     0
100
AcDbCircle
 10
0.0
 20
0.0
 30
0.0
 40
0.5
  0
LINE
  5
44
100
AcDbEntity
  8
0
  6
BYBLOCK
 62
     0
100
AcDbLine
 10
-0.5
 20
0.0
 30
0.0
 11
-1.0
 21
0.0
 31
0.0
  0
ENDBLK
  5
45
100
AcDbEntity
  8
0
100
AcDbBlockEnd
  0
ENDSEC
  0
SECTION
  2
ENTITIES
  0
MTEXT
  5
46
100
AcDbEntity
  8
A7
  6
CONTINUOUS
 62
3
100
AcDbMText
 10
9.999997526638502
 20
18.00000076076889
 30
0.000000000000000
 40
3.000000000000000
 41
0.000000000000000
 71
     7
 72
     1
  1
{\H0.94x;{TYPE No.TL-453SUS-420}}
 11
1.000000000000000
 21
0.000000000000000
 31
0.000000000000000
  7
STANDARD
  0
POINT
  5
47
100
AcDbEntity
  8
A10
  6
CONTINUOUS
 62
3
100
AcDbPoint
 10
9.999997526638502
 20
18.00000076076889
 30
0.000000000000000
  0
POINT
  5
48
100
AcDbEntity
  8
A10
  6
CONTINUOUS
 62
3
100
AcDbPoint
 10
50.00000000000000
 20
50.00000000000000
 30
0.000000000000000
  0
LINE
  5
49
100
AcDbEntity
  8
A4
  6
CENTER
 62
1
100
AcDbLine
 10
21.61437817870300
 20
63.12723553982364
 30
0.000000000000000
 11
21.61437817870300
 21
43.12723553982364
 31
0.000000000000000
  0
LINE
  5
4A
100
AcDbEntity
  8
A4
  6
CENTER
 62
1
100
AcDbLine
 10
11.61437817870300
 20
53.12723553982364
 30
0.000000000000000
 11
31.61437817870299
 21
53.12723553982364
 31
0.000000000000000
  0
LINE
  5
4B
100
AcDbEntity
  8
A4
  6
CENTER
 62
1
100
AcDbLine
 10
78.58427817870299
 20
103.1277355398236
 30
0.000000000000000
 11
115.1093781787030
 21
103.1277355398236
 31
0.000000000000000
  0
LINE
  5
4C
100
AcDbEntity
  8
A1
  6
CONTINUOUS
 62
7
100
AcDbLine
 10
82.47847817870303
 20
108.6277355398236
 30
0.000000000000000
 11
82.47847817870303
 21
97.62773553982365
 31
0.000000000000000
  0
LINE
  5
4D
100
AcDbEntity
  8
A1
  6
CONTINUOUS
 62
7
100
AcDbLine
 10
90.47837817870300
 20
110.1277355398236
 30
0.000000000000000
 11
90.47837817870300
 21
96.12773553982365
 31
0.000000000000000
  0
LINE
  5
4E
100
AcDbEntity
  8
A1
  6
CONTINUOUS
 62
7
100
AcDbLine
 10
84.47847817870303
 20
95.62773553982365
 30
0.000000000000000
 11
89.97837817870300
 21
95.62773553982365
 31
0.000000000000000
  0
LINE
  5
4F
100
AcDbEntity
  8
A1
  6
CONTINUOUS
 62
7
100
AcDbLine
 10
84.47847817870303
 20
110.6277355398236
 30
0.000000000000000
 11
89.97837817870300
 21
110.6277355398236
 31
0.000000000000000
  0
LINE
  5
50
100
AcDbEntity
  8
A1
  6
CONTINUOUS
 62
7
100
AcDbLine
 10
89.97837817870295
 20
110.6277355398236
 30
0.000000000000000
 11
90.47837817870295
 21
110.1277355398236
 31
0.000000000000000
  0
LINE
  5
51
100
AcDbEntity
  8
A1
  6
CONTINUOUS
 62
7
100
AcDbLine
 10
90.47837817870298
 20
96.12773553982363
 30
0.000000000000000
 11
89.97837817870297
 21
95.62773553982362
 31
0.000000000000000
  0
LINE
  5
52
100
AcDbEntity
  8
A1
  6
CONTINUOUS
 62
7
100
AcDbLine
 10
89.97837817870300
 20
110.6277355398236
 30
0.000000000000000
 11
89.97837817870300
 21
95.62773553982365
 31
0.000000000000000
  0
LINE
  5
53
100
AcDbEntity
  8
A1
  6
CONTINUOUS
 62
7
100
AcDbLine
 10
92.47837817870300
 20
108.1277355398235
 30
0.000000000000000
 11
92.47837817870300
 21
98.12773553982365
 31
0.000000000000000
  0
LINE
  5
54
100
AcDbEntity
  8
A1
  6
CONTINUOUS
 62
7
100
AcDbLine
 10
90.47837817870300
 20
98.12773553982365
 30
0.000000000000000
 11
93.27837817870301
 21
98.12773553982365
 31
0.000000000000000
  0
LINE
  5
55
100
AcDbEntity
  8
A1
  6
CONTINUOUS
 62
7
100
AcDbLine
 10
90.47837817870300
 20
108.1277355398235
 30
0.000000000000000
 11
93.27837817870301
 21
108.1277355398235
 31
0.000000000000000
  0
LINE
  5
56
100
AcDbEntity
  8
A1
  6
CONTINUOUS
 62
7
100
AcDbLine
 10
93.27837817870301
 20
104.6277355398236
 30
0.000000000000000
 11
98.47837817870300
 21
104.6277355398236
 31
0.000000000000000
  0
LINE
  5
57
100
AcDbEntity
  8
A1
  6
CONTINUOUS
 62
7
100
AcDbLine
 10
93.27837817870301
 20
101.6277355398236
 30
0.000000000000000
 11
98.47837817870300
 21
101.6277355398236
 31
0.000000000000000
  0
LINE
  5
58
100
AcDbEntity
  8
A1
  6
CONTINUOUS
 62
7
100
AcDbLine
 10
110.4783781787029
 20
105.1277355398235
 30
0.000000000000000
 11
110.4783781787029
 21
101.1277355398236
 31
0.000000000000000
  0
LINE
  5
59
100
AcDbEntity
  8
A1
  6
CONTINUOUS
 62
7
100
AcDbLine
 10
98.47837817870300
 20
105.1277355398235
 30
0.000000000000000
 11
98.47837817870300
 21
101.1277355398236
 31
0.000000000000000
  0
LINE
  5
5A
100
AcDbEntity
  8
A1
  6
CONTINUOUS
 62
7
100
AcDbLine
 10
98.47837817870300
 20
101.1277355398236
 30
0.000000000000000
 11
110.4783781787029
 21
101.1277355398236
 31
0.000000000000000
  0
LINE
  5
5B
100
AcDbEntity
  8
A1
  6
CONTINUOUS
 62
7
100
AcDbLine
 10
98.47837817870300
 20
105.1277355398235
 30
0.000000000000000
 11
110.4783781787029
 21
105.1277355398235
 31
0.000000000000000
  0
LINE
  5
5C
100
AcDbEntity
  8
A1
  6
CONTINUOUS
 62
7
100
AcDbLine
 10
110.4783781787029
 20
105.1277355398235
 30
0.000000000000000
 11
112.4783781787029
 21
103.1277355398236
 31
0.000000000000000
  0
LINE
  5
5D
100
AcDbEntity
  8
A1
  6
CONTINUOUS
 62
7
100
AcDbLine
 10
112.4783781787029
 20
103.1277355398236
 30
0.000000000000000
 11
110.4783781787029
 21
101.1277355398236
 31
0.000000000000000
  0
LINE
  5
5E
100
AcDbEntity
  8
A4
  6
CENTER
 62
1
100
AcDbLine
 10
173.3423781787029
 20
63.12723553982364
 30
0.000000000000000
 11
173.3423781787029
 21
43.12723553982364
 31
0.000000000000000
  0
LINE
  5
5F
100
AcDbEntity
  8
A4
  6
CENTER
 62
1
100
AcDbLine
 10
183.3423781787030
 20
53.12723553982364
 30
0.000000000000000
 11
163.3423781787029
 21
53.12723553982364
 31
0.000000000000000
  0
LINE
  5
60
100
AcDbEntity
  8
A2
  6
CONTINUOUS
 62
4
100
AcDbLine
 10
98.47837817870300
 20
101.5067355398236
 30
0.000000000000000
 11
110.8573781787030
 21
101.5067355398236
 31
0.000000000000000
  0
LINE
  5
61
100
AcDbEntity
  8
A2
  6
CONTINUOUS
 62
4
100
AcDbLine
 10
98.47837817870300
 20
104.7487355398235
 30
0.000000000000000
 11
110.8573781787030
 21
104.7487355398235
 31
0.000000000000000
  0
LINE
  5
62
100
AcDbEntity
  8
A1
  6
CONTINUOUS
 62
7
100
AcDbLine
 10
14.16857817870300
 20
54.02723553982364
 30
0.000000000000000
 11
29.06017817870299
 21
54.02723553982364
 31
0.000000000000000
  0
LINE
  5
63
100
AcDbEntity
  8
A1
  6
CONTINUOUS
 62
7
100
AcDbLine
 10
14.16857817870300
 20
52.22723553982362
 30
0.000000000000000
 11
29.06017817870299
 21
52.22723553982362
 31
0.000000000000000
  0
LINE
  5
64
100
AcDbEntity
  8
A4
  6
CENTER
 62
1
100
AcDbLine
 10
78.58427817870299
 20
53.12723553982364
 30
0.000000000000000
 11
115.1093781787030
 21
53.12723553982364
 31
0.000000000000000
  0
LINE
  5
65
100
AcDbEntity
  8
A1
  6
CONTINUOUS
 62
7
100
AcDbLine
 10
82.47847817870303
 20
58.62723553982365
 30
0.000000000000000
 11
82.47847817870303
 21
54.02723553982364
 31
0.000000000000000
  0
LINE
  5
66
100
AcDbEntity
  8
A1
  6
CONTINUOUS
 62
7
100
AcDbLine
 10
90.47837817870300
 20
60.12723553982364
 30
0.000000000000000
 11
90.47837817870300
 21
46.12723553982364
 31
0.000000000000000
  0
LINE
  5
67
100
AcDbEntity
  8
A1
  6
CONTINUOUS
 62
7
100
AcDbLine
 10
84.47847817870303
 20
45.62723553982364
 30
0.000000000000000
 11
89.97837817870300
 21
45.62723553982364
 31
0.000000000000000
  0
LINE
  5
68
100
AcDbEntity
  8
A1
  6
CONTINUOUS
 62
7
100
AcDbLine
 10
84.47847817870303
 20
60.62723553982364
 30
0.000000000000000
 11
89.97837817870300
 21
60.62723553982364
 31
0.000000000000000
  0
LINE
  5
69
100
AcDbEntity
  8
A1
  6
CONTINUOUS
 62
7
100
AcDbLine
 10
89.97837817870297
 20
60.62723553982362
 30
0.000000000000000
 11
90.47837817870298
 21
60.12723553982362
 31
0.000000000000000
  0
LINE
  5
6A
100
AcDbEntity
  8
A1
  6
CONTINUOUS
 62
7
100
AcDbLine
 10
90.47837817870297
 20
46.12723553982362
 30
0.000000000000000
 11
89.97837817870297
 21
45.62723553982362
 31
0.000000000000000
  0
LINE
  5
6B
100
AcDbEntity
  8
A1
  6
CONTINUOUS
 62
7
100
AcDbLine
 10
89.97837817870300
 20
60.62723553982364
 30
0.000000000000000
 11
89.97837817870300
 21
45.62723553982364
 31
0.000000000000000
  0
LINE
  5
6C
100
AcDbEntity
  8
A1
  6
CONTINUOUS
 62
7
100
AcDbLine
 10
92.47837817870300
 20
58.12723553982364
 30
0.000000000000000
 11
92.47837817870300
 21
48.12723553982364
 31
0.000000000000000
  0
LINE
  5
6D
100
AcDbEntity
  8
A1
  6
CONTINUOUS
 62
7
100
AcDbLine
 10
90.47837817870300
 20
48.12723553982364
 30
0.000000000000000
 11
93.27837817870301
 21
48.12723553982364
 31
0.000000000000000
  0
LINE
  5
6E
100
AcDbEntity
  8
A1
  6
CONTINUOUS
 62
7
100
AcDbLine
 10
90.47837817870300
 20
58.12723553982364
 30
0.000000000000000
 11
93.27837817870301
 21
58.12723553982364
 31
0.000000000000000
  0
LINE
  5
6F
100
AcDbEntity
  8
A1
  6
CONTINUOUS
 62
7
100
AcDbLine
 10
82.47847817870303
 20
52.22723553982362
 30
0.000000000000000
 11
84.47847817870303
 21
52.22723553982362
 31
0.000000000000000
  0
LINE
  5
70
100
AcDbEntity
  8
A1
  6
CONTINUOUS
 62
7
100
AcDbLine
 10
82.47847817870303
 20
54.02723553982364
 30
0.000000000000000
 11
84.47847817870303
 21
54.02723553982364
 31
0.000000000000000
  0
LINE
  5
71
100
AcDbEntity
  8
A1
  6
CONTINUOUS
 62
7
100
AcDbLine
 10
82.47847817870303
 20
52.22723553982362
 30
0.000000000000000
 11
82.47847817870303
 21
47.62723553982364
 31
0.000000000000000
  0
LINE
  5
72
100
AcDbEntity
  8
A1
  6
CONTINUOUS
 62
7
100
AcDbLine
 10
93.27837817870301
 20
54.62723553982364
 30
0.000000000000000
 11
98.47837817870300
 21
54.62723553982364
 31
0.000000000000000
  0
LINE
  5
73
100
AcDbEntity
  8
A1
  6
CONTINUOUS
 62
7
100
AcDbLine
 10
93.27837817870301
 20
51.62723553982364
 30
0.000000000000000
 11
98.47837817870300
 21
51.62723553982364
 31
0.000000000000000
  0
LINE
  5
74
100
AcDbEntity
  8
A1
  6
CONTINUOUS
 62
7
100
AcDbLine
 10
110.4783781787029
 20
55.12723553982364
 30
0.000000000000000
 11
110.4783781787029
 21
51.12723553982364
 31
0.000000000000000
  0
LINE
  5
75
100
AcDbEntity
  8
A1
  6
CONTINUOUS
 62
7
100
AcDbLine
 10
98.47837817870300
 20
55.12723553982364
 30
0.000000000000000
 11
98.47837817870300
 21
51.12723553982364
 31
0.000000000000000
  0
LINE
  5
76
100
AcDbEntity
  8
A1
  6
CONTINUOUS
 62
7
100
AcDbLine
 10
98.47837817870300
 20
51.12723553982364
 30
0.000000000000000
 11
110.4783781787029
 21
51.12723553982364
 31
0.000000000000000
  0
LINE
  5
77
100
AcDbEntity
  8
A1
  6
CONTINUOUS
 62
7
100
AcDbLine
 10
98.47837817870300
 20
55.12723553982364
 30
0.000000000000000
 11
110.4783781787029
 21
55.12723553982364
 31
0.000000000000000
  0
LINE
  5
78
100
AcDbEntity
  8
A1
  6
CONTINUOUS
 62
7
100
AcDbLine
 10
110.4783781787029
 20
55.12723553982362
 30
0.000000000000000
 11
112.4783781787029
 21
53.12723553982362
 31
0.000000000000000
  0
LINE
  5
79
100
AcDbEntity
  8
A1
  6
CONTINUOUS
 62
7
100
AcDbLine
 10
112.4783781787029
 20
53.12723553982362
 30
0.000000000000000
 11
110.4783781787029
 21
51.12723553982363
 31
0.000000000000000
  0
LINE
  5
7A
100
AcDbEntity
  8
A2
  6
CONTINUOUS
 62
4
100
AcDbLine
 10
98.47837817870300
 20
51.50623553982363
 30
0.000000000000000
 11
110.8573781787030
 21
51.50623553982363
 31
0.000000000000000
  0
LINE
  5
7B
100
AcDbEntity
  8
A2
  6
CONTINUOUS
 62
4
100
AcDbLine
 10
98.47837817870300
 20
54.74823553982363
 30
0.000000000000000
 11
110.8573781787030
 21
54.74823553982363
 31
0.000000000000000
  0
LINE
  5
7C
100
AcDbEntity
  8
A1
  6
CONTINUOUS
 62
7
100
AcDbLine
 10
84.47847817870300
 20
110.3277355398236
 30
0.000000000000000
 11
89.97837817870300
 21
110.3277355398236
 31
0.000000000000000
  0
LINE
  5
7D
100
AcDbEntity
  8
A1
  6
CONTINUOUS
 62
7
100
AcDbLine
 10
84.47847817870303
 20
109.8277355398235
 30
0.000000000000000
 11
89.97837817870300
 21
109.8277355398235
 31
0.000000000000000
  0
LINE
  5
7E
100
AcDbEntity
  8
A1
  6
CONTINUOUS
 62
7
100
AcDbLine
 10
84.67847817870299
 20
109.1277355398235
 30
0.000000000000000
 11
89.97837817870300
 21
109.1277355398235
 31
0.000000000000000
  0
LINE
  5
7F
100
AcDbEntity
  8
A1
  6
CONTINUOUS
 62
7
100
AcDbLine
 10
85.57847817870299
 20
108.2277355398236
 30
0.000000000000000
 11
89.97837817870300
 21
108.2277355398236
 31
0.000000000000000
  0
LINE
  5
80
100
AcDbEntity
  8
A1
  6
CONTINUOUS
 62
7
100
AcDbLine
 10
86.57847817870299
 20
107.2277355398236
 30
0.000000000000000
 11
89.97837817870300
 21
107.2277355398236
 31
0.000000000000000
  0
LINE
  5
81
100
AcDbEntity
  8
A1
  6
CONTINUOUS
 62
7
100
AcDbLine
 10
86.57847817870299
 20
57.22723553982362
 30
0.000000000000000
 11
89.97837817870300
 21
57.22723553982362
 31
0.000000000000000
  0
LINE
  5
82
100
AcDbEntity
  8
A1
  6
CONTINUOUS
 62
7
100
AcDbLine
 10
85.57847817870299
 20
58.22723553982365
 30
0.000000000000000
 11
89.97837817870300
 21
58.22723553982365
 31
0.000000000000000
  0
LINE
  5
83
100
AcDbEntity
  8
A1
  6
CONTINUOUS
 62
7
100
AcDbLine
 10
84.67847817870299
 20
59.12723553982364
 30
0.000000000000000
 11
89.97837817870300
 21
59.12723553982364
 31
0.000000000000000
  0
LINE
  5
84
100
AcDbEntity
  8
A1
  6
CONTINUOUS
 62
7
100
AcDbLine
 10
84.47847817870303
 20
59.82723553982365
 30
0.000000000000000
 11
89.97837817870300
 21
59.82723553982365
 31
0.000000000000000
  0
LINE
  5
85
100
AcDbEntity
  8
A1
  6
CONTINUOUS
 62
7
100
AcDbLine
 10
93.27837817870301
 20
58.12723553982364
 30
0.000000000000000
 11
93.27837817870301
 21
48.12723553982364
 31
0.000000000000000
  0
LINE
  5
86
100
AcDbEntity
  8
A1
  6
CONTINUOUS
 62
7
100
AcDbLine
 10
93.27837817870301
 20
108.1277355398235
 30
0.000000000000000
 11
93.27837817870301
 21
98.12773553982365
 31
0.000000000000000
  0
LINE
  5
87
100
AcDbEntity
  8
A1
  6
CONTINUOUS
 62
7
100
AcDbLine
 10
84.47847817870303
 20
54.02723553982364
 30
0.000000000000000
 11
84.47847817870303
 21
52.22723553982362
 31
0.000000000000000
  0
CIRCLE
  5
88
100
AcDbEntity
  8
A1
  6
CONTINUOUS
 62
7
100
AcDbCircle
 10
21.61437817870300
 20
53.12723553982364
 30
0.000000000000000
 40
7.500000000000000
  0
CIRCLE
  5
89
100
AcDbEntity
  8
A1
  6
CONTINUOUS
 62
7
100
AcDbCircle
 10
173.3423781787029
 20
53.12723553982364
 30
0.000000000000000
 40
7.500000000000000
  0
CIRCLE
  5
8A
100
AcDbEntity
  8
A1
  6
CONTINUOUS
 62
7
100
AcDbCircle
 10
173.3423781787029
 20
53.12723553982364
 30
0.000000000000000
 40
5.000000000000000
  0
CIRCLE
  5
8B
100
AcDbEntity
  8
A1
  6
CONTINUOUS
 62
7
100
AcDbCircle
 10
173.3423781787029
 20
53.12723553982364
 30
0.000000000000000
 40
2.000000000000000
  0
CIRCLE
  5
8C
100
AcDbEntity
  8
A2
  6
CONTINUOUS
 62
4
100
AcDbCircle
 10
173.3423781787029
 20
53.12723553982364
 30
0.000000000000000
 40
1.620999999999999
  0
LINE
  5
8D
100
AcDbEntity
  8
A1
  6
CONTINUOUS
 62
7
100
AcDbLine
 10
82.47847817870300
 20
108.6277355398236
 30
0.000000000000000
 11
84.47847817870301
 21
110.6277355398236
 31
0.000000000000000
  0
LINE
  5
8E
100
AcDbEntity
  8
A1
  6
CONTINUOUS
 62
7
100
AcDbLine
 10
82.47847817870300
 20
97.62773553982362
 30
0.000000000000000
 11
84.47847817870300
 21
95.62773553982362
 31
0.000000000000000
  0
LINE
  5
8F
100
AcDbEntity
  8
A1
  6
CONTINUOUS
 62
7
100
AcDbLine
 10
82.47847817870303
 20
58.62723553982366
 30
0.000000000000000
 11
84.47847817870303
 21
60.62723553982366
 31
0.000000000000000
  0
LINE
  5
90
100
AcDbEntity
  8
A1
  6
CONTINUOUS
 62
7
100
AcDbLine
 10
82.47847817870300
 20
47.62723553982363
 30
0.000000000000000
 11
84.47847817870300
 21
45.62723553982363
 31
0.000000000000000
  0
LINE
  5
91
100
AcDbEntity
  8
A1
  6
CONTINUOUS
 62
7
100
AcDbLine
 10
84.47847817870303
 20
60.62723553982364
 30
0.000000000000000
 11
84.47847817870303
 21
54.02723553982364
 31
0.000000000000000
  0
LINE
  5
92
100
AcDbEntity
  8
A1
  6
CONTINUOUS
 62
7
100
AcDbLine
 10
84.47847817870303
 20
52.22723553982362
 30
0.000000000000000
 11
84.47847817870303
 21
45.62723553982364
 31
0.000000000000000
  0
LINE
  5
93
100
AcDbEntity
  8
A1
  6
CONTINUOUS
 62
7
100
AcDbLine
 10
84.47847817870303
 20
110.6277355398236
 30
0.000000000000000
 11
84.47847817870303
 21
95.62773553982365
 31
0.000000000000000
  0
LINE
  5
94
100
AcDbEntity
  8
A1
  6
CONTINUOUS
 62
7
100
AcDbLine
 10
84.47847817870303
 20
60.32723553982365
 30
0.000000000000000
 11
89.97837817870300
 21
60.32723553982365
 31
0.000000000000000
  0
ARC
  5
95
100
AcDbEntity
  8
A1
  6
CONTINUOUS
 62
7
100
AcDbCircle
 10
21.61437817870300
 20
53.12723553982364
 30
0.000000000000000
 40
5.500000000000028
100
AcDbArc
 50
9.418027219954324
 51
170.5819727800457
  0
ARC
  5
96
100
AcDbEntity
  8
A1
  6
CONTINUOUS
 62
7
100
AcDbCircle
 10
21.61437817870300
 20
53.12723553982364
 30
0.000000000000000
 40
5.500000000000028
100
AcDbArc
 50
189.4180272199544
 51
350.5819727800456
  0
ENDSEC
  0
SECTION
  2
OBJECTS
  0
DICTIONARY
  5
C2
100
AcDbDictionary
  3
ACAD_GROUP
350
C3
  3
ACAD_MLINESTYLE
350
C4
  0
DICTIONARY
  5
C3
102
{ACAD_REACTORS
330
C2
102
}
100
AcDbDictionary
  0
DICTIONARY
  5
C4
102
{ACAD_REACTORS
330
C2
102
}
100
AcDbDictionary
  3
STANDARD
350
C5
  0
MLINESTYLE
  5
C5
102
{ACAD_REACTORS
330
C4
102
}
100
AcDbMlineStyle
  2
STANDARD
 70
     0
  3

 62
   256
 51
90.00
 52
90.00
 71
     2
 49
0.50
 62
   256
  6
BYLAYER
 49
-0.50
 62
   256
  6
BYLAYER
  0
ENDSEC
  0
EOF
