  0
SECTION
  2
HEADER
  9
$ACADVER
  1
AC1015
  9
$ACADMAINTVER
 70
    20
  9
$DWGCODEPAGE
  3
ANSI_932
  9
$INSBASE
 10
0.0
 20
0.0
 30
0.0
  9
$EXTMIN
 10
10.0
 20
9.999999999999998
 30
0.0
  9
$EXTMAX
 10
370.9069979999999
 20
234.7753319999999
 30
0.0
  9
$LIMMIN
 10
0.0
 20
0.0
  9
$LIMMAX
 10
396.0
 20
273.0
  9
$ORTHOMODE
 70
     1
  9
$REGENMODE
 70
     1
  9
$FILLMODE
 70
     1
  9
$QTEXTMODE
 70
     0
  9
$MIRRTEXT
 70
     1
  9
$LTSCALE
 40
20.0
  9
$ATTMODE
 70
     1
  9
$TEXTSIZE
 40
5.0
  9
$TRACEWID
 40
1.0
  9
$TEXTSTYLE
  7
STANDARD
  9
$CLAYER
  8
0
  9
$CELTYPE
  6
BYLAYER
  9
$CECOLOR
 62
   256
  9
$CELTSCALE
 40
1.0
  9
$DISPSILH
 70
     0
  9
$DIMSCALE
 40
1.0
  9
$DIMASZ
 40
3.0
  9
$DIMEXO
 40
1.0
  9
$DIMDLI
 40
10.0
  9
$DIMRND
 40
0.0
  9
$DIMDLE
 40
0.0
  9
$DIMEXE
 40
1.0
  9
$DIMTP
 40
0.0
  9
$DIMTM
 40
0.0
  9
$DIMTXT
 40
3.2
  9
$DIMCEN
 40
0.0
  9
$DIMTSZ
 40
0.0
  9
$DIMTOL
 70
     0
  9
$DIMLIM
 70
     0
  9
$DIMTIH
 70
     0
  9
$DIMTOH
 70
     0
  9
$DIMSE1
 70
     0
  9
$DIMSE2
 70
     0
  9
$DIMTAD
 70
     3
  9
$DIMZIN
 70
     9
  9
$DIMBLK
  1

  9
$DIMASO
 70
     1
  9
$DIMSHO
 70
     1
  9
$DIMPOST
  1

  9
$DIMAPOST
  1

  9
$DIMALT
 70
     0
  9
$DIMALTD
 70
     2
  9
$DIMALTF
 40
25.4
  9
$DIMLFAC
 40
1.0
  9
$DIMTOFL
 70
     1
  9
$DIMTVP
 40
0.0
  9
$DIMTIX
 70
     0
  9
$DIMSOXD
 70
     0
  9
$DIMSAH
 70
     1
  9
$DIMBLK1
  1

  9
$DIMBLK2
  1

  9
$DIMSTYLE
  2
STANDARD
  9
$DIMCLRD
 70
     0
  9
$DIMCLRE
 70
     0
  9
$DIMCLRT
 70
     0
  9
$DIMTFAC
 40
1.0
  9
$DIMGAP
 40
1.0
  9
$DIMJUST
 70
     0
  9
$DIMSD1
 70
     0
  9
$DIMSD2
 70
     0
  9
$DIMTOLJ
 70
     1
  9
$DIMTZIN
 70
     0
  9
$DIMALTZ
 70
     0
  9
$DIMALTTZ
 70
     0
  9
$DIMUPT
 70
     0
  9
$DIMDEC
 70
     4
  9
$DIMTDEC
 70
     4
  9
$DIMALTU
 70
     2
  9
$DIMALTTD
 70
     2
  9
$DIMTXSTY
  7
STANDARD
  9
$DIMAUNIT
 70
     0
  9
$DIMADEC
 70
     0
  9
$DIMALTRND
 40
0.0
  9
$DIMAZIN
 70
     0
  9
$DIMDSEP
 70
    46
  9
$DIMATFIT
 70
     3
  9
$DIMFRAC
 70
     0
  9
$DIMLDRBLK
  1

  9
$DIMLUNIT
 70
     2
  9
$DIMLWD
 70
    -2
  9
$DIMLWE
 70
    -2
  9
$DIMTMOVE
 70
     0
  9
$LUNITS
 70
     2
  9
$LUPREC
 70
     4
  9
$SKETCHINC
 40
1.0
  9
$FILLETRAD
 40
1.0
  9
$AUNITS
 70
     0
  9
$AUPREC
 70
     2
  9
$MENU
  1
.
  9
$ELEVATION
 40
0.0
  9
$PELEVATION
 40
0.0
  9
$THICKNESS
 40
0.0
  9
$LIMCHECK
 70
     0
  9
$CHAMFERA
 40
10.0
  9
$CHAMFERB
 40
10.0
  9
$CHAMFERC
 40
0.0
  9
$CHAMFERD
 40
0.0
  9
$SKPOLY
 70
     0
  9
$TDCREATE
 40
2451066.502430903
  9
$TDUCREATE
 40
2451066.127430903
  9
$TDUPDATE
 40
2457192.602998808
  9
$TDUUPDATE
 40
2457192.227998808
  9
$TDINDWG
 40
0.0000139352
  9
$TDUSRTIMER
 40
0.0000134491
  9
$USRTIMER
 70
     1
  9
$ANGBASE
 50
0.0
  9
$ANGDIR
 70
     0
  9
$PDMODE
 70
     0
  9
$PDSIZE
 40
0.0
  9
$PLINEWID
 40
0.0
  9
$SPLFRAME
 70
     0
  9
$SPLINETYPE
 70
     6
  9
$SPLINESEGS
 70
     8
  9
$HANDSEED
  5
98BD
  9
$SURFTAB1
 70
     6
  9
$SURFTAB2
 70
     6
  9
$SURFTYPE
 70
     6
  9
$SURFU
 70
     6
  9
$SURFV
 70
     6
  9
$UCSBASE
  2

  9
$UCSNAME
  2

  9
$UCSORG
 10
0.0
 20
0.0
 30
0.0
  9
$UCSXDIR
 10
1.0
 20
0.0
 30
0.0
  9
$UCSYDIR
 10
0.0
 20
1.0
 30
0.0
  9
$UCSORTHOREF
  2

  9
$UCSORTHOVIEW
 70
     0
  9
$UCSORGTOP
 10
0.0
 20
0.0
 30
0.0
  9
$UCSORGBOTTOM
 10
0.0
 20
0.0
 30
0.0
  9
$UCSORGLEFT
 10
0.0
 20
0.0
 30
0.0
  9
$UCSORGRIGHT
 10
0.0
 20
0.0
 30
0.0
  9
$UCSORGFRONT
 10
0.0
 20
0.0
 30
0.0
  9
$UCSORGBACK
 10
0.0
 20
0.0
 30
0.0
  9
$PUCSBASE
  2

  9
$PUCSNAME
  2

  9
$PUCSORG
 10
0.0
 20
0.0
 30
0.0
  9
$PUCSXDIR
 10
1.0
 20
0.0
 30
0.0
  9
$PUCSYDIR
 10
0.0
 20
1.0
 30
0.0
  9
$PUCSORTHOREF
  2

  9
$PUCSORTHOVIEW
 70
     0
  9
$PUCSORGTOP
 10
0.0
 20
0.0
 30
0.0
  9
$PUCSORGBOTTOM
 10
0.0
 20
0.0
 30
0.0
  9
$PUCSORGLEFT
 10
0.0
 20
0.0
 30
0.0
  9
$PUCSORGRIGHT
 10
0.0
 20
0.0
 30
0.0
  9
$PUCSORGFRONT
 10
0.0
 20
0.0
 30
0.0
  9
$PUCSORGBACK
 10
0.0
 20
0.0
 30
0.0
  9
$USERI1
 70
     0
  9
$USERI2
 70
     0
  9
$USERI3
 70
     0
  9
$USERI4
 70
     0
  9
$USERI5
 70
     0
  9
$USERR1
 40
0.0
  9
$USERR2
 40
0.0
  9
$USERR3
 40
0.0
  9
$USERR4
 40
0.0
  9
$USERR5
 40
0.0
  9
$WORLDVIEW
 70
     1
  9
$SHADEDGE
 70
     3
  9
$SHADEDIF
 70
    70
  9
$TILEMODE
 70
     1
  9
$MAXACTVP
 70
    16
  9
$PINSBASE
 10
0.0
 20
0.0
 30
0.0
  9
$PLIMCHECK
 70
     0
  9
$PEXTMIN
 10
1.000000000000000E+20
 20
1.000000000000000E+20
 30
1.000000000000000E+20
  9
$PEXTMAX
 10
-1.000000000000000E+20
 20
-1.000000000000000E+20
 30
-1.000000000000000E+20
  9
$PLIMMIN
 10
0.0
 20
0.0
  9
$PLIMMAX
 10
420.0
 20
297.0
  9
$UNITMODE
 70
     0
  9
$VISRETAIN
 70
     0
  9
$PLINEGEN
 70
     0
  9
$PSLTSCALE
 70
     0
  9
$TREEDEPTH
 70
  3020
  9
$CMLSTYLE
  2
STANDARD
  9
$CMLJUST
 70
     0
  9
$CMLSCALE
 40
1.0
  9
$PROXYGRAPHICS
 70
     1
  9
$MEASUREMENT
 70
     0
  9
$CELWEIGHT
370
    -1
  9
$ENDCAPS
280
     0
  9
$JOINSTYLE
280
     0
  9
$LWDISPLAY
290
     0
  9
$INSUNITS
 70
     0
  9
$HYPERLINKBASE
  1

  9
$STYLESHEET
  1

  9
$XEDIT
290
     1
  9
$CEPSNTYPE
380
     0
  9
$PSTYLEMODE
290
     1
  9
$FINGERPRINTGUID
  2
{11FED17A-1104-407C-A30A-B296AE9D1F52}
  9
$VERSIONGUID
  2
{91CA657A-2F99-4B20-97B9-4A95B88A7155}
  9
$EXTNAMES
290
     1
  9
$PSVPSCALE
 40
0.0
  9
$OLESTARTUP
290
     0
  0
ENDSEC
  0
SECTION
  2
CLASSES
  0
CLASS
  1
ACDBDICTIONARYWDFLT
  2
AcDbDictionaryWithDefault
  3
ObjectDBX Classes
 90
        0
280
     0
281
     0
  0
CLASS
  1
ACDBPLACEHOLDER
  2
AcDbPlaceHolder
  3
ObjectDBX Classes
 90
        0
280
     0
281
     0
  0
CLASS
  1
LAYOUT
  2
AcDbLayout
  3
ObjectDBX Classes
 90
        0
280
     0
281
     0
  0
CLASS
  1
DICTIONARYVAR
  2
AcDbDictionaryVar
  3
ObjectDBX Classes
 90
        0
280
     0
281
     0
  0
CLASS
  1
MATERIAL
  2
AcDbMaterial
  3
ObjectDBX Classes
 90
     1153
280
     0
281
     0
  0
CLASS
  1
VISUALSTYLE
  2
AcDbVisualStyle
  3
ObjectDBX Classes
 90
     4095
280
     0
281
     0
  0
CLASS
  1
TABLESTYLE
  2
AcDbTableStyle
  3
ObjectDBX Classes
 90
     4095
280
     0
281
     0
  0
CLASS
  1
SCALE
  2
AcDbScale
  3
ObjectDBX Classes
 90
     1153
280
     0
281
     0
  0
CLASS
  1
MLEADERSTYLE
  2
AcDbMLeaderStyle
  3
ACDB_MLEADERSTYLE_CLASS
 90
     4095
280
     0
281
     0
  0
CLASS
  1
ACDBSECTIONVIEWSTYLE
  2
AcDbSectionViewStyle
  3
ObjectDBX Classes
 90
     1025
280
     0
281
     0
  0
CLASS
  1
ACDBDETAILVIEWSTYLE
  2
AcDbDetailViewStyle
  3
ObjectDBX Classes
 90
     1025
280
     0
281
     0
  0
CLASS
  1
CELLSTYLEMAP
  2
AcDbCellStyleMap
  3
ObjectDBX Classes
 90
     1152
280
     0
281
     0
  0
ENDSEC
  0
SECTION
  2
TABLES
  0
TABLE
  2
VPORT
  5
962B
330
0
100
AcDbSymbolTable
 70
     1
  0
VPORT
  5
9806
330
962B
100
AcDbSymbolTableRecord
100
AcDbViewportTableRecord
  2
*ACTIVE
 70
     0
 10
0.0
 20
0.0
 11
1.0
 21
1.0
 12
258.5496492613149
 22
122.3888632290633
 13
0.0
 23
0.0
 14
10.0
 24
10.0
 15
10.0
 25
10.0
 16
0.0
 26
0.0
 36
1.0
 17
0.0
 27
0.0
 37
0.0
 40
227.3135195102451
 41
1.899603698811096
 42
50.0
 43
0.0
 44
0.0
 50
0.0
 51
0.0
 71
     0
 72
   100
 73
     1
 74
     0
 75
     0
 76
     0
 77
     0
 78
     0
281
     0
 65
     1
110
0.0
120
0.0
130
0.0
111
1.0
121
0.0
131
0.0
112
0.0
122
1.0
132
0.0
 79
     0
146
0.0
1001
ACAD_NAV_VCDISPLAY
1070
     3
  0
ENDTAB
  0
TABLE
  2
LTYPE
  5
9628
330
0
100
AcDbSymbolTable
 70
     4
  0
LTYPE
  5
9636
330
9628
100
AcDbSymbolTableRecord
100
AcDbLinetypeTableRecord
  2
BYBLOCK
 70
     0
  3

 72
    65
 73
     0
 40
0.0
  0
LTYPE
  5
9637
330
9628
100
AcDbSymbolTableRecord
100
AcDbLinetypeTableRecord
  2
BYLAYER
 70
     0
  3

 72
    65
 73
     0
 40
0.0
  0
LTYPE
  5
9638
330
9628
100
AcDbSymbolTableRecord
100
AcDbLinetypeTableRecord
  2
CONTINUOUS
 70
     0
  3
Solid line
 72
    65
 73
     0
 40
0.0
  0
LTYPE
  5
9646
330
9628
100
AcDbSymbolTableRecord
100
AcDbLinetypeTableRecord
  2
DASHED
 70
     0
  3
__ __ __ __ __ __ __ __ __ __ __ __ __ __ __ __
 72
    65
 73
     2
 40
0.75
 49
0.5
 74
     0
 49
-0.25
 74
     0
  0
LTYPE
  5
9647
330
9628
100
AcDbSymbolTableRecord
100
AcDbLinetypeTableRecord
  2
CENTER
 70
     0
  3
____ _ ____ _ ____ _ ____ _ ____ _ ____ _ ____ 
 72
    65
 73
     4
 40
2.0
 49
1.25
 74
     0
 49
-0.25
 74
     0
 49
0.25
 74
     0
 49
-0.25
 74
     0
  0
LTYPE
  5
9648
330
9628
100
AcDbSymbolTableRecord
100
AcDbLinetypeTableRecord
  2
PHANTOM
 70
     0
  3
______  __  __  ______  __  __  ______  __  __ 
 72
    65
 73
     6
 40
2.5
 49
1.25
 74
     0
 49
-0.25
 74
     0
 49
0.25
 74
     0
 49
-0.25
 74
     0
 49
0.25
 74
     0
 49
-0.25
 74
     0
  0
ENDTAB
  0
TABLE
  2
LAYER
  5
9625
330
0
100
AcDbSymbolTable
 70
     8
  0
LAYER
  5
9633
102
{ACAD_XDICTIONARY
360
9861
102
}
330
9625
100
AcDbSymbolTableRecord
100
AcDbLayerTableRecord
  2
0
 70
     0
 62
     7
  6
CONTINUOUS
370
    -3
390
980F
  0
LAYER
  5
9649
102
{ACAD_XDICTIONARY
360
9863
102
}
330
9625
100
AcDbSymbolTableRecord
100
AcDbLayerTableRecord
  2
4
 70
     0
 62
     1
  6
CENTER
370
    -3
390
980F
  0
LAYER
  5
964A
102
{ACAD_XDICTIONARY
360
9865
102
}
330
9625
100
AcDbSymbolTableRecord
100
AcDbLayerTableRecord
  2
5
 70
     0
 62
     6
  6
PHANTOM
370
    -3
390
980F
  0
LAYER
  5
964B
102
{ACAD_XDICTIONARY
360
9867
102
}
330
9625
100
AcDbSymbolTableRecord
100
AcDbLayerTableRecord
  2
1
 70
     0
 62
     7
  6
CONTINUOUS
370
    -3
390
980F
  0
LAYER
  5
964C
102
{ACAD_XDICTIONARY
360
9869
102
}
330
9625
100
AcDbSymbolTableRecord
100
AcDbLayerTableRecord
  2
2
 70
     0
 62
     4
  6
CONTINUOUS
370
    -3
390
980F
  0
LAYER
  5
964D
102
{ACAD_XDICTIONARY
360
986B
102
}
330
9625
100
AcDbSymbolTableRecord
100
AcDbLayerTableRecord
  2
3
 70
     0
 62
     2
  6
DASHED
370
    -3
390
980F
  0
LAYER
  5
964E
102
{ACAD_XDICTIONARY
360
986D
102
}
330
9625
100
AcDbSymbolTableRecord
100
AcDbLayerTableRecord
  2
6
 70
     0
 62
     5
  6
CONTINUOUS
370
    -3
390
980F
  0
LAYER
  5
964F
102
{ACAD_XDICTIONARY
360
986F
102
}
330
9625
100
AcDbSymbolTableRecord
100
AcDbLayerTableRecord
  2
7
 70
     0
 62
     3
  6
CONTINUOUS
370
    -3
390
980F
  0
ENDTAB
  0
TABLE
  2
STYLE
  5
9626
330
0
100
AcDbSymbolTable
 70
     1
  0
STYLE
  5
9634
330
9626
100
AcDbSymbolTableRecord
100
AcDbTextStyleTableRecord
  2
STANDARD
 70
     0
 40
0.0
 41
1.0
 50
0.0
 71
     0
 42
5.0
  3
txt
  4

  0
ENDTAB
  0
TABLE
  2
VIEW
  5
9629
330
0
100
AcDbSymbolTable
 70
     0
  0
ENDTAB
  0
TABLE
  2
UCS
  5
962A
330
0
100
AcDbSymbolTable
 70
     0
  0
ENDTAB
  0
TABLE
  2
APPID
  5
962C
330
0
100
AcDbSymbolTable
 70
     3
  0
APPID
  5
9635
330
962C
100
AcDbSymbolTableRecord
100
AcDbRegAppTableRecord
  2
ACAD
 70
     0
  0
APPID
  5
987B
330
962C
100
AcDbSymbolTableRecord
100
AcDbRegAppTableRecord
  2
ACAD_NAV_VCDISPLAY
 70
     0
  0
APPID
  5
98B4
330
962C
100
AcDbSymbolTableRecord
100
AcDbRegAppTableRecord
  2
ACAD_MLEADERVER
 70
     0
  0
ENDTAB
  0
TABLE
  2
DIMSTYLE
  5
962D
330
0
100
AcDbSymbolTable
 70
     1
100
AcDbDimStyleTable
 71
     0
  0
DIMSTYLE
105
9651
330
962D
100
AcDbSymbolTableRecord
100
AcDbDimStyleTableRecord
  2
STANDARD
 70
     0
 41
3.0
 42
1.0
 43
10.0
 44
1.0
 73
     0
 74
     0
 77
     3
 78
     9
140
3.2
141
0.0
147
1.0
172
     1
173
     1
284
     9
285
     9
286
     9
340
9634
  0
ENDTAB
  0
TABLE
  2
BLOCK_RECORD
  5
9624
330
0
100
AcDbSymbolTable
 70
     0
  0
BLOCK_RECORD
  5
9641
102
{ACAD_XDICTIONARY
360
9809
102
}
330
9624
100
AcDbSymbolTableRecord
100
AcDbBlockTableRecord
  2
*MODEL_SPACE
340
985D
  0
BLOCK_RECORD
  5
963D
102
{ACAD_XDICTIONARY
360
9807
102
}
330
9624
100
AcDbSymbolTableRecord
100
AcDbBlockTableRecord
  2
*PAPER_SPACE
340
985E
  0
ENDTAB
  0
ENDSEC
  0
SECTION
  2
BLOCKS
  0
BLOCK
  5
9642
330
9641
100
AcDbEntity
  8
0
100
AcDbBlockBegin
  2
*MODEL_SPACE
 70
     0
 10
0.0
 20
0.0
 30
0.0
  3
*MODEL_SPACE
  1

  0
ENDBLK
  5
9643
330
9641
100
AcDbEntity
  8
0
100
AcDbBlockEnd
  0
BLOCK
  5
963E
330
963D
100
AcDbEntity
 67
     1
  8
0
100
AcDbBlockBegin
  2
*PAPER_SPACE
 70
     0
 10
0.0
 20
0.0
 30
0.0
  3
*PAPER_SPACE
  1

  0
ENDBLK
  5
963F
330
963D
100
AcDbEntity
 67
     1
  8
0
100
AcDbBlockEnd
  0
ENDSEC
  0
SECTION
  2
ENTITIES
  0
TEXT
  5
9659
330
9641
100
AcDbEntity
  8
7
  6
Continuous
100
AcDbText
 10
10.0
 20
18.0
 30
0.0
 40
3.0
  1
TYPE No.TL-53
100
AcDbText
  0
TEXT
  5
965A
330
9641
100
AcDbEntity
  8
7
  6
Continuous
100
AcDbText
 10
10.0
 20
26.0
 30
0.0
 40
3.0
  1
CODE No.1109
100
AcDbText
  0
TEXT
  5
965B
330
9641
100
AcDbEntity
  8
1
  6
Continuous
100
AcDbText
 10
10.0
 20
10.0
 30
0.0
 40
1.399999999999999
  1
LAYER
100
AcDbText
  0
TEXT
  5
965C
330
9641
100
AcDbEntity
  8
1
  6
Continuous
100
AcDbText
 10
17.97951099999998
 20
10.04873699999998
 30
0.0
 40
1.399999999999999
  1
1
100
AcDbText
  0
TEXT
  5
965D
330
9641
100
AcDbEntity
  8
7
  6
Continuous
100
AcDbText
 10
29.97951099999999
 20
10.04873699999998
 30
0.0
 40
1.399999999999999
  1
7
100
AcDbText
  0
TEXT
  5
965E
330
9641
100
AcDbEntity
  8
4
  6
CENTER
100
AcDbText
 10
23.97951099999999
 20
10.04873699999998
 30
0.0
 40
1.399999999999999
  1
4
100
AcDbText
  0
TEXT
  5
965F
330
9641
100
AcDbEntity
  8
3
  6
DASHED
100
AcDbText
 10
21.979511
 20
10.04873699999998
 30
0.0
 40
1.399999999999999
  1
3
100
AcDbText
  0
TEXT
  5
9660
330
9641
100
AcDbEntity
  8
2
  6
Continuous
100
AcDbText
 10
19.97951099999999
 20
10.04873699999998
 30
0.0
 40
1.399999999999999
  1
2
100
AcDbText
  0
TEXT
  5
9661
330
9641
100
AcDbEntity
  8
6
  6
Continuous
100
AcDbText
 10
27.979511
 20
10.04873699999998
 30
0.0
 40
1.399999999999999
  1
6
100
AcDbText
  0
TEXT
  5
9662
330
9641
100
AcDbEntity
  8
5
  6
PHANTOM
100
AcDbText
 10
25.97951099999999
 20
10.04873699999998
 30
0.0
 40
1.399999999999999
  1
5
100
AcDbText
  0
LINE
  5
9663
330
9641
100
AcDbEntity
  8
1
  6
Continuous
100
AcDbLine
 10
105.906998
 20
162.3533319999999
 30
0.0
 11
85.90699800000001
 21
162.3533319999999
 31
0.0
  0
LINE
  5
9664
330
9641
100
AcDbEntity
  8
1
  6
Continuous
100
AcDbLine
 10
110.906998
 20
157.3533319999999
 30
0.0
 11
110.906998
 21
143.6033319999999
 31
0.0
  0
LINE
  5
9665
330
9641
100
AcDbEntity
  8
1
  6
Continuous
100
AcDbLine
 10
80.90699800000001
 20
157.3533319999999
 30
0.0
 11
80.90699800000001
 21
143.6033319999999
 31
0.0
  0
LINE
  5
9666
330
9641
100
AcDbEntity
  8
4
  6
CENTER
100
AcDbLine
 10
110.406998
 20
157.853332
 30
0.0
 11
102.4069979999999
 21
157.853332
 31
0.0
  0
LINE
  5
9667
330
9641
100
AcDbEntity
  8
4
  6
CENTER
100
AcDbLine
 10
106.4069979999999
 20
161.853332
 30
0.0
 11
106.4069979999999
 21
153.8533319999999
 31
0.0
  0
LINE
  5
9668
330
9641
100
AcDbEntity
  8
4
  6
CENTER
100
AcDbLine
 10
85.406998
 20
161.853332
 30
0.0
 11
85.406998
 21
153.8533319999999
 31
0.0
  0
LINE
  5
9669
330
9641
100
AcDbEntity
  8
4
  6
CENTER
100
AcDbLine
 10
81.406998
 20
157.853332
 30
0.0
 11
89.406998
 21
157.853332
 31
0.0
  0
LINE
  5
966A
330
9641
100
AcDbEntity
  8
1
  6
Continuous
100
AcDbLine
 10
88.906998
 20
147.653332
 30
0.0
 11
102.906998
 21
147.653332
 31
0.0
  0
LINE
  5
966B
330
9641
100
AcDbEntity
  8
1
  6
Continuous
100
AcDbLine
 10
88.906998
 20
155.153332
 30
0.0
 11
88.906998
 21
147.653332
 31
0.0
  0
LINE
  5
966C
330
9641
100
AcDbEntity
  8
1
  6
Continuous
100
AcDbLine
 10
102.906998
 20
155.153332
 30
0.0
 11
102.906998
 21
147.653332
 31
0.0
  0
LINE
  5
966D
330
9641
100
AcDbEntity
  8
1
  6
Continuous
100
AcDbLine
 10
90.406998
 20
154.3533319999999
 30
0.0
 11
101.4069979999999
 21
154.3533319999999
 31
0.0
  0
LINE
  5
966E
330
9641
100
AcDbEntity
  8
1
  6
Continuous
100
AcDbLine
 10
90.406998
 20
156.653332
 30
0.0
 11
101.4069979999999
 21
156.653332
 31
0.0
  0
LINE
  5
966F
330
9641
100
AcDbEntity
  8
1
  6
Continuous
100
AcDbLine
 10
110.906998
 20
232.7753319999999
 30
0.0
 11
110.906998
 21
231.775332
 31
0.0
  0
LINE
  5
9670
330
9641
100
AcDbEntity
  8
1
  6
Continuous
100
AcDbLine
 10
80.90699800000001
 20
232.7753319999999
 30
0.0
 11
80.90699800000001
 21
231.775332
 31
0.0
  0
LINE
  5
9671
330
9641
100
AcDbEntity
  8
1
  6
Continuous
100
AcDbLine
 10
110.906998
 20
232.7753319999999
 30
0.0
 11
80.90699800000001
 21
232.7753319999999
 31
0.0
  0
LINE
  5
9672
330
9641
100
AcDbEntity
  8
1
  6
Continuous
100
AcDbLine
 10
110.906998
 20
231.775332
 30
0.0
 11
80.90699800000001
 21
231.775332
 31
0.0
  0
LINE
  5
9673
330
9641
100
AcDbEntity
  8
1
  6
Continuous
100
AcDbLine
 10
101.4069979999999
 20
225.275332
 30
0.0
 11
90.406998
 21
225.275332
 31
0.0
  0
LINE
  5
9674
330
9641
100
AcDbEntity
  8
1
  6
Continuous
100
AcDbLine
 10
102.906998
 20
231.775332
 30
0.0
 11
102.906998
 21
226.775332
 31
0.0
  0
LINE
  5
9675
330
9641
100
AcDbEntity
  8
1
  6
Continuous
100
AcDbLine
 10
88.906998
 20
231.775332
 30
0.0
 11
88.906998
 21
226.775332
 31
0.0
  0
LINE
  5
9676
330
9641
100
AcDbEntity
  8
1
  6
Continuous
100
AcDbLine
 10
222.8889979999999
 20
162.3533319999999
 30
0.0
 11
223.8889979999999
 21
162.3533319999999
 31
0.0
  0
LINE
  5
9677
330
9641
100
AcDbEntity
  8
1
  6
Continuous
100
AcDbLine
 10
222.8889979999999
 20
142.8533319999999
 30
0.0
 11
223.8889979999999
 21
142.8533319999999
 31
0.0
  0
LINE
  5
9678
330
9641
100
AcDbEntity
  8
1
  6
Continuous
100
AcDbLine
 10
223.8889979999999
 20
162.3533319999999
 30
0.0
 11
223.8889979999999
 21
142.8533319999999
 31
0.0
  0
LINE
  5
9679
330
9641
100
AcDbEntity
  8
1
  6
Continuous
100
AcDbLine
 10
222.8889979999999
 20
162.3533319999999
 30
0.0
 11
222.8889979999999
 21
142.8533319999999
 31
0.0
  0
LINE
  5
967A
330
9641
100
AcDbEntity
  8
1
  6
Continuous
100
AcDbLine
 10
216.3889979999999
 20
154.3533319999999
 30
0.0
 11
217.3489979999999
 21
154.634332
 31
0.0
  0
LINE
  5
967B
330
9641
100
AcDbEntity
  8
1
  6
Continuous
100
AcDbLine
 10
101.4069979999999
 20
154.634332
 30
0.0
 11
90.406998
 21
154.634332
 31
0.0
  0
LINE
  5
967C
330
9641
100
AcDbEntity
  8
1
  6
Continuous
100
AcDbLine
 10
101.4069979999999
 20
226.2353319999999
 30
0.0
 11
90.406998
 21
226.2353319999999
 31
0.0
  0
LINE
  5
967D
330
9641
100
AcDbEntity
  8
4
  6
CENTER
100
AcDbLine
 10
25.906898
 20
154.392332
 30
0.0
 11
25.906898
 21
100.1773319999998
 31
0.0
  0
LINE
  5
967E
330
9641
100
AcDbEntity
  8
4
  6
CENTER
100
AcDbLine
 10
25.906898
 20
234.7753319999999
 30
0.0
 11
25.906898
 21
220.1143319999999
 31
0.0
  0
LINE
  5
967F
330
9641
100
AcDbEntity
  8
1
  6
Continuous
100
AcDbLine
 10
40.15689799999999
 20
142.8533319999999
 30
0.0
 11
38.656898
 21
142.8533319999999
 31
0.0
  0
LINE
  5
9680
330
9641
100
AcDbEntity
  8
1
  6
Continuous
100
AcDbLine
 10
35.90689799999999
 20
107.3533319999999
 30
0.0
 11
33.906898
 21
107.3533319999999
 31
0.0
  0
LINE
  5
9681
330
9641
100
AcDbEntity
  8
1
  6
Continuous
100
AcDbLine
 10
40.90689799999998
 20
142.103332
 30
0.0
 11
40.90689799999998
 21
112.3533319999999
 31
0.0
  0
LINE
  5
9682
330
9641
100
AcDbEntity
  8
1
  6
Continuous
100
AcDbLine
 10
10.906898
 20
142.103332
 30
0.0
 11
10.906898
 21
112.3533319999999
 31
0.0
  0
LINE
  5
9683
330
9641
100
AcDbEntity
  8
4
  6
CENTER
100
AcDbLine
 10
39.906898
 20
111.3533319999999
 30
0.0
 11
32.90689799999999
 21
111.3533319999999
 31
0.0
  0
LINE
  5
9684
330
9641
100
AcDbEntity
  8
4
  6
CENTER
100
AcDbLine
 10
36.406898
 20
114.853332
 30
0.0
 11
36.406898
 21
107.853332
 31
0.0
  0
LINE
  5
9685
330
9641
100
AcDbEntity
  8
4
  6
CENTER
100
AcDbLine
 10
11.906898
 20
111.3533319999999
 30
0.0
 11
18.906898
 21
111.3533319999999
 31
0.0
  0
LINE
  5
9686
330
9641
100
AcDbEntity
  8
4
  6
CENTER
100
AcDbLine
 10
15.406898
 20
114.853332
 30
0.0
 11
15.406898
 21
107.853332
 31
0.0
  0
LINE
  5
9687
330
9641
100
AcDbEntity
  8
1
  6
Continuous
100
AcDbLine
 10
173.9539979999999
 20
107.3533319999999
 30
0.0
 11
174.9539979999999
 21
107.3533319999999
 31
0.0
  0
LINE
  5
9688
330
9641
100
AcDbEntity
  8
1
  6
Continuous
100
AcDbLine
 10
174.9539979999999
 20
142.8533319999999
 30
0.0
 11
174.9539979999999
 21
107.3533319999999
 31
0.0
  0
LINE
  5
9689
330
9641
100
AcDbEntity
  8
1
  6
Continuous
100
AcDbLine
 10
173.9539979999999
 20
142.8533319999999
 30
0.0
 11
173.9539979999999
 21
107.3533319999999
 31
0.0
  0
LINE
  5
968A
330
9641
100
AcDbEntity
  8
1
  6
Continuous
100
AcDbLine
 10
173.446998
 20
132.853332
 30
0.0
 11
173.9539979999999
 21
132.853332
 31
0.0
  0
LINE
  5
968B
330
9641
100
AcDbEntity
  8
4
  6
CENTER
100
AcDbLine
 10
169.4539979999998
 20
134.853332
 30
0.0
 11
169.4539979999998
 21
138.853332
 31
0.0
  0
LINE
  5
968C
330
9641
100
AcDbEntity
  8
4
  6
CENTER
100
AcDbLine
 10
167.4539979999998
 20
136.853332
 30
0.0
 11
171.4539979999998
 21
136.853332
 31
0.0
  0
LINE
  5
968D
330
9641
100
AcDbEntity
  8
1
  6
Continuous
100
AcDbLine
 10
173.595998
 20
126.353332
 30
0.0
 11
173.9539979999999
 21
126.353332
 31
0.0
  0
LINE
  5
968E
330
9641
100
AcDbEntity
  8
1
  6
Continuous
100
AcDbLine
 10
173.652998
 20
123.8533319999999
 30
0.0
 11
173.9539979999999
 21
123.8533319999999
 31
0.0
  0
LINE
  5
968F
330
9641
100
AcDbEntity
  8
4
  6
CENTER
100
AcDbLine
 10
35.436898
 20
227.275332
 30
0.0
 11
16.43689799999998
 21
227.275332
 31
0.0
  0
LINE
  5
9690
330
9641
100
AcDbEntity
  8
4
  6
CENTER
100
AcDbLine
 10
35.90689799999999
 20
136.853332
 30
0.0
 11
15.906898
 21
136.853332
 31
0.0
  0
LINE
  5
9691
330
9641
100
AcDbEntity
  8
1
  6
Continuous
100
AcDbLine
 10
171.981998
 20
108.2043319999999
 30
0.0
 11
172.155998
 21
108.254332
 31
0.0
  0
LINE
  5
9692
330
9641
100
AcDbEntity
  8
1
  6
Continuous
100
AcDbLine
 10
33.906898
 20
222.9113319999999
 30
0.0
 11
33.906898
 21
228.7753319999999
 31
0.0
  0
LINE
  5
9693
330
9641
100
AcDbEntity
  8
1
  6
Continuous
100
AcDbLine
 10
17.906898
 20
222.9113319999999
 30
0.0
 11
17.906898
 21
228.7753319999999
 31
0.0
  0
LINE
  5
9694
330
9641
100
AcDbEntity
  8
1
  6
Continuous
100
AcDbLine
 10
33.106898
 20
225.7613319999999
 30
0.0
 11
33.106898
 21
228.7753319999999
 31
0.0
  0
LINE
  5
9695
330
9641
100
AcDbEntity
  8
1
  6
Continuous
100
AcDbLine
 10
18.706898
 20
225.7613319999999
 30
0.0
 11
18.706898
 21
228.7753319999999
 31
0.0
  0
LINE
  5
9696
330
9641
100
AcDbEntity
  8
1
  6
Continuous
100
AcDbLine
 10
17.906898
 20
135.6033319999999
 30
0.0
 11
16.906898
 21
135.6033319999999
 31
0.0
  0
LINE
  5
9697
330
9641
100
AcDbEntity
  8
1
  6
Continuous
100
AcDbLine
 10
17.906898
 20
138.103332
 30
0.0
 11
16.906898
 21
138.103332
 31
0.0
  0
LINE
  5
9698
330
9641
100
AcDbEntity
  8
1
  6
Continuous
100
AcDbLine
 10
16.906898
 20
138.103332
 30
0.0
 11
16.906898
 21
135.6033319999999
 31
0.0
  0
LINE
  5
9699
330
9641
100
AcDbEntity
  8
1
  6
Continuous
100
AcDbLine
 10
13.156898
 20
148.7360989999999
 30
0.0
 11
13.156898
 21
130.165332
 31
0.0
  0
LINE
  5
969A
330
9641
100
AcDbEntity
  8
1
  6
Continuous
100
AcDbLine
 10
38.656898
 20
148.7360989999999
 30
0.0
 11
38.656898
 21
130.165332
 31
0.0
  0
LINE
  5
969B
330
9641
100
AcDbEntity
  8
1
  6
Continuous
100
AcDbLine
 10
16.156898
 20
148.7360989999999
 30
0.0
 11
16.156898
 21
130.165332
 31
0.0
  0
LINE
  5
969C
330
9641
100
AcDbEntity
  8
1
  6
Continuous
100
AcDbLine
 10
35.65689799999999
 20
148.7360989999999
 30
0.0
 11
35.65689799999999
 21
130.165332
 31
0.0
  0
LINE
  5
969D
330
9641
100
AcDbEntity
  8
1
  6
Continuous
100
AcDbLine
 10
17.156898
 20
126.165332
 30
0.0
 11
17.906898
 21
126.165332
 31
0.0
  0
LINE
  5
969E
330
9641
100
AcDbEntity
  8
1
  6
Continuous
100
AcDbLine
 10
17.156898
 20
129.1653319999998
 30
0.0
 11
17.906898
 21
129.1653319999998
 31
0.0
  0
LINE
  5
969F
330
9641
100
AcDbEntity
  8
1
  6
Continuous
100
AcDbLine
 10
33.906898
 20
129.1653319999998
 30
0.0
 11
34.65689799999999
 21
129.1653319999998
 31
0.0
  0
LINE
  5
96A0
330
9641
100
AcDbEntity
  8
1
  6
Continuous
100
AcDbLine
 10
33.906898
 20
126.165332
 30
0.0
 11
34.65689799999999
 21
126.165332
 31
0.0
  0
LINE
  5
96A1
330
9641
100
AcDbEntity
  8
1
  6
Continuous
100
AcDbLine
 10
32.406898
 20
140.8533319999999
 30
0.0
 11
19.406898
 21
140.8533319999999
 31
0.0
  0
LINE
  5
96A2
330
9641
100
AcDbEntity
  8
1
  6
Continuous
100
AcDbLine
 10
291.244998
 20
138.103332
 30
0.0
 11
289.4069979999999
 21
138.103332
 31
0.0
  0
LINE
  5
96A3
330
9641
100
AcDbEntity
  8
1
  6
Continuous
100
AcDbLine
 10
291.2879979999999
 20
135.6033319999999
 30
0.0
 11
289.4069979999999
 21
135.6033319999999
 31
0.0
  0
LINE
  5
96A4
330
9641
100
AcDbEntity
  8
1
  6
Continuous
100
AcDbLine
 10
300.906998
 20
126.353332
 30
0.0
 11
300.906998
 21
123.8533319999999
 31
0.0
  0
LINE
  5
96A5
330
9641
100
AcDbEntity
  8
1
  6
Continuous
100
AcDbLine
 10
302.906998
 20
126.353332
 30
0.0
 11
302.906998
 21
123.8533319999999
 31
0.0
  0
LINE
  5
96A6
330
9641
100
AcDbEntity
  8
1
  6
Continuous
100
AcDbLine
 10
300.906998
 20
123.8533319999999
 30
0.0
 11
301.499998
 21
123.8533319999999
 31
0.0
  0
LINE
  5
96A7
330
9641
100
AcDbEntity
  8
1
  6
Continuous
100
AcDbLine
 10
303.4069979999998
 20
128.3533319999999
 30
0.0
 11
302.406998
 21
128.3533319999999
 31
0.0
  0
LINE
  5
96A8
330
9641
100
AcDbEntity
  8
1
  6
Continuous
100
AcDbLine
 10
289.4069979999999
 20
139.153332
 30
0.0
 11
288.4069979999998
 21
139.153332
 31
0.0
  0
LINE
  5
96A9
330
9641
100
AcDbEntity
  8
1
  6
Continuous
100
AcDbLine
 10
289.4069979999999
 20
128.3533319999999
 30
0.0
 11
288.4069979999998
 21
128.3533319999999
 31
0.0
  0
LINE
  5
96AA
330
9641
100
AcDbEntity
  8
1
  6
Continuous
100
AcDbLine
 10
303.4069979999998
 20
139.153332
 30
0.0
 11
302.406998
 21
139.153332
 31
0.0
  0
LINE
  5
96AB
330
9641
100
AcDbEntity
  8
1
  6
Continuous
100
AcDbLine
 10
289.4069979999999
 20
139.153332
 30
0.0
 11
289.4069979999999
 21
128.3533319999999
 31
0.0
  0
LINE
  5
96AC
330
9641
100
AcDbEntity
  8
1
  6
Continuous
100
AcDbLine
 10
302.406998
 20
139.153332
 30
0.0
 11
302.406998
 21
128.3533319999999
 31
0.0
  0
LINE
  5
96AD
330
9641
100
AcDbEntity
  8
4
  6
CENTER
100
AcDbLine
 10
285.4069979999998
 20
114.853332
 30
0.0
 11
285.4069979999998
 21
107.853332
 31
0.0
  0
LINE
  5
96AE
330
9641
100
AcDbEntity
  8
4
  6
CENTER
100
AcDbLine
 10
306.4069979999998
 20
114.853332
 30
0.0
 11
306.4069979999998
 21
107.853332
 31
0.0
  0
LINE
  5
96AF
330
9641
100
AcDbEntity
  8
4
  6
CENTER
100
AcDbLine
 10
281.906998
 20
111.3533319999999
 30
0.0
 11
288.906998
 21
111.3533319999999
 31
0.0
  0
LINE
  5
96B0
330
9641
100
AcDbEntity
  8
1
  6
Continuous
100
AcDbLine
 10
303.4069979999998
 20
139.853332
 30
0.0
 11
303.4069979999998
 21
132.853332
 31
0.0
  0
LINE
  5
96B1
330
9641
100
AcDbEntity
  8
4
  6
CENTER
100
AcDbLine
 10
309.9069979999999
 20
111.3533319999999
 30
0.0
 11
302.906998
 21
111.3533319999999
 31
0.0
  0
LINE
  5
96B2
330
9641
100
AcDbEntity
  8
4
  6
CENTER
100
AcDbLine
 10
299.4069979999999
 20
123.8533319999999
 30
0.0
 11
292.406998
 21
123.8533319999999
 31
0.0
  0
LINE
  5
96B3
330
9641
100
AcDbEntity
  8
1
  6
Continuous
100
AcDbLine
 10
292.1649980000001
 20
126.353332
 30
0.0
 11
288.4069979999998
 21
126.353332
 31
0.0
  0
LINE
  5
96B4
330
9641
100
AcDbEntity
  8
1
  6
Continuous
100
AcDbLine
 10
288.4069979999998
 20
139.853332
 30
0.0
 11
288.4069979999998
 21
132.853332
 31
0.0
  0
LINE
  5
96B5
330
9641
100
AcDbEntity
  8
1
  6
Continuous
100
AcDbLine
 10
310.906998
 20
142.103332
 30
0.0
 11
310.906998
 21
112.3533319999999
 31
0.0
  0
LINE
  5
96B6
330
9641
100
AcDbEntity
  8
1
  6
Continuous
100
AcDbLine
 10
303.4069979999998
 20
126.353332
 30
0.0
 11
302.1929979999999
 21
126.353332
 31
0.0
  0
LINE
  5
96B7
330
9641
100
AcDbEntity
  8
1
  6
Continuous
100
AcDbLine
 10
280.9069979999998
 20
142.103332
 30
0.0
 11
280.9069979999998
 21
112.3533319999999
 31
0.0
  0
LINE
  5
96B8
330
9641
100
AcDbEntity
  8
1
  6
Continuous
100
AcDbLine
 10
305.9069979999998
 20
107.3533319999999
 30
0.0
 11
285.906998
 21
107.3533319999999
 31
0.0
  0
LINE
  5
96B9
330
9641
100
AcDbEntity
  8
1
  6
Continuous
100
AcDbLine
 10
310.1569979999998
 20
142.8533319999999
 30
0.0
 11
281.656998
 21
142.8533319999999
 31
0.0
  0
LINE
  5
96BA
330
9641
100
AcDbEntity
  8
1
  6
Continuous
100
AcDbLine
 10
302.406998
 20
140.8533319999999
 30
0.0
 11
289.4069979999999
 21
140.8533319999999
 31
0.0
  0
LINE
  5
96BB
330
9641
100
AcDbEntity
  8
4
  6
CENTER
100
AcDbLine
 10
295.9069979999998
 20
156.2403109999999
 30
0.0
 11
295.9069979999998
 21
100.1773319999998
 31
0.0
  0
LINE
  5
96BC
330
9641
100
AcDbEntity
  8
1
  6
Continuous
100
AcDbLine
 10
361.406998
 20
154.634332
 30
0.0
 11
350.406998
 21
154.634332
 31
0.0
  0
LINE
  5
96BD
330
9641
100
AcDbEntity
  8
1
  6
Continuous
100
AcDbLine
 10
350.406998
 20
156.653332
 30
0.0
 11
361.406998
 21
156.653332
 31
0.0
  0
LINE
  5
96BE
330
9641
100
AcDbEntity
  8
1
  6
Continuous
100
AcDbLine
 10
362.906998
 20
155.153332
 30
0.0
 11
362.906998
 21
147.653332
 31
0.0
  0
LINE
  5
96BF
330
9641
100
AcDbEntity
  8
1
  6
Continuous
100
AcDbLine
 10
348.906998
 20
155.153332
 30
0.0
 11
348.906998
 21
147.653332
 31
0.0
  0
LINE
  5
96C0
330
9641
100
AcDbEntity
  8
1
  6
Continuous
100
AcDbLine
 10
348.906998
 20
147.653332
 30
0.0
 11
362.906998
 21
147.653332
 31
0.0
  0
LINE
  5
96C1
330
9641
100
AcDbEntity
  8
1
  6
Continuous
100
AcDbLine
 10
370.9069979999999
 20
157.3533319999999
 30
0.0
 11
370.9069979999999
 21
143.6033319999999
 31
0.0
  0
LINE
  5
96C2
330
9641
100
AcDbEntity
  8
1
  6
Continuous
100
AcDbLine
 10
365.9069979999999
 20
162.3533319999999
 30
0.0
 11
345.9069979999999
 21
162.3533319999999
 31
0.0
  0
LINE
  5
96C3
330
9641
100
AcDbEntity
  8
1
  6
Continuous
100
AcDbLine
 10
340.9069979999998
 20
157.3533319999999
 30
0.0
 11
340.9069979999998
 21
143.6033319999999
 31
0.0
  0
LINE
  5
96C4
330
9641
100
AcDbEntity
  8
1
  6
Continuous
100
AcDbLine
 10
304.656998
 20
152.736099
 30
0.0
 11
287.1569979999998
 21
152.736099
 31
0.0
  0
LINE
  5
96C5
330
9641
100
AcDbEntity
  8
1
  6
Continuous
100
AcDbLine
 10
304.656998
 20
149.7360989999999
 30
0.0
 11
287.1569979999998
 21
149.7360989999999
 31
0.0
  0
LINE
  5
96C6
330
9641
100
AcDbEntity
  8
1
  6
Continuous
100
AcDbLine
 10
290.3569979999998
 20
129.1653319999998
 30
0.0
 11
290.3569979999998
 21
126.353332
 31
0.0
  0
LINE
  5
96C7
330
9641
100
AcDbEntity
  8
1
  6
Continuous
100
AcDbLine
 10
289.3569979999999
 20
128.3533319999999
 30
0.0
 11
289.3569979999999
 21
126.353332
 31
0.0
  0
LINE
  5
96C8
330
9641
100
AcDbEntity
  8
1
  6
Continuous
100
AcDbLine
 10
289.4069979999999
 20
128.815332
 30
0.0
 11
290.3569979999998
 21
128.815332
 31
0.0
  0
LINE
  5
96C9
330
9641
100
AcDbEntity
  8
1
  6
Continuous
100
AcDbLine
 10
289.3569979999999
 20
126.515332
 30
0.0
 11
290.3569979999998
 21
126.515332
 31
0.0
  0
LINE
  5
96CA
330
9641
100
AcDbEntity
  8
1
  6
Continuous
100
AcDbLine
 10
290.3569979999998
 20
129.1653319999998
 30
0.0
 11
293.6569979999998
 21
129.1653319999998
 31
0.0
  0
LINE
  5
96CB
330
9641
100
AcDbEntity
  8
1
  6
Continuous
100
AcDbLine
 10
298.1569979999998
 20
129.1653319999998
 30
0.0
 11
298.1569979999998
 21
127.750332
 31
0.0
  0
LINE
  5
96CC
330
9641
100
AcDbEntity
  8
1
  6
Continuous
100
AcDbLine
 10
298.1569979999998
 20
129.1653319999998
 30
0.0
 11
301.591998
 21
129.1653319999998
 31
0.0
  0
LINE
  5
96CD
330
9641
100
AcDbEntity
  8
1
  6
Continuous
100
AcDbLine
 10
293.6569979999998
 20
129.1653319999998
 30
0.0
 11
293.6569979999998
 21
127.750332
 31
0.0
  0
LINE
  5
96CE
330
9641
100
AcDbEntity
  8
1
  6
Continuous
100
AcDbLine
 10
303.4069979999998
 20
132.853332
 30
0.0
 11
302.406998
 21
132.853332
 31
0.0
  0
LINE
  5
96CF
330
9641
100
AcDbEntity
  8
1
  6
Continuous
100
AcDbLine
 10
289.4069979999999
 20
132.853332
 30
0.0
 11
288.4069979999998
 21
132.853332
 31
0.0
  0
LINE
  5
96D0
330
9641
100
AcDbEntity
  8
1
  6
Continuous
100
AcDbLine
 10
288.4069979999998
 20
128.3533319999999
 30
0.0
 11
288.4069979999998
 21
126.353332
 31
0.0
  0
LINE
  5
96D1
330
9641
100
AcDbEntity
  8
1
  6
Continuous
100
AcDbLine
 10
303.4069979999998
 20
128.3533319999999
 30
0.0
 11
303.4069979999998
 21
126.353332
 31
0.0
  0
LINE
  5
96D2
330
9641
100
AcDbEntity
  8
1
  6
Continuous
100
AcDbLine
 10
302.242998
 20
129.1653319999998
 30
0.0
 11
302.406998
 21
129.1653319999998
 31
0.0
  0
LINE
  5
96D3
330
9641
100
AcDbEntity
  8
1
  6
Continuous
100
AcDbLine
 10
301.542998
 20
126.353332
 30
0.0
 11
299.648998
 21
126.353332
 31
0.0
  0
LINE
  5
96D4
330
9641
100
AcDbEntity
  8
1
  6
Continuous
100
AcDbLine
 10
302.1499979999999
 20
123.8533319999999
 30
0.0
 11
302.906998
 21
123.8533319999999
 31
0.0
  0
LINE
  5
96D5
330
9641
100
AcDbEntity
  8
1
  6
Continuous
100
AcDbLine
 10
32.406898
 20
228.5253319999999
 30
0.0
 11
31.115298
 21
228.5253319999999
 31
0.0
  0
LINE
  5
96D6
330
9641
100
AcDbEntity
  8
1
  6
Continuous
100
AcDbLine
 10
16.906898
 20
228.5253319999999
 30
0.0
 11
16.906898
 21
226.0253319999999
 31
0.0
  0
LINE
  5
96D7
330
9641
100
AcDbEntity
  8
1
  6
Continuous
100
AcDbLine
 10
32.406898
 20
226.0253319999999
 30
0.0
 11
31.15889799999999
 21
226.0253319999999
 31
0.0
  0
LINE
  5
96D8
330
9641
100
AcDbEntity
  8
1
  6
Continuous
100
AcDbLine
 10
17.906898
 20
226.0253319999999
 30
0.0
 11
16.906898
 21
226.0253319999999
 31
0.0
  0
LINE
  5
96D9
330
9641
100
AcDbEntity
  8
1
  6
Continuous
100
AcDbLine
 10
17.906898
 20
228.5253319999999
 30
0.0
 11
16.906898
 21
228.5253319999999
 31
0.0
  0
LINE
  5
96DA
330
9641
100
AcDbEntity
  8
1
  6
Continuous
100
AcDbLine
 10
36.47209799999997
 20
228.7753319999999
 30
0.0
 11
15.427598
 21
228.7753319999999
 31
0.0
  0
LINE
  5
96DB
330
9641
100
AcDbEntity
  8
1
  6
Continuous
100
AcDbLine
 10
38.656898
 20
227.8853319999999
 30
0.0
 11
38.656898
 21
230.2753319999999
 31
0.0
  0
LINE
  5
96DC
330
9641
100
AcDbEntity
  8
1
  6
Continuous
100
AcDbLine
 10
13.156898
 20
227.8853319999999
 30
0.0
 11
13.156898
 21
230.2753319999999
 31
0.0
  0
LINE
  5
96DD
330
9641
100
AcDbEntity
  8
1
  6
Continuous
100
AcDbLine
 10
37.15689799999999
 20
226.3853319999999
 30
0.0
 11
34.66859799999999
 21
226.3853319999999
 31
0.0
  0
LINE
  5
96DE
330
9641
100
AcDbEntity
  8
1
  6
Continuous
100
AcDbLine
 10
16.156898
 20
228.2753319999999
 30
0.0
 11
16.156898
 21
228.7753319999999
 31
0.0
  0
LINE
  5
96DF
330
9641
100
AcDbEntity
  8
1
  6
Continuous
100
AcDbLine
 10
35.65689799999999
 20
228.2753319999999
 30
0.0
 11
35.65689799999999
 21
228.7753319999999
 31
0.0
  0
LINE
  5
96E0
330
9641
100
AcDbEntity
  8
1
  6
Continuous
100
AcDbLine
 10
16.906898
 20
226.3853319999999
 30
0.0
 11
14.656898
 21
226.3853319999999
 31
0.0
  0
LINE
  5
96E1
330
9641
100
AcDbEntity
  8
4
  6
CENTER
100
AcDbLine
 10
25.906898
 20
40.775832
 30
0.0
 11
25.906898
 21
55.436832
 31
0.0
  0
LINE
  5
96E2
330
9641
100
AcDbEntity
  8
1
  6
Continuous
100
AcDbLine
 10
10.906898
 20
42.775832
 30
0.0
 11
10.906898
 21
43.775832
 31
0.0
  0
LINE
  5
96E3
330
9641
100
AcDbEntity
  8
1
  6
Continuous
100
AcDbLine
 10
40.90689799999998
 20
42.775832
 30
0.0
 11
40.90689799999998
 21
43.775832
 31
0.0
  0
LINE
  5
96E4
330
9641
100
AcDbEntity
  8
1
  6
Continuous
100
AcDbLine
 10
10.906898
 20
42.775832
 30
0.0
 11
40.90689799999998
 21
42.775832
 31
0.0
  0
LINE
  5
96E5
330
9641
100
AcDbEntity
  8
1
  6
Continuous
100
AcDbLine
 10
10.906898
 20
43.775832
 30
0.0
 11
40.90689799999998
 21
43.775832
 31
0.0
  0
LINE
  5
96E6
330
9641
100
AcDbEntity
  8
1
  6
Continuous
100
AcDbLine
 10
19.406898
 20
43.775832
 30
0.0
 11
19.406898
 21
44.586132
 31
0.0
  0
LINE
  5
96E7
330
9641
100
AcDbEntity
  8
1
  6
Continuous
100
AcDbLine
 10
32.406898
 20
43.775832
 30
0.0
 11
32.406898
 21
44.586132
 31
0.0
  0
LINE
  5
96E8
330
9641
100
AcDbEntity
  8
1
  6
Continuous
100
AcDbLine
 10
20.906898
 20
43.775832
 30
0.0
 11
20.906898
 21
44.375832
 31
0.0
  0
LINE
  5
96E9
330
9641
100
AcDbEntity
  8
1
  6
Continuous
100
AcDbLine
 10
20.906898
 20
44.375832
 30
0.0
 11
20.725498
 21
44.375832
 31
0.0
  0
LINE
  5
96EA
330
9641
100
AcDbEntity
  8
4
  6
CENTER
100
AcDbLine
 10
15.406898
 20
40.775832
 30
0.0
 11
15.406898
 21
45.775832
 31
0.0
  0
LINE
  5
96EB
330
9641
100
AcDbEntity
  8
4
  6
CENTER
100
AcDbLine
 10
36.406898
 20
40.775832
 30
0.0
 11
36.406898
 21
45.775832
 31
0.0
  0
LINE
  5
96EC
330
9641
100
AcDbEntity
  8
1
  6
Continuous
100
AcDbLine
 10
20.335298
 20
43.775832
 30
0.0
 11
20.864798
 21
44.586132
 31
0.0
  0
LINE
  5
96ED
330
9641
100
AcDbEntity
  8
1
  6
Continuous
100
AcDbLine
 10
20.07729799999999
 20
44.375832
 30
0.0
 11
19.406898
 21
44.375832
 31
0.0
  0
LINE
  5
96EE
330
9641
100
AcDbEntity
  8
1
  6
Continuous
100
AcDbLine
 10
38.656898
 20
47.66553199999999
 30
0.0
 11
38.656898
 21
45.275832
 31
0.0
  0
LINE
  5
96EF
330
9641
100
AcDbEntity
  8
1
  6
Continuous
100
AcDbLine
 10
13.156898
 20
47.66553199999999
 30
0.0
 11
13.156898
 21
45.275832
 31
0.0
  0
LINE
  5
96F0
330
9641
100
AcDbEntity
  8
1
  6
Continuous
100
AcDbLine
 10
37.15689799999999
 20
49.165532
 30
0.0
 11
34.66859799999999
 21
49.165532
 31
0.0
  0
LINE
  5
96F1
330
9641
100
AcDbEntity
  8
1
  6
Continuous
100
AcDbLine
 10
16.906898
 20
49.165532
 30
0.0
 11
14.656898
 21
49.165532
 31
0.0
  0
LINE
  5
96F2
330
9641
100
AcDbEntity
  8
1
  6
Continuous
100
AcDbLine
 10
35.65689799999999
 20
46.165532
 30
0.0
 11
35.65689799999999
 21
45.845732
 31
0.0
  0
LINE
  5
96F3
330
9641
100
AcDbEntity
  8
1
  6
Continuous
100
AcDbLine
 10
17.906898
 20
47.025832
 30
0.0
 11
16.906898
 21
47.025832
 31
0.0
  0
LINE
  5
96F4
330
9641
100
AcDbEntity
  8
1
  6
Continuous
100
AcDbLine
 10
17.906898
 20
49.525832
 30
0.0
 11
16.906898
 21
49.525832
 31
0.0
  0
LINE
  5
96F5
330
9641
100
AcDbEntity
  8
4
  6
CENTER
100
AcDbLine
 10
35.90689799999999
 20
48.275832
 30
0.0
 11
15.906898
 21
48.275832
 31
0.0
  0
LINE
  5
96F6
330
9641
100
AcDbEntity
  8
1
  6
Continuous
100
AcDbLine
 10
16.906898
 20
47.025832
 30
0.0
 11
16.906898
 21
49.525832
 31
0.0
  0
LINE
  5
96F7
330
9641
100
AcDbEntity
  8
1
  6
Continuous
100
AcDbLine
 10
37.15689799999999
 20
46.165532
 30
0.0
 11
33.906898
 21
46.165532
 31
0.0
  0
LINE
  5
96F8
330
9641
100
AcDbEntity
  8
1
  6
Continuous
100
AcDbLine
 10
17.906898
 20
46.165532
 30
0.0
 11
14.656898
 21
46.165532
 31
0.0
  0
LINE
  5
96F9
330
9641
100
AcDbEntity
  8
1
  6
Continuous
100
AcDbLine
 10
16.156898
 20
46.165532
 30
0.0
 11
16.156898
 21
45.845732
 31
0.0
  0
LINE
  5
96FA
330
9641
100
AcDbEntity
  8
1
  6
Continuous
100
AcDbLine
 10
34.65689799999999
 20
149.7360989999999
 30
0.0
 11
17.156898
 21
149.7360989999999
 31
0.0
  0
LINE
  5
96FB
330
9641
100
AcDbEntity
  8
1
  6
Continuous
100
AcDbLine
 10
34.65689799999999
 20
152.736099
 30
0.0
 11
17.156898
 21
152.736099
 31
0.0
  0
LINE
  5
96FC
330
9641
100
AcDbEntity
  8
1
  6
Continuous
100
AcDbLine
 10
13.156898
 20
142.8533319999999
 30
0.0
 11
11.65689799999998
 21
142.8533319999999
 31
0.0
  0
LINE
  5
96FD
330
9641
100
AcDbEntity
  8
1
  6
Continuous
100
AcDbLine
 10
35.65689799999999
 20
142.8533319999999
 30
0.0
 11
16.156898
 21
142.8533319999999
 31
0.0
  0
LINE
  5
96FE
330
9641
100
AcDbEntity
  8
4
  6
CENTER
100
AcDbLine
 10
220.8889979999999
 20
157.853332
 30
0.0
 11
225.8889979999999
 21
157.853332
 31
0.0
  0
LINE
  5
96FF
330
9641
100
AcDbEntity
  8
4
  6
CENTER
100
AcDbLine
 10
171.9539979999999
 20
111.3533319999999
 30
0.0
 11
176.9539979999999
 21
111.3533319999999
 31
0.0
  0
LINE
  5
9700
330
9641
100
AcDbEntity
  8
4
  6
CENTER
100
AcDbLine
 10
366.4069979999999
 20
154.3533319999999
 30
0.0
 11
366.4069979999999
 21
161.3533319999999
 31
0.0
  0
LINE
  5
9701
330
9641
100
AcDbEntity
  8
4
  6
CENTER
100
AcDbLine
 10
369.9069979999999
 20
157.853332
 30
0.0
 11
362.906998
 21
157.853332
 31
0.0
  0
LINE
  5
9702
330
9641
100
AcDbEntity
  8
4
  6
CENTER
100
AcDbLine
 10
345.4069979999999
 20
154.3533319999999
 30
0.0
 11
345.4069979999999
 21
161.3533319999999
 31
0.0
  0
LINE
  5
9703
330
9641
100
AcDbEntity
  8
4
  6
CENTER
100
AcDbLine
 10
348.906998
 20
157.853332
 30
0.0
 11
341.9069979999998
 21
157.853332
 31
0.0
  0
LINE
  5
9704
330
9641
100
AcDbEntity
  8
1
  6
Continuous
100
AcDbLine
 10
110.156998
 20
142.8533319999999
 30
0.0
 11
81.656998
 21
142.8533319999999
 31
0.0
  0
LINE
  5
9705
330
9641
100
AcDbEntity
  8
1
  6
Continuous
100
AcDbLine
 10
305.6569979999999
 20
148.7360989999999
 30
0.0
 11
305.6569979999999
 21
142.8533319999999
 31
0.0
  0
LINE
  5
9706
330
9641
100
AcDbEntity
  8
1
  6
Continuous
100
AcDbLine
 10
286.156998
 20
148.7360989999999
 30
0.0
 11
286.156998
 21
142.8533319999999
 31
0.0
  0
LINE
  5
9707
330
9641
100
AcDbEntity
  8
1
  6
Continuous
100
AcDbLine
 10
308.656998
 20
148.7360989999999
 30
0.0
 11
308.656998
 21
142.8533319999999
 31
0.0
  0
LINE
  5
9708
330
9641
100
AcDbEntity
  8
1
  6
Continuous
100
AcDbLine
 10
283.1569979999999
 20
148.7360989999999
 30
0.0
 11
283.1569979999999
 21
142.8533319999999
 31
0.0
  0
LINE
  5
9709
330
9641
100
AcDbEntity
  8
1
  6
Continuous
100
AcDbLine
 10
370.1569979999999
 20
142.8533319999999
 30
0.0
 11
341.6569979999998
 21
142.8533319999999
 31
0.0
  0
LINE
  5
970A
330
9641
100
AcDbEntity
  8
4
  6
CENTER
100
AcDbLine
 10
85.406998
 20
234.7753319999999
 30
0.0
 11
85.406998
 21
229.7753319999999
 31
0.0
  0
LINE
  5
970B
330
9641
100
AcDbEntity
  8
4
  6
CENTER
100
AcDbLine
 10
106.4069979999999
 20
234.7753319999999
 30
0.0
 11
106.4069979999999
 21
229.7753319999999
 31
0.0
  0
LINE
  5
970C
330
9641
100
AcDbEntity
  8
4
  6
CENTER
100
AcDbLine
 10
95.90699800000001
 20
234.7753319999999
 30
0.0
 11
95.90699800000001
 21
220.1143319999999
 31
0.0
  0
LINE
  5
970D
330
9641
100
AcDbEntity
  8
1
  6
Continuous
100
AcDbLine
 10
31.15979799999999
 20
225.9773319999999
 30
0.0
 11
31.110898
 21
228.7753319999999
 31
0.0
  0
LINE
  5
970E
330
9641
100
AcDbEntity
  8
1
  6
Continuous
100
AcDbLine
 10
30.50969799999998
 20
225.9773319999999
 30
0.0
 11
30.46079799999999
 21
228.7753319999999
 31
0.0
  0
LINE
  5
970F
330
9641
100
AcDbEntity
  8
1
  6
Continuous
100
AcDbLine
 10
29.85959799999999
 20
225.9773319999999
 30
0.0
 11
29.810698
 21
228.7753319999999
 31
0.0
  0
LINE
  5
9710
330
9641
100
AcDbEntity
  8
1
  6
Continuous
100
AcDbLine
 10
29.209598
 20
225.9773319999999
 30
0.0
 11
29.16069799999998
 21
228.7753319999999
 31
0.0
  0
LINE
  5
9711
330
9641
100
AcDbEntity
  8
1
  6
Continuous
100
AcDbLine
 10
28.55959799999999
 20
225.9773319999999
 30
0.0
 11
28.51069799999999
 21
228.7753319999999
 31
0.0
  0
LINE
  5
9712
330
9641
100
AcDbEntity
  8
1
  6
Continuous
100
AcDbLine
 10
27.90959799999999
 20
225.9773319999999
 30
0.0
 11
27.86069799999999
 21
228.7753319999999
 31
0.0
  0
LINE
  5
9713
330
9641
100
AcDbEntity
  8
1
  6
Continuous
100
AcDbLine
 10
27.259598
 20
225.9773319999999
 30
0.0
 11
27.21069799999999
 21
228.7753319999999
 31
0.0
  0
LINE
  5
9714
330
9641
100
AcDbEntity
  8
1
  6
Continuous
100
AcDbLine
 10
26.609598
 20
225.9773319999999
 30
0.0
 11
26.560698
 21
228.7753319999999
 31
0.0
  0
LINE
  5
9715
330
9641
100
AcDbEntity
  8
1
  6
Continuous
100
AcDbLine
 10
25.959598
 20
225.9773319999999
 30
0.0
 11
25.910698
 21
228.7753319999999
 31
0.0
  0
LINE
  5
9716
330
9641
100
AcDbEntity
  8
1
  6
Continuous
100
AcDbLine
 10
25.309598
 20
225.9773319999999
 30
0.0
 11
25.260698
 21
228.7753319999999
 31
0.0
  0
LINE
  5
9717
330
9641
100
AcDbEntity
  8
1
  6
Continuous
100
AcDbLine
 10
24.659598
 20
225.9773319999999
 30
0.0
 11
24.610698
 21
228.7753319999999
 31
0.0
  0
LINE
  5
9718
330
9641
100
AcDbEntity
  8
1
  6
Continuous
100
AcDbLine
 10
24.009598
 20
225.9773319999999
 30
0.0
 11
23.960698
 21
228.7753319999999
 31
0.0
  0
LINE
  5
9719
330
9641
100
AcDbEntity
  8
1
  6
Continuous
100
AcDbLine
 10
23.35959799999999
 20
225.9773319999999
 30
0.0
 11
23.31069799999999
 21
228.7753319999999
 31
0.0
  0
LINE
  5
971A
330
9641
100
AcDbEntity
  8
1
  6
Continuous
100
AcDbLine
 10
22.70959799999999
 20
225.9773319999999
 30
0.0
 11
22.66069799999999
 21
228.7753319999999
 31
0.0
  0
LINE
  5
971B
330
9641
100
AcDbEntity
  8
1
  6
Continuous
100
AcDbLine
 10
22.059598
 20
225.9773319999999
 30
0.0
 11
22.010698
 21
228.7753319999999
 31
0.0
  0
LINE
  5
971C
330
9641
100
AcDbEntity
  8
1
  6
Continuous
100
AcDbLine
 10
21.409598
 20
225.9773319999999
 30
0.0
 11
21.360698
 21
228.7753319999999
 31
0.0
  0
LINE
  5
971D
330
9641
100
AcDbEntity
  8
1
  6
Continuous
100
AcDbLine
 10
20.759598
 20
225.9773319999999
 30
0.0
 11
20.710698
 21
228.7753319999999
 31
0.0
  0
LINE
  5
971E
330
9641
100
AcDbEntity
  8
1
  6
Continuous
100
AcDbLine
 10
20.10959799999999
 20
225.9773319999999
 30
0.0
 11
20.060698
 21
228.7753319999999
 31
0.0
  0
LINE
  5
971F
330
9641
100
AcDbEntity
  8
1
  6
Continuous
100
AcDbLine
 10
19.45959799999998
 20
225.9773319999999
 30
0.0
 11
19.410698
 21
228.7753319999999
 31
0.0
  0
LINE
  5
9720
330
9641
100
AcDbEntity
  8
1
  6
Continuous
100
AcDbLine
 10
19.406898
 20
228.7753319999999
 30
0.0
 11
19.406898
 21
225.9773319999999
 31
0.0
  0
LINE
  5
9721
330
9641
100
AcDbEntity
  8
1
  6
Continuous
100
AcDbLine
 10
32.406898
 20
228.7753319999999
 30
0.0
 11
32.406898
 21
225.9773319999999
 31
0.0
  0
LINE
  5
9722
330
9641
100
AcDbEntity
  8
1
  6
Continuous
100
AcDbLine
 10
19.45869799999998
 20
226.0253319999999
 30
0.0
 11
19.406898
 21
226.0253319999999
 31
0.0
  0
LINE
  5
9723
330
9641
100
AcDbEntity
  8
1
  6
Continuous
100
AcDbLine
 10
19.406898
 20
228.5253319999999
 30
0.0
 11
18.706898
 21
228.5253319999999
 31
0.0
  0
LINE
  5
9724
330
9641
100
AcDbEntity
  8
1
  6
Continuous
100
AcDbLine
 10
17.906898
 20
107.3533319999999
 30
0.0
 11
15.906898
 21
107.3533319999999
 31
0.0
  0
LINE
  5
9725
330
9641
100
AcDbEntity
  8
1
  6
Continuous
100
AcDbLine
 10
173.4139979999999
 20
134.2803319999999
 30
0.0
 11
173.9539979999999
 21
110.711332
 31
0.0
  0
LINE
  5
9726
330
9641
100
AcDbEntity
  8
1
  6
Continuous
100
AcDbLine
 10
164.4909979999999
 20
133.901332
 30
0.0
 11
172.053998
 21
108.057332
 31
0.0
  0
LINE
  5
9727
330
9641
100
AcDbEntity
  8
1
  6
Continuous
100
AcDbLine
 10
172.7529979999999
 20
108.517332
 30
0.0
 11
172.821998
 21
108.282332
 31
0.0
  0
LINE
  5
9728
330
9641
100
AcDbEntity
  8
1
  6
Continuous
100
AcDbLine
 10
170.452998
 20
102.8093319999999
 30
0.0
 11
170.945998
 21
102.1783319999999
 31
0.0
  0
LINE
  5
9729
330
9641
100
AcDbEntity
  8
1
  6
Continuous
100
AcDbLine
 10
33.15689799999999
 20
140.3343319999999
 30
0.0
 11
18.656898
 21
140.3343319999999
 31
0.0
  0
LINE
  5
972A
330
9641
100
AcDbEntity
  8
1
  6
Continuous
100
AcDbLine
 10
33.906898
 20
139.5843319999999
 30
0.0
 11
33.906898
 21
107.0183319999999
 31
0.0
  0
LINE
  5
972B
330
9641
100
AcDbEntity
  8
1
  6
Continuous
100
AcDbLine
 10
17.906898
 20
139.5843319999999
 30
0.0
 11
17.906898
 21
107.0183319999999
 31
0.0
  0
LINE
  5
972C
330
9641
100
AcDbEntity
  8
1
  6
Continuous
100
AcDbLine
 10
32.90689799999999
 20
106.736332
 30
0.0
 11
18.906898
 21
106.736332
 31
0.0
  0
LINE
  5
972D
330
9641
100
AcDbEntity
  8
1
  6
Continuous
100
AcDbLine
 10
33.106898
 20
44.317832
 30
0.0
 11
33.106898
 21
43.775832
 31
0.0
  0
LINE
  5
972E
330
9641
100
AcDbEntity
  8
1
  6
Continuous
100
AcDbLine
 10
17.906898
 20
52.64043199999999
 30
0.0
 11
17.906898
 21
43.775832
 31
0.0
  0
LINE
  5
972F
330
9641
100
AcDbEntity
  8
1
  6
Continuous
100
AcDbLine
 10
33.906898
 20
52.64043199999999
 30
0.0
 11
33.906898
 21
43.775832
 31
0.0
  0
LINE
  5
9730
330
9641
100
AcDbEntity
  8
1
  6
Continuous
100
AcDbLine
 10
18.706898
 20
44.317832
 30
0.0
 11
18.706898
 21
43.775832
 31
0.0
  0
LINE
  5
9731
330
9641
100
AcDbEntity
  8
1
  6
Continuous
100
AcDbLine
 10
18.784998
 20
44.586132
 30
0.0
 11
33.02879799999999
 21
44.586132
 31
0.0
  0
LINE
  5
9732
330
9641
100
AcDbEntity
  8
1
  6
Continuous
100
AcDbLine
 10
287.906998
 20
107.3533319999999
 30
0.0
 11
287.906998
 21
107.0183319999999
 31
0.0
  0
LINE
  5
9733
330
9641
100
AcDbEntity
  8
1
  6
Continuous
100
AcDbLine
 10
303.9069979999998
 20
107.3533319999999
 30
0.0
 11
303.9069979999998
 21
107.0183319999999
 31
0.0
  0
LINE
  5
9734
330
9641
100
AcDbEntity
  8
1
  6
Continuous
100
AcDbLine
 10
288.906998
 20
106.736332
 30
0.0
 11
302.906998
 21
106.736332
 31
0.0
  0
LINE
  5
9735
330
9641
100
AcDbEntity
  8
1
  6
Continuous
100
AcDbLine
 10
303.3709979999998
 20
140.119332
 30
0.0
 11
288.4429979999998
 21
140.119332
 31
0.0
  0
LINE
  5
9736
330
9641
100
AcDbEntity
  8
1
  6
Continuous
100
AcDbLine
 10
303.4069979999998
 20
139.349332
 30
0.0
 11
288.4069979999998
 21
139.349332
 31
0.0
  0
LINE
  5
9737
330
9641
100
AcDbEntity
  8
1
  6
Continuous
100
AcDbLine
 10
33.106898
 20
225.7613319999999
 30
0.0
 11
18.706898
 21
225.7613319999999
 31
0.0
  0
LINE
  5
9738
330
9641
100
AcDbEntity
  8
1
  6
Continuous
100
AcDbLine
 10
33.106898
 20
225.9773319999999
 30
0.0
 11
18.706898
 21
225.9773319999999
 31
0.0
  0
LINE
  5
9739
330
9641
100
AcDbEntity
  8
1
  6
Continuous
100
AcDbLine
 10
301.7119979999999
 20
135.995332
 30
0.0
 11
301.665998
 21
138.583332
 31
0.0
  0
LINE
  5
973A
330
9641
100
AcDbEntity
  8
1
  6
Continuous
100
AcDbLine
 10
291.3269979999999
 20
135.123332
 30
0.0
 11
291.266998
 21
138.5723319999999
 31
0.0
  0
LINE
  5
973B
330
9641
100
AcDbEntity
  8
1
  6
Continuous
100
AcDbLine
 10
295.226998
 20
135.123332
 30
0.0
 11
295.1669979999999
 21
138.5723319999999
 31
0.0
  0
LINE
  5
973C
330
9641
100
AcDbEntity
  8
1
  6
Continuous
100
AcDbLine
 10
291.9769979999998
 20
135.123332
 30
0.0
 11
291.9169979999999
 21
138.5723319999999
 31
0.0
  0
LINE
  5
973D
330
9641
100
AcDbEntity
  8
1
  6
Continuous
100
AcDbLine
 10
292.626998
 20
135.123332
 30
0.0
 11
292.566998
 21
138.5723319999999
 31
0.0
  0
LINE
  5
973E
330
9641
100
AcDbEntity
  8
1
  6
Continuous
100
AcDbLine
 10
293.2769979999998
 20
135.123332
 30
0.0
 11
293.2169979999999
 21
138.5723319999999
 31
0.0
  0
LINE
  5
973F
330
9641
100
AcDbEntity
  8
1
  6
Continuous
100
AcDbLine
 10
293.926998
 20
135.123332
 30
0.0
 11
293.866998
 21
138.5723319999999
 31
0.0
  0
LINE
  5
9740
330
9641
100
AcDbEntity
  8
1
  6
Continuous
100
AcDbLine
 10
294.576998
 20
135.123332
 30
0.0
 11
294.516998
 21
138.5723319999999
 31
0.0
  0
LINE
  5
9741
330
9641
100
AcDbEntity
  8
1
  6
Continuous
100
AcDbLine
 10
295.8769979999999
 20
135.123332
 30
0.0
 11
295.816998
 21
138.5723319999999
 31
0.0
  0
LINE
  5
9742
330
9641
100
AcDbEntity
  8
1
  6
Continuous
100
AcDbLine
 10
299.126998
 20
135.123332
 30
0.0
 11
299.066998
 21
138.5723319999999
 31
0.0
  0
LINE
  5
9743
330
9641
100
AcDbEntity
  8
1
  6
Continuous
100
AcDbLine
 10
296.526998
 20
135.123332
 30
0.0
 11
296.466998
 21
138.5723319999999
 31
0.0
  0
LINE
  5
9744
330
9641
100
AcDbEntity
  8
1
  6
Continuous
100
AcDbLine
 10
297.176998
 20
135.123332
 30
0.0
 11
297.116998
 21
138.5723319999999
 31
0.0
  0
LINE
  5
9745
330
9641
100
AcDbEntity
  8
1
  6
Continuous
100
AcDbLine
 10
297.8269979999998
 20
135.123332
 30
0.0
 11
297.7669979999999
 21
138.5723319999999
 31
0.0
  0
LINE
  5
9746
330
9641
100
AcDbEntity
  8
1
  6
Continuous
100
AcDbLine
 10
298.4769979999999
 20
135.123332
 30
0.0
 11
298.4169979999999
 21
138.5723319999999
 31
0.0
  0
LINE
  5
9747
330
9641
100
AcDbEntity
  8
1
  6
Continuous
100
AcDbLine
 10
299.776998
 20
135.123332
 30
0.0
 11
299.7169979999998
 21
138.5723319999999
 31
0.0
  0
LINE
  5
9748
330
9641
100
AcDbEntity
  8
1
  6
Continuous
100
AcDbLine
 10
302.127998
 20
122.630332
 30
0.0
 11
302.406998
 21
138.583332
 31
0.0
  0
LINE
  5
9749
330
9641
100
AcDbEntity
  8
1
  6
Continuous
100
AcDbLine
 10
300.4269980000001
 20
135.123332
 30
0.0
 11
300.366998
 21
138.5723319999999
 31
0.0
  0
LINE
  5
974A
330
9641
100
AcDbEntity
  8
1
  6
Continuous
100
AcDbLine
 10
301.076998
 20
135.123332
 30
0.0
 11
301.016998
 21
138.5723319999999
 31
0.0
  0
LINE
  5
974B
330
9641
100
AcDbEntity
  8
1
  6
Continuous
100
AcDbLine
 10
301.482998
 20
122.898332
 30
0.0
 11
301.756998
 21
138.595332
 31
0.0
  0
LINE
  5
974C
330
9641
100
AcDbEntity
  8
1
  6
Continuous
100
AcDbLine
 10
300.9529979999999
 20
133.711332
 30
0.0
 11
300.306998
 21
133.6433319999999
 31
0.0
  0
LINE
  5
974D
330
9641
100
AcDbEntity
  8
1
  6
Continuous
100
AcDbLine
 10
301.7629979999999
 20
138.652332
 30
0.0
 11
301.672998
 21
138.195332
 31
0.0
  0
LINE
  5
974E
330
9641
100
AcDbEntity
  8
4
  6
CENTER
100
AcDbLine
 10
305.4069979999998
 20
136.853332
 30
0.0
 11
286.406998
 21
136.853332
 31
0.0
  0
LINE
  5
974F
330
9641
100
AcDbEntity
  8
1
  6
Continuous
100
AcDbLine
 10
300.9529979999999
 20
133.711332
 30
0.0
 11
301.435998
 21
129.1653319999998
 31
0.0
  0
LINE
  5
9750
330
9641
100
AcDbEntity
  8
1
  6
Continuous
100
AcDbLine
 10
300.306998
 20
133.6433319999999
 30
0.0
 11
300.782998
 21
129.1653319999998
 31
0.0
  0
LINE
  5
9751
330
9641
100
AcDbEntity
  8
1
  6
Continuous
100
AcDbLine
 10
301.3689979999999
 20
123.646332
 30
0.0
 11
301.479998
 21
122.601332
 31
0.0
  0
LINE
  5
9752
330
9641
100
AcDbEntity
  8
1
  6
Continuous
100
AcDbLine
 10
289.667998
 20
128.815332
 30
0.0
 11
290.7769979999999
 21
135.6033319999999
 31
0.0
  0
LINE
  5
9753
330
9641
100
AcDbEntity
  8
1
  6
Continuous
100
AcDbLine
 10
291.1849979999999
 20
138.103332
 30
0.0
 11
291.270998
 21
138.630332
 31
0.0
  0
LINE
  5
9754
330
9641
100
AcDbEntity
  8
1
  6
Continuous
100
AcDbLine
 10
289.924998
 20
126.353332
 30
0.0
 11
289.9509979999999
 21
126.515332
 31
0.0
  0
LINE
  5
9755
330
9641
100
AcDbEntity
  8
1
  6
Continuous
100
AcDbLine
 10
290.383998
 20
129.1653319999998
 30
0.0
 11
291.341998
 21
135.0313319999999
 31
0.0
  0
LINE
  5
9756
330
9641
100
AcDbEntity
  8
1
  6
Continuous
100
AcDbLine
 10
290.326998
 20
128.815332
 30
0.0
 11
290.3569979999998
 21
128.998332
 31
0.0
  0
LINE
  5
9757
330
9641
100
AcDbEntity
  8
4
  6
CENTER
100
AcDbLine
 10
355.9069979999999
 20
164.3533319999999
 30
0.0
 11
355.9069979999999
 21
140.8533319999999
 31
0.0
  0
LINE
  5
9758
330
9641
100
AcDbEntity
  8
4
  6
CENTER
100
AcDbLine
 10
95.90699800000001
 20
164.3533319999999
 30
0.0
 11
95.90699800000001
 21
140.8533319999999
 31
0.0
  0
LINE
  5
9759
330
9641
100
AcDbEntity
  8
4
  6
CENTER
100
AcDbLine
 10
36.406898
 20
234.7753319999999
 30
0.0
 11
36.406898
 21
229.7753319999999
 31
0.0
  0
LINE
  5
975A
330
9641
100
AcDbEntity
  8
4
  6
CENTER
100
AcDbLine
 10
15.406898
 20
234.7753319999999
 30
0.0
 11
15.406898
 21
229.7753319999999
 31
0.0
  0
LINE
  5
975B
330
9641
100
AcDbEntity
  8
1
  6
Continuous
100
AcDbLine
 10
10.906898
 20
232.7753319999999
 30
0.0
 11
10.906898
 21
231.775332
 31
0.0
  0
LINE
  5
975C
330
9641
100
AcDbEntity
  8
1
  6
Continuous
100
AcDbLine
 10
10.906898
 20
231.775332
 30
0.0
 11
40.90689799999998
 21
231.775332
 31
0.0
  0
LINE
  5
975D
330
9641
100
AcDbEntity
  8
1
  6
Continuous
100
AcDbLine
 10
10.906898
 20
232.7753319999999
 30
0.0
 11
40.90689799999998
 21
232.7753319999999
 31
0.0
  0
LINE
  5
975E
330
9641
100
AcDbEntity
  8
1
  6
Continuous
100
AcDbLine
 10
40.90689799999998
 20
232.7753319999999
 30
0.0
 11
40.90689799999998
 21
231.775332
 31
0.0
  0
LINE
  5
975F
330
9641
100
AcDbEntity
  8
1
  6
Continuous
100
AcDbLine
 10
19.68529799999998
 20
43.775832
 30
0.0
 11
20.21479799999999
 21
44.586132
 31
0.0
  0
LINE
  5
9760
330
9641
100
AcDbEntity
  8
4
  6
CENTER
100
AcDbLine
 10
167.564998
 20
127.665332
 30
0.0
 11
172.564998
 21
127.665332
 31
0.0
  0
LINE
  5
9761
330
9641
100
AcDbEntity
  8
4
  6
CENTER
100
AcDbLine
 10
170.064998
 20
130.165332
 30
0.0
 11
170.064998
 21
125.165332
 31
0.0
  0
LINE
  5
9762
330
9641
100
AcDbEntity
  8
1
  6
Continuous
100
AcDbLine
 10
18.706898
 20
53.44043199999997
 30
0.0
 11
33.106898
 21
53.44043199999997
 31
0.0
  0
LINE
  5
9763
330
9641
100
AcDbEntity
  8
1
  6
Continuous
100
AcDbLine
 10
33.106898
 20
222.1113319999998
 30
0.0
 11
18.706898
 21
222.1113319999998
 31
0.0
  0
LINE
  5
9764
330
9641
100
AcDbEntity
  8
1
  6
Continuous
100
AcDbLine
 10
174.9539979999999
 20
142.8533319999999
 30
0.0
 11
173.9539979999999
 21
142.8533319999999
 31
0.0
  0
ARC
  5
9765
330
9641
100
AcDbEntity
  8
1
  6
Continuous
100
AcDbCircle
 10
110.156998
 20
143.6033319999999
 30
0.0
 40
0.75
100
AcDbArc
 50
270.0
 51
0.0
  0
ARC
  5
9766
330
9641
100
AcDbEntity
  8
1
  6
Continuous
100
AcDbCircle
 10
81.656998
 20
143.6033319999999
 30
0.0
 40
0.75
100
AcDbArc
 50
180.0
 51
270.0
  0
ARC
  5
9767
330
9641
100
AcDbEntity
  8
1
  6
Continuous
100
AcDbCircle
 10
85.90699800000001
 20
157.3533319999999
 30
0.0
 40
5.0
100
AcDbArc
 50
90.0
 51
180.0
  0
ARC
  5
9768
330
9641
100
AcDbEntity
  8
1
  6
Continuous
100
AcDbCircle
 10
105.906998
 20
157.3533319999999
 30
0.0
 40
5.0
100
AcDbArc
 50
0.0
 51
90.0
  0
CIRCLE
  5
9769
330
9641
100
AcDbEntity
  8
1
  6
Continuous
100
AcDbCircle
 10
106.4069979999999
 20
157.853332
 30
0.0
 40
2.6
  0
CIRCLE
  5
976A
330
9641
100
AcDbEntity
  8
1
  6
Continuous
100
AcDbCircle
 10
106.4069979999999
 20
157.853332
 30
0.0
 40
1.6
  0
CIRCLE
  5
976B
330
9641
100
AcDbEntity
  8
1
  6
Continuous
100
AcDbCircle
 10
85.406998
 20
157.853332
 30
0.0
 40
2.6
  0
CIRCLE
  5
976C
330
9641
100
AcDbEntity
  8
1
  6
Continuous
100
AcDbCircle
 10
85.406998
 20
157.853332
 30
0.0
 40
1.6
  0
ARC
  5
976D
330
9641
100
AcDbEntity
  8
1
  6
Continuous
100
AcDbCircle
 10
101.4069979999999
 20
155.153332
 30
0.0
 40
1.5
100
AcDbArc
 50
0.0
 51
90.0
  0
ARC
  5
976E
330
9641
100
AcDbEntity
  8
1
  6
Continuous
100
AcDbCircle
 10
90.406998
 20
155.153332
 30
0.0
 40
1.5
100
AcDbArc
 50
90.0
 51
180.0
  0
ARC
  5
976F
330
9641
100
AcDbEntity
  8
1
  6
Continuous
100
AcDbCircle
 10
101.4069979999999
 20
153.1343319999998
 30
0.0
 40
1.5
100
AcDbArc
 50
0.0
 51
90.0
  0
ARC
  5
9770
330
9641
100
AcDbEntity
  8
1
  6
Continuous
100
AcDbCircle
 10
101.4069979999999
 20
152.853332
 30
0.0
 40
1.5
100
AcDbArc
 50
0.0
 51
90.0
  0
ARC
  5
9771
330
9641
100
AcDbEntity
  8
1
  6
Continuous
100
AcDbCircle
 10
90.406998
 20
153.1343319999998
 30
0.0
 40
1.5
100
AcDbArc
 50
90.0
 51
180.0
  0
ARC
  5
9772
330
9641
100
AcDbEntity
  8
1
  6
Continuous
100
AcDbCircle
 10
90.406998
 20
152.853332
 30
0.0
 40
1.5
100
AcDbArc
 50
90.0
 51
180.0
  0
ARC
  5
9773
330
9641
100
AcDbEntity
  8
1
  6
Continuous
100
AcDbCircle
 10
101.4069979999999
 20
226.775332
 30
0.0
 40
1.5
100
AcDbArc
 50
270.0
 51
0.0
  0
ARC
  5
9774
330
9641
100
AcDbEntity
  8
1
  6
Continuous
100
AcDbCircle
 10
101.4069979999999
 20
227.7353319999999
 30
0.0
 40
1.5
100
AcDbArc
 50
270.0
 51
0.0
  0
ARC
  5
9775
330
9641
100
AcDbEntity
  8
1
  6
Continuous
100
AcDbCircle
 10
90.406998
 20
226.775332
 30
0.0
 40
1.5
100
AcDbArc
 50
180.0
 51
270.0
  0
ARC
  5
9776
330
9641
100
AcDbEntity
  8
1
  6
Continuous
100
AcDbCircle
 10
90.406998
 20
227.7353319999999
 30
0.0
 40
1.5
100
AcDbArc
 50
180.0
 51
270.0
  0
ARC
  5
9777
330
9641
100
AcDbEntity
  8
1
  6
Continuous
100
AcDbCircle
 10
40.15689799999999
 20
142.103332
 30
0.0
 40
0.75
100
AcDbArc
 50
0.0
 51
90.0
  0
ARC
  5
9778
330
9641
100
AcDbEntity
  8
1
  6
Continuous
100
AcDbCircle
 10
11.65689799999998
 20
142.103332
 30
0.0
 40
0.75
100
AcDbArc
 50
90.0
 51
180.0
  0
ARC
  5
9779
330
9641
100
AcDbEntity
  8
1
  6
Continuous
100
AcDbCircle
 10
35.90689799999999
 20
112.3533319999999
 30
0.0
 40
5.0
100
AcDbArc
 50
270.0
 51
0.0
  0
ARC
  5
977A
330
9641
100
AcDbEntity
  8
1
  6
Continuous
100
AcDbCircle
 10
15.906898
 20
112.3533319999999
 30
0.0
 40
5.0
100
AcDbArc
 50
180.0
 51
270.0
  0
ARC
  5
977B
330
9641
100
AcDbEntity
  8
1
  6
Continuous
100
AcDbCircle
 10
32.406898
 20
139.853332
 30
0.0
 40
1.0
100
AcDbArc
 50
28.7545
 51
90.0
  0
ARC
  5
977C
330
9641
100
AcDbEntity
  8
1
  6
Continuous
100
AcDbCircle
 10
19.406898
 20
139.853332
 30
0.0
 40
1.0
100
AcDbArc
 50
90.0
 51
152.0209999999999
  0
ARC
  5
977D
330
9641
100
AcDbEntity
  8
1
  6
Continuous
100
AcDbCircle
 10
36.406898
 20
111.3533319999999
 30
0.0
 40
2.6
100
AcDbArc
 50
195.942
 51
164.0579999999999
  0
CIRCLE
  5
977E
330
9641
100
AcDbEntity
  8
1
  6
Continuous
100
AcDbCircle
 10
36.406898
 20
111.3533319999999
 30
0.0
 40
1.6
  0
ARC
  5
977F
330
9641
100
AcDbEntity
  8
1
  6
Continuous
100
AcDbCircle
 10
15.406898
 20
111.3533319999999
 30
0.0
 40
2.6
100
AcDbArc
 50
15.9424
 51
344.0580000000001
  0
CIRCLE
  5
9780
330
9641
100
AcDbEntity
  8
1
  6
Continuous
100
AcDbCircle
 10
15.406898
 20
111.3533319999999
 30
0.0
 40
1.6
  0
ARC
  5
9781
330
9641
100
AcDbEntity
  8
1
  6
Continuous
100
AcDbCircle
 10
174.583998
 20
135.827332
 30
0.0
 40
7.5
100
AcDbArc
 50
262.069
 51
265.1859999999999
  0
ARC
  5
9782
330
9641
100
AcDbEntity
  8
1
  6
Continuous
100
AcDbCircle
 10
169.4539979999998
 20
136.853332
 30
0.0
 40
1.3
100
AcDbArc
 50
82.697029
 51
265.7281439999998
  0
ARC
  5
9783
330
9641
100
AcDbEntity
  8
1
  6
Continuous
100
AcDbCircle
 10
33.12689799999999
 20
136.853332
 30
0.0
 40
1.78
100
AcDbArc
 50
295.9889999999999
 51
64.0108
  0
ARC
  5
9784
330
9641
100
AcDbEntity
  8
1
  6
Continuous
100
AcDbCircle
 10
34.65689799999999
 20
130.165332
 30
0.0
 40
1.0
100
AcDbArc
 50
270.0
 51
0.0
  0
ARC
  5
9785
330
9641
100
AcDbEntity
  8
1
  6
Continuous
100
AcDbCircle
 10
17.156898
 20
130.165332
 30
0.0
 40
1.0
100
AcDbArc
 50
180.0
 51
270.0
  0
ARC
  5
9786
330
9641
100
AcDbEntity
  8
1
  6
Continuous
100
AcDbCircle
 10
17.156898
 20
130.165332
 30
0.0
 40
4.0
100
AcDbArc
 50
180.0
 51
270.0
  0
ARC
  5
9787
330
9641
100
AcDbEntity
  8
1
  6
Continuous
100
AcDbCircle
 10
34.65689799999999
 20
130.165332
 30
0.0
 40
4.0
100
AcDbArc
 50
270.0
 51
0.0
  0
ARC
  5
9788
330
9641
100
AcDbEntity
  8
1
  6
Continuous
100
AcDbCircle
 10
170.064998
 20
127.665332
 30
0.0
 40
1.5
100
AcDbArc
 50
174.2125859999999
 51
354.212586
  0
ARC
  5
9789
330
9641
100
AcDbEntity
  8
1
  6
Continuous
100
AcDbCircle
 10
285.906998
 20
112.3533319999999
 30
0.0
 40
5.0
100
AcDbArc
 50
180.0
 51
270.0
  0
ARC
  5
978A
330
9641
100
AcDbEntity
  8
1
  6
Continuous
100
AcDbCircle
 10
301.9069979999998
 20
123.053332
 30
0.0
 40
0.8
100
AcDbArc
 50
120.762
 51
72.37489999999998
  0
CIRCLE
  5
978B
330
9641
100
AcDbEntity
  8
1
  6
Continuous
100
AcDbCircle
 10
295.9069979999998
 20
123.8533319999999
 30
0.0
 40
1.6
  0
ARC
  5
978C
330
9641
100
AcDbEntity
  8
1
  6
Continuous
100
AcDbCircle
 10
302.406998
 20
139.853332
 30
0.0
 40
1.0
100
AcDbArc
 50
0.0
 51
90.0
  0
ARC
  5
978D
330
9641
100
AcDbEntity
  8
1
  6
Continuous
100
AcDbCircle
 10
281.656998
 20
142.103332
 30
0.0
 40
0.75
100
AcDbArc
 50
90.0
 51
180.0
  0
ARC
  5
978E
330
9641
100
AcDbEntity
  8
1
  6
Continuous
100
AcDbCircle
 10
289.4069979999999
 20
139.853332
 30
0.0
 40
1.0
100
AcDbArc
 50
90.0
 51
180.0
  0
ARC
  5
978F
330
9641
100
AcDbEntity
  8
1
  6
Continuous
100
AcDbCircle
 10
295.9069979999998
 20
123.8533319999999
 30
0.0
 40
4.5
100
AcDbArc
 50
33.749
 51
146.2509999999998
  0
ARC
  5
9790
330
9641
100
AcDbEntity
  8
1
  6
Continuous
100
AcDbCircle
 10
305.9069979999998
 20
112.3533319999999
 30
0.0
 40
5.0
100
AcDbArc
 50
270.0
 51
0.0
  0
CIRCLE
  5
9791
330
9641
100
AcDbEntity
  8
1
  6
Continuous
100
AcDbCircle
 10
285.4069979999998
 20
111.3533319999999
 30
0.0
 40
1.6
  0
ARC
  5
9792
330
9641
100
AcDbEntity
  8
1
  6
Continuous
100
AcDbCircle
 10
310.1569979999998
 20
142.103332
 30
0.0
 40
0.75
100
AcDbArc
 50
0.0
 51
90.0
  0
CIRCLE
  5
9793
330
9641
100
AcDbEntity
  8
1
  6
Continuous
100
AcDbCircle
 10
306.4069979999998
 20
111.3533319999999
 30
0.0
 40
1.6
  0
ARC
  5
9794
330
9641
100
AcDbEntity
  8
1
  6
Continuous
100
AcDbCircle
 10
350.406998
 20
153.1343319999998
 30
0.0
 40
1.5
100
AcDbArc
 50
90.0
 51
180.0
  0
ARC
  5
9795
330
9641
100
AcDbEntity
  8
1
  6
Continuous
100
AcDbCircle
 10
361.406998
 20
153.1343319999998
 30
0.0
 40
1.5
100
AcDbArc
 50
0.0
 51
90.0
  0
ARC
  5
9796
330
9641
100
AcDbEntity
  8
1
  6
Continuous
100
AcDbCircle
 10
350.406998
 20
155.153332
 30
0.0
 40
1.5
100
AcDbArc
 50
90.0
 51
180.0
  0
ARC
  5
9797
330
9641
100
AcDbEntity
  8
1
  6
Continuous
100
AcDbCircle
 10
361.406998
 20
155.153332
 30
0.0
 40
1.5
100
AcDbArc
 50
0.0
 51
90.0
  0
CIRCLE
  5
9798
330
9641
100
AcDbEntity
  8
1
  6
Continuous
100
AcDbCircle
 10
345.4069979999999
 20
157.853332
 30
0.0
 40
1.6
  0
CIRCLE
  5
9799
330
9641
100
AcDbEntity
  8
1
  6
Continuous
100
AcDbCircle
 10
366.4069979999999
 20
157.853332
 30
0.0
 40
1.6
  0
ARC
  5
979A
330
9641
100
AcDbEntity
  8
1
  6
Continuous
100
AcDbCircle
 10
365.9069979999999
 20
157.3533319999999
 30
0.0
 40
5.0
100
AcDbArc
 50
0.0
 51
90.0
  0
ARC
  5
979B
330
9641
100
AcDbEntity
  8
1
  6
Continuous
100
AcDbCircle
 10
341.6569979999998
 20
143.6033319999999
 30
0.0
 40
0.75
100
AcDbArc
 50
180.0
 51
270.0
  0
ARC
  5
979C
330
9641
100
AcDbEntity
  8
1
  6
Continuous
100
AcDbCircle
 10
370.1569979999999
 20
143.6033319999999
 30
0.0
 40
0.75
100
AcDbArc
 50
270.0
 51
0.0
  0
ARC
  5
979D
330
9641
100
AcDbEntity
  8
1
  6
Continuous
100
AcDbCircle
 10
345.9069979999999
 20
157.3533319999999
 30
0.0
 40
5.0
100
AcDbArc
 50
90.0
 51
180.0
  0
ARC
  5
979E
330
9641
100
AcDbEntity
  8
1
  6
Continuous
100
AcDbCircle
 10
169.4539979999998
 20
136.853332
 30
0.0
 40
1.25
100
AcDbArc
 50
82.636392
 51
265.7887809999999
  0
ARC
  5
979F
330
9641
100
AcDbEntity
  8
1
  6
Continuous
100
AcDbCircle
 10
33.12689799999999
 20
227.275332
 30
0.0
 40
1.78
100
AcDbArc
 50
295.9889999999999
 51
57.42598199999999
  0
ARC
  5
97A0
330
9641
100
AcDbEntity
  8
1
  6
Continuous
100
AcDbCircle
 10
37.15689799999999
 20
230.2753319999999
 30
0.0
 40
1.5
100
AcDbArc
 50
0.0
 51
90.0
  0
ARC
  5
97A1
330
9641
100
AcDbEntity
  8
1
  6
Continuous
100
AcDbCircle
 10
14.656898
 20
230.2753319999999
 30
0.0
 40
1.5
100
AcDbArc
 50
90.0
 51
180.0
  0
ARC
  5
97A2
330
9641
100
AcDbEntity
  8
1
  6
Continuous
100
AcDbCircle
 10
14.656898
 20
227.8853319999999
 30
0.0
 40
1.5
100
AcDbArc
 50
180.0
 51
270.0
  0
ARC
  5
97A3
330
9641
100
AcDbEntity
  8
1
  6
Continuous
100
AcDbCircle
 10
37.15689799999999
 20
227.8853319999999
 30
0.0
 40
1.5
100
AcDbArc
 50
270.0
 51
0.0
  0
ARC
  5
97A4
330
9641
100
AcDbEntity
  8
1
  6
Continuous
100
AcDbCircle
 10
37.15689799999999
 20
45.275832
 30
0.0
 40
1.5
100
AcDbArc
 50
270.0
 51
0.0
  0
ARC
  5
97A5
330
9641
100
AcDbEntity
  8
1
  6
Continuous
100
AcDbCircle
 10
14.656898
 20
45.275832
 30
0.0
 40
1.5
100
AcDbArc
 50
180.0
 51
270.0
  0
ARC
  5
97A6
330
9641
100
AcDbEntity
  8
1
  6
Continuous
100
AcDbCircle
 10
37.15689799999999
 20
47.66553199999999
 30
0.0
 40
1.5
100
AcDbArc
 50
0.0
 51
90.0
  0
ARC
  5
97A7
330
9641
100
AcDbEntity
  8
1
  6
Continuous
100
AcDbCircle
 10
14.656898
 20
47.66553199999999
 30
0.0
 40
1.5
100
AcDbArc
 50
90.0
 51
180.0
  0
ARC
  5
97A8
330
9641
100
AcDbEntity
  8
1
  6
Continuous
100
AcDbCircle
 10
33.12689799999999
 20
48.275832
 30
0.0
 40
1.78
100
AcDbArc
 50
295.9889999999999
 51
64.0108
  0
ARC
  5
97A9
330
9641
100
AcDbEntity
  8
1
  6
Continuous
100
AcDbCircle
 10
225.9869979999999
 20
157.1613319999999
 30
0.0
 40
10.0
100
AcDbArc
 50
196.309
 51
251.9550000000001
  0
ARC
  5
97AA
330
9641
100
AcDbEntity
  8
1
  6
Continuous
100
AcDbCircle
 10
225.9869979999999
 20
157.1613319999999
 30
0.0
 40
9.0
100
AcDbArc
 50
196.309
 51
249.868
  0
ARC
  5
97AB
330
9641
100
AcDbEntity
  8
1
  6
Continuous
100
AcDbCircle
 10
170.064998
 20
127.665332
 30
0.0
 40
1.7
100
AcDbArc
 50
146.140099
 51
271.3119999999999
  0
ARC
  5
97AC
330
9641
100
AcDbEntity
  8
1
  6
Continuous
100
AcDbCircle
 10
171.4539979999998
 20
110.654332
 30
0.0
 40
2.5
100
AcDbArc
 50
282.777
 51
1.311529999999998
  0
ARC
  5
97AD
330
9641
100
AcDbEntity
  8
1
  6
Continuous
100
AcDbCircle
 10
167.4159979999998
 20
134.142332
 30
0.0
 40
6.0
100
AcDbArc
 50
66.86882699999999
 51
84.98899999999997
  0
ARC
  5
97AE
330
9641
100
AcDbEntity
  8
1
  6
Continuous
100
AcDbCircle
 10
169.2899979999999
 20
135.3053319999999
 30
0.0
 40
5.0
100
AcDbArc
 50
105.662
 51
196.312
  0
ARC
  5
97AF
330
9641
100
AcDbEntity
  8
1
  6
Continuous
100
AcDbCircle
 10
167.254998
 20
106.653332
 30
0.0
 40
5.0
100
AcDbArc
 50
309.7649999999998
 51
16.31149999999999
  0
ARC
  5
97B0
330
9641
100
AcDbEntity
  8
1
  6
Continuous
100
AcDbCircle
 10
167.254998
 20
106.653332
 30
0.0
 40
5.799999999999998
100
AcDbArc
 50
309.5159999999999
 51
16.31149999999999
  0
ARC
  5
97B1
330
9641
100
AcDbEntity
  8
1
  6
Continuous
100
AcDbCircle
 10
33.15689799999999
 20
139.5843319999999
 30
0.0
 40
0.75
100
AcDbArc
 50
0.0
 51
90.0
  0
ARC
  5
97B2
330
9641
100
AcDbEntity
  8
1
  6
Continuous
100
AcDbCircle
 10
18.656898
 20
139.5843319999999
 30
0.0
 40
0.75
100
AcDbArc
 50
90.0
 51
180.0
  0
ARC
  5
97B3
330
9641
100
AcDbEntity
  8
1
  6
Continuous
100
AcDbCircle
 10
25.906898
 20
111.4783319999999
 30
0.0
 40
9.29997
100
AcDbArc
 50
212.502
 51
327.4979999999998
  0
ARC
  5
97B4
330
9641
100
AcDbEntity
  8
1
  6
Continuous
100
AcDbCircle
 10
32.90689799999999
 20
107.0183319999999
 30
0.0
 40
1.0
100
AcDbArc
 50
327.4979999999998
 51
0.0
  0
ARC
  5
97B5
330
9641
100
AcDbEntity
  8
1
  6
Continuous
100
AcDbCircle
 10
18.906898
 20
107.0183319999999
 30
0.0
 40
1.0
100
AcDbArc
 50
180.0
 51
212.502
  0
ARC
  5
97B6
330
9641
100
AcDbEntity
  8
1
  6
Continuous
100
AcDbCircle
 10
25.906898
 20
34.03833199999999
 30
0.0
 40
13.2385
100
AcDbArc
 50
53.9304
 51
126.0699999999998
  0
ARC
  5
97B7
330
9641
100
AcDbEntity
  8
1
  6
Continuous
100
AcDbCircle
 10
25.906898
 20
33.979132
 30
0.0
 40
12.8198
100
AcDbArc
 50
57.0547
 51
122.9449999999998
  0
ARC
  5
97B8
330
9641
100
AcDbEntity
  8
1
  6
Continuous
100
AcDbCircle
 10
33.40689799999999
 20
44.334832
 30
0.0
 40
0.5
100
AcDbArc
 50
0.0
 51
53.9304
  0
ARC
  5
97B9
330
9641
100
AcDbEntity
  8
1
  6
Continuous
100
AcDbCircle
 10
32.606898
 20
44.317832
 30
0.0
 40
0.5
100
AcDbArc
 50
0.0
 51
57.0547
  0
ARC
  5
97BA
330
9641
100
AcDbEntity
  8
1
  6
Continuous
100
AcDbCircle
 10
18.406898
 20
44.334832
 30
0.0
 40
0.5
100
AcDbArc
 50
126.0699999999998
 51
180.0
  0
ARC
  5
97BB
330
9641
100
AcDbEntity
  8
1
  6
Continuous
100
AcDbCircle
 10
19.20689799999999
 20
44.317832
 30
0.0
 40
0.5
100
AcDbArc
 50
122.9449999999998
 51
180.0
  0
ARC
  5
97BC
330
9641
100
AcDbEntity
  8
1
  6
Continuous
100
AcDbCircle
 10
302.906998
 20
107.0183319999999
 30
0.0
 40
1.0
100
AcDbArc
 50
327.4979999999998
 51
0.0
  0
ARC
  5
97BD
330
9641
100
AcDbEntity
  8
1
  6
Continuous
100
AcDbCircle
 10
288.906998
 20
107.0183319999999
 30
0.0
 40
1.0
100
AcDbArc
 50
180.0
 51
212.502
  0
ARC
  5
97BE
330
9641
100
AcDbEntity
  8
1
  6
Continuous
100
AcDbCircle
 10
295.9069979999998
 20
111.4783319999999
 30
0.0
 40
9.29997
100
AcDbArc
 50
212.502
 51
327.4979999999998
  0
ARC
  5
97BF
330
9641
100
AcDbEntity
  8
1
  6
Continuous
100
AcDbCircle
 10
295.9069979999998
 20
112.8203319999999
 30
0.0
 40
10.0
100
AcDbArc
 50
218.9419999999998
 51
321.058
  0
ARC
  5
97C0
330
9641
100
AcDbEntity
  8
1
  6
Continuous
100
AcDbCircle
 10
302.906998
 20
107.163332
 30
0.0
 40
1.0
100
AcDbArc
 50
321.058
 51
0.0
  0
ARC
  5
97C1
330
9641
100
AcDbEntity
  8
1
  6
Continuous
100
AcDbCircle
 10
288.906998
 20
107.163332
 30
0.0
 40
1.0
100
AcDbArc
 50
180.0
 51
218.9419999999998
  0
ARC
  5
97C2
330
9641
100
AcDbEntity
  8
1
  6
Continuous
100
AcDbCircle
 10
25.906898
 20
112.8203319999999
 30
0.0
 40
10.0
100
AcDbArc
 50
218.9419999999998
 51
321.058
  0
ARC
  5
97C3
330
9641
100
AcDbEntity
  8
1
  6
Continuous
100
AcDbCircle
 10
32.90689799999999
 20
107.163332
 30
0.0
 40
1.0
100
AcDbArc
 50
321.058
 51
0.0
  0
ARC
  5
97C4
330
9641
100
AcDbEntity
  8
1
  6
Continuous
100
AcDbCircle
 10
18.906898
 20
107.163332
 30
0.0
 40
1.0
100
AcDbArc
 50
180.0
 51
218.9419999999998
  0
ARC
  5
97C5
330
9641
100
AcDbEntity
  8
1
  6
Continuous
100
AcDbCircle
 10
170.064998
 20
127.665332
 30
0.0
 40
1.7
100
AcDbArc
 50
271.3119999999999
 51
22.28507299999999
  0
ARC
  5
97C6
330
9641
100
AcDbEntity
  8
1
  6
Continuous
100
AcDbCircle
 10
167.4159979999998
 20
134.142332
 30
0.0
 40
6.0
100
AcDbArc
 50
1.311529999999998
 51
31.26316199999999
  0
ARC
  5
97C7
330
9641
100
AcDbEntity
  8
1
  6
Continuous
100
AcDbCircle
 10
301.8039979999999
 20
122.636332
 30
0.0
 40
0.325
100
AcDbArc
 50
186.0
 51
359.0
  0
ARC
  5
97C8
330
9641
100
AcDbEntity
  8
1
  6
Continuous
100
AcDbCircle
 10
301.341998
 20
138.5783319999999
 30
0.0
 40
0.325
100
AcDbArc
 50
1.0
 51
181.0
  0
ARC
  5
97C9
330
9641
100
AcDbEntity
  8
1
  6
Continuous
100
AcDbCircle
 10
292.301998
 20
135.128332
 30
0.0
 40
0.325
100
AcDbArc
 50
181.0
 51
1.0
  0
ARC
  5
97CA
330
9641
100
AcDbEntity
  8
1
  6
Continuous
100
AcDbCircle
 10
291.6519979999998
 20
135.128332
 30
0.0
 40
0.325
100
AcDbArc
 50
181.0
 51
1.0
  0
ARC
  5
97CB
330
9641
100
AcDbEntity
  8
1
  6
Continuous
100
AcDbCircle
 10
291.5919979999998
 20
138.5783319999999
 30
0.0
 40
0.325
100
AcDbArc
 50
1.0
 51
181.0
  0
ARC
  5
97CC
330
9641
100
AcDbEntity
  8
1
  6
Continuous
100
AcDbCircle
 10
292.241998
 20
138.5783319999999
 30
0.0
 40
0.325
100
AcDbArc
 50
1.0
 51
181.0
  0
ARC
  5
97CD
330
9641
100
AcDbEntity
  8
1
  6
Continuous
100
AcDbCircle
 10
292.8919979999998
 20
138.5783319999999
 30
0.0
 40
0.325
100
AcDbArc
 50
1.0
 51
181.0
  0
ARC
  5
97CE
330
9641
100
AcDbEntity
  8
1
  6
Continuous
100
AcDbCircle
 10
294.191998
 20
138.5783319999999
 30
0.0
 40
0.325
100
AcDbArc
 50
1.0
 51
181.0
  0
ARC
  5
97CF
330
9641
100
AcDbEntity
  8
1
  6
Continuous
100
AcDbCircle
 10
292.951998
 20
135.128332
 30
0.0
 40
0.325
100
AcDbArc
 50
181.0
 51
1.0
  0
ARC
  5
97D0
330
9641
100
AcDbEntity
  8
1
  6
Continuous
100
AcDbCircle
 10
293.5419979999998
 20
138.5783319999999
 30
0.0
 40
0.325
100
AcDbArc
 50
1.0
 51
181.0
  0
ARC
  5
97D1
330
9641
100
AcDbEntity
  8
1
  6
Continuous
100
AcDbCircle
 10
293.6019979999999
 20
135.128332
 30
0.0
 40
0.325
100
AcDbArc
 50
181.0
 51
1.0
  0
ARC
  5
97D2
330
9641
100
AcDbEntity
  8
1
  6
Continuous
100
AcDbCircle
 10
294.251998
 20
135.128332
 30
0.0
 40
0.325
100
AcDbArc
 50
181.0
 51
1.0
  0
ARC
  5
97D3
330
9641
100
AcDbEntity
  8
1
  6
Continuous
100
AcDbCircle
 10
294.901998
 20
135.128332
 30
0.0
 40
0.325
100
AcDbArc
 50
181.0
 51
1.0
  0
ARC
  5
97D4
330
9641
100
AcDbEntity
  8
1
  6
Continuous
100
AcDbCircle
 10
296.8519979999999
 20
135.128332
 30
0.0
 40
0.325
100
AcDbArc
 50
181.0
 51
1.0
  0
ARC
  5
97D5
330
9641
100
AcDbEntity
  8
1
  6
Continuous
100
AcDbCircle
 10
294.841998
 20
138.5783319999999
 30
0.0
 40
0.325
100
AcDbArc
 50
1.0
 51
181.0
  0
ARC
  5
97D6
330
9641
100
AcDbEntity
  8
1
  6
Continuous
100
AcDbCircle
 10
295.551998
 20
135.128332
 30
0.0
 40
0.325
100
AcDbArc
 50
181.0
 51
1.0
  0
ARC
  5
97D7
330
9641
100
AcDbEntity
  8
1
  6
Continuous
100
AcDbCircle
 10
295.491998
 20
138.5783319999999
 30
0.0
 40
0.325
100
AcDbArc
 50
1.0
 51
181.0
  0
ARC
  5
97D8
330
9641
100
AcDbEntity
  8
1
  6
Continuous
100
AcDbCircle
 10
296.2019979999999
 20
135.128332
 30
0.0
 40
0.325
100
AcDbArc
 50
181.0
 51
1.0
  0
ARC
  5
97D9
330
9641
100
AcDbEntity
  8
1
  6
Continuous
100
AcDbCircle
 10
296.141998
 20
138.5783319999999
 30
0.0
 40
0.325
100
AcDbArc
 50
1.0
 51
181.0
  0
ARC
  5
97DA
330
9641
100
AcDbEntity
  8
1
  6
Continuous
100
AcDbCircle
 10
296.7919979999999
 20
138.5783319999999
 30
0.0
 40
0.325
100
AcDbArc
 50
1.0
 51
181.0
  0
ARC
  5
97DB
330
9641
100
AcDbEntity
  8
1
  6
Continuous
100
AcDbCircle
 10
298.741998
 20
138.5783319999999
 30
0.0
 40
0.325
100
AcDbArc
 50
1.0
 51
181.0
  0
ARC
  5
97DC
330
9641
100
AcDbEntity
  8
1
  6
Continuous
100
AcDbCircle
 10
297.501998
 20
135.128332
 30
0.0
 40
0.325
100
AcDbArc
 50
181.0
 51
1.0
  0
ARC
  5
97DD
330
9641
100
AcDbEntity
  8
1
  6
Continuous
100
AcDbCircle
 10
297.441998
 20
138.5783319999999
 30
0.0
 40
0.325
100
AcDbArc
 50
1.0
 51
181.0
  0
ARC
  5
97DE
330
9641
100
AcDbEntity
  8
1
  6
Continuous
100
AcDbCircle
 10
298.1519979999998
 20
135.128332
 30
0.0
 40
0.325
100
AcDbArc
 50
181.0
 51
1.0
  0
ARC
  5
97DF
330
9641
100
AcDbEntity
  8
1
  6
Continuous
100
AcDbCircle
 10
298.0919979999999
 20
138.5783319999999
 30
0.0
 40
0.325
100
AcDbArc
 50
1.0
 51
181.0
  0
ARC
  5
97E0
330
9641
100
AcDbEntity
  8
1
  6
Continuous
100
AcDbCircle
 10
298.801998
 20
135.128332
 30
0.0
 40
0.325
100
AcDbArc
 50
181.0
 51
1.0
  0
ARC
  5
97E1
330
9641
100
AcDbEntity
  8
1
  6
Continuous
100
AcDbCircle
 10
300.751998
 20
135.128332
 30
0.0
 40
0.325
100
AcDbArc
 50
181.0
 51
1.0
  0
ARC
  5
97E2
330
9641
100
AcDbEntity
  8
1
  6
Continuous
100
AcDbCircle
 10
299.451998
 20
135.128332
 30
0.0
 40
0.325
100
AcDbArc
 50
181.0
 51
1.0
  0
ARC
  5
97E3
330
9641
100
AcDbEntity
  8
1
  6
Continuous
100
AcDbCircle
 10
299.391998
 20
138.5783319999999
 30
0.0
 40
0.325
100
AcDbArc
 50
1.0
 51
181.0
  0
ARC
  5
97E4
330
9641
100
AcDbEntity
  8
1
  6
Continuous
100
AcDbCircle
 10
300.1019979999999
 20
135.128332
 30
0.0
 40
0.325
100
AcDbArc
 50
181.0
 51
1.0
  0
ARC
  5
97E5
330
9641
100
AcDbEntity
  8
1
  6
Continuous
100
AcDbCircle
 10
300.0419979999999
 20
138.5783319999999
 30
0.0
 40
0.325
100
AcDbArc
 50
1.0
 51
181.0
  0
ARC
  5
97E6
330
9641
100
AcDbEntity
  8
1
  6
Continuous
100
AcDbCircle
 10
300.691998
 20
138.5783319999999
 30
0.0
 40
0.325
100
AcDbArc
 50
1.0
 51
181.0
  0
ARC
  5
97E7
330
9641
100
AcDbEntity
  8
1
  6
Continuous
100
AcDbCircle
 10
301.401998
 20
135.128332
 30
0.0
 40
0.325
100
AcDbArc
 50
181.0
 51
334.0819999999999
  0
ARC
  5
97E8
330
9641
100
AcDbEntity
  8
1
  6
Continuous
100
AcDbCircle
 10
302.081998
 20
138.589332
 30
0.0
 40
0.325
100
AcDbArc
 50
359.0
 51
179.0
  0
CIRCLE
  5
97E9
330
9641
100
AcDbEntity
  8
3
  6
DASHED
100
AcDbCircle
 10
295.9069979999998
 20
123.8533319999999
 30
0.0
 40
2.6
  0
ARC
  5
97EA
330
9641
100
AcDbEntity
  8
1
  6
Continuous
100
AcDbCircle
 10
18.706898
 20
52.64043199999999
 30
0.0
 40
0.8
100
AcDbArc
 50
90.0
 51
180.0
  0
ARC
  5
97EB
330
9641
100
AcDbEntity
  8
1
  6
Continuous
100
AcDbCircle
 10
33.106898
 20
52.64043199999999
 30
0.0
 40
0.8
100
AcDbArc
 50
0.0
 51
90.0
  0
ARC
  5
97EC
330
9641
100
AcDbEntity
  8
1
  6
Continuous
100
AcDbCircle
 10
18.706898
 20
222.9113319999999
 30
0.0
 40
0.8
100
AcDbArc
 50
180.0
 51
270.0
  0
ARC
  5
97ED
330
9641
100
AcDbEntity
  8
1
  6
Continuous
100
AcDbCircle
 10
33.106898
 20
222.9113319999999
 30
0.0
 40
0.8
100
AcDbArc
 50
270.0
 51
0.0
  0
ARC
  5
97EE
330
9641
100
AcDbEntity
  8
1
  6
Continuous
100
AcDbCircle
 10
172.4539979999999
 20
151.2360989999999
 30
0.0
 40
1.5
100
AcDbArc
 50
354.212586
 51
174.2125859999999
  0
LINE
  5
97EF
330
9641
100
AcDbEntity
  8
1
  6
Continuous
100
AcDbLine
 10
173.9463519999999
 20
151.0848419999998
 30
0.0
 11
171.557352
 21
127.5140759999999
 31
0.0
  0
LINE
  5
97F0
330
9641
100
AcDbEntity
  8
1
  6
Continuous
100
AcDbLine
 10
170.9616429999998
 20
151.387355
 30
0.0
 11
168.572643
 21
127.8165889999998
 31
0.0
  0
LINE
  5
97F1
330
9641
100
AcDbEntity
  8
4
  6
CENTER
100
AcDbLine
 10
172.4539979999999
 20
148.864916
 30
0.0
 11
172.4539979999999
 21
153.4808649999999
 31
0.0
  0
LINE
  5
97F2
330
9641
100
AcDbEntity
  8
4
  6
CENTER
100
AcDbLine
 10
170.147219
 20
151.2360989999999
 30
0.0
 11
174.8193959999999
 21
151.2360989999999
 31
0.0
  0
ARC
  5
97F3
330
9641
100
AcDbEntity
  8
1
  6
Continuous
100
AcDbCircle
 10
287.1569979999998
 20
148.7360989999999
 30
0.0
 40
1.0
100
AcDbArc
 50
90.0
 51
180.0
  0
ARC
  5
97F4
330
9641
100
AcDbEntity
  8
1
  6
Continuous
100
AcDbCircle
 10
304.656998
 20
148.7360989999999
 30
0.0
 40
1.0
100
AcDbArc
 50
0.0
 51
90.0
  0
ARC
  5
97F5
330
9641
100
AcDbEntity
  8
1
  6
Continuous
100
AcDbCircle
 10
287.1569979999998
 20
148.7360989999999
 30
0.0
 40
4.0
100
AcDbArc
 50
90.0
 51
180.0
  0
ARC
  5
97F6
330
9641
100
AcDbEntity
  8
1
  6
Continuous
100
AcDbCircle
 10
304.656998
 20
148.7360989999999
 30
0.0
 40
4.0
100
AcDbArc
 50
0.0
 51
90.0
  0
ARC
  5
97F7
330
9641
100
AcDbEntity
  8
1
  6
Continuous
100
AcDbCircle
 10
17.156898
 20
148.7360989999999
 30
0.0
 40
4.0
100
AcDbArc
 50
90.0
 51
180.0
  0
ARC
  5
97F8
330
9641
100
AcDbEntity
  8
1
  6
Continuous
100
AcDbCircle
 10
34.65689799999999
 20
148.7360989999999
 30
0.0
 40
4.0
100
AcDbArc
 50
0.0
 51
90.0
  0
ARC
  5
97F9
330
9641
100
AcDbEntity
  8
1
  6
Continuous
100
AcDbCircle
 10
34.65689799999999
 20
148.7360989999999
 30
0.0
 40
1.0
100
AcDbArc
 50
0.0
 51
90.0
  0
ARC
  5
97FA
330
9641
100
AcDbEntity
  8
1
  6
Continuous
100
AcDbCircle
 10
17.156898
 20
148.7360989999999
 30
0.0
 40
1.0
100
AcDbArc
 50
90.0
 51
180.0
  0
LINE
  5
97FB
330
9641
100
AcDbEntity
  8
4
  6
CENTER
100
AcDbLine
 10
10.906898
 20
230.2753319999999
 30
0.0
 11
41.060971
 21
230.2753319999999
 31
0.0
  0
LINE
  5
97FC
330
9641
100
AcDbEntity
  8
4
  6
CENTER
100
AcDbLine
 10
10.906898
 20
45.275832
 30
0.0
 11
40.90689799999998
 21
45.275832
 31
0.0
  0
ENDSEC
  0
SECTION
  2
OBJECTS
  0
DICTIONARY
  5
962F
330
0
100
AcDbDictionary
281
     1
  3
ACAD_CIP_PREVIOUS_PRODUCT_INFO
350
9860
  3
ACAD_COLOR
350
9842
  3
ACAD_DETAILVIEWSTYLE
350
985B
  3
ACAD_GROUP
350
9630
  3
ACAD_LAYOUT
350
963C
  3
ACAD_MATERIAL
350
9810
  3
ACAD_MLEADERSTYLE
350
9857
  3
ACAD_MLINESTYLE
350
9639
  3
ACAD_PLOTSETTINGS
350
963B
  3
ACAD_PLOTSTYLENAME
350
980E
  3
ACAD_SCALELIST
350
9845
  3
ACAD_SECTIONVIEWSTYLE
350
9859
  3
ACAD_TABLESTYLE
350
9843
  3
ACAD_VISUALSTYLE
350
9829
  3
ACDB_RECOMPOSE_DATA
350
987E
  3
AcDbVariableDictionary
350
9871
  3
DWGPROPS
350
987F
  0
DICTIONARY
  5
9861
330
9633
100
AcDbDictionary
280
     1
281
     1
  3
ADSK_XREC_LAYER_RECONCILED
360
9862
  0
DICTIONARY
  5
9863
330
9649
100
AcDbDictionary
280
     1
281
     1
  3
ADSK_XREC_LAYER_RECONCILED
360
9864
  0
DICTIONARY
  5
9865
330
964A
100
AcDbDictionary
280
     1
281
     1
  3
ADSK_XREC_LAYER_RECONCILED
360
9866
  0
DICTIONARY
  5
9867
330
964B
100
AcDbDictionary
280
     1
281
     1
  3
ADSK_XREC_LAYER_RECONCILED
360
9868
  0
DICTIONARY
  5
9869
330
964C
100
AcDbDictionary
280
     1
281
     1
  3
ADSK_XREC_LAYER_RECONCILED
360
986A
  0
DICTIONARY
  5
986B
330
964D
100
AcDbDictionary
280
     1
281
     1
  3
ADSK_XREC_LAYER_RECONCILED
360
986C
  0
DICTIONARY
  5
986D
330
964E
100
AcDbDictionary
280
     1
281
     1
  3
ADSK_XREC_LAYER_RECONCILED
360
986E
  0
DICTIONARY
  5
986F
330
964F
100
AcDbDictionary
280
     1
281
     1
  3
ADSK_XREC_LAYER_RECONCILED
360
9870
  0
DICTIONARY
  5
9809
330
9641
100
AcDbDictionary
281
     1
  3
ACAD_LAYOUTSELFREF
350
980A
  0
DICTIONARY
  5
9807
330
963D
100
AcDbDictionary
281
     1
  3
ACAD_LAYOUTSELFREF
350
9808
  0
XRECORD
  5
9860
102
{ACAD_REACTORS
330
962F
102
}
330
962F
100
AcDbXrecord
280
     1
300
ACDLT
300
2014
300
ACDLT_F_S
  0
DICTIONARY
  5
9842
102
{ACAD_REACTORS
330
962F
102
}
330
962F
100
AcDbDictionary
281
     1
  0
DICTIONARY
  5
985B
102
{ACAD_REACTORS
330
962F
102
}
330
962F
100
AcDbDictionary
281
     1
  3
Imperial24
350
985C
  0
DICTIONARY
  5
9630
102
{ACAD_REACTORS
330
962F
102
}
330
962F
100
AcDbDictionary
281
     1
  0
DICTIONARY
  5
963C
102
{ACAD_REACTORS
330
962F
102
}
330
962F
100
AcDbDictionary
281
     1
  3
Model
350
985D
  3
レイアウト1
350
985E
  0
DICTIONARY
  5
9810
102
{ACAD_REACTORS
330
962F
102
}
330
962F
100
AcDbDictionary
281
     1
  3
ByBlock
350
9819
  3
ByLayer
350
9811
  3
Global
350
9821
  0
DICTIONARY
  5
9857
102
{ACAD_REACTORS
330
962F
102
}
330
962F
100
AcDbDictionary
281
     1
  3
Standard
350
9858
  0
DICTIONARY
  5
9639
102
{ACAD_REACTORS
330
962F
102
}
330
962F
100
AcDbDictionary
281
     1
  3
STANDARD
350
963A
  0
DICTIONARY
  5
963B
102
{ACAD_REACTORS
330
962F
102
}
330
962F
100
AcDbDictionary
281
     1
  0
ACDBDICTIONARYWDFLT
  5
980E
102
{ACAD_REACTORS
330
962F
102
}
330
962F
100
AcDbDictionary
281
     1
  3
Normal
350
980F
100
AcDbDictionaryWithDefault
340
980F
  0
DICTIONARY
  5
9845
102
{ACAD_REACTORS
330
962F
102
}
330
962F
100
AcDbDictionary
281
     1
  3
A0
350
9846
  3
A1
350
9847
  3
A2
350
9848
  3
A3
350
9849
  3
A4
350
984A
  3
A5
350
984B
  3
A6
350
984C
  3
A7
350
984D
  3
A8
350
984E
  3
A9
350
984F
  3
B0
350
9850
  3
B1
350
9851
  3
B2
350
9852
  3
B3
350
9853
  3
B4
350
9854
  3
B5
350
9855
  3
B6
350
9856
  0
DICTIONARY
  5
9859
102
{ACAD_REACTORS
330
962F
102
}
330
962F
100
AcDbDictionary
281
     1
  3
Imperial24
350
985A
  0
DICTIONARY
  5
9843
102
{ACAD_REACTORS
330
962F
102
}
330
962F
100
AcDbDictionary
281
     1
  3
Standard
350
9844
  0
DICTIONARY
  5
9829
102
{ACAD_REACTORS
330
962F
102
}
330
962F
100
AcDbDictionary
281
     1
  3
2dWireframe
350
982F
  3
Basic
350
982E
  3
Brighten
350
9835
  3
ColorChange
350
9839
  3
Conceptual
350
9832
  3
Dim
350
9834
  3
EdgeColorOff
350
9841
  3
Facepattern
350
9838
  3
Flat
350
982A
  3
FlatWithEdges
350
982B
  3
Gouraud
350
982C
  3
GouraudWithEdges
350
982D
  3
Hidden
350
9831
  3
JitterOff
350
983F
  3
Linepattern
350
9837
  3
OverhangOff
350
9840
  3
Realistic
350
9833
  3
Shaded
350
983E
  3
Shaded with edges
350
983D
  3
Shades of Gray
350
983A
  3
Sketchy
350
983B
  3
Thicken
350
9836
  3
Wireframe
350
9830
  3
X-Ray
350
983C
  0
XRECORD
  5
987E
102
{ACAD_REACTORS
330
962F
102
}
330
962F
100
AcDbXrecord
280
     1
 90
        1
330
9844
  0
DICTIONARY
  5
9871
102
{ACAD_REACTORS
330
962F
102
}
330
962F
100
AcDbDictionary
281
     1
  3
CANNOSCALE
350
9876
  3
CMLEADERSTYLE
350
9873
  3
CTABLESTYLE
350
9872
  3
CVIEWDETAILSTYLE
350
9874
  3
CVIEWSECTIONSTYLE
350
9875
  3
DIMASSOC
350
9879
  3
INDEXCTL
350
9878
  3
SORTENTS
350
9877
  3
XCLIPFRAME
350
987A
  0
XRECORD
  5
987F
102
{ACAD_REACTORS
330
962F
102
}
330
962F
100
AcDbXrecord
280
     1
  1
DWGPROPS COOKIE
  2

  3

  4

  6

  7

  8
Yoshitsune
  9

300
=
301
=
302
=
303
=
304
=
305
=
306
=
307
=
308
=
309
=
 40
0.0000132638888889
 41
2451066.502430903
 42
2457192.602998808
  1

 90
        0
  0
XRECORD
  5
9862
102
{ACAD_REACTORS
330
9861
102
}
330
9861
100
AcDbXrecord
280
     1
290
     1
  0
XRECORD
  5
9864
102
{ACAD_REACTORS
330
9863
102
}
330
9863
100
AcDbXrecord
280
     1
290
     1
  0
XRECORD
  5
9866
102
{ACAD_REACTORS
330
9865
102
}
330
9865
100
AcDbXrecord
280
     1
290
     1
  0
XRECORD
  5
9868
102
{ACAD_REACTORS
330
9867
102
}
330
9867
100
AcDbXrecord
280
     1
290
     1
  0
XRECORD
  5
986A
102
{ACAD_REACTORS
330
9869
102
}
330
9869
100
AcDbXrecord
280
     1
290
     1
  0
XRECORD
  5
986C
102
{ACAD_REACTORS
330
986B
102
}
330
986B
100
AcDbXrecord
280
     1
290
     1
  0
XRECORD
  5
986E
102
{ACAD_REACTORS
330
986D
102
}
330
986D
100
AcDbXrecord
280
     1
290
     1
  0
XRECORD
  5
9870
102
{ACAD_REACTORS
330
986F
102
}
330
986F
100
AcDbXrecord
280
     1
290
     1
  0
XRECORD
  5
980A
102
{ACAD_REACTORS
330
9809
102
}
330
9809
100
AcDbXrecord
280
     1
340
9641
  0
XRECORD
  5
9808
102
{ACAD_REACTORS
330
9807
102
}
330
9807
100
AcDbXrecord
280
     1
340
963D
  0
ACDBDETAILVIEWSTYLE
  5
985C
102
{ACAD_XDICTIONARY
360
98B7
102
}
102
{ACAD_REACTORS
330
985B
102
}
330
985B
100
AcDbModelDocViewStyle
 70
     0
  3
Imperial24
290
     0
100
AcDbDetailViewStyle
 70
     0
 71
     0
 90
        3
 71
     1
340
9634
 40
0.24
340
0
 40
0.24
300

 40
0.36
280
     3
 71
     2
340
9638
 90
       25
 71
     3
340
9634
 40
0.24
 90
        1
 40
0.75
 90
        1
300
%<\AcVar ViewType \f "%tc1">% %<\AcVar ViewDetailId>%\PSCALE %<\AcVar ViewScale \f "%sn">%
 71
     4
340
9638
 90
       25
340
9638
 90
       25
280
     0
  0
LAYOUT
  5
985D
102
{ACAD_XDICTIONARY
360
98B9
102
}
102
{ACAD_REACTORS
330
963C
102
}
330
963C
100
AcDbPlotSettings
  1

  2
Canon LBP9100C
  4

  6

 40
0.0
 41
0.0
 42
0.0
 43
0.0
 44
0.0
 45
0.0
 46
0.0
 47
0.0
 48
0.0
 49
0.0
140
0.0
141
0.0
142
1.0
143
1.0
 70
  1712
 72
     0
 73
     0
 74
     0
  7

 75
     0
147
1.0
148
0.0
149
0.0
100
AcDbLayout
  1
Model
 70
     1
 71
     0
 10
0.0
 20
0.0
 11
12.0
 21
9.0
 12
0.0
 22
0.0
 32
0.0
 14
0.0
 24
0.0
 34
0.0
 15
0.0
 25
0.0
 35
0.0
146
0.0
 13
0.0
 23
0.0
 33
0.0
 16
1.0
 26
0.0
 36
0.0
 17
0.0
 27
1.0
 37
0.0
 76
     0
330
9641
331
9806
  0
LAYOUT
  5
985E
102
{ACAD_XDICTIONARY
360
98BB
102
}
102
{ACAD_REACTORS
330
963C
102
}
330
963C
100
AcDbPlotSettings
  1

  2
Canon LBP9100C
  4

  6

 40
0.0
 41
0.0
 42
0.0
 43
0.0
 44
0.0
 45
0.0
 46
0.0
 47
0.0
 48
0.0
 49
0.0
140
0.0
141
0.0
142
1.0
143
1.0
 70
   688
 72
     0
 73
     0
 74
     5
  7

 75
    16
147
1.0
148
0.0
149
0.0
100
AcDbLayout
  1
レイアウト1
 70
     0
 71
     1
 10
0.0
 20
0.0
 11
420.0
 21
297.0
 12
0.0
 22
0.0
 32
0.0
 14
1.000000000000000E+20
 24
1.000000000000000E+20
 34
1.000000000000000E+20
 15
-1.000000000000000E+20
 25
-1.000000000000000E+20
 35
-1.000000000000000E+20
146
0.0
 13
0.0
 23
0.0
 33
0.0
 16
1.0
 26
0.0
 36
0.0
 17
0.0
 27
1.0
 37
0.0
 76
     0
330
963D
  0
MATERIAL
  5
9819
102
{ACAD_XDICTIONARY
360
981A
102
}
102
{ACAD_REACTORS
330
9810
102
}
330
9810
100
AcDbMaterial
  1
ByBlock
 72
     0
 43
0.0208333333333333
 43
0.0
 43
0.0
 43
0.0
 43
0.0
 43
0.0208333333333333
 43
0.0
 43
0.0
 43
0.0
 43
0.0
 43
1.0
 43
0.0
 43
0.0
 43
0.0
 43
0.0
 43
1.0
 77
     0
 47
0.0208333333333333
 47
0.0
 47
0.0
 47
0.0
 47
0.0
 47
0.0208333333333333
 47
0.0
 47
0.0
 47
0.0
 47
0.0
 47
1.0
 47
0.0
 47
0.0
 47
0.0
 47
0.0
 47
1.0
171
     0
 49
0.0208333333333333
 49
0.0
 49
0.0
 49
0.0
 49
0.0
 49
0.0208333333333333
 49
0.0
 49
0.0
 49
0.0
 49
0.0
 49
1.0
 49
0.0
 49
0.0
 49
0.0
 49
0.0
 49
1.0
175
     0
142
0.0208333333333333
142
0.0
142
0.0
142
0.0
142
0.0
142
0.0208333333333333
142
0.0
142
0.0
142
0.0
142
0.0
142
1.0
142
0.0
142
0.0
142
0.0
142
0.0
142
1.0
179
     0
144
0.0208333333333333
144
0.0
144
0.0
144
0.0
144
0.0
144
0.0208333333333333
144
0.0
144
0.0
144
0.0
144
0.0
144
1.0
144
0.0
144
0.0
144
0.0
144
0.0
144
1.0
147
0.0208333333333333
147
0.0
147
0.0
147
0.0
147
0.0
147
0.0208333333333333
147
0.0
147
0.0
147
0.0
147
0.0
147
1.0
147
0.0
147
0.0
147
0.0
147
0.0
147
1.0
  0
MATERIAL
  5
9811
102
{ACAD_XDICTIONARY
360
9812
102
}
102
{ACAD_REACTORS
330
9810
102
}
330
9810
100
AcDbMaterial
  1
ByLayer
 72
     0
 43
0.0208333333333333
 43
0.0
 43
0.0
 43
0.0
 43
0.0
 43
0.0208333333333333
 43
0.0
 43
0.0
 43
0.0
 43
0.0
 43
1.0
 43
0.0
 43
0.0
 43
0.0
 43
0.0
 43
1.0
 77
     0
 47
0.0208333333333333
 47
0.0
 47
0.0
 47
0.0
 47
0.0
 47
0.0208333333333333
 47
0.0
 47
0.0
 47
0.0
 47
0.0
 47
1.0
 47
0.0
 47
0.0
 47
0.0
 47
0.0
 47
1.0
171
     0
 49
0.0208333333333333
 49
0.0
 49
0.0
 49
0.0
 49
0.0
 49
0.0208333333333333
 49
0.0
 49
0.0
 49
0.0
 49
0.0
 49
1.0
 49
0.0
 49
0.0
 49
0.0
 49
0.0
 49
1.0
175
     0
142
0.0208333333333333
142
0.0
142
0.0
142
0.0
142
0.0
142
0.0208333333333333
142
0.0
142
0.0
142
0.0
142
0.0
142
1.0
142
0.0
142
0.0
142
0.0
142
0.0
142
1.0
179
     0
144
0.0208333333333333
144
0.0
144
0.0
144
0.0
144
0.0
144
0.0208333333333333
144
0.0
144
0.0
144
0.0
144
0.0
144
1.0
144
0.0
144
0.0
144
0.0
144
0.0
144
1.0
147
0.0208333333333333
147
0.0
147
0.0
147
0.0
147
0.0
147
0.0208333333333333
147
0.0
147
0.0
147
0.0
147
0.0
147
1.0
147
0.0
147
0.0
147
0.0
147
0.0
147
1.0
  0
MATERIAL
  5
9821
102
{ACAD_XDICTIONARY
360
9822
102
}
102
{ACAD_REACTORS
330
9810
102
}
330
9810
100
AcDbMaterial
  1
Global
 72
     0
 43
0.0208333333333333
 43
0.0
 43
0.0
 43
0.0
 43
0.0
 43
0.0208333333333333
 43
0.0
 43
0.0
 43
0.0
 43
0.0
 43
1.0
 43
0.0
 43
0.0
 43
0.0
 43
0.0
 43
1.0
 77
     0
 47
0.0208333333333333
 47
0.0
 47
0.0
 47
0.0
 47
0.0
 47
0.0208333333333333
 47
0.0
 47
0.0
 47
0.0
 47
0.0
 47
1.0
 47
0.0
 47
0.0
 47
0.0
 47
0.0
 47
1.0
171
     0
 49
0.0208333333333333
 49
0.0
 49
0.0
 49
0.0
 49
0.0
 49
0.0208333333333333
 49
0.0
 49
0.0
 49
0.0
 49
0.0
 49
1.0
 49
0.0
 49
0.0
 49
0.0
 49
0.0
 49
1.0
175
     0
142
0.0208333333333333
142
0.0
142
0.0
142
0.0
142
0.0
142
0.0208333333333333
142
0.0
142
0.0
142
0.0
142
0.0
142
1.0
142
0.0
142
0.0
142
0.0
142
0.0
142
1.0
179
     0
144
0.0208333333333333
144
0.0
144
0.0
144
0.0
144
0.0
144
0.0208333333333333
144
0.0
144
0.0
144
0.0
144
0.0
144
1.0
144
0.0
144
0.0
144
0.0
144
0.0
144
1.0
147
0.0208333333333333
147
0.0
147
0.0
147
0.0
147
0.0
147
0.0208333333333333
147
0.0
147
0.0
147
0.0
147
0.0
147
1.0
147
0.0
147
0.0
147
0.0
147
0.0
147
1.0
  0
MLEADERSTYLE
  5
9858
102
{ACAD_REACTORS
330
9857
102
}
330
9857
100
AcDbMLeaderStyle
170
     2
171
     1
172
     0
 90
        2
 40
0.0
 41
0.0
173
     1
 91
-1056964608
340
9636
 92
       -2
290
     1
 42
0.09
291
     1
 43
0.36
  3
Standard
 44
0.18
300

342
9634
174
     1
178
     6
175
     1
176
     0
 93
-1056964608
 45
0.18
292
     0
297
     0
 46
0.18
 94
-1056964608
 47
1.0
 49
1.0
140
1.0
293
     1
141
0.0
294
     1
177
     0
142
1.0
295
     0
296
     0
143
0.125
1001
ACAD_MLEADERVER
1070
     2
  0
MLINESTYLE
  5
963A
102
{ACAD_REACTORS
330
9639
102
}
330
9639
100
AcDbMlineStyle
  2
STANDARD
 70
     0
  3

 62
   256
 51
90.0
 52
90.0
 71
     2
 49
0.5
 62
   256
  6
BYLAYER
 49
-0.5
 62
   256
  6
BYLAYER
  0
ACDBPLACEHOLDER
  5
980F
102
{ACAD_REACTORS
330
980E
102
}
330
980E
  0
SCALE
  5
9846
102
{ACAD_REACTORS
330
9845
102
}
330
9845
100
AcDbScale
 70
     0
300
1:1
140
1.0
141
1.0
290
     1
  0
SCALE
  5
9847
102
{ACAD_REACTORS
330
9845
102
}
330
9845
100
AcDbScale
 70
     0
300
1/128" = 1'-0"
140
0.0078125
141
12.0
290
     0
  0
SCALE
  5
9848
102
{ACAD_REACTORS
330
9845
102
}
330
9845
100
AcDbScale
 70
     0
300
1/64" = 1'-0"
140
0.015625
141
12.0
290
     0
  0
SCALE
  5
9849
102
{ACAD_REACTORS
330
9845
102
}
330
9845
100
AcDbScale
 70
     0
300
1/32" = 1'-0"
140
0.03125
141
12.0
290
     0
  0
SCALE
  5
984A
102
{ACAD_REACTORS
330
9845
102
}
330
9845
100
AcDbScale
 70
     0
300
1/16" = 1'-0"
140
0.0625
141
12.0
290
     0
  0
SCALE
  5
984B
102
{ACAD_REACTORS
330
9845
102
}
330
9845
100
AcDbScale
 70
     0
300
3/32" = 1'-0"
140
0.09375
141
12.0
290
     0
  0
SCALE
  5
984C
102
{ACAD_REACTORS
330
9845
102
}
330
9845
100
AcDbScale
 70
     0
300
1/8" = 1'-0"
140
0.125
141
12.0
290
     0
  0
SCALE
  5
984D
102
{ACAD_REACTORS
330
9845
102
}
330
9845
100
AcDbScale
 70
     0
300
3/16" = 1'-0"
140
0.1875
141
12.0
290
     0
  0
SCALE
  5
984E
102
{ACAD_REACTORS
330
9845
102
}
330
9845
100
AcDbScale
 70
     0
300
1/4" = 1'-0"
140
0.25
141
12.0
290
     0
  0
SCALE
  5
984F
102
{ACAD_REACTORS
330
9845
102
}
330
9845
100
AcDbScale
 70
     0
300
3/8" = 1'-0"
140
0.375
141
12.0
290
     0
  0
SCALE
  5
9850
102
{ACAD_REACTORS
330
9845
102
}
330
9845
100
AcDbScale
 70
     0
300
1/2" = 1'-0"
140
0.5
141
12.0
290
     0
  0
SCALE
  5
9851
102
{ACAD_REACTORS
330
9845
102
}
330
9845
100
AcDbScale
 70
     0
300
3/4" = 1'-0"
140
0.75
141
12.0
290
     0
  0
SCALE
  5
9852
102
{ACAD_REACTORS
330
9845
102
}
330
9845
100
AcDbScale
 70
     0
300
1" = 1'-0"
140
1.0
141
12.0
290
     0
  0
SCALE
  5
9853
102
{ACAD_REACTORS
330
9845
102
}
330
9845
100
AcDbScale
 70
     0
300
1-1/2" = 1'-0"
140
1.5
141
12.0
290
     0
  0
SCALE
  5
9854
102
{ACAD_REACTORS
330
9845
102
}
330
9845
100
AcDbScale
 70
     0
300
3" = 1'-0"
140
3.0
141
12.0
290
     0
  0
SCALE
  5
9855
102
{ACAD_REACTORS
330
9845
102
}
330
9845
100
AcDbScale
 70
     0
300
6" = 1'-0"
140
6.0
141
12.0
290
     0
  0
SCALE
  5
9856
102
{ACAD_REACTORS
330
9845
102
}
330
9845
100
AcDbScale
 70
     0
300
1'-0" = 1'-0"
140
12.0
141
12.0
290
     0
  0
ACDBSECTIONVIEWSTYLE
  5
985A
102
{ACAD_XDICTIONARY
360
98B5
102
}
102
{ACAD_REACTORS
330
9859
102
}
330
9859
100
AcDbModelDocViewStyle
 70
     0
  3
Imperial24
290
     0
100
AcDbSectionViewStyle
 70
     0
 71
     0
 90
       78
 71
     1
340
9634
 40
0.24
340
0
340
0
 40
0.24
300
I, O, Q, S, X, Z
 40
0.48
 90
        3
 40
0.18
 90
        1
 71
     2
340
9638
 90
       25
340
9638
 90
       50
 40
0.24
 40
0.0
 40
0.24
 71
     3
340
9634
 40
0.24
 90
        1
 40
0.75
 90
        1
300
%<\AcVar ViewType \f "%tc1">% %<\AcVar ViewSectionStartId>%-%<\AcVar ViewSectionEndId>%\PSCALE %<\AcVar ViewScale \f "%sn">%
 71
     4
300
ANSI31
 40
1.0
 90
        0
290
     0
290
     0
 90
        6
 40
0.0
 40
1.570796326794896
 40
0.2617993877991494
 40
1.308996938995747
 40
-0.2617993877991494
 40
1.832595714594046
  0
TABLESTYLE
  5
9844
102
{ACAD_XDICTIONARY
360
987C
102
}
102
{ACAD_REACTORS
330
9843
102
}
330
9843
100
AcDbTableStyle
  3
Standard
 70
     0
 71
     0
 40
0.06
 41
0.06
280
     0
281
     0
  7
STANDARD
140
0.18
170
     2
 62
     0
 63
     7
283
     0
274
    -2
284
     1
 64
     0
275
    -2
285
     1
 65
     0
276
    -2
286
     1
 66
     0
277
    -2
287
     1
 67
     0
278
    -2
288
     1
 68
     0
279
    -2
289
     1
 69
     0
  7
STANDARD
140
0.25
170
     5
 62
     0
 63
     7
283
     0
274
    -2
284
     1
 64
     0
275
    -2
285
     1
 65
     0
276
    -2
286
     1
 66
     0
277
    -2
287
     1
 67
     0
278
    -2
288
     1
 68
     0
279
    -2
289
     1
 69
     0
  7
STANDARD
140
0.18
170
     5
 62
     0
 63
     7
283
     0
274
    -2
284
     1
 64
     0
275
    -2
285
     1
 65
     0
276
    -2
286
     1
 66
     0
277
    -2
287
     1
 67
     0
278
    -2
288
     1
 68
     0
279
    -2
289
     1
 69
     0
  0
VISUALSTYLE
  5
982F
102
{ACAD_XDICTIONARY
360
988D
102
}
102
{ACAD_REACTORS
330
9829
102
}
330
9829
100
AcDbVisualStyle
  2
2dWireframe
 70
     4
 71
     0
 72
     2
 73
     0
 90
        0
 40
-0.6
 41
-30.0
 62
     5
 63
     7
 74
     1
 91
        4
 64
     7
 65
   257
 75
     1
175
     1
 42
1.0
 92
        0
 66
   257
 43
1.0
 76
     1
 77
     6
 78
     2
 67
     7
 79
     5
170
     0
171
     0
290
     0
174
     0
 93
        1
 44
0.0
173
     0
291
     0
 45
0.0
1001
ACAD
1000
AcDbSavedByObjectVersion
1070
     0
  0
VISUALSTYLE
  5
982E
102
{ACAD_XDICTIONARY
360
988B
102
}
102
{ACAD_REACTORS
330
9829
102
}
330
9829
100
AcDbVisualStyle
  2
Basic
 70
     7
 71
     1
 72
     0
 73
     1
 90
        0
 40
-0.6
 41
-30.0
 62
     5
 63
     7
 74
     0
 91
        4
 64
     7
 65
   257
 75
     1
175
     1
 42
1.0
 92
        8
 66
     7
 43
1.0
 76
     1
 77
     6
 78
     2
 67
     7
 79
     5
170
     0
171
     0
290
     0
174
     0
 93
        1
 44
0.0
173
     0
291
     1
 45
0.0
1001
ACAD
1000
AcDbSavedByObjectVersion
1070
     0
  0
VISUALSTYLE
  5
9835
102
{ACAD_XDICTIONARY
360
9899
102
}
102
{ACAD_REACTORS
330
9829
102
}
330
9829
100
AcDbVisualStyle
  2
Brighten
 70
    12
 71
     2
 72
     2
 73
     0
 90
        0
 40
-0.6
 41
-30.0
 62
     5
 63
     7
 74
     1
 91
        4
 64
     7
 65
   257
 75
     1
175
     1
 42
1.0
 92
        8
 66
     7
 43
1.0
 76
     1
 77
     6
 78
     2
 67
     7
 79
     5
170
     0
171
     0
290
     0
174
     0
 93
        1
 44
50.0
173
     0
291
     1
 45
0.0
1001
ACAD
1000
AcDbSavedByObjectVersion
1070
     0
  0
VISUALSTYLE
  5
9839
102
{ACAD_XDICTIONARY
360
98A1
102
}
102
{ACAD_REACTORS
330
9829
102
}
330
9829
100
AcDbVisualStyle
  2
ColorChange
 70
    16
 71
     2
 72
     2
 73
     3
 90
        0
 40
-0.6
 41
-30.0
 62
     5
 63
     8
 74
     1
 91
        4
 64
     7
 65
   257
 75
     1
175
     1
 42
1.0
 92
        8
 66
     8
 43
1.0
 76
     1
 77
     6
 78
     2
 67
     7
 79
     5
170
     0
171
     0
290
     0
174
     0
 93
        1
 44
0.0
173
     0
291
     1
 45
0.0
1001
ACAD
1000
AcDbSavedByObjectVersion
1070
     0
  0
VISUALSTYLE
  5
9832
102
{ACAD_XDICTIONARY
360
9893
102
}
102
{ACAD_REACTORS
330
9829
102
}
330
9829
100
AcDbVisualStyle
  2
Conceptual
 70
     9
 71
     3
 72
     2
 73
     0
 90
        0
 40
-0.6
 41
-30.0
 62
     5
 63
     7
 74
     2
 91
        2
 64
     7
 65
   257
 75
     1
175
     1
 42
179.0
 92
        8
 66
     7
 43
1.0
 76
     1
 77
     6
 78
     2
 67
     7
 79
     3
170
     0
171
     0
290
     0
174
     0
 93
        1
 44
0.0
173
     0
291
     0
 45
0.0
1001
ACAD
1000
AcDbSavedByObjectVersion
1070
     0
  0
VISUALSTYLE
  5
9834
102
{ACAD_XDICTIONARY
360
9897
102
}
102
{ACAD_REACTORS
330
9829
102
}
330
9829
100
AcDbVisualStyle
  2
Dim
 70
    11
 71
     2
 72
     2
 73
     0
 90
        0
 40
-0.6
 41
-30.0
 62
     5
 63
     7
 74
     1
 91
        4
 64
     7
 65
   257
 75
     1
175
     1
 42
1.0
 92
        8
 66
     7
 43
1.0
 76
     1
 77
     6
 78
     2
 67
     7
 79
     5
170
     0
171
     0
290
     0
174
     0
 93
        1
 44
-50.0
173
     0
291
     1
 45
0.0
1001
ACAD
1000
AcDbSavedByObjectVersion
1070
     0
  0
VISUALSTYLE
  5
9841
102
{ACAD_XDICTIONARY
360
98B1
102
}
102
{ACAD_REACTORS
330
9829
102
}
330
9829
100
AcDbVisualStyle
  2
EdgeColorOff
 70
    22
 71
     2
 72
     2
 73
     0
 90
        0
 40
-0.6
 41
-30.0
 62
     5
 63
     7
 74
     1
 91
        4
 64
     7
 65
   257
 75
     1
175
     1
 42
1.0
 92
        8
 66
     7
 43
1.0
 76
     1
 77
     6
 78
     2
 67
     7
 79
     5
170
     0
171
     0
290
     0
174
     0
 93
        1
 44
0.0
173
     0
291
     1
 45
0.0
1001
ACAD
1000
AcDbSavedByObjectVersion
1070
     0
  0
VISUALSTYLE
  5
9838
102
{ACAD_XDICTIONARY
360
989F
102
}
102
{ACAD_REACTORS
330
9829
102
}
330
9829
100
AcDbVisualStyle
  2
Facepattern
 70
    15
 71
     2
 72
     2
 73
     0
 90
        0
 40
-0.6
 41
-30.0
 62
     5
 63
     7
 74
     1
 91
        4
 64
     7
 65
   257
 75
     1
175
     1
 42
1.0
 92
        8
 66
     7
 43
1.0
 76
     1
 77
     6
 78
     2
 67
     7
 79
     5
170
     0
171
     0
290
     0
174
     0
 93
        1
 44
0.0
173
     0
291
     1
 45
0.0
1001
ACAD
1000
AcDbSavedByObjectVersion
1070
     0
  0
VISUALSTYLE
  5
982A
102
{ACAD_XDICTIONARY
360
9883
102
}
102
{ACAD_REACTORS
330
9829
102
}
330
9829
100
AcDbVisualStyle
  2
Flat
 70
     0
 71
     2
 72
     1
 73
     1
 90
        2
 40
-0.6
 41
30.0
 62
     5
 63
     7
 74
     0
 91
        0
 64
     7
 65
   257
 75
     1
175
     1
 42
1.0
 92
        8
 66
     7
 43
1.0
 76
     1
 77
     6
 78
     2
 67
     7
 79
     5
170
     0
171
     0
290
     0
174
     0
 93
       13
 44
0.0
173
     0
291
     1
 45
0.0
1001
ACAD
1000
AcDbSavedByObjectVersion
1070
     0
  0
VISUALSTYLE
  5
982B
102
{ACAD_XDICTIONARY
360
9885
102
}
102
{ACAD_REACTORS
330
9829
102
}
330
9829
100
AcDbVisualStyle
  2
FlatWithEdges
 70
     1
 71
     2
 72
     1
 73
     1
 90
        2
 40
-0.6
 41
30.0
 62
     5
 63
     7
 74
     1
 91
        0
 64
     7
 65
   257
 75
     1
175
     1
 42
1.0
 92
        0
 66
   257
 43
1.0
 76
     1
 77
     6
 78
     2
 67
     7
 79
     5
170
     0
171
     0
290
     0
174
     0
 93
       13
 44
0.0
173
     0
291
     1
 45
0.0
1001
ACAD
1000
AcDbSavedByObjectVersion
1070
     0
  0
VISUALSTYLE
  5
982C
102
{ACAD_XDICTIONARY
360
9887
102
}
102
{ACAD_REACTORS
330
9829
102
}
330
9829
100
AcDbVisualStyle
  2
Gouraud
 70
     2
 71
     2
 72
     2
 73
     1
 90
        2
 40
-0.6
 41
30.0
 62
     5
 63
     7
 74
     0
 91
        0
 64
     7
 65
   257
 75
     1
175
     1
 42
1.0
 92
        0
 66
     7
 43
1.0
 76
     1
 77
     6
 78
     2
 67
     7
 79
     5
170
     0
171
     0
290
     0
174
     0
 93
       13
 44
0.0
173
     0
291
     1
 45
0.0
1001
ACAD
1000
AcDbSavedByObjectVersion
1070
     0
  0
VISUALSTYLE
  5
982D
102
{ACAD_XDICTIONARY
360
9889
102
}
102
{ACAD_REACTORS
330
9829
102
}
330
9829
100
AcDbVisualStyle
  2
GouraudWithEdges
 70
     3
 71
     2
 72
     2
 73
     1
 90
        2
 40
-0.6
 41
30.0
 62
     5
 63
     7
 74
     1
 91
        0
 64
     7
 65
   257
 75
     1
175
     1
 42
1.0
 92
        0
 66
   257
 43
1.0
 76
     1
 77
     6
 78
     2
 67
     7
 79
     5
170
     0
171
     0
290
     0
174
     0
 93
       13
 44
0.0
173
     0
291
     1
 45
0.0
1001
ACAD
1000
AcDbSavedByObjectVersion
1070
     0
  0
VISUALSTYLE
  5
9831
102
{ACAD_XDICTIONARY
360
9891
102
}
102
{ACAD_REACTORS
330
9829
102
}
330
9829
100
AcDbVisualStyle
  2
Hidden
 70
     6
 71
     1
 72
     2
 73
     2
 90
        0
 40
-0.6
 41
-30.0
 62
     5
 63
     7
 74
     2
 91
        2
 64
     7
 65
   257
 75
     2
175
     1
 42
40.0
 92
        0
 66
   257
 43
1.0
 76
     1
 77
     6
 78
     2
 67
     7
 79
     3
170
     0
171
     0
290
     0
174
     0
 93
        1
 44
0.0
173
     0
291
     0
 45
0.0
1001
ACAD
1000
AcDbSavedByObjectVersion
1070
     0
  0
VISUALSTYLE
  5
983F
102
{ACAD_XDICTIONARY
360
98AD
102
}
102
{ACAD_REACTORS
330
9829
102
}
330
9829
100
AcDbVisualStyle
  2
JitterOff
 70
    20
 71
     2
 72
     2
 73
     0
 90
        0
 40
-0.6
 41
-30.0
 62
     5
 63
     7
 74
     1
 91
        4
 64
     7
 65
   257
 75
     1
175
     1
 42
1.0
 92
       10
 66
     7
 43
1.0
 76
     1
 77
     6
 78
     2
 67
     7
 79
     5
170
     0
171
     0
290
     0
174
     0
 93
        1
 44
0.0
173
     0
291
     1
 45
0.0
1001
ACAD
1000
AcDbSavedByObjectVersion
1070
     0
  0
VISUALSTYLE
  5
9837
102
{ACAD_XDICTIONARY
360
989D
102
}
102
{ACAD_REACTORS
330
9829
102
}
330
9829
100
AcDbVisualStyle
  2
Linepattern
 70
    14
 71
     2
 72
     2
 73
     0
 90
        0
 40
-0.6
 41
-30.0
 62
     5
 63
     7
 74
     1
 91
        4
 64
     7
 65
   257
 75
     7
175
     7
 42
1.0
 92
        8
 66
     7
 43
1.0
 76
     1
 77
     6
 78
     2
 67
     7
 79
     5
170
     0
171
     0
290
     0
174
     0
 93
        1
 44
0.0
173
     0
291
     1
 45
0.0
1001
ACAD
1000
AcDbSavedByObjectVersion
1070
     0
  0
VISUALSTYLE
  5
9840
102
{ACAD_XDICTIONARY
360
98AF
102
}
102
{ACAD_REACTORS
330
9829
102
}
330
9829
100
AcDbVisualStyle
  2
OverhangOff
 70
    21
 71
     2
 72
     2
 73
     0
 90
        0
 40
-0.6
 41
-30.0
 62
     5
 63
     7
 74
     1
 91
        4
 64
     7
 65
   257
 75
     1
175
     1
 42
1.0
 92
        9
 66
     7
 43
1.0
 76
     1
 77
     6
 78
     2
 67
     7
 79
     5
170
     0
171
     0
290
     0
174
     0
 93
        1
 44
0.0
173
     0
291
     1
 45
0.0
1001
ACAD
1000
AcDbSavedByObjectVersion
1070
     0
  0
VISUALSTYLE
  5
9833
102
{ACAD_XDICTIONARY
360
9895
102
}
102
{ACAD_REACTORS
330
9829
102
}
330
9829
100
AcDbVisualStyle
  2
Realistic
 70
     8
 71
     2
 72
     3
 73
     0
 90
        2
 40
-0.6
 41
30.0
 62
     5
 63
     7
 74
     0
 91
        0
 64
     7
 65
   257
 75
     1
175
     1
 42
1.0
 92
        8
 66
   257
 43
1.0
 76
     1
 77
     6
 78
     2
 67
     7
 79
     3
170
     0
171
     0
290
     0
174
     0
 93
       13
 44
0.0
173
     0
291
     0
 45
0.0
1001
ACAD
1000
AcDbSavedByObjectVersion
1070
     0
  0
VISUALSTYLE
  5
983E
102
{ACAD_XDICTIONARY
360
98AB
102
}
102
{ACAD_REACTORS
330
9829
102
}
330
9829
100
AcDbVisualStyle
  2
Shaded
 70
    27
 71
     2
 72
     2
 73
     1
 90
        2
 40
-0.6
 41
30.0
 62
     5
 63
     7
 74
     0
 91
        4
 64
     7
 65
   257
 75
     1
175
     1
 42
1.0
 92
        8
 66
   257
 43
1.0
 76
     1
 77
     6
 78
     2
 67
     8
 79
     3
170
     0
171
     0
290
     0
174
     0
 93
        5
 44
0.0
173
     0
291
     0
 45
0.0
1001
ACAD
1000
AcDbSavedByObjectVersion
1070
     0
  0
VISUALSTYLE
  5
983D
102
{ACAD_XDICTIONARY
360
98A9
102
}
102
{ACAD_REACTORS
330
9829
102
}
330
9829
100
AcDbVisualStyle
  2
Shaded with edges
 70
    26
 71
     2
 72
     2
 73
     1
 90
        2
 40
-0.6
 41
30.0
 62
     5
 63
     7
 74
     1
 91
       10
 64
     7
 65
   257
 75
     2
175
     1
 42
1.0
 92
        8
 66
   257
 43
1.0
 76
     1
 77
     6
 78
     2
 67
     7
 79
     3
170
     0
171
     0
290
     0
174
     0
 93
        5
 44
0.0
173
     0
291
     0
 45
0.0
1001
ACAD
1000
AcDbSavedByObjectVersion
1070
     0
  0
VISUALSTYLE
  5
983A
102
{ACAD_XDICTIONARY
360
98A3
102
}
102
{ACAD_REACTORS
330
9829
102
}
330
9829
100
AcDbVisualStyle
  2
Shades of Gray
 70
    23
 71
     2
 72
     2
 73
     3
 90
        0
 40
-0.6
 41
-30.0
 62
     5
 63
     7
 74
     2
 91
        2
 64
     7
 65
     7
 75
     1
175
     1
 42
40.0
 92
        8
 66
     7
 43
1.0
 76
     1
 77
     6
 78
     2
 67
     7
 79
     3
170
     0
171
     0
290
     0
174
     0
 93
        1
 44
0.0
173
     0
291
     0
 45
0.0
1001
ACAD
1000
AcDbSavedByObjectVersion
1070
     0
  0
VISUALSTYLE
  5
983B
102
{ACAD_XDICTIONARY
360
98A5
102
}
102
{ACAD_REACTORS
330
9829
102
}
330
9829
100
AcDbVisualStyle
  2
Sketchy
 70
    24
 71
     1
 72
     2
 73
     2
 90
        0
 40
-0.6
 41
-30.0
 62
     5
 63
     7
 74
     2
 91
        2
 64
     7
 65
     7
 75
     1
175
     1
 42
40.0
 92
       11
 66
     7
 43
1.0
 76
     1
 77
     6
 78
     2
 67
     7
 79
     6
170
     0
171
     0
290
     0
174
     0
 93
        1
 44
0.0
173
     0
291
     0
 45
0.0
1001
ACAD
1000
AcDbSavedByObjectVersion
1070
     0
  0
VISUALSTYLE
  5
9836
102
{ACAD_XDICTIONARY
360
989B
102
}
102
{ACAD_REACTORS
330
9829
102
}
330
9829
100
AcDbVisualStyle
  2
Thicken
 70
    13
 71
     2
 72
     2
 73
     0
 90
        0
 40
-0.6
 41
-30.0
 62
     5
 63
     7
 74
     1
 91
        4
 64
     7
 65
   257
 75
     1
175
     1
 42
1.0
 92
       12
 66
     7
 43
1.0
 76
     1
 77
     6
 78
     2
 67
     7
 79
     5
170
     0
171
     0
290
     0
174
     0
 93
        1
 44
0.0
173
     0
291
     1
 45
0.0
1001
ACAD
1000
AcDbSavedByObjectVersion
1070
     0
  0
VISUALSTYLE
  5
9830
102
{ACAD_XDICTIONARY
360
988F
102
}
102
{ACAD_REACTORS
330
9829
102
}
330
9829
100
AcDbVisualStyle
  2
Wireframe
 70
     5
 71
     0
 72
     2
 73
     0
 90
        0
 40
-0.6
 41
-30.0
 62
     5
 63
     7
 74
     1
 91
        4
 64
     7
 65
   257
 75
     1
175
     1
 42
1.0
 92
        0
 66
   257
 43
1.0
 76
     1
 77
     6
 78
     2
 67
     7
 79
     3
170
     0
171
     0
290
     0
174
     0
 93
        1
 44
0.0
173
     0
291
     0
 45
0.0
1001
ACAD
1000
AcDbSavedByObjectVersion
1070
     0
  0
VISUALSTYLE
  5
983C
102
{ACAD_XDICTIONARY
360
98A7
102
}
102
{ACAD_REACTORS
330
9829
102
}
330
9829
100
AcDbVisualStyle
  2
X-Ray
 70
    25
 71
     2
 72
     2
 73
     1
 90
        1
 40
0.5
 41
-30.0
 62
     5
 63
     7
 74
     1
 91
        0
 64
     7
 65
   257
 75
     1
175
     1
 42
1.0
 92
        8
 66
     7
 43
1.0
 76
     1
 77
     6
 78
     2
 67
     7
 79
     3
170
     0
171
     0
290
     0
174
     0
 93
       13
 44
0.0
173
     0
291
     0
 45
0.0
1001
ACAD
1000
AcDbSavedByObjectVersion
1070
     0
  0
DICTIONARYVAR
  5
9876
102
{ACAD_REACTORS
330
9871
102
}
330
9871
100
DictionaryVariables
280
     0
  1
1:1
  0
DICTIONARYVAR
  5
9873
102
{ACAD_REACTORS
330
9871
102
}
330
9871
100
DictionaryVariables
280
     0
  1
STANDARD
  0
DICTIONARYVAR
  5
9872
102
{ACAD_REACTORS
330
9871
102
}
330
9871
100
DictionaryVariables
280
     0
  1
STANDARD
  0
DICTIONARYVAR
  5
9874
102
{ACAD_REACTORS
330
9871
102
}
330
9871
100
DictionaryVariables
280
     0
  1
Imperial24
  0
DICTIONARYVAR
  5
9875
102
{ACAD_REACTORS
330
9871
102
}
330
9871
100
DictionaryVariables
280
     0
  1
Imperial24
  0
DICTIONARYVAR
  5
9879
102
{ACAD_REACTORS
330
9871
102
}
330
9871
100
DictionaryVariables
280
     0
  1
1
  0
DICTIONARYVAR
  5
9878
102
{ACAD_REACTORS
330
9871
102
}
330
9871
100
DictionaryVariables
280
     0
  1
0
  0
DICTIONARYVAR
  5
9877
102
{ACAD_REACTORS
330
9871
102
}
330
9871
100
DictionaryVariables
280
     0
  1
127
  0
DICTIONARYVAR
  5
987A
102
{ACAD_REACTORS
330
9871
102
}
330
9871
100
DictionaryVariables
280
     0
  1
2
  0
DICTIONARY
  5
98B7
330
985C
100
AcDbDictionary
280
     1
281
     1
  3
ACAD_XREC_ROUNDTRIP
360
98B8
  0
DICTIONARY
  5
98B9
330
985D
100
AcDbDictionary
280
     1
281
     1
  3
ACAD_XREC_ROUNDTRIP
360
98BA
  0
DICTIONARY
  5
98BB
330
985E
100
AcDbDictionary
280
     1
281
     1
  3
ACAD_XREC_ROUNDTRIP
360
98BC
  0
DICTIONARY
  5
981A
330
9819
100
AcDbDictionary
280
     1
281
     1
  3
ACAD_XREC_ROUNDTRIP
360
9881
  3
BUMPTILE
360
981C
  3
DIFFUSETILE
360
981B
  3
OPACITYTILE
360
981F
  3
REFLECTIONTILE
360
981E
  3
REFRACTIONTILE
360
9820
  3
SPECULARTILE
360
981D
  0
DICTIONARY
  5
9812
330
9811
100
AcDbDictionary
280
     1
281
     1
  3
ACAD_XREC_ROUNDTRIP
360
9880
  3
BUMPTILE
360
9814
  3
DIFFUSETILE
360
9813
  3
OPACITYTILE
360
9817
  3
REFLECTIONTILE
360
9816
  3
REFRACTIONTILE
360
9818
  3
SPECULARTILE
360
9815
  0
DICTIONARY
  5
9822
330
9821
100
AcDbDictionary
280
     1
281
     1
  3
ACAD_XREC_ROUNDTRIP
360
9882
  3
BUMPTILE
360
9824
  3
DIFFUSETILE
360
9823
  3
OPACITYTILE
360
9827
  3
REFLECTIONTILE
360
9826
  3
REFRACTIONTILE
360
9828
  3
SPECULARTILE
360
9825
  0
DICTIONARY
  5
98B5
330
985A
100
AcDbDictionary
280
     1
281
     1
  3
ACAD_XREC_ROUNDTRIP
360
98B6
  0
DICTIONARY
  5
987C
330
9844
100
AcDbDictionary
280
     1
281
     1
  3
ACAD_ROUNDTRIP_2008_TABLESTYLE_CELLSTYLEMAP
360
987D
  3
ACAD_XREC_ROUNDTRIP
360
98B3
  0
DICTIONARY
  5
988D
330
982F
100
AcDbDictionary
280
     1
281
     1
  3
ACAD_XREC_ROUNDTRIP
360
988E
  0
DICTIONARY
  5
988B
330
982E
100
AcDbDictionary
280
     1
281
     1
  3
ACAD_XREC_ROUNDTRIP
360
988C
  0
DICTIONARY
  5
9899
330
9835
100
AcDbDictionary
280
     1
281
     1
  3
ACAD_XREC_ROUNDTRIP
360
989A
  0
DICTIONARY
  5
98A1
330
9839
100
AcDbDictionary
280
     1
281
     1
  3
ACAD_XREC_ROUNDTRIP
360
98A2
  0
DICTIONARY
  5
9893
330
9832
100
AcDbDictionary
280
     1
281
     1
  3
ACAD_XREC_ROUNDTRIP
360
9894
  0
DICTIONARY
  5
9897
330
9834
100
AcDbDictionary
280
     1
281
     1
  3
ACAD_XREC_ROUNDTRIP
360
9898
  0
DICTIONARY
  5
98B1
330
9841
100
AcDbDictionary
280
     1
281
     1
  3
ACAD_XREC_ROUNDTRIP
360
98B2
  0
DICTIONARY
  5
989F
330
9838
100
AcDbDictionary
280
     1
281
     1
  3
ACAD_XREC_ROUNDTRIP
360
98A0
  0
DICTIONARY
  5
9883
330
982A
100
AcDbDictionary
280
     1
281
     1
  3
ACAD_XREC_ROUNDTRIP
360
9884
  0
DICTIONARY
  5
9885
330
982B
100
AcDbDictionary
280
     1
281
     1
  3
ACAD_XREC_ROUNDTRIP
360
9886
  0
DICTIONARY
  5
9887
330
982C
100
AcDbDictionary
280
     1
281
     1
  3
ACAD_XREC_ROUNDTRIP
360
9888
  0
DICTIONARY
  5
9889
330
982D
100
AcDbDictionary
280
     1
281
     1
  3
ACAD_XREC_ROUNDTRIP
360
988A
  0
DICTIONARY
  5
9891
330
9831
100
AcDbDictionary
280
     1
281
     1
  3
ACAD_XREC_ROUNDTRIP
360
9892
  0
DICTIONARY
  5
98AD
330
983F
100
AcDbDictionary
280
     1
281
     1
  3
ACAD_XREC_ROUNDTRIP
360
98AE
  0
DICTIONARY
  5
989D
330
9837
100
AcDbDictionary
280
     1
281
     1
  3
ACAD_XREC_ROUNDTRIP
360
989E
  0
DICTIONARY
  5
98AF
330
9840
100
AcDbDictionary
280
     1
281
     1
  3
ACAD_XREC_ROUNDTRIP
360
98B0
  0
DICTIONARY
  5
9895
330
9833
100
AcDbDictionary
280
     1
281
     1
  3
ACAD_XREC_ROUNDTRIP
360
9896
  0
DICTIONARY
  5
98AB
330
983E
100
AcDbDictionary
280
     1
281
     1
  3
ACAD_XREC_ROUNDTRIP
360
98AC
  0
DICTIONARY
  5
98A9
330
983D
100
AcDbDictionary
280
     1
281
     1
  3
ACAD_XREC_ROUNDTRIP
360
98AA
  0
DICTIONARY
  5
98A3
330
983A
100
AcDbDictionary
280
     1
281
     1
  3
ACAD_XREC_ROUNDTRIP
360
98A4
  0
DICTIONARY
  5
98A5
330
983B
100
AcDbDictionary
280
     1
281
     1
  3
ACAD_XREC_ROUNDTRIP
360
98A6
  0
DICTIONARY
  5
989B
330
9836
100
AcDbDictionary
280
     1
281
     1
  3
ACAD_XREC_ROUNDTRIP
360
989C
  0
DICTIONARY
  5
988F
330
9830
100
AcDbDictionary
280
     1
281
     1
  3
ACAD_XREC_ROUNDTRIP
360
9890
  0
DICTIONARY
  5
98A7
330
983C
100
AcDbDictionary
280
     1
281
     1
  3
ACAD_XREC_ROUNDTRIP
360
98A8
  0
XRECORD
  5
98B8
102
{ACAD_REACTORS
330
98B7
102
}
330
98B7
100
AcDbXrecord
280
     1
102
DISPLAYNAME
  1
Imperial24
102
FLAGS
 90
        0
  0
XRECORD
  5
98BA
102
{ACAD_REACTORS
330
98B9
102
}
330
98B9
100
AcDbXrecord
280
     1
102
SHADEPLOT
 70
     0
102
SHADEPLOTRESLEVEL
 70
     2
102
SHADEPLOTCUSTOMDPI
 70
   300
  0
XRECORD
  5
98BC
102
{ACAD_REACTORS
330
98BB
102
}
330
98BB
100
AcDbXrecord
280
     1
102
SHADEPLOT
 70
     0
102
SHADEPLOTRESLEVEL
 70
     2
102
SHADEPLOTCUSTOMDPI
 70
   300
  0
XRECORD
  5
9881
102
{ACAD_REACTORS
330
981A
102
}
330
981A
100
AcDbXrecord
280
     1
102
MATERIAL
148
0.0
149
0.0
149
0.0
 93
        0
 94
      127
282
     0
 72
     0
 77
     0
171
     0
175
     0
179
     0
273
     0
  0
XRECORD
  5
981C
102
{ACAD_REACTORS
330
981A
102
}
330
981A
100
AcDbXrecord
280
     1
270
     1
271
     1
  0
XRECORD
  5
981B
102
{ACAD_REACTORS
330
981A
102
}
330
981A
100
AcDbXrecord
280
     1
270
     1
271
     1
  0
XRECORD
  5
981F
102
{ACAD_REACTORS
330
981A
102
}
330
981A
100
AcDbXrecord
280
     1
270
     1
271
     1
  0
XRECORD
  5
981E
102
{ACAD_REACTORS
330
981A
102
}
330
981A
100
AcDbXrecord
280
     1
270
     1
271
     1
  0
XRECORD
  5
9820
102
{ACAD_REACTORS
330
981A
102
}
330
981A
100
AcDbXrecord
280
     1
270
     1
271
     1
  0
XRECORD
  5
981D
102
{ACAD_REACTORS
330
981A
102
}
330
981A
100
AcDbXrecord
280
     1
270
     1
271
     1
  0
XRECORD
  5
9880
102
{ACAD_REACTORS
330
9812
102
}
330
9812
100
AcDbXrecord
280
     1
102
MATERIAL
148
0.0
149
0.0
149
0.0
 93
        0
 94
      127
282
     0
 72
     0
 77
     0
171
     0
175
     0
179
     0
273
     0
  0
XRECORD
  5
9814
102
{ACAD_REACTORS
330
9812
102
}
330
9812
100
AcDbXrecord
280
     1
270
     1
271
     1
  0
XRECORD
  5
9813
102
{ACAD_REACTORS
330
9812
102
}
330
9812
100
AcDbXrecord
280
     1
270
     1
271
     1
  0
XRECORD
  5
9817
102
{ACAD_REACTORS
330
9812
102
}
330
9812
100
AcDbXrecord
280
     1
270
     1
271
     1
  0
XRECORD
  5
9816
102
{ACAD_REACTORS
330
9812
102
}
330
9812
100
AcDbXrecord
280
     1
270
     1
271
     1
  0
XRECORD
  5
9818
102
{ACAD_REACTORS
330
9812
102
}
330
9812
100
AcDbXrecord
280
     1
270
     1
271
     1
  0
XRECORD
  5
9815
102
{ACAD_REACTORS
330
9812
102
}
330
9812
100
AcDbXrecord
280
     1
270
     1
271
     1
  0
XRECORD
  5
9882
102
{ACAD_REACTORS
330
9822
102
}
330
9822
100
AcDbXrecord
280
     1
102
MATERIAL
148
0.0
149
0.0
149
0.0
 93
        0
 94
      127
282
     0
 72
     0
 77
     0
171
     0
175
     0
179
     0
273
     0
  0
XRECORD
  5
9824
102
{ACAD_REACTORS
330
9822
102
}
330
9822
100
AcDbXrecord
280
     1
270
     1
271
     1
  0
XRECORD
  5
9823
102
{ACAD_REACTORS
330
9822
102
}
330
9822
100
AcDbXrecord
280
     1
270
     1
271
     1
  0
XRECORD
  5
9827
102
{ACAD_REACTORS
330
9822
102
}
330
9822
100
AcDbXrecord
280
     1
270
     1
271
     1
  0
XRECORD
  5
9826
102
{ACAD_REACTORS
330
9822
102
}
330
9822
100
AcDbXrecord
280
     1
270
     1
271
     1
  0
XRECORD
  5
9828
102
{ACAD_REACTORS
330
9822
102
}
330
9822
100
AcDbXrecord
280
     1
270
     1
271
     1
  0
XRECORD
  5
9825
102
{ACAD_REACTORS
330
9822
102
}
330
9822
100
AcDbXrecord
280
     1
270
     1
271
     1
  0
XRECORD
  5
98B6
102
{ACAD_REACTORS
330
98B5
102
}
330
98B5
100
AcDbXrecord
280
     1
102
DISPLAYNAME
  1
Imperial24
102
FLAGS
 90
        0
  0
CELLSTYLEMAP
  5
987D
102
{ACAD_REACTORS
330
987C
102
}
330
987C
100
AcDbCellStyleMap
 90
        3
300
CELLSTYLE
  1
TABLEFORMAT_BEGIN
 90
        5
170
     1
 91
        0
 92
    32768
 62
   257
 93
        1
300
CONTENTFORMAT
  1
CONTENTFORMAT_BEGIN
 90
        0
 91
        0
 92
      512
 93
        0
300

 40
0.0
140
1.0
 94
        5
 62
     0
340
9634
144
0.25
309
CONTENTFORMAT_END
171
     0
 94
        0
309
TABLEFORMAT_END
  1
CELLSTYLE_BEGIN
 90
        1
 91
        1
300
_TITLE
309
CELLSTYLE_END
300
CELLSTYLE
  1
TABLEFORMAT_BEGIN
 90
        5
170
     1
 91
        0
 92
        0
 62
   257
 93
        1
300
CONTENTFORMAT
  1
CONTENTFORMAT_BEGIN
 90
        0
 91
        0
 92
      512
 93
        0
300

 40
0.0
140
1.0
 94
        5
 62
     0
340
9634
144
0.18
309
CONTENTFORMAT_END
171
     0
 94
        0
309
TABLEFORMAT_END
  1
CELLSTYLE_BEGIN
 90
        2
 91
        1
300
_HEADER
309
CELLSTYLE_END
300
CELLSTYLE
  1
TABLEFORMAT_BEGIN
 90
        5
170
     1
 91
        0
 92
        0
 62
   257
 93
        1
300
CONTENTFORMAT
  1
CONTENTFORMAT_BEGIN
 90
        0
 91
        0
 92
      512
 93
        0
300

 40
0.0
140
1.0
 94
        2
 62
     0
340
9634
144
0.18
309
CONTENTFORMAT_END
171
     0
 94
        0
309
TABLEFORMAT_END
  1
CELLSTYLE_BEGIN
 90
        3
 91
        2
300
_DATA
309
CELLSTYLE_END
  0
XRECORD
  5
98B3
102
{ACAD_REACTORS
330
987C
102
}
330
987C
100
AcDbXrecord
280
     1
102
ACAD_ROUNDTRIP_PRE2007_TABLESTYLE
 90
      512
 91
        0
  1

 92
      512
 93
        0
  2

 94
      512
 95
        0
  3

  0
XRECORD
  5
988E
102
{ACAD_REACTORS
330
988D
102
}
330
988D
100
AcDbXrecord
280
     1
102
RTVSPost2010Prop28
280
     1
102
RTVSPost2010PropOp28
 70
     1
102
RTVSPost2010Prop29
280
     1
102
RTVSPost2010PropOp29
 70
     1
102
RTVSPost2010Prop30
280
     0
102
RTVSPost2010PropOp30
 70
     1
102
RTVSPost2010Prop31
280
     0
102
RTVSPost2010PropOp31
 70
     1
102
RTVSPost2010Prop32
280
     0
102
RTVSPost2010PropOp32
 70
     1
102
RTVSPost2010Prop33
280
     0
102
RTVSPost2010PropOp33
 70
     1
102
RTVSPost2010Prop34
280
     0
102
RTVSPost2010PropOp34
 70
     1
102
RTVSPost2010Prop35
280
     0
102
RTVSPost2010PropOp35
 70
     1
102
RTVSPost2010Prop36
280
     0
102
RTVSPost2010PropOp36
 70
     1
102
RTVSPost2010Prop37
 90
       50
102
RTVSPost2010PropOp37
 70
     1
102
RTVSPost2010Prop38
140
0.0
102
RTVSPost2010PropOp38
 70
     1
102
RTVSPost2010Prop39
140
1.0
102
RTVSPost2010PropOp39
 70
     1
102
RTVSPost2010Prop40
 90
        0
102
RTVSPost2010PropOp40
 70
     1
102
RTVSPost2010Prop41ColorIndex
 90
       18
102
RTVSPost2010Prop41ColorRGB
 90
        0
102
RTVSPost2010PropOp41
 70
     1
102
RTVSPost2010Prop42
 90
       50
102
RTVSPost2010PropOp42
 70
     1
102
RTVSPost2010Prop43
 90
        3
102
RTVSPost2010PropOp43
 70
     1
102
RTVSPost2010Prop44ColorIndex
 90
        5
102
RTVSPost2010Prop44ColorRGB
 90
      255
102
RTVSPost2010PropOp44
 70
     1
102
RTVSPost2010Prop45
280
     0
102
RTVSPost2010PropOp45
 70
     1
102
RTVSPost2010Prop46
 90
       50
102
RTVSPost2010PropOp46
 70
     1
102
RTVSPost2010Prop47
 90
       50
102
RTVSPost2010PropOp47
 70
     1
102
RTVSPost2010Prop48
 90
       50
102
RTVSPost2010PropOp48
 70
     1
102
RTVSPost2010Prop49
280
     0
102
RTVSPost2010PropOp49
 70
     1
102
RTVSPost2010Prop50
 90
       50
102
RTVSPost2010PropOp50
 70
     1
102
RTVSPost2010Prop51ColorIndex
 90
      256
102
RTVSPost2010Prop51ColorRGB
 90
-16777216
102
RTVSPost2010PropOp51
 70
     0
102
RTVSPost2010Prop52
140
1.0
102
RTVSPost2010PropOp52
 70
     0
102
RTVSPost2010Prop53
 90
        2
102
RTVSPost2010PropOp53
 70
     1
102
RTVSPost2010Prop54
  1
strokes_ogs.tif
102
RTVSPost2010PropOp54
 70
     1
102
RTVSPost2010Prop55
280
     0
102
RTVSPost2010PropOp55
 70
     1
102
RTVSPost2010Prop56
140
1.0
102
RTVSPost2010PropOp56
 70
     1
102
RTVSPost2010Prop57
140
1.0
102
RTVSPost2010PropOp57
 70
     1
102
RTVSPropertyOp0
 70
     1
102
RTVSPropertyOp1
 70
     1
102
RTVSPropertyOp2
 70
     1
102
RTVSPropertyOp3
 70
     1
102
RTVSPropertyOp4
 70
     1
102
RTVSPropertyOp5
 70
     1
102
RTVSPropertyOp6
 70
     1
102
RTVSPropertyOp7
 70
     1
102
RTVSPropertyOp8
 70
     1
102
RTVSPropertyOp9
 70
     1
102
RTVSPropertyOp10
 70
     1
102
RTVSPropertyOp11
 70
     1
102
RTVSPropertyOp12
 70
     1
102
RTVSPropertyOp13
 70
     1
102
RTVSPropertyOp14
 70
     1
102
RTVSPropertyOp15
 70
     1
102
RTVSPropertyOp16
 70
     1
102
RTVSPropertyOp17
 70
     1
102
RTVSPropertyOp18
 70
     1
102
RTVSPropertyOp19
 70
     1
102
RTVSPropertyOp20
 70
     1
102
RTVSPropertyOp21
 70
     1
102
RTVSPropertyOp22
 70
     1
102
RTVSPropertyOp23
 70
     1
102
RTVSPropertyOp24
 70
     1
102
RTVSPropertyOp25
 70
     1
102
RTVSPropertyOp26
 70
     1
102
RTVSPropertyOp27
 70
     1
102
RTVSPropertyOp28
 70
     1
102
RTVSPropertyOp29
 70
     1
102
RTVSPropertyOp30
 70
     1
102
RTVSPropertyOp31
 70
     1
102
RTVSPropertyOp32
 70
     1
102
RTVSPropertyOp33
 70
     1
102
RTVSPropertyOp34
 70
     1
102
RTVSPropertyOp35
 70
     1
102
RTVSPropertyOp36
 70
     1
102
RTVSPropertyOp37
 70
     1
102
RTVSPropertyOp38
 70
     1
102
RTVSPropertyOp39
 70
     1
102
RTVSPropertyOp40
 70
     1
102
RTVSPropertyOp41
 70
     1
102
RTVSPropertyOp42
 70
     1
102
RTVSPropertyOp43
 70
     1
102
RTVSPropertyOp44
 70
     1
102
RTVSPropertyOp45
 70
     1
102
RTVSPropertyOp46
 70
     1
102
RTVSPropertyOp47
 70
     1
102
RTVSPropertyOp48
 70
     1
102
RTVSPropertyOp49
 70
     1
102
RTVSPropertyOp50
 70
     1
102
RTVSPropertyOp51
 70
     0
102
RTVSPropertyOp52
 70
     0
102
RTVSPropertyOp53
 70
     1
102
RTVSPropertyOp54
 70
     1
102
RTVSPropertyOp55
 70
     1
102
RTVSPropertyOp56
 70
     1
102
RTVSPropertyOp57
 70
     1
102
RTVSPropertyOp58
 70
     1
102
RTVSPropertyOp59
 70
     1
102
RTVSPropertyOp60
 70
     1
102
RTVSPropertyOp61
 70
     1
102
RTVSPropertyOp62
 70
     1
  0
XRECORD
  5
988C
102
{ACAD_REACTORS
330
988B
102
}
330
988B
100
AcDbXrecord
280
     1
102
RTVSPost2010Prop28
280
     0
102
RTVSPost2010PropOp28
 70
     1
102
RTVSPost2010Prop29
280
     1
102
RTVSPost2010PropOp29
 70
     1
102
RTVSPost2010Prop30
280
     1
102
RTVSPost2010PropOp30
 70
     1
102
RTVSPost2010Prop31
280
     0
102
RTVSPost2010PropOp31
 70
     1
102
RTVSPost2010Prop32
280
     0
102
RTVSPost2010PropOp32
 70
     1
102
RTVSPost2010Prop33
280
     0
102
RTVSPost2010PropOp33
 70
     1
102
RTVSPost2010Prop34
280
     0
102
RTVSPost2010PropOp34
 70
     1
102
RTVSPost2010Prop35
280
     0
102
RTVSPost2010PropOp35
 70
     1
102
RTVSPost2010Prop36
280
     0
102
RTVSPost2010PropOp36
 70
     1
102
RTVSPost2010Prop37
 90
       50
102
RTVSPost2010PropOp37
 70
     1
102
RTVSPost2010Prop38
140
0.0
102
RTVSPost2010PropOp38
 70
     1
102
RTVSPost2010Prop39
140
1.0
102
RTVSPost2010PropOp39
 70
     1
102
RTVSPost2010Prop40
 90
        0
102
RTVSPost2010PropOp40
 70
     1
102
RTVSPost2010Prop41ColorIndex
 90
       18
102
RTVSPost2010Prop41ColorRGB
 90
        0
102
RTVSPost2010PropOp41
 70
     1
102
RTVSPost2010Prop42
 90
       50
102
RTVSPost2010PropOp42
 70
     1
102
RTVSPost2010Prop43
 90
        3
102
RTVSPost2010PropOp43
 70
     1
102
RTVSPost2010Prop44ColorIndex
 90
        5
102
RTVSPost2010Prop44ColorRGB
 90
      255
102
RTVSPost2010PropOp44
 70
     1
102
RTVSPost2010Prop45
280
     0
102
RTVSPost2010PropOp45
 70
     1
102
RTVSPost2010Prop46
 90
       50
102
RTVSPost2010PropOp46
 70
     1
102
RTVSPost2010Prop47
 90
       50
102
RTVSPost2010PropOp47
 70
     1
102
RTVSPost2010Prop48
 90
       50
102
RTVSPost2010PropOp48
 70
     1
102
RTVSPost2010Prop49
280
     0
102
RTVSPost2010PropOp49
 70
     1
102
RTVSPost2010Prop50
 90
       50
102
RTVSPost2010PropOp50
 70
     1
102
RTVSPost2010Prop51ColorIndex
 90
      256
102
RTVSPost2010Prop51ColorRGB
 90
-16777216
102
RTVSPost2010PropOp51
 70
     0
102
RTVSPost2010Prop52
140
1.0
102
RTVSPost2010PropOp52
 70
     0
102
RTVSPost2010Prop53
 90
        2
102
RTVSPost2010PropOp53
 70
     1
102
RTVSPost2010Prop54
  1
strokes_ogs.tif
102
RTVSPost2010PropOp54
 70
     1
102
RTVSPost2010Prop55
280
     0
102
RTVSPost2010PropOp55
 70
     1
102
RTVSPost2010Prop56
140
1.0
102
RTVSPost2010PropOp56
 70
     1
102
RTVSPost2010Prop57
140
1.0
102
RTVSPost2010PropOp57
 70
     1
102
RTVSPropertyOp0
 70
     1
102
RTVSPropertyOp1
 70
     1
102
RTVSPropertyOp2
 70
     1
102
RTVSPropertyOp3
 70
     1
102
RTVSPropertyOp4
 70
     1
102
RTVSPropertyOp5
 70
     1
102
RTVSPropertyOp6
 70
     1
102
RTVSPropertyOp7
 70
     1
102
RTVSPropertyOp8
 70
     1
102
RTVSPropertyOp9
 70
     1
102
RTVSPropertyOp10
 70
     1
102
RTVSPropertyOp11
 70
     1
102
RTVSPropertyOp12
 70
     1
102
RTVSPropertyOp13
 70
     1
102
RTVSPropertyOp14
 70
     1
102
RTVSPropertyOp15
 70
     1
102
RTVSPropertyOp16
 70
     1
102
RTVSPropertyOp17
 70
     1
102
RTVSPropertyOp18
 70
     1
102
RTVSPropertyOp19
 70
     1
102
RTVSPropertyOp20
 70
     1
102
RTVSPropertyOp21
 70
     1
102
RTVSPropertyOp22
 70
     1
102
RTVSPropertyOp23
 70
     1
102
RTVSPropertyOp24
 70
     1
102
RTVSPropertyOp25
 70
     1
102
RTVSPropertyOp26
 70
     1
102
RTVSPropertyOp27
 70
     1
102
RTVSPropertyOp28
 70
     1
102
RTVSPropertyOp29
 70
     1
102
RTVSPropertyOp30
 70
     1
102
RTVSPropertyOp31
 70
     1
102
RTVSPropertyOp32
 70
     1
102
RTVSPropertyOp33
 70
     1
102
RTVSPropertyOp34
 70
     1
102
RTVSPropertyOp35
 70
     1
102
RTVSPropertyOp36
 70
     1
102
RTVSPropertyOp37
 70
     1
102
RTVSPropertyOp38
 70
     1
102
RTVSPropertyOp39
 70
     1
102
RTVSPropertyOp40
 70
     1
102
RTVSPropertyOp41
 70
     1
102
RTVSPropertyOp42
 70
     1
102
RTVSPropertyOp43
 70
     1
102
RTVSPropertyOp44
 70
     1
102
RTVSPropertyOp45
 70
     1
102
RTVSPropertyOp46
 70
     1
102
RTVSPropertyOp47
 70
     1
102
RTVSPropertyOp48
 70
     1
102
RTVSPropertyOp49
 70
     1
102
RTVSPropertyOp50
 70
     1
102
RTVSPropertyOp51
 70
     0
102
RTVSPropertyOp52
 70
     0
102
RTVSPropertyOp53
 70
     1
102
RTVSPropertyOp54
 70
     1
102
RTVSPropertyOp55
 70
     1
102
RTVSPropertyOp56
 70
     1
102
RTVSPropertyOp57
 70
     1
102
RTVSPropertyOp58
 70
     1
102
RTVSPropertyOp59
 70
     1
102
RTVSPropertyOp60
 70
     1
102
RTVSPropertyOp61
 70
     1
102
RTVSPropertyOp62
 70
     1
  0
XRECORD
  5
989A
102
{ACAD_REACTORS
330
9899
102
}
330
9899
100
AcDbXrecord
280
     1
102
RTVSPost2010Prop28
280
     0
102
RTVSPost2010PropOp28
 70
     1
102
RTVSPost2010Prop29
280
     1
102
RTVSPost2010PropOp29
 70
     1
102
RTVSPost2010Prop30
280
     1
102
RTVSPost2010PropOp30
 70
     1
102
RTVSPost2010Prop31
280
     0
102
RTVSPost2010PropOp31
 70
     1
102
RTVSPost2010Prop32
280
     0
102
RTVSPost2010PropOp32
 70
     1
102
RTVSPost2010Prop33
280
     0
102
RTVSPost2010PropOp33
 70
     1
102
RTVSPost2010Prop34
280
     0
102
RTVSPost2010PropOp34
 70
     1
102
RTVSPost2010Prop35
280
     0
102
RTVSPost2010PropOp35
 70
     1
102
RTVSPost2010Prop36
280
     0
102
RTVSPost2010PropOp36
 70
     1
102
RTVSPost2010Prop37
 90
       50
102
RTVSPost2010PropOp37
 70
     1
102
RTVSPost2010Prop38
140
0.0
102
RTVSPost2010PropOp38
 70
     1
102
RTVSPost2010Prop39
140
1.0
102
RTVSPost2010PropOp39
 70
     1
102
RTVSPost2010Prop40
 90
        0
102
RTVSPost2010PropOp40
 70
     1
102
RTVSPost2010Prop41ColorIndex
 90
       18
102
RTVSPost2010Prop41ColorRGB
 90
        0
102
RTVSPost2010PropOp41
 70
     1
102
RTVSPost2010Prop42
 90
       50
102
RTVSPost2010PropOp42
 70
     1
102
RTVSPost2010Prop43
 90
        3
102
RTVSPost2010PropOp43
 70
     1
102
RTVSPost2010Prop44ColorIndex
 90
        5
102
RTVSPost2010Prop44ColorRGB
 90
      255
102
RTVSPost2010PropOp44
 70
     1
102
RTVSPost2010Prop45
280
     0
102
RTVSPost2010PropOp45
 70
     1
102
RTVSPost2010Prop46
 90
       50
102
RTVSPost2010PropOp46
 70
     1
102
RTVSPost2010Prop47
 90
       50
102
RTVSPost2010PropOp47
 70
     1
102
RTVSPost2010Prop48
 90
       50
102
RTVSPost2010PropOp48
 70
     1
102
RTVSPost2010Prop49
280
     0
102
RTVSPost2010PropOp49
 70
     1
102
RTVSPost2010Prop50
 90
       50
102
RTVSPost2010PropOp50
 70
     1
102
RTVSPost2010Prop51ColorIndex
 90
      256
102
RTVSPost2010Prop51ColorRGB
 90
-16777216
102
RTVSPost2010PropOp51
 70
     0
102
RTVSPost2010Prop52
140
1.0
102
RTVSPost2010PropOp52
 70
     0
102
RTVSPost2010Prop53
 90
        2
102
RTVSPost2010PropOp53
 70
     1
102
RTVSPost2010Prop54
  1
strokes_ogs.tif
102
RTVSPost2010PropOp54
 70
     1
102
RTVSPost2010Prop55
280
     0
102
RTVSPost2010PropOp55
 70
     1
102
RTVSPost2010Prop56
140
1.0
102
RTVSPost2010PropOp56
 70
     1
102
RTVSPost2010Prop57
140
1.0
102
RTVSPost2010PropOp57
 70
     1
102
RTVSPropertyOp0
 70
     1
102
RTVSPropertyOp1
 70
     1
102
RTVSPropertyOp2
 70
     1
102
RTVSPropertyOp3
 70
     1
102
RTVSPropertyOp4
 70
     1
102
RTVSPropertyOp5
 70
     1
102
RTVSPropertyOp6
 70
     1
102
RTVSPropertyOp7
 70
     1
102
RTVSPropertyOp8
 70
     1
102
RTVSPropertyOp9
 70
     1
102
RTVSPropertyOp10
 70
     1
102
RTVSPropertyOp11
 70
     1
102
RTVSPropertyOp12
 70
     1
102
RTVSPropertyOp13
 70
     1
102
RTVSPropertyOp14
 70
     1
102
RTVSPropertyOp15
 70
     1
102
RTVSPropertyOp16
 70
     1
102
RTVSPropertyOp17
 70
     1
102
RTVSPropertyOp18
 70
     1
102
RTVSPropertyOp19
 70
     1
102
RTVSPropertyOp20
 70
     1
102
RTVSPropertyOp21
 70
     1
102
RTVSPropertyOp22
 70
     1
102
RTVSPropertyOp23
 70
     1
102
RTVSPropertyOp24
 70
     1
102
RTVSPropertyOp25
 70
     1
102
RTVSPropertyOp26
 70
     1
102
RTVSPropertyOp27
 70
     1
102
RTVSPropertyOp28
 70
     1
102
RTVSPropertyOp29
 70
     1
102
RTVSPropertyOp30
 70
     1
102
RTVSPropertyOp31
 70
     1
102
RTVSPropertyOp32
 70
     1
102
RTVSPropertyOp33
 70
     1
102
RTVSPropertyOp34
 70
     1
102
RTVSPropertyOp35
 70
     1
102
RTVSPropertyOp36
 70
     1
102
RTVSPropertyOp37
 70
     1
102
RTVSPropertyOp38
 70
     1
102
RTVSPropertyOp39
 70
     1
102
RTVSPropertyOp40
 70
     1
102
RTVSPropertyOp41
 70
     1
102
RTVSPropertyOp42
 70
     1
102
RTVSPropertyOp43
 70
     1
102
RTVSPropertyOp44
 70
     1
102
RTVSPropertyOp45
 70
     1
102
RTVSPropertyOp46
 70
     1
102
RTVSPropertyOp47
 70
     1
102
RTVSPropertyOp48
 70
     1
102
RTVSPropertyOp49
 70
     1
102
RTVSPropertyOp50
 70
     1
102
RTVSPropertyOp51
 70
     0
102
RTVSPropertyOp52
 70
     0
102
RTVSPropertyOp53
 70
     1
102
RTVSPropertyOp54
 70
     1
102
RTVSPropertyOp55
 70
     1
102
RTVSPropertyOp56
 70
     1
102
RTVSPropertyOp57
 70
     1
102
RTVSPropertyOp58
 70
     1
102
RTVSPropertyOp59
 70
     1
102
RTVSPropertyOp60
 70
     1
102
RTVSPropertyOp61
 70
     1
102
RTVSPropertyOp62
 70
     1
  0
XRECORD
  5
98A2
102
{ACAD_REACTORS
330
98A1
102
}
330
98A1
100
AcDbXrecord
280
     1
102
RTVSPost2010Prop28
280
     0
102
RTVSPost2010PropOp28
 70
     1
102
RTVSPost2010Prop29
280
     1
102
RTVSPost2010PropOp29
 70
     1
102
RTVSPost2010Prop30
280
     1
102
RTVSPost2010PropOp30
 70
     1
102
RTVSPost2010Prop31
280
     0
102
RTVSPost2010PropOp31
 70
     1
102
RTVSPost2010Prop32
280
     0
102
RTVSPost2010PropOp32
 70
     1
102
RTVSPost2010Prop33
280
     0
102
RTVSPost2010PropOp33
 70
     1
102
RTVSPost2010Prop34
280
     0
102
RTVSPost2010PropOp34
 70
     1
102
RTVSPost2010Prop35
280
     0
102
RTVSPost2010PropOp35
 70
     1
102
RTVSPost2010Prop36
280
     0
102
RTVSPost2010PropOp36
 70
     1
102
RTVSPost2010Prop37
 90
       50
102
RTVSPost2010PropOp37
 70
     1
102
RTVSPost2010Prop38
140
0.0
102
RTVSPost2010PropOp38
 70
     1
102
RTVSPost2010Prop39
140
1.0
102
RTVSPost2010PropOp39
 70
     1
102
RTVSPost2010Prop40
 90
        0
102
RTVSPost2010PropOp40
 70
     1
102
RTVSPost2010Prop41ColorIndex
 90
       18
102
RTVSPost2010Prop41ColorRGB
 90
        0
102
RTVSPost2010PropOp41
 70
     1
102
RTVSPost2010Prop42
 90
       50
102
RTVSPost2010PropOp42
 70
     1
102
RTVSPost2010Prop43
 90
        3
102
RTVSPost2010PropOp43
 70
     1
102
RTVSPost2010Prop44ColorIndex
 90
        5
102
RTVSPost2010Prop44ColorRGB
 90
      255
102
RTVSPost2010PropOp44
 70
     1
102
RTVSPost2010Prop45
280
     0
102
RTVSPost2010PropOp45
 70
     1
102
RTVSPost2010Prop46
 90
       50
102
RTVSPost2010PropOp46
 70
     1
102
RTVSPost2010Prop47
 90
       50
102
RTVSPost2010PropOp47
 70
     1
102
RTVSPost2010Prop48
 90
       50
102
RTVSPost2010PropOp48
 70
     1
102
RTVSPost2010Prop49
280
     0
102
RTVSPost2010PropOp49
 70
     1
102
RTVSPost2010Prop50
 90
       50
102
RTVSPost2010PropOp50
 70
     1
102
RTVSPost2010Prop51ColorIndex
 90
      256
102
RTVSPost2010Prop51ColorRGB
 90
-16777216
102
RTVSPost2010PropOp51
 70
     0
102
RTVSPost2010Prop52
140
1.0
102
RTVSPost2010PropOp52
 70
     0
102
RTVSPost2010Prop53
 90
        2
102
RTVSPost2010PropOp53
 70
     1
102
RTVSPost2010Prop54
  1
strokes_ogs.tif
102
RTVSPost2010PropOp54
 70
     1
102
RTVSPost2010Prop55
280
     0
102
RTVSPost2010PropOp55
 70
     1
102
RTVSPost2010Prop56
140
1.0
102
RTVSPost2010PropOp56
 70
     1
102
RTVSPost2010Prop57
140
1.0
102
RTVSPost2010PropOp57
 70
     1
102
RTVSPropertyOp0
 70
     1
102
RTVSPropertyOp1
 70
     1
102
RTVSPropertyOp2
 70
     1
102
RTVSPropertyOp3
 70
     1
102
RTVSPropertyOp4
 70
     1
102
RTVSPropertyOp5
 70
     1
102
RTVSPropertyOp6
 70
     1
102
RTVSPropertyOp7
 70
     1
102
RTVSPropertyOp8
 70
     1
102
RTVSPropertyOp9
 70
     1
102
RTVSPropertyOp10
 70
     1
102
RTVSPropertyOp11
 70
     1
102
RTVSPropertyOp12
 70
     1
102
RTVSPropertyOp13
 70
     1
102
RTVSPropertyOp14
 70
     1
102
RTVSPropertyOp15
 70
     1
102
RTVSPropertyOp16
 70
     1
102
RTVSPropertyOp17
 70
     1
102
RTVSPropertyOp18
 70
     1
102
RTVSPropertyOp19
 70
     1
102
RTVSPropertyOp20
 70
     1
102
RTVSPropertyOp21
 70
     1
102
RTVSPropertyOp22
 70
     1
102
RTVSPropertyOp23
 70
     1
102
RTVSPropertyOp24
 70
     1
102
RTVSPropertyOp25
 70
     1
102
RTVSPropertyOp26
 70
     1
102
RTVSPropertyOp27
 70
     1
102
RTVSPropertyOp28
 70
     1
102
RTVSPropertyOp29
 70
     1
102
RTVSPropertyOp30
 70
     1
102
RTVSPropertyOp31
 70
     1
102
RTVSPropertyOp32
 70
     1
102
RTVSPropertyOp33
 70
     1
102
RTVSPropertyOp34
 70
     1
102
RTVSPropertyOp35
 70
     1
102
RTVSPropertyOp36
 70
     1
102
RTVSPropertyOp37
 70
     1
102
RTVSPropertyOp38
 70
     1
102
RTVSPropertyOp39
 70
     1
102
RTVSPropertyOp40
 70
     1
102
RTVSPropertyOp41
 70
     1
102
RTVSPropertyOp42
 70
     1
102
RTVSPropertyOp43
 70
     1
102
RTVSPropertyOp44
 70
     1
102
RTVSPropertyOp45
 70
     1
102
RTVSPropertyOp46
 70
     1
102
RTVSPropertyOp47
 70
     1
102
RTVSPropertyOp48
 70
     1
102
RTVSPropertyOp49
 70
     1
102
RTVSPropertyOp50
 70
     1
102
RTVSPropertyOp51
 70
     0
102
RTVSPropertyOp52
 70
     0
102
RTVSPropertyOp53
 70
     1
102
RTVSPropertyOp54
 70
     1
102
RTVSPropertyOp55
 70
     1
102
RTVSPropertyOp56
 70
     1
102
RTVSPropertyOp57
 70
     1
102
RTVSPropertyOp58
 70
     1
102
RTVSPropertyOp59
 70
     1
102
RTVSPropertyOp60
 70
     1
102
RTVSPropertyOp61
 70
     1
102
RTVSPropertyOp62
 70
     1
  0
XRECORD
  5
9894
102
{ACAD_REACTORS
330
9893
102
}
330
9893
100
AcDbXrecord
280
     1
102
RTVSPost2010Prop28
280
     0
102
RTVSPost2010PropOp28
 70
     1
102
RTVSPost2010Prop29
280
     1
102
RTVSPost2010PropOp29
 70
     1
102
RTVSPost2010Prop30
280
     1
102
RTVSPost2010PropOp30
 70
     1
102
RTVSPost2010Prop31
280
     0
102
RTVSPost2010PropOp31
 70
     1
102
RTVSPost2010Prop32
280
     0
102
RTVSPost2010PropOp32
 70
     1
102
RTVSPost2010Prop33
280
     0
102
RTVSPost2010PropOp33
 70
     1
102
RTVSPost2010Prop34
280
     0
102
RTVSPost2010PropOp34
 70
     1
102
RTVSPost2010Prop35
280
     0
102
RTVSPost2010PropOp35
 70
     1
102
RTVSPost2010Prop36
280
     0
102
RTVSPost2010PropOp36
 70
     1
102
RTVSPost2010Prop37
 90
       50
102
RTVSPost2010PropOp37
 70
     1
102
RTVSPost2010Prop38
140
0.0
102
RTVSPost2010PropOp38
 70
     1
102
RTVSPost2010Prop39
140
1.0
102
RTVSPost2010PropOp39
 70
     1
102
RTVSPost2010Prop40
 90
        0
102
RTVSPost2010PropOp40
 70
     1
102
RTVSPost2010Prop41ColorIndex
 90
       18
102
RTVSPost2010Prop41ColorRGB
 90
        0
102
RTVSPost2010PropOp41
 70
     1
102
RTVSPost2010Prop42
 90
       50
102
RTVSPost2010PropOp42
 70
     1
102
RTVSPost2010Prop43
 90
        3
102
RTVSPost2010PropOp43
 70
     1
102
RTVSPost2010Prop44ColorIndex
 90
        5
102
RTVSPost2010Prop44ColorRGB
 90
      255
102
RTVSPost2010PropOp44
 70
     1
102
RTVSPost2010Prop45
280
     0
102
RTVSPost2010PropOp45
 70
     1
102
RTVSPost2010Prop46
 90
       50
102
RTVSPost2010PropOp46
 70
     1
102
RTVSPost2010Prop47
 90
       50
102
RTVSPost2010PropOp47
 70
     1
102
RTVSPost2010Prop48
 90
       50
102
RTVSPost2010PropOp48
 70
     1
102
RTVSPost2010Prop49
280
     0
102
RTVSPost2010PropOp49
 70
     1
102
RTVSPost2010Prop50
 90
       50
102
RTVSPost2010PropOp50
 70
     1
102
RTVSPost2010Prop51ColorIndex
 90
      256
102
RTVSPost2010Prop51ColorRGB
 90
-16777216
102
RTVSPost2010PropOp51
 70
     0
102
RTVSPost2010Prop52
140
1.0
102
RTVSPost2010PropOp52
 70
     0
102
RTVSPost2010Prop53
 90
        2
102
RTVSPost2010PropOp53
 70
     1
102
RTVSPost2010Prop54
  1
strokes_ogs.tif
102
RTVSPost2010PropOp54
 70
     1
102
RTVSPost2010Prop55
280
     0
102
RTVSPost2010PropOp55
 70
     1
102
RTVSPost2010Prop56
140
1.0
102
RTVSPost2010PropOp56
 70
     1
102
RTVSPost2010Prop57
140
1.0
102
RTVSPost2010PropOp57
 70
     1
102
RTVSPropertyOp0
 70
     1
102
RTVSPropertyOp1
 70
     1
102
RTVSPropertyOp2
 70
     1
102
RTVSPropertyOp3
 70
     1
102
RTVSPropertyOp4
 70
     1
102
RTVSPropertyOp5
 70
     1
102
RTVSPropertyOp6
 70
     1
102
RTVSPropertyOp7
 70
     1
102
RTVSPropertyOp8
 70
     1
102
RTVSPropertyOp9
 70
     1
102
RTVSPropertyOp10
 70
     1
102
RTVSPropertyOp11
 70
     1
102
RTVSPropertyOp12
 70
     1
102
RTVSPropertyOp13
 70
     1
102
RTVSPropertyOp14
 70
     1
102
RTVSPropertyOp15
 70
     1
102
RTVSPropertyOp16
 70
     1
102
RTVSPropertyOp17
 70
     1
102
RTVSPropertyOp18
 70
     1
102
RTVSPropertyOp19
 70
     1
102
RTVSPropertyOp20
 70
     1
102
RTVSPropertyOp21
 70
     1
102
RTVSPropertyOp22
 70
     1
102
RTVSPropertyOp23
 70
     1
102
RTVSPropertyOp24
 70
     1
102
RTVSPropertyOp25
 70
     1
102
RTVSPropertyOp26
 70
     1
102
RTVSPropertyOp27
 70
     1
102
RTVSPropertyOp28
 70
     1
102
RTVSPropertyOp29
 70
     1
102
RTVSPropertyOp30
 70
     1
102
RTVSPropertyOp31
 70
     1
102
RTVSPropertyOp32
 70
     1
102
RTVSPropertyOp33
 70
     1
102
RTVSPropertyOp34
 70
     1
102
RTVSPropertyOp35
 70
     1
102
RTVSPropertyOp36
 70
     1
102
RTVSPropertyOp37
 70
     1
102
RTVSPropertyOp38
 70
     1
102
RTVSPropertyOp39
 70
     1
102
RTVSPropertyOp40
 70
     1
102
RTVSPropertyOp41
 70
     1
102
RTVSPropertyOp42
 70
     1
102
RTVSPropertyOp43
 70
     1
102
RTVSPropertyOp44
 70
     1
102
RTVSPropertyOp45
 70
     1
102
RTVSPropertyOp46
 70
     1
102
RTVSPropertyOp47
 70
     1
102
RTVSPropertyOp48
 70
     1
102
RTVSPropertyOp49
 70
     1
102
RTVSPropertyOp50
 70
     1
102
RTVSPropertyOp51
 70
     0
102
RTVSPropertyOp52
 70
     0
102
RTVSPropertyOp53
 70
     1
102
RTVSPropertyOp54
 70
     1
102
RTVSPropertyOp55
 70
     1
102
RTVSPropertyOp56
 70
     1
102
RTVSPropertyOp57
 70
     1
102
RTVSPropertyOp58
 70
     1
102
RTVSPropertyOp59
 70
     1
102
RTVSPropertyOp60
 70
     1
102
RTVSPropertyOp61
 70
     1
102
RTVSPropertyOp62
 70
     1
  0
XRECORD
  5
9898
102
{ACAD_REACTORS
330
9897
102
}
330
9897
100
AcDbXrecord
280
     1
102
RTVSPost2010Prop28
280
     0
102
RTVSPost2010PropOp28
 70
     1
102
RTVSPost2010Prop29
280
     1
102
RTVSPost2010PropOp29
 70
     1
102
RTVSPost2010Prop30
280
     1
102
RTVSPost2010PropOp30
 70
     1
102
RTVSPost2010Prop31
280
     0
102
RTVSPost2010PropOp31
 70
     1
102
RTVSPost2010Prop32
280
     0
102
RTVSPost2010PropOp32
 70
     1
102
RTVSPost2010Prop33
280
     0
102
RTVSPost2010PropOp33
 70
     1
102
RTVSPost2010Prop34
280
     0
102
RTVSPost2010PropOp34
 70
     1
102
RTVSPost2010Prop35
280
     0
102
RTVSPost2010PropOp35
 70
     1
102
RTVSPost2010Prop36
280
     0
102
RTVSPost2010PropOp36
 70
     1
102
RTVSPost2010Prop37
 90
       50
102
RTVSPost2010PropOp37
 70
     1
102
RTVSPost2010Prop38
140
0.0
102
RTVSPost2010PropOp38
 70
     1
102
RTVSPost2010Prop39
140
1.0
102
RTVSPost2010PropOp39
 70
     1
102
RTVSPost2010Prop40
 90
        0
102
RTVSPost2010PropOp40
 70
     1
102
RTVSPost2010Prop41ColorIndex
 90
       18
102
RTVSPost2010Prop41ColorRGB
 90
        0
102
RTVSPost2010PropOp41
 70
     1
102
RTVSPost2010Prop42
 90
       50
102
RTVSPost2010PropOp42
 70
     1
102
RTVSPost2010Prop43
 90
        3
102
RTVSPost2010PropOp43
 70
     1
102
RTVSPost2010Prop44ColorIndex
 90
        5
102
RTVSPost2010Prop44ColorRGB
 90
      255
102
RTVSPost2010PropOp44
 70
     1
102
RTVSPost2010Prop45
280
     0
102
RTVSPost2010PropOp45
 70
     1
102
RTVSPost2010Prop46
 90
       50
102
RTVSPost2010PropOp46
 70
     1
102
RTVSPost2010Prop47
 90
       50
102
RTVSPost2010PropOp47
 70
     1
102
RTVSPost2010Prop48
 90
       50
102
RTVSPost2010PropOp48
 70
     1
102
RTVSPost2010Prop49
280
     0
102
RTVSPost2010PropOp49
 70
     1
102
RTVSPost2010Prop50
 90
       50
102
RTVSPost2010PropOp50
 70
     1
102
RTVSPost2010Prop51ColorIndex
 90
      256
102
RTVSPost2010Prop51ColorRGB
 90
-16777216
102
RTVSPost2010PropOp51
 70
     0
102
RTVSPost2010Prop52
140
1.0
102
RTVSPost2010PropOp52
 70
     0
102
RTVSPost2010Prop53
 90
        2
102
RTVSPost2010PropOp53
 70
     1
102
RTVSPost2010Prop54
  1
strokes_ogs.tif
102
RTVSPost2010PropOp54
 70
     1
102
RTVSPost2010Prop55
280
     0
102
RTVSPost2010PropOp55
 70
     1
102
RTVSPost2010Prop56
140
1.0
102
RTVSPost2010PropOp56
 70
     1
102
RTVSPost2010Prop57
140
1.0
102
RTVSPost2010PropOp57
 70
     1
102
RTVSPropertyOp0
 70
     1
102
RTVSPropertyOp1
 70
     1
102
RTVSPropertyOp2
 70
     1
102
RTVSPropertyOp3
 70
     1
102
RTVSPropertyOp4
 70
     1
102
RTVSPropertyOp5
 70
     1
102
RTVSPropertyOp6
 70
     1
102
RTVSPropertyOp7
 70
     1
102
RTVSPropertyOp8
 70
     1
102
RTVSPropertyOp9
 70
     1
102
RTVSPropertyOp10
 70
     1
102
RTVSPropertyOp11
 70
     1
102
RTVSPropertyOp12
 70
     1
102
RTVSPropertyOp13
 70
     1
102
RTVSPropertyOp14
 70
     1
102
RTVSPropertyOp15
 70
     1
102
RTVSPropertyOp16
 70
     1
102
RTVSPropertyOp17
 70
     1
102
RTVSPropertyOp18
 70
     1
102
RTVSPropertyOp19
 70
     1
102
RTVSPropertyOp20
 70
     1
102
RTVSPropertyOp21
 70
     1
102
RTVSPropertyOp22
 70
     1
102
RTVSPropertyOp23
 70
     1
102
RTVSPropertyOp24
 70
     1
102
RTVSPropertyOp25
 70
     1
102
RTVSPropertyOp26
 70
     1
102
RTVSPropertyOp27
 70
     1
102
RTVSPropertyOp28
 70
     1
102
RTVSPropertyOp29
 70
     1
102
RTVSPropertyOp30
 70
     1
102
RTVSPropertyOp31
 70
     1
102
RTVSPropertyOp32
 70
     1
102
RTVSPropertyOp33
 70
     1
102
RTVSPropertyOp34
 70
     1
102
RTVSPropertyOp35
 70
     1
102
RTVSPropertyOp36
 70
     1
102
RTVSPropertyOp37
 70
     1
102
RTVSPropertyOp38
 70
     1
102
RTVSPropertyOp39
 70
     1
102
RTVSPropertyOp40
 70
     1
102
RTVSPropertyOp41
 70
     1
102
RTVSPropertyOp42
 70
     1
102
RTVSPropertyOp43
 70
     1
102
RTVSPropertyOp44
 70
     1
102
RTVSPropertyOp45
 70
     1
102
RTVSPropertyOp46
 70
     1
102
RTVSPropertyOp47
 70
     1
102
RTVSPropertyOp48
 70
     1
102
RTVSPropertyOp49
 70
     1
102
RTVSPropertyOp50
 70
     1
102
RTVSPropertyOp51
 70
     0
102
RTVSPropertyOp52
 70
     0
102
RTVSPropertyOp53
 70
     1
102
RTVSPropertyOp54
 70
     1
102
RTVSPropertyOp55
 70
     1
102
RTVSPropertyOp56
 70
     1
102
RTVSPropertyOp57
 70
     1
102
RTVSPropertyOp58
 70
     1
102
RTVSPropertyOp59
 70
     1
102
RTVSPropertyOp60
 70
     1
102
RTVSPropertyOp61
 70
     1
102
RTVSPropertyOp62
 70
     1
  0
XRECORD
  5
98B2
102
{ACAD_REACTORS
330
98B1
102
}
330
98B1
100
AcDbXrecord
280
     1
102
RTVSPost2010Prop28
280
     0
102
RTVSPost2010PropOp28
 70
     1
102
RTVSPost2010Prop29
280
     1
102
RTVSPost2010PropOp29
 70
     1
102
RTVSPost2010Prop30
280
     1
102
RTVSPost2010PropOp30
 70
     1
102
RTVSPost2010Prop31
280
     0
102
RTVSPost2010PropOp31
 70
     1
102
RTVSPost2010Prop32
280
     0
102
RTVSPost2010PropOp32
 70
     1
102
RTVSPost2010Prop33
280
     0
102
RTVSPost2010PropOp33
 70
     1
102
RTVSPost2010Prop34
280
     0
102
RTVSPost2010PropOp34
 70
     1
102
RTVSPost2010Prop35
280
     0
102
RTVSPost2010PropOp35
 70
     1
102
RTVSPost2010Prop36
280
     0
102
RTVSPost2010PropOp36
 70
     1
102
RTVSPost2010Prop37
 90
       50
102
RTVSPost2010PropOp37
 70
     0
102
RTVSPost2010Prop38
140
0.0
102
RTVSPost2010PropOp38
 70
     0
102
RTVSPost2010Prop39
140
1.0
102
RTVSPost2010PropOp39
 70
     0
102
RTVSPost2010Prop40
 90
        0
102
RTVSPost2010PropOp40
 70
     0
102
RTVSPost2010Prop41ColorIndex
 90
       18
102
RTVSPost2010Prop41ColorRGB
 90
        0
102
RTVSPost2010PropOp41
 70
     0
102
RTVSPost2010Prop42
 90
       50
102
RTVSPost2010PropOp42
 70
     0
102
RTVSPost2010Prop43
 90
        3
102
RTVSPost2010PropOp43
 70
     0
102
RTVSPost2010Prop44ColorIndex
 90
        5
102
RTVSPost2010Prop44ColorRGB
 90
      255
102
RTVSPost2010PropOp44
 70
     0
102
RTVSPost2010Prop45
280
     0
102
RTVSPost2010PropOp45
 70
     1
102
RTVSPost2010Prop46
 90
       50
102
RTVSPost2010PropOp46
 70
     0
102
RTVSPost2010Prop47
 90
       50
102
RTVSPost2010PropOp47
 70
     0
102
RTVSPost2010Prop48
 90
       50
102
RTVSPost2010PropOp48
 70
     0
102
RTVSPost2010Prop49
280
     0
102
RTVSPost2010PropOp49
 70
     1
102
RTVSPost2010Prop50
 90
       50
102
RTVSPost2010PropOp50
 70
     0
102
RTVSPost2010Prop51ColorIndex
 90
      256
102
RTVSPost2010Prop51ColorRGB
 90
-16777216
102
RTVSPost2010PropOp51
 70
     0
102
RTVSPost2010Prop52
140
1.0
102
RTVSPost2010PropOp52
 70
     0
102
RTVSPost2010Prop53
 90
        2
102
RTVSPost2010PropOp53
 70
     0
102
RTVSPost2010Prop54
  1
strokes_ogs.tif
102
RTVSPost2010PropOp54
 70
     0
102
RTVSPost2010Prop55
280
     0
102
RTVSPost2010PropOp55
 70
     1
102
RTVSPost2010Prop56
140
1.0
102
RTVSPost2010PropOp56
 70
     0
102
RTVSPost2010Prop57
140
1.0
102
RTVSPost2010PropOp57
 70
     0
102
RTVSPropertyOp0
 70
     0
102
RTVSPropertyOp1
 70
     0
102
RTVSPropertyOp2
 70
     0
102
RTVSPropertyOp3
 70
     0
102
RTVSPropertyOp4
 70
     0
102
RTVSPropertyOp5
 70
     0
102
RTVSPropertyOp6
 70
     0
102
RTVSPropertyOp7
 70
     0
102
RTVSPropertyOp8
 70
     0
102
RTVSPropertyOp9
 70
     0
102
RTVSPropertyOp10
 70
     0
102
RTVSPropertyOp11
 70
     0
102
RTVSPropertyOp12
 70
     0
102
RTVSPropertyOp13
 70
     0
102
RTVSPropertyOp14
 70
     2
102
RTVSPropertyOp15
 70
     0
102
RTVSPropertyOp16
 70
     0
102
RTVSPropertyOp17
 70
     0
102
RTVSPropertyOp18
 70
     0
102
RTVSPropertyOp19
 70
     0
102
RTVSPropertyOp20
 70
     0
102
RTVSPropertyOp21
 70
     0
102
RTVSPropertyOp22
 70
     0
102
RTVSPropertyOp23
 70
     0
102
RTVSPropertyOp24
 70
     0
102
RTVSPropertyOp25
 70
     0
102
RTVSPropertyOp26
 70
     0
102
RTVSPropertyOp27
 70
     0
102
RTVSPropertyOp28
 70
     1
102
RTVSPropertyOp29
 70
     1
102
RTVSPropertyOp30
 70
     1
102
RTVSPropertyOp31
 70
     1
102
RTVSPropertyOp32
 70
     1
102
RTVSPropertyOp33
 70
     1
102
RTVSPropertyOp34
 70
     1
102
RTVSPropertyOp35
 70
     1
102
RTVSPropertyOp36
 70
     1
102
RTVSPropertyOp37
 70
     0
102
RTVSPropertyOp38
 70
     0
102
RTVSPropertyOp39
 70
     0
102
RTVSPropertyOp40
 70
     0
102
RTVSPropertyOp41
 70
     0
102
RTVSPropertyOp42
 70
     0
102
RTVSPropertyOp43
 70
     0
102
RTVSPropertyOp44
 70
     0
102
RTVSPropertyOp45
 70
     1
102
RTVSPropertyOp46
 70
     0
102
RTVSPropertyOp47
 70
     0
102
RTVSPropertyOp48
 70
     0
102
RTVSPropertyOp49
 70
     1
102
RTVSPropertyOp50
 70
     0
102
RTVSPropertyOp51
 70
     0
102
RTVSPropertyOp52
 70
     0
102
RTVSPropertyOp53
 70
     0
102
RTVSPropertyOp54
 70
     0
102
RTVSPropertyOp55
 70
     1
102
RTVSPropertyOp56
 70
     0
102
RTVSPropertyOp57
 70
     0
102
RTVSPropertyOp58
 70
     0
102
RTVSPropertyOp59
 70
     0
102
RTVSPropertyOp60
 70
     0
102
RTVSPropertyOp61
 70
     0
102
RTVSPropertyOp62
 70
     0
  0
XRECORD
  5
98A0
102
{ACAD_REACTORS
330
989F
102
}
330
989F
100
AcDbXrecord
280
     1
102
RTVSPost2010Prop28
280
     0
102
RTVSPost2010PropOp28
 70
     1
102
RTVSPost2010Prop29
280
     1
102
RTVSPost2010PropOp29
 70
     1
102
RTVSPost2010Prop30
280
     1
102
RTVSPost2010PropOp30
 70
     1
102
RTVSPost2010Prop31
280
     0
102
RTVSPost2010PropOp31
 70
     1
102
RTVSPost2010Prop32
280
     0
102
RTVSPost2010PropOp32
 70
     1
102
RTVSPost2010Prop33
280
     0
102
RTVSPost2010PropOp33
 70
     1
102
RTVSPost2010Prop34
280
     0
102
RTVSPost2010PropOp34
 70
     1
102
RTVSPost2010Prop35
280
     0
102
RTVSPost2010PropOp35
 70
     1
102
RTVSPost2010Prop36
280
     0
102
RTVSPost2010PropOp36
 70
     1
102
RTVSPost2010Prop37
 90
       50
102
RTVSPost2010PropOp37
 70
     1
102
RTVSPost2010Prop38
140
0.0
102
RTVSPost2010PropOp38
 70
     1
102
RTVSPost2010Prop39
140
1.0
102
RTVSPost2010PropOp39
 70
     1
102
RTVSPost2010Prop40
 90
        0
102
RTVSPost2010PropOp40
 70
     1
102
RTVSPost2010Prop41ColorIndex
 90
       18
102
RTVSPost2010Prop41ColorRGB
 90
        0
102
RTVSPost2010PropOp41
 70
     1
102
RTVSPost2010Prop42
 90
       50
102
RTVSPost2010PropOp42
 70
     1
102
RTVSPost2010Prop43
 90
        3
102
RTVSPost2010PropOp43
 70
     1
102
RTVSPost2010Prop44ColorIndex
 90
        5
102
RTVSPost2010Prop44ColorRGB
 90
      255
102
RTVSPost2010PropOp44
 70
     1
102
RTVSPost2010Prop45
280
     0
102
RTVSPost2010PropOp45
 70
     1
102
RTVSPost2010Prop46
 90
       50
102
RTVSPost2010PropOp46
 70
     1
102
RTVSPost2010Prop47
 90
       50
102
RTVSPost2010PropOp47
 70
     1
102
RTVSPost2010Prop48
 90
       50
102
RTVSPost2010PropOp48
 70
     1
102
RTVSPost2010Prop49
280
     0
102
RTVSPost2010PropOp49
 70
     1
102
RTVSPost2010Prop50
 90
       50
102
RTVSPost2010PropOp50
 70
     1
102
RTVSPost2010Prop51ColorIndex
 90
      256
102
RTVSPost2010Prop51ColorRGB
 90
-16777216
102
RTVSPost2010PropOp51
 70
     0
102
RTVSPost2010Prop52
140
1.0
102
RTVSPost2010PropOp52
 70
     0
102
RTVSPost2010Prop53
 90
        2
102
RTVSPost2010PropOp53
 70
     1
102
RTVSPost2010Prop54
  1
strokes_ogs.tif
102
RTVSPost2010PropOp54
 70
     1
102
RTVSPost2010Prop55
280
     0
102
RTVSPost2010PropOp55
 70
     1
102
RTVSPost2010Prop56
140
1.0
102
RTVSPost2010PropOp56
 70
     1
102
RTVSPost2010Prop57
140
1.0
102
RTVSPost2010PropOp57
 70
     1
102
RTVSPropertyOp0
 70
     1
102
RTVSPropertyOp1
 70
     1
102
RTVSPropertyOp2
 70
     1
102
RTVSPropertyOp3
 70
     1
102
RTVSPropertyOp4
 70
     1
102
RTVSPropertyOp5
 70
     1
102
RTVSPropertyOp6
 70
     1
102
RTVSPropertyOp7
 70
     1
102
RTVSPropertyOp8
 70
     1
102
RTVSPropertyOp9
 70
     1
102
RTVSPropertyOp10
 70
     1
102
RTVSPropertyOp11
 70
     1
102
RTVSPropertyOp12
 70
     1
102
RTVSPropertyOp13
 70
     1
102
RTVSPropertyOp14
 70
     1
102
RTVSPropertyOp15
 70
     1
102
RTVSPropertyOp16
 70
     1
102
RTVSPropertyOp17
 70
     1
102
RTVSPropertyOp18
 70
     1
102
RTVSPropertyOp19
 70
     1
102
RTVSPropertyOp20
 70
     1
102
RTVSPropertyOp21
 70
     1
102
RTVSPropertyOp22
 70
     1
102
RTVSPropertyOp23
 70
     1
102
RTVSPropertyOp24
 70
     1
102
RTVSPropertyOp25
 70
     1
102
RTVSPropertyOp26
 70
     1
102
RTVSPropertyOp27
 70
     1
102
RTVSPropertyOp28
 70
     1
102
RTVSPropertyOp29
 70
     1
102
RTVSPropertyOp30
 70
     1
102
RTVSPropertyOp31
 70
     1
102
RTVSPropertyOp32
 70
     1
102
RTVSPropertyOp33
 70
     1
102
RTVSPropertyOp34
 70
     1
102
RTVSPropertyOp35
 70
     1
102
RTVSPropertyOp36
 70
     1
102
RTVSPropertyOp37
 70
     1
102
RTVSPropertyOp38
 70
     1
102
RTVSPropertyOp39
 70
     1
102
RTVSPropertyOp40
 70
     1
102
RTVSPropertyOp41
 70
     1
102
RTVSPropertyOp42
 70
     1
102
RTVSPropertyOp43
 70
     1
102
RTVSPropertyOp44
 70
     1
102
RTVSPropertyOp45
 70
     1
102
RTVSPropertyOp46
 70
     1
102
RTVSPropertyOp47
 70
     1
102
RTVSPropertyOp48
 70
     1
102
RTVSPropertyOp49
 70
     1
102
RTVSPropertyOp50
 70
     1
102
RTVSPropertyOp51
 70
     0
102
RTVSPropertyOp52
 70
     0
102
RTVSPropertyOp53
 70
     1
102
RTVSPropertyOp54
 70
     1
102
RTVSPropertyOp55
 70
     1
102
RTVSPropertyOp56
 70
     1
102
RTVSPropertyOp57
 70
     1
102
RTVSPropertyOp58
 70
     1
102
RTVSPropertyOp59
 70
     1
102
RTVSPropertyOp60
 70
     1
102
RTVSPropertyOp61
 70
     1
102
RTVSPropertyOp62
 70
     1
  0
XRECORD
  5
9884
102
{ACAD_REACTORS
330
9883
102
}
330
9883
100
AcDbXrecord
280
     1
102
RTVSPost2010Prop28
280
     0
102
RTVSPost2010PropOp28
 70
     1
102
RTVSPost2010Prop29
280
     1
102
RTVSPost2010PropOp29
 70
     1
102
RTVSPost2010Prop30
280
     1
102
RTVSPost2010PropOp30
 70
     1
102
RTVSPost2010Prop31
280
     0
102
RTVSPost2010PropOp31
 70
     1
102
RTVSPost2010Prop32
280
     0
102
RTVSPost2010PropOp32
 70
     1
102
RTVSPost2010Prop33
280
     0
102
RTVSPost2010PropOp33
 70
     1
102
RTVSPost2010Prop34
280
     0
102
RTVSPost2010PropOp34
 70
     1
102
RTVSPost2010Prop35
280
     0
102
RTVSPost2010PropOp35
 70
     1
102
RTVSPost2010Prop36
280
     0
102
RTVSPost2010PropOp36
 70
     1
102
RTVSPost2010Prop37
 90
       50
102
RTVSPost2010PropOp37
 70
     1
102
RTVSPost2010Prop38
140
0.0
102
RTVSPost2010PropOp38
 70
     1
102
RTVSPost2010Prop39
140
1.0
102
RTVSPost2010PropOp39
 70
     1
102
RTVSPost2010Prop40
 90
        0
102
RTVSPost2010PropOp40
 70
     1
102
RTVSPost2010Prop41ColorIndex
 90
       18
102
RTVSPost2010Prop41ColorRGB
 90
        0
102
RTVSPost2010PropOp41
 70
     1
102
RTVSPost2010Prop42
 90
       50
102
RTVSPost2010PropOp42
 70
     1
102
RTVSPost2010Prop43
 90
        3
102
RTVSPost2010PropOp43
 70
     1
102
RTVSPost2010Prop44ColorIndex
 90
        5
102
RTVSPost2010Prop44ColorRGB
 90
      255
102
RTVSPost2010PropOp44
 70
     1
102
RTVSPost2010Prop45
280
     0
102
RTVSPost2010PropOp45
 70
     1
102
RTVSPost2010Prop46
 90
       50
102
RTVSPost2010PropOp46
 70
     1
102
RTVSPost2010Prop47
 90
       50
102
RTVSPost2010PropOp47
 70
     1
102
RTVSPost2010Prop48
 90
       50
102
RTVSPost2010PropOp48
 70
     1
102
RTVSPost2010Prop49
280
     0
102
RTVSPost2010PropOp49
 70
     1
102
RTVSPost2010Prop50
 90
       50
102
RTVSPost2010PropOp50
 70
     1
102
RTVSPost2010Prop51ColorIndex
 90
      256
102
RTVSPost2010Prop51ColorRGB
 90
-16777216
102
RTVSPost2010PropOp51
 70
     0
102
RTVSPost2010Prop52
140
1.0
102
RTVSPost2010PropOp52
 70
     0
102
RTVSPost2010Prop53
 90
        2
102
RTVSPost2010PropOp53
 70
     1
102
RTVSPost2010Prop54
  1
strokes_ogs.tif
102
RTVSPost2010PropOp54
 70
     1
102
RTVSPost2010Prop55
280
     0
102
RTVSPost2010PropOp55
 70
     1
102
RTVSPost2010Prop56
140
1.0
102
RTVSPost2010PropOp56
 70
     1
102
RTVSPost2010Prop57
140
1.0
102
RTVSPost2010PropOp57
 70
     1
102
RTVSPropertyOp0
 70
     1
102
RTVSPropertyOp1
 70
     1
102
RTVSPropertyOp2
 70
     1
102
RTVSPropertyOp3
 70
     1
102
RTVSPropertyOp4
 70
     1
102
RTVSPropertyOp5
 70
     1
102
RTVSPropertyOp6
 70
     1
102
RTVSPropertyOp7
 70
     1
102
RTVSPropertyOp8
 70
     1
102
RTVSPropertyOp9
 70
     1
102
RTVSPropertyOp10
 70
     1
102
RTVSPropertyOp11
 70
     1
102
RTVSPropertyOp12
 70
     1
102
RTVSPropertyOp13
 70
     1
102
RTVSPropertyOp14
 70
     1
102
RTVSPropertyOp15
 70
     1
102
RTVSPropertyOp16
 70
     1
102
RTVSPropertyOp17
 70
     1
102
RTVSPropertyOp18
 70
     1
102
RTVSPropertyOp19
 70
     1
102
RTVSPropertyOp20
 70
     1
102
RTVSPropertyOp21
 70
     1
102
RTVSPropertyOp22
 70
     1
102
RTVSPropertyOp23
 70
     1
102
RTVSPropertyOp24
 70
     1
102
RTVSPropertyOp25
 70
     1
102
RTVSPropertyOp26
 70
     1
102
RTVSPropertyOp27
 70
     1
102
RTVSPropertyOp28
 70
     1
102
RTVSPropertyOp29
 70
     1
102
RTVSPropertyOp30
 70
     1
102
RTVSPropertyOp31
 70
     1
102
RTVSPropertyOp32
 70
     1
102
RTVSPropertyOp33
 70
     1
102
RTVSPropertyOp34
 70
     1
102
RTVSPropertyOp35
 70
     1
102
RTVSPropertyOp36
 70
     1
102
RTVSPropertyOp37
 70
     1
102
RTVSPropertyOp38
 70
     1
102
RTVSPropertyOp39
 70
     1
102
RTVSPropertyOp40
 70
     1
102
RTVSPropertyOp41
 70
     1
102
RTVSPropertyOp42
 70
     1
102
RTVSPropertyOp43
 70
     1
102
RTVSPropertyOp44
 70
     1
102
RTVSPropertyOp45
 70
     1
102
RTVSPropertyOp46
 70
     1
102
RTVSPropertyOp47
 70
     1
102
RTVSPropertyOp48
 70
     1
102
RTVSPropertyOp49
 70
     1
102
RTVSPropertyOp50
 70
     1
102
RTVSPropertyOp51
 70
     0
102
RTVSPropertyOp52
 70
     0
102
RTVSPropertyOp53
 70
     1
102
RTVSPropertyOp54
 70
     1
102
RTVSPropertyOp55
 70
     1
102
RTVSPropertyOp56
 70
     1
102
RTVSPropertyOp57
 70
     1
102
RTVSPropertyOp58
 70
     1
102
RTVSPropertyOp59
 70
     1
102
RTVSPropertyOp60
 70
     1
102
RTVSPropertyOp61
 70
     1
102
RTVSPropertyOp62
 70
     1
  0
XRECORD
  5
9886
102
{ACAD_REACTORS
330
9885
102
}
330
9885
100
AcDbXrecord
280
     1
102
RTVSPost2010Prop28
280
     0
102
RTVSPost2010PropOp28
 70
     1
102
RTVSPost2010Prop29
280
     1
102
RTVSPost2010PropOp29
 70
     1
102
RTVSPost2010Prop30
280
     1
102
RTVSPost2010PropOp30
 70
     1
102
RTVSPost2010Prop31
280
     0
102
RTVSPost2010PropOp31
 70
     1
102
RTVSPost2010Prop32
280
     0
102
RTVSPost2010PropOp32
 70
     1
102
RTVSPost2010Prop33
280
     0
102
RTVSPost2010PropOp33
 70
     1
102
RTVSPost2010Prop34
280
     0
102
RTVSPost2010PropOp34
 70
     1
102
RTVSPost2010Prop35
280
     0
102
RTVSPost2010PropOp35
 70
     1
102
RTVSPost2010Prop36
280
     0
102
RTVSPost2010PropOp36
 70
     1
102
RTVSPost2010Prop37
 90
       50
102
RTVSPost2010PropOp37
 70
     1
102
RTVSPost2010Prop38
140
0.0
102
RTVSPost2010PropOp38
 70
     1
102
RTVSPost2010Prop39
140
1.0
102
RTVSPost2010PropOp39
 70
     1
102
RTVSPost2010Prop40
 90
        0
102
RTVSPost2010PropOp40
 70
     1
102
RTVSPost2010Prop41ColorIndex
 90
       18
102
RTVSPost2010Prop41ColorRGB
 90
        0
102
RTVSPost2010PropOp41
 70
     1
102
RTVSPost2010Prop42
 90
       50
102
RTVSPost2010PropOp42
 70
     1
102
RTVSPost2010Prop43
 90
        3
102
RTVSPost2010PropOp43
 70
     1
102
RTVSPost2010Prop44ColorIndex
 90
        5
102
RTVSPost2010Prop44ColorRGB
 90
      255
102
RTVSPost2010PropOp44
 70
     1
102
RTVSPost2010Prop45
280
     0
102
RTVSPost2010PropOp45
 70
     1
102
RTVSPost2010Prop46
 90
       50
102
RTVSPost2010PropOp46
 70
     1
102
RTVSPost2010Prop47
 90
       50
102
RTVSPost2010PropOp47
 70
     1
102
RTVSPost2010Prop48
 90
       50
102
RTVSPost2010PropOp48
 70
     1
102
RTVSPost2010Prop49
280
     0
102
RTVSPost2010PropOp49
 70
     1
102
RTVSPost2010Prop50
 90
       50
102
RTVSPost2010PropOp50
 70
     1
102
RTVSPost2010Prop51ColorIndex
 90
      256
102
RTVSPost2010Prop51ColorRGB
 90
-16777216
102
RTVSPost2010PropOp51
 70
     0
102
RTVSPost2010Prop52
140
1.0
102
RTVSPost2010PropOp52
 70
     0
102
RTVSPost2010Prop53
 90
        2
102
RTVSPost2010PropOp53
 70
     1
102
RTVSPost2010Prop54
  1
strokes_ogs.tif
102
RTVSPost2010PropOp54
 70
     1
102
RTVSPost2010Prop55
280
     0
102
RTVSPost2010PropOp55
 70
     1
102
RTVSPost2010Prop56
140
1.0
102
RTVSPost2010PropOp56
 70
     1
102
RTVSPost2010Prop57
140
1.0
102
RTVSPost2010PropOp57
 70
     1
102
RTVSPropertyOp0
 70
     1
102
RTVSPropertyOp1
 70
     1
102
RTVSPropertyOp2
 70
     1
102
RTVSPropertyOp3
 70
     1
102
RTVSPropertyOp4
 70
     1
102
RTVSPropertyOp5
 70
     1
102
RTVSPropertyOp6
 70
     1
102
RTVSPropertyOp7
 70
     1
102
RTVSPropertyOp8
 70
     1
102
RTVSPropertyOp9
 70
     1
102
RTVSPropertyOp10
 70
     1
102
RTVSPropertyOp11
 70
     1
102
RTVSPropertyOp12
 70
     1
102
RTVSPropertyOp13
 70
     1
102
RTVSPropertyOp14
 70
     1
102
RTVSPropertyOp15
 70
     1
102
RTVSPropertyOp16
 70
     1
102
RTVSPropertyOp17
 70
     1
102
RTVSPropertyOp18
 70
     1
102
RTVSPropertyOp19
 70
     1
102
RTVSPropertyOp20
 70
     1
102
RTVSPropertyOp21
 70
     1
102
RTVSPropertyOp22
 70
     1
102
RTVSPropertyOp23
 70
     1
102
RTVSPropertyOp24
 70
     1
102
RTVSPropertyOp25
 70
     1
102
RTVSPropertyOp26
 70
     1
102
RTVSPropertyOp27
 70
     1
102
RTVSPropertyOp28
 70
     1
102
RTVSPropertyOp29
 70
     1
102
RTVSPropertyOp30
 70
     1
102
RTVSPropertyOp31
 70
     1
102
RTVSPropertyOp32
 70
     1
102
RTVSPropertyOp33
 70
     1
102
RTVSPropertyOp34
 70
     1
102
RTVSPropertyOp35
 70
     1
102
RTVSPropertyOp36
 70
     1
102
RTVSPropertyOp37
 70
     1
102
RTVSPropertyOp38
 70
     1
102
RTVSPropertyOp39
 70
     1
102
RTVSPropertyOp40
 70
     1
102
RTVSPropertyOp41
 70
     1
102
RTVSPropertyOp42
 70
     1
102
RTVSPropertyOp43
 70
     1
102
RTVSPropertyOp44
 70
     1
102
RTVSPropertyOp45
 70
     1
102
RTVSPropertyOp46
 70
     1
102
RTVSPropertyOp47
 70
     1
102
RTVSPropertyOp48
 70
     1
102
RTVSPropertyOp49
 70
     1
102
RTVSPropertyOp50
 70
     1
102
RTVSPropertyOp51
 70
     0
102
RTVSPropertyOp52
 70
     0
102
RTVSPropertyOp53
 70
     1
102
RTVSPropertyOp54
 70
     1
102
RTVSPropertyOp55
 70
     1
102
RTVSPropertyOp56
 70
     1
102
RTVSPropertyOp57
 70
     1
102
RTVSPropertyOp58
 70
     1
102
RTVSPropertyOp59
 70
     1
102
RTVSPropertyOp60
 70
     1
102
RTVSPropertyOp61
 70
     1
102
RTVSPropertyOp62
 70
     1
  0
XRECORD
  5
9888
102
{ACAD_REACTORS
330
9887
102
}
330
9887
100
AcDbXrecord
280
     1
102
RTVSPost2010Prop28
280
     0
102
RTVSPost2010PropOp28
 70
     1
102
RTVSPost2010Prop29
280
     1
102
RTVSPost2010PropOp29
 70
     1
102
RTVSPost2010Prop30
280
     1
102
RTVSPost2010PropOp30
 70
     1
102
RTVSPost2010Prop31
280
     0
102
RTVSPost2010PropOp31
 70
     1
102
RTVSPost2010Prop32
280
     0
102
RTVSPost2010PropOp32
 70
     1
102
RTVSPost2010Prop33
280
     0
102
RTVSPost2010PropOp33
 70
     1
102
RTVSPost2010Prop34
280
     0
102
RTVSPost2010PropOp34
 70
     1
102
RTVSPost2010Prop35
280
     0
102
RTVSPost2010PropOp35
 70
     1
102
RTVSPost2010Prop36
280
     0
102
RTVSPost2010PropOp36
 70
     1
102
RTVSPost2010Prop37
 90
       50
102
RTVSPost2010PropOp37
 70
     1
102
RTVSPost2010Prop38
140
0.0
102
RTVSPost2010PropOp38
 70
     1
102
RTVSPost2010Prop39
140
1.0
102
RTVSPost2010PropOp39
 70
     1
102
RTVSPost2010Prop40
 90
        0
102
RTVSPost2010PropOp40
 70
     1
102
RTVSPost2010Prop41ColorIndex
 90
       18
102
RTVSPost2010Prop41ColorRGB
 90
        0
102
RTVSPost2010PropOp41
 70
     1
102
RTVSPost2010Prop42
 90
       50
102
RTVSPost2010PropOp42
 70
     1
102
RTVSPost2010Prop43
 90
        3
102
RTVSPost2010PropOp43
 70
     1
102
RTVSPost2010Prop44ColorIndex
 90
        5
102
RTVSPost2010Prop44ColorRGB
 90
      255
102
RTVSPost2010PropOp44
 70
     1
102
RTVSPost2010Prop45
280
     0
102
RTVSPost2010PropOp45
 70
     1
102
RTVSPost2010Prop46
 90
       50
102
RTVSPost2010PropOp46
 70
     1
102
RTVSPost2010Prop47
 90
       50
102
RTVSPost2010PropOp47
 70
     1
102
RTVSPost2010Prop48
 90
       50
102
RTVSPost2010PropOp48
 70
     1
102
RTVSPost2010Prop49
280
     0
102
RTVSPost2010PropOp49
 70
     1
102
RTVSPost2010Prop50
 90
       50
102
RTVSPost2010PropOp50
 70
     1
102
RTVSPost2010Prop51ColorIndex
 90
      256
102
RTVSPost2010Prop51ColorRGB
 90
-16777216
102
RTVSPost2010PropOp51
 70
     0
102
RTVSPost2010Prop52
140
1.0
102
RTVSPost2010PropOp52
 70
     0
102
RTVSPost2010Prop53
 90
        2
102
RTVSPost2010PropOp53
 70
     1
102
RTVSPost2010Prop54
  1
strokes_ogs.tif
102
RTVSPost2010PropOp54
 70
     1
102
RTVSPost2010Prop55
280
     0
102
RTVSPost2010PropOp55
 70
     1
102
RTVSPost2010Prop56
140
1.0
102
RTVSPost2010PropOp56
 70
     1
102
RTVSPost2010Prop57
140
1.0
102
RTVSPost2010PropOp57
 70
     1
102
RTVSPropertyOp0
 70
     1
102
RTVSPropertyOp1
 70
     1
102
RTVSPropertyOp2
 70
     1
102
RTVSPropertyOp3
 70
     1
102
RTVSPropertyOp4
 70
     1
102
RTVSPropertyOp5
 70
     1
102
RTVSPropertyOp6
 70
     1
102
RTVSPropertyOp7
 70
     1
102
RTVSPropertyOp8
 70
     1
102
RTVSPropertyOp9
 70
     1
102
RTVSPropertyOp10
 70
     1
102
RTVSPropertyOp11
 70
     1
102
RTVSPropertyOp12
 70
     1
102
RTVSPropertyOp13
 70
     1
102
RTVSPropertyOp14
 70
     1
102
RTVSPropertyOp15
 70
     1
102
RTVSPropertyOp16
 70
     1
102
RTVSPropertyOp17
 70
     1
102
RTVSPropertyOp18
 70
     1
102
RTVSPropertyOp19
 70
     1
102
RTVSPropertyOp20
 70
     1
102
RTVSPropertyOp21
 70
     1
102
RTVSPropertyOp22
 70
     1
102
RTVSPropertyOp23
 70
     1
102
RTVSPropertyOp24
 70
     1
102
RTVSPropertyOp25
 70
     1
102
RTVSPropertyOp26
 70
     1
102
RTVSPropertyOp27
 70
     1
102
RTVSPropertyOp28
 70
     1
102
RTVSPropertyOp29
 70
     1
102
RTVSPropertyOp30
 70
     1
102
RTVSPropertyOp31
 70
     1
102
RTVSPropertyOp32
 70
     1
102
RTVSPropertyOp33
 70
     1
102
RTVSPropertyOp34
 70
     1
102
RTVSPropertyOp35
 70
     1
102
RTVSPropertyOp36
 70
     1
102
RTVSPropertyOp37
 70
     1
102
RTVSPropertyOp38
 70
     1
102
RTVSPropertyOp39
 70
     1
102
RTVSPropertyOp40
 70
     1
102
RTVSPropertyOp41
 70
     1
102
RTVSPropertyOp42
 70
     1
102
RTVSPropertyOp43
 70
     1
102
RTVSPropertyOp44
 70
     1
102
RTVSPropertyOp45
 70
     1
102
RTVSPropertyOp46
 70
     1
102
RTVSPropertyOp47
 70
     1
102
RTVSPropertyOp48
 70
     1
102
RTVSPropertyOp49
 70
     1
102
RTVSPropertyOp50
 70
     1
102
RTVSPropertyOp51
 70
     0
102
RTVSPropertyOp52
 70
     0
102
RTVSPropertyOp53
 70
     1
102
RTVSPropertyOp54
 70
     1
102
RTVSPropertyOp55
 70
     1
102
RTVSPropertyOp56
 70
     1
102
RTVSPropertyOp57
 70
     1
102
RTVSPropertyOp58
 70
     1
102
RTVSPropertyOp59
 70
     1
102
RTVSPropertyOp60
 70
     1
102
RTVSPropertyOp61
 70
     1
102
RTVSPropertyOp62
 70
     1
  0
XRECORD
  5
988A
102
{ACAD_REACTORS
330
9889
102
}
330
9889
100
AcDbXrecord
280
     1
102
RTVSPost2010Prop28
280
     0
102
RTVSPost2010PropOp28
 70
     1
102
RTVSPost2010Prop29
280
     1
102
RTVSPost2010PropOp29
 70
     1
102
RTVSPost2010Prop30
280
     1
102
RTVSPost2010PropOp30
 70
     1
102
RTVSPost2010Prop31
280
     0
102
RTVSPost2010PropOp31
 70
     1
102
RTVSPost2010Prop32
280
     0
102
RTVSPost2010PropOp32
 70
     1
102
RTVSPost2010Prop33
280
     0
102
RTVSPost2010PropOp33
 70
     1
102
RTVSPost2010Prop34
280
     0
102
RTVSPost2010PropOp34
 70
     1
102
RTVSPost2010Prop35
280
     0
102
RTVSPost2010PropOp35
 70
     1
102
RTVSPost2010Prop36
280
     0
102
RTVSPost2010PropOp36
 70
     1
102
RTVSPost2010Prop37
 90
       50
102
RTVSPost2010PropOp37
 70
     1
102
RTVSPost2010Prop38
140
0.0
102
RTVSPost2010PropOp38
 70
     1
102
RTVSPost2010Prop39
140
1.0
102
RTVSPost2010PropOp39
 70
     1
102
RTVSPost2010Prop40
 90
        0
102
RTVSPost2010PropOp40
 70
     1
102
RTVSPost2010Prop41ColorIndex
 90
       18
102
RTVSPost2010Prop41ColorRGB
 90
        0
102
RTVSPost2010PropOp41
 70
     1
102
RTVSPost2010Prop42
 90
       50
102
RTVSPost2010PropOp42
 70
     1
102
RTVSPost2010Prop43
 90
        3
102
RTVSPost2010PropOp43
 70
     1
102
RTVSPost2010Prop44ColorIndex
 90
        5
102
RTVSPost2010Prop44ColorRGB
 90
      255
102
RTVSPost2010PropOp44
 70
     1
102
RTVSPost2010Prop45
280
     0
102
RTVSPost2010PropOp45
 70
     1
102
RTVSPost2010Prop46
 90
       50
102
RTVSPost2010PropOp46
 70
     1
102
RTVSPost2010Prop47
 90
       50
102
RTVSPost2010PropOp47
 70
     1
102
RTVSPost2010Prop48
 90
       50
102
RTVSPost2010PropOp48
 70
     1
102
RTVSPost2010Prop49
280
     0
102
RTVSPost2010PropOp49
 70
     1
102
RTVSPost2010Prop50
 90
       50
102
RTVSPost2010PropOp50
 70
     1
102
RTVSPost2010Prop51ColorIndex
 90
      256
102
RTVSPost2010Prop51ColorRGB
 90
-16777216
102
RTVSPost2010PropOp51
 70
     0
102
RTVSPost2010Prop52
140
1.0
102
RTVSPost2010PropOp52
 70
     0
102
RTVSPost2010Prop53
 90
        2
102
RTVSPost2010PropOp53
 70
     1
102
RTVSPost2010Prop54
  1
strokes_ogs.tif
102
RTVSPost2010PropOp54
 70
     1
102
RTVSPost2010Prop55
280
     0
102
RTVSPost2010PropOp55
 70
     1
102
RTVSPost2010Prop56
140
1.0
102
RTVSPost2010PropOp56
 70
     1
102
RTVSPost2010Prop57
140
1.0
102
RTVSPost2010PropOp57
 70
     1
102
RTVSPropertyOp0
 70
     1
102
RTVSPropertyOp1
 70
     1
102
RTVSPropertyOp2
 70
     1
102
RTVSPropertyOp3
 70
     1
102
RTVSPropertyOp4
 70
     1
102
RTVSPropertyOp5
 70
     1
102
RTVSPropertyOp6
 70
     1
102
RTVSPropertyOp7
 70
     1
102
RTVSPropertyOp8
 70
     1
102
RTVSPropertyOp9
 70
     1
102
RTVSPropertyOp10
 70
     1
102
RTVSPropertyOp11
 70
     1
102
RTVSPropertyOp12
 70
     1
102
RTVSPropertyOp13
 70
     1
102
RTVSPropertyOp14
 70
     1
102
RTVSPropertyOp15
 70
     1
102
RTVSPropertyOp16
 70
     1
102
RTVSPropertyOp17
 70
     1
102
RTVSPropertyOp18
 70
     1
102
RTVSPropertyOp19
 70
     1
102
RTVSPropertyOp20
 70
     1
102
RTVSPropertyOp21
 70
     1
102
RTVSPropertyOp22
 70
     1
102
RTVSPropertyOp23
 70
     1
102
RTVSPropertyOp24
 70
     1
102
RTVSPropertyOp25
 70
     1
102
RTVSPropertyOp26
 70
     1
102
RTVSPropertyOp27
 70
     1
102
RTVSPropertyOp28
 70
     1
102
RTVSPropertyOp29
 70
     1
102
RTVSPropertyOp30
 70
     1
102
RTVSPropertyOp31
 70
     1
102
RTVSPropertyOp32
 70
     1
102
RTVSPropertyOp33
 70
     1
102
RTVSPropertyOp34
 70
     1
102
RTVSPropertyOp35
 70
     1
102
RTVSPropertyOp36
 70
     1
102
RTVSPropertyOp37
 70
     1
102
RTVSPropertyOp38
 70
     1
102
RTVSPropertyOp39
 70
     1
102
RTVSPropertyOp40
 70
     1
102
RTVSPropertyOp41
 70
     1
102
RTVSPropertyOp42
 70
     1
102
RTVSPropertyOp43
 70
     1
102
RTVSPropertyOp44
 70
     1
102
RTVSPropertyOp45
 70
     1
102
RTVSPropertyOp46
 70
     1
102
RTVSPropertyOp47
 70
     1
102
RTVSPropertyOp48
 70
     1
102
RTVSPropertyOp49
 70
     1
102
RTVSPropertyOp50
 70
     1
102
RTVSPropertyOp51
 70
     0
102
RTVSPropertyOp52
 70
     0
102
RTVSPropertyOp53
 70
     1
102
RTVSPropertyOp54
 70
     1
102
RTVSPropertyOp55
 70
     1
102
RTVSPropertyOp56
 70
     1
102
RTVSPropertyOp57
 70
     1
102
RTVSPropertyOp58
 70
     1
102
RTVSPropertyOp59
 70
     1
102
RTVSPropertyOp60
 70
     1
102
RTVSPropertyOp61
 70
     1
102
RTVSPropertyOp62
 70
     1
  0
XRECORD
  5
9892
102
{ACAD_REACTORS
330
9891
102
}
330
9891
100
AcDbXrecord
280
     1
102
RTVSPost2010Prop28
280
     0
102
RTVSPost2010PropOp28
 70
     1
102
RTVSPost2010Prop29
280
     1
102
RTVSPost2010PropOp29
 70
     1
102
RTVSPost2010Prop30
280
     1
102
RTVSPost2010PropOp30
 70
     1
102
RTVSPost2010Prop31
280
     0
102
RTVSPost2010PropOp31
 70
     1
102
RTVSPost2010Prop32
280
     0
102
RTVSPost2010PropOp32
 70
     1
102
RTVSPost2010Prop33
280
     0
102
RTVSPost2010PropOp33
 70
     1
102
RTVSPost2010Prop34
280
     0
102
RTVSPost2010PropOp34
 70
     1
102
RTVSPost2010Prop35
280
     0
102
RTVSPost2010PropOp35
 70
     1
102
RTVSPost2010Prop36
280
     0
102
RTVSPost2010PropOp36
 70
     1
102
RTVSPost2010Prop37
 90
       50
102
RTVSPost2010PropOp37
 70
     1
102
RTVSPost2010Prop38
140
0.0
102
RTVSPost2010PropOp38
 70
     1
102
RTVSPost2010Prop39
140
1.0
102
RTVSPost2010PropOp39
 70
     1
102
RTVSPost2010Prop40
 90
        0
102
RTVSPost2010PropOp40
 70
     1
102
RTVSPost2010Prop41ColorIndex
 90
       18
102
RTVSPost2010Prop41ColorRGB
 90
        0
102
RTVSPost2010PropOp41
 70
     1
102
RTVSPost2010Prop42
 90
       50
102
RTVSPost2010PropOp42
 70
     1
102
RTVSPost2010Prop43
 90
        3
102
RTVSPost2010PropOp43
 70
     1
102
RTVSPost2010Prop44ColorIndex
 90
        5
102
RTVSPost2010Prop44ColorRGB
 90
      255
102
RTVSPost2010PropOp44
 70
     1
102
RTVSPost2010Prop45
280
     0
102
RTVSPost2010PropOp45
 70
     1
102
RTVSPost2010Prop46
 90
       50
102
RTVSPost2010PropOp46
 70
     1
102
RTVSPost2010Prop47
 90
       50
102
RTVSPost2010PropOp47
 70
     1
102
RTVSPost2010Prop48
 90
       50
102
RTVSPost2010PropOp48
 70
     1
102
RTVSPost2010Prop49
280
     0
102
RTVSPost2010PropOp49
 70
     1
102
RTVSPost2010Prop50
 90
       50
102
RTVSPost2010PropOp50
 70
     1
102
RTVSPost2010Prop51ColorIndex
 90
      256
102
RTVSPost2010Prop51ColorRGB
 90
-16777216
102
RTVSPost2010PropOp51
 70
     0
102
RTVSPost2010Prop52
140
1.0
102
RTVSPost2010PropOp52
 70
     0
102
RTVSPost2010Prop53
 90
        2
102
RTVSPost2010PropOp53
 70
     1
102
RTVSPost2010Prop54
  1
strokes_ogs.tif
102
RTVSPost2010PropOp54
 70
     1
102
RTVSPost2010Prop55
280
     0
102
RTVSPost2010PropOp55
 70
     1
102
RTVSPost2010Prop56
140
1.0
102
RTVSPost2010PropOp56
 70
     1
102
RTVSPost2010Prop57
140
1.0
102
RTVSPost2010PropOp57
 70
     1
102
RTVSPropertyOp0
 70
     1
102
RTVSPropertyOp1
 70
     1
102
RTVSPropertyOp2
 70
     1
102
RTVSPropertyOp3
 70
     1
102
RTVSPropertyOp4
 70
     1
102
RTVSPropertyOp5
 70
     1
102
RTVSPropertyOp6
 70
     1
102
RTVSPropertyOp7
 70
     1
102
RTVSPropertyOp8
 70
     1
102
RTVSPropertyOp9
 70
     1
102
RTVSPropertyOp10
 70
     1
102
RTVSPropertyOp11
 70
     1
102
RTVSPropertyOp12
 70
     1
102
RTVSPropertyOp13
 70
     1
102
RTVSPropertyOp14
 70
     1
102
RTVSPropertyOp15
 70
     1
102
RTVSPropertyOp16
 70
     1
102
RTVSPropertyOp17
 70
     1
102
RTVSPropertyOp18
 70
     1
102
RTVSPropertyOp19
 70
     1
102
RTVSPropertyOp20
 70
     1
102
RTVSPropertyOp21
 70
     1
102
RTVSPropertyOp22
 70
     1
102
RTVSPropertyOp23
 70
     1
102
RTVSPropertyOp24
 70
     1
102
RTVSPropertyOp25
 70
     1
102
RTVSPropertyOp26
 70
     1
102
RTVSPropertyOp27
 70
     1
102
RTVSPropertyOp28
 70
     1
102
RTVSPropertyOp29
 70
     1
102
RTVSPropertyOp30
 70
     1
102
RTVSPropertyOp31
 70
     1
102
RTVSPropertyOp32
 70
     1
102
RTVSPropertyOp33
 70
     1
102
RTVSPropertyOp34
 70
     1
102
RTVSPropertyOp35
 70
     1
102
RTVSPropertyOp36
 70
     1
102
RTVSPropertyOp37
 70
     1
102
RTVSPropertyOp38
 70
     1
102
RTVSPropertyOp39
 70
     1
102
RTVSPropertyOp40
 70
     1
102
RTVSPropertyOp41
 70
     1
102
RTVSPropertyOp42
 70
     1
102
RTVSPropertyOp43
 70
     1
102
RTVSPropertyOp44
 70
     1
102
RTVSPropertyOp45
 70
     1
102
RTVSPropertyOp46
 70
     1
102
RTVSPropertyOp47
 70
     1
102
RTVSPropertyOp48
 70
     1
102
RTVSPropertyOp49
 70
     1
102
RTVSPropertyOp50
 70
     1
102
RTVSPropertyOp51
 70
     0
102
RTVSPropertyOp52
 70
     0
102
RTVSPropertyOp53
 70
     1
102
RTVSPropertyOp54
 70
     1
102
RTVSPropertyOp55
 70
     1
102
RTVSPropertyOp56
 70
     1
102
RTVSPropertyOp57
 70
     1
102
RTVSPropertyOp58
 70
     1
102
RTVSPropertyOp59
 70
     1
102
RTVSPropertyOp60
 70
     1
102
RTVSPropertyOp61
 70
     1
102
RTVSPropertyOp62
 70
     1
  0
XRECORD
  5
98AE
102
{ACAD_REACTORS
330
98AD
102
}
330
98AD
100
AcDbXrecord
280
     1
102
RTVSPost2010Prop28
280
     0
102
RTVSPost2010PropOp28
 70
     1
102
RTVSPost2010Prop29
280
     1
102
RTVSPost2010PropOp29
 70
     1
102
RTVSPost2010Prop30
280
     1
102
RTVSPost2010PropOp30
 70
     1
102
RTVSPost2010Prop31
280
     0
102
RTVSPost2010PropOp31
 70
     1
102
RTVSPost2010Prop32
280
     0
102
RTVSPost2010PropOp32
 70
     1
102
RTVSPost2010Prop33
280
     0
102
RTVSPost2010PropOp33
 70
     1
102
RTVSPost2010Prop34
280
     0
102
RTVSPost2010PropOp34
 70
     1
102
RTVSPost2010Prop35
280
     0
102
RTVSPost2010PropOp35
 70
     1
102
RTVSPost2010Prop36
280
     0
102
RTVSPost2010PropOp36
 70
     1
102
RTVSPost2010Prop37
 90
       50
102
RTVSPost2010PropOp37
 70
     0
102
RTVSPost2010Prop38
140
0.0
102
RTVSPost2010PropOp38
 70
     0
102
RTVSPost2010Prop39
140
1.0
102
RTVSPost2010PropOp39
 70
     0
102
RTVSPost2010Prop40
 90
        0
102
RTVSPost2010PropOp40
 70
     0
102
RTVSPost2010Prop41ColorIndex
 90
       18
102
RTVSPost2010Prop41ColorRGB
 90
        0
102
RTVSPost2010PropOp41
 70
     0
102
RTVSPost2010Prop42
 90
       50
102
RTVSPost2010PropOp42
 70
     0
102
RTVSPost2010Prop43
 90
        3
102
RTVSPost2010PropOp43
 70
     0
102
RTVSPost2010Prop44ColorIndex
 90
        5
102
RTVSPost2010Prop44ColorRGB
 90
      255
102
RTVSPost2010PropOp44
 70
     0
102
RTVSPost2010Prop45
280
     0
102
RTVSPost2010PropOp45
 70
     1
102
RTVSPost2010Prop46
 90
       50
102
RTVSPost2010PropOp46
 70
     0
102
RTVSPost2010Prop47
 90
       50
102
RTVSPost2010PropOp47
 70
     0
102
RTVSPost2010Prop48
 90
       50
102
RTVSPost2010PropOp48
 70
     0
102
RTVSPost2010Prop49
280
     0
102
RTVSPost2010PropOp49
 70
     1
102
RTVSPost2010Prop50
 90
       50
102
RTVSPost2010PropOp50
 70
     0
102
RTVSPost2010Prop51ColorIndex
 90
      256
102
RTVSPost2010Prop51ColorRGB
 90
-16777216
102
RTVSPost2010PropOp51
 70
     0
102
RTVSPost2010Prop52
140
1.0
102
RTVSPost2010PropOp52
 70
     0
102
RTVSPost2010Prop53
 90
        2
102
RTVSPost2010PropOp53
 70
     0
102
RTVSPost2010Prop54
  1
strokes_ogs.tif
102
RTVSPost2010PropOp54
 70
     0
102
RTVSPost2010Prop55
280
     0
102
RTVSPost2010PropOp55
 70
     1
102
RTVSPost2010Prop56
140
1.0
102
RTVSPost2010PropOp56
 70
     0
102
RTVSPost2010Prop57
140
1.0
102
RTVSPost2010PropOp57
 70
     0
102
RTVSPropertyOp0
 70
     0
102
RTVSPropertyOp1
 70
     0
102
RTVSPropertyOp2
 70
     0
102
RTVSPropertyOp3
 70
     0
102
RTVSPropertyOp4
 70
     0
102
RTVSPropertyOp5
 70
     0
102
RTVSPropertyOp6
 70
     0
102
RTVSPropertyOp7
 70
     0
102
RTVSPropertyOp8
 70
     0
102
RTVSPropertyOp9
 70
     0
102
RTVSPropertyOp10
 70
     0
102
RTVSPropertyOp11
 70
     0
102
RTVSPropertyOp12
 70
     0
102
RTVSPropertyOp13
 70
     0
102
RTVSPropertyOp14
 70
     2
102
RTVSPropertyOp15
 70
     0
102
RTVSPropertyOp16
 70
     0
102
RTVSPropertyOp17
 70
     0
102
RTVSPropertyOp18
 70
     0
102
RTVSPropertyOp19
 70
     0
102
RTVSPropertyOp20
 70
     0
102
RTVSPropertyOp21
 70
     0
102
RTVSPropertyOp22
 70
     0
102
RTVSPropertyOp23
 70
     0
102
RTVSPropertyOp24
 70
     0
102
RTVSPropertyOp25
 70
     0
102
RTVSPropertyOp26
 70
     0
102
RTVSPropertyOp27
 70
     0
102
RTVSPropertyOp28
 70
     1
102
RTVSPropertyOp29
 70
     1
102
RTVSPropertyOp30
 70
     1
102
RTVSPropertyOp31
 70
     1
102
RTVSPropertyOp32
 70
     1
102
RTVSPropertyOp33
 70
     1
102
RTVSPropertyOp34
 70
     1
102
RTVSPropertyOp35
 70
     1
102
RTVSPropertyOp36
 70
     1
102
RTVSPropertyOp37
 70
     0
102
RTVSPropertyOp38
 70
     0
102
RTVSPropertyOp39
 70
     0
102
RTVSPropertyOp40
 70
     0
102
RTVSPropertyOp41
 70
     0
102
RTVSPropertyOp42
 70
     0
102
RTVSPropertyOp43
 70
     0
102
RTVSPropertyOp44
 70
     0
102
RTVSPropertyOp45
 70
     1
102
RTVSPropertyOp46
 70
     0
102
RTVSPropertyOp47
 70
     0
102
RTVSPropertyOp48
 70
     0
102
RTVSPropertyOp49
 70
     1
102
RTVSPropertyOp50
 70
     0
102
RTVSPropertyOp51
 70
     0
102
RTVSPropertyOp52
 70
     0
102
RTVSPropertyOp53
 70
     0
102
RTVSPropertyOp54
 70
     0
102
RTVSPropertyOp55
 70
     1
102
RTVSPropertyOp56
 70
     0
102
RTVSPropertyOp57
 70
     0
102
RTVSPropertyOp58
 70
     0
102
RTVSPropertyOp59
 70
     0
102
RTVSPropertyOp60
 70
     0
102
RTVSPropertyOp61
 70
     0
102
RTVSPropertyOp62
 70
     0
  0
XRECORD
  5
989E
102
{ACAD_REACTORS
330
989D
102
}
330
989D
100
AcDbXrecord
280
     1
102
RTVSPost2010Prop28
280
     0
102
RTVSPost2010PropOp28
 70
     1
102
RTVSPost2010Prop29
280
     1
102
RTVSPost2010PropOp29
 70
     1
102
RTVSPost2010Prop30
280
     1
102
RTVSPost2010PropOp30
 70
     1
102
RTVSPost2010Prop31
280
     0
102
RTVSPost2010PropOp31
 70
     1
102
RTVSPost2010Prop32
280
     0
102
RTVSPost2010PropOp32
 70
     1
102
RTVSPost2010Prop33
280
     0
102
RTVSPost2010PropOp33
 70
     1
102
RTVSPost2010Prop34
280
     0
102
RTVSPost2010PropOp34
 70
     1
102
RTVSPost2010Prop35
280
     0
102
RTVSPost2010PropOp35
 70
     1
102
RTVSPost2010Prop36
280
     0
102
RTVSPost2010PropOp36
 70
     1
102
RTVSPost2010Prop37
 90
       50
102
RTVSPost2010PropOp37
 70
     1
102
RTVSPost2010Prop38
140
0.0
102
RTVSPost2010PropOp38
 70
     1
102
RTVSPost2010Prop39
140
1.0
102
RTVSPost2010PropOp39
 70
     1
102
RTVSPost2010Prop40
 90
        0
102
RTVSPost2010PropOp40
 70
     1
102
RTVSPost2010Prop41ColorIndex
 90
       18
102
RTVSPost2010Prop41ColorRGB
 90
        0
102
RTVSPost2010PropOp41
 70
     1
102
RTVSPost2010Prop42
 90
       50
102
RTVSPost2010PropOp42
 70
     1
102
RTVSPost2010Prop43
 90
        3
102
RTVSPost2010PropOp43
 70
     1
102
RTVSPost2010Prop44ColorIndex
 90
        5
102
RTVSPost2010Prop44ColorRGB
 90
      255
102
RTVSPost2010PropOp44
 70
     1
102
RTVSPost2010Prop45
280
     0
102
RTVSPost2010PropOp45
 70
     1
102
RTVSPost2010Prop46
 90
       50
102
RTVSPost2010PropOp46
 70
     1
102
RTVSPost2010Prop47
 90
       50
102
RTVSPost2010PropOp47
 70
     1
102
RTVSPost2010Prop48
 90
       50
102
RTVSPost2010PropOp48
 70
     1
102
RTVSPost2010Prop49
280
     0
102
RTVSPost2010PropOp49
 70
     1
102
RTVSPost2010Prop50
 90
       50
102
RTVSPost2010PropOp50
 70
     1
102
RTVSPost2010Prop51ColorIndex
 90
      256
102
RTVSPost2010Prop51ColorRGB
 90
-16777216
102
RTVSPost2010PropOp51
 70
     0
102
RTVSPost2010Prop52
140
1.0
102
RTVSPost2010PropOp52
 70
     0
102
RTVSPost2010Prop53
 90
        2
102
RTVSPost2010PropOp53
 70
     1
102
RTVSPost2010Prop54
  1
strokes_ogs.tif
102
RTVSPost2010PropOp54
 70
     1
102
RTVSPost2010Prop55
280
     0
102
RTVSPost2010PropOp55
 70
     1
102
RTVSPost2010Prop56
140
1.0
102
RTVSPost2010PropOp56
 70
     1
102
RTVSPost2010Prop57
140
1.0
102
RTVSPost2010PropOp57
 70
     1
102
RTVSPropertyOp0
 70
     1
102
RTVSPropertyOp1
 70
     1
102
RTVSPropertyOp2
 70
     1
102
RTVSPropertyOp3
 70
     1
102
RTVSPropertyOp4
 70
     1
102
RTVSPropertyOp5
 70
     1
102
RTVSPropertyOp6
 70
     1
102
RTVSPropertyOp7
 70
     1
102
RTVSPropertyOp8
 70
     1
102
RTVSPropertyOp9
 70
     1
102
RTVSPropertyOp10
 70
     1
102
RTVSPropertyOp11
 70
     1
102
RTVSPropertyOp12
 70
     1
102
RTVSPropertyOp13
 70
     1
102
RTVSPropertyOp14
 70
     1
102
RTVSPropertyOp15
 70
     1
102
RTVSPropertyOp16
 70
     1
102
RTVSPropertyOp17
 70
     1
102
RTVSPropertyOp18
 70
     1
102
RTVSPropertyOp19
 70
     1
102
RTVSPropertyOp20
 70
     1
102
RTVSPropertyOp21
 70
     1
102
RTVSPropertyOp22
 70
     1
102
RTVSPropertyOp23
 70
     1
102
RTVSPropertyOp24
 70
     1
102
RTVSPropertyOp25
 70
     1
102
RTVSPropertyOp26
 70
     1
102
RTVSPropertyOp27
 70
     1
102
RTVSPropertyOp28
 70
     1
102
RTVSPropertyOp29
 70
     1
102
RTVSPropertyOp30
 70
     1
102
RTVSPropertyOp31
 70
     1
102
RTVSPropertyOp32
 70
     1
102
RTVSPropertyOp33
 70
     1
102
RTVSPropertyOp34
 70
     1
102
RTVSPropertyOp35
 70
     1
102
RTVSPropertyOp36
 70
     1
102
RTVSPropertyOp37
 70
     1
102
RTVSPropertyOp38
 70
     1
102
RTVSPropertyOp39
 70
     1
102
RTVSPropertyOp40
 70
     1
102
RTVSPropertyOp41
 70
     1
102
RTVSPropertyOp42
 70
     1
102
RTVSPropertyOp43
 70
     1
102
RTVSPropertyOp44
 70
     1
102
RTVSPropertyOp45
 70
     1
102
RTVSPropertyOp46
 70
     1
102
RTVSPropertyOp47
 70
     1
102
RTVSPropertyOp48
 70
     1
102
RTVSPropertyOp49
 70
     1
102
RTVSPropertyOp50
 70
     1
102
RTVSPropertyOp51
 70
     0
102
RTVSPropertyOp52
 70
     0
102
RTVSPropertyOp53
 70
     1
102
RTVSPropertyOp54
 70
     1
102
RTVSPropertyOp55
 70
     1
102
RTVSPropertyOp56
 70
     1
102
RTVSPropertyOp57
 70
     1
102
RTVSPropertyOp58
 70
     1
102
RTVSPropertyOp59
 70
     1
102
RTVSPropertyOp60
 70
     1
102
RTVSPropertyOp61
 70
     1
102
RTVSPropertyOp62
 70
     1
  0
XRECORD
  5
98B0
102
{ACAD_REACTORS
330
98AF
102
}
330
98AF
100
AcDbXrecord
280
     1
102
RTVSPost2010Prop28
280
     0
102
RTVSPost2010PropOp28
 70
     1
102
RTVSPost2010Prop29
280
     1
102
RTVSPost2010PropOp29
 70
     1
102
RTVSPost2010Prop30
280
     1
102
RTVSPost2010PropOp30
 70
     1
102
RTVSPost2010Prop31
280
     0
102
RTVSPost2010PropOp31
 70
     1
102
RTVSPost2010Prop32
280
     0
102
RTVSPost2010PropOp32
 70
     1
102
RTVSPost2010Prop33
280
     0
102
RTVSPost2010PropOp33
 70
     1
102
RTVSPost2010Prop34
280
     0
102
RTVSPost2010PropOp34
 70
     1
102
RTVSPost2010Prop35
280
     0
102
RTVSPost2010PropOp35
 70
     1
102
RTVSPost2010Prop36
280
     0
102
RTVSPost2010PropOp36
 70
     1
102
RTVSPost2010Prop37
 90
       50
102
RTVSPost2010PropOp37
 70
     0
102
RTVSPost2010Prop38
140
0.0
102
RTVSPost2010PropOp38
 70
     0
102
RTVSPost2010Prop39
140
1.0
102
RTVSPost2010PropOp39
 70
     0
102
RTVSPost2010Prop40
 90
        0
102
RTVSPost2010PropOp40
 70
     0
102
RTVSPost2010Prop41ColorIndex
 90
       18
102
RTVSPost2010Prop41ColorRGB
 90
        0
102
RTVSPost2010PropOp41
 70
     0
102
RTVSPost2010Prop42
 90
       50
102
RTVSPost2010PropOp42
 70
     0
102
RTVSPost2010Prop43
 90
        3
102
RTVSPost2010PropOp43
 70
     0
102
RTVSPost2010Prop44ColorIndex
 90
        5
102
RTVSPost2010Prop44ColorRGB
 90
      255
102
RTVSPost2010PropOp44
 70
     0
102
RTVSPost2010Prop45
280
     0
102
RTVSPost2010PropOp45
 70
     1
102
RTVSPost2010Prop46
 90
       50
102
RTVSPost2010PropOp46
 70
     0
102
RTVSPost2010Prop47
 90
       50
102
RTVSPost2010PropOp47
 70
     0
102
RTVSPost2010Prop48
 90
       50
102
RTVSPost2010PropOp48
 70
     0
102
RTVSPost2010Prop49
280
     0
102
RTVSPost2010PropOp49
 70
     1
102
RTVSPost2010Prop50
 90
       50
102
RTVSPost2010PropOp50
 70
     0
102
RTVSPost2010Prop51ColorIndex
 90
      256
102
RTVSPost2010Prop51ColorRGB
 90
-16777216
102
RTVSPost2010PropOp51
 70
     0
102
RTVSPost2010Prop52
140
1.0
102
RTVSPost2010PropOp52
 70
     0
102
RTVSPost2010Prop53
 90
        2
102
RTVSPost2010PropOp53
 70
     0
102
RTVSPost2010Prop54
  1
strokes_ogs.tif
102
RTVSPost2010PropOp54
 70
     0
102
RTVSPost2010Prop55
280
     0
102
RTVSPost2010PropOp55
 70
     1
102
RTVSPost2010Prop56
140
1.0
102
RTVSPost2010PropOp56
 70
     0
102
RTVSPost2010Prop57
140
1.0
102
RTVSPost2010PropOp57
 70
     0
102
RTVSPropertyOp0
 70
     0
102
RTVSPropertyOp1
 70
     0
102
RTVSPropertyOp2
 70
     0
102
RTVSPropertyOp3
 70
     0
102
RTVSPropertyOp4
 70
     0
102
RTVSPropertyOp5
 70
     0
102
RTVSPropertyOp6
 70
     0
102
RTVSPropertyOp7
 70
     0
102
RTVSPropertyOp8
 70
     0
102
RTVSPropertyOp9
 70
     0
102
RTVSPropertyOp10
 70
     0
102
RTVSPropertyOp11
 70
     0
102
RTVSPropertyOp12
 70
     0
102
RTVSPropertyOp13
 70
     0
102
RTVSPropertyOp14
 70
     2
102
RTVSPropertyOp15
 70
     0
102
RTVSPropertyOp16
 70
     0
102
RTVSPropertyOp17
 70
     0
102
RTVSPropertyOp18
 70
     0
102
RTVSPropertyOp19
 70
     0
102
RTVSPropertyOp20
 70
     0
102
RTVSPropertyOp21
 70
     0
102
RTVSPropertyOp22
 70
     0
102
RTVSPropertyOp23
 70
     0
102
RTVSPropertyOp24
 70
     0
102
RTVSPropertyOp25
 70
     0
102
RTVSPropertyOp26
 70
     0
102
RTVSPropertyOp27
 70
     0
102
RTVSPropertyOp28
 70
     1
102
RTVSPropertyOp29
 70
     1
102
RTVSPropertyOp30
 70
     1
102
RTVSPropertyOp31
 70
     1
102
RTVSPropertyOp32
 70
     1
102
RTVSPropertyOp33
 70
     1
102
RTVSPropertyOp34
 70
     1
102
RTVSPropertyOp35
 70
     1
102
RTVSPropertyOp36
 70
     1
102
RTVSPropertyOp37
 70
     0
102
RTVSPropertyOp38
 70
     0
102
RTVSPropertyOp39
 70
     0
102
RTVSPropertyOp40
 70
     0
102
RTVSPropertyOp41
 70
     0
102
RTVSPropertyOp42
 70
     0
102
RTVSPropertyOp43
 70
     0
102
RTVSPropertyOp44
 70
     0
102
RTVSPropertyOp45
 70
     1
102
RTVSPropertyOp46
 70
     0
102
RTVSPropertyOp47
 70
     0
102
RTVSPropertyOp48
 70
     0
102
RTVSPropertyOp49
 70
     1
102
RTVSPropertyOp50
 70
     0
102
RTVSPropertyOp51
 70
     0
102
RTVSPropertyOp52
 70
     0
102
RTVSPropertyOp53
 70
     0
102
RTVSPropertyOp54
 70
     0
102
RTVSPropertyOp55
 70
     1
102
RTVSPropertyOp56
 70
     0
102
RTVSPropertyOp57
 70
     0
102
RTVSPropertyOp58
 70
     0
102
RTVSPropertyOp59
 70
     0
102
RTVSPropertyOp60
 70
     0
102
RTVSPropertyOp61
 70
     0
102
RTVSPropertyOp62
 70
     0
  0
XRECORD
  5
9896
102
{ACAD_REACTORS
330
9895
102
}
330
9895
100
AcDbXrecord
280
     1
102
RTVSPost2010Prop28
280
     0
102
RTVSPost2010PropOp28
 70
     1
102
RTVSPost2010Prop29
280
     1
102
RTVSPost2010PropOp29
 70
     1
102
RTVSPost2010Prop30
280
     1
102
RTVSPost2010PropOp30
 70
     1
102
RTVSPost2010Prop31
280
     0
102
RTVSPost2010PropOp31
 70
     1
102
RTVSPost2010Prop32
280
     0
102
RTVSPost2010PropOp32
 70
     1
102
RTVSPost2010Prop33
280
     0
102
RTVSPost2010PropOp33
 70
     1
102
RTVSPost2010Prop34
280
     0
102
RTVSPost2010PropOp34
 70
     1
102
RTVSPost2010Prop35
280
     0
102
RTVSPost2010PropOp35
 70
     1
102
RTVSPost2010Prop36
280
     0
102
RTVSPost2010PropOp36
 70
     1
102
RTVSPost2010Prop37
 90
       50
102
RTVSPost2010PropOp37
 70
     1
102
RTVSPost2010Prop38
140
0.0
102
RTVSPost2010PropOp38
 70
     1
102
RTVSPost2010Prop39
140
1.0
102
RTVSPost2010PropOp39
 70
     1
102
RTVSPost2010Prop40
 90
        0
102
RTVSPost2010PropOp40
 70
     1
102
RTVSPost2010Prop41ColorIndex
 90
       18
102
RTVSPost2010Prop41ColorRGB
 90
        0
102
RTVSPost2010PropOp41
 70
     1
102
RTVSPost2010Prop42
 90
       50
102
RTVSPost2010PropOp42
 70
     1
102
RTVSPost2010Prop43
 90
        3
102
RTVSPost2010PropOp43
 70
     1
102
RTVSPost2010Prop44ColorIndex
 90
        5
102
RTVSPost2010Prop44ColorRGB
 90
      255
102
RTVSPost2010PropOp44
 70
     1
102
RTVSPost2010Prop45
280
     0
102
RTVSPost2010PropOp45
 70
     1
102
RTVSPost2010Prop46
 90
       50
102
RTVSPost2010PropOp46
 70
     1
102
RTVSPost2010Prop47
 90
       50
102
RTVSPost2010PropOp47
 70
     1
102
RTVSPost2010Prop48
 90
       50
102
RTVSPost2010PropOp48
 70
     1
102
RTVSPost2010Prop49
280
     0
102
RTVSPost2010PropOp49
 70
     1
102
RTVSPost2010Prop50
 90
       50
102
RTVSPost2010PropOp50
 70
     1
102
RTVSPost2010Prop51ColorIndex
 90
      256
102
RTVSPost2010Prop51ColorRGB
 90
-16777216
102
RTVSPost2010PropOp51
 70
     0
102
RTVSPost2010Prop52
140
1.0
102
RTVSPost2010PropOp52
 70
     0
102
RTVSPost2010Prop53
 90
        2
102
RTVSPost2010PropOp53
 70
     1
102
RTVSPost2010Prop54
  1
strokes_ogs.tif
102
RTVSPost2010PropOp54
 70
     1
102
RTVSPost2010Prop55
280
     0
102
RTVSPost2010PropOp55
 70
     1
102
RTVSPost2010Prop56
140
1.0
102
RTVSPost2010PropOp56
 70
     1
102
RTVSPost2010Prop57
140
1.0
102
RTVSPost2010PropOp57
 70
     1
102
RTVSPropertyOp0
 70
     1
102
RTVSPropertyOp1
 70
     1
102
RTVSPropertyOp2
 70
     1
102
RTVSPropertyOp3
 70
     1
102
RTVSPropertyOp4
 70
     1
102
RTVSPropertyOp5
 70
     1
102
RTVSPropertyOp6
 70
     1
102
RTVSPropertyOp7
 70
     1
102
RTVSPropertyOp8
 70
     1
102
RTVSPropertyOp9
 70
     1
102
RTVSPropertyOp10
 70
     1
102
RTVSPropertyOp11
 70
     1
102
RTVSPropertyOp12
 70
     1
102
RTVSPropertyOp13
 70
     1
102
RTVSPropertyOp14
 70
     1
102
RTVSPropertyOp15
 70
     1
102
RTVSPropertyOp16
 70
     1
102
RTVSPropertyOp17
 70
     1
102
RTVSPropertyOp18
 70
     1
102
RTVSPropertyOp19
 70
     1
102
RTVSPropertyOp20
 70
     1
102
RTVSPropertyOp21
 70
     1
102
RTVSPropertyOp22
 70
     1
102
RTVSPropertyOp23
 70
     1
102
RTVSPropertyOp24
 70
     1
102
RTVSPropertyOp25
 70
     1
102
RTVSPropertyOp26
 70
     1
102
RTVSPropertyOp27
 70
     1
102
RTVSPropertyOp28
 70
     1
102
RTVSPropertyOp29
 70
     1
102
RTVSPropertyOp30
 70
     1
102
RTVSPropertyOp31
 70
     1
102
RTVSPropertyOp32
 70
     1
102
RTVSPropertyOp33
 70
     1
102
RTVSPropertyOp34
 70
     1
102
RTVSPropertyOp35
 70
     1
102
RTVSPropertyOp36
 70
     1
102
RTVSPropertyOp37
 70
     1
102
RTVSPropertyOp38
 70
     1
102
RTVSPropertyOp39
 70
     1
102
RTVSPropertyOp40
 70
     1
102
RTVSPropertyOp41
 70
     1
102
RTVSPropertyOp42
 70
     1
102
RTVSPropertyOp43
 70
     1
102
RTVSPropertyOp44
 70
     1
102
RTVSPropertyOp45
 70
     1
102
RTVSPropertyOp46
 70
     1
102
RTVSPropertyOp47
 70
     1
102
RTVSPropertyOp48
 70
     1
102
RTVSPropertyOp49
 70
     1
102
RTVSPropertyOp50
 70
     1
102
RTVSPropertyOp51
 70
     0
102
RTVSPropertyOp52
 70
     0
102
RTVSPropertyOp53
 70
     1
102
RTVSPropertyOp54
 70
     1
102
RTVSPropertyOp55
 70
     1
102
RTVSPropertyOp56
 70
     1
102
RTVSPropertyOp57
 70
     1
102
RTVSPropertyOp58
 70
     1
102
RTVSPropertyOp59
 70
     1
102
RTVSPropertyOp60
 70
     1
102
RTVSPropertyOp61
 70
     1
102
RTVSPropertyOp62
 70
     1
  0
XRECORD
  5
98AC
102
{ACAD_REACTORS
330
98AB
102
}
330
98AB
100
AcDbXrecord
280
     1
102
RTVSPost2010Prop28
280
     0
102
RTVSPost2010PropOp28
 70
     1
102
RTVSPost2010Prop29
280
     1
102
RTVSPost2010PropOp29
 70
     1
102
RTVSPost2010Prop30
280
     1
102
RTVSPost2010PropOp30
 70
     1
102
RTVSPost2010Prop31
280
     0
102
RTVSPost2010PropOp31
 70
     1
102
RTVSPost2010Prop32
280
     0
102
RTVSPost2010PropOp32
 70
     1
102
RTVSPost2010Prop33
280
     0
102
RTVSPost2010PropOp33
 70
     1
102
RTVSPost2010Prop34
280
     0
102
RTVSPost2010PropOp34
 70
     1
102
RTVSPost2010Prop35
280
     0
102
RTVSPost2010PropOp35
 70
     1
102
RTVSPost2010Prop36
280
     0
102
RTVSPost2010PropOp36
 70
     1
102
RTVSPost2010Prop37
 90
       50
102
RTVSPost2010PropOp37
 70
     1
102
RTVSPost2010Prop38
140
0.0
102
RTVSPost2010PropOp38
 70
     1
102
RTVSPost2010Prop39
140
1.0
102
RTVSPost2010PropOp39
 70
     1
102
RTVSPost2010Prop40
 90
        0
102
RTVSPost2010PropOp40
 70
     1
102
RTVSPost2010Prop41ColorIndex
 90
       18
102
RTVSPost2010Prop41ColorRGB
 90
        0
102
RTVSPost2010PropOp41
 70
     1
102
RTVSPost2010Prop42
 90
       50
102
RTVSPost2010PropOp42
 70
     1
102
RTVSPost2010Prop43
 90
        3
102
RTVSPost2010PropOp43
 70
     1
102
RTVSPost2010Prop44ColorIndex
 90
        5
102
RTVSPost2010Prop44ColorRGB
 90
      255
102
RTVSPost2010PropOp44
 70
     1
102
RTVSPost2010Prop45
280
     0
102
RTVSPost2010PropOp45
 70
     1
102
RTVSPost2010Prop46
 90
       50
102
RTVSPost2010PropOp46
 70
     1
102
RTVSPost2010Prop47
 90
       50
102
RTVSPost2010PropOp47
 70
     1
102
RTVSPost2010Prop48
 90
       50
102
RTVSPost2010PropOp48
 70
     1
102
RTVSPost2010Prop49
280
     0
102
RTVSPost2010PropOp49
 70
     1
102
RTVSPost2010Prop50
 90
       50
102
RTVSPost2010PropOp50
 70
     1
102
RTVSPost2010Prop51ColorIndex
 90
      256
102
RTVSPost2010Prop51ColorRGB
 90
-16777216
102
RTVSPost2010PropOp51
 70
     0
102
RTVSPost2010Prop52
140
1.0
102
RTVSPost2010PropOp52
 70
     0
102
RTVSPost2010Prop53
 90
        2
102
RTVSPost2010PropOp53
 70
     1
102
RTVSPost2010Prop54
  1
strokes_ogs.tif
102
RTVSPost2010PropOp54
 70
     1
102
RTVSPost2010Prop55
280
     0
102
RTVSPost2010PropOp55
 70
     1
102
RTVSPost2010Prop56
140
1.0
102
RTVSPost2010PropOp56
 70
     1
102
RTVSPost2010Prop57
140
1.0
102
RTVSPost2010PropOp57
 70
     1
102
RTVSPropertyOp0
 70
     1
102
RTVSPropertyOp1
 70
     1
102
RTVSPropertyOp2
 70
     1
102
RTVSPropertyOp3
 70
     1
102
RTVSPropertyOp4
 70
     1
102
RTVSPropertyOp5
 70
     1
102
RTVSPropertyOp6
 70
     1
102
RTVSPropertyOp7
 70
     1
102
RTVSPropertyOp8
 70
     1
102
RTVSPropertyOp9
 70
     1
102
RTVSPropertyOp10
 70
     1
102
RTVSPropertyOp11
 70
     1
102
RTVSPropertyOp12
 70
     1
102
RTVSPropertyOp13
 70
     1
102
RTVSPropertyOp14
 70
     1
102
RTVSPropertyOp15
 70
     1
102
RTVSPropertyOp16
 70
     1
102
RTVSPropertyOp17
 70
     1
102
RTVSPropertyOp18
 70
     1
102
RTVSPropertyOp19
 70
     1
102
RTVSPropertyOp20
 70
     1
102
RTVSPropertyOp21
 70
     1
102
RTVSPropertyOp22
 70
     1
102
RTVSPropertyOp23
 70
     1
102
RTVSPropertyOp24
 70
     1
102
RTVSPropertyOp25
 70
     1
102
RTVSPropertyOp26
 70
     1
102
RTVSPropertyOp27
 70
     1
102
RTVSPropertyOp28
 70
     1
102
RTVSPropertyOp29
 70
     1
102
RTVSPropertyOp30
 70
     1
102
RTVSPropertyOp31
 70
     1
102
RTVSPropertyOp32
 70
     1
102
RTVSPropertyOp33
 70
     1
102
RTVSPropertyOp34
 70
     1
102
RTVSPropertyOp35
 70
     1
102
RTVSPropertyOp36
 70
     1
102
RTVSPropertyOp37
 70
     1
102
RTVSPropertyOp38
 70
     1
102
RTVSPropertyOp39
 70
     1
102
RTVSPropertyOp40
 70
     1
102
RTVSPropertyOp41
 70
     1
102
RTVSPropertyOp42
 70
     1
102
RTVSPropertyOp43
 70
     1
102
RTVSPropertyOp44
 70
     1
102
RTVSPropertyOp45
 70
     1
102
RTVSPropertyOp46
 70
     1
102
RTVSPropertyOp47
 70
     1
102
RTVSPropertyOp48
 70
     1
102
RTVSPropertyOp49
 70
     1
102
RTVSPropertyOp50
 70
     1
102
RTVSPropertyOp51
 70
     0
102
RTVSPropertyOp52
 70
     0
102
RTVSPropertyOp53
 70
     1
102
RTVSPropertyOp54
 70
     1
102
RTVSPropertyOp55
 70
     1
102
RTVSPropertyOp56
 70
     1
102
RTVSPropertyOp57
 70
     1
102
RTVSPropertyOp58
 70
     1
102
RTVSPropertyOp59
 70
     1
102
RTVSPropertyOp60
 70
     1
102
RTVSPropertyOp61
 70
     1
102
RTVSPropertyOp62
 70
     1
  0
XRECORD
  5
98AA
102
{ACAD_REACTORS
330
98A9
102
}
330
98A9
100
AcDbXrecord
280
     1
102
RTVSPost2010Prop28
280
     0
102
RTVSPost2010PropOp28
 70
     1
102
RTVSPost2010Prop29
280
     1
102
RTVSPost2010PropOp29
 70
     1
102
RTVSPost2010Prop30
280
     1
102
RTVSPost2010PropOp30
 70
     1
102
RTVSPost2010Prop31
280
     0
102
RTVSPost2010PropOp31
 70
     1
102
RTVSPost2010Prop32
280
     0
102
RTVSPost2010PropOp32
 70
     1
102
RTVSPost2010Prop33
280
     0
102
RTVSPost2010PropOp33
 70
     1
102
RTVSPost2010Prop34
280
     0
102
RTVSPost2010PropOp34
 70
     1
102
RTVSPost2010Prop35
280
     0
102
RTVSPost2010PropOp35
 70
     1
102
RTVSPost2010Prop36
280
     0
102
RTVSPost2010PropOp36
 70
     1
102
RTVSPost2010Prop37
 90
       50
102
RTVSPost2010PropOp37
 70
     1
102
RTVSPost2010Prop38
140
0.0
102
RTVSPost2010PropOp38
 70
     1
102
RTVSPost2010Prop39
140
1.0
102
RTVSPost2010PropOp39
 70
     1
102
RTVSPost2010Prop40
 90
        0
102
RTVSPost2010PropOp40
 70
     1
102
RTVSPost2010Prop41ColorIndex
 90
       18
102
RTVSPost2010Prop41ColorRGB
 90
        0
102
RTVSPost2010PropOp41
 70
     1
102
RTVSPost2010Prop42
 90
       50
102
RTVSPost2010PropOp42
 70
     1
102
RTVSPost2010Prop43
 90
        3
102
RTVSPost2010PropOp43
 70
     1
102
RTVSPost2010Prop44ColorIndex
 90
        5
102
RTVSPost2010Prop44ColorRGB
 90
      255
102
RTVSPost2010PropOp44
 70
     1
102
RTVSPost2010Prop45
280
     0
102
RTVSPost2010PropOp45
 70
     1
102
RTVSPost2010Prop46
 90
       50
102
RTVSPost2010PropOp46
 70
     1
102
RTVSPost2010Prop47
 90
       50
102
RTVSPost2010PropOp47
 70
     1
102
RTVSPost2010Prop48
 90
       50
102
RTVSPost2010PropOp48
 70
     1
102
RTVSPost2010Prop49
280
     0
102
RTVSPost2010PropOp49
 70
     1
102
RTVSPost2010Prop50
 90
       50
102
RTVSPost2010PropOp50
 70
     1
102
RTVSPost2010Prop51ColorIndex
 90
      256
102
RTVSPost2010Prop51ColorRGB
 90
-16777216
102
RTVSPost2010PropOp51
 70
     0
102
RTVSPost2010Prop52
140
1.0
102
RTVSPost2010PropOp52
 70
     0
102
RTVSPost2010Prop53
 90
        2
102
RTVSPost2010PropOp53
 70
     1
102
RTVSPost2010Prop54
  1
strokes_ogs.tif
102
RTVSPost2010PropOp54
 70
     1
102
RTVSPost2010Prop55
280
     0
102
RTVSPost2010PropOp55
 70
     1
102
RTVSPost2010Prop56
140
1.0
102
RTVSPost2010PropOp56
 70
     1
102
RTVSPost2010Prop57
140
1.0
102
RTVSPost2010PropOp57
 70
     1
102
RTVSPropertyOp0
 70
     1
102
RTVSPropertyOp1
 70
     1
102
RTVSPropertyOp2
 70
     1
102
RTVSPropertyOp3
 70
     1
102
RTVSPropertyOp4
 70
     1
102
RTVSPropertyOp5
 70
     1
102
RTVSPropertyOp6
 70
     1
102
RTVSPropertyOp7
 70
     1
102
RTVSPropertyOp8
 70
     1
102
RTVSPropertyOp9
 70
     1
102
RTVSPropertyOp10
 70
     1
102
RTVSPropertyOp11
 70
     1
102
RTVSPropertyOp12
 70
     1
102
RTVSPropertyOp13
 70
     1
102
RTVSPropertyOp14
 70
     1
102
RTVSPropertyOp15
 70
     1
102
RTVSPropertyOp16
 70
     1
102
RTVSPropertyOp17
 70
     1
102
RTVSPropertyOp18
 70
     1
102
RTVSPropertyOp19
 70
     1
102
RTVSPropertyOp20
 70
     1
102
RTVSPropertyOp21
 70
     1
102
RTVSPropertyOp22
 70
     1
102
RTVSPropertyOp23
 70
     1
102
RTVSPropertyOp24
 70
     1
102
RTVSPropertyOp25
 70
     1
102
RTVSPropertyOp26
 70
     1
102
RTVSPropertyOp27
 70
     1
102
RTVSPropertyOp28
 70
     1
102
RTVSPropertyOp29
 70
     1
102
RTVSPropertyOp30
 70
     1
102
RTVSPropertyOp31
 70
     1
102
RTVSPropertyOp32
 70
     1
102
RTVSPropertyOp33
 70
     1
102
RTVSPropertyOp34
 70
     1
102
RTVSPropertyOp35
 70
     1
102
RTVSPropertyOp36
 70
     1
102
RTVSPropertyOp37
 70
     1
102
RTVSPropertyOp38
 70
     1
102
RTVSPropertyOp39
 70
     1
102
RTVSPropertyOp40
 70
     1
102
RTVSPropertyOp41
 70
     1
102
RTVSPropertyOp42
 70
     1
102
RTVSPropertyOp43
 70
     1
102
RTVSPropertyOp44
 70
     1
102
RTVSPropertyOp45
 70
     1
102
RTVSPropertyOp46
 70
     1
102
RTVSPropertyOp47
 70
     1
102
RTVSPropertyOp48
 70
     1
102
RTVSPropertyOp49
 70
     1
102
RTVSPropertyOp50
 70
     1
102
RTVSPropertyOp51
 70
     0
102
RTVSPropertyOp52
 70
     0
102
RTVSPropertyOp53
 70
     1
102
RTVSPropertyOp54
 70
     1
102
RTVSPropertyOp55
 70
     1
102
RTVSPropertyOp56
 70
     1
102
RTVSPropertyOp57
 70
     1
102
RTVSPropertyOp58
 70
     1
102
RTVSPropertyOp59
 70
     1
102
RTVSPropertyOp60
 70
     1
102
RTVSPropertyOp61
 70
     1
102
RTVSPropertyOp62
 70
     1
  0
XRECORD
  5
98A4
102
{ACAD_REACTORS
330
98A3
102
}
330
98A3
100
AcDbXrecord
280
     1
102
RTVSPost2010Prop28
280
     0
102
RTVSPost2010PropOp28
 70
     1
102
RTVSPost2010Prop29
280
     1
102
RTVSPost2010PropOp29
 70
     1
102
RTVSPost2010Prop30
280
     1
102
RTVSPost2010PropOp30
 70
     1
102
RTVSPost2010Prop31
280
     0
102
RTVSPost2010PropOp31
 70
     1
102
RTVSPost2010Prop32
280
     0
102
RTVSPost2010PropOp32
 70
     1
102
RTVSPost2010Prop33
280
     0
102
RTVSPost2010PropOp33
 70
     1
102
RTVSPost2010Prop34
280
     0
102
RTVSPost2010PropOp34
 70
     1
102
RTVSPost2010Prop35
280
     0
102
RTVSPost2010PropOp35
 70
     1
102
RTVSPost2010Prop36
280
     0
102
RTVSPost2010PropOp36
 70
     1
102
RTVSPost2010Prop37
 90
       50
102
RTVSPost2010PropOp37
 70
     1
102
RTVSPost2010Prop38
140
0.0
102
RTVSPost2010PropOp38
 70
     1
102
RTVSPost2010Prop39
140
1.0
102
RTVSPost2010PropOp39
 70
     1
102
RTVSPost2010Prop40
 90
        0
102
RTVSPost2010PropOp40
 70
     1
102
RTVSPost2010Prop41ColorIndex
 90
       18
102
RTVSPost2010Prop41ColorRGB
 90
        0
102
RTVSPost2010PropOp41
 70
     1
102
RTVSPost2010Prop42
 90
       50
102
RTVSPost2010PropOp42
 70
     1
102
RTVSPost2010Prop43
 90
        3
102
RTVSPost2010PropOp43
 70
     1
102
RTVSPost2010Prop44ColorIndex
 90
        5
102
RTVSPost2010Prop44ColorRGB
 90
      255
102
RTVSPost2010PropOp44
 70
     1
102
RTVSPost2010Prop45
280
     0
102
RTVSPost2010PropOp45
 70
     1
102
RTVSPost2010Prop46
 90
       50
102
RTVSPost2010PropOp46
 70
     1
102
RTVSPost2010Prop47
 90
       50
102
RTVSPost2010PropOp47
 70
     1
102
RTVSPost2010Prop48
 90
       50
102
RTVSPost2010PropOp48
 70
     1
102
RTVSPost2010Prop49
280
     0
102
RTVSPost2010PropOp49
 70
     1
102
RTVSPost2010Prop50
 90
       50
102
RTVSPost2010PropOp50
 70
     1
102
RTVSPost2010Prop51ColorIndex
 90
      256
102
RTVSPost2010Prop51ColorRGB
 90
-16777216
102
RTVSPost2010PropOp51
 70
     0
102
RTVSPost2010Prop52
140
1.0
102
RTVSPost2010PropOp52
 70
     0
102
RTVSPost2010Prop53
 90
        2
102
RTVSPost2010PropOp53
 70
     1
102
RTVSPost2010Prop54
  1
strokes_ogs.tif
102
RTVSPost2010PropOp54
 70
     1
102
RTVSPost2010Prop55
280
     0
102
RTVSPost2010PropOp55
 70
     1
102
RTVSPost2010Prop56
140
1.0
102
RTVSPost2010PropOp56
 70
     1
102
RTVSPost2010Prop57
140
1.0
102
RTVSPost2010PropOp57
 70
     1
102
RTVSPropertyOp0
 70
     1
102
RTVSPropertyOp1
 70
     1
102
RTVSPropertyOp2
 70
     1
102
RTVSPropertyOp3
 70
     1
102
RTVSPropertyOp4
 70
     1
102
RTVSPropertyOp5
 70
     1
102
RTVSPropertyOp6
 70
     1
102
RTVSPropertyOp7
 70
     1
102
RTVSPropertyOp8
 70
     1
102
RTVSPropertyOp9
 70
     1
102
RTVSPropertyOp10
 70
     1
102
RTVSPropertyOp11
 70
     1
102
RTVSPropertyOp12
 70
     1
102
RTVSPropertyOp13
 70
     1
102
RTVSPropertyOp14
 70
     1
102
RTVSPropertyOp15
 70
     1
102
RTVSPropertyOp16
 70
     1
102
RTVSPropertyOp17
 70
     1
102
RTVSPropertyOp18
 70
     1
102
RTVSPropertyOp19
 70
     1
102
RTVSPropertyOp20
 70
     1
102
RTVSPropertyOp21
 70
     1
102
RTVSPropertyOp22
 70
     1
102
RTVSPropertyOp23
 70
     1
102
RTVSPropertyOp24
 70
     1
102
RTVSPropertyOp25
 70
     1
102
RTVSPropertyOp26
 70
     1
102
RTVSPropertyOp27
 70
     1
102
RTVSPropertyOp28
 70
     1
102
RTVSPropertyOp29
 70
     1
102
RTVSPropertyOp30
 70
     1
102
RTVSPropertyOp31
 70
     1
102
RTVSPropertyOp32
 70
     1
102
RTVSPropertyOp33
 70
     1
102
RTVSPropertyOp34
 70
     1
102
RTVSPropertyOp35
 70
     1
102
RTVSPropertyOp36
 70
     1
102
RTVSPropertyOp37
 70
     1
102
RTVSPropertyOp38
 70
     1
102
RTVSPropertyOp39
 70
     1
102
RTVSPropertyOp40
 70
     1
102
RTVSPropertyOp41
 70
     1
102
RTVSPropertyOp42
 70
     1
102
RTVSPropertyOp43
 70
     1
102
RTVSPropertyOp44
 70
     1
102
RTVSPropertyOp45
 70
     1
102
RTVSPropertyOp46
 70
     1
102
RTVSPropertyOp47
 70
     1
102
RTVSPropertyOp48
 70
     1
102
RTVSPropertyOp49
 70
     1
102
RTVSPropertyOp50
 70
     1
102
RTVSPropertyOp51
 70
     0
102
RTVSPropertyOp52
 70
     0
102
RTVSPropertyOp53
 70
     1
102
RTVSPropertyOp54
 70
     1
102
RTVSPropertyOp55
 70
     1
102
RTVSPropertyOp56
 70
     1
102
RTVSPropertyOp57
 70
     1
102
RTVSPropertyOp58
 70
     1
102
RTVSPropertyOp59
 70
     1
102
RTVSPropertyOp60
 70
     1
102
RTVSPropertyOp61
 70
     1
102
RTVSPropertyOp62
 70
     1
  0
XRECORD
  5
98A6
102
{ACAD_REACTORS
330
98A5
102
}
330
98A5
100
AcDbXrecord
280
     1
102
RTVSPost2010Prop28
280
     0
102
RTVSPost2010PropOp28
 70
     1
102
RTVSPost2010Prop29
280
     1
102
RTVSPost2010PropOp29
 70
     1
102
RTVSPost2010Prop30
280
     1
102
RTVSPost2010PropOp30
 70
     1
102
RTVSPost2010Prop31
280
     0
102
RTVSPost2010PropOp31
 70
     1
102
RTVSPost2010Prop32
280
     0
102
RTVSPost2010PropOp32
 70
     1
102
RTVSPost2010Prop33
280
     0
102
RTVSPost2010PropOp33
 70
     1
102
RTVSPost2010Prop34
280
     0
102
RTVSPost2010PropOp34
 70
     1
102
RTVSPost2010Prop35
280
     0
102
RTVSPost2010PropOp35
 70
     1
102
RTVSPost2010Prop36
280
     0
102
RTVSPost2010PropOp36
 70
     1
102
RTVSPost2010Prop37
 90
       50
102
RTVSPost2010PropOp37
 70
     1
102
RTVSPost2010Prop38
140
0.0
102
RTVSPost2010PropOp38
 70
     1
102
RTVSPost2010Prop39
140
1.0
102
RTVSPost2010PropOp39
 70
     1
102
RTVSPost2010Prop40
 90
        0
102
RTVSPost2010PropOp40
 70
     1
102
RTVSPost2010Prop41ColorIndex
 90
       18
102
RTVSPost2010Prop41ColorRGB
 90
        0
102
RTVSPost2010PropOp41
 70
     1
102
RTVSPost2010Prop42
 90
       50
102
RTVSPost2010PropOp42
 70
     1
102
RTVSPost2010Prop43
 90
        3
102
RTVSPost2010PropOp43
 70
     1
102
RTVSPost2010Prop44ColorIndex
 90
        5
102
RTVSPost2010Prop44ColorRGB
 90
      255
102
RTVSPost2010PropOp44
 70
     1
102
RTVSPost2010Prop45
280
     0
102
RTVSPost2010PropOp45
 70
     1
102
RTVSPost2010Prop46
 90
       50
102
RTVSPost2010PropOp46
 70
     1
102
RTVSPost2010Prop47
 90
       50
102
RTVSPost2010PropOp47
 70
     1
102
RTVSPost2010Prop48
 90
       50
102
RTVSPost2010PropOp48
 70
     1
102
RTVSPost2010Prop49
280
     0
102
RTVSPost2010PropOp49
 70
     1
102
RTVSPost2010Prop50
 90
       50
102
RTVSPost2010PropOp50
 70
     1
102
RTVSPost2010Prop51ColorIndex
 90
      256
102
RTVSPost2010Prop51ColorRGB
 90
-16777216
102
RTVSPost2010PropOp51
 70
     0
102
RTVSPost2010Prop52
140
1.0
102
RTVSPost2010PropOp52
 70
     0
102
RTVSPost2010Prop53
 90
        2
102
RTVSPost2010PropOp53
 70
     1
102
RTVSPost2010Prop54
  1
strokes_ogs.tif
102
RTVSPost2010PropOp54
 70
     1
102
RTVSPost2010Prop55
280
     0
102
RTVSPost2010PropOp55
 70
     1
102
RTVSPost2010Prop56
140
1.0
102
RTVSPost2010PropOp56
 70
     1
102
RTVSPost2010Prop57
140
1.0
102
RTVSPost2010PropOp57
 70
     1
102
RTVSPropertyOp0
 70
     1
102
RTVSPropertyOp1
 70
     1
102
RTVSPropertyOp2
 70
     1
102
RTVSPropertyOp3
 70
     1
102
RTVSPropertyOp4
 70
     1
102
RTVSPropertyOp5
 70
     1
102
RTVSPropertyOp6
 70
     1
102
RTVSPropertyOp7
 70
     1
102
RTVSPropertyOp8
 70
     1
102
RTVSPropertyOp9
 70
     1
102
RTVSPropertyOp10
 70
     1
102
RTVSPropertyOp11
 70
     1
102
RTVSPropertyOp12
 70
     1
102
RTVSPropertyOp13
 70
     1
102
RTVSPropertyOp14
 70
     1
102
RTVSPropertyOp15
 70
     1
102
RTVSPropertyOp16
 70
     1
102
RTVSPropertyOp17
 70
     1
102
RTVSPropertyOp18
 70
     1
102
RTVSPropertyOp19
 70
     1
102
RTVSPropertyOp20
 70
     1
102
RTVSPropertyOp21
 70
     1
102
RTVSPropertyOp22
 70
     1
102
RTVSPropertyOp23
 70
     1
102
RTVSPropertyOp24
 70
     1
102
RTVSPropertyOp25
 70
     1
102
RTVSPropertyOp26
 70
     1
102
RTVSPropertyOp27
 70
     1
102
RTVSPropertyOp28
 70
     1
102
RTVSPropertyOp29
 70
     1
102
RTVSPropertyOp30
 70
     1
102
RTVSPropertyOp31
 70
     1
102
RTVSPropertyOp32
 70
     1
102
RTVSPropertyOp33
 70
     1
102
RTVSPropertyOp34
 70
     1
102
RTVSPropertyOp35
 70
     1
102
RTVSPropertyOp36
 70
     1
102
RTVSPropertyOp37
 70
     1
102
RTVSPropertyOp38
 70
     1
102
RTVSPropertyOp39
 70
     1
102
RTVSPropertyOp40
 70
     1
102
RTVSPropertyOp41
 70
     1
102
RTVSPropertyOp42
 70
     1
102
RTVSPropertyOp43
 70
     1
102
RTVSPropertyOp44
 70
     1
102
RTVSPropertyOp45
 70
     1
102
RTVSPropertyOp46
 70
     1
102
RTVSPropertyOp47
 70
     1
102
RTVSPropertyOp48
 70
     1
102
RTVSPropertyOp49
 70
     1
102
RTVSPropertyOp50
 70
     1
102
RTVSPropertyOp51
 70
     0
102
RTVSPropertyOp52
 70
     0
102
RTVSPropertyOp53
 70
     1
102
RTVSPropertyOp54
 70
     1
102
RTVSPropertyOp55
 70
     1
102
RTVSPropertyOp56
 70
     1
102
RTVSPropertyOp57
 70
     1
102
RTVSPropertyOp58
 70
     1
102
RTVSPropertyOp59
 70
     1
102
RTVSPropertyOp60
 70
     1
102
RTVSPropertyOp61
 70
     1
102
RTVSPropertyOp62
 70
     1
  0
XRECORD
  5
989C
102
{ACAD_REACTORS
330
989B
102
}
330
989B
100
AcDbXrecord
280
     1
102
RTVSPost2010Prop28
280
     0
102
RTVSPost2010PropOp28
 70
     1
102
RTVSPost2010Prop29
280
     1
102
RTVSPost2010PropOp29
 70
     1
102
RTVSPost2010Prop30
280
     1
102
RTVSPost2010PropOp30
 70
     1
102
RTVSPost2010Prop31
280
     0
102
RTVSPost2010PropOp31
 70
     1
102
RTVSPost2010Prop32
280
     0
102
RTVSPost2010PropOp32
 70
     1
102
RTVSPost2010Prop33
280
     0
102
RTVSPost2010PropOp33
 70
     1
102
RTVSPost2010Prop34
280
     0
102
RTVSPost2010PropOp34
 70
     1
102
RTVSPost2010Prop35
280
     0
102
RTVSPost2010PropOp35
 70
     1
102
RTVSPost2010Prop36
280
     0
102
RTVSPost2010PropOp36
 70
     1
102
RTVSPost2010Prop37
 90
       50
102
RTVSPost2010PropOp37
 70
     1
102
RTVSPost2010Prop38
140
0.0
102
RTVSPost2010PropOp38
 70
     1
102
RTVSPost2010Prop39
140
1.0
102
RTVSPost2010PropOp39
 70
     1
102
RTVSPost2010Prop40
 90
        0
102
RTVSPost2010PropOp40
 70
     1
102
RTVSPost2010Prop41ColorIndex
 90
       18
102
RTVSPost2010Prop41ColorRGB
 90
        0
102
RTVSPost2010PropOp41
 70
     1
102
RTVSPost2010Prop42
 90
       50
102
RTVSPost2010PropOp42
 70
     1
102
RTVSPost2010Prop43
 90
        3
102
RTVSPost2010PropOp43
 70
     1
102
RTVSPost2010Prop44ColorIndex
 90
        5
102
RTVSPost2010Prop44ColorRGB
 90
      255
102
RTVSPost2010PropOp44
 70
     1
102
RTVSPost2010Prop45
280
     0
102
RTVSPost2010PropOp45
 70
     1
102
RTVSPost2010Prop46
 90
       50
102
RTVSPost2010PropOp46
 70
     1
102
RTVSPost2010Prop47
 90
       50
102
RTVSPost2010PropOp47
 70
     1
102
RTVSPost2010Prop48
 90
       50
102
RTVSPost2010PropOp48
 70
     1
102
RTVSPost2010Prop49
280
     0
102
RTVSPost2010PropOp49
 70
     1
102
RTVSPost2010Prop50
 90
       50
102
RTVSPost2010PropOp50
 70
     1
102
RTVSPost2010Prop51ColorIndex
 90
      256
102
RTVSPost2010Prop51ColorRGB
 90
-16777216
102
RTVSPost2010PropOp51
 70
     0
102
RTVSPost2010Prop52
140
1.0
102
RTVSPost2010PropOp52
 70
     0
102
RTVSPost2010Prop53
 90
        2
102
RTVSPost2010PropOp53
 70
     1
102
RTVSPost2010Prop54
  1
strokes_ogs.tif
102
RTVSPost2010PropOp54
 70
     1
102
RTVSPost2010Prop55
280
     0
102
RTVSPost2010PropOp55
 70
     1
102
RTVSPost2010Prop56
140
1.0
102
RTVSPost2010PropOp56
 70
     1
102
RTVSPost2010Prop57
140
1.0
102
RTVSPost2010PropOp57
 70
     1
102
RTVSPropertyOp0
 70
     1
102
RTVSPropertyOp1
 70
     1
102
RTVSPropertyOp2
 70
     1
102
RTVSPropertyOp3
 70
     1
102
RTVSPropertyOp4
 70
     1
102
RTVSPropertyOp5
 70
     1
102
RTVSPropertyOp6
 70
     1
102
RTVSPropertyOp7
 70
     1
102
RTVSPropertyOp8
 70
     1
102
RTVSPropertyOp9
 70
     1
102
RTVSPropertyOp10
 70
     1
102
RTVSPropertyOp11
 70
     1
102
RTVSPropertyOp12
 70
     1
102
RTVSPropertyOp13
 70
     1
102
RTVSPropertyOp14
 70
     1
102
RTVSPropertyOp15
 70
     1
102
RTVSPropertyOp16
 70
     1
102
RTVSPropertyOp17
 70
     1
102
RTVSPropertyOp18
 70
     1
102
RTVSPropertyOp19
 70
     1
102
RTVSPropertyOp20
 70
     1
102
RTVSPropertyOp21
 70
     1
102
RTVSPropertyOp22
 70
     1
102
RTVSPropertyOp23
 70
     1
102
RTVSPropertyOp24
 70
     1
102
RTVSPropertyOp25
 70
     1
102
RTVSPropertyOp26
 70
     1
102
RTVSPropertyOp27
 70
     1
102
RTVSPropertyOp28
 70
     1
102
RTVSPropertyOp29
 70
     1
102
RTVSPropertyOp30
 70
     1
102
RTVSPropertyOp31
 70
     1
102
RTVSPropertyOp32
 70
     1
102
RTVSPropertyOp33
 70
     1
102
RTVSPropertyOp34
 70
     1
102
RTVSPropertyOp35
 70
     1
102
RTVSPropertyOp36
 70
     1
102
RTVSPropertyOp37
 70
     1
102
RTVSPropertyOp38
 70
     1
102
RTVSPropertyOp39
 70
     1
102
RTVSPropertyOp40
 70
     1
102
RTVSPropertyOp41
 70
     1
102
RTVSPropertyOp42
 70
     1
102
RTVSPropertyOp43
 70
     1
102
RTVSPropertyOp44
 70
     1
102
RTVSPropertyOp45
 70
     1
102
RTVSPropertyOp46
 70
     1
102
RTVSPropertyOp47
 70
     1
102
RTVSPropertyOp48
 70
     1
102
RTVSPropertyOp49
 70
     1
102
RTVSPropertyOp50
 70
     1
102
RTVSPropertyOp51
 70
     0
102
RTVSPropertyOp52
 70
     0
102
RTVSPropertyOp53
 70
     1
102
RTVSPropertyOp54
 70
     1
102
RTVSPropertyOp55
 70
     1
102
RTVSPropertyOp56
 70
     1
102
RTVSPropertyOp57
 70
     1
102
RTVSPropertyOp58
 70
     1
102
RTVSPropertyOp59
 70
     1
102
RTVSPropertyOp60
 70
     1
102
RTVSPropertyOp61
 70
     1
102
RTVSPropertyOp62
 70
     1
  0
XRECORD
  5
9890
102
{ACAD_REACTORS
330
988F
102
}
330
988F
100
AcDbXrecord
280
     1
102
RTVSPost2010Prop28
280
     0
102
RTVSPost2010PropOp28
 70
     1
102
RTVSPost2010Prop29
280
     1
102
RTVSPost2010PropOp29
 70
     1
102
RTVSPost2010Prop30
280
     1
102
RTVSPost2010PropOp30
 70
     1
102
RTVSPost2010Prop31
280
     0
102
RTVSPost2010PropOp31
 70
     1
102
RTVSPost2010Prop32
280
     0
102
RTVSPost2010PropOp32
 70
     1
102
RTVSPost2010Prop33
280
     0
102
RTVSPost2010PropOp33
 70
     1
102
RTVSPost2010Prop34
280
     0
102
RTVSPost2010PropOp34
 70
     1
102
RTVSPost2010Prop35
280
     0
102
RTVSPost2010PropOp35
 70
     1
102
RTVSPost2010Prop36
280
     0
102
RTVSPost2010PropOp36
 70
     1
102
RTVSPost2010Prop37
 90
       50
102
RTVSPost2010PropOp37
 70
     1
102
RTVSPost2010Prop38
140
0.0
102
RTVSPost2010PropOp38
 70
     1
102
RTVSPost2010Prop39
140
1.0
102
RTVSPost2010PropOp39
 70
     1
102
RTVSPost2010Prop40
 90
        0
102
RTVSPost2010PropOp40
 70
     1
102
RTVSPost2010Prop41ColorIndex
 90
       18
102
RTVSPost2010Prop41ColorRGB
 90
        0
102
RTVSPost2010PropOp41
 70
     1
102
RTVSPost2010Prop42
 90
       50
102
RTVSPost2010PropOp42
 70
     1
102
RTVSPost2010Prop43
 90
        3
102
RTVSPost2010PropOp43
 70
     1
102
RTVSPost2010Prop44ColorIndex
 90
        5
102
RTVSPost2010Prop44ColorRGB
 90
      255
102
RTVSPost2010PropOp44
 70
     1
102
RTVSPost2010Prop45
280
     0
102
RTVSPost2010PropOp45
 70
     1
102
RTVSPost2010Prop46
 90
       50
102
RTVSPost2010PropOp46
 70
     1
102
RTVSPost2010Prop47
 90
       50
102
RTVSPost2010PropOp47
 70
     1
102
RTVSPost2010Prop48
 90
       50
102
RTVSPost2010PropOp48
 70
     1
102
RTVSPost2010Prop49
280
     0
102
RTVSPost2010PropOp49
 70
     1
102
RTVSPost2010Prop50
 90
       50
102
RTVSPost2010PropOp50
 70
     1
102
RTVSPost2010Prop51ColorIndex
 90
      256
102
RTVSPost2010Prop51ColorRGB
 90
-16777216
102
RTVSPost2010PropOp51
 70
     0
102
RTVSPost2010Prop52
140
1.0
102
RTVSPost2010PropOp52
 70
     0
102
RTVSPost2010Prop53
 90
        2
102
RTVSPost2010PropOp53
 70
     1
102
RTVSPost2010Prop54
  1
strokes_ogs.tif
102
RTVSPost2010PropOp54
 70
     1
102
RTVSPost2010Prop55
280
     0
102
RTVSPost2010PropOp55
 70
     1
102
RTVSPost2010Prop56
140
1.0
102
RTVSPost2010PropOp56
 70
     1
102
RTVSPost2010Prop57
140
1.0
102
RTVSPost2010PropOp57
 70
     1
102
RTVSPropertyOp0
 70
     1
102
RTVSPropertyOp1
 70
     1
102
RTVSPropertyOp2
 70
     1
102
RTVSPropertyOp3
 70
     1
102
RTVSPropertyOp4
 70
     1
102
RTVSPropertyOp5
 70
     1
102
RTVSPropertyOp6
 70
     1
102
RTVSPropertyOp7
 70
     1
102
RTVSPropertyOp8
 70
     1
102
RTVSPropertyOp9
 70
     1
102
RTVSPropertyOp10
 70
     1
102
RTVSPropertyOp11
 70
     1
102
RTVSPropertyOp12
 70
     1
102
RTVSPropertyOp13
 70
     1
102
RTVSPropertyOp14
 70
     1
102
RTVSPropertyOp15
 70
     1
102
RTVSPropertyOp16
 70
     1
102
RTVSPropertyOp17
 70
     1
102
RTVSPropertyOp18
 70
     1
102
RTVSPropertyOp19
 70
     1
102
RTVSPropertyOp20
 70
     1
102
RTVSPropertyOp21
 70
     1
102
RTVSPropertyOp22
 70
     1
102
RTVSPropertyOp23
 70
     1
102
RTVSPropertyOp24
 70
     1
102
RTVSPropertyOp25
 70
     1
102
RTVSPropertyOp26
 70
     1
102
RTVSPropertyOp27
 70
     1
102
RTVSPropertyOp28
 70
     1
102
RTVSPropertyOp29
 70
     1
102
RTVSPropertyOp30
 70
     1
102
RTVSPropertyOp31
 70
     1
102
RTVSPropertyOp32
 70
     1
102
RTVSPropertyOp33
 70
     1
102
RTVSPropertyOp34
 70
     1
102
RTVSPropertyOp35
 70
     1
102
RTVSPropertyOp36
 70
     1
102
RTVSPropertyOp37
 70
     1
102
RTVSPropertyOp38
 70
     1
102
RTVSPropertyOp39
 70
     1
102
RTVSPropertyOp40
 70
     1
102
RTVSPropertyOp41
 70
     1
102
RTVSPropertyOp42
 70
     1
102
RTVSPropertyOp43
 70
     1
102
RTVSPropertyOp44
 70
     1
102
RTVSPropertyOp45
 70
     1
102
RTVSPropertyOp46
 70
     1
102
RTVSPropertyOp47
 70
     1
102
RTVSPropertyOp48
 70
     1
102
RTVSPropertyOp49
 70
     1
102
RTVSPropertyOp50
 70
     1
102
RTVSPropertyOp51
 70
     0
102
RTVSPropertyOp52
 70
     0
102
RTVSPropertyOp53
 70
     1
102
RTVSPropertyOp54
 70
     1
102
RTVSPropertyOp55
 70
     1
102
RTVSPropertyOp56
 70
     1
102
RTVSPropertyOp57
 70
     1
102
RTVSPropertyOp58
 70
     1
102
RTVSPropertyOp59
 70
     1
102
RTVSPropertyOp60
 70
     1
102
RTVSPropertyOp61
 70
     1
102
RTVSPropertyOp62
 70
     1
  0
XRECORD
  5
98A8
102
{ACAD_REACTORS
330
98A7
102
}
330
98A7
100
AcDbXrecord
280
     1
102
RTVSPost2010Prop28
280
     0
102
RTVSPost2010PropOp28
 70
     1
102
RTVSPost2010Prop29
280
     1
102
RTVSPost2010PropOp29
 70
     1
102
RTVSPost2010Prop30
280
     1
102
RTVSPost2010PropOp30
 70
     1
102
RTVSPost2010Prop31
280
     0
102
RTVSPost2010PropOp31
 70
     1
102
RTVSPost2010Prop32
280
     0
102
RTVSPost2010PropOp32
 70
     1
102
RTVSPost2010Prop33
280
     0
102
RTVSPost2010PropOp33
 70
     1
102
RTVSPost2010Prop34
280
     0
102
RTVSPost2010PropOp34
 70
     1
102
RTVSPost2010Prop35
280
     0
102
RTVSPost2010PropOp35
 70
     1
102
RTVSPost2010Prop36
280
     0
102
RTVSPost2010PropOp36
 70
     1
102
RTVSPost2010Prop37
 90
       50
102
RTVSPost2010PropOp37
 70
     1
102
RTVSPost2010Prop38
140
0.0
102
RTVSPost2010PropOp38
 70
     1
102
RTVSPost2010Prop39
140
1.0
102
RTVSPost2010PropOp39
 70
     1
102
RTVSPost2010Prop40
 90
        0
102
RTVSPost2010PropOp40
 70
     1
102
RTVSPost2010Prop41ColorIndex
 90
       18
102
RTVSPost2010Prop41ColorRGB
 90
        0
102
RTVSPost2010PropOp41
 70
     1
102
RTVSPost2010Prop42
 90
       50
102
RTVSPost2010PropOp42
 70
     1
102
RTVSPost2010Prop43
 90
        3
102
RTVSPost2010PropOp43
 70
     1
102
RTVSPost2010Prop44ColorIndex
 90
        5
102
RTVSPost2010Prop44ColorRGB
 90
      255
102
RTVSPost2010PropOp44
 70
     1
102
RTVSPost2010Prop45
280
     0
102
RTVSPost2010PropOp45
 70
     1
102
RTVSPost2010Prop46
 90
       50
102
RTVSPost2010PropOp46
 70
     1
102
RTVSPost2010Prop47
 90
       50
102
RTVSPost2010PropOp47
 70
     1
102
RTVSPost2010Prop48
 90
       50
102
RTVSPost2010PropOp48
 70
     1
102
RTVSPost2010Prop49
280
     0
102
RTVSPost2010PropOp49
 70
     1
102
RTVSPost2010Prop50
 90
       50
102
RTVSPost2010PropOp50
 70
     1
102
RTVSPost2010Prop51ColorIndex
 90
      256
102
RTVSPost2010Prop51ColorRGB
 90
-16777216
102
RTVSPost2010PropOp51
 70
     0
102
RTVSPost2010Prop52
140
1.0
102
RTVSPost2010PropOp52
 70
     0
102
RTVSPost2010Prop53
 90
        2
102
RTVSPost2010PropOp53
 70
     1
102
RTVSPost2010Prop54
  1
strokes_ogs.tif
102
RTVSPost2010PropOp54
 70
     1
102
RTVSPost2010Prop55
280
     0
102
RTVSPost2010PropOp55
 70
     1
102
RTVSPost2010Prop56
140
1.0
102
RTVSPost2010PropOp56
 70
     1
102
RTVSPost2010Prop57
140
1.0
102
RTVSPost2010PropOp57
 70
     1
102
RTVSPropertyOp0
 70
     1
102
RTVSPropertyOp1
 70
     1
102
RTVSPropertyOp2
 70
     1
102
RTVSPropertyOp3
 70
     1
102
RTVSPropertyOp4
 70
     1
102
RTVSPropertyOp5
 70
     1
102
RTVSPropertyOp6
 70
     1
102
RTVSPropertyOp7
 70
     1
102
RTVSPropertyOp8
 70
     1
102
RTVSPropertyOp9
 70
     1
102
RTVSPropertyOp10
 70
     1
102
RTVSPropertyOp11
 70
     1
102
RTVSPropertyOp12
 70
     1
102
RTVSPropertyOp13
 70
     1
102
RTVSPropertyOp14
 70
     1
102
RTVSPropertyOp15
 70
     1
102
RTVSPropertyOp16
 70
     1
102
RTVSPropertyOp17
 70
     1
102
RTVSPropertyOp18
 70
     1
102
RTVSPropertyOp19
 70
     1
102
RTVSPropertyOp20
 70
     1
102
RTVSPropertyOp21
 70
     1
102
RTVSPropertyOp22
 70
     1
102
RTVSPropertyOp23
 70
     1
102
RTVSPropertyOp24
 70
     1
102
RTVSPropertyOp25
 70
     1
102
RTVSPropertyOp26
 70
     1
102
RTVSPropertyOp27
 70
     1
102
RTVSPropertyOp28
 70
     1
102
RTVSPropertyOp29
 70
     1
102
RTVSPropertyOp30
 70
     1
102
RTVSPropertyOp31
 70
     1
102
RTVSPropertyOp32
 70
     1
102
RTVSPropertyOp33
 70
     1
102
RTVSPropertyOp34
 70
     1
102
RTVSPropertyOp35
 70
     1
102
RTVSPropertyOp36
 70
     1
102
RTVSPropertyOp37
 70
     1
102
RTVSPropertyOp38
 70
     1
102
RTVSPropertyOp39
 70
     1
102
RTVSPropertyOp40
 70
     1
102
RTVSPropertyOp41
 70
     1
102
RTVSPropertyOp42
 70
     1
102
RTVSPropertyOp43
 70
     1
102
RTVSPropertyOp44
 70
     1
102
RTVSPropertyOp45
 70
     1
102
RTVSPropertyOp46
 70
     1
102
RTVSPropertyOp47
 70
     1
102
RTVSPropertyOp48
 70
     1
102
RTVSPropertyOp49
 70
     1
102
RTVSPropertyOp50
 70
     1
102
RTVSPropertyOp51
 70
     0
102
RTVSPropertyOp52
 70
     0
102
RTVSPropertyOp53
 70
     1
102
RTVSPropertyOp54
 70
     1
102
RTVSPropertyOp55
 70
     1
102
RTVSPropertyOp56
 70
     1
102
RTVSPropertyOp57
 70
     1
102
RTVSPropertyOp58
 70
     1
102
RTVSPropertyOp59
 70
     1
102
RTVSPropertyOp60
 70
     1
102
RTVSPropertyOp61
 70
     1
102
RTVSPropertyOp62
 70
     1
  0
ENDSEC
  0
EOF
