  0
SECTION
  2
HEADER
  9
$ACADVER
  1
AC1015
  9
$ACADMAINTVER
 70
    20
  9
$DWGCODEPAGE
  3
ANSI_932
  9
$INSBASE
 10
0.0
 20
0.0
 30
0.0
  9
$EXTMIN
 10
10.0000015376083
 20
9.999999806846743
 30
0.0
  9
$EXTMAX
 10
363.0643185376083
 20
264.7068908068466
 30
0.0
  9
$LIMMIN
 10
0.0000015376083204
 20
-0.0000001931532552
  9
$LIMMAX
 10
426.0000015376081
 20
293.6818179886647
  9
$ORTHOMODE
 70
     1
  9
$REGENMODE
 70
     1
  9
$FILLMODE
 70
     1
  9
$QTEXTMODE
 70
     0
  9
$MIRRTEXT
 70
     1
  9
$LTSCALE
 40
1.0
  9
$ATTMODE
 70
     1
  9
$TEXTSIZE
 40
2.5
  9
$TRACEWID
 40
1.0
  9
$TEXTSTYLE
  7
STANDARD
  9
$CLAYER
  8
0
  9
$CELTYPE
  6
BYLAYER
  9
$CECOLOR
 62
   256
  9
$CELTSCALE
 40
1.0
  9
$DISPSILH
 70
     0
  9
$DIMSCALE
 40
1.0
  9
$DIMASZ
 40
3.0
  9
$DIMEXO
 40
1.0
  9
$DIMDLI
 40
10.0
  9
$DIMRND
 40
0.0
  9
$DIMDLE
 40
0.0
  9
$DIMEXE
 40
1.0
  9
$DIMTP
 40
0.0
  9
$DIMTM
 40
0.0
  9
$DIMTXT
 40
3.2
  9
$DIMCEN
 40
0.0
  9
$DIMTSZ
 40
0.0
  9
$DIMTOL
 70
     0
  9
$DIMLIM
 70
     0
  9
$DIMTIH
 70
     0
  9
$DIMTOH
 70
     0
  9
$DIMSE1
 70
     0
  9
$DIMSE2
 70
     0
  9
$DIMTAD
 70
     3
  9
$DIMZIN
 70
     8
  9
$DIMBLK
  1

  9
$DIMASO
 70
     1
  9
$DIMSHO
 70
     1
  9
$DIMPOST
  1

  9
$DIMAPOST
  1

  9
$DIMALT
 70
     0
  9
$DIMALTD
 70
     2
  9
$DIMALTF
 40
25.4
  9
$DIMLFAC
 40
1.0
  9
$DIMTOFL
 70
     1
  9
$DIMTVP
 40
0.0
  9
$DIMTIX
 70
     0
  9
$DIMSOXD
 70
     0
  9
$DIMSAH
 70
     1
  9
$DIMBLK1
  1
OPEN
  9
$DIMBLK2
  1
OPEN
  9
$DIMSTYLE
  2
STANDARD
  9
$DIMCLRD
 70
     0
  9
$DIMCLRE
 70
     0
  9
$DIMCLRT
 70
     0
  9
$DIMTFAC
 40
1.0
  9
$DIMGAP
 40
1.0
  9
$DIMJUST
 70
     0
  9
$DIMSD1
 70
     0
  9
$DIMSD2
 70
     0
  9
$DIMTOLJ
 70
     1
  9
$DIMTZIN
 70
     0
  9
$DIMALTZ
 70
     0
  9
$DIMALTTZ
 70
     0
  9
$DIMUPT
 70
     0
  9
$DIMDEC
 70
     4
  9
$DIMTDEC
 70
     4
  9
$DIMALTU
 70
     2
  9
$DIMALTTD
 70
     2
  9
$DIMTXSTY
  7
STANDARD
  9
$DIMAUNIT
 70
     0
  9
$DIMADEC
 70
     0
  9
$DIMALTRND
 40
0.0
  9
$DIMAZIN
 70
     0
  9
$DIMDSEP
 70
    46
  9
$DIMATFIT
 70
     3
  9
$DIMFRAC
 70
     0
  9
$DIMLDRBLK
  1
OPEN
  9
$DIMLUNIT
 70
     2
  9
$DIMLWD
 70
    -2
  9
$DIMLWE
 70
    -2
  9
$DIMTMOVE
 70
     0
  9
$LUNITS
 70
     2
  9
$LUPREC
 70
     4
  9
$SKETCHINC
 40
1.0
  9
$FILLETRAD
 40
0.0
  9
$AUNITS
 70
     0
  9
$AUPREC
 70
     0
  9
$MENU
  1
.
  9
$ELEVATION
 40
0.0
  9
$PELEVATION
 40
0.0
  9
$THICKNESS
 40
0.0
  9
$LIMCHECK
 70
     0
  9
$CHAMFERA
 40
10.0
  9
$CHAMFERB
 40
10.0
  9
$CHAMFERC
 40
20.0
  9
$CHAMFERD
 40
0.0
  9
$SKPOLY
 70
     0
  9
$TDCREATE
 40
2454882.671383461
  9
$TDUCREATE
 40
2454882.296383461
  9
$TDUPDATE
 40
2457192.603033635
  9
$TDUUPDATE
 40
2457192.228033634
  9
$TDINDWG
 40
0.2034711343
  9
$TDUSRTIMER
 40
0.2034711227
  9
$USRTIMER
 70
     1
  9
$ANGBASE
 50
0.0
  9
$ANGDIR
 70
     0
  9
$PDMODE
 70
     0
  9
$PDSIZE
 40
0.0
  9
$PLINEWID
 40
0.0
  9
$SPLFRAME
 70
     0
  9
$SPLINETYPE
 70
     6
  9
$SPLINESEGS
 70
     8
  9
$HANDSEED
  5
14F9
  9
$SURFTAB1
 70
     6
  9
$SURFTAB2
 70
     6
  9
$SURFTYPE
 70
     6
  9
$SURFU
 70
     6
  9
$SURFV
 70
     6
  9
$UCSBASE
  2

  9
$UCSNAME
  2

  9
$UCSORG
 10
0.0
 20
0.0
 30
0.0
  9
$UCSXDIR
 10
1.0
 20
0.0
 30
0.0
  9
$UCSYDIR
 10
0.0
 20
1.0
 30
0.0
  9
$UCSORTHOREF
  2

  9
$UCSORTHOVIEW
 70
     0
  9
$UCSORGTOP
 10
0.0
 20
0.0
 30
0.0
  9
$UCSORGBOTTOM
 10
0.0
 20
0.0
 30
0.0
  9
$UCSORGLEFT
 10
0.0
 20
0.0
 30
0.0
  9
$UCSORGRIGHT
 10
0.0
 20
0.0
 30
0.0
  9
$UCSORGFRONT
 10
0.0
 20
0.0
 30
0.0
  9
$UCSORGBACK
 10
0.0
 20
0.0
 30
0.0
  9
$PUCSBASE
  2

  9
$PUCSNAME
  2

  9
$PUCSORG
 10
0.0
 20
0.0
 30
0.0
  9
$PUCSXDIR
 10
1.0
 20
0.0
 30
0.0
  9
$PUCSYDIR
 10
0.0
 20
1.0
 30
0.0
  9
$PUCSORTHOREF
  2

  9
$PUCSORTHOVIEW
 70
     0
  9
$PUCSORGTOP
 10
0.0
 20
0.0
 30
0.0
  9
$PUCSORGBOTTOM
 10
0.0
 20
0.0
 30
0.0
  9
$PUCSORGLEFT
 10
0.0
 20
0.0
 30
0.0
  9
$PUCSORGRIGHT
 10
0.0
 20
0.0
 30
0.0
  9
$PUCSORGFRONT
 10
0.0
 20
0.0
 30
0.0
  9
$PUCSORGBACK
 10
0.0
 20
0.0
 30
0.0
  9
$USERI1
 70
     0
  9
$USERI2
 70
     0
  9
$USERI3
 70
     0
  9
$USERI4
 70
     0
  9
$USERI5
 70
     0
  9
$USERR1
 40
0.0
  9
$USERR2
 40
0.0
  9
$USERR3
 40
0.0
  9
$USERR4
 40
0.0
  9
$USERR5
 40
0.0
  9
$WORLDVIEW
 70
     1
  9
$SHADEDGE
 70
     3
  9
$SHADEDIF
 70
    70
  9
$TILEMODE
 70
     1
  9
$MAXACTVP
 70
    48
  9
$PINSBASE
 10
0.0
 20
0.0
 30
0.0
  9
$PLIMCHECK
 70
     0
  9
$PEXTMIN
 10
1.000000000000000E+20
 20
1.000000000000000E+20
 30
1.000000000000000E+20
  9
$PEXTMAX
 10
-1.000000000000000E+20
 20
-1.000000000000000E+20
 30
-1.000000000000000E+20
  9
$PLIMMIN
 10
0.0
 20
0.0
  9
$PLIMMAX
 10
420.0
 20
297.0
  9
$UNITMODE
 70
     0
  9
$VISRETAIN
 70
     1
  9
$PLINEGEN
 70
     0
  9
$PSLTSCALE
 70
     1
  9
$TREEDEPTH
 70
  3020
  9
$CMLSTYLE
  2
STANDARD
  9
$CMLJUST
 70
     0
  9
$CMLSCALE
 40
20.0
  9
$PROXYGRAPHICS
 70
     1
  9
$MEASUREMENT
 70
     0
  9
$CELWEIGHT
370
    -1
  9
$ENDCAPS
280
     0
  9
$JOINSTYLE
280
     0
  9
$LWDISPLAY
290
     0
  9
$INSUNITS
 70
     0
  9
$HYPERLINKBASE
  1

  9
$STYLESHEET
  1

  9
$XEDIT
290
     1
  9
$CEPSNTYPE
380
     0
  9
$PSTYLEMODE
290
     1
  9
$FINGERPRINTGUID
  2
{8AD5FA3C-96E4-4AAD-A2AF-0446EE9F7205}
  9
$VERSIONGUID
  2
{D9245B5A-37E9-405A-9890-FE6F1405CCDD}
  9
$EXTNAMES
290
     1
  9
$PSVPSCALE
 40
0.0
  9
$OLESTARTUP
290
     0
  0
ENDSEC
  0
SECTION
  2
CLASSES
  0
CLASS
  1
ACDBDICTIONARYWDFLT
  2
AcDbDictionaryWithDefault
  3
ObjectDBX Classes
 90
        0
280
     0
281
     0
  0
CLASS
  1
ACDBPLACEHOLDER
  2
AcDbPlaceHolder
  3
ObjectDBX Classes
 90
        0
280
     0
281
     0
  0
CLASS
  1
LAYOUT
  2
AcDbLayout
  3
ObjectDBX Classes
 90
        0
280
     0
281
     0
  0
CLASS
  1
MATERIAL
  2
AcDbMaterial
  3
ObjectDBX Classes
 90
     1153
280
     0
281
     0
  0
CLASS
  1
VISUALSTYLE
  2
AcDbVisualStyle
  3
ObjectDBX Classes
 90
     4095
280
     0
281
     0
  0
CLASS
  1
TABLESTYLE
  2
AcDbTableStyle
  3
ObjectDBX Classes
 90
     4095
280
     0
281
     0
  0
CLASS
  1
SCALE
  2
AcDbScale
  3
ObjectDBX Classes
 90
     1153
280
     0
281
     0
  0
CLASS
  1
MLEADERSTYLE
  2
AcDbMLeaderStyle
  3
ACDB_MLEADERSTYLE_CLASS
 90
     4095
280
     0
281
     0
  0
CLASS
  1
ACDBSECTIONVIEWSTYLE
  2
AcDbSectionViewStyle
  3
ObjectDBX Classes
 90
     1025
280
     0
281
     0
  0
CLASS
  1
ACDBDETAILVIEWSTYLE
  2
AcDbDetailViewStyle
  3
ObjectDBX Classes
 90
     1025
280
     0
281
     0
  0
CLASS
  1
DICTIONARYVAR
  2
AcDbDictionaryVar
  3
ObjectDBX Classes
 90
        0
280
     0
281
     0
  0
CLASS
  1
CELLSTYLEMAP
  2
AcDbCellStyleMap
  3
ObjectDBX Classes
 90
     1152
280
     0
281
     0
  0
ENDSEC
  0
SECTION
  2
TABLES
  0
TABLE
  2
VPORT
  5
8
330
0
100
AcDbSymbolTable
 70
     1
  0
VPORT
  5
1443
330
8
100
AcDbSymbolTableRecord
100
AcDbViewportTableRecord
  2
*ACTIVE
 70
     0
 10
0.0
 20
0.0
 11
1.0
 21
1.0
 12
292.0553512029759
 22
137.3519073427071
 13
0.0
 23
0.0
 14
10.0
 24
10.0
 15
10.0
 25
10.0
 16
0.0
 26
0.0
 36
1.0
 17
0.0
 27
0.0
 37
0.0
 40
256.706803806453
 41
1.899603698811096
 42
50.0
 43
0.0
 44
0.0
 50
0.0
 51
0.0
 71
     0
 72
   100
 73
     1
 74
     0
 75
     0
 76
     0
 77
     0
 78
     0
281
     0
 65
     1
110
0.0
120
0.0
130
0.0
111
1.0
121
0.0
131
0.0
112
0.0
122
1.0
132
0.0
 79
     0
146
0.0
1001
ACAD_NAV_VCDISPLAY
1070
     3
  0
ENDTAB
  0
TABLE
  2
LTYPE
  5
5
330
0
100
AcDbSymbolTable
 70
     4
  0
LTYPE
  5
12
330
5
100
AcDbSymbolTableRecord
100
AcDbLinetypeTableRecord
  2
BYBLOCK
 70
     0
  3

 72
    65
 73
     0
 40
0.0
  0
LTYPE
  5
13
330
5
100
AcDbSymbolTableRecord
100
AcDbLinetypeTableRecord
  2
BYLAYER
 70
     0
  3

 72
    65
 73
     0
 40
0.0
  0
LTYPE
  5
14
330
5
100
AcDbSymbolTableRecord
100
AcDbLinetypeTableRecord
  2
CONTINUOUS
 70
     0
  3
Solid line
 72
    65
 73
     0
 40
0.0
  0
LTYPE
  5
4B
330
5
100
AcDbSymbolTableRecord
100
AcDbLinetypeTableRecord
  2
DASHED
 70
     0
  3
Dashed __ __ __ __ __ __ __ __ __ __ __ __ __ _
 72
    65
 73
     2
 40
19.04999999999999
 49
12.7
 74
     0
 49
-6.349999999999998
 74
     0
  0
LTYPE
  5
4C
330
5
100
AcDbSymbolTableRecord
100
AcDbLinetypeTableRecord
  2
CENTER
 70
     0
  3
Center ____ _ ____ _ ____ _ ____ _ ____ _ ____
 72
    65
 73
     4
 40
50.8
 49
31.75
 74
     0
 49
-6.349999999999998
 74
     0
 49
6.349999999999998
 74
     0
 49
-6.349999999999998
 74
     0
  0
LTYPE
  5
4D
330
5
100
AcDbSymbolTableRecord
100
AcDbLinetypeTableRecord
  2
PHANTOM
 70
     0
  3
Phantom ______  __  __  ______  __  __  ______
 72
    65
 73
     6
 40
63.5
 49
31.75
 74
     0
 49
-6.349999999999998
 74
     0
 49
6.349999999999998
 74
     0
 49
-6.349999999999998
 74
     0
 49
6.349999999999998
 74
     0
 49
-6.349999999999998
 74
     0
  0
ENDTAB
  0
TABLE
  2
LAYER
  5
2
330
0
100
AcDbSymbolTable
 70
     8
  0
LAYER
  5
E
102
{ACAD_XDICTIONARY
360
149D
102
}
330
2
100
AcDbSymbolTableRecord
100
AcDbLayerTableRecord
  2
0
 70
     0
 62
     7
  6
CONTINUOUS
370
    -3
390
144C
  0
LAYER
  5
4E
102
{ACAD_XDICTIONARY
360
149F
102
}
330
2
100
AcDbSymbolTableRecord
100
AcDbLayerTableRecord
  2
4
 70
     0
 62
     1
  6
CENTER
370
    -3
390
144C
  0
LAYER
  5
4F
102
{ACAD_XDICTIONARY
360
14A1
102
}
330
2
100
AcDbSymbolTableRecord
100
AcDbLayerTableRecord
  2
5
 70
     0
 62
     6
  6
PHANTOM
370
    -3
390
144C
  0
LAYER
  5
50
102
{ACAD_XDICTIONARY
360
14A3
102
}
330
2
100
AcDbSymbolTableRecord
100
AcDbLayerTableRecord
  2
1
 70
     0
 62
     7
  6
CONTINUOUS
370
    -3
390
144C
  0
LAYER
  5
51
102
{ACAD_XDICTIONARY
360
14A5
102
}
330
2
100
AcDbSymbolTableRecord
100
AcDbLayerTableRecord
  2
2
 70
     0
 62
     4
  6
CONTINUOUS
370
    -3
390
144C
  0
LAYER
  5
52
102
{ACAD_XDICTIONARY
360
14A7
102
}
330
2
100
AcDbSymbolTableRecord
100
AcDbLayerTableRecord
  2
3
 70
     0
 62
     2
  6
DASHED
370
    -3
390
144C
  0
LAYER
  5
53
102
{ACAD_XDICTIONARY
360
14A9
102
}
330
2
100
AcDbSymbolTableRecord
100
AcDbLayerTableRecord
  2
6
 70
     0
 62
     5
  6
CONTINUOUS
370
    -3
390
144C
  0
LAYER
  5
54
102
{ACAD_XDICTIONARY
360
14AB
102
}
330
2
100
AcDbSymbolTableRecord
100
AcDbLayerTableRecord
  2
7
 70
     0
 62
     3
  6
CONTINUOUS
370
    -3
390
144C
  0
ENDTAB
  0
TABLE
  2
STYLE
  5
3
330
0
100
AcDbSymbolTable
 70
     1
  0
STYLE
  5
F
330
3
100
AcDbSymbolTableRecord
100
AcDbTextStyleTableRecord
  2
STANDARD
 70
     0
 40
0.0
 41
1.0
 50
0.0
 71
     0
 42
2.5
  3
simplex.shx
  4

  0
ENDTAB
  0
TABLE
  2
VIEW
  5
6
330
0
100
AcDbSymbolTable
 70
     0
  0
ENDTAB
  0
TABLE
  2
UCS
  5
7
330
0
100
AcDbSymbolTable
 70
     0
  0
ENDTAB
  0
TABLE
  2
APPID
  5
9
330
0
100
AcDbSymbolTable
 70
     5
  0
APPID
  5
10
330
9
100
AcDbSymbolTableRecord
100
AcDbRegAppTableRecord
  2
ACAD
 70
     0
  0
APPID
  5
3E
330
9
100
AcDbSymbolTableRecord
100
AcDbRegAppTableRecord
  2
CONTENTTABDATA
 70
     0
  0
APPID
  5
3F
330
9
100
AcDbSymbolTableRecord
100
AcDbRegAppTableRecord
  2
CONTENTCURRENTTAB
 70
     0
  0
APPID
  5
14B7
330
9
100
AcDbSymbolTableRecord
100
AcDbRegAppTableRecord
  2
ACAD_NAV_VCDISPLAY
 70
     0
  0
APPID
  5
14F0
330
9
100
AcDbSymbolTableRecord
100
AcDbRegAppTableRecord
  2
ACAD_MLEADERVER
 70
     0
  0
ENDTAB
  0
TABLE
  2
DIMSTYLE
  5
A
330
0
100
AcDbSymbolTable
 70
     1
100
AcDbDimStyleTable
 71
     0
  0
DIMSTYLE
105
1D
330
A
100
AcDbSymbolTableRecord
100
AcDbDimStyleTableRecord
  2
STANDARD
 70
     0
 41
3.0
 42
1.0
 43
10.0
 44
1.0
 73
     0
 74
     0
 77
     3
 78
     8
140
3.2
141
0.0
147
1.0
172
     1
173
     1
340
F
341
2E
343
2E
344
2E
  0
ENDTAB
  0
TABLE
  2
BLOCK_RECORD
  5
1
330
0
100
AcDbSymbolTable
 70
     1
  0
BLOCK_RECORD
  5
18
102
{ACAD_XDICTIONARY
360
1446
102
}
330
1
100
AcDbSymbolTableRecord
100
AcDbBlockTableRecord
  2
*MODEL_SPACE
340
149A
  0
BLOCK_RECORD
  5
15
102
{ACAD_XDICTIONARY
360
1444
102
}
330
1
100
AcDbSymbolTableRecord
100
AcDbBlockTableRecord
  2
*PAPER_SPACE
340
149B
  0
BLOCK_RECORD
  5
2E
330
1
100
AcDbSymbolTableRecord
100
AcDbBlockTableRecord
  2
_OPEN
340
0
  0
ENDTAB
  0
ENDSEC
  0
SECTION
  2
BLOCKS
  0
BLOCK
  5
19
330
18
100
AcDbEntity
  8
0
100
AcDbBlockBegin
  2
*MODEL_SPACE
 70
     0
 10
0.0
 20
0.0
 30
0.0
  3
*MODEL_SPACE
  1

  0
ENDBLK
  5
1A
330
18
100
AcDbEntity
  8
0
100
AcDbBlockEnd
  0
BLOCK
  5
16
330
15
100
AcDbEntity
 67
     1
  8
0
100
AcDbBlockBegin
  2
*PAPER_SPACE
 70
     0
 10
0.0
 20
0.0
 30
0.0
  3
*PAPER_SPACE
  1

  0
ENDBLK
  5
17
330
15
100
AcDbEntity
 67
     1
  8
0
100
AcDbBlockEnd
  0
BLOCK
  5
2F
330
2E
100
AcDbEntity
  8
0
100
AcDbBlockBegin
  2
_OPEN
 70
     0
 10
0.0
 20
0.0
 30
0.0
  3
_OPEN
  1

  0
LINE
  5
30
330
2E
100
AcDbEntity
  8
0
  6
ByBlock
 62
     0
100
AcDbLine
 10
-1.0
 20
0.1666666666666666
 30
0.0
 11
0.0
 21
0.0
 31
0.0
  0
LINE
  5
31
330
2E
100
AcDbEntity
  8
0
  6
ByBlock
 62
     0
100
AcDbLine
 10
0.0
 20
0.0
 30
0.0
 11
-1.0
 21
-0.1666666666666666
 31
0.0
  0
LINE
  5
32
330
2E
100
AcDbEntity
  8
0
  6
ByBlock
 62
     0
100
AcDbLine
 10
0.0
 20
0.0
 30
0.0
 11
-1.0
 21
0.0
 31
0.0
  0
ENDBLK
  5
33
330
2E
100
AcDbEntity
  8
0
100
AcDbBlockEnd
  0
ENDSEC
  0
SECTION
  2
ENTITIES
  0
TEXT
  5
22C
330
18
100
AcDbEntity
  8
1
  6
Continuous
100
AcDbText
 10
10.00000153760832
 20
9.999999806846743
 30
0.0
 40
1.399999999999999
  1
LAYER
100
AcDbText
  0
TEXT
  5
22D
330
18
100
AcDbEntity
  8
7
  6
Continuous
100
AcDbText
 10
10.00000153760831
 20
25.99999930684674
 30
0.0
 40
3.0
  1
CODE No.1103
100
AcDbText
  0
TEXT
  5
22E
330
18
100
AcDbEntity
  8
7
  6
Continuous
100
AcDbText
 10
10.00000153760832
 20
17.99999980684674
 30
0.0
 40
3.0
  1
TYPE No.TL-55-3
100
AcDbText
  0
TEXT
  5
22F
330
18
100
AcDbEntity
  8
2
  6
Continuous
100
AcDbText
 10
19.9795125376083
 20
10.04873680684672
 30
0.0
 40
1.399999999999999
  1
2
100
AcDbText
  0
TEXT
  5
230
330
18
100
AcDbEntity
  8
1
  6
Continuous
100
AcDbText
 10
17.9795125376083
 20
10.04873680684672
 30
0.0
 40
1.399999999999999
  1
1
100
AcDbText
  0
TEXT
  5
231
330
18
100
AcDbEntity
  8
3
  6
DASHED
100
AcDbText
 10
21.97951253760832
 20
10.04873680684672
 30
0.0
 40
1.399999999999999
  1
3
100
AcDbText
  0
TEXT
  5
232
330
18
100
AcDbEntity
  8
5
  6
PHANTOM
100
AcDbText
 10
25.97951253760831
 20
10.04873680684672
 30
0.0
 40
1.399999999999999
  1
5
100
AcDbText
  0
TEXT
  5
233
330
18
100
AcDbEntity
  8
4
  6
CENTER
100
AcDbText
 10
23.97951253760831
 20
10.04873680684672
 30
0.0
 40
1.399999999999999
  1
4
100
AcDbText
  0
TEXT
  5
234
330
18
100
AcDbEntity
  8
6
  6
Continuous
100
AcDbText
 10
27.97951253760832
 20
10.04873680684672
 30
0.0
 40
1.399999999999999
  1
6
100
AcDbText
  0
TEXT
  5
235
330
18
100
AcDbEntity
  8
7
  6
Continuous
100
AcDbText
 10
29.97951253760831
 20
10.04873680684672
 30
0.0
 40
1.399999999999999
  1
7
100
AcDbText
  0
CIRCLE
  5
2C9
330
18
100
AcDbEntity
  8
1
  6
Continuous
100
AcDbCircle
 10
33.89322153760832
 20
180.6558348068465
 30
0.0
 40
1.8
  0
LINE
  5
2CA
330
18
100
AcDbEntity
  8
4
  6
CENTER
 48
0.2
100
AcDbLine
 10
33.89322153760832
 20
174.6558348068465
 30
0.0
 11
33.89322153760832
 21
206.1558348068465
 31
0.0
  0
LINE
  5
2CB
330
18
100
AcDbEntity
  8
1
  6
Continuous
100
AcDbLine
 10
38.64322153760831
 20
176.6558348068465
 30
0.0
 11
38.64322153760831
 21
204.1558348068465
 31
0.0
  0
LINE
  5
2CC
330
18
100
AcDbEntity
  8
1
  6
Continuous
100
AcDbLine
 10
29.14322153760831
 20
176.6558348068465
 30
0.0
 11
29.14322153760831
 21
204.1558348068465
 31
0.0
  0
LINE
  5
2CD
330
18
100
AcDbEntity
  8
1
  6
Continuous
100
AcDbLine
 10
29.14322153760831
 20
176.6558348068465
 30
0.0
 11
38.64322153760831
 21
176.6558348068465
 31
0.0
  0
CIRCLE
  5
2CE
330
18
100
AcDbEntity
  8
1
  6
Continuous
100
AcDbCircle
 10
33.89322153760832
 20
200.1558348068465
 30
0.0
 40
1.8
  0
LINE
  5
2CF
330
18
100
AcDbEntity
  8
4
  6
CENTER
 48
0.2
100
AcDbLine
 10
27.14322153760832
 20
190.4058348068465
 30
0.0
 11
40.64322153760831
 21
190.4058348068465
 31
0.0
  0
LINE
  5
2D0
330
18
100
AcDbEntity
  8
4
  6
CENTER
 48
0.1
100
AcDbLine
 10
30.09322553760831
 20
180.6558348068465
 30
0.0
 11
37.69322453760829
 21
180.6558348068465
 31
0.0
  0
LINE
  5
2D1
330
18
100
AcDbEntity
  8
1
  6
Continuous
100
AcDbLine
 10
29.14322153760831
 20
187.4058348068467
 30
0.0
 11
38.64322153760831
 21
187.4058348068467
 31
0.0
  0
LINE
  5
2D2
330
18
100
AcDbEntity
  8
4
  6
CENTER
 48
0.1
100
AcDbLine
 10
30.09322553760831
 20
200.1558348068465
 30
0.0
 11
37.69322453760829
 21
200.1558348068465
 31
0.0
  0
LINE
  5
2D3
330
18
100
AcDbEntity
  8
1
  6
Continuous
100
AcDbLine
 10
29.14322153760831
 20
193.4058348068465
 30
0.0
 11
38.64322153760831
 21
193.4058348068465
 31
0.0
  0
LINE
  5
2D4
330
18
100
AcDbEntity
  8
1
  6
Continuous
100
AcDbLine
 10
29.14322153760831
 20
204.1558348068465
 30
0.0
 11
38.64322153760831
 21
204.1558348068465
 31
0.0
  0
LINE
  5
2D9
330
18
100
AcDbEntity
  8
4
  6
CENTER
 48
0.07
100
AcDbLine
 10
132.7968315376081
 20
180.6558348068465
 30
0.0
 11
137.5968345376083
 21
180.6558348068465
 31
0.0
  0
LINE
  5
2DA
330
18
100
AcDbEntity
  8
4
  6
CENTER
 48
0.07
100
AcDbLine
 10
132.7968315376081
 20
200.1558348068465
 30
0.0
 11
137.5968345376083
 21
200.1558348068465
 31
0.0
  0
LINE
  5
2DB
330
18
100
AcDbEntity
  8
1
  6
Continuous
100
AcDbLine
 10
134.7968315376083
 20
176.6558348068465
 30
0.0
 11
134.7968315376083
 21
188.9058348068465
 31
0.0
  0
LINE
  5
2DC
330
18
100
AcDbEntity
  8
1
  6
Continuous
100
AcDbLine
 10
135.5968345376083
 20
176.6558348068465
 30
0.0
 11
135.5968345376083
 21
188.9058348068465
 31
0.0
  0
LINE
  5
2E9
330
18
100
AcDbEntity
  8
1
  6
Continuous
100
AcDbLine
 10
134.7968315376083
 20
176.6558348068465
 30
0.0
 11
135.5968345376083
 21
176.6558348068465
 31
0.0
  0
LINE
  5
2EA
330
18
100
AcDbEntity
  8
1
  6
Continuous
100
AcDbLine
 10
134.7968315376083
 20
191.9058348068467
 30
0.0
 11
134.7968315376083
 21
204.1558348068465
 31
0.0
  0
LINE
  5
2EB
330
18
100
AcDbEntity
  8
1
  6
Continuous
100
AcDbLine
 10
135.5968345376083
 20
191.9058348068467
 30
0.0
 11
135.5968345376083
 21
204.1558348068465
 31
0.0
  0
ARC
  5
2EC
330
18
100
AcDbEntity
  8
1
  6
Continuous
100
AcDbCircle
 10
122.5968345376083
 20
190.4058348068465
 30
0.0
 40
2.2
100
AcDbArc
 50
15.46601
 51
344.53399
  0
ARC
  5
2ED
330
18
100
AcDbEntity
  8
1
  6
Continuous
100
AcDbCircle
 10
122.5968345376083
 20
190.4058348068465
 30
0.0
 40
3.0
100
AcDbArc
 50
15.46601099999999
 51
344.534003
  0
LINE
  5
2EE
330
18
100
AcDbEntity
  8
4
  6
CENTER
 48
0.1
100
AcDbLine
 10
117.5968345376083
 20
190.4058348068465
 30
0.0
 11
125.2501395376081
 21
190.4058348068465
 31
0.0
  0
ARC
  5
2EF
330
18
100
AcDbEntity
  8
1
  6
Continuous
100
AcDbCircle
 10
125.4882015376083
 20
189.6058348068467
 30
0.0
 40
0.8
100
AcDbArc
 50
90.0
 51
164.5339899999999
  0
ARC
  5
2F0
330
18
100
AcDbEntity
  8
1
  6
Continuous
100
AcDbCircle
 10
134.0968345376083
 20
188.9058348068465
 30
0.0
 40
1.5
100
AcDbArc
 50
0.0
 51
90.00000300000001
  0
LINE
  5
2F1
330
18
100
AcDbEntity
  8
4
  6
CENTER
 48
0.1
100
AcDbLine
 10
122.5968345376083
 20
195.4058348068467
 30
0.0
 11
122.5968345376083
 21
185.4058348068467
 31
0.0
  0
LINE
  5
2F2
330
18
100
AcDbEntity
  8
1
  6
Continuous
100
AcDbLine
 10
125.4882075376083
 20
189.6058158068467
 30
0.0
 11
134.0968345376083
 21
189.6058158068467
 31
0.0
  0
ARC
  5
2F3
330
18
100
AcDbEntity
  8
1
  6
Continuous
100
AcDbCircle
 10
134.0968345376083
 20
188.9058348068465
 30
0.0
 40
0.7
100
AcDbArc
 50
0.0
 51
90.00000300000001
  0
LINE
  5
2F4
330
18
100
AcDbEntity
  8
1
  6
Continuous
100
AcDbLine
 10
125.4882075376083
 20
191.2058218068466
 30
0.0
 11
134.0968345376083
 21
191.2058218068466
 31
0.0
  0
LINE
  5
2F5
330
18
100
AcDbEntity
  8
1
  6
Continuous
100
AcDbLine
 10
125.4882015376083
 20
190.4058348068465
 30
0.0
 11
134.0968345376083
 21
190.4058348068465
 31
0.0
  0
ARC
  5
2F6
330
18
100
AcDbEntity
  8
1
  6
Continuous
100
AcDbCircle
 10
125.4882015376083
 20
191.2058348068467
 30
0.0
 40
0.8
100
AcDbArc
 50
195.4660099999999
 51
270.0
  0
ARC
  5
2F7
330
18
100
AcDbEntity
  8
1
  6
Continuous
100
AcDbCircle
 10
134.0968345376083
 20
191.9058348068467
 30
0.0
 40
0.7
100
AcDbArc
 50
269.9999969999999
 51
0.0
  0
ARC
  5
2F8
330
18
100
AcDbEntity
  8
1
  6
Continuous
100
AcDbCircle
 10
134.0968345376083
 20
191.9058348068467
 30
0.0
 40
1.5
100
AcDbArc
 50
269.9999969999999
 51
0.0
  0
LINE
  5
2F9
330
18
100
AcDbEntity
  8
1
  6
Continuous
100
AcDbLine
 10
134.7968315376083
 20
204.1558348068465
 30
0.0
 11
135.5968345376083
 21
204.1558348068465
 31
0.0
  0
LINE
  5
2FF
330
18
100
AcDbEntity
  8
4
  6
CENTER
 48
0.2
100
AcDbLine
 10
117.5968345376083
 20
259.9568908068466
 30
0.0
 11
137.5968345376083
 21
259.9568908068466
 31
0.0
  0
LINE
  5
300
330
18
100
AcDbEntity
  8
1
  6
Continuous
100
AcDbLine
 10
125.5968345376082
 20
264.7068908068466
 30
0.0
 11
125.5968345376082
 21
255.2068908068467
 31
0.0
  0
LINE
  5
301
330
18
100
AcDbEntity
  8
1
  6
Continuous
100
AcDbLine
 10
119.5968345376083
 20
255.2068908068467
 30
0.0
 11
119.5968345376083
 21
264.7068908068466
 31
0.0
  0
LINE
  5
302
330
18
100
AcDbEntity
  8
1
  6
Continuous
100
AcDbLine
 10
134.7968315376083
 20
255.2068908068467
 30
0.0
 11
134.7968315376083
 21
264.7068908068466
 31
0.0
  0
LINE
  5
303
330
18
100
AcDbEntity
  8
1
  6
Continuous
100
AcDbLine
 10
135.5968345376083
 20
255.2068908068467
 30
0.0
 11
135.5968345376083
 21
264.7068908068466
 31
0.0
  0
LINE
  5
304
330
18
100
AcDbEntity
  8
1
  6
Continuous
100
AcDbLine
 10
119.5968345376083
 20
255.2068908068467
 30
0.0
 11
135.5968345376083
 21
255.2068908068467
 31
0.0
  0
LINE
  5
305
330
18
100
AcDbEntity
  8
1
  6
Continuous
100
AcDbLine
 10
119.5968345376083
 20
264.7068908068466
 30
0.0
 11
135.5968345376083
 21
264.7068908068466
 31
0.0
  0
LINE
  5
376
330
18
100
AcDbEntity
  8
4
  6
CENTER
 48
0.07
100
AcDbLine
 10
325.5289485376083
 20
180.6558348068465
 30
0.0
 11
320.7289605376081
 21
180.6558348068465
 31
0.0
  0
LINE
  5
377
330
18
100
AcDbEntity
  8
4
  6
CENTER
 48
0.07
100
AcDbLine
 10
325.5289485376083
 20
200.1558348068465
 30
0.0
 11
320.7289605376081
 21
200.1558348068465
 31
0.0
  0
CIRCLE
  5
378
330
18
100
AcDbEntity
  8
1
  6
Continuous
100
AcDbCircle
 10
224.4128895376082
 20
180.6558348068465
 30
0.0
 40
1.8
  0
LINE
  5
379
330
18
100
AcDbEntity
  8
1
  6
Continuous
100
AcDbLine
 10
229.1628895376082
 20
176.6558348068465
 30
0.0
 11
229.1628895376082
 21
204.1558348068465
 31
0.0
  0
LINE
  5
37A
330
18
100
AcDbEntity
  8
4
  6
CENTER
 48
0.2
100
AcDbLine
 10
224.4128895376082
 20
174.6558348068465
 30
0.0
 11
224.4128895376082
 21
206.1558348068465
 31
0.0
  0
LINE
  5
37B
330
18
100
AcDbEntity
  8
1
  6
Continuous
100
AcDbLine
 10
219.6628895376083
 20
176.6558348068465
 30
0.0
 11
219.6628895376083
 21
204.1558348068465
 31
0.0
  0
LINE
  5
37C
330
18
100
AcDbEntity
  8
1
  6
Continuous
100
AcDbLine
 10
219.6628895376083
 20
176.6558348068465
 30
0.0
 11
229.1628895376082
 21
176.6558348068465
 31
0.0
  0
LINE
  5
37D
330
18
100
AcDbEntity
  8
4
  6
CENTER
 48
0.2
100
AcDbLine
 10
217.6628895376082
 20
190.4058348068465
 30
0.0
 11
231.1628895376082
 21
190.4058348068465
 31
0.0
  0
LINE
  5
37E
330
18
100
AcDbEntity
  8
1
  6
Continuous
100
AcDbLine
 10
219.6628895376083
 20
204.1558348068465
 30
0.0
 11
229.1628895376082
 21
204.1558348068465
 31
0.0
  0
LINE
  5
37F
330
18
100
AcDbEntity
  8
1
  6
Continuous
100
AcDbLine
 10
219.6628895376083
 20
190.4058348068465
 30
0.0
 11
229.1628895376082
 21
190.4058348068465
 31
0.0
  0
CIRCLE
  5
380
330
18
100
AcDbEntity
  8
1
  6
Continuous
100
AcDbCircle
 10
224.4128895376082
 20
200.1558348068465
 30
0.0
 40
1.8
  0
LINE
  5
381
330
18
100
AcDbEntity
  8
1
  6
Continuous
100
AcDbLine
 10
220.6628895376082
 20
189.4058348068466
 30
0.0
 11
228.1628895376082
 21
189.4058348068466
 31
0.0
  0
LINE
  5
382
330
18
100
AcDbEntity
  8
4
  6
CENTER
 48
0.1
100
AcDbLine
 10
220.6129025376082
 20
180.6558348068465
 30
0.0
 11
228.2128775376082
 21
180.6558348068465
 31
0.0
  0
LINE
  5
383
330
18
100
AcDbEntity
  8
1
  6
Continuous
100
AcDbLine
 10
220.6628895376082
 20
191.4058348068465
 30
0.0
 11
228.1628895376082
 21
191.4058348068465
 31
0.0
  0
LINE
  5
384
330
18
100
AcDbEntity
  8
4
  6
CENTER
 48
0.1
100
AcDbLine
 10
220.6129025376082
 20
200.1558348068465
 30
0.0
 11
228.2128775376082
 21
200.1558348068465
 31
0.0
  0
LINE
  5
385
330
18
100
AcDbEntity
  8
1
  6
Continuous
100
AcDbLine
 10
323.5289485376083
 20
176.6558348068465
 30
0.0
 11
323.5289485376083
 21
188.9058348068465
 31
0.0
  0
LINE
  5
386
330
18
100
AcDbEntity
  8
1
  6
Continuous
100
AcDbLine
 10
322.7289605376082
 20
176.6558348068465
 30
0.0
 11
322.7289605376082
 21
188.9058348068465
 31
0.0
  0
LINE
  5
387
330
18
100
AcDbEntity
  8
1
  6
Continuous
100
AcDbLine
 10
323.5289485376083
 20
176.6558348068465
 30
0.0
 11
322.7289605376082
 21
176.6558348068465
 31
0.0
  0
LINE
  5
388
330
18
100
AcDbEntity
  8
1
  6
Continuous
100
AcDbLine
 10
323.5289485376083
 20
191.9058348068467
 30
0.0
 11
323.5289485376083
 21
204.1558348068465
 31
0.0
  0
LINE
  5
389
330
18
100
AcDbEntity
  8
1
  6
Continuous
100
AcDbLine
 10
322.7289605376082
 20
191.9058348068467
 30
0.0
 11
322.7289605376082
 21
204.1558348068465
 31
0.0
  0
ARC
  5
38A
330
18
100
AcDbEntity
  8
1
  6
Continuous
100
AcDbCircle
 10
335.7289605376081
 20
190.4058348068465
 30
0.0
 40
2.2
100
AcDbArc
 50
195.4660099999999
 51
164.5339899999999
  0
ARC
  5
38B
330
18
100
AcDbEntity
  8
1
  6
Continuous
100
AcDbCircle
 10
335.7289605376081
 20
190.4058348068465
 30
0.0
 40
3.0
100
AcDbArc
 50
195.4660159999999
 51
164.533984
  0
LINE
  5
38C
330
18
100
AcDbEntity
  8
4
  6
CENTER
 48
0.1
100
AcDbLine
 10
340.7289605376082
 20
190.4058348068465
 30
0.0
 11
333.0756405376083
 21
190.4058348068465
 31
0.0
  0
ARC
  5
38D
330
18
100
AcDbEntity
  8
1
  6
Continuous
100
AcDbCircle
 10
332.8375935376082
 20
189.6058348068467
 30
0.0
 40
0.8
100
AcDbArc
 50
15.46601
 51
90.0
  0
ARC
  5
38E
330
18
100
AcDbEntity
  8
1
  6
Continuous
100
AcDbCircle
 10
324.2289605376082
 20
188.9058348068465
 30
0.0
 40
1.5
100
AcDbArc
 50
90.00000300000001
 51
180.000005
  0
LINE
  5
38F
330
18
100
AcDbEntity
  8
4
  6
CENTER
 48
0.1
100
AcDbLine
 10
335.7289605376081
 20
195.4058348068467
 30
0.0
 11
335.7289605376081
 21
185.4058348068467
 31
0.0
  0
LINE
  5
390
330
18
100
AcDbEntity
  8
1
  6
Continuous
100
AcDbLine
 10
332.8375725376082
 20
189.6058158068467
 30
0.0
 11
324.2289605376082
 21
189.6058158068467
 31
0.0
  0
ARC
  5
391
330
18
100
AcDbEntity
  8
1
  6
Continuous
100
AcDbCircle
 10
324.2289605376082
 20
188.9058348068465
 30
0.0
 40
0.7
100
AcDbArc
 50
90.00000300000001
 51
180.000005
  0
LINE
  5
392
330
18
100
AcDbEntity
  8
1
  6
Continuous
100
AcDbLine
 10
332.8375725376082
 20
191.2058218068466
 30
0.0
 11
324.2289605376082
 21
191.2058218068466
 31
0.0
  0
LINE
  5
393
330
18
100
AcDbEntity
  8
1
  6
Continuous
100
AcDbLine
 10
332.8375935376082
 20
190.4058348068465
 30
0.0
 11
324.2289605376082
 21
190.4058348068465
 31
0.0
  0
ARC
  5
394
330
18
100
AcDbEntity
  8
1
  6
Continuous
100
AcDbCircle
 10
324.2289605376082
 20
191.9058348068467
 30
0.0
 40
0.7
100
AcDbArc
 50
180.000005
 51
270.000001
  0
ARC
  5
395
330
18
100
AcDbEntity
  8
1
  6
Continuous
100
AcDbCircle
 10
324.2289605376082
 20
191.9058348068467
 30
0.0
 40
1.5
100
AcDbArc
 50
180.000005
 51
270.000001
  0
ARC
  5
396
330
18
100
AcDbEntity
  8
1
  6
Continuous
100
AcDbCircle
 10
332.8375935376082
 20
191.2058348068467
 30
0.0
 40
0.8
100
AcDbArc
 50
270.0
 51
344.53399
  0
LINE
  5
397
330
18
100
AcDbEntity
  8
1
  6
Continuous
100
AcDbLine
 10
323.5289485376083
 20
204.1558348068465
 30
0.0
 11
322.7289605376082
 21
204.1558348068465
 31
0.0
  0
LINE
  5
A19
330
18
100
AcDbEntity
  8
1
  6
Continuous
100
AcDbLine
 10
121.2468285376083
 20
71.06184080684673
 30
0.0
 11
125.5468315376083
 21
71.06184080684673
 31
0.0
  0
LINE
  5
A1A
330
18
100
AcDbEntity
  8
1
  6
Continuous
100
AcDbLine
 10
121.2468285376083
 20
67.56184080684675
 30
0.0
 11
125.5468315376083
 21
67.56184080684675
 31
0.0
  0
LINE
  5
A1B
330
18
100
AcDbEntity
  8
1
  6
Continuous
100
AcDbLine
 10
118.4968285376083
 20
73.31184080684675
 30
0.0
 11
128.1968255376083
 21
73.31184080684675
 31
0.0
  0
LINE
  5
A1C
330
18
100
AcDbEntity
  8
4
  6
CENTER
 48
0.2
100
AcDbLine
 10
117.4968285376083
 20
69.31184080684674
 30
0.0
 11
129.2968315376084
 21
69.31184080684674
 31
0.0
  0
LINE
  5
A1D
330
18
100
AcDbEntity
  8
1
  6
Continuous
100
AcDbLine
 10
123.6968255376083
 20
65.81184080684675
 30
0.0
 11
115.9968285376083
 21
65.81184080684675
 31
0.0
  0
CIRCLE
  5
A1E
330
18
100
AcDbEntity
  8
1
  6
Continuous
100
AcDbCircle
 10
122.5968345376083
 20
57.31184080684674
 30
0.0
 40
2.1
  0
LINE
  5
A1F
330
18
100
AcDbEntity
  8
1
  6
Continuous
100
AcDbLine
 10
113.1968255376083
 20
49.81184080684674
 30
0.0
 11
123.6968255376083
 21
49.81184080684674
 31
0.0
  0
LINE
  5
A20
330
18
100
AcDbEntity
  8
1
  6
Continuous
100
AcDbLine
 10
113.1968255376083
 20
64.81184080684674
 30
0.0
 11
123.6968255376083
 21
64.81184080684674
 31
0.0
  0
LINE
  5
A21
330
18
100
AcDbEntity
  8
1
  6
Continuous
100
AcDbLine
 10
121.2468285376083
 20
47.06184080684674
 30
0.0
 11
125.5468315376083
 21
47.06184080684674
 31
0.0
  0
LINE
  5
A22
330
18
100
AcDbEntity
  8
1
  6
Continuous
100
AcDbLine
 10
121.2468285376083
 20
43.56184080684674
 30
0.0
 11
125.5468315376083
 21
43.56184080684674
 31
0.0
  0
LINE
  5
A23
330
18
100
AcDbEntity
  8
1
  6
Continuous
100
AcDbLine
 10
118.4968285376083
 20
41.31184080684675
 30
0.0
 11
128.1968255376083
 21
41.31184080684675
 31
0.0
  0
LINE
  5
A24
330
18
100
AcDbEntity
  8
4
  6
CENTER
 48
0.2
100
AcDbLine
 10
117.4968285376083
 20
45.31184080684674
 30
0.0
 11
129.2968315376084
 21
45.31184080684674
 31
0.0
  0
LINE
  5
A25
330
18
100
AcDbEntity
  8
1
  6
Continuous
100
AcDbLine
 10
123.6968255376083
 20
48.81184080684676
 30
0.0
 11
115.9968285376083
 21
48.81184080684676
 31
0.0
  0
LINE
  5
A26
330
18
100
AcDbEntity
  8
4
  6
CENTER
 48
0.2
100
AcDbLine
 10
111.1968255376083
 20
57.31184080684674
 30
0.0
 11
142.0541239271211
 21
57.31184080684674
 31
0.0
  0
ARC
  5
A27
330
18
100
AcDbEntity
  8
1
  6
Continuous
100
AcDbCircle
 10
123.6968255376083
 20
62.81184080684674
 30
0.0
 40
2.0
100
AcDbArc
 50
0.0
 51
90.0000029999993
  0
LINE
  5
A28
330
18
100
AcDbEntity
  8
1
  6
Continuous
100
AcDbLine
 10
127.3968375376083
 20
62.06184080684675
 30
0.0
 11
133.8968375376084
 21
67.56184080684675
 31
0.0
  0
LINE
  5
A29
330
18
100
AcDbEntity
  8
1
  6
Continuous
100
AcDbLine
 10
133.8968225376083
 20
67.5618408068468
 30
0.0
 11
139.3884755376083
 21
64.41471580684676
 31
0.0
  0
LINE
  5
A2A
330
18
100
AcDbEntity
  8
4
  6
CENTER
 48
0.2
100
AcDbLine
 10
137.8968375376083
 20
68.31184080684675
 30
0.0
 11
137.8968375376083
 21
46.31184080684675
 31
0.0
  0
ARC
  5
A2B
330
18
100
AcDbEntity
  8
1
  6
Continuous
100
AcDbCircle
 10
137.8968375376083
 20
61.81184080684674
 30
0.0
 40
4.5
100
AcDbArc
 50
210.0048082776622
 51
108.3737919999999
  0
ARC
  5
A2C
330
18
100
AcDbEntity
  8
1
  6
Continuous
100
AcDbCircle
 10
123.6968255376083
 20
62.81184080684674
 30
0.0
 40
3.0
100
AcDbArc
 50
0.0
 51
90.0000029999993
  0
LINE
  5
A2F
330
18
100
AcDbEntity
  8
1
  6
Continuous
100
AcDbLine
 10
130.6968255376083
 20
43.81184080684675
 30
0.0
 11
130.6968255376083
 21
49.76953580684675
 31
0.0
  0
LINE
  5
A30
330
18
100
AcDbEntity
  8
1
  6
Continuous
100
AcDbLine
 10
127.3968375376083
 20
52.56184080684676
 30
0.0
 11
133.8968375376083
 21
47.06184080684677
 31
0.0
  0
LINE
  5
A31
330
18
100
AcDbEntity
  8
1
  6
Continuous
100
AcDbLine
 10
133.8968375376083
 20
47.06184080684677
 30
0.0
 11
139.3884755376084
 21
50.20896680684678
 31
0.0
  0
ARC
  5
A32
330
18
100
AcDbEntity
  8
1
  6
Continuous
100
AcDbCircle
 10
123.6968255376083
 20
51.81184080684674
 30
0.0
 40
3.0
100
AcDbArc
 50
269.999996999999
 51
0.0
  0
ARC
  5
A35
330
18
100
AcDbEntity
  8
1
  6
Continuous
100
AcDbCircle
 10
137.8968375376083
 20
52.81184080684674
 30
0.0
 40
4.5
100
AcDbArc
 50
251.6262080000001
 51
149.9899159999998
  0
ARC
  5
A38
330
18
100
AcDbEntity
  8
1
  6
Continuous
100
AcDbCircle
 10
128.1968255376083
 20
43.81184080684675
 30
0.0
 40
2.5
100
AcDbArc
 50
269.999996999999
 51
0.0
  0
ARC
  5
A39
330
18
100
AcDbEntity
  8
1
  6
Continuous
100
AcDbCircle
 10
125.5468315376083
 20
45.31184080684674
 30
0.0
 40
1.75
100
AcDbArc
 50
269.999996999999
 51
90.0000029999993
  0
LINE
  5
A3A
330
18
100
AcDbEntity
  8
4
  6
CENTER
 48
0.1
100
AcDbLine
 10
123.3968295376083
 20
48.61184080684676
 30
0.0
 11
123.3968295376083
 21
41.69344380684676
 31
0.0
  0
ARC
  5
A3B
330
18
100
AcDbEntity
  8
1
  6
Continuous
100
AcDbCircle
 10
137.8968375376083
 20
61.81184080684674
 30
0.0
 40
3.0
100
AcDbArc
 50
257.0411480000005
 51
60.1841089999997
  0
ARC
  5
A3C
330
18
100
AcDbEntity
  8
1
  6
Continuous
100
AcDbCircle
 10
137.8968375376083
 20
52.81184080684674
 30
0.0
 40
3.0
100
AcDbArc
 50
299.8158910000002
 51
102.9588519999994
  0
LINE
  5
A3D
330
18
100
AcDbEntity
  8
4
  6
CENTER
 48
0.2
100
AcDbLine
 10
143.3968375376083
 20
52.81184080684674
 30
0.0
 11
132.3968375376083
 21
52.81184080684674
 31
0.0
  0
LINE
  5
A3E
330
18
100
AcDbEntity
  8
4
  6
CENTER
 48
0.2
100
AcDbLine
 10
143.3968375376083
 20
61.81184080684674
 30
0.0
 11
132.3968375376083
 21
61.81184080684674
 31
0.0
  0
LINE
  5
A46
330
18
100
AcDbEntity
  8
1
  6
Continuous
100
AcDbLine
 10
125.6968255376083
 20
51.81184080684674
 30
0.0
 11
125.6968255376083
 21
62.81184080684674
 31
0.0
  0
LINE
  5
A47
330
18
100
AcDbEntity
  8
1
  6
Continuous
100
AcDbLine
 10
130.6968255376083
 20
54.37241880684677
 30
0.0
 11
130.6968255376083
 21
60.2512303352895
 31
0.0
  0
LINE
  5
A48
330
18
100
AcDbEntity
  8
1
  6
Continuous
100
AcDbLine
 10
126.6968255376083
 20
56.37978880684674
 30
0.0
 11
126.6968255376083
 21
58.24389380684674
 31
0.0
  0
LINE
  5
A49
330
18
100
AcDbEntity
  8
1
  6
Continuous
100
AcDbLine
 10
125.6968255376083
 20
57.31183380684672
 30
0.0
 11
128.0513785376083
 21
55.11726880684673
 31
0.0
  0
LINE
  5
A4A
330
18
100
AcDbEntity
  8
1
  6
Continuous
100
AcDbLine
 10
125.6968255376085
 20
52.31184080684674
 30
0.0
 11
127.3968375376084
 21
52.56184080684676
 31
0.0
  0
LINE
  5
A4B
330
18
100
AcDbEntity
  8
1
  6
Continuous
100
AcDbLine
 10
126.6968255376083
 20
51.81184080684674
 30
0.0
 11
126.6968255376083
 21
52.45889780684676
 31
0.0
  0
ARC
  5
A4C
330
18
100
AcDbEntity
  8
1
  6
Continuous
100
AcDbCircle
 10
123.6968255376083
 20
51.81184080684674
 30
0.0
 40
2.0
100
AcDbArc
 50
269.999996999999
 51
0.0
  0
LINE
  5
A4D
330
18
100
AcDbEntity
  8
1
  6
Continuous
100
AcDbLine
 10
130.7103295376085
 20
54.37524180684675
 30
0.0
 11
137.2833275376085
 21
55.74844080684674
 31
0.0
  0
CIRCLE
  5
A4E
330
18
100
AcDbEntity
  8
1
  6
Continuous
100
AcDbCircle
 10
137.8968375376083
 20
52.81184080684674
 30
0.0
 40
2.25
  0
ARC
  5
A4F
330
18
100
AcDbEntity
  8
1
  6
Continuous
100
AcDbCircle
 10
130.0968345376083
 20
57.31184080684674
 30
0.0
 40
3.0
100
AcDbArc
 50
227.0141130000003
 51
281.8002349999996
  0
LINE
  5
A50
330
18
100
AcDbEntity
  8
1
  6
Continuous
100
AcDbLine
 10
125.6968405376084
 20
62.31184080684674
 30
0.0
 11
127.3968225376084
 21
62.06184080684675
 31
0.0
  0
LINE
  5
A51
330
18
100
AcDbEntity
  8
1
  6
Continuous
100
AcDbLine
 10
126.6968255376083
 20
62.16478480684675
 30
0.0
 11
126.6968255376083
 21
62.81184080684674
 31
0.0
  0
LINE
  5
A52
330
18
100
AcDbEntity
  8
1
  6
Continuous
100
AcDbLine
 10
125.6968255376083
 20
57.31184080684674
 30
0.0
 11
128.0513635376084
 21
59.50640580684677
 31
0.0
  0
CIRCLE
  5
A54
330
18
100
AcDbEntity
  8
1
  6
Continuous
100
AcDbCircle
 10
137.8968375376083
 20
61.81184080684674
 30
0.0
 40
2.25
  0
ARC
  5
A55
330
18
100
AcDbEntity
  8
1
  6
Continuous
100
AcDbCircle
 10
130.0968345376083
 20
57.31184080684674
 30
0.0
 40
3.0
100
AcDbArc
 50
78.19976500000037
 51
132.9858869999996
  0
LINE
  5
A58
330
18
100
AcDbEntity
  8
4
  6
CENTER
 48
0.1
100
AcDbLine
 10
123.3968295376083
 20
66.01184080684676
 30
0.0
 11
123.3968295376083
 21
72.93023780684676
 31
0.0
  0
ARC
  5
A59
330
18
100
AcDbEntity
  8
1
  6
Continuous
100
AcDbCircle
 10
128.1968255376083
 20
70.81184080684675
 30
0.0
 40
2.5
100
AcDbArc
 50
0.0
 51
90.0000029999993
  0
ARC
  5
A5A
330
18
100
AcDbEntity
  8
1
  6
Continuous
100
AcDbCircle
 10
125.5468315376083
 20
69.31184080684674
 30
0.0
 40
1.75
100
AcDbArc
 50
269.999996999999
 51
90.0000029999993
  0
LINE
  5
A5B
330
18
100
AcDbEntity
  8
1
  6
Continuous
100
AcDbLine
 10
130.6968255376083
 20
64.85414580684675
 30
0.0
 11
130.6968255376083
 21
70.81184080684675
 31
0.0
  0
LINE
  5
A5C
330
18
100
AcDbEntity
  8
1
  6
Continuous
100
AcDbLine
 10
113.1968255376083
 20
49.81184080684674
 30
0.0
 11
113.1968255376083
 21
64.81184080684674
 31
0.0
  0
LINE
  5
A5D
330
18
100
AcDbEntity
  8
1
  6
Continuous
100
AcDbLine
 10
115.9968285376083
 20
43.81184080684675
 30
0.0
 11
115.9968285376083
 21
49.81184080684674
 31
0.0
  0
ARC
  5
A5E
330
18
100
AcDbEntity
  8
1
  6
Continuous
100
AcDbCircle
 10
118.4968285376083
 20
43.81184080684675
 30
0.0
 40
2.5
100
AcDbArc
 50
179.9999910000003
 51
270.0000009999997
  0
ARC
  5
A5F
330
18
100
AcDbEntity
  8
1
  6
Continuous
100
AcDbCircle
 10
121.2468285376083
 20
45.31184080684674
 30
0.0
 40
1.75
100
AcDbArc
 50
90.0000029999993
 51
270.0000009999997
  0
LINE
  5
A60
330
18
100
AcDbEntity
  8
4
  6
CENTER
 48
0.1
100
AcDbLine
 10
122.5968345376083
 20
53.21184280684676
 30
0.0
 11
122.5968345376083
 21
61.41183980684677
 31
0.0
  0
ARC
  5
A61
330
18
100
AcDbEntity
  8
1
  6
Continuous
100
AcDbCircle
 10
118.4968285376083
 20
70.81184080684675
 30
0.0
 40
2.5
100
AcDbArc
 50
90.0000029999993
 51
180.0000050000005
  0
ARC
  5
A62
330
18
100
AcDbEntity
  8
1
  6
Continuous
100
AcDbCircle
 10
121.2468285376083
 20
69.31184080684674
 30
0.0
 40
1.75
100
AcDbArc
 50
90.0000029999993
 51
270.0000009999997
  0
LINE
  5
A63
330
18
100
AcDbEntity
  8
1
  6
Continuous
100
AcDbLine
 10
115.9968285376083
 20
64.81184080684674
 30
0.0
 11
115.9968285376083
 21
70.81184080684675
 31
0.0
  0
LINE
  5
A64
330
18
100
AcDbEntity
  8
1
  6
Continuous
100
AcDbLine
 10
122.6968255376085
 20
123.4292382326545
 30
0.0
 11
127.2124635522252
 21
123.4292382326545
 31
0.0
  0
LINE
  5
A65
330
18
100
AcDbEntity
  8
1
  6
Continuous
100
AcDbLine
 10
140.8968375376083
 20
124.2292382326547
 30
0.0
 11
122.6968255376083
 21
124.2292382326404
 31
0.0
  0
LINE
  5
A66
330
18
100
AcDbEntity
  8
1
  6
Continuous
100
AcDbLine
 10
115.9968285376083
 20
127.0292352326547
 30
0.0
 11
130.6968255376083
 21
127.0292352326547
 31
0.0
  0
LINE
  5
A67
330
18
100
AcDbEntity
  8
1
  6
Continuous
100
AcDbLine
 10
115.9968285376083
 20
126.2292312326546
 30
0.0
 11
130.6968255376083
 21
126.2292312326546
 31
0.0
  0
LINE
  5
A68
330
18
100
AcDbEntity
  8
1
  6
Continuous
100
AcDbLine
 10
113.9968285376084
 20
125.0292352326547
 30
0.0
 11
140.8968375376083
 21
125.0292352326547
 31
0.0
  0
ARC
  5
A69
330
18
100
AcDbEntity
  8
1
  6
Continuous
100
AcDbCircle
 10
122.5968345376083
 20
113.2492342326547
 30
0.0
 40
2.219999
100
AcDbArc
 50
198.9245740000001
 51
341.0754250000005
  0
LINE
  5
A6A
330
18
100
AcDbEntity
  8
1
  6
Continuous
100
AcDbLine
 10
113.9968255376083
 20
112.5292352326547
 30
0.0
 11
125.6968255376083
 21
112.5292352326547
 31
0.0
  0
LINE
  5
A6B
330
18
100
AcDbEntity
  8
1
  6
Continuous
100
AcDbLine
 10
140.8968375376083
 20
113.3292382326546
 30
0.0
 11
113.9968285376083
 21
113.3292382326546
 31
0.0
  0
LINE
  5
A6C
330
18
100
AcDbEntity
  8
4
  6
CENTER
 48
0.2
100
AcDbLine
 10
111.1968255376083
 20
119.5292352326545
 30
0.0
 11
144.3968375376083
 21
119.5292352326545
 31
0.0
  0
LINE
  5
A6D
330
18
100
AcDbEntity
  8
1
  6
Continuous
100
AcDbLine
 10
142.3968375376083
 20
114.6292382326547
 30
0.0
 11
142.3968375376083
 21
123.7292382326559
 31
0.0
  0
LINE
  5
A6E
330
18
100
AcDbEntity
  8
1
  6
Continuous
100
AcDbLine
 10
133.8968375376083
 20
114.9292442326546
 30
0.0
 11
133.8968375376083
 21
122.6292312326547
 31
0.0
  0
LINE
  5
A6F
330
18
100
AcDbEntity
  8
4
  6
CENTER
 48
0.2
100
AcDbLine
 10
137.8968375376083
 20
111.0292352326547
 30
0.0
 11
137.8968375376083
 21
127.5292352326547
 31
0.0
  0
LINE
  5
A70
330
18
100
AcDbEntity
  8
1
  6
Continuous
100
AcDbLine
 10
134.6352405376083
 20
115.1292412326547
 30
0.0
 11
134.6352405376083
 21
122.4292342326547
 31
0.0
  0
LINE
  5
A71
330
18
100
AcDbEntity
  8
1
  6
Continuous
100
AcDbLine
 10
127.3968375376083
 20
122.6398967861699
 30
0.0
 11
127.3968375376083
 21
114.1292382326547
 31
0.0
  0
LINE
  5
A72
330
18
100
AcDbEntity
  8
1
  6
Continuous
100
AcDbLine
 10
135.6352405376083
 20
114.1292412326547
 30
0.0
 11
140.8968375376083
 21
114.1292412326547
 31
0.0
  0
LINE
  5
A73
330
18
100
AcDbEntity
  8
1
  6
Continuous
100
AcDbLine
 10
134.7692168658817
 20
114.6292382326547
 30
0.0
 11
142.3968375376084
 21
114.6292382326547
 31
0.0
  0
LINE
  5
A74
330
18
100
AcDbEntity
  8
1
  6
Continuous
100
AcDbLine
 10
140.8968375376083
 20
113.3292382326546
 30
0.0
 11
140.8968375376083
 21
114.6292382326547
 31
0.0
  0
LINE
  5
A75
330
18
100
AcDbEntity
  8
1
  6
Continuous
100
AcDbLine
 10
125.6968255376083
 20
112.5292352326547
 30
0.0
 11
125.6968255376083
 21
113.3292382326546
 31
0.0
  0
ARC
  5
A76
330
18
100
AcDbEntity
  8
1
  6
Continuous
100
AcDbCircle
 10
135.4968285376083
 20
114.9292442326547
 30
0.0
 40
1.6
100
AcDbArc
 50
179.9999949999994
 51
270.0
  0
ARC
  5
A77
330
18
100
AcDbEntity
  8
1
  6
Continuous
100
AcDbCircle
 10
135.6352405376083
 20
115.1292412326547
 30
0.0
 40
1.0
100
AcDbArc
 50
179.9999949999994
 51
270.0
  0
LINE
  5
A78
330
18
100
AcDbEntity
  8
1
  6
Continuous
100
AcDbLine
 10
136.4968285376083
 20
114.1292412326547
 30
0.0
 11
136.4968285376083
 21
114.6292382326547
 31
0.0
  0
LINE
  5
A79
330
18
100
AcDbEntity
  8
1
  6
Continuous
100
AcDbLine
 10
139.2968315376083
 20
114.1292412326547
 30
0.0
 11
139.2968315376083
 21
114.6292382326547
 31
0.0
  0
ARC
  5
A7A
330
18
100
AcDbEntity
  8
1
  6
Continuous
100
AcDbCircle
 10
137.8968375376083
 20
115.3604882326547
 30
0.0
 40
3.03125
100
AcDbArc
 50
222.0750260000003
 51
317.9249790000002
  0
LINE
  5
A7B
330
18
100
AcDbEntity
  8
1
  6
Continuous
100
AcDbLine
 10
135.6352405376083
 20
123.4292342326547
 30
0.0
 11
140.8968375376083
 21
123.4292342326547
 31
0.0
  0
LINE
  5
A7C
330
18
100
AcDbEntity
  8
1
  6
Continuous
100
AcDbLine
 10
134.7692174432373
 20
122.9292382326547
 30
0.0
 11
142.3968375376084
 21
122.9292382326547
 31
0.0
  0
LINE
  5
A7D
330
18
100
AcDbEntity
  8
1
  6
Continuous
100
AcDbLine
 10
140.8968375376083
 20
123.4292342326547
 30
0.0
 11
140.8968375376083
 21
125.0292352326547
 31
0.0
  0
LINE
  5
A7E
330
18
100
AcDbEntity
  8
1
  6
Continuous
100
AcDbLine
 10
142.3968375376083
 20
123.7292382326558
 30
0.0
 11
140.8968375376083
 21
123.7292382326547
 31
0.0
  0
LINE
  5
A7F
330
18
100
AcDbEntity
  8
1
  6
Continuous
100
AcDbLine
 10
123.8468345376083
 20
123.4292382326545
 30
0.0
 11
123.8468345376083
 21
124.2292382326413
 31
0.0
  0
LINE
  5
A80
330
18
100
AcDbEntity
  8
1
  6
Continuous
100
AcDbLine
 10
128.8744776222171
 20
124.1485401178023
 30
0.0
 11
127.5626132316812
 21
123.509936347507
 31
0.0
  0
ARC
  5
A81
330
18
100
AcDbEntity
  8
1
  6
Continuous
100
AcDbCircle
 10
135.4968285376083
 20
122.6292312326547
 30
0.0
 40
1.6
100
AcDbArc
 50
89.99999900000025
 51
179.9999949999994
  0
ARC
  5
A82
330
18
100
AcDbEntity
  8
1
  6
Continuous
100
AcDbCircle
 10
127.2124635522252
 20
124.2292382326547
 30
0.0
 40
0.8
100
AcDbArc
 50
270.0
 51
295.9564018415714
  0
ARC
  5
A83
330
18
100
AcDbEntity
  8
1
  6
Continuous
100
AcDbCircle
 10
135.6352405376083
 20
122.4292342326547
 30
0.0
 40
1.0
100
AcDbArc
 50
89.99999900000025
 51
179.9999949999994
  0
LINE
  5
A84
330
18
100
AcDbEntity
  8
1
  6
Continuous
100
AcDbLine
 10
139.2968315376083
 20
123.4292342326547
 30
0.0
 11
139.2968315376084
 21
122.9292382326547
 31
0.0
  0
LINE
  5
A85
330
18
100
AcDbEntity
  8
1
  6
Continuous
100
AcDbLine
 10
136.4968285376083
 20
123.4292342326547
 30
0.0
 11
136.4968285376083
 21
122.9292382326547
 31
0.0
  0
LINE
  5
A86
330
18
100
AcDbEntity
  8
1
  6
Continuous
100
AcDbLine
 10
125.9966605376083
 20
125.3890522326547
 30
0.0
 11
126.6968255376083
 21
126.2292312326546
 31
0.0
  0
ARC
  5
A87
330
18
100
AcDbEntity
  8
1
  6
Continuous
100
AcDbCircle
 10
125.2284565376083
 20
126.0292352326547
 30
0.0
 40
1.0
100
AcDbArc
 50
269.999996999999
 51
320.1944290000008
  0
ARC
  5
A88
330
18
100
AcDbEntity
  8
1
  6
Continuous
100
AcDbCircle
 10
129.224627301673
 20
123.4292382326547
 30
0.0
 40
0.8
100
AcDbArc
 50
90.0
 51
115.9564018415714
  0
LINE
  5
A89
330
18
100
AcDbEntity
  8
4
  6
CENTER
 48
0.07
100
AcDbLine
 10
123.3968295376083
 20
124.5290352326546
 30
0.0
 11
123.3968295376083
 21
128.2194902326547
 31
0.0
  0
LINE
  5
A8A
330
18
100
AcDbEntity
  8
1
  6
Continuous
100
AcDbLine
 10
130.6968255376083
 20
126.2292312326546
 30
0.0
 11
130.6968255376083
 21
127.0292352326547
 31
0.0
  0
LINE
  5
A8B
330
18
100
AcDbEntity
  8
1
  6
Continuous
100
AcDbLine
 10
139.3968375376083
 20
124.7292382326547
 30
0.0
 11
136.3968375376083
 21
124.7292382326547
 31
0.0
  0
LINE
  5
A8C
330
18
100
AcDbEntity
  8
1
  6
Continuous
100
AcDbLine
 10
139.3968375376083
 20
125.529235232657
 30
0.0
 11
136.3968375376083
 21
125.529235232657
 31
0.0
  0
ARC
  5
A8D
330
18
100
AcDbEntity
  8
1
  6
Continuous
100
AcDbCircle
 10
139.3968375376083
 20
125.029235232657
 30
0.0
 40
0.5
100
AcDbArc
 50
0.0
 51
90.0000029999993
  0
ARC
  5
A8E
330
18
100
AcDbEntity
  8
1
  6
Continuous
100
AcDbCircle
 10
136.3968375376083
 20
125.029235232657
 30
0.0
 40
0.5
100
AcDbArc
 50
89.99999900000025
 51
179.9999949999994
  0
ARC
  5
A8F
330
18
100
AcDbEntity
  8
1
  6
Continuous
100
AcDbCircle
 10
136.3968375376083
 20
124.2292382326547
 30
0.0
 40
0.5
100
AcDbArc
 50
89.99999900000025
 51
179.9999949999994
  0
ARC
  5
A90
330
18
100
AcDbEntity
  8
1
  6
Continuous
100
AcDbCircle
 10
139.3968375376083
 20
124.2292382326547
 30
0.0
 40
0.5
100
AcDbArc
 50
0.0
 51
90.0000029999993
  0
ARC
  5
A91
330
18
100
AcDbEntity
  8
1
  6
Continuous
100
AcDbCircle
 10
135.4968285376083
 20
123.4292282326547
 30
0.0
 40
1.6
100
AcDbArc
 50
89.99999900000025
 51
149.999586502686
  0
LINE
  5
A92
330
18
100
AcDbEntity
  8
1
  6
Continuous
100
AcDbLine
 10
113.1968255376083
 20
113.3292352326547
 30
0.0
 11
113.1968255376083
 21
125.0292352326547
 31
0.0
  0
LINE
  5
A93
330
18
100
AcDbEntity
  8
1
  6
Continuous
100
AcDbLine
 10
122.6968255376083
 20
113.3292382326546
 30
0.0
 11
122.6968255376083
 21
125.0292352326547
 31
0.0
  0
LINE
  5
A94
330
18
100
AcDbEntity
  8
4
  6
CENTER
 48
0.2
100
AcDbLine
 10
122.5968345376083
 20
110.0292352326547
 30
0.0
 11
122.5968345376083
 21
129.0292352326547
 31
0.0
  0
ARC
  5
A95
330
18
100
AcDbEntity
  8
1
  6
Continuous
100
AcDbCircle
 10
113.9968255376083
 20
113.3292352326547
 30
0.0
 40
0.8
100
AcDbArc
 50
180.0
 51
270.0
  0
LINE
  5
A96
330
18
100
AcDbEntity
  8
1
  6
Continuous
100
AcDbLine
 10
113.9968255376083
 20
125.8292352326547
 30
0.0
 11
115.9968285376083
 21
125.8292352326547
 31
0.0
  0
ARC
  5
A97
330
18
100
AcDbEntity
  8
1
  6
Continuous
100
AcDbCircle
 10
113.9968255376083
 20
125.0292352326547
 30
0.0
 40
0.8
100
AcDbArc
 50
90.0
 51
180.0
  0
LINE
  5
A98
330
18
100
AcDbEntity
  8
1
  6
Continuous
100
AcDbLine
 10
115.9968285376083
 20
125.0292352326547
 30
0.0
 11
115.9968285376083
 21
127.0292352326547
 31
0.0
  0
LINE
  5
A99
330
18
100
AcDbEntity
  8
1
  6
Continuous
100
AcDbLine
 10
229.2318905376083
 20
67.56184080684675
 30
0.0
 11
238.5319145376083
 21
67.56184080684675
 31
0.0
  0
LINE
  5
A9A
330
18
100
AcDbEntity
  8
1
  6
Continuous
100
AcDbLine
 10
229.7319025376083
 20
66.31184080684675
 30
0.0
 11
238.0319025376083
 21
66.31184080684675
 31
0.0
  0
LINE
  5
A9B
330
18
100
AcDbEntity
  8
1
  6
Continuous
100
AcDbLine
 10
229.2318905376083
 20
67.13868480684674
 30
0.0
 11
238.5319145376083
 21
67.13868480684674
 31
0.0
  0
LINE
  5
A9C
330
18
100
AcDbEntity
  8
4
  6
CENTER
 48
0.2
100
AcDbLine
 10
226.1319145376083
 20
61.81184080684674
 30
0.0
 11
242.6319145376083
 21
61.81184080684674
 31
0.0
  0
LINE
  5
A9D
330
18
100
AcDbEntity
  8
1
  6
Continuous
100
AcDbLine
 10
229.7319025376083
 20
57.31184080684674
 30
0.0
 11
238.8319145376083
 21
57.31184080684674
 31
0.0
  0
LINE
  5
A9E
330
18
100
AcDbEntity
  8
4
  6
CENTER
 48
0.2
100
AcDbLine
 10
244.1319145376082
 20
57.31184080684674
 30
0.0
 11
225.1319145376082
 21
57.31184080684674
 31
0.0
  0
LINE
  5
A9F
330
18
100
AcDbEntity
  8
1
  6
Continuous
100
AcDbLine
 10
230.0319025376083
 20
54.21184280684677
 30
0.0
 11
230.5319145376083
 21
54.21184280684677
 31
0.0
  0
LINE
  5
AA0
330
18
100
AcDbEntity
  8
1
  6
Continuous
100
AcDbLine
 10
230.0319025376083
 20
51.41183980684677
 30
0.0
 11
230.5319145376083
 21
51.41183980684677
 31
0.0
  0
LINE
  5
AA1
330
18
100
AcDbEntity
  8
4
  6
CENTER
 48
0.2
100
AcDbLine
 10
226.1319145376083
 20
52.81184080684674
 30
0.0
 11
242.6319145376083
 21
52.81184080684674
 31
0.0
  0
LINE
  5
AA2
330
18
100
AcDbEntity
  8
1
  6
Continuous
100
AcDbLine
 10
230.0319025376083
 20
47.06184080684674
 30
0.0
 11
239.3319265376082
 21
47.06184080684674
 31
0.0
  0
LINE
  5
AA3
330
18
100
AcDbEntity
  8
1
  6
Continuous
100
AcDbLine
 10
230.0319025376083
 20
47.48499780684674
 30
0.0
 11
239.3319265376082
 21
47.48499780684674
 31
0.0
  0
LINE
  5
AA4
330
18
100
AcDbEntity
  8
1
  6
Continuous
100
AcDbLine
 10
240.1319145376082
 20
47.86184380684675
 30
0.0
 11
240.1319145376082
 21
64.81184080684674
 31
0.0
  0
LINE
  5
AA5
330
18
100
AcDbEntity
  8
1
  6
Continuous
100
AcDbLine
 10
242.1319145376082
 20
41.31184080684675
 30
0.0
 11
242.1319145376082
 21
73.31184080684675
 31
0.0
  0
LINE
  5
AA6
330
18
100
AcDbEntity
  8
1
  6
Continuous
100
AcDbLine
 10
241.3319265376082
 20
41.31184080684675
 30
0.0
 11
241.3319265376082
 21
73.31184080684675
 31
0.0
  0
LINE
  5
AA7
330
18
100
AcDbEntity
  8
1
  6
Continuous
100
AcDbLine
 10
238.0319025376083
 20
57.31184080684674
 30
0.0
 11
238.0319025376083
 21
66.31184080684675
 31
0.0
  0
LINE
  5
AA8
330
18
100
AcDbEntity
  8
1
  6
Continuous
100
AcDbLine
 10
238.5319145376083
 20
57.31184080684674
 30
0.0
 11
238.5319145376083
 21
67.13868480684674
 31
0.0
  0
LINE
  5
AA9
330
18
100
AcDbEntity
  8
1
  6
Continuous
100
AcDbLine
 10
239.3319265376082
 20
47.48499780684674
 30
0.0
 11
239.3319025376082
 21
66.76183780683185
 31
0.0
  0
LINE
  5
AAA
330
18
100
AcDbEntity
  8
4
  6
CENTER
 48
0.2
100
AcDbLine
 10
234.6319145376082
 20
46.36184380684676
 30
0.0
 11
234.6319145376082
 21
68.26183780684676
 31
0.0
  0
LINE
  5
AAB
330
18
100
AcDbEntity
  8
1
  6
Continuous
100
AcDbLine
 10
240.3118155376083
 20
49.66191580684675
 30
0.0
 11
241.3319265376082
 21
48.81183380684679
 31
0.0
  0
LINE
  5
AAC
330
18
100
AcDbEntity
  8
1
  6
Continuous
100
AcDbLine
 10
230.5319145376083
 20
48.31184080684675
 30
0.0
 11
230.5319145376083
 21
57.31184080684674
 31
0.0
  0
LINE
  5
AAD
330
18
100
AcDbEntity
  8
1
  6
Continuous
100
AcDbLine
 10
238.8319145376083
 20
48.31184080684675
 30
0.0
 11
238.8319145376083
 21
57.31184080684674
 31
0.0
  0
LINE
  5
AAE
330
18
100
AcDbEntity
  8
1
  6
Continuous
100
AcDbLine
 10
241.3319265376082
 20
41.31184080684675
 30
0.0
 11
242.1319145376082
 21
41.31184080684675
 31
0.0
  0
ARC
  5
AAF
330
18
100
AcDbEntity
  8
1
  6
Continuous
100
AcDbCircle
 10
239.3319265376082
 20
47.86184380684672
 30
0.0
 40
0.8
100
AcDbArc
 50
269.999996999999
 51
0.0
  0
LINE
  5
AB0
330
18
100
AcDbEntity
  8
4
  6
CENTER
 48
0.07
100
AcDbLine
 10
239.3319265376082
 20
45.31184080684674
 30
0.0
 11
244.1319145376082
 21
45.31184080684674
 31
0.0
  0
LINE
  5
AB1
330
18
100
AcDbEntity
  8
1
  6
Continuous
100
AcDbLine
 10
230.5319145376083
 20
48.31184080684675
 30
0.0
 11
238.8319145376083
 21
48.31184080684675
 31
0.0
  0
LINE
  5
AB2
330
18
100
AcDbEntity
  8
1
  6
Continuous
100
AcDbLine
 10
240.1319145376082
 20
55.81184080684675
 30
0.0
 11
239.3319265376082
 21
55.81184080684675
 31
0.0
  0
LINE
  5
AB3
330
18
100
AcDbEntity
  8
1
  6
Continuous
100
AcDbLine
 10
239.3319265376082
 20
54.21184280684677
 30
0.0
 11
238.8319145376083
 21
54.21184280684677
 31
0.0
  0
ARC
  5
AB4
330
18
100
AcDbEntity
  8
1
  6
Continuous
100
AcDbCircle
 10
240.1319145376082
 20
54.31184080684674
 30
0.0
 40
0.5
100
AcDbArc
 50
0.0
 51
90.0000029999993
  0
LINE
  5
AB5
330
18
100
AcDbEntity
  8
1
  6
Continuous
100
AcDbLine
 10
239.3319265376082
 20
51.41183980684677
 30
0.0
 11
238.8319145376083
 21
51.41183980684677
 31
0.0
  0
ARC
  5
AB6
330
18
100
AcDbEntity
  8
1
  6
Continuous
100
AcDbCircle
 10
240.6319145376083
 20
50.04602580684675
 30
0.0
 40
0.5
100
AcDbArc
 50
179.9999910000003
 51
230.1944229999997
  0
ARC
  5
AB7
330
18
100
AcDbEntity
  8
1
  6
Continuous
100
AcDbCircle
 10
240.1319145376082
 20
51.31184080684672
 30
0.0
 40
0.5
100
AcDbArc
 50
269.999996999999
 51
0.0
  0
LINE
  5
AB8
330
18
100
AcDbEntity
  8
1
  6
Continuous
100
AcDbLine
 10
240.6319145376083
 20
51.31184080684676
 30
0.0
 11
240.6319145376083
 21
54.31184080684674
 31
0.0
  0
LINE
  5
AB9
330
18
100
AcDbEntity
  8
1
  6
Continuous
100
AcDbLine
 10
239.3319059614021
 20
64.01184080684672
 30
0.0
 11
240.1319145376082
 21
64.01184080684672
 31
0.0
  0
LINE
  5
ABA
330
18
100
AcDbEntity
  8
1
  6
Continuous
100
AcDbLine
 10
238.5319145376083
 20
63.21184280684676
 30
0.0
 11
238.0319025376083
 21
63.21184280684676
 31
0.0
  0
ARC
  5
ABB
330
18
100
AcDbEntity
  8
1
  6
Continuous
100
AcDbCircle
 10
239.3319025376082
 20
63.31184080684672
 30
0.0
 40
0.5
100
AcDbArc
 50
0.0
 51
90.0000029999993
  0
LINE
  5
ABC
330
18
100
AcDbEntity
  8
1
  6
Continuous
100
AcDbLine
 10
238.5319145376083
 20
60.41183980684677
 30
0.0
 11
238.0319025376083
 21
60.41183980684677
 31
0.0
  0
ARC
  5
ABD
330
18
100
AcDbEntity
  8
1
  6
Continuous
100
AcDbCircle
 10
239.3319025376082
 20
60.31184080684672
 30
0.0
 40
0.5
100
AcDbArc
 50
269.999996999999
 51
0.0
  0
LINE
  5
ABE
330
18
100
AcDbEntity
  8
1
  6
Continuous
100
AcDbLine
 10
239.8293962561616
 20
60.26184080684676
 30
0.0
 11
240.1319145376082
 21
60.26184080684676
 31
0.0
  0
LINE
  5
ABF
330
18
100
AcDbEntity
  8
1
  6
Continuous
100
AcDbLine
 10
239.3319124354924
 20
58.81184080684668
 30
0.0
 11
238.5319145376084
 21
58.81184080684668
 31
0.0
  0
LINE
  5
AC0
330
18
100
AcDbEntity
  8
1
  6
Continuous
100
AcDbLine
 10
239.8319025376082
 20
60.31184080684674
 30
0.0
 11
239.8319025376082
 21
63.31184080684675
 31
0.0
  0
ARC
  5
AC1
330
18
100
AcDbEntity
  8
1
  6
Continuous
100
AcDbCircle
 10
238.5319145376083
 20
66.76183780684673
 30
0.0
 40
0.8
100
AcDbArc
 50
0.0
 51
90.0000029999993
  0
LINE
  5
AC2
330
18
100
AcDbEntity
  8
4
  6
CENTER
 48
0.07
100
AcDbLine
 10
239.3319265376082
 20
69.31184080684674
 30
0.0
 11
244.1319145376082
 21
69.31184080684674
 31
0.0
  0
ARC
  5
AC3
330
18
100
AcDbEntity
  8
1
  6
Continuous
100
AcDbCircle
 10
240.6319145376083
 20
64.57764880684671
 30
0.0
 40
0.5
100
AcDbArc
 50
129.8055729999999
 51
180.0000050000005
  0
LINE
  5
AC4
330
18
100
AcDbEntity
  8
1
  6
Continuous
100
AcDbLine
 10
239.3319049653884
 20
64.81184080684669
 30
0.0
 11
240.1319145376084
 21
64.81184080684669
 31
0.0
  0
LINE
  5
AC5
330
18
100
AcDbEntity
  8
1
  6
Continuous
100
AcDbLine
 10
240.3118155376083
 20
64.96177380684676
 30
0.0
 11
241.3318965376083
 21
65.8118408068468
 31
0.0
  0
LINE
  5
AC6
330
18
100
AcDbEntity
  8
1
  6
Continuous
100
AcDbLine
 10
241.3319265376082
 20
73.31184080684675
 30
0.0
 11
242.1319145376082
 21
73.31184080684675
 31
0.0
  0
LINE
  5
AC8
330
18
100
AcDbEntity
  8
1
  6
Continuous
100
AcDbLine
 10
227.6319145376082
 20
62.8946925741058
 30
0.0
 11
227.6319145376082
 21
64.81184080684674
 31
0.0
  0
LINE
  5
AC9
330
18
100
AcDbEntity
  8
1
  6
Continuous
100
AcDbLine
 10
229.7319025376083
 20
57.31184080684674
 30
0.0
 11
229.7319025376083
 21
66.31184080684675
 31
0.0
  0
LINE
  5
ACA
330
18
100
AcDbEntity
  8
1
  6
Continuous
100
AcDbLine
 10
228.4319025376083
 20
53.89462982131631
 30
0.0
 11
228.4319025376082
 21
66.76183780684674
 31
0.0
  0
LINE
  5
ACB
330
18
100
AcDbEntity
  8
1
  6
Continuous
100
AcDbLine
 10
229.2319145376083
 20
47.86184380684675
 30
0.0
 11
229.2318905376083
 21
67.13868480684674
 31
0.0
  0
LINE
  5
ACC
330
18
100
AcDbEntity
  8
1
  6
Continuous
100
AcDbLine
 10
230.0319025376083
 20
47.48499780684674
 30
0.0
 11
230.0319025376083
 21
57.31184080684674
 31
0.0
  0
ARC
  5
ACD
330
18
100
AcDbEntity
  8
1
  6
Continuous
100
AcDbCircle
 10
230.0319025376083
 20
47.86184380684672
 30
0.0
 40
0.8
100
AcDbArc
 50
179.9999910000003
 51
270.0000009999997
  0
ARC
  5
ACE
330
18
100
AcDbEntity
  8
1
  6
Continuous
100
AcDbCircle
 10
228.3519205376082
 20
57.31184080684672
 30
0.0
 40
2.220006
100
AcDbArc
 50
108.9251279999997
 51
251.0748820000001
  0
LINE
  5
ACF
330
18
100
AcDbEntity
  8
1
  6
Continuous
100
AcDbLine
 10
227.6319145376084
 20
49.81184080684674
 30
0.0
 11
227.6319145376084
 21
60.72898903958765
 31
0.0
  0
LINE
  5
AD0
330
18
100
AcDbEntity
  8
1
  6
Continuous
100
AcDbLine
 10
229.2319145376084
 20
55.81184080684675
 30
0.0
 11
230.0319025376083
 21
55.81184080684675
 31
0.0
  0
LINE
  5
AD1
330
18
100
AcDbEntity
  8
1
  6
Continuous
100
AcDbLine
 10
228.6581738346499
 20
54.36184080684675
 30
0.0
 11
228.4319025376083
 21
54.36184080684675
 31
0.0
  0
LINE
  5
AD2
330
18
100
AcDbEntity
  8
1
  6
Continuous
100
AcDbLine
 10
229.2319145376083
 20
49.81184080684674
 30
0.0
 11
227.6319145376082
 21
49.81184080684674
 31
0.0
  0
LINE
  5
AD3
330
18
100
AcDbEntity
  8
1
  6
Continuous
100
AcDbLine
 10
229.1778612593077
 20
50.61184380684675
 30
0.0
 11
228.4319025376082
 21
50.61184380684675
 31
0.0
  0
LINE
  5
AD4
330
18
100
AcDbEntity
  8
1
  6
Continuous
100
AcDbLine
 10
228.4319025376083
 20
49.81184080684674
 30
0.0
 11
228.4319025376083
 21
51.7290517923772
 31
0.0
  0
ARC
  5
AD5
330
18
100
AcDbEntity
  8
1
  6
Continuous
100
AcDbCircle
 10
231.2631645376082
 20
52.81184080684674
 30
0.0
 40
3.03125
100
AcDbArc
 50
132.0750260000003
 51
227.9249839999997
  0
LINE
  5
AD6
330
18
100
AcDbEntity
  8
1
  6
Continuous
100
AcDbLine
 10
229.2318905376083
 20
63.21184280684676
 30
0.0
 11
229.7319025376083
 21
63.21184280684676
 31
0.0
  0
LINE
  5
AD7
330
18
100
AcDbEntity
  8
1
  6
Continuous
100
AcDbLine
 10
229.2318905376083
 20
60.41183980684677
 30
0.0
 11
229.7319025376083
 21
60.41183980684677
 31
0.0
  0
LINE
  5
AD8
330
18
100
AcDbEntity
  8
1
  6
Continuous
100
AcDbLine
 10
228.4319025376082
 20
58.81184080684676
 30
0.0
 11
229.2318905376083
 21
58.81184080684676
 31
0.0
  0
ARC
  5
AD9
330
18
100
AcDbEntity
  8
1
  6
Continuous
100
AcDbCircle
 10
230.4631525376082
 20
61.81184080684674
 30
0.0
 40
3.03125
100
AcDbArc
 50
132.0750260000003
 51
227.9249839999997
  0
ARC
  5
ADA
330
18
100
AcDbEntity
  8
1
  6
Continuous
100
AcDbCircle
 10
229.2318905376083
 20
66.76183780684673
 30
0.0
 40
0.8
100
AcDbArc
 50
90.0000029999993
 51
180.0000050000005
  0
LINE
  5
ADB
330
18
100
AcDbEntity
  8
1
  6
Continuous
100
AcDbLine
 10
228.4319025376083
 20
64.81184080684672
 30
0.0
 11
227.6319145376084
 21
64.81184080684672
 31
0.0
  0
LINE
  5
AE0
330
18
100
AcDbEntity
  8
1
  6
Continuous
100
AcDbLine
 10
130.7103295376085
 20
60.24843980684675
 30
0.0
 11
137.2240838328669
 21
58.8882467083514
 31
0.0
  0
LINE
  5
AE1
330
18
100
AcDbEntity
  8
4
  6
CENTER
 48
0.2
100
AcDbLine
 10
12.6671475376083
 20
57.31184080684674
 30
0.0
 11
31.6671475376083
 21
57.31184080684674
 31
0.0
  0
LINE
  5
AE4
330
18
100
AcDbEntity
  8
4
  6
CENTER
 48
0.07
100
AcDbLine
 10
17.46713553760829
 20
45.31184080684674
 30
0.0
 11
12.6671475376083
 21
45.31184080684674
 31
0.0
  0
LINE
  5
AE5
330
18
100
AcDbEntity
  8
4
  6
CENTER
 48
0.07
100
AcDbLine
 10
17.46713553760829
 20
69.31184080684674
 30
0.0
 11
12.6671475376083
 21
69.31184080684674
 31
0.0
  0
LINE
  5
AE8
330
18
100
AcDbEntity
  8
1
  6
Continuous
100
AcDbLine
 10
29.16714753760819
 20
49.81184080684674
 30
0.0
 11
29.16714753760819
 21
64.81184080684672
 31
0.0
  0
ARC
  5
AE9
330
18
100
AcDbEntity
  8
1
  6
Continuous
100
AcDbCircle
 10
28.44714153760829
 20
57.31184080684672
 30
0.0
 40
2.220006
100
AcDbArc
 50
288.9251179999998
 51
71.07487200000031
  0
LINE
  5
AEB
330
18
100
AcDbEntity
  8
1
  6
Continuous
100
AcDbLine
 10
27.56714753760828
 20
47.86184380684675
 30
0.0
 11
27.56714996538824
 21
49.81184080684675
 31
0.0
  0
LINE
  5
AEC
330
18
100
AcDbEntity
  8
1
  6
Continuous
100
AcDbLine
 10
28.3671595376083
 20
64.81184080684672
 30
0.0
 11
28.36715953760832
 21
66.76183780684674
 31
0.0
  0
LINE
  5
AF1
330
18
100
AcDbEntity
  8
4
  6
CENTER
 48
0.2
100
AcDbLine
 10
22.1671475376083
 20
46.36184380684674
 30
0.0
 11
22.1671475376083
 21
68.26183780684674
 31
0.0
  0
LINE
  5
AF4
330
18
100
AcDbEntity
  8
1
  6
Continuous
100
AcDbLine
 10
26.7671595376083
 20
47.06184080684674
 30
0.0
 11
17.46713553760829
 21
47.06184080684674
 31
0.0
  0
LINE
  5
AFB
330
18
100
AcDbEntity
  8
1
  6
Continuous
100
AcDbLine
 10
15.86714753760831
 20
49.81184080684674
 30
0.0
 11
29.1671475376083
 21
49.81184080684674
 31
0.0
  0
ARC
  5
AFC
330
18
100
AcDbEntity
  8
1
  6
Continuous
100
AcDbCircle
 10
26.7671595376083
 20
47.86184380684672
 30
0.0
 40
0.8
100
AcDbArc
 50
269.9999990000002
 51
0.00000899999961
  0
ARC
  5
B02
330
18
100
AcDbEntity
  8
1
  6
Continuous
100
AcDbCircle
 10
17.46713553760829
 20
47.86184380684672
 30
0.0
 40
0.8
100
AcDbArc
 50
180.0
 51
270.0000030000009
  0
LINE
  5
B08
330
18
100
AcDbEntity
  8
1
  6
Continuous
100
AcDbLine
 10
27.56717153760828
 20
67.56184080684675
 30
0.0
 11
18.26714753760827
 21
67.56184080684675
 31
0.0
  0
ARC
  5
B0A
330
18
100
AcDbEntity
  8
1
  6
Continuous
100
AcDbCircle
 10
26.33590953760832
 20
61.81184080684674
 30
0.0
 40
3.03125
100
AcDbArc
 50
339.0698558260037
 51
20.93014417399619
  0
LINE
  5
B0E
330
18
100
AcDbEntity
  8
1
  6
Continuous
100
AcDbLine
 10
15.86714753760831
 20
64.81184080684672
 30
0.0
 11
29.16714753760819
 21
64.81184080684672
 31
0.0
  0
ARC
  5
B0F
330
18
100
AcDbEntity
  8
1
  6
Continuous
100
AcDbCircle
 10
27.56717153760828
 20
66.76183780684673
 30
0.0
 40
0.8
100
AcDbArc
 50
359.9999949999995
 51
89.99999700000069
  0
ARC
  5
B1B
330
18
100
AcDbEntity
  8
1
  6
Continuous
100
AcDbCircle
 10
18.26714753760827
 20
66.76183780684673
 30
0.0
 40
0.8
100
AcDbArc
 50
89.99999700000069
 51
180.0
  0
LINE
  5
B1F
330
18
100
AcDbEntity
  8
1
  6
Continuous
100
AcDbLine
 10
15.46713553760829
 20
65.81184633343676
 30
0.0
 11
15.46713553760829
 21
73.31184080684675
 31
0.0
  0
LINE
  5
B20
330
18
100
AcDbEntity
  8
1
  6
Continuous
100
AcDbLine
 10
14.6671475376083
 20
41.31184080684675
 30
0.0
 11
14.6671475376083
 21
73.31184080684675
 31
0.0
  0
LINE
  5
B21
330
18
100
AcDbEntity
  8
1
  6
Continuous
100
AcDbLine
 10
15.46713553760829
 20
41.31184080684675
 30
0.0
 11
14.6671475376083
 21
41.31184080684675
 31
0.0
  0
LINE
  5
B22
330
18
100
AcDbEntity
  8
1
  6
Continuous
100
AcDbLine
 10
15.46713553760829
 20
73.31184080684675
 30
0.0
 11
14.6671475376083
 21
73.31184080684675
 31
0.0
  0
LINE
  5
B73
330
18
100
AcDbEntity
  8
1
  6
Continuous
100
AcDbLine
 10
16.14372053760831
 20
65.56256580684674
 30
0.0
 11
15.46713553760829
 21
65.81184633343676
 31
0.0
  0
ARC
  5
B74
330
18
100
AcDbEntity
  8
1
  6
Continuous
100
AcDbCircle
 10
15.86714753760831
 20
64.81189480684673
 30
0.0
 40
0.8
100
AcDbArc
 50
0.0
 51
69.774426
  0
ARC
  5
B75
330
18
100
AcDbEntity
  8
1
  6
Continuous
100
AcDbCircle
 10
15.46715053760832
 20
65.81184080684675
 30
0.0
 40
0.8
100
AcDbArc
 50
179.9999909999999
 51
249.774417
  0
LINE
  5
B76
330
18
100
AcDbEntity
  8
1
  6
Continuous
100
AcDbLine
 10
15.8673005376083
 20
64.81184080684674
 30
0.0
 11
15.1905735376083
 21
65.06116980684672
 31
0.0
  0
LINE
  5
B77
330
18
100
AcDbEntity
  8
1
  6
Continuous
100
AcDbLine
 10
16.14372053760831
 20
49.06111580684674
 30
0.0
 11
15.46713553760829
 21
48.81183528025673
 31
0.0
  0
LINE
  5
B78
330
18
100
AcDbEntity
  8
1
  6
Continuous
100
AcDbLine
 10
15.8673005376083
 20
49.81184080684674
 30
0.0
 11
15.1905735376083
 21
49.56251180684676
 31
0.0
  0
ARC
  5
B79
330
18
100
AcDbEntity
  8
1
  6
Continuous
100
AcDbCircle
 10
15.46715053760832
 20
48.81184080684676
 30
0.0
 40
0.8
100
AcDbArc
 50
110.225583
 51
180.000009
  0
ARC
  5
B7A
330
18
100
AcDbEntity
  8
1
  6
Continuous
100
AcDbCircle
 10
15.86714753760831
 20
49.81178680684675
 30
0.0
 40
0.8
100
AcDbArc
 50
290.225574
 51
0.0
  0
LINE
  5
B7B
330
18
100
AcDbEntity
  8
1
  6
Continuous
100
AcDbLine
 10
15.46713553760829
 20
48.81183528025673
 30
0.0
 11
15.46713553760829
 21
41.31184080684675
 31
0.0
  0
LINE
  5
B7C
330
18
100
AcDbEntity
  8
1
  6
Continuous
100
AcDbLine
 10
15.86714753760831
 20
49.81178443649799
 30
0.0
 11
15.86714753760831
 21
64.8118971771955
 31
0.0
  0
LINE
  5
B7D
330
18
100
AcDbEntity
  8
1
  6
Continuous
100
AcDbLine
 10
17.46715710982821
 20
64.81184080684672
 30
0.0
 11
17.46715953760828
 21
66.76183780683185
 31
0.0
  0
LINE
  5
B7E
330
18
100
AcDbEntity
  8
1
  6
Continuous
100
AcDbLine
 10
16.66713553760829
 20
47.86184380684672
 30
0.0
 11
16.66713553760829
 21
49.81184080684672
 31
0.0
  0
LINE
  5
B7F
330
18
100
AcDbEntity
  8
1
  6
Continuous
100
AcDbLine
 10
15.3671475376083
 20
58.56184080684676
 30
0.0
 11
15.3671475376083
 21
56.06184080684676
 31
0.0
  0
ARC
  5
B80
330
18
100
AcDbEntity
  8
1
  6
Continuous
100
AcDbCircle
 10
15.86714753760832
 20
56.06184080684676
 30
0.0
 40
0.5
100
AcDbArc
 50
179.9999909999999
 51
270.000001
  0
ARC
  5
B81
330
18
100
AcDbEntity
  8
1
  6
Continuous
100
AcDbCircle
 10
15.86714753760832
 20
58.56184080684676
 30
0.0
 40
0.5
100
AcDbArc
 50
90.00000300000001
 51
180.000005
  0
LINE
  5
BAA
330
18
100
AcDbEntity
  8
1
  6
Continuous
100
AcDbLine
 10
25.63395953760831
 20
53.55635280684674
 30
0.0
 11
25.26535953760831
 21
56.06184080684674
 31
0.0
  0
LINE
  5
BAB
330
18
100
AcDbEntity
  8
1
  6
Continuous
100
AcDbLine
 10
25.66714753760831
 20
53.81184080684676
 30
0.0
 11
25.66714753760831
 21
60.81184080684675
 31
0.0
  0
LINE
  5
BAC
330
18
100
AcDbEntity
  8
1
  6
Continuous
100
AcDbLine
 10
18.6671475376083
 20
53.81184080684676
 30
0.0
 11
18.6671475376083
 21
60.81184080684675
 31
0.0
  0
ARC
  5
BAD
330
18
100
AcDbEntity
  8
1
  6
Continuous
100
AcDbCircle
 10
24.66714753760831
 20
53.81184080684676
 30
0.0
 40
1.0
100
AcDbArc
 50
269.9999969999999
 51
0.0
  0
LINE
  5
BAE
330
18
100
AcDbEntity
  8
1
  6
Continuous
100
AcDbLine
 10
18.7532565376083
 20
53.40588880684673
 30
0.0
 11
25.58104153760831
 21
53.40588880684673
 31
0.0
  0
ARC
  5
BAF
330
18
100
AcDbEntity
  8
1
  6
Continuous
100
AcDbCircle
 10
19.6671475376083
 20
53.81184080684676
 30
0.0
 40
1.0
100
AcDbArc
 50
179.9999909999999
 51
270.000001
  0
LINE
  5
BB0
330
18
100
AcDbEntity
  8
1
  6
Continuous
100
AcDbLine
 10
24.66714753760831
 20
52.81184080684676
 30
0.0
 11
19.6671475376083
 21
52.81184080684676
 31
0.0
  0
ARC
  5
BB1
330
18
100
AcDbEntity
  8
1
  6
Continuous
100
AcDbCircle
 10
24.35948753760831
 20
59.31184080684674
 30
0.0
 40
0.4
100
AcDbArc
 50
345.0
 51
165.0
  0
LINE
  5
BB2
330
18
100
AcDbEntity
  8
1
  6
Continuous
100
AcDbLine
 10
23.67406053760832
 20
55.20831380684676
 30
0.0
 11
24.80133753760831
 21
59.41536880684674
 31
0.0
  0
LINE
  5
BB3
330
18
100
AcDbEntity
  8
1
  6
Continuous
100
AcDbLine
 10
24.50228153760832
 20
55.20831380684676
 30
0.0
 11
25.57407853760831
 21
59.20831380684674
 31
0.0
  0
LINE
  5
BB4
330
18
100
AcDbEntity
  8
1
  6
Continuous
100
AcDbLine
 10
18.7532565376083
 20
61.21779380684674
 30
0.0
 11
25.58104153760831
 21
61.21779380684674
 31
0.0
  0
ARC
  5
BB5
330
18
100
AcDbEntity
  8
1
  6
Continuous
100
AcDbCircle
 10
24.66714753760831
 20
60.81184080684675
 30
0.0
 40
1.0
100
AcDbArc
 50
0.0
 51
90.00000300000001
  0
LINE
  5
BB6
330
18
100
AcDbEntity
  8
1
  6
Continuous
100
AcDbLine
 10
25.66714753760831
 20
56.06184080684674
 30
0.0
 11
24.73098353760832
 21
56.06184080684674
 31
0.0
  0
LINE
  5
BB7
330
18
100
AcDbEntity
  8
1
  6
Continuous
100
AcDbLine
 10
24.66714753760831
 20
61.81184080684674
 30
0.0
 11
19.6671475376083
 21
61.81184080684674
 31
0.0
  0
ARC
  5
BB8
330
18
100
AcDbEntity
  8
1
  6
Continuous
100
AcDbCircle
 10
19.6671475376083
 20
60.81184080684675
 30
0.0
 40
1.0
100
AcDbArc
 50
90.00000300000001
 51
180.000005
  0
LINE
  5
BB9
330
18
100
AcDbEntity
  8
1
  6
Continuous
100
AcDbLine
 10
22.84583953760832
 20
55.20831380684676
 30
0.0
 11
23.97311653760831
 21
59.41536880684674
 31
0.0
  0
LINE
  5
BBA
330
18
100
AcDbEntity
  8
1
  6
Continuous
100
AcDbLine
 10
22.01761853760832
 20
55.20831380684676
 30
0.0
 11
23.14489653760831
 21
59.41536880684674
 31
0.0
  0
LINE
  5
BBB
330
18
100
AcDbEntity
  8
1
  6
Continuous
100
AcDbLine
 10
21.18939853760829
 20
55.20831380684676
 30
0.0
 11
22.31667553760832
 21
59.41536880684674
 31
0.0
  0
LINE
  5
BBC
330
18
100
AcDbEntity
  8
1
  6
Continuous
100
AcDbLine
 10
20.36117753760831
 20
55.20831380684676
 30
0.0
 11
21.48845453760832
 21
59.41536880684674
 31
0.0
  0
LINE
  5
BBD
330
18
100
AcDbEntity
  8
1
  6
Continuous
100
AcDbLine
 10
18.76021553760831
 20
55.41536880684674
 30
0.0
 11
19.8320125376083
 21
59.41536880684674
 31
0.0
  0
LINE
  5
BBE
330
18
100
AcDbEntity
  8
1
  6
Continuous
100
AcDbLine
 10
19.5329565376083
 20
55.20831380684676
 30
0.0
 11
20.66023353760832
 21
59.41536880684674
 31
0.0
  0
ARC
  5
BBF
330
18
100
AcDbEntity
  8
1
  6
Continuous
100
AcDbCircle
 10
23.28769053760832
 20
55.31184080684674
 30
0.0
 40
0.4
100
AcDbArc
 50
165.0
 51
345.0
  0
ARC
  5
BC0
330
18
100
AcDbEntity
  8
1
  6
Continuous
100
AcDbCircle
 10
21.63124853760832
 20
55.31184080684674
 30
0.0
 40
0.4
100
AcDbArc
 50
165.0
 51
345.0
  0
ARC
  5
BC1
330
18
100
AcDbEntity
  8
1
  6
Continuous
100
AcDbCircle
 10
20.80302753760832
 20
55.31184080684674
 30
0.0
 40
0.4
100
AcDbArc
 50
165.0
 51
345.0
  0
ARC
  5
BC2
330
18
100
AcDbEntity
  8
1
  6
Continuous
100
AcDbCircle
 10
22.45946953760831
 20
55.31184080684674
 30
0.0
 40
0.4
100
AcDbArc
 50
165.0
 51
345.0
  0
ARC
  5
BC3
330
18
100
AcDbEntity
  8
1
  6
Continuous
100
AcDbCircle
 10
24.11591153760832
 20
55.31184080684674
 30
0.0
 40
0.4
100
AcDbArc
 50
165.0
 51
345.0
  0
LINE
  5
BC4
330
18
100
AcDbEntity
  8
1
  6
Continuous
100
AcDbLine
 10
18.93343753760832
 20
56.06184080684674
 30
0.0
 11
18.6671475376083
 21
56.06184080684674
 31
0.0
  0
LINE
  5
BC5
330
18
100
AcDbEntity
  8
1
  6
Continuous
100
AcDbLine
 10
18.6671475376083
 20
55.82466580684675
 30
0.0
 11
18.75081453760832
 21
55.25383280684672
 31
0.0
  0
ARC
  5
BC6
330
18
100
AcDbEntity
  8
1
  6
Continuous
100
AcDbCircle
 10
19.14658553760831
 20
55.31184080684674
 30
0.0
 40
0.4
100
AcDbArc
 50
165.0
 51
345.0
  0
ARC
  5
BC7
330
18
100
AcDbEntity
  8
1
  6
Continuous
100
AcDbCircle
 10
19.9748065376083
 20
55.31184080684674
 30
0.0
 40
0.4
100
AcDbArc
 50
165.0
 51
345.0
  0
ARC
  5
BC8
330
18
100
AcDbEntity
  8
1
  6
Continuous
100
AcDbCircle
 10
22.70304553760831
 20
59.31184080684674
 30
0.0
 40
0.4
100
AcDbArc
 50
345.0
 51
165.0
  0
ARC
  5
BC9
330
18
100
AcDbEntity
  8
1
  6
Continuous
100
AcDbCircle
 10
21.04660353760832
 20
59.31184080684674
 30
0.0
 40
0.4
100
AcDbArc
 50
345.0
 51
165.0
  0
ARC
  5
BCA
330
18
100
AcDbEntity
  8
1
  6
Continuous
100
AcDbCircle
 10
21.87482453760832
 20
59.31184080684674
 30
0.0
 40
0.4
100
AcDbArc
 50
345.0
 51
165.0
  0
ARC
  5
BCB
330
18
100
AcDbEntity
  8
1
  6
Continuous
100
AcDbCircle
 10
23.53126653760831
 20
59.31184080684674
 30
0.0
 40
0.4
100
AcDbArc
 50
345.0
 51
165.0
  0
LINE
  5
BCC
330
18
100
AcDbEntity
  8
1
  6
Continuous
100
AcDbLine
 10
19.6033105376083
 20
58.56184080684674
 30
0.0
 11
18.6671475376083
 21
58.56184080684674
 31
0.0
  0
ARC
  5
BCD
330
18
100
AcDbEntity
  8
1
  6
Continuous
100
AcDbCircle
 10
20.21838253760832
 20
59.31184080684674
 30
0.0
 40
0.4
100
AcDbArc
 50
345.0
 51
165.0
  0
LINE
  5
BCE
330
18
100
AcDbEntity
  8
1
  6
Continuous
100
AcDbLine
 10
18.70117353760831
 20
61.07048180684675
 30
0.0
 11
19.0713475376083
 21
58.56184080684674
 31
0.0
  0
LINE
  5
BCF
330
18
100
AcDbEntity
  8
1
  6
Continuous
100
AcDbLine
 10
25.66714753760831
 20
58.56184080684674
 30
0.0
 11
25.4008565376083
 21
58.56184080684674
 31
0.0
  0
LINE
  5
BD0
330
18
100
AcDbEntity
  8
1
  6
Continuous
100
AcDbLine
 10
25.58347953760831
 20
59.36984980684672
 30
0.0
 11
25.66714753760831
 21
58.79901680684675
 31
0.0
  0
ARC
  5
BD1
330
18
100
AcDbEntity
  8
1
  6
Continuous
100
AcDbCircle
 10
25.18770853760831
 20
59.31184080684674
 30
0.0
 40
0.4
100
AcDbArc
 50
345.0
 51
165.0
  0
LINE
  5
BD2
330
18
100
AcDbEntity
  8
4
  6
CENTER
 48
0.2
100
AcDbLine
 10
356.7643155376083
 20
69.31184080684674
 30
0.0
 11
344.9643125376084
 21
69.31184080684674
 31
0.0
  0
LINE
  5
BD3
330
18
100
AcDbEntity
  8
4
  6
CENTER
 48
0.2
100
AcDbLine
 10
356.7643155376083
 20
45.31184080684674
 30
0.0
 11
344.9643125376084
 21
45.31184080684674
 31
0.0
  0
LINE
  5
BD4
330
18
100
AcDbEntity
  8
4
  6
CENTER
 48
0.2
100
AcDbLine
 10
363.0643185376083
 20
57.31184080684674
 30
0.0
 11
332.2070201480956
 21
57.31184080684674
 31
0.0
  0
ARC
  5
BD5
330
18
100
AcDbEntity
  8
1
  6
Continuous
100
AcDbCircle
 10
355.7643155376084
 20
70.81184080684675
 30
0.0
 40
2.5
100
AcDbArc
 50
359.9999949999995
 51
89.99999700000069
  0
LINE
  5
BD6
330
18
100
AcDbEntity
  8
1
  6
Continuous
100
AcDbLine
 10
361.0643185376084
 20
64.81184080684674
 30
0.0
 11
351.0643185376084
 21
64.81184080684674
 31
0.0
  0
LINE
  5
BD9
330
18
100
AcDbEntity
  8
1
  6
Continuous
100
AcDbLine
 10
361.0643185376084
 20
49.81184080684674
 30
0.0
 11
351.0643185376084
 21
49.81184080684674
 31
0.0
  0
ARC
  5
BDA
330
18
100
AcDbEntity
  8
1
  6
Continuous
100
AcDbCircle
 10
355.7643155376084
 20
43.81184080684675
 30
0.0
 40
2.5
100
AcDbArc
 50
269.9999990000002
 51
0.00000899999961
  0
LINE
  5
BDB
330
18
100
AcDbEntity
  8
1
  6
Continuous
100
AcDbLine
 10
361.0643185376084
 20
49.81184080684674
 30
0.0
 11
361.0643185376084
 21
64.81184080684674
 31
0.0
  0
LINE
  5
BDC
330
18
100
AcDbEntity
  8
1
  6
Continuous
100
AcDbLine
 10
358.2643155376084
 20
43.81184080684675
 30
0.0
 11
358.2643155376084
 21
49.81184080684674
 31
0.0
  0
LINE
  5
BDD
330
18
100
AcDbEntity
  8
1
  6
Continuous
100
AcDbLine
 10
358.2643155376084
 20
64.81184080684674
 30
0.0
 11
358.2643155376084
 21
70.81184080684675
 31
0.0
  0
LINE
  5
BDF
330
18
100
AcDbEntity
  8
4
  6
CENTER
 48
0.1
100
AcDbLine
 10
351.6643095376084
 20
53.21184280684676
 30
0.0
 11
351.6643095376084
 21
61.41183980684677
 31
0.0
  0
LINE
  5
BE0
330
18
100
AcDbEntity
  8
4
  6
CENTER
 48
0.2
100
AcDbLine
 10
336.3643065376084
 20
68.31184080684675
 30
0.0
 11
336.3643065376084
 21
46.31184080684675
 31
0.0
  0
LINE
  5
BE1
330
18
100
AcDbEntity
  8
1
  6
Continuous
100
AcDbLine
 10
349.0643185376084
 20
51.81184080684674
 30
0.0
 11
349.0643185376084
 21
62.81184080684674
 31
0.0
  0
ARC
  5
BE4
330
18
100
AcDbEntity
  8
1
  6
Continuous
100
AcDbCircle
 10
336.3643065376084
 20
52.81184080684674
 30
0.0
 40
3.0
100
AcDbArc
 50
77.04114800000059
 51
240.1841089999996
  0
ARC
  5
BE5
330
18
100
AcDbEntity
  8
1
  6
Continuous
100
AcDbCircle
 10
336.3643065376084
 20
52.81184080684674
 30
0.0
 40
4.5
100
AcDbArc
 50
30.0100840000002
 51
288.3737919999999
  0
LINE
  5
BE6
330
18
100
AcDbEntity
  8
4
  6
CENTER
 48
0.2
100
AcDbLine
 10
330.8643065376084
 20
52.81184080684674
 30
0.0
 11
341.8643065376083
 21
52.81184080684674
 31
0.0
  0
LINE
  5
BE7
330
18
100
AcDbEntity
  8
1
  6
Continuous
100
AcDbLine
 10
343.5643185376083
 20
49.76954326838515
 30
0.0
 11
340.3643065376083
 21
47.06184080684677
 31
0.0
  0
LINE
  5
BE8
330
18
100
AcDbEntity
  8
1
  6
Continuous
100
AcDbLine
 10
343.5508145376082
 20
54.37524180684675
 30
0.0
 11
336.9778165376082
 21
55.74844080684674
 31
0.0
  0
ARC
  5
BE9
330
18
100
AcDbEntity
  8
1
  6
Continuous
100
AcDbCircle
 10
351.0643185376084
 20
51.81184080684674
 30
0.0
 40
2.0
100
AcDbArc
 50
180.0
 51
270.0000030000009
  0
ARC
  5
BEB
330
18
100
AcDbEntity
  8
1
  6
Continuous
100
AcDbCircle
 10
348.7143125376083
 20
45.31184080684674
 30
0.0
 40
1.75
100
AcDbArc
 50
89.99999700000069
 51
270.0000030000009
  0
LINE
  5
BEC
330
18
100
AcDbEntity
  8
1
  6
Continuous
100
AcDbLine
 10
353.0143155376084
 20
47.06184080684674
 30
0.0
 11
348.7143125376083
 21
47.06184080684674
 31
0.0
  0
LINE
  5
BED
330
18
100
AcDbEntity
  8
1
  6
Continuous
100
AcDbLine
 10
355.7643155376084
 20
41.31184080684675
 30
0.0
 11
346.0643185376083
 21
41.31184080684675
 31
0.0
  0
LINE
  5
BEE
330
18
100
AcDbEntity
  8
1
  6
Continuous
100
AcDbLine
 10
353.0143155376084
 20
43.56184080684674
 30
0.0
 11
348.7143125376083
 21
43.56184080684674
 31
0.0
  0
LINE
  5
BEF
330
18
100
AcDbEntity
  8
4
  6
CENTER
 48
0.1
100
AcDbLine
 10
350.8643145376083
 20
48.61184080684676
 30
0.0
 11
350.8643145376083
 21
41.69344380684676
 31
0.0
  0
ARC
  5
BF0
330
18
100
AcDbEntity
  8
1
  6
Continuous
100
AcDbCircle
 10
353.0143155376084
 20
45.31184080684674
 30
0.0
 40
1.75
100
AcDbArc
 50
269.9999990000002
 51
89.99999700000069
  0
ARC
  5
BF1
330
18
100
AcDbEntity
  8
1
  6
Continuous
100
AcDbCircle
 10
344.1643095376083
 20
57.31184080684674
 30
0.0
 40
3.0
100
AcDbArc
 50
258.1997650000003
 51
258.463216398908
  0
LINE
  5
BF3
330
18
100
AcDbEntity
  8
1
  6
Continuous
100
AcDbLine
 10
343.5643185376083
 20
43.81184080684675
 30
0.0
 11
343.5643185376083
 21
70.81184080684675
 31
0.0
  0
ARC
  5
BF5
330
18
100
AcDbEntity
  8
1
  6
Continuous
100
AcDbCircle
 10
346.0643185376083
 20
43.81184080684675
 30
0.0
 40
2.5
100
AcDbArc
 50
180.0
 51
270.0000030000009
  0
CIRCLE
  5
BF6
330
18
100
AcDbEntity
  8
1
  6
Continuous
100
AcDbCircle
 10
336.3643065376084
 20
52.81184080684674
 30
0.0
 40
2.25
  0
LINE
  5
BF7
330
18
100
AcDbEntity
  8
1
  6
Continuous
100
AcDbLine
 10
340.3643065376083
 20
47.06184080684677
 30
0.0
 11
334.8726685376082
 21
50.20896680684678
 31
0.0
  0
LINE
  5
BF8
330
18
100
AcDbEntity
  8
1
  6
Continuous
100
AcDbLine
 10
343.5508145376082
 20
60.24843980684675
 30
0.0
 11
337.0370602423497
 21
58.8882467083514
 31
0.0
  0
LINE
  5
BF9
330
18
100
AcDbEntity
  8
4
  6
CENTER
 48
0.2
100
AcDbLine
 10
330.8643065376084
 20
61.81184080684674
 30
0.0
 11
341.8643065376083
 21
61.81184080684674
 31
0.0
  0
LINE
  5
BFA
330
18
100
AcDbEntity
  8
1
  6
Continuous
100
AcDbLine
 10
343.5643185376083
 20
64.8541383453083
 30
0.0
 11
340.3643065376082
 21
67.56184080684675
 31
0.0
  0
ARC
  5
BFB
330
18
100
AcDbEntity
  8
1
  6
Continuous
100
AcDbCircle
 10
348.7143125376083
 20
69.31184080684674
 30
0.0
 40
1.75
100
AcDbArc
 50
89.99999700000069
 51
270.0000030000009
  0
LINE
  5
BFD
330
18
100
AcDbEntity
  8
1
  6
Continuous
100
AcDbLine
 10
353.0143155376084
 20
67.56184080684675
 30
0.0
 11
348.7143125376083
 21
67.56184080684675
 31
0.0
  0
LINE
  5
BFE
330
18
100
AcDbEntity
  8
1
  6
Continuous
100
AcDbLine
 10
355.7643155376084
 20
73.31184080684675
 30
0.0
 11
346.0643185376083
 21
73.31184080684675
 31
0.0
  0
LINE
  5
BFF
330
18
100
AcDbEntity
  8
1
  6
Continuous
100
AcDbLine
 10
353.0143155376084
 20
71.06184080684673
 30
0.0
 11
348.7143125376083
 21
71.06184080684673
 31
0.0
  0
ARC
  5
C00
330
18
100
AcDbEntity
  8
1
  6
Continuous
100
AcDbCircle
 10
351.0643185376084
 20
62.81184080684674
 30
0.0
 40
2.0
100
AcDbArc
 50
89.99999700000069
 51
180.0
  0
LINE
  5
C01
330
18
100
AcDbEntity
  8
4
  6
CENTER
 48
0.1
100
AcDbLine
 10
350.8643145376083
 20
66.01184080684676
 30
0.0
 11
350.8643145376083
 21
72.93023780684676
 31
0.0
  0
ARC
  5
C02
330
18
100
AcDbEntity
  8
1
  6
Continuous
100
AcDbCircle
 10
353.0143155376084
 20
69.31184080684674
 30
0.0
 40
1.75
100
AcDbArc
 50
269.9999990000002
 51
89.99999700000069
  0
ARC
  5
C03
330
18
100
AcDbEntity
  8
1
  6
Continuous
100
AcDbCircle
 10
344.1643095376083
 20
57.31184080684674
 30
0.0
 40
3.0
100
AcDbArc
 50
101.536783601092
 51
101.8002349999996
  0
ARC
  5
C07
330
18
100
AcDbEntity
  8
1
  6
Continuous
100
AcDbCircle
 10
346.0643185376083
 20
70.81184080684675
 30
0.0
 40
2.5
100
AcDbArc
 50
89.99999700000069
 51
180.0
  0
ARC
  5
C0A
330
18
100
AcDbEntity
  8
1
  6
Continuous
100
AcDbCircle
 10
336.3643065376084
 20
61.81184080684674
 30
0.0
 40
4.5
100
AcDbArc
 50
71.62620800000005
 51
329.9951917223378
  0
ARC
  5
C0B
330
18
100
AcDbEntity
  8
1
  6
Continuous
100
AcDbCircle
 10
336.3643065376084
 20
61.81184080684674
 30
0.0
 40
3.0
100
AcDbArc
 50
119.8158910000002
 51
282.9588519999994
  0
CIRCLE
  5
C0C
330
18
100
AcDbEntity
  8
1
  6
Continuous
100
AcDbCircle
 10
336.3643065376084
 20
61.81184080684674
 30
0.0
 40
2.25
  0
LINE
  5
C0D
330
18
100
AcDbEntity
  8
1
  6
Continuous
100
AcDbLine
 10
340.3643215376084
 20
67.5618408068468
 30
0.0
 11
334.8726685376083
 21
64.41471580684676
 31
0.0
  0
CIRCLE
  5
143A
330
18
100
AcDbEntity
  8
1
  6
Continuous
100
AcDbCircle
 10
351.6643095376084
 20
57.31184080684674
 30
0.0
 40
1.75
  0
ENDSEC
  0
SECTION
  2
OBJECTS
  0
DICTIONARY
  5
C
330
0
100
AcDbDictionary
281
     1
  3
ACAD_CIP_PREVIOUS_PRODUCT_INFO
350
149C
  3
ACAD_COLOR
350
147F
  3
ACAD_DETAILVIEWSTYLE
350
1498
  3
ACAD_GROUP
350
D
  3
ACAD_LAYOUT
350
94
  3
ACAD_MATERIAL
350
144D
  3
ACAD_MLEADERSTYLE
350
1494
  3
ACAD_MLINESTYLE
350
1B
  3
ACAD_PLOTSETTINGS
350
95
  3
ACAD_PLOTSTYLENAME
350
144B
  3
ACAD_SCALELIST
350
1482
  3
ACAD_SECTIONVIEWSTYLE
350
1496
  3
ACAD_TABLESTYLE
350
1480
  3
ACAD_VISUALSTYLE
350
1466
  3
ACDB_RECOMPOSE_DATA
350
14BA
  3
AcDbVariableDictionary
350
14AD
  3
CONTENTDICTIONARY
350
3D
  3
DWGPROPS
350
14BB
  0
DICTIONARY
  5
149D
330
E
100
AcDbDictionary
280
     1
281
     1
  3
ADSK_XREC_LAYER_RECONCILED
360
149E
  0
DICTIONARY
  5
149F
330
4E
100
AcDbDictionary
280
     1
281
     1
  3
ADSK_XREC_LAYER_RECONCILED
360
14A0
  0
DICTIONARY
  5
14A1
330
4F
100
AcDbDictionary
280
     1
281
     1
  3
ADSK_XREC_LAYER_RECONCILED
360
14A2
  0
DICTIONARY
  5
14A3
330
50
100
AcDbDictionary
280
     1
281
     1
  3
ADSK_XREC_LAYER_RECONCILED
360
14A4
  0
DICTIONARY
  5
14A5
330
51
100
AcDbDictionary
280
     1
281
     1
  3
ADSK_XREC_LAYER_RECONCILED
360
14A6
  0
DICTIONARY
  5
14A7
330
52
100
AcDbDictionary
280
     1
281
     1
  3
ADSK_XREC_LAYER_RECONCILED
360
14A8
  0
DICTIONARY
  5
14A9
330
53
100
AcDbDictionary
280
     1
281
     1
  3
ADSK_XREC_LAYER_RECONCILED
360
14AA
  0
DICTIONARY
  5
14AB
330
54
100
AcDbDictionary
280
     1
281
     1
  3
ADSK_XREC_LAYER_RECONCILED
360
14AC
  0
DICTIONARY
  5
1446
330
18
100
AcDbDictionary
281
     1
  3
ACAD_LAYOUTSELFREF
350
1447
  0
DICTIONARY
  5
1444
330
15
100
AcDbDictionary
281
     1
  3
ACAD_LAYOUTSELFREF
350
1445
  0
XRECORD
  5
149C
102
{ACAD_REACTORS
330
C
102
}
330
C
100
AcDbXrecord
280
     1
300
ACDLT
300
2014
300
ACDLT_F_S
  0
DICTIONARY
  5
147F
102
{ACAD_REACTORS
330
C
102
}
330
C
100
AcDbDictionary
281
     1
  0
DICTIONARY
  5
1498
102
{ACAD_REACTORS
330
C
102
}
330
C
100
AcDbDictionary
281
     1
  3
Imperial24
350
1499
  0
DICTIONARY
  5
D
102
{ACAD_REACTORS
330
C
102
}
330
C
100
AcDbDictionary
281
     1
  0
DICTIONARY
  5
94
102
{ACAD_REACTORS
330
C
102
}
330
C
100
AcDbDictionary
281
     1
  3
Model
350
149A
  3
レイアウト1
350
149B
  0
DICTIONARY
  5
144D
102
{ACAD_REACTORS
330
C
102
}
330
C
100
AcDbDictionary
281
     1
  3
ByBlock
350
1456
  3
ByLayer
350
144E
  3
Global
350
145E
  0
DICTIONARY
  5
1494
102
{ACAD_REACTORS
330
C
102
}
330
C
100
AcDbDictionary
281
     1
  3
Standard
350
1495
  0
DICTIONARY
  5
1B
102
{ACAD_REACTORS
330
C
102
}
330
C
100
AcDbDictionary
281
     1
  3
STANDARD
350
1C
  0
DICTIONARY
  5
95
102
{ACAD_REACTORS
330
C
102
}
330
C
100
AcDbDictionary
281
     1
  0
ACDBDICTIONARYWDFLT
  5
144B
102
{ACAD_REACTORS
330
C
102
}
330
C
100
AcDbDictionary
281
     1
  3
Normal
350
144C
100
AcDbDictionaryWithDefault
340
144C
  0
DICTIONARY
  5
1482
102
{ACAD_REACTORS
330
C
102
}
330
C
100
AcDbDictionary
281
     1
  3
A0
350
1483
  3
A1
350
1484
  3
A2
350
1485
  3
A3
350
1486
  3
A4
350
1487
  3
A5
350
1488
  3
A6
350
1489
  3
A7
350
148A
  3
A8
350
148B
  3
A9
350
148C
  3
B0
350
148D
  3
B1
350
148E
  3
B2
350
148F
  3
B3
350
1490
  3
B4
350
1491
  3
B5
350
1492
  3
B6
350
1493
  0
DICTIONARY
  5
1496
102
{ACAD_REACTORS
330
C
102
}
330
C
100
AcDbDictionary
281
     1
  3
Imperial24
350
1497
  0
DICTIONARY
  5
1480
102
{ACAD_REACTORS
330
C
102
}
330
C
100
AcDbDictionary
281
     1
  3
Standard
350
1481
  0
DICTIONARY
  5
1466
102
{ACAD_REACTORS
330
C
102
}
330
C
100
AcDbDictionary
281
     1
  3
2dWireframe
350
146C
  3
Basic
350
146B
  3
Brighten
350
1472
  3
ColorChange
350
1476
  3
Conceptual
350
146F
  3
Dim
350
1471
  3
EdgeColorOff
350
147E
  3
Facepattern
350
1475
  3
Flat
350
1467
  3
FlatWithEdges
350
1468
  3
Gouraud
350
1469
  3
GouraudWithEdges
350
146A
  3
Hidden
350
146E
  3
JitterOff
350
147C
  3
Linepattern
350
1474
  3
OverhangOff
350
147D
  3
Realistic
350
1470
  3
Shaded
350
147B
  3
Shaded with edges
350
147A
  3
Shades of Gray
350
1477
  3
Sketchy
350
1478
  3
Thicken
350
1473
  3
Wireframe
350
146D
  3
X-Ray
350
1479
  0
XRECORD
  5
14BA
102
{ACAD_REACTORS
330
C
102
}
330
C
100
AcDbXrecord
280
     1
 90
        1
330
1481
  0
DICTIONARY
  5
14AD
102
{ACAD_REACTORS
330
C
102
}
330
C
100
AcDbDictionary
281
     1
  3
CANNOSCALE
350
14B2
  3
CMLEADERSTYLE
350
14AF
  3
CTABLESTYLE
350
14AE
  3
CVIEWDETAILSTYLE
350
14B0
  3
CVIEWSECTIONSTYLE
350
14B1
  3
DIMASSOC
350
14B5
  3
INDEXCTL
350
14B4
  3
SORTENTS
350
14B3
  3
XCLIPFRAME
350
14B6
  0
DICTIONARY
  5
3D
102
{ACAD_REACTORS
330
C
102
}
330
C
100
AcDbDictionary
281
     1
  0
XRECORD
  5
14BB
102
{ACAD_REACTORS
330
C
102
}
330
C
100
AcDbXrecord
280
     1
  1
DWGPROPS COOKIE
  2

  3

  4

  6

  7

  8
Yoshitsune
  9

300
=
301
=
302
=
303
=
304
=
305
=
306
=
307
=
308
=
309
=
 40
0.2034704166666667
 41
2454882.671383461
 42
2457192.603033635
  1

 90
        0
  0
XRECORD
  5
149E
102
{ACAD_REACTORS
330
149D
102
}
330
149D
100
AcDbXrecord
280
     1
290
     1
  0
XRECORD
  5
14A0
102
{ACAD_REACTORS
330
149F
102
}
330
149F
100
AcDbXrecord
280
     1
290
     1
  0
XRECORD
  5
14A2
102
{ACAD_REACTORS
330
14A1
102
}
330
14A1
100
AcDbXrecord
280
     1
290
     1
  0
XRECORD
  5
14A4
102
{ACAD_REACTORS
330
14A3
102
}
330
14A3
100
AcDbXrecord
280
     1
290
     1
  0
XRECORD
  5
14A6
102
{ACAD_REACTORS
330
14A5
102
}
330
14A5
100
AcDbXrecord
280
     1
290
     1
  0
XRECORD
  5
14A8
102
{ACAD_REACTORS
330
14A7
102
}
330
14A7
100
AcDbXrecord
280
     1
290
     1
  0
XRECORD
  5
14AA
102
{ACAD_REACTORS
330
14A9
102
}
330
14A9
100
AcDbXrecord
280
     1
290
     1
  0
XRECORD
  5
14AC
102
{ACAD_REACTORS
330
14AB
102
}
330
14AB
100
AcDbXrecord
280
     1
290
     1
  0
XRECORD
  5
1447
102
{ACAD_REACTORS
330
1446
102
}
330
1446
100
AcDbXrecord
280
     1
340
18
  0
XRECORD
  5
1445
102
{ACAD_REACTORS
330
1444
102
}
330
1444
100
AcDbXrecord
280
     1
340
15
  0
ACDBDETAILVIEWSTYLE
  5
1499
102
{ACAD_XDICTIONARY
360
14F3
102
}
102
{ACAD_REACTORS
330
1498
102
}
330
1498
100
AcDbModelDocViewStyle
 70
     0
  3
Imperial24
290
     0
100
AcDbDetailViewStyle
 70
     0
 71
     0
 90
        3
 71
     1
340
F
 40
0.24
340
0
 40
0.24
300

 40
0.36
280
     3
 71
     2
340
14
 90
       25
 71
     3
340
F
 40
0.24
 90
        1
 40
0.75
 90
        1
300
%<\AcVar ViewType \f "%tc1">% %<\AcVar ViewDetailId>%\PSCALE %<\AcVar ViewScale \f "%sn">%
 71
     4
340
14
 90
       25
340
14
 90
       25
280
     0
  0
LAYOUT
  5
149A
102
{ACAD_XDICTIONARY
360
14F5
102
}
102
{ACAD_REACTORS
330
94
102
}
330
94
100
AcDbPlotSettings
  1

  2
Canon LBP9100C
  4

  6

 40
0.0
 41
0.0
 42
0.0
 43
0.0
 44
0.0
 45
0.0
 46
0.0
 47
0.0
 48
0.0
 49
0.0
140
0.0
141
0.0
142
1.0
143
1.0
 70
  1712
 72
     0
 73
     0
 74
     0
  7

 75
     0
147
1.0
148
0.0
149
0.0
100
AcDbLayout
  1
Model
 70
     1
 71
     0
 10
0.0
 20
0.0
 11
12.0
 21
9.0
 12
0.0
 22
0.0
 32
0.0
 14
0.0
 24
0.0
 34
0.0
 15
0.0
 25
0.0
 35
0.0
146
0.0
 13
0.0
 23
0.0
 33
0.0
 16
1.0
 26
0.0
 36
0.0
 17
0.0
 27
1.0
 37
0.0
 76
     0
330
18
331
1443
  0
LAYOUT
  5
149B
102
{ACAD_XDICTIONARY
360
14F7
102
}
102
{ACAD_REACTORS
330
94
102
}
330
94
100
AcDbPlotSettings
  1

  2
Canon LBP9100C
  4

  6

 40
0.0
 41
0.0
 42
0.0
 43
0.0
 44
0.0
 45
0.0
 46
0.0
 47
0.0
 48
0.0
 49
0.0
140
0.0
141
0.0
142
1.0
143
1.0
 70
   688
 72
     0
 73
     0
 74
     5
  7

 75
    16
147
1.0
148
0.0
149
0.0
100
AcDbLayout
  1
レイアウト1
 70
     1
 71
     1
 10
0.0
 20
0.0
 11
420.0
 21
297.0
 12
0.0
 22
0.0
 32
0.0
 14
1.000000000000000E+20
 24
1.000000000000000E+20
 34
1.000000000000000E+20
 15
-1.000000000000000E+20
 25
-1.000000000000000E+20
 35
-1.000000000000000E+20
146
0.0
 13
0.0
 23
0.0
 33
0.0
 16
1.0
 26
0.0
 36
0.0
 17
0.0
 27
1.0
 37
0.0
 76
     0
330
15
  0
MATERIAL
  5
1456
102
{ACAD_XDICTIONARY
360
1457
102
}
102
{ACAD_REACTORS
330
144D
102
}
330
144D
100
AcDbMaterial
  1
ByBlock
 72
     0
 43
0.0208333333333333
 43
0.0
 43
0.0
 43
0.0
 43
0.0
 43
0.0208333333333333
 43
0.0
 43
0.0
 43
0.0
 43
0.0
 43
1.0
 43
0.0
 43
0.0
 43
0.0
 43
0.0
 43
1.0
 77
     0
 47
0.0208333333333333
 47
0.0
 47
0.0
 47
0.0
 47
0.0
 47
0.0208333333333333
 47
0.0
 47
0.0
 47
0.0
 47
0.0
 47
1.0
 47
0.0
 47
0.0
 47
0.0
 47
0.0
 47
1.0
171
     0
 49
0.0208333333333333
 49
0.0
 49
0.0
 49
0.0
 49
0.0
 49
0.0208333333333333
 49
0.0
 49
0.0
 49
0.0
 49
0.0
 49
1.0
 49
0.0
 49
0.0
 49
0.0
 49
0.0
 49
1.0
175
     0
142
0.0208333333333333
142
0.0
142
0.0
142
0.0
142
0.0
142
0.0208333333333333
142
0.0
142
0.0
142
0.0
142
0.0
142
1.0
142
0.0
142
0.0
142
0.0
142
0.0
142
1.0
179
     0
144
0.0208333333333333
144
0.0
144
0.0
144
0.0
144
0.0
144
0.0208333333333333
144
0.0
144
0.0
144
0.0
144
0.0
144
1.0
144
0.0
144
0.0
144
0.0
144
0.0
144
1.0
147
0.0208333333333333
147
0.0
147
0.0
147
0.0
147
0.0
147
0.0208333333333333
147
0.0
147
0.0
147
0.0
147
0.0
147
1.0
147
0.0
147
0.0
147
0.0
147
0.0
147
1.0
  0
MATERIAL
  5
144E
102
{ACAD_XDICTIONARY
360
144F
102
}
102
{ACAD_REACTORS
330
144D
102
}
330
144D
100
AcDbMaterial
  1
ByLayer
 72
     0
 43
0.0208333333333333
 43
0.0
 43
0.0
 43
0.0
 43
0.0
 43
0.0208333333333333
 43
0.0
 43
0.0
 43
0.0
 43
0.0
 43
1.0
 43
0.0
 43
0.0
 43
0.0
 43
0.0
 43
1.0
 77
     0
 47
0.0208333333333333
 47
0.0
 47
0.0
 47
0.0
 47
0.0
 47
0.0208333333333333
 47
0.0
 47
0.0
 47
0.0
 47
0.0
 47
1.0
 47
0.0
 47
0.0
 47
0.0
 47
0.0
 47
1.0
171
     0
 49
0.0208333333333333
 49
0.0
 49
0.0
 49
0.0
 49
0.0
 49
0.0208333333333333
 49
0.0
 49
0.0
 49
0.0
 49
0.0
 49
1.0
 49
0.0
 49
0.0
 49
0.0
 49
0.0
 49
1.0
175
     0
142
0.0208333333333333
142
0.0
142
0.0
142
0.0
142
0.0
142
0.0208333333333333
142
0.0
142
0.0
142
0.0
142
0.0
142
1.0
142
0.0
142
0.0
142
0.0
142
0.0
142
1.0
179
     0
144
0.0208333333333333
144
0.0
144
0.0
144
0.0
144
0.0
144
0.0208333333333333
144
0.0
144
0.0
144
0.0
144
0.0
144
1.0
144
0.0
144
0.0
144
0.0
144
0.0
144
1.0
147
0.0208333333333333
147
0.0
147
0.0
147
0.0
147
0.0
147
0.0208333333333333
147
0.0
147
0.0
147
0.0
147
0.0
147
1.0
147
0.0
147
0.0
147
0.0
147
0.0
147
1.0
  0
MATERIAL
  5
145E
102
{ACAD_XDICTIONARY
360
145F
102
}
102
{ACAD_REACTORS
330
144D
102
}
330
144D
100
AcDbMaterial
  1
Global
 72
     0
 43
0.0208333333333333
 43
0.0
 43
0.0
 43
0.0
 43
0.0
 43
0.0208333333333333
 43
0.0
 43
0.0
 43
0.0
 43
0.0
 43
1.0
 43
0.0
 43
0.0
 43
0.0
 43
0.0
 43
1.0
 77
     0
 47
0.0208333333333333
 47
0.0
 47
0.0
 47
0.0
 47
0.0
 47
0.0208333333333333
 47
0.0
 47
0.0
 47
0.0
 47
0.0
 47
1.0
 47
0.0
 47
0.0
 47
0.0
 47
0.0
 47
1.0
171
     0
 49
0.0208333333333333
 49
0.0
 49
0.0
 49
0.0
 49
0.0
 49
0.0208333333333333
 49
0.0
 49
0.0
 49
0.0
 49
0.0
 49
1.0
 49
0.0
 49
0.0
 49
0.0
 49
0.0
 49
1.0
175
     0
142
0.0208333333333333
142
0.0
142
0.0
142
0.0
142
0.0
142
0.0208333333333333
142
0.0
142
0.0
142
0.0
142
0.0
142
1.0
142
0.0
142
0.0
142
0.0
142
0.0
142
1.0
179
     0
144
0.0208333333333333
144
0.0
144
0.0
144
0.0
144
0.0
144
0.0208333333333333
144
0.0
144
0.0
144
0.0
144
0.0
144
1.0
144
0.0
144
0.0
144
0.0
144
0.0
144
1.0
147
0.0208333333333333
147
0.0
147
0.0
147
0.0
147
0.0
147
0.0208333333333333
147
0.0
147
0.0
147
0.0
147
0.0
147
1.0
147
0.0
147
0.0
147
0.0
147
0.0
147
1.0
  0
MLEADERSTYLE
  5
1495
102
{ACAD_REACTORS
330
1494
102
}
330
1494
100
AcDbMLeaderStyle
170
     2
171
     1
172
     0
 90
        2
 40
0.0
 41
0.0
173
     1
 91
-1056964608
340
12
 92
       -2
290
     1
 42
0.09
291
     1
 43
0.36
  3
Standard
 44
0.18
300

342
F
174
     1
178
     6
175
     1
176
     0
 93
-1056964608
 45
0.18
292
     0
297
     0
 46
0.18
 94
-1056964608
 47
1.0
 49
1.0
140
1.0
293
     1
141
0.0
294
     1
177
     0
142
1.0
295
     0
296
     0
143
0.125
1001
ACAD_MLEADERVER
1070
     2
  0
MLINESTYLE
  5
1C
102
{ACAD_REACTORS
330
1B
102
}
330
1B
100
AcDbMlineStyle
  2
STANDARD
 70
     0
  3

 62
   256
 51
90.0
 52
90.0
 71
     2
 49
0.5
 62
   256
  6
BYLAYER
 49
-0.5
 62
   256
  6
BYLAYER
  0
ACDBPLACEHOLDER
  5
144C
102
{ACAD_REACTORS
330
144B
102
}
330
144B
  0
SCALE
  5
1483
102
{ACAD_REACTORS
330
1482
102
}
330
1482
100
AcDbScale
 70
     0
300
1:1
140
1.0
141
1.0
290
     1
  0
SCALE
  5
1484
102
{ACAD_REACTORS
330
1482
102
}
330
1482
100
AcDbScale
 70
     0
300
1/128" = 1'-0"
140
0.0078125
141
12.0
290
     0
  0
SCALE
  5
1485
102
{ACAD_REACTORS
330
1482
102
}
330
1482
100
AcDbScale
 70
     0
300
1/64" = 1'-0"
140
0.015625
141
12.0
290
     0
  0
SCALE
  5
1486
102
{ACAD_REACTORS
330
1482
102
}
330
1482
100
AcDbScale
 70
     0
300
1/32" = 1'-0"
140
0.03125
141
12.0
290
     0
  0
SCALE
  5
1487
102
{ACAD_REACTORS
330
1482
102
}
330
1482
100
AcDbScale
 70
     0
300
1/16" = 1'-0"
140
0.0625
141
12.0
290
     0
  0
SCALE
  5
1488
102
{ACAD_REACTORS
330
1482
102
}
330
1482
100
AcDbScale
 70
     0
300
3/32" = 1'-0"
140
0.09375
141
12.0
290
     0
  0
SCALE
  5
1489
102
{ACAD_REACTORS
330
1482
102
}
330
1482
100
AcDbScale
 70
     0
300
1/8" = 1'-0"
140
0.125
141
12.0
290
     0
  0
SCALE
  5
148A
102
{ACAD_REACTORS
330
1482
102
}
330
1482
100
AcDbScale
 70
     0
300
3/16" = 1'-0"
140
0.1875
141
12.0
290
     0
  0
SCALE
  5
148B
102
{ACAD_REACTORS
330
1482
102
}
330
1482
100
AcDbScale
 70
     0
300
1/4" = 1'-0"
140
0.25
141
12.0
290
     0
  0
SCALE
  5
148C
102
{ACAD_REACTORS
330
1482
102
}
330
1482
100
AcDbScale
 70
     0
300
3/8" = 1'-0"
140
0.375
141
12.0
290
     0
  0
SCALE
  5
148D
102
{ACAD_REACTORS
330
1482
102
}
330
1482
100
AcDbScale
 70
     0
300
1/2" = 1'-0"
140
0.5
141
12.0
290
     0
  0
SCALE
  5
148E
102
{ACAD_REACTORS
330
1482
102
}
330
1482
100
AcDbScale
 70
     0
300
3/4" = 1'-0"
140
0.75
141
12.0
290
     0
  0
SCALE
  5
148F
102
{ACAD_REACTORS
330
1482
102
}
330
1482
100
AcDbScale
 70
     0
300
1" = 1'-0"
140
1.0
141
12.0
290
     0
  0
SCALE
  5
1490
102
{ACAD_REACTORS
330
1482
102
}
330
1482
100
AcDbScale
 70
     0
300
1-1/2" = 1'-0"
140
1.5
141
12.0
290
     0
  0
SCALE
  5
1491
102
{ACAD_REACTORS
330
1482
102
}
330
1482
100
AcDbScale
 70
     0
300
3" = 1'-0"
140
3.0
141
12.0
290
     0
  0
SCALE
  5
1492
102
{ACAD_REACTORS
330
1482
102
}
330
1482
100
AcDbScale
 70
     0
300
6" = 1'-0"
140
6.0
141
12.0
290
     0
  0
SCALE
  5
1493
102
{ACAD_REACTORS
330
1482
102
}
330
1482
100
AcDbScale
 70
     0
300
1'-0" = 1'-0"
140
12.0
141
12.0
290
     0
  0
ACDBSECTIONVIEWSTYLE
  5
1497
102
{ACAD_XDICTIONARY
360
14F1
102
}
102
{ACAD_REACTORS
330
1496
102
}
330
1496
100
AcDbModelDocViewStyle
 70
     0
  3
Imperial24
290
     0
100
AcDbSectionViewStyle
 70
     0
 71
     0
 90
       78
 71
     1
340
F
 40
0.24
340
0
340
0
 40
0.24
300
I, O, Q, S, X, Z
 40
0.48
 90
        3
 40
0.18
 90
        1
 71
     2
340
14
 90
       25
340
14
 90
       50
 40
0.24
 40
0.0
 40
0.24
 71
     3
340
F
 40
0.24
 90
        1
 40
0.75
 90
        1
300
%<\AcVar ViewType \f "%tc1">% %<\AcVar ViewSectionStartId>%-%<\AcVar ViewSectionEndId>%\PSCALE %<\AcVar ViewScale \f "%sn">%
 71
     4
300
ANSI31
 40
1.0
 90
        0
290
     0
290
     0
 90
        6
 40
0.0
 40
1.570796326794896
 40
0.2617993877991494
 40
1.308996938995747
 40
-0.2617993877991494
 40
1.832595714594046
  0
TABLESTYLE
  5
1481
102
{ACAD_XDICTIONARY
360
14B8
102
}
102
{ACAD_REACTORS
330
1480
102
}
330
1480
100
AcDbTableStyle
  3
Standard
 70
     0
 71
     0
 40
0.06
 41
0.06
280
     0
281
     0
  7
STANDARD
140
0.18
170
     2
 62
     0
 63
     7
283
     0
274
    -2
284
     1
 64
     0
275
    -2
285
     1
 65
     0
276
    -2
286
     1
 66
     0
277
    -2
287
     1
 67
     0
278
    -2
288
     1
 68
     0
279
    -2
289
     1
 69
     0
  7
STANDARD
140
0.25
170
     5
 62
     0
 63
     7
283
     0
274
    -2
284
     1
 64
     0
275
    -2
285
     1
 65
     0
276
    -2
286
     1
 66
     0
277
    -2
287
     1
 67
     0
278
    -2
288
     1
 68
     0
279
    -2
289
     1
 69
     0
  7
STANDARD
140
0.18
170
     5
 62
     0
 63
     7
283
     0
274
    -2
284
     1
 64
     0
275
    -2
285
     1
 65
     0
276
    -2
286
     1
 66
     0
277
    -2
287
     1
 67
     0
278
    -2
288
     1
 68
     0
279
    -2
289
     1
 69
     0
  0
VISUALSTYLE
  5
146C
102
{ACAD_XDICTIONARY
360
14C9
102
}
102
{ACAD_REACTORS
330
1466
102
}
330
1466
100
AcDbVisualStyle
  2
2dWireframe
 70
     4
 71
     0
 72
     2
 73
     0
 90
        0
 40
-0.6
 41
-30.0
 62
     5
 63
     7
 74
     1
 91
        4
 64
     7
 65
   257
 75
     1
175
     1
 42
1.0
 92
        0
 66
   257
 43
1.0
 76
     1
 77
     6
 78
     2
 67
     7
 79
     5
170
     0
171
     0
290
     0
174
     0
 93
        1
 44
0.0
173
     0
291
     0
 45
0.0
1001
ACAD
1000
AcDbSavedByObjectVersion
1070
     0
  0
VISUALSTYLE
  5
146B
102
{ACAD_XDICTIONARY
360
14C7
102
}
102
{ACAD_REACTORS
330
1466
102
}
330
1466
100
AcDbVisualStyle
  2
Basic
 70
     7
 71
     1
 72
     0
 73
     1
 90
        0
 40
-0.6
 41
-30.0
 62
     5
 63
     7
 74
     0
 91
        4
 64
     7
 65
   257
 75
     1
175
     1
 42
1.0
 92
        8
 66
     7
 43
1.0
 76
     1
 77
     6
 78
     2
 67
     7
 79
     5
170
     0
171
     0
290
     0
174
     0
 93
        1
 44
0.0
173
     0
291
     1
 45
0.0
1001
ACAD
1000
AcDbSavedByObjectVersion
1070
     0
  0
VISUALSTYLE
  5
1472
102
{ACAD_XDICTIONARY
360
14D5
102
}
102
{ACAD_REACTORS
330
1466
102
}
330
1466
100
AcDbVisualStyle
  2
Brighten
 70
    12
 71
     2
 72
     2
 73
     0
 90
        0
 40
-0.6
 41
-30.0
 62
     5
 63
     7
 74
     1
 91
        4
 64
     7
 65
   257
 75
     1
175
     1
 42
1.0
 92
        8
 66
     7
 43
1.0
 76
     1
 77
     6
 78
     2
 67
     7
 79
     5
170
     0
171
     0
290
     0
174
     0
 93
        1
 44
50.0
173
     0
291
     1
 45
0.0
1001
ACAD
1000
AcDbSavedByObjectVersion
1070
     0
  0
VISUALSTYLE
  5
1476
102
{ACAD_XDICTIONARY
360
14DD
102
}
102
{ACAD_REACTORS
330
1466
102
}
330
1466
100
AcDbVisualStyle
  2
ColorChange
 70
    16
 71
     2
 72
     2
 73
     3
 90
        0
 40
-0.6
 41
-30.0
 62
     5
 63
     8
 74
     1
 91
        4
 64
     7
 65
   257
 75
     1
175
     1
 42
1.0
 92
        8
 66
     8
 43
1.0
 76
     1
 77
     6
 78
     2
 67
     7
 79
     5
170
     0
171
     0
290
     0
174
     0
 93
        1
 44
0.0
173
     0
291
     1
 45
0.0
1001
ACAD
1000
AcDbSavedByObjectVersion
1070
     0
  0
VISUALSTYLE
  5
146F
102
{ACAD_XDICTIONARY
360
14CF
102
}
102
{ACAD_REACTORS
330
1466
102
}
330
1466
100
AcDbVisualStyle
  2
Conceptual
 70
     9
 71
     3
 72
     2
 73
     0
 90
        0
 40
-0.6
 41
-30.0
 62
     5
 63
     7
 74
     2
 91
        2
 64
     7
 65
   257
 75
     1
175
     1
 42
179.0
 92
        8
 66
     7
 43
1.0
 76
     1
 77
     6
 78
     2
 67
     7
 79
     3
170
     0
171
     0
290
     0
174
     0
 93
        1
 44
0.0
173
     0
291
     0
 45
0.0
1001
ACAD
1000
AcDbSavedByObjectVersion
1070
     0
  0
VISUALSTYLE
  5
1471
102
{ACAD_XDICTIONARY
360
14D3
102
}
102
{ACAD_REACTORS
330
1466
102
}
330
1466
100
AcDbVisualStyle
  2
Dim
 70
    11
 71
     2
 72
     2
 73
     0
 90
        0
 40
-0.6
 41
-30.0
 62
     5
 63
     7
 74
     1
 91
        4
 64
     7
 65
   257
 75
     1
175
     1
 42
1.0
 92
        8
 66
     7
 43
1.0
 76
     1
 77
     6
 78
     2
 67
     7
 79
     5
170
     0
171
     0
290
     0
174
     0
 93
        1
 44
-50.0
173
     0
291
     1
 45
0.0
1001
ACAD
1000
AcDbSavedByObjectVersion
1070
     0
  0
VISUALSTYLE
  5
147E
102
{ACAD_XDICTIONARY
360
14ED
102
}
102
{ACAD_REACTORS
330
1466
102
}
330
1466
100
AcDbVisualStyle
  2
EdgeColorOff
 70
    22
 71
     2
 72
     2
 73
     0
 90
        0
 40
-0.6
 41
-30.0
 62
     5
 63
     7
 74
     1
 91
        4
 64
     7
 65
   257
 75
     1
175
     1
 42
1.0
 92
        8
 66
     7
 43
1.0
 76
     1
 77
     6
 78
     2
 67
     7
 79
     5
170
     0
171
     0
290
     0
174
     0
 93
        1
 44
0.0
173
     0
291
     1
 45
0.0
1001
ACAD
1000
AcDbSavedByObjectVersion
1070
     0
  0
VISUALSTYLE
  5
1475
102
{ACAD_XDICTIONARY
360
14DB
102
}
102
{ACAD_REACTORS
330
1466
102
}
330
1466
100
AcDbVisualStyle
  2
Facepattern
 70
    15
 71
     2
 72
     2
 73
     0
 90
        0
 40
-0.6
 41
-30.0
 62
     5
 63
     7
 74
     1
 91
        4
 64
     7
 65
   257
 75
     1
175
     1
 42
1.0
 92
        8
 66
     7
 43
1.0
 76
     1
 77
     6
 78
     2
 67
     7
 79
     5
170
     0
171
     0
290
     0
174
     0
 93
        1
 44
0.0
173
     0
291
     1
 45
0.0
1001
ACAD
1000
AcDbSavedByObjectVersion
1070
     0
  0
VISUALSTYLE
  5
1467
102
{ACAD_XDICTIONARY
360
14BF
102
}
102
{ACAD_REACTORS
330
1466
102
}
330
1466
100
AcDbVisualStyle
  2
Flat
 70
     0
 71
     2
 72
     1
 73
     1
 90
        2
 40
-0.6
 41
30.0
 62
     5
 63
     7
 74
     0
 91
        0
 64
     7
 65
   257
 75
     1
175
     1
 42
1.0
 92
        8
 66
     7
 43
1.0
 76
     1
 77
     6
 78
     2
 67
     7
 79
     5
170
     0
171
     0
290
     0
174
     0
 93
       13
 44
0.0
173
     0
291
     1
 45
0.0
1001
ACAD
1000
AcDbSavedByObjectVersion
1070
     0
  0
VISUALSTYLE
  5
1468
102
{ACAD_XDICTIONARY
360
14C1
102
}
102
{ACAD_REACTORS
330
1466
102
}
330
1466
100
AcDbVisualStyle
  2
FlatWithEdges
 70
     1
 71
     2
 72
     1
 73
     1
 90
        2
 40
-0.6
 41
30.0
 62
     5
 63
     7
 74
     1
 91
        0
 64
     7
 65
   257
 75
     1
175
     1
 42
1.0
 92
        0
 66
   257
 43
1.0
 76
     1
 77
     6
 78
     2
 67
     7
 79
     5
170
     0
171
     0
290
     0
174
     0
 93
       13
 44
0.0
173
     0
291
     1
 45
0.0
1001
ACAD
1000
AcDbSavedByObjectVersion
1070
     0
  0
VISUALSTYLE
  5
1469
102
{ACAD_XDICTIONARY
360
14C3
102
}
102
{ACAD_REACTORS
330
1466
102
}
330
1466
100
AcDbVisualStyle
  2
Gouraud
 70
     2
 71
     2
 72
     2
 73
     1
 90
        2
 40
-0.6
 41
30.0
 62
     5
 63
     7
 74
     0
 91
        0
 64
     7
 65
   257
 75
     1
175
     1
 42
1.0
 92
        0
 66
     7
 43
1.0
 76
     1
 77
     6
 78
     2
 67
     7
 79
     5
170
     0
171
     0
290
     0
174
     0
 93
       13
 44
0.0
173
     0
291
     1
 45
0.0
1001
ACAD
1000
AcDbSavedByObjectVersion
1070
     0
  0
VISUALSTYLE
  5
146A
102
{ACAD_XDICTIONARY
360
14C5
102
}
102
{ACAD_REACTORS
330
1466
102
}
330
1466
100
AcDbVisualStyle
  2
GouraudWithEdges
 70
     3
 71
     2
 72
     2
 73
     1
 90
        2
 40
-0.6
 41
30.0
 62
     5
 63
     7
 74
     1
 91
        0
 64
     7
 65
   257
 75
     1
175
     1
 42
1.0
 92
        0
 66
   257
 43
1.0
 76
     1
 77
     6
 78
     2
 67
     7
 79
     5
170
     0
171
     0
290
     0
174
     0
 93
       13
 44
0.0
173
     0
291
     1
 45
0.0
1001
ACAD
1000
AcDbSavedByObjectVersion
1070
     0
  0
VISUALSTYLE
  5
146E
102
{ACAD_XDICTIONARY
360
14CD
102
}
102
{ACAD_REACTORS
330
1466
102
}
330
1466
100
AcDbVisualStyle
  2
Hidden
 70
     6
 71
     1
 72
     2
 73
     2
 90
        0
 40
-0.6
 41
-30.0
 62
     5
 63
     7
 74
     2
 91
        2
 64
     7
 65
   257
 75
     2
175
     1
 42
40.0
 92
        0
 66
   257
 43
1.0
 76
     1
 77
     6
 78
     2
 67
     7
 79
     3
170
     0
171
     0
290
     0
174
     0
 93
        1
 44
0.0
173
     0
291
     0
 45
0.0
1001
ACAD
1000
AcDbSavedByObjectVersion
1070
     0
  0
VISUALSTYLE
  5
147C
102
{ACAD_XDICTIONARY
360
14E9
102
}
102
{ACAD_REACTORS
330
1466
102
}
330
1466
100
AcDbVisualStyle
  2
JitterOff
 70
    20
 71
     2
 72
     2
 73
     0
 90
        0
 40
-0.6
 41
-30.0
 62
     5
 63
     7
 74
     1
 91
        4
 64
     7
 65
   257
 75
     1
175
     1
 42
1.0
 92
       10
 66
     7
 43
1.0
 76
     1
 77
     6
 78
     2
 67
     7
 79
     5
170
     0
171
     0
290
     0
174
     0
 93
        1
 44
0.0
173
     0
291
     1
 45
0.0
1001
ACAD
1000
AcDbSavedByObjectVersion
1070
     0
  0
VISUALSTYLE
  5
1474
102
{ACAD_XDICTIONARY
360
14D9
102
}
102
{ACAD_REACTORS
330
1466
102
}
330
1466
100
AcDbVisualStyle
  2
Linepattern
 70
    14
 71
     2
 72
     2
 73
     0
 90
        0
 40
-0.6
 41
-30.0
 62
     5
 63
     7
 74
     1
 91
        4
 64
     7
 65
   257
 75
     7
175
     7
 42
1.0
 92
        8
 66
     7
 43
1.0
 76
     1
 77
     6
 78
     2
 67
     7
 79
     5
170
     0
171
     0
290
     0
174
     0
 93
        1
 44
0.0
173
     0
291
     1
 45
0.0
1001
ACAD
1000
AcDbSavedByObjectVersion
1070
     0
  0
VISUALSTYLE
  5
147D
102
{ACAD_XDICTIONARY
360
14EB
102
}
102
{ACAD_REACTORS
330
1466
102
}
330
1466
100
AcDbVisualStyle
  2
OverhangOff
 70
    21
 71
     2
 72
     2
 73
     0
 90
        0
 40
-0.6
 41
-30.0
 62
     5
 63
     7
 74
     1
 91
        4
 64
     7
 65
   257
 75
     1
175
     1
 42
1.0
 92
        9
 66
     7
 43
1.0
 76
     1
 77
     6
 78
     2
 67
     7
 79
     5
170
     0
171
     0
290
     0
174
     0
 93
        1
 44
0.0
173
     0
291
     1
 45
0.0
1001
ACAD
1000
AcDbSavedByObjectVersion
1070
     0
  0
VISUALSTYLE
  5
1470
102
{ACAD_XDICTIONARY
360
14D1
102
}
102
{ACAD_REACTORS
330
1466
102
}
330
1466
100
AcDbVisualStyle
  2
Realistic
 70
     8
 71
     2
 72
     3
 73
     0
 90
        2
 40
-0.6
 41
30.0
 62
     5
 63
     7
 74
     0
 91
        0
 64
     7
 65
   257
 75
     1
175
     1
 42
1.0
 92
        8
 66
   257
 43
1.0
 76
     1
 77
     6
 78
     2
 67
     7
 79
     3
170
     0
171
     0
290
     0
174
     0
 93
       13
 44
0.0
173
     0
291
     0
 45
0.0
1001
ACAD
1000
AcDbSavedByObjectVersion
1070
     0
  0
VISUALSTYLE
  5
147B
102
{ACAD_XDICTIONARY
360
14E7
102
}
102
{ACAD_REACTORS
330
1466
102
}
330
1466
100
AcDbVisualStyle
  2
Shaded
 70
    27
 71
     2
 72
     2
 73
     1
 90
        2
 40
-0.6
 41
30.0
 62
     5
 63
     7
 74
     0
 91
        4
 64
     7
 65
   257
 75
     1
175
     1
 42
1.0
 92
        8
 66
   257
 43
1.0
 76
     1
 77
     6
 78
     2
 67
     8
 79
     3
170
     0
171
     0
290
     0
174
     0
 93
        5
 44
0.0
173
     0
291
     0
 45
0.0
1001
ACAD
1000
AcDbSavedByObjectVersion
1070
     0
  0
VISUALSTYLE
  5
147A
102
{ACAD_XDICTIONARY
360
14E5
102
}
102
{ACAD_REACTORS
330
1466
102
}
330
1466
100
AcDbVisualStyle
  2
Shaded with edges
 70
    26
 71
     2
 72
     2
 73
     1
 90
        2
 40
-0.6
 41
30.0
 62
     5
 63
     7
 74
     1
 91
       10
 64
     7
 65
   257
 75
     2
175
     1
 42
1.0
 92
        8
 66
   257
 43
1.0
 76
     1
 77
     6
 78
     2
 67
     7
 79
     3
170
     0
171
     0
290
     0
174
     0
 93
        5
 44
0.0
173
     0
291
     0
 45
0.0
1001
ACAD
1000
AcDbSavedByObjectVersion
1070
     0
  0
VISUALSTYLE
  5
1477
102
{ACAD_XDICTIONARY
360
14DF
102
}
102
{ACAD_REACTORS
330
1466
102
}
330
1466
100
AcDbVisualStyle
  2
Shades of Gray
 70
    23
 71
     2
 72
     2
 73
     3
 90
        0
 40
-0.6
 41
-30.0
 62
     5
 63
     7
 74
     2
 91
        2
 64
     7
 65
     7
 75
     1
175
     1
 42
40.0
 92
        8
 66
     7
 43
1.0
 76
     1
 77
     6
 78
     2
 67
     7
 79
     3
170
     0
171
     0
290
     0
174
     0
 93
        1
 44
0.0
173
     0
291
     0
 45
0.0
1001
ACAD
1000
AcDbSavedByObjectVersion
1070
     0
  0
VISUALSTYLE
  5
1478
102
{ACAD_XDICTIONARY
360
14E1
102
}
102
{ACAD_REACTORS
330
1466
102
}
330
1466
100
AcDbVisualStyle
  2
Sketchy
 70
    24
 71
     1
 72
     2
 73
     2
 90
        0
 40
-0.6
 41
-30.0
 62
     5
 63
     7
 74
     2
 91
        2
 64
     7
 65
     7
 75
     1
175
     1
 42
40.0
 92
       11
 66
     7
 43
1.0
 76
     1
 77
     6
 78
     2
 67
     7
 79
     6
170
     0
171
     0
290
     0
174
     0
 93
        1
 44
0.0
173
     0
291
     0
 45
0.0
1001
ACAD
1000
AcDbSavedByObjectVersion
1070
     0
  0
VISUALSTYLE
  5
1473
102
{ACAD_XDICTIONARY
360
14D7
102
}
102
{ACAD_REACTORS
330
1466
102
}
330
1466
100
AcDbVisualStyle
  2
Thicken
 70
    13
 71
     2
 72
     2
 73
     0
 90
        0
 40
-0.6
 41
-30.0
 62
     5
 63
     7
 74
     1
 91
        4
 64
     7
 65
   257
 75
     1
175
     1
 42
1.0
 92
       12
 66
     7
 43
1.0
 76
     1
 77
     6
 78
     2
 67
     7
 79
     5
170
     0
171
     0
290
     0
174
     0
 93
        1
 44
0.0
173
     0
291
     1
 45
0.0
1001
ACAD
1000
AcDbSavedByObjectVersion
1070
     0
  0
VISUALSTYLE
  5
146D
102
{ACAD_XDICTIONARY
360
14CB
102
}
102
{ACAD_REACTORS
330
1466
102
}
330
1466
100
AcDbVisualStyle
  2
Wireframe
 70
     5
 71
     0
 72
     2
 73
     0
 90
        0
 40
-0.6
 41
-30.0
 62
     5
 63
     7
 74
     1
 91
        4
 64
     7
 65
   257
 75
     1
175
     1
 42
1.0
 92
        0
 66
   257
 43
1.0
 76
     1
 77
     6
 78
     2
 67
     7
 79
     3
170
     0
171
     0
290
     0
174
     0
 93
        1
 44
0.0
173
     0
291
     0
 45
0.0
1001
ACAD
1000
AcDbSavedByObjectVersion
1070
     0
  0
VISUALSTYLE
  5
1479
102
{ACAD_XDICTIONARY
360
14E3
102
}
102
{ACAD_REACTORS
330
1466
102
}
330
1466
100
AcDbVisualStyle
  2
X-Ray
 70
    25
 71
     2
 72
     2
 73
     1
 90
        1
 40
0.5
 41
-30.0
 62
     5
 63
     7
 74
     1
 91
        0
 64
     7
 65
   257
 75
     1
175
     1
 42
1.0
 92
        8
 66
     7
 43
1.0
 76
     1
 77
     6
 78
     2
 67
     7
 79
     3
170
     0
171
     0
290
     0
174
     0
 93
       13
 44
0.0
173
     0
291
     0
 45
0.0
1001
ACAD
1000
AcDbSavedByObjectVersion
1070
     0
  0
DICTIONARYVAR
  5
14B2
102
{ACAD_REACTORS
330
14AD
102
}
330
14AD
100
DictionaryVariables
280
     0
  1
1:1
  0
DICTIONARYVAR
  5
14AF
102
{ACAD_REACTORS
330
14AD
102
}
330
14AD
100
DictionaryVariables
280
     0
  1
STANDARD
  0
DICTIONARYVAR
  5
14AE
102
{ACAD_REACTORS
330
14AD
102
}
330
14AD
100
DictionaryVariables
280
     0
  1
STANDARD
  0
DICTIONARYVAR
  5
14B0
102
{ACAD_REACTORS
330
14AD
102
}
330
14AD
100
DictionaryVariables
280
     0
  1
Imperial24
  0
DICTIONARYVAR
  5
14B1
102
{ACAD_REACTORS
330
14AD
102
}
330
14AD
100
DictionaryVariables
280
     0
  1
Imperial24
  0
DICTIONARYVAR
  5
14B5
102
{ACAD_REACTORS
330
14AD
102
}
330
14AD
100
DictionaryVariables
280
     0
  1
1
  0
DICTIONARYVAR
  5
14B4
102
{ACAD_REACTORS
330
14AD
102
}
330
14AD
100
DictionaryVariables
280
     0
  1
0
  0
DICTIONARYVAR
  5
14B3
102
{ACAD_REACTORS
330
14AD
102
}
330
14AD
100
DictionaryVariables
280
     0
  1
127
  0
DICTIONARYVAR
  5
14B6
102
{ACAD_REACTORS
330
14AD
102
}
330
14AD
100
DictionaryVariables
280
     0
  1
2
  0
DICTIONARY
  5
14F3
330
1499
100
AcDbDictionary
280
     1
281
     1
  3
ACAD_XREC_ROUNDTRIP
360
14F4
  0
DICTIONARY
  5
14F5
330
149A
100
AcDbDictionary
280
     1
281
     1
  3
ACAD_XREC_ROUNDTRIP
360
14F6
  0
DICTIONARY
  5
14F7
330
149B
100
AcDbDictionary
280
     1
281
     1
  3
ACAD_XREC_ROUNDTRIP
360
14F8
  0
DICTIONARY
  5
1457
330
1456
100
AcDbDictionary
280
     1
281
     1
  3
ACAD_XREC_ROUNDTRIP
360
14BD
  3
BUMPTILE
360
1459
  3
DIFFUSETILE
360
1458
  3
OPACITYTILE
360
145C
  3
REFLECTIONTILE
360
145B
  3
REFRACTIONTILE
360
145D
  3
SPECULARTILE
360
145A
  0
DICTIONARY
  5
144F
330
144E
100
AcDbDictionary
280
     1
281
     1
  3
ACAD_XREC_ROUNDTRIP
360
14BC
  3
BUMPTILE
360
1451
  3
DIFFUSETILE
360
1450
  3
OPACITYTILE
360
1454
  3
REFLECTIONTILE
360
1453
  3
REFRACTIONTILE
360
1455
  3
SPECULARTILE
360
1452
  0
DICTIONARY
  5
145F
330
145E
100
AcDbDictionary
280
     1
281
     1
  3
ACAD_XREC_ROUNDTRIP
360
14BE
  3
BUMPTILE
360
1461
  3
DIFFUSETILE
360
1460
  3
OPACITYTILE
360
1464
  3
REFLECTIONTILE
360
1463
  3
REFRACTIONTILE
360
1465
  3
SPECULARTILE
360
1462
  0
DICTIONARY
  5
14F1
330
1497
100
AcDbDictionary
280
     1
281
     1
  3
ACAD_XREC_ROUNDTRIP
360
14F2
  0
DICTIONARY
  5
14B8
330
1481
100
AcDbDictionary
280
     1
281
     1
  3
ACAD_ROUNDTRIP_2008_TABLESTYLE_CELLSTYLEMAP
360
14B9
  3
ACAD_XREC_ROUNDTRIP
360
14EF
  0
DICTIONARY
  5
14C9
330
146C
100
AcDbDictionary
280
     1
281
     1
  3
ACAD_XREC_ROUNDTRIP
360
14CA
  0
DICTIONARY
  5
14C7
330
146B
100
AcDbDictionary
280
     1
281
     1
  3
ACAD_XREC_ROUNDTRIP
360
14C8
  0
DICTIONARY
  5
14D5
330
1472
100
AcDbDictionary
280
     1
281
     1
  3
ACAD_XREC_ROUNDTRIP
360
14D6
  0
DICTIONARY
  5
14DD
330
1476
100
AcDbDictionary
280
     1
281
     1
  3
ACAD_XREC_ROUNDTRIP
360
14DE
  0
DICTIONARY
  5
14CF
330
146F
100
AcDbDictionary
280
     1
281
     1
  3
ACAD_XREC_ROUNDTRIP
360
14D0
  0
DICTIONARY
  5
14D3
330
1471
100
AcDbDictionary
280
     1
281
     1
  3
ACAD_XREC_ROUNDTRIP
360
14D4
  0
DICTIONARY
  5
14ED
330
147E
100
AcDbDictionary
280
     1
281
     1
  3
ACAD_XREC_ROUNDTRIP
360
14EE
  0
DICTIONARY
  5
14DB
330
1475
100
AcDbDictionary
280
     1
281
     1
  3
ACAD_XREC_ROUNDTRIP
360
14DC
  0
DICTIONARY
  5
14BF
330
1467
100
AcDbDictionary
280
     1
281
     1
  3
ACAD_XREC_ROUNDTRIP
360
14C0
  0
DICTIONARY
  5
14C1
330
1468
100
AcDbDictionary
280
     1
281
     1
  3
ACAD_XREC_ROUNDTRIP
360
14C2
  0
DICTIONARY
  5
14C3
330
1469
100
AcDbDictionary
280
     1
281
     1
  3
ACAD_XREC_ROUNDTRIP
360
14C4
  0
DICTIONARY
  5
14C5
330
146A
100
AcDbDictionary
280
     1
281
     1
  3
ACAD_XREC_ROUNDTRIP
360
14C6
  0
DICTIONARY
  5
14CD
330
146E
100
AcDbDictionary
280
     1
281
     1
  3
ACAD_XREC_ROUNDTRIP
360
14CE
  0
DICTIONARY
  5
14E9
330
147C
100
AcDbDictionary
280
     1
281
     1
  3
ACAD_XREC_ROUNDTRIP
360
14EA
  0
DICTIONARY
  5
14D9
330
1474
100
AcDbDictionary
280
     1
281
     1
  3
ACAD_XREC_ROUNDTRIP
360
14DA
  0
DICTIONARY
  5
14EB
330
147D
100
AcDbDictionary
280
     1
281
     1
  3
ACAD_XREC_ROUNDTRIP
360
14EC
  0
DICTIONARY
  5
14D1
330
1470
100
AcDbDictionary
280
     1
281
     1
  3
ACAD_XREC_ROUNDTRIP
360
14D2
  0
DICTIONARY
  5
14E7
330
147B
100
AcDbDictionary
280
     1
281
     1
  3
ACAD_XREC_ROUNDTRIP
360
14E8
  0
DICTIONARY
  5
14E5
330
147A
100
AcDbDictionary
280
     1
281
     1
  3
ACAD_XREC_ROUNDTRIP
360
14E6
  0
DICTIONARY
  5
14DF
330
1477
100
AcDbDictionary
280
     1
281
     1
  3
ACAD_XREC_ROUNDTRIP
360
14E0
  0
DICTIONARY
  5
14E1
330
1478
100
AcDbDictionary
280
     1
281
     1
  3
ACAD_XREC_ROUNDTRIP
360
14E2
  0
DICTIONARY
  5
14D7
330
1473
100
AcDbDictionary
280
     1
281
     1
  3
ACAD_XREC_ROUNDTRIP
360
14D8
  0
DICTIONARY
  5
14CB
330
146D
100
AcDbDictionary
280
     1
281
     1
  3
ACAD_XREC_ROUNDTRIP
360
14CC
  0
DICTIONARY
  5
14E3
330
1479
100
AcDbDictionary
280
     1
281
     1
  3
ACAD_XREC_ROUNDTRIP
360
14E4
  0
XRECORD
  5
14F4
102
{ACAD_REACTORS
330
14F3
102
}
330
14F3
100
AcDbXrecord
280
     1
102
DISPLAYNAME
  1
Imperial24
102
FLAGS
 90
        0
  0
XRECORD
  5
14F6
102
{ACAD_REACTORS
330
14F5
102
}
330
14F5
100
AcDbXrecord
280
     1
102
SHADEPLOT
 70
     0
102
SHADEPLOTRESLEVEL
 70
     2
102
SHADEPLOTCUSTOMDPI
 70
   300
  0
XRECORD
  5
14F8
102
{ACAD_REACTORS
330
14F7
102
}
330
14F7
100
AcDbXrecord
280
     1
102
SHADEPLOT
 70
     0
102
SHADEPLOTRESLEVEL
 70
     2
102
SHADEPLOTCUSTOMDPI
 70
   300
  0
XRECORD
  5
14BD
102
{ACAD_REACTORS
330
1457
102
}
330
1457
100
AcDbXrecord
280
     1
102
MATERIAL
148
0.0
149
0.0
149
0.0
 93
        0
 94
      127
282
     0
 72
     0
 77
     0
171
     0
175
     0
179
     0
273
     0
  0
XRECORD
  5
1459
102
{ACAD_REACTORS
330
1457
102
}
330
1457
100
AcDbXrecord
280
     1
270
     1
271
     1
  0
XRECORD
  5
1458
102
{ACAD_REACTORS
330
1457
102
}
330
1457
100
AcDbXrecord
280
     1
270
     1
271
     1
  0
XRECORD
  5
145C
102
{ACAD_REACTORS
330
1457
102
}
330
1457
100
AcDbXrecord
280
     1
270
     1
271
     1
  0
XRECORD
  5
145B
102
{ACAD_REACTORS
330
1457
102
}
330
1457
100
AcDbXrecord
280
     1
270
     1
271
     1
  0
XRECORD
  5
145D
102
{ACAD_REACTORS
330
1457
102
}
330
1457
100
AcDbXrecord
280
     1
270
     1
271
     1
  0
XRECORD
  5
145A
102
{ACAD_REACTORS
330
1457
102
}
330
1457
100
AcDbXrecord
280
     1
270
     1
271
     1
  0
XRECORD
  5
14BC
102
{ACAD_REACTORS
330
144F
102
}
330
144F
100
AcDbXrecord
280
     1
102
MATERIAL
148
0.0
149
0.0
149
0.0
 93
        0
 94
      127
282
     0
 72
     0
 77
     0
171
     0
175
     0
179
     0
273
     0
  0
XRECORD
  5
1451
102
{ACAD_REACTORS
330
144F
102
}
330
144F
100
AcDbXrecord
280
     1
270
     1
271
     1
  0
XRECORD
  5
1450
102
{ACAD_REACTORS
330
144F
102
}
330
144F
100
AcDbXrecord
280
     1
270
     1
271
     1
  0
XRECORD
  5
1454
102
{ACAD_REACTORS
330
144F
102
}
330
144F
100
AcDbXrecord
280
     1
270
     1
271
     1
  0
XRECORD
  5
1453
102
{ACAD_REACTORS
330
144F
102
}
330
144F
100
AcDbXrecord
280
     1
270
     1
271
     1
  0
XRECORD
  5
1455
102
{ACAD_REACTORS
330
144F
102
}
330
144F
100
AcDbXrecord
280
     1
270
     1
271
     1
  0
XRECORD
  5
1452
102
{ACAD_REACTORS
330
144F
102
}
330
144F
100
AcDbXrecord
280
     1
270
     1
271
     1
  0
XRECORD
  5
14BE
102
{ACAD_REACTORS
330
145F
102
}
330
145F
100
AcDbXrecord
280
     1
102
MATERIAL
148
0.0
149
0.0
149
0.0
 93
        0
 94
      127
282
     0
 72
     0
 77
     0
171
     0
175
     0
179
     0
273
     0
  0
XRECORD
  5
1461
102
{ACAD_REACTORS
330
145F
102
}
330
145F
100
AcDbXrecord
280
     1
270
     1
271
     1
  0
XRECORD
  5
1460
102
{ACAD_REACTORS
330
145F
102
}
330
145F
100
AcDbXrecord
280
     1
270
     1
271
     1
  0
XRECORD
  5
1464
102
{ACAD_REACTORS
330
145F
102
}
330
145F
100
AcDbXrecord
280
     1
270
     1
271
     1
  0
XRECORD
  5
1463
102
{ACAD_REACTORS
330
145F
102
}
330
145F
100
AcDbXrecord
280
     1
270
     1
271
     1
  0
XRECORD
  5
1465
102
{ACAD_REACTORS
330
145F
102
}
330
145F
100
AcDbXrecord
280
     1
270
     1
271
     1
  0
XRECORD
  5
1462
102
{ACAD_REACTORS
330
145F
102
}
330
145F
100
AcDbXrecord
280
     1
270
     1
271
     1
  0
XRECORD
  5
14F2
102
{ACAD_REACTORS
330
14F1
102
}
330
14F1
100
AcDbXrecord
280
     1
102
DISPLAYNAME
  1
Imperial24
102
FLAGS
 90
        0
  0
CELLSTYLEMAP
  5
14B9
102
{ACAD_REACTORS
330
14B8
102
}
330
14B8
100
AcDbCellStyleMap
 90
        3
300
CELLSTYLE
  1
TABLEFORMAT_BEGIN
 90
        5
170
     1
 91
        0
 92
    32768
 62
   257
 93
        1
300
CONTENTFORMAT
  1
CONTENTFORMAT_BEGIN
 90
        0
 91
        0
 92
      512
 93
        0
300

 40
0.0
140
1.0
 94
        5
 62
     0
340
F
144
0.25
309
CONTENTFORMAT_END
171
     0
 94
        0
309
TABLEFORMAT_END
  1
CELLSTYLE_BEGIN
 90
        1
 91
        1
300
_TITLE
309
CELLSTYLE_END
300
CELLSTYLE
  1
TABLEFORMAT_BEGIN
 90
        5
170
     1
 91
        0
 92
        0
 62
   257
 93
        1
300
CONTENTFORMAT
  1
CONTENTFORMAT_BEGIN
 90
        0
 91
        0
 92
      512
 93
        0
300

 40
0.0
140
1.0
 94
        5
 62
     0
340
F
144
0.18
309
CONTENTFORMAT_END
171
     0
 94
        0
309
TABLEFORMAT_END
  1
CELLSTYLE_BEGIN
 90
        2
 91
        1
300
_HEADER
309
CELLSTYLE_END
300
CELLSTYLE
  1
TABLEFORMAT_BEGIN
 90
        5
170
     1
 91
        0
 92
        0
 62
   257
 93
        1
300
CONTENTFORMAT
  1
CONTENTFORMAT_BEGIN
 90
        0
 91
        0
 92
      512
 93
        0
300

 40
0.0
140
1.0
 94
        2
 62
     0
340
F
144
0.18
309
CONTENTFORMAT_END
171
     0
 94
        0
309
TABLEFORMAT_END
  1
CELLSTYLE_BEGIN
 90
        3
 91
        2
300
_DATA
309
CELLSTYLE_END
  0
XRECORD
  5
14EF
102
{ACAD_REACTORS
330
14B8
102
}
330
14B8
100
AcDbXrecord
280
     1
102
ACAD_ROUNDTRIP_PRE2007_TABLESTYLE
 90
      512
 91
        0
  1

 92
      512
 93
        0
  2

 94
      512
 95
        0
  3

  0
XRECORD
  5
14CA
102
{ACAD_REACTORS
330
14C9
102
}
330
14C9
100
AcDbXrecord
280
     1
102
RTVSPost2010Prop28
280
     1
102
RTVSPost2010PropOp28
 70
     1
102
RTVSPost2010Prop29
280
     1
102
RTVSPost2010PropOp29
 70
     1
102
RTVSPost2010Prop30
280
     0
102
RTVSPost2010PropOp30
 70
     1
102
RTVSPost2010Prop31
280
     0
102
RTVSPost2010PropOp31
 70
     1
102
RTVSPost2010Prop32
280
     0
102
RTVSPost2010PropOp32
 70
     1
102
RTVSPost2010Prop33
280
     0
102
RTVSPost2010PropOp33
 70
     1
102
RTVSPost2010Prop34
280
     0
102
RTVSPost2010PropOp34
 70
     1
102
RTVSPost2010Prop35
280
     0
102
RTVSPost2010PropOp35
 70
     1
102
RTVSPost2010Prop36
280
     0
102
RTVSPost2010PropOp36
 70
     1
102
RTVSPost2010Prop37
 90
       50
102
RTVSPost2010PropOp37
 70
     1
102
RTVSPost2010Prop38
140
0.0
102
RTVSPost2010PropOp38
 70
     1
102
RTVSPost2010Prop39
140
1.0
102
RTVSPost2010PropOp39
 70
     1
102
RTVSPost2010Prop40
 90
        0
102
RTVSPost2010PropOp40
 70
     1
102
RTVSPost2010Prop41ColorIndex
 90
       18
102
RTVSPost2010Prop41ColorRGB
 90
        0
102
RTVSPost2010PropOp41
 70
     1
102
RTVSPost2010Prop42
 90
       50
102
RTVSPost2010PropOp42
 70
     1
102
RTVSPost2010Prop43
 90
        3
102
RTVSPost2010PropOp43
 70
     1
102
RTVSPost2010Prop44ColorIndex
 90
        5
102
RTVSPost2010Prop44ColorRGB
 90
      255
102
RTVSPost2010PropOp44
 70
     1
102
RTVSPost2010Prop45
280
     0
102
RTVSPost2010PropOp45
 70
     1
102
RTVSPost2010Prop46
 90
       50
102
RTVSPost2010PropOp46
 70
     1
102
RTVSPost2010Prop47
 90
       50
102
RTVSPost2010PropOp47
 70
     1
102
RTVSPost2010Prop48
 90
       50
102
RTVSPost2010PropOp48
 70
     1
102
RTVSPost2010Prop49
280
     0
102
RTVSPost2010PropOp49
 70
     1
102
RTVSPost2010Prop50
 90
       50
102
RTVSPost2010PropOp50
 70
     1
102
RTVSPost2010Prop51ColorIndex
 90
      256
102
RTVSPost2010Prop51ColorRGB
 90
-16777216
102
RTVSPost2010PropOp51
 70
     0
102
RTVSPost2010Prop52
140
1.0
102
RTVSPost2010PropOp52
 70
     0
102
RTVSPost2010Prop53
 90
        2
102
RTVSPost2010PropOp53
 70
     1
102
RTVSPost2010Prop54
  1
strokes_ogs.tif
102
RTVSPost2010PropOp54
 70
     1
102
RTVSPost2010Prop55
280
     0
102
RTVSPost2010PropOp55
 70
     1
102
RTVSPost2010Prop56
140
1.0
102
RTVSPost2010PropOp56
 70
     1
102
RTVSPost2010Prop57
140
1.0
102
RTVSPost2010PropOp57
 70
     1
102
RTVSPropertyOp0
 70
     1
102
RTVSPropertyOp1
 70
     1
102
RTVSPropertyOp2
 70
     1
102
RTVSPropertyOp3
 70
     1
102
RTVSPropertyOp4
 70
     1
102
RTVSPropertyOp5
 70
     1
102
RTVSPropertyOp6
 70
     1
102
RTVSPropertyOp7
 70
     1
102
RTVSPropertyOp8
 70
     1
102
RTVSPropertyOp9
 70
     1
102
RTVSPropertyOp10
 70
     1
102
RTVSPropertyOp11
 70
     1
102
RTVSPropertyOp12
 70
     1
102
RTVSPropertyOp13
 70
     1
102
RTVSPropertyOp14
 70
     1
102
RTVSPropertyOp15
 70
     1
102
RTVSPropertyOp16
 70
     1
102
RTVSPropertyOp17
 70
     1
102
RTVSPropertyOp18
 70
     1
102
RTVSPropertyOp19
 70
     1
102
RTVSPropertyOp20
 70
     1
102
RTVSPropertyOp21
 70
     1
102
RTVSPropertyOp22
 70
     1
102
RTVSPropertyOp23
 70
     1
102
RTVSPropertyOp24
 70
     1
102
RTVSPropertyOp25
 70
     1
102
RTVSPropertyOp26
 70
     1
102
RTVSPropertyOp27
 70
     1
102
RTVSPropertyOp28
 70
     1
102
RTVSPropertyOp29
 70
     1
102
RTVSPropertyOp30
 70
     1
102
RTVSPropertyOp31
 70
     1
102
RTVSPropertyOp32
 70
     1
102
RTVSPropertyOp33
 70
     1
102
RTVSPropertyOp34
 70
     1
102
RTVSPropertyOp35
 70
     1
102
RTVSPropertyOp36
 70
     1
102
RTVSPropertyOp37
 70
     1
102
RTVSPropertyOp38
 70
     1
102
RTVSPropertyOp39
 70
     1
102
RTVSPropertyOp40
 70
     1
102
RTVSPropertyOp41
 70
     1
102
RTVSPropertyOp42
 70
     1
102
RTVSPropertyOp43
 70
     1
102
RTVSPropertyOp44
 70
     1
102
RTVSPropertyOp45
 70
     1
102
RTVSPropertyOp46
 70
     1
102
RTVSPropertyOp47
 70
     1
102
RTVSPropertyOp48
 70
     1
102
RTVSPropertyOp49
 70
     1
102
RTVSPropertyOp50
 70
     1
102
RTVSPropertyOp51
 70
     0
102
RTVSPropertyOp52
 70
     0
102
RTVSPropertyOp53
 70
     1
102
RTVSPropertyOp54
 70
     1
102
RTVSPropertyOp55
 70
     1
102
RTVSPropertyOp56
 70
     1
102
RTVSPropertyOp57
 70
     1
102
RTVSPropertyOp58
 70
     1
102
RTVSPropertyOp59
 70
     1
102
RTVSPropertyOp60
 70
     1
102
RTVSPropertyOp61
 70
     1
102
RTVSPropertyOp62
 70
     1
  0
XRECORD
  5
14C8
102
{ACAD_REACTORS
330
14C7
102
}
330
14C7
100
AcDbXrecord
280
     1
102
RTVSPost2010Prop28
280
     0
102
RTVSPost2010PropOp28
 70
     1
102
RTVSPost2010Prop29
280
     1
102
RTVSPost2010PropOp29
 70
     1
102
RTVSPost2010Prop30
280
     1
102
RTVSPost2010PropOp30
 70
     1
102
RTVSPost2010Prop31
280
     0
102
RTVSPost2010PropOp31
 70
     1
102
RTVSPost2010Prop32
280
     0
102
RTVSPost2010PropOp32
 70
     1
102
RTVSPost2010Prop33
280
     0
102
RTVSPost2010PropOp33
 70
     1
102
RTVSPost2010Prop34
280
     0
102
RTVSPost2010PropOp34
 70
     1
102
RTVSPost2010Prop35
280
     0
102
RTVSPost2010PropOp35
 70
     1
102
RTVSPost2010Prop36
280
     0
102
RTVSPost2010PropOp36
 70
     1
102
RTVSPost2010Prop37
 90
       50
102
RTVSPost2010PropOp37
 70
     1
102
RTVSPost2010Prop38
140
0.0
102
RTVSPost2010PropOp38
 70
     1
102
RTVSPost2010Prop39
140
1.0
102
RTVSPost2010PropOp39
 70
     1
102
RTVSPost2010Prop40
 90
        0
102
RTVSPost2010PropOp40
 70
     1
102
RTVSPost2010Prop41ColorIndex
 90
       18
102
RTVSPost2010Prop41ColorRGB
 90
        0
102
RTVSPost2010PropOp41
 70
     1
102
RTVSPost2010Prop42
 90
       50
102
RTVSPost2010PropOp42
 70
     1
102
RTVSPost2010Prop43
 90
        3
102
RTVSPost2010PropOp43
 70
     1
102
RTVSPost2010Prop44ColorIndex
 90
        5
102
RTVSPost2010Prop44ColorRGB
 90
      255
102
RTVSPost2010PropOp44
 70
     1
102
RTVSPost2010Prop45
280
     0
102
RTVSPost2010PropOp45
 70
     1
102
RTVSPost2010Prop46
 90
       50
102
RTVSPost2010PropOp46
 70
     1
102
RTVSPost2010Prop47
 90
       50
102
RTVSPost2010PropOp47
 70
     1
102
RTVSPost2010Prop48
 90
       50
102
RTVSPost2010PropOp48
 70
     1
102
RTVSPost2010Prop49
280
     0
102
RTVSPost2010PropOp49
 70
     1
102
RTVSPost2010Prop50
 90
       50
102
RTVSPost2010PropOp50
 70
     1
102
RTVSPost2010Prop51ColorIndex
 90
      256
102
RTVSPost2010Prop51ColorRGB
 90
-16777216
102
RTVSPost2010PropOp51
 70
     0
102
RTVSPost2010Prop52
140
1.0
102
RTVSPost2010PropOp52
 70
     0
102
RTVSPost2010Prop53
 90
        2
102
RTVSPost2010PropOp53
 70
     1
102
RTVSPost2010Prop54
  1
strokes_ogs.tif
102
RTVSPost2010PropOp54
 70
     1
102
RTVSPost2010Prop55
280
     0
102
RTVSPost2010PropOp55
 70
     1
102
RTVSPost2010Prop56
140
1.0
102
RTVSPost2010PropOp56
 70
     1
102
RTVSPost2010Prop57
140
1.0
102
RTVSPost2010PropOp57
 70
     1
102
RTVSPropertyOp0
 70
     1
102
RTVSPropertyOp1
 70
     1
102
RTVSPropertyOp2
 70
     1
102
RTVSPropertyOp3
 70
     1
102
RTVSPropertyOp4
 70
     1
102
RTVSPropertyOp5
 70
     1
102
RTVSPropertyOp6
 70
     1
102
RTVSPropertyOp7
 70
     1
102
RTVSPropertyOp8
 70
     1
102
RTVSPropertyOp9
 70
     1
102
RTVSPropertyOp10
 70
     1
102
RTVSPropertyOp11
 70
     1
102
RTVSPropertyOp12
 70
     1
102
RTVSPropertyOp13
 70
     1
102
RTVSPropertyOp14
 70
     1
102
RTVSPropertyOp15
 70
     1
102
RTVSPropertyOp16
 70
     1
102
RTVSPropertyOp17
 70
     1
102
RTVSPropertyOp18
 70
     1
102
RTVSPropertyOp19
 70
     1
102
RTVSPropertyOp20
 70
     1
102
RTVSPropertyOp21
 70
     1
102
RTVSPropertyOp22
 70
     1
102
RTVSPropertyOp23
 70
     1
102
RTVSPropertyOp24
 70
     1
102
RTVSPropertyOp25
 70
     1
102
RTVSPropertyOp26
 70
     1
102
RTVSPropertyOp27
 70
     1
102
RTVSPropertyOp28
 70
     1
102
RTVSPropertyOp29
 70
     1
102
RTVSPropertyOp30
 70
     1
102
RTVSPropertyOp31
 70
     1
102
RTVSPropertyOp32
 70
     1
102
RTVSPropertyOp33
 70
     1
102
RTVSPropertyOp34
 70
     1
102
RTVSPropertyOp35
 70
     1
102
RTVSPropertyOp36
 70
     1
102
RTVSPropertyOp37
 70
     1
102
RTVSPropertyOp38
 70
     1
102
RTVSPropertyOp39
 70
     1
102
RTVSPropertyOp40
 70
     1
102
RTVSPropertyOp41
 70
     1
102
RTVSPropertyOp42
 70
     1
102
RTVSPropertyOp43
 70
     1
102
RTVSPropertyOp44
 70
     1
102
RTVSPropertyOp45
 70
     1
102
RTVSPropertyOp46
 70
     1
102
RTVSPropertyOp47
 70
     1
102
RTVSPropertyOp48
 70
     1
102
RTVSPropertyOp49
 70
     1
102
RTVSPropertyOp50
 70
     1
102
RTVSPropertyOp51
 70
     0
102
RTVSPropertyOp52
 70
     0
102
RTVSPropertyOp53
 70
     1
102
RTVSPropertyOp54
 70
     1
102
RTVSPropertyOp55
 70
     1
102
RTVSPropertyOp56
 70
     1
102
RTVSPropertyOp57
 70
     1
102
RTVSPropertyOp58
 70
     1
102
RTVSPropertyOp59
 70
     1
102
RTVSPropertyOp60
 70
     1
102
RTVSPropertyOp61
 70
     1
102
RTVSPropertyOp62
 70
     1
  0
XRECORD
  5
14D6
102
{ACAD_REACTORS
330
14D5
102
}
330
14D5
100
AcDbXrecord
280
     1
102
RTVSPost2010Prop28
280
     0
102
RTVSPost2010PropOp28
 70
     1
102
RTVSPost2010Prop29
280
     1
102
RTVSPost2010PropOp29
 70
     1
102
RTVSPost2010Prop30
280
     1
102
RTVSPost2010PropOp30
 70
     1
102
RTVSPost2010Prop31
280
     0
102
RTVSPost2010PropOp31
 70
     1
102
RTVSPost2010Prop32
280
     0
102
RTVSPost2010PropOp32
 70
     1
102
RTVSPost2010Prop33
280
     0
102
RTVSPost2010PropOp33
 70
     1
102
RTVSPost2010Prop34
280
     0
102
RTVSPost2010PropOp34
 70
     1
102
RTVSPost2010Prop35
280
     0
102
RTVSPost2010PropOp35
 70
     1
102
RTVSPost2010Prop36
280
     0
102
RTVSPost2010PropOp36
 70
     1
102
RTVSPost2010Prop37
 90
       50
102
RTVSPost2010PropOp37
 70
     1
102
RTVSPost2010Prop38
140
0.0
102
RTVSPost2010PropOp38
 70
     1
102
RTVSPost2010Prop39
140
1.0
102
RTVSPost2010PropOp39
 70
     1
102
RTVSPost2010Prop40
 90
        0
102
RTVSPost2010PropOp40
 70
     1
102
RTVSPost2010Prop41ColorIndex
 90
       18
102
RTVSPost2010Prop41ColorRGB
 90
        0
102
RTVSPost2010PropOp41
 70
     1
102
RTVSPost2010Prop42
 90
       50
102
RTVSPost2010PropOp42
 70
     1
102
RTVSPost2010Prop43
 90
        3
102
RTVSPost2010PropOp43
 70
     1
102
RTVSPost2010Prop44ColorIndex
 90
        5
102
RTVSPost2010Prop44ColorRGB
 90
      255
102
RTVSPost2010PropOp44
 70
     1
102
RTVSPost2010Prop45
280
     0
102
RTVSPost2010PropOp45
 70
     1
102
RTVSPost2010Prop46
 90
       50
102
RTVSPost2010PropOp46
 70
     1
102
RTVSPost2010Prop47
 90
       50
102
RTVSPost2010PropOp47
 70
     1
102
RTVSPost2010Prop48
 90
       50
102
RTVSPost2010PropOp48
 70
     1
102
RTVSPost2010Prop49
280
     0
102
RTVSPost2010PropOp49
 70
     1
102
RTVSPost2010Prop50
 90
       50
102
RTVSPost2010PropOp50
 70
     1
102
RTVSPost2010Prop51ColorIndex
 90
      256
102
RTVSPost2010Prop51ColorRGB
 90
-16777216
102
RTVSPost2010PropOp51
 70
     0
102
RTVSPost2010Prop52
140
1.0
102
RTVSPost2010PropOp52
 70
     0
102
RTVSPost2010Prop53
 90
        2
102
RTVSPost2010PropOp53
 70
     1
102
RTVSPost2010Prop54
  1
strokes_ogs.tif
102
RTVSPost2010PropOp54
 70
     1
102
RTVSPost2010Prop55
280
     0
102
RTVSPost2010PropOp55
 70
     1
102
RTVSPost2010Prop56
140
1.0
102
RTVSPost2010PropOp56
 70
     1
102
RTVSPost2010Prop57
140
1.0
102
RTVSPost2010PropOp57
 70
     1
102
RTVSPropertyOp0
 70
     1
102
RTVSPropertyOp1
 70
     1
102
RTVSPropertyOp2
 70
     1
102
RTVSPropertyOp3
 70
     1
102
RTVSPropertyOp4
 70
     1
102
RTVSPropertyOp5
 70
     1
102
RTVSPropertyOp6
 70
     1
102
RTVSPropertyOp7
 70
     1
102
RTVSPropertyOp8
 70
     1
102
RTVSPropertyOp9
 70
     1
102
RTVSPropertyOp10
 70
     1
102
RTVSPropertyOp11
 70
     1
102
RTVSPropertyOp12
 70
     1
102
RTVSPropertyOp13
 70
     1
102
RTVSPropertyOp14
 70
     1
102
RTVSPropertyOp15
 70
     1
102
RTVSPropertyOp16
 70
     1
102
RTVSPropertyOp17
 70
     1
102
RTVSPropertyOp18
 70
     1
102
RTVSPropertyOp19
 70
     1
102
RTVSPropertyOp20
 70
     1
102
RTVSPropertyOp21
 70
     1
102
RTVSPropertyOp22
 70
     1
102
RTVSPropertyOp23
 70
     1
102
RTVSPropertyOp24
 70
     1
102
RTVSPropertyOp25
 70
     1
102
RTVSPropertyOp26
 70
     1
102
RTVSPropertyOp27
 70
     1
102
RTVSPropertyOp28
 70
     1
102
RTVSPropertyOp29
 70
     1
102
RTVSPropertyOp30
 70
     1
102
RTVSPropertyOp31
 70
     1
102
RTVSPropertyOp32
 70
     1
102
RTVSPropertyOp33
 70
     1
102
RTVSPropertyOp34
 70
     1
102
RTVSPropertyOp35
 70
     1
102
RTVSPropertyOp36
 70
     1
102
RTVSPropertyOp37
 70
     1
102
RTVSPropertyOp38
 70
     1
102
RTVSPropertyOp39
 70
     1
102
RTVSPropertyOp40
 70
     1
102
RTVSPropertyOp41
 70
     1
102
RTVSPropertyOp42
 70
     1
102
RTVSPropertyOp43
 70
     1
102
RTVSPropertyOp44
 70
     1
102
RTVSPropertyOp45
 70
     1
102
RTVSPropertyOp46
 70
     1
102
RTVSPropertyOp47
 70
     1
102
RTVSPropertyOp48
 70
     1
102
RTVSPropertyOp49
 70
     1
102
RTVSPropertyOp50
 70
     1
102
RTVSPropertyOp51
 70
     0
102
RTVSPropertyOp52
 70
     0
102
RTVSPropertyOp53
 70
     1
102
RTVSPropertyOp54
 70
     1
102
RTVSPropertyOp55
 70
     1
102
RTVSPropertyOp56
 70
     1
102
RTVSPropertyOp57
 70
     1
102
RTVSPropertyOp58
 70
     1
102
RTVSPropertyOp59
 70
     1
102
RTVSPropertyOp60
 70
     1
102
RTVSPropertyOp61
 70
     1
102
RTVSPropertyOp62
 70
     1
  0
XRECORD
  5
14DE
102
{ACAD_REACTORS
330
14DD
102
}
330
14DD
100
AcDbXrecord
280
     1
102
RTVSPost2010Prop28
280
     0
102
RTVSPost2010PropOp28
 70
     1
102
RTVSPost2010Prop29
280
     1
102
RTVSPost2010PropOp29
 70
     1
102
RTVSPost2010Prop30
280
     1
102
RTVSPost2010PropOp30
 70
     1
102
RTVSPost2010Prop31
280
     0
102
RTVSPost2010PropOp31
 70
     1
102
RTVSPost2010Prop32
280
     0
102
RTVSPost2010PropOp32
 70
     1
102
RTVSPost2010Prop33
280
     0
102
RTVSPost2010PropOp33
 70
     1
102
RTVSPost2010Prop34
280
     0
102
RTVSPost2010PropOp34
 70
     1
102
RTVSPost2010Prop35
280
     0
102
RTVSPost2010PropOp35
 70
     1
102
RTVSPost2010Prop36
280
     0
102
RTVSPost2010PropOp36
 70
     1
102
RTVSPost2010Prop37
 90
       50
102
RTVSPost2010PropOp37
 70
     1
102
RTVSPost2010Prop38
140
0.0
102
RTVSPost2010PropOp38
 70
     1
102
RTVSPost2010Prop39
140
1.0
102
RTVSPost2010PropOp39
 70
     1
102
RTVSPost2010Prop40
 90
        0
102
RTVSPost2010PropOp40
 70
     1
102
RTVSPost2010Prop41ColorIndex
 90
       18
102
RTVSPost2010Prop41ColorRGB
 90
        0
102
RTVSPost2010PropOp41
 70
     1
102
RTVSPost2010Prop42
 90
       50
102
RTVSPost2010PropOp42
 70
     1
102
RTVSPost2010Prop43
 90
        3
102
RTVSPost2010PropOp43
 70
     1
102
RTVSPost2010Prop44ColorIndex
 90
        5
102
RTVSPost2010Prop44ColorRGB
 90
      255
102
RTVSPost2010PropOp44
 70
     1
102
RTVSPost2010Prop45
280
     0
102
RTVSPost2010PropOp45
 70
     1
102
RTVSPost2010Prop46
 90
       50
102
RTVSPost2010PropOp46
 70
     1
102
RTVSPost2010Prop47
 90
       50
102
RTVSPost2010PropOp47
 70
     1
102
RTVSPost2010Prop48
 90
       50
102
RTVSPost2010PropOp48
 70
     1
102
RTVSPost2010Prop49
280
     0
102
RTVSPost2010PropOp49
 70
     1
102
RTVSPost2010Prop50
 90
       50
102
RTVSPost2010PropOp50
 70
     1
102
RTVSPost2010Prop51ColorIndex
 90
      256
102
RTVSPost2010Prop51ColorRGB
 90
-16777216
102
RTVSPost2010PropOp51
 70
     0
102
RTVSPost2010Prop52
140
1.0
102
RTVSPost2010PropOp52
 70
     0
102
RTVSPost2010Prop53
 90
        2
102
RTVSPost2010PropOp53
 70
     1
102
RTVSPost2010Prop54
  1
strokes_ogs.tif
102
RTVSPost2010PropOp54
 70
     1
102
RTVSPost2010Prop55
280
     0
102
RTVSPost2010PropOp55
 70
     1
102
RTVSPost2010Prop56
140
1.0
102
RTVSPost2010PropOp56
 70
     1
102
RTVSPost2010Prop57
140
1.0
102
RTVSPost2010PropOp57
 70
     1
102
RTVSPropertyOp0
 70
     1
102
RTVSPropertyOp1
 70
     1
102
RTVSPropertyOp2
 70
     1
102
RTVSPropertyOp3
 70
     1
102
RTVSPropertyOp4
 70
     1
102
RTVSPropertyOp5
 70
     1
102
RTVSPropertyOp6
 70
     1
102
RTVSPropertyOp7
 70
     1
102
RTVSPropertyOp8
 70
     1
102
RTVSPropertyOp9
 70
     1
102
RTVSPropertyOp10
 70
     1
102
RTVSPropertyOp11
 70
     1
102
RTVSPropertyOp12
 70
     1
102
RTVSPropertyOp13
 70
     1
102
RTVSPropertyOp14
 70
     1
102
RTVSPropertyOp15
 70
     1
102
RTVSPropertyOp16
 70
     1
102
RTVSPropertyOp17
 70
     1
102
RTVSPropertyOp18
 70
     1
102
RTVSPropertyOp19
 70
     1
102
RTVSPropertyOp20
 70
     1
102
RTVSPropertyOp21
 70
     1
102
RTVSPropertyOp22
 70
     1
102
RTVSPropertyOp23
 70
     1
102
RTVSPropertyOp24
 70
     1
102
RTVSPropertyOp25
 70
     1
102
RTVSPropertyOp26
 70
     1
102
RTVSPropertyOp27
 70
     1
102
RTVSPropertyOp28
 70
     1
102
RTVSPropertyOp29
 70
     1
102
RTVSPropertyOp30
 70
     1
102
RTVSPropertyOp31
 70
     1
102
RTVSPropertyOp32
 70
     1
102
RTVSPropertyOp33
 70
     1
102
RTVSPropertyOp34
 70
     1
102
RTVSPropertyOp35
 70
     1
102
RTVSPropertyOp36
 70
     1
102
RTVSPropertyOp37
 70
     1
102
RTVSPropertyOp38
 70
     1
102
RTVSPropertyOp39
 70
     1
102
RTVSPropertyOp40
 70
     1
102
RTVSPropertyOp41
 70
     1
102
RTVSPropertyOp42
 70
     1
102
RTVSPropertyOp43
 70
     1
102
RTVSPropertyOp44
 70
     1
102
RTVSPropertyOp45
 70
     1
102
RTVSPropertyOp46
 70
     1
102
RTVSPropertyOp47
 70
     1
102
RTVSPropertyOp48
 70
     1
102
RTVSPropertyOp49
 70
     1
102
RTVSPropertyOp50
 70
     1
102
RTVSPropertyOp51
 70
     0
102
RTVSPropertyOp52
 70
     0
102
RTVSPropertyOp53
 70
     1
102
RTVSPropertyOp54
 70
     1
102
RTVSPropertyOp55
 70
     1
102
RTVSPropertyOp56
 70
     1
102
RTVSPropertyOp57
 70
     1
102
RTVSPropertyOp58
 70
     1
102
RTVSPropertyOp59
 70
     1
102
RTVSPropertyOp60
 70
     1
102
RTVSPropertyOp61
 70
     1
102
RTVSPropertyOp62
 70
     1
  0
XRECORD
  5
14D0
102
{ACAD_REACTORS
330
14CF
102
}
330
14CF
100
AcDbXrecord
280
     1
102
RTVSPost2010Prop28
280
     0
102
RTVSPost2010PropOp28
 70
     1
102
RTVSPost2010Prop29
280
     1
102
RTVSPost2010PropOp29
 70
     1
102
RTVSPost2010Prop30
280
     1
102
RTVSPost2010PropOp30
 70
     1
102
RTVSPost2010Prop31
280
     0
102
RTVSPost2010PropOp31
 70
     1
102
RTVSPost2010Prop32
280
     0
102
RTVSPost2010PropOp32
 70
     1
102
RTVSPost2010Prop33
280
     0
102
RTVSPost2010PropOp33
 70
     1
102
RTVSPost2010Prop34
280
     0
102
RTVSPost2010PropOp34
 70
     1
102
RTVSPost2010Prop35
280
     0
102
RTVSPost2010PropOp35
 70
     1
102
RTVSPost2010Prop36
280
     0
102
RTVSPost2010PropOp36
 70
     1
102
RTVSPost2010Prop37
 90
       50
102
RTVSPost2010PropOp37
 70
     1
102
RTVSPost2010Prop38
140
0.0
102
RTVSPost2010PropOp38
 70
     1
102
RTVSPost2010Prop39
140
1.0
102
RTVSPost2010PropOp39
 70
     1
102
RTVSPost2010Prop40
 90
        0
102
RTVSPost2010PropOp40
 70
     1
102
RTVSPost2010Prop41ColorIndex
 90
       18
102
RTVSPost2010Prop41ColorRGB
 90
        0
102
RTVSPost2010PropOp41
 70
     1
102
RTVSPost2010Prop42
 90
       50
102
RTVSPost2010PropOp42
 70
     1
102
RTVSPost2010Prop43
 90
        3
102
RTVSPost2010PropOp43
 70
     1
102
RTVSPost2010Prop44ColorIndex
 90
        5
102
RTVSPost2010Prop44ColorRGB
 90
      255
102
RTVSPost2010PropOp44
 70
     1
102
RTVSPost2010Prop45
280
     0
102
RTVSPost2010PropOp45
 70
     1
102
RTVSPost2010Prop46
 90
       50
102
RTVSPost2010PropOp46
 70
     1
102
RTVSPost2010Prop47
 90
       50
102
RTVSPost2010PropOp47
 70
     1
102
RTVSPost2010Prop48
 90
       50
102
RTVSPost2010PropOp48
 70
     1
102
RTVSPost2010Prop49
280
     0
102
RTVSPost2010PropOp49
 70
     1
102
RTVSPost2010Prop50
 90
       50
102
RTVSPost2010PropOp50
 70
     1
102
RTVSPost2010Prop51ColorIndex
 90
      256
102
RTVSPost2010Prop51ColorRGB
 90
-16777216
102
RTVSPost2010PropOp51
 70
     0
102
RTVSPost2010Prop52
140
1.0
102
RTVSPost2010PropOp52
 70
     0
102
RTVSPost2010Prop53
 90
        2
102
RTVSPost2010PropOp53
 70
     1
102
RTVSPost2010Prop54
  1
strokes_ogs.tif
102
RTVSPost2010PropOp54
 70
     1
102
RTVSPost2010Prop55
280
     0
102
RTVSPost2010PropOp55
 70
     1
102
RTVSPost2010Prop56
140
1.0
102
RTVSPost2010PropOp56
 70
     1
102
RTVSPost2010Prop57
140
1.0
102
RTVSPost2010PropOp57
 70
     1
102
RTVSPropertyOp0
 70
     1
102
RTVSPropertyOp1
 70
     1
102
RTVSPropertyOp2
 70
     1
102
RTVSPropertyOp3
 70
     1
102
RTVSPropertyOp4
 70
     1
102
RTVSPropertyOp5
 70
     1
102
RTVSPropertyOp6
 70
     1
102
RTVSPropertyOp7
 70
     1
102
RTVSPropertyOp8
 70
     1
102
RTVSPropertyOp9
 70
     1
102
RTVSPropertyOp10
 70
     1
102
RTVSPropertyOp11
 70
     1
102
RTVSPropertyOp12
 70
     1
102
RTVSPropertyOp13
 70
     1
102
RTVSPropertyOp14
 70
     1
102
RTVSPropertyOp15
 70
     1
102
RTVSPropertyOp16
 70
     1
102
RTVSPropertyOp17
 70
     1
102
RTVSPropertyOp18
 70
     1
102
RTVSPropertyOp19
 70
     1
102
RTVSPropertyOp20
 70
     1
102
RTVSPropertyOp21
 70
     1
102
RTVSPropertyOp22
 70
     1
102
RTVSPropertyOp23
 70
     1
102
RTVSPropertyOp24
 70
     1
102
RTVSPropertyOp25
 70
     1
102
RTVSPropertyOp26
 70
     1
102
RTVSPropertyOp27
 70
     1
102
RTVSPropertyOp28
 70
     1
102
RTVSPropertyOp29
 70
     1
102
RTVSPropertyOp30
 70
     1
102
RTVSPropertyOp31
 70
     1
102
RTVSPropertyOp32
 70
     1
102
RTVSPropertyOp33
 70
     1
102
RTVSPropertyOp34
 70
     1
102
RTVSPropertyOp35
 70
     1
102
RTVSPropertyOp36
 70
     1
102
RTVSPropertyOp37
 70
     1
102
RTVSPropertyOp38
 70
     1
102
RTVSPropertyOp39
 70
     1
102
RTVSPropertyOp40
 70
     1
102
RTVSPropertyOp41
 70
     1
102
RTVSPropertyOp42
 70
     1
102
RTVSPropertyOp43
 70
     1
102
RTVSPropertyOp44
 70
     1
102
RTVSPropertyOp45
 70
     1
102
RTVSPropertyOp46
 70
     1
102
RTVSPropertyOp47
 70
     1
102
RTVSPropertyOp48
 70
     1
102
RTVSPropertyOp49
 70
     1
102
RTVSPropertyOp50
 70
     1
102
RTVSPropertyOp51
 70
     0
102
RTVSPropertyOp52
 70
     0
102
RTVSPropertyOp53
 70
     1
102
RTVSPropertyOp54
 70
     1
102
RTVSPropertyOp55
 70
     1
102
RTVSPropertyOp56
 70
     1
102
RTVSPropertyOp57
 70
     1
102
RTVSPropertyOp58
 70
     1
102
RTVSPropertyOp59
 70
     1
102
RTVSPropertyOp60
 70
     1
102
RTVSPropertyOp61
 70
     1
102
RTVSPropertyOp62
 70
     1
  0
XRECORD
  5
14D4
102
{ACAD_REACTORS
330
14D3
102
}
330
14D3
100
AcDbXrecord
280
     1
102
RTVSPost2010Prop28
280
     0
102
RTVSPost2010PropOp28
 70
     1
102
RTVSPost2010Prop29
280
     1
102
RTVSPost2010PropOp29
 70
     1
102
RTVSPost2010Prop30
280
     1
102
RTVSPost2010PropOp30
 70
     1
102
RTVSPost2010Prop31
280
     0
102
RTVSPost2010PropOp31
 70
     1
102
RTVSPost2010Prop32
280
     0
102
RTVSPost2010PropOp32
 70
     1
102
RTVSPost2010Prop33
280
     0
102
RTVSPost2010PropOp33
 70
     1
102
RTVSPost2010Prop34
280
     0
102
RTVSPost2010PropOp34
 70
     1
102
RTVSPost2010Prop35
280
     0
102
RTVSPost2010PropOp35
 70
     1
102
RTVSPost2010Prop36
280
     0
102
RTVSPost2010PropOp36
 70
     1
102
RTVSPost2010Prop37
 90
       50
102
RTVSPost2010PropOp37
 70
     1
102
RTVSPost2010Prop38
140
0.0
102
RTVSPost2010PropOp38
 70
     1
102
RTVSPost2010Prop39
140
1.0
102
RTVSPost2010PropOp39
 70
     1
102
RTVSPost2010Prop40
 90
        0
102
RTVSPost2010PropOp40
 70
     1
102
RTVSPost2010Prop41ColorIndex
 90
       18
102
RTVSPost2010Prop41ColorRGB
 90
        0
102
RTVSPost2010PropOp41
 70
     1
102
RTVSPost2010Prop42
 90
       50
102
RTVSPost2010PropOp42
 70
     1
102
RTVSPost2010Prop43
 90
        3
102
RTVSPost2010PropOp43
 70
     1
102
RTVSPost2010Prop44ColorIndex
 90
        5
102
RTVSPost2010Prop44ColorRGB
 90
      255
102
RTVSPost2010PropOp44
 70
     1
102
RTVSPost2010Prop45
280
     0
102
RTVSPost2010PropOp45
 70
     1
102
RTVSPost2010Prop46
 90
       50
102
RTVSPost2010PropOp46
 70
     1
102
RTVSPost2010Prop47
 90
       50
102
RTVSPost2010PropOp47
 70
     1
102
RTVSPost2010Prop48
 90
       50
102
RTVSPost2010PropOp48
 70
     1
102
RTVSPost2010Prop49
280
     0
102
RTVSPost2010PropOp49
 70
     1
102
RTVSPost2010Prop50
 90
       50
102
RTVSPost2010PropOp50
 70
     1
102
RTVSPost2010Prop51ColorIndex
 90
      256
102
RTVSPost2010Prop51ColorRGB
 90
-16777216
102
RTVSPost2010PropOp51
 70
     0
102
RTVSPost2010Prop52
140
1.0
102
RTVSPost2010PropOp52
 70
     0
102
RTVSPost2010Prop53
 90
        2
102
RTVSPost2010PropOp53
 70
     1
102
RTVSPost2010Prop54
  1
strokes_ogs.tif
102
RTVSPost2010PropOp54
 70
     1
102
RTVSPost2010Prop55
280
     0
102
RTVSPost2010PropOp55
 70
     1
102
RTVSPost2010Prop56
140
1.0
102
RTVSPost2010PropOp56
 70
     1
102
RTVSPost2010Prop57
140
1.0
102
RTVSPost2010PropOp57
 70
     1
102
RTVSPropertyOp0
 70
     1
102
RTVSPropertyOp1
 70
     1
102
RTVSPropertyOp2
 70
     1
102
RTVSPropertyOp3
 70
     1
102
RTVSPropertyOp4
 70
     1
102
RTVSPropertyOp5
 70
     1
102
RTVSPropertyOp6
 70
     1
102
RTVSPropertyOp7
 70
     1
102
RTVSPropertyOp8
 70
     1
102
RTVSPropertyOp9
 70
     1
102
RTVSPropertyOp10
 70
     1
102
RTVSPropertyOp11
 70
     1
102
RTVSPropertyOp12
 70
     1
102
RTVSPropertyOp13
 70
     1
102
RTVSPropertyOp14
 70
     1
102
RTVSPropertyOp15
 70
     1
102
RTVSPropertyOp16
 70
     1
102
RTVSPropertyOp17
 70
     1
102
RTVSPropertyOp18
 70
     1
102
RTVSPropertyOp19
 70
     1
102
RTVSPropertyOp20
 70
     1
102
RTVSPropertyOp21
 70
     1
102
RTVSPropertyOp22
 70
     1
102
RTVSPropertyOp23
 70
     1
102
RTVSPropertyOp24
 70
     1
102
RTVSPropertyOp25
 70
     1
102
RTVSPropertyOp26
 70
     1
102
RTVSPropertyOp27
 70
     1
102
RTVSPropertyOp28
 70
     1
102
RTVSPropertyOp29
 70
     1
102
RTVSPropertyOp30
 70
     1
102
RTVSPropertyOp31
 70
     1
102
RTVSPropertyOp32
 70
     1
102
RTVSPropertyOp33
 70
     1
102
RTVSPropertyOp34
 70
     1
102
RTVSPropertyOp35
 70
     1
102
RTVSPropertyOp36
 70
     1
102
RTVSPropertyOp37
 70
     1
102
RTVSPropertyOp38
 70
     1
102
RTVSPropertyOp39
 70
     1
102
RTVSPropertyOp40
 70
     1
102
RTVSPropertyOp41
 70
     1
102
RTVSPropertyOp42
 70
     1
102
RTVSPropertyOp43
 70
     1
102
RTVSPropertyOp44
 70
     1
102
RTVSPropertyOp45
 70
     1
102
RTVSPropertyOp46
 70
     1
102
RTVSPropertyOp47
 70
     1
102
RTVSPropertyOp48
 70
     1
102
RTVSPropertyOp49
 70
     1
102
RTVSPropertyOp50
 70
     1
102
RTVSPropertyOp51
 70
     0
102
RTVSPropertyOp52
 70
     0
102
RTVSPropertyOp53
 70
     1
102
RTVSPropertyOp54
 70
     1
102
RTVSPropertyOp55
 70
     1
102
RTVSPropertyOp56
 70
     1
102
RTVSPropertyOp57
 70
     1
102
RTVSPropertyOp58
 70
     1
102
RTVSPropertyOp59
 70
     1
102
RTVSPropertyOp60
 70
     1
102
RTVSPropertyOp61
 70
     1
102
RTVSPropertyOp62
 70
     1
  0
XRECORD
  5
14EE
102
{ACAD_REACTORS
330
14ED
102
}
330
14ED
100
AcDbXrecord
280
     1
102
RTVSPost2010Prop28
280
     0
102
RTVSPost2010PropOp28
 70
     1
102
RTVSPost2010Prop29
280
     1
102
RTVSPost2010PropOp29
 70
     1
102
RTVSPost2010Prop30
280
     1
102
RTVSPost2010PropOp30
 70
     1
102
RTVSPost2010Prop31
280
     0
102
RTVSPost2010PropOp31
 70
     1
102
RTVSPost2010Prop32
280
     0
102
RTVSPost2010PropOp32
 70
     1
102
RTVSPost2010Prop33
280
     0
102
RTVSPost2010PropOp33
 70
     1
102
RTVSPost2010Prop34
280
     0
102
RTVSPost2010PropOp34
 70
     1
102
RTVSPost2010Prop35
280
     0
102
RTVSPost2010PropOp35
 70
     1
102
RTVSPost2010Prop36
280
     0
102
RTVSPost2010PropOp36
 70
     1
102
RTVSPost2010Prop37
 90
       50
102
RTVSPost2010PropOp37
 70
     0
102
RTVSPost2010Prop38
140
0.0
102
RTVSPost2010PropOp38
 70
     0
102
RTVSPost2010Prop39
140
1.0
102
RTVSPost2010PropOp39
 70
     0
102
RTVSPost2010Prop40
 90
        0
102
RTVSPost2010PropOp40
 70
     0
102
RTVSPost2010Prop41ColorIndex
 90
       18
102
RTVSPost2010Prop41ColorRGB
 90
        0
102
RTVSPost2010PropOp41
 70
     0
102
RTVSPost2010Prop42
 90
       50
102
RTVSPost2010PropOp42
 70
     0
102
RTVSPost2010Prop43
 90
        3
102
RTVSPost2010PropOp43
 70
     0
102
RTVSPost2010Prop44ColorIndex
 90
        5
102
RTVSPost2010Prop44ColorRGB
 90
      255
102
RTVSPost2010PropOp44
 70
     0
102
RTVSPost2010Prop45
280
     0
102
RTVSPost2010PropOp45
 70
     1
102
RTVSPost2010Prop46
 90
       50
102
RTVSPost2010PropOp46
 70
     0
102
RTVSPost2010Prop47
 90
       50
102
RTVSPost2010PropOp47
 70
     0
102
RTVSPost2010Prop48
 90
       50
102
RTVSPost2010PropOp48
 70
     0
102
RTVSPost2010Prop49
280
     0
102
RTVSPost2010PropOp49
 70
     1
102
RTVSPost2010Prop50
 90
       50
102
RTVSPost2010PropOp50
 70
     0
102
RTVSPost2010Prop51ColorIndex
 90
      256
102
RTVSPost2010Prop51ColorRGB
 90
-16777216
102
RTVSPost2010PropOp51
 70
     0
102
RTVSPost2010Prop52
140
1.0
102
RTVSPost2010PropOp52
 70
     0
102
RTVSPost2010Prop53
 90
        2
102
RTVSPost2010PropOp53
 70
     0
102
RTVSPost2010Prop54
  1
strokes_ogs.tif
102
RTVSPost2010PropOp54
 70
     0
102
RTVSPost2010Prop55
280
     0
102
RTVSPost2010PropOp55
 70
     1
102
RTVSPost2010Prop56
140
1.0
102
RTVSPost2010PropOp56
 70
     0
102
RTVSPost2010Prop57
140
1.0
102
RTVSPost2010PropOp57
 70
     0
102
RTVSPropertyOp0
 70
     0
102
RTVSPropertyOp1
 70
     0
102
RTVSPropertyOp2
 70
     0
102
RTVSPropertyOp3
 70
     0
102
RTVSPropertyOp4
 70
     0
102
RTVSPropertyOp5
 70
     0
102
RTVSPropertyOp6
 70
     0
102
RTVSPropertyOp7
 70
     0
102
RTVSPropertyOp8
 70
     0
102
RTVSPropertyOp9
 70
     0
102
RTVSPropertyOp10
 70
     0
102
RTVSPropertyOp11
 70
     0
102
RTVSPropertyOp12
 70
     0
102
RTVSPropertyOp13
 70
     0
102
RTVSPropertyOp14
 70
     2
102
RTVSPropertyOp15
 70
     0
102
RTVSPropertyOp16
 70
     0
102
RTVSPropertyOp17
 70
     0
102
RTVSPropertyOp18
 70
     0
102
RTVSPropertyOp19
 70
     0
102
RTVSPropertyOp20
 70
     0
102
RTVSPropertyOp21
 70
     0
102
RTVSPropertyOp22
 70
     0
102
RTVSPropertyOp23
 70
     0
102
RTVSPropertyOp24
 70
     0
102
RTVSPropertyOp25
 70
     0
102
RTVSPropertyOp26
 70
     0
102
RTVSPropertyOp27
 70
     0
102
RTVSPropertyOp28
 70
     1
102
RTVSPropertyOp29
 70
     1
102
RTVSPropertyOp30
 70
     1
102
RTVSPropertyOp31
 70
     1
102
RTVSPropertyOp32
 70
     1
102
RTVSPropertyOp33
 70
     1
102
RTVSPropertyOp34
 70
     1
102
RTVSPropertyOp35
 70
     1
102
RTVSPropertyOp36
 70
     1
102
RTVSPropertyOp37
 70
     0
102
RTVSPropertyOp38
 70
     0
102
RTVSPropertyOp39
 70
     0
102
RTVSPropertyOp40
 70
     0
102
RTVSPropertyOp41
 70
     0
102
RTVSPropertyOp42
 70
     0
102
RTVSPropertyOp43
 70
     0
102
RTVSPropertyOp44
 70
     0
102
RTVSPropertyOp45
 70
     1
102
RTVSPropertyOp46
 70
     0
102
RTVSPropertyOp47
 70
     0
102
RTVSPropertyOp48
 70
     0
102
RTVSPropertyOp49
 70
     1
102
RTVSPropertyOp50
 70
     0
102
RTVSPropertyOp51
 70
     0
102
RTVSPropertyOp52
 70
     0
102
RTVSPropertyOp53
 70
     0
102
RTVSPropertyOp54
 70
     0
102
RTVSPropertyOp55
 70
     1
102
RTVSPropertyOp56
 70
     0
102
RTVSPropertyOp57
 70
     0
102
RTVSPropertyOp58
 70
     0
102
RTVSPropertyOp59
 70
     0
102
RTVSPropertyOp60
 70
     0
102
RTVSPropertyOp61
 70
     0
102
RTVSPropertyOp62
 70
     0
  0
XRECORD
  5
14DC
102
{ACAD_REACTORS
330
14DB
102
}
330
14DB
100
AcDbXrecord
280
     1
102
RTVSPost2010Prop28
280
     0
102
RTVSPost2010PropOp28
 70
     1
102
RTVSPost2010Prop29
280
     1
102
RTVSPost2010PropOp29
 70
     1
102
RTVSPost2010Prop30
280
     1
102
RTVSPost2010PropOp30
 70
     1
102
RTVSPost2010Prop31
280
     0
102
RTVSPost2010PropOp31
 70
     1
102
RTVSPost2010Prop32
280
     0
102
RTVSPost2010PropOp32
 70
     1
102
RTVSPost2010Prop33
280
     0
102
RTVSPost2010PropOp33
 70
     1
102
RTVSPost2010Prop34
280
     0
102
RTVSPost2010PropOp34
 70
     1
102
RTVSPost2010Prop35
280
     0
102
RTVSPost2010PropOp35
 70
     1
102
RTVSPost2010Prop36
280
     0
102
RTVSPost2010PropOp36
 70
     1
102
RTVSPost2010Prop37
 90
       50
102
RTVSPost2010PropOp37
 70
     1
102
RTVSPost2010Prop38
140
0.0
102
RTVSPost2010PropOp38
 70
     1
102
RTVSPost2010Prop39
140
1.0
102
RTVSPost2010PropOp39
 70
     1
102
RTVSPost2010Prop40
 90
        0
102
RTVSPost2010PropOp40
 70
     1
102
RTVSPost2010Prop41ColorIndex
 90
       18
102
RTVSPost2010Prop41ColorRGB
 90
        0
102
RTVSPost2010PropOp41
 70
     1
102
RTVSPost2010Prop42
 90
       50
102
RTVSPost2010PropOp42
 70
     1
102
RTVSPost2010Prop43
 90
        3
102
RTVSPost2010PropOp43
 70
     1
102
RTVSPost2010Prop44ColorIndex
 90
        5
102
RTVSPost2010Prop44ColorRGB
 90
      255
102
RTVSPost2010PropOp44
 70
     1
102
RTVSPost2010Prop45
280
     0
102
RTVSPost2010PropOp45
 70
     1
102
RTVSPost2010Prop46
 90
       50
102
RTVSPost2010PropOp46
 70
     1
102
RTVSPost2010Prop47
 90
       50
102
RTVSPost2010PropOp47
 70
     1
102
RTVSPost2010Prop48
 90
       50
102
RTVSPost2010PropOp48
 70
     1
102
RTVSPost2010Prop49
280
     0
102
RTVSPost2010PropOp49
 70
     1
102
RTVSPost2010Prop50
 90
       50
102
RTVSPost2010PropOp50
 70
     1
102
RTVSPost2010Prop51ColorIndex
 90
      256
102
RTVSPost2010Prop51ColorRGB
 90
-16777216
102
RTVSPost2010PropOp51
 70
     0
102
RTVSPost2010Prop52
140
1.0
102
RTVSPost2010PropOp52
 70
     0
102
RTVSPost2010Prop53
 90
        2
102
RTVSPost2010PropOp53
 70
     1
102
RTVSPost2010Prop54
  1
strokes_ogs.tif
102
RTVSPost2010PropOp54
 70
     1
102
RTVSPost2010Prop55
280
     0
102
RTVSPost2010PropOp55
 70
     1
102
RTVSPost2010Prop56
140
1.0
102
RTVSPost2010PropOp56
 70
     1
102
RTVSPost2010Prop57
140
1.0
102
RTVSPost2010PropOp57
 70
     1
102
RTVSPropertyOp0
 70
     1
102
RTVSPropertyOp1
 70
     1
102
RTVSPropertyOp2
 70
     1
102
RTVSPropertyOp3
 70
     1
102
RTVSPropertyOp4
 70
     1
102
RTVSPropertyOp5
 70
     1
102
RTVSPropertyOp6
 70
     1
102
RTVSPropertyOp7
 70
     1
102
RTVSPropertyOp8
 70
     1
102
RTVSPropertyOp9
 70
     1
102
RTVSPropertyOp10
 70
     1
102
RTVSPropertyOp11
 70
     1
102
RTVSPropertyOp12
 70
     1
102
RTVSPropertyOp13
 70
     1
102
RTVSPropertyOp14
 70
     1
102
RTVSPropertyOp15
 70
     1
102
RTVSPropertyOp16
 70
     1
102
RTVSPropertyOp17
 70
     1
102
RTVSPropertyOp18
 70
     1
102
RTVSPropertyOp19
 70
     1
102
RTVSPropertyOp20
 70
     1
102
RTVSPropertyOp21
 70
     1
102
RTVSPropertyOp22
 70
     1
102
RTVSPropertyOp23
 70
     1
102
RTVSPropertyOp24
 70
     1
102
RTVSPropertyOp25
 70
     1
102
RTVSPropertyOp26
 70
     1
102
RTVSPropertyOp27
 70
     1
102
RTVSPropertyOp28
 70
     1
102
RTVSPropertyOp29
 70
     1
102
RTVSPropertyOp30
 70
     1
102
RTVSPropertyOp31
 70
     1
102
RTVSPropertyOp32
 70
     1
102
RTVSPropertyOp33
 70
     1
102
RTVSPropertyOp34
 70
     1
102
RTVSPropertyOp35
 70
     1
102
RTVSPropertyOp36
 70
     1
102
RTVSPropertyOp37
 70
     1
102
RTVSPropertyOp38
 70
     1
102
RTVSPropertyOp39
 70
     1
102
RTVSPropertyOp40
 70
     1
102
RTVSPropertyOp41
 70
     1
102
RTVSPropertyOp42
 70
     1
102
RTVSPropertyOp43
 70
     1
102
RTVSPropertyOp44
 70
     1
102
RTVSPropertyOp45
 70
     1
102
RTVSPropertyOp46
 70
     1
102
RTVSPropertyOp47
 70
     1
102
RTVSPropertyOp48
 70
     1
102
RTVSPropertyOp49
 70
     1
102
RTVSPropertyOp50
 70
     1
102
RTVSPropertyOp51
 70
     0
102
RTVSPropertyOp52
 70
     0
102
RTVSPropertyOp53
 70
     1
102
RTVSPropertyOp54
 70
     1
102
RTVSPropertyOp55
 70
     1
102
RTVSPropertyOp56
 70
     1
102
RTVSPropertyOp57
 70
     1
102
RTVSPropertyOp58
 70
     1
102
RTVSPropertyOp59
 70
     1
102
RTVSPropertyOp60
 70
     1
102
RTVSPropertyOp61
 70
     1
102
RTVSPropertyOp62
 70
     1
  0
XRECORD
  5
14C0
102
{ACAD_REACTORS
330
14BF
102
}
330
14BF
100
AcDbXrecord
280
     1
102
RTVSPost2010Prop28
280
     0
102
RTVSPost2010PropOp28
 70
     1
102
RTVSPost2010Prop29
280
     1
102
RTVSPost2010PropOp29
 70
     1
102
RTVSPost2010Prop30
280
     1
102
RTVSPost2010PropOp30
 70
     1
102
RTVSPost2010Prop31
280
     0
102
RTVSPost2010PropOp31
 70
     1
102
RTVSPost2010Prop32
280
     0
102
RTVSPost2010PropOp32
 70
     1
102
RTVSPost2010Prop33
280
     0
102
RTVSPost2010PropOp33
 70
     1
102
RTVSPost2010Prop34
280
     0
102
RTVSPost2010PropOp34
 70
     1
102
RTVSPost2010Prop35
280
     0
102
RTVSPost2010PropOp35
 70
     1
102
RTVSPost2010Prop36
280
     0
102
RTVSPost2010PropOp36
 70
     1
102
RTVSPost2010Prop37
 90
       50
102
RTVSPost2010PropOp37
 70
     1
102
RTVSPost2010Prop38
140
0.0
102
RTVSPost2010PropOp38
 70
     1
102
RTVSPost2010Prop39
140
1.0
102
RTVSPost2010PropOp39
 70
     1
102
RTVSPost2010Prop40
 90
        0
102
RTVSPost2010PropOp40
 70
     1
102
RTVSPost2010Prop41ColorIndex
 90
       18
102
RTVSPost2010Prop41ColorRGB
 90
        0
102
RTVSPost2010PropOp41
 70
     1
102
RTVSPost2010Prop42
 90
       50
102
RTVSPost2010PropOp42
 70
     1
102
RTVSPost2010Prop43
 90
        3
102
RTVSPost2010PropOp43
 70
     1
102
RTVSPost2010Prop44ColorIndex
 90
        5
102
RTVSPost2010Prop44ColorRGB
 90
      255
102
RTVSPost2010PropOp44
 70
     1
102
RTVSPost2010Prop45
280
     0
102
RTVSPost2010PropOp45
 70
     1
102
RTVSPost2010Prop46
 90
       50
102
RTVSPost2010PropOp46
 70
     1
102
RTVSPost2010Prop47
 90
       50
102
RTVSPost2010PropOp47
 70
     1
102
RTVSPost2010Prop48
 90
       50
102
RTVSPost2010PropOp48
 70
     1
102
RTVSPost2010Prop49
280
     0
102
RTVSPost2010PropOp49
 70
     1
102
RTVSPost2010Prop50
 90
       50
102
RTVSPost2010PropOp50
 70
     1
102
RTVSPost2010Prop51ColorIndex
 90
      256
102
RTVSPost2010Prop51ColorRGB
 90
-16777216
102
RTVSPost2010PropOp51
 70
     0
102
RTVSPost2010Prop52
140
1.0
102
RTVSPost2010PropOp52
 70
     0
102
RTVSPost2010Prop53
 90
        2
102
RTVSPost2010PropOp53
 70
     1
102
RTVSPost2010Prop54
  1
strokes_ogs.tif
102
RTVSPost2010PropOp54
 70
     1
102
RTVSPost2010Prop55
280
     0
102
RTVSPost2010PropOp55
 70
     1
102
RTVSPost2010Prop56
140
1.0
102
RTVSPost2010PropOp56
 70
     1
102
RTVSPost2010Prop57
140
1.0
102
RTVSPost2010PropOp57
 70
     1
102
RTVSPropertyOp0
 70
     1
102
RTVSPropertyOp1
 70
     1
102
RTVSPropertyOp2
 70
     1
102
RTVSPropertyOp3
 70
     1
102
RTVSPropertyOp4
 70
     1
102
RTVSPropertyOp5
 70
     1
102
RTVSPropertyOp6
 70
     1
102
RTVSPropertyOp7
 70
     1
102
RTVSPropertyOp8
 70
     1
102
RTVSPropertyOp9
 70
     1
102
RTVSPropertyOp10
 70
     1
102
RTVSPropertyOp11
 70
     1
102
RTVSPropertyOp12
 70
     1
102
RTVSPropertyOp13
 70
     1
102
RTVSPropertyOp14
 70
     1
102
RTVSPropertyOp15
 70
     1
102
RTVSPropertyOp16
 70
     1
102
RTVSPropertyOp17
 70
     1
102
RTVSPropertyOp18
 70
     1
102
RTVSPropertyOp19
 70
     1
102
RTVSPropertyOp20
 70
     1
102
RTVSPropertyOp21
 70
     1
102
RTVSPropertyOp22
 70
     1
102
RTVSPropertyOp23
 70
     1
102
RTVSPropertyOp24
 70
     1
102
RTVSPropertyOp25
 70
     1
102
RTVSPropertyOp26
 70
     1
102
RTVSPropertyOp27
 70
     1
102
RTVSPropertyOp28
 70
     1
102
RTVSPropertyOp29
 70
     1
102
RTVSPropertyOp30
 70
     1
102
RTVSPropertyOp31
 70
     1
102
RTVSPropertyOp32
 70
     1
102
RTVSPropertyOp33
 70
     1
102
RTVSPropertyOp34
 70
     1
102
RTVSPropertyOp35
 70
     1
102
RTVSPropertyOp36
 70
     1
102
RTVSPropertyOp37
 70
     1
102
RTVSPropertyOp38
 70
     1
102
RTVSPropertyOp39
 70
     1
102
RTVSPropertyOp40
 70
     1
102
RTVSPropertyOp41
 70
     1
102
RTVSPropertyOp42
 70
     1
102
RTVSPropertyOp43
 70
     1
102
RTVSPropertyOp44
 70
     1
102
RTVSPropertyOp45
 70
     1
102
RTVSPropertyOp46
 70
     1
102
RTVSPropertyOp47
 70
     1
102
RTVSPropertyOp48
 70
     1
102
RTVSPropertyOp49
 70
     1
102
RTVSPropertyOp50
 70
     1
102
RTVSPropertyOp51
 70
     0
102
RTVSPropertyOp52
 70
     0
102
RTVSPropertyOp53
 70
     1
102
RTVSPropertyOp54
 70
     1
102
RTVSPropertyOp55
 70
     1
102
RTVSPropertyOp56
 70
     1
102
RTVSPropertyOp57
 70
     1
102
RTVSPropertyOp58
 70
     1
102
RTVSPropertyOp59
 70
     1
102
RTVSPropertyOp60
 70
     1
102
RTVSPropertyOp61
 70
     1
102
RTVSPropertyOp62
 70
     1
  0
XRECORD
  5
14C2
102
{ACAD_REACTORS
330
14C1
102
}
330
14C1
100
AcDbXrecord
280
     1
102
RTVSPost2010Prop28
280
     0
102
RTVSPost2010PropOp28
 70
     1
102
RTVSPost2010Prop29
280
     1
102
RTVSPost2010PropOp29
 70
     1
102
RTVSPost2010Prop30
280
     1
102
RTVSPost2010PropOp30
 70
     1
102
RTVSPost2010Prop31
280
     0
102
RTVSPost2010PropOp31
 70
     1
102
RTVSPost2010Prop32
280
     0
102
RTVSPost2010PropOp32
 70
     1
102
RTVSPost2010Prop33
280
     0
102
RTVSPost2010PropOp33
 70
     1
102
RTVSPost2010Prop34
280
     0
102
RTVSPost2010PropOp34
 70
     1
102
RTVSPost2010Prop35
280
     0
102
RTVSPost2010PropOp35
 70
     1
102
RTVSPost2010Prop36
280
     0
102
RTVSPost2010PropOp36
 70
     1
102
RTVSPost2010Prop37
 90
       50
102
RTVSPost2010PropOp37
 70
     1
102
RTVSPost2010Prop38
140
0.0
102
RTVSPost2010PropOp38
 70
     1
102
RTVSPost2010Prop39
140
1.0
102
RTVSPost2010PropOp39
 70
     1
102
RTVSPost2010Prop40
 90
        0
102
RTVSPost2010PropOp40
 70
     1
102
RTVSPost2010Prop41ColorIndex
 90
       18
102
RTVSPost2010Prop41ColorRGB
 90
        0
102
RTVSPost2010PropOp41
 70
     1
102
RTVSPost2010Prop42
 90
       50
102
RTVSPost2010PropOp42
 70
     1
102
RTVSPost2010Prop43
 90
        3
102
RTVSPost2010PropOp43
 70
     1
102
RTVSPost2010Prop44ColorIndex
 90
        5
102
RTVSPost2010Prop44ColorRGB
 90
      255
102
RTVSPost2010PropOp44
 70
     1
102
RTVSPost2010Prop45
280
     0
102
RTVSPost2010PropOp45
 70
     1
102
RTVSPost2010Prop46
 90
       50
102
RTVSPost2010PropOp46
 70
     1
102
RTVSPost2010Prop47
 90
       50
102
RTVSPost2010PropOp47
 70
     1
102
RTVSPost2010Prop48
 90
       50
102
RTVSPost2010PropOp48
 70
     1
102
RTVSPost2010Prop49
280
     0
102
RTVSPost2010PropOp49
 70
     1
102
RTVSPost2010Prop50
 90
       50
102
RTVSPost2010PropOp50
 70
     1
102
RTVSPost2010Prop51ColorIndex
 90
      256
102
RTVSPost2010Prop51ColorRGB
 90
-16777216
102
RTVSPost2010PropOp51
 70
     0
102
RTVSPost2010Prop52
140
1.0
102
RTVSPost2010PropOp52
 70
     0
102
RTVSPost2010Prop53
 90
        2
102
RTVSPost2010PropOp53
 70
     1
102
RTVSPost2010Prop54
  1
strokes_ogs.tif
102
RTVSPost2010PropOp54
 70
     1
102
RTVSPost2010Prop55
280
     0
102
RTVSPost2010PropOp55
 70
     1
102
RTVSPost2010Prop56
140
1.0
102
RTVSPost2010PropOp56
 70
     1
102
RTVSPost2010Prop57
140
1.0
102
RTVSPost2010PropOp57
 70
     1
102
RTVSPropertyOp0
 70
     1
102
RTVSPropertyOp1
 70
     1
102
RTVSPropertyOp2
 70
     1
102
RTVSPropertyOp3
 70
     1
102
RTVSPropertyOp4
 70
     1
102
RTVSPropertyOp5
 70
     1
102
RTVSPropertyOp6
 70
     1
102
RTVSPropertyOp7
 70
     1
102
RTVSPropertyOp8
 70
     1
102
RTVSPropertyOp9
 70
     1
102
RTVSPropertyOp10
 70
     1
102
RTVSPropertyOp11
 70
     1
102
RTVSPropertyOp12
 70
     1
102
RTVSPropertyOp13
 70
     1
102
RTVSPropertyOp14
 70
     1
102
RTVSPropertyOp15
 70
     1
102
RTVSPropertyOp16
 70
     1
102
RTVSPropertyOp17
 70
     1
102
RTVSPropertyOp18
 70
     1
102
RTVSPropertyOp19
 70
     1
102
RTVSPropertyOp20
 70
     1
102
RTVSPropertyOp21
 70
     1
102
RTVSPropertyOp22
 70
     1
102
RTVSPropertyOp23
 70
     1
102
RTVSPropertyOp24
 70
     1
102
RTVSPropertyOp25
 70
     1
102
RTVSPropertyOp26
 70
     1
102
RTVSPropertyOp27
 70
     1
102
RTVSPropertyOp28
 70
     1
102
RTVSPropertyOp29
 70
     1
102
RTVSPropertyOp30
 70
     1
102
RTVSPropertyOp31
 70
     1
102
RTVSPropertyOp32
 70
     1
102
RTVSPropertyOp33
 70
     1
102
RTVSPropertyOp34
 70
     1
102
RTVSPropertyOp35
 70
     1
102
RTVSPropertyOp36
 70
     1
102
RTVSPropertyOp37
 70
     1
102
RTVSPropertyOp38
 70
     1
102
RTVSPropertyOp39
 70
     1
102
RTVSPropertyOp40
 70
     1
102
RTVSPropertyOp41
 70
     1
102
RTVSPropertyOp42
 70
     1
102
RTVSPropertyOp43
 70
     1
102
RTVSPropertyOp44
 70
     1
102
RTVSPropertyOp45
 70
     1
102
RTVSPropertyOp46
 70
     1
102
RTVSPropertyOp47
 70
     1
102
RTVSPropertyOp48
 70
     1
102
RTVSPropertyOp49
 70
     1
102
RTVSPropertyOp50
 70
     1
102
RTVSPropertyOp51
 70
     0
102
RTVSPropertyOp52
 70
     0
102
RTVSPropertyOp53
 70
     1
102
RTVSPropertyOp54
 70
     1
102
RTVSPropertyOp55
 70
     1
102
RTVSPropertyOp56
 70
     1
102
RTVSPropertyOp57
 70
     1
102
RTVSPropertyOp58
 70
     1
102
RTVSPropertyOp59
 70
     1
102
RTVSPropertyOp60
 70
     1
102
RTVSPropertyOp61
 70
     1
102
RTVSPropertyOp62
 70
     1
  0
XRECORD
  5
14C4
102
{ACAD_REACTORS
330
14C3
102
}
330
14C3
100
AcDbXrecord
280
     1
102
RTVSPost2010Prop28
280
     0
102
RTVSPost2010PropOp28
 70
     1
102
RTVSPost2010Prop29
280
     1
102
RTVSPost2010PropOp29
 70
     1
102
RTVSPost2010Prop30
280
     1
102
RTVSPost2010PropOp30
 70
     1
102
RTVSPost2010Prop31
280
     0
102
RTVSPost2010PropOp31
 70
     1
102
RTVSPost2010Prop32
280
     0
102
RTVSPost2010PropOp32
 70
     1
102
RTVSPost2010Prop33
280
     0
102
RTVSPost2010PropOp33
 70
     1
102
RTVSPost2010Prop34
280
     0
102
RTVSPost2010PropOp34
 70
     1
102
RTVSPost2010Prop35
280
     0
102
RTVSPost2010PropOp35
 70
     1
102
RTVSPost2010Prop36
280
     0
102
RTVSPost2010PropOp36
 70
     1
102
RTVSPost2010Prop37
 90
       50
102
RTVSPost2010PropOp37
 70
     1
102
RTVSPost2010Prop38
140
0.0
102
RTVSPost2010PropOp38
 70
     1
102
RTVSPost2010Prop39
140
1.0
102
RTVSPost2010PropOp39
 70
     1
102
RTVSPost2010Prop40
 90
        0
102
RTVSPost2010PropOp40
 70
     1
102
RTVSPost2010Prop41ColorIndex
 90
       18
102
RTVSPost2010Prop41ColorRGB
 90
        0
102
RTVSPost2010PropOp41
 70
     1
102
RTVSPost2010Prop42
 90
       50
102
RTVSPost2010PropOp42
 70
     1
102
RTVSPost2010Prop43
 90
        3
102
RTVSPost2010PropOp43
 70
     1
102
RTVSPost2010Prop44ColorIndex
 90
        5
102
RTVSPost2010Prop44ColorRGB
 90
      255
102
RTVSPost2010PropOp44
 70
     1
102
RTVSPost2010Prop45
280
     0
102
RTVSPost2010PropOp45
 70
     1
102
RTVSPost2010Prop46
 90
       50
102
RTVSPost2010PropOp46
 70
     1
102
RTVSPost2010Prop47
 90
       50
102
RTVSPost2010PropOp47
 70
     1
102
RTVSPost2010Prop48
 90
       50
102
RTVSPost2010PropOp48
 70
     1
102
RTVSPost2010Prop49
280
     0
102
RTVSPost2010PropOp49
 70
     1
102
RTVSPost2010Prop50
 90
       50
102
RTVSPost2010PropOp50
 70
     1
102
RTVSPost2010Prop51ColorIndex
 90
      256
102
RTVSPost2010Prop51ColorRGB
 90
-16777216
102
RTVSPost2010PropOp51
 70
     0
102
RTVSPost2010Prop52
140
1.0
102
RTVSPost2010PropOp52
 70
     0
102
RTVSPost2010Prop53
 90
        2
102
RTVSPost2010PropOp53
 70
     1
102
RTVSPost2010Prop54
  1
strokes_ogs.tif
102
RTVSPost2010PropOp54
 70
     1
102
RTVSPost2010Prop55
280
     0
102
RTVSPost2010PropOp55
 70
     1
102
RTVSPost2010Prop56
140
1.0
102
RTVSPost2010PropOp56
 70
     1
102
RTVSPost2010Prop57
140
1.0
102
RTVSPost2010PropOp57
 70
     1
102
RTVSPropertyOp0
 70
     1
102
RTVSPropertyOp1
 70
     1
102
RTVSPropertyOp2
 70
     1
102
RTVSPropertyOp3
 70
     1
102
RTVSPropertyOp4
 70
     1
102
RTVSPropertyOp5
 70
     1
102
RTVSPropertyOp6
 70
     1
102
RTVSPropertyOp7
 70
     1
102
RTVSPropertyOp8
 70
     1
102
RTVSPropertyOp9
 70
     1
102
RTVSPropertyOp10
 70
     1
102
RTVSPropertyOp11
 70
     1
102
RTVSPropertyOp12
 70
     1
102
RTVSPropertyOp13
 70
     1
102
RTVSPropertyOp14
 70
     1
102
RTVSPropertyOp15
 70
     1
102
RTVSPropertyOp16
 70
     1
102
RTVSPropertyOp17
 70
     1
102
RTVSPropertyOp18
 70
     1
102
RTVSPropertyOp19
 70
     1
102
RTVSPropertyOp20
 70
     1
102
RTVSPropertyOp21
 70
     1
102
RTVSPropertyOp22
 70
     1
102
RTVSPropertyOp23
 70
     1
102
RTVSPropertyOp24
 70
     1
102
RTVSPropertyOp25
 70
     1
102
RTVSPropertyOp26
 70
     1
102
RTVSPropertyOp27
 70
     1
102
RTVSPropertyOp28
 70
     1
102
RTVSPropertyOp29
 70
     1
102
RTVSPropertyOp30
 70
     1
102
RTVSPropertyOp31
 70
     1
102
RTVSPropertyOp32
 70
     1
102
RTVSPropertyOp33
 70
     1
102
RTVSPropertyOp34
 70
     1
102
RTVSPropertyOp35
 70
     1
102
RTVSPropertyOp36
 70
     1
102
RTVSPropertyOp37
 70
     1
102
RTVSPropertyOp38
 70
     1
102
RTVSPropertyOp39
 70
     1
102
RTVSPropertyOp40
 70
     1
102
RTVSPropertyOp41
 70
     1
102
RTVSPropertyOp42
 70
     1
102
RTVSPropertyOp43
 70
     1
102
RTVSPropertyOp44
 70
     1
102
RTVSPropertyOp45
 70
     1
102
RTVSPropertyOp46
 70
     1
102
RTVSPropertyOp47
 70
     1
102
RTVSPropertyOp48
 70
     1
102
RTVSPropertyOp49
 70
     1
102
RTVSPropertyOp50
 70
     1
102
RTVSPropertyOp51
 70
     0
102
RTVSPropertyOp52
 70
     0
102
RTVSPropertyOp53
 70
     1
102
RTVSPropertyOp54
 70
     1
102
RTVSPropertyOp55
 70
     1
102
RTVSPropertyOp56
 70
     1
102
RTVSPropertyOp57
 70
     1
102
RTVSPropertyOp58
 70
     1
102
RTVSPropertyOp59
 70
     1
102
RTVSPropertyOp60
 70
     1
102
RTVSPropertyOp61
 70
     1
102
RTVSPropertyOp62
 70
     1
  0
XRECORD
  5
14C6
102
{ACAD_REACTORS
330
14C5
102
}
330
14C5
100
AcDbXrecord
280
     1
102
RTVSPost2010Prop28
280
     0
102
RTVSPost2010PropOp28
 70
     1
102
RTVSPost2010Prop29
280
     1
102
RTVSPost2010PropOp29
 70
     1
102
RTVSPost2010Prop30
280
     1
102
RTVSPost2010PropOp30
 70
     1
102
RTVSPost2010Prop31
280
     0
102
RTVSPost2010PropOp31
 70
     1
102
RTVSPost2010Prop32
280
     0
102
RTVSPost2010PropOp32
 70
     1
102
RTVSPost2010Prop33
280
     0
102
RTVSPost2010PropOp33
 70
     1
102
RTVSPost2010Prop34
280
     0
102
RTVSPost2010PropOp34
 70
     1
102
RTVSPost2010Prop35
280
     0
102
RTVSPost2010PropOp35
 70
     1
102
RTVSPost2010Prop36
280
     0
102
RTVSPost2010PropOp36
 70
     1
102
RTVSPost2010Prop37
 90
       50
102
RTVSPost2010PropOp37
 70
     1
102
RTVSPost2010Prop38
140
0.0
102
RTVSPost2010PropOp38
 70
     1
102
RTVSPost2010Prop39
140
1.0
102
RTVSPost2010PropOp39
 70
     1
102
RTVSPost2010Prop40
 90
        0
102
RTVSPost2010PropOp40
 70
     1
102
RTVSPost2010Prop41ColorIndex
 90
       18
102
RTVSPost2010Prop41ColorRGB
 90
        0
102
RTVSPost2010PropOp41
 70
     1
102
RTVSPost2010Prop42
 90
       50
102
RTVSPost2010PropOp42
 70
     1
102
RTVSPost2010Prop43
 90
        3
102
RTVSPost2010PropOp43
 70
     1
102
RTVSPost2010Prop44ColorIndex
 90
        5
102
RTVSPost2010Prop44ColorRGB
 90
      255
102
RTVSPost2010PropOp44
 70
     1
102
RTVSPost2010Prop45
280
     0
102
RTVSPost2010PropOp45
 70
     1
102
RTVSPost2010Prop46
 90
       50
102
RTVSPost2010PropOp46
 70
     1
102
RTVSPost2010Prop47
 90
       50
102
RTVSPost2010PropOp47
 70
     1
102
RTVSPost2010Prop48
 90
       50
102
RTVSPost2010PropOp48
 70
     1
102
RTVSPost2010Prop49
280
     0
102
RTVSPost2010PropOp49
 70
     1
102
RTVSPost2010Prop50
 90
       50
102
RTVSPost2010PropOp50
 70
     1
102
RTVSPost2010Prop51ColorIndex
 90
      256
102
RTVSPost2010Prop51ColorRGB
 90
-16777216
102
RTVSPost2010PropOp51
 70
     0
102
RTVSPost2010Prop52
140
1.0
102
RTVSPost2010PropOp52
 70
     0
102
RTVSPost2010Prop53
 90
        2
102
RTVSPost2010PropOp53
 70
     1
102
RTVSPost2010Prop54
  1
strokes_ogs.tif
102
RTVSPost2010PropOp54
 70
     1
102
RTVSPost2010Prop55
280
     0
102
RTVSPost2010PropOp55
 70
     1
102
RTVSPost2010Prop56
140
1.0
102
RTVSPost2010PropOp56
 70
     1
102
RTVSPost2010Prop57
140
1.0
102
RTVSPost2010PropOp57
 70
     1
102
RTVSPropertyOp0
 70
     1
102
RTVSPropertyOp1
 70
     1
102
RTVSPropertyOp2
 70
     1
102
RTVSPropertyOp3
 70
     1
102
RTVSPropertyOp4
 70
     1
102
RTVSPropertyOp5
 70
     1
102
RTVSPropertyOp6
 70
     1
102
RTVSPropertyOp7
 70
     1
102
RTVSPropertyOp8
 70
     1
102
RTVSPropertyOp9
 70
     1
102
RTVSPropertyOp10
 70
     1
102
RTVSPropertyOp11
 70
     1
102
RTVSPropertyOp12
 70
     1
102
RTVSPropertyOp13
 70
     1
102
RTVSPropertyOp14
 70
     1
102
RTVSPropertyOp15
 70
     1
102
RTVSPropertyOp16
 70
     1
102
RTVSPropertyOp17
 70
     1
102
RTVSPropertyOp18
 70
     1
102
RTVSPropertyOp19
 70
     1
102
RTVSPropertyOp20
 70
     1
102
RTVSPropertyOp21
 70
     1
102
RTVSPropertyOp22
 70
     1
102
RTVSPropertyOp23
 70
     1
102
RTVSPropertyOp24
 70
     1
102
RTVSPropertyOp25
 70
     1
102
RTVSPropertyOp26
 70
     1
102
RTVSPropertyOp27
 70
     1
102
RTVSPropertyOp28
 70
     1
102
RTVSPropertyOp29
 70
     1
102
RTVSPropertyOp30
 70
     1
102
RTVSPropertyOp31
 70
     1
102
RTVSPropertyOp32
 70
     1
102
RTVSPropertyOp33
 70
     1
102
RTVSPropertyOp34
 70
     1
102
RTVSPropertyOp35
 70
     1
102
RTVSPropertyOp36
 70
     1
102
RTVSPropertyOp37
 70
     1
102
RTVSPropertyOp38
 70
     1
102
RTVSPropertyOp39
 70
     1
102
RTVSPropertyOp40
 70
     1
102
RTVSPropertyOp41
 70
     1
102
RTVSPropertyOp42
 70
     1
102
RTVSPropertyOp43
 70
     1
102
RTVSPropertyOp44
 70
     1
102
RTVSPropertyOp45
 70
     1
102
RTVSPropertyOp46
 70
     1
102
RTVSPropertyOp47
 70
     1
102
RTVSPropertyOp48
 70
     1
102
RTVSPropertyOp49
 70
     1
102
RTVSPropertyOp50
 70
     1
102
RTVSPropertyOp51
 70
     0
102
RTVSPropertyOp52
 70
     0
102
RTVSPropertyOp53
 70
     1
102
RTVSPropertyOp54
 70
     1
102
RTVSPropertyOp55
 70
     1
102
RTVSPropertyOp56
 70
     1
102
RTVSPropertyOp57
 70
     1
102
RTVSPropertyOp58
 70
     1
102
RTVSPropertyOp59
 70
     1
102
RTVSPropertyOp60
 70
     1
102
RTVSPropertyOp61
 70
     1
102
RTVSPropertyOp62
 70
     1
  0
XRECORD
  5
14CE
102
{ACAD_REACTORS
330
14CD
102
}
330
14CD
100
AcDbXrecord
280
     1
102
RTVSPost2010Prop28
280
     0
102
RTVSPost2010PropOp28
 70
     1
102
RTVSPost2010Prop29
280
     1
102
RTVSPost2010PropOp29
 70
     1
102
RTVSPost2010Prop30
280
     1
102
RTVSPost2010PropOp30
 70
     1
102
RTVSPost2010Prop31
280
     0
102
RTVSPost2010PropOp31
 70
     1
102
RTVSPost2010Prop32
280
     0
102
RTVSPost2010PropOp32
 70
     1
102
RTVSPost2010Prop33
280
     0
102
RTVSPost2010PropOp33
 70
     1
102
RTVSPost2010Prop34
280
     0
102
RTVSPost2010PropOp34
 70
     1
102
RTVSPost2010Prop35
280
     0
102
RTVSPost2010PropOp35
 70
     1
102
RTVSPost2010Prop36
280
     0
102
RTVSPost2010PropOp36
 70
     1
102
RTVSPost2010Prop37
 90
       50
102
RTVSPost2010PropOp37
 70
     1
102
RTVSPost2010Prop38
140
0.0
102
RTVSPost2010PropOp38
 70
     1
102
RTVSPost2010Prop39
140
1.0
102
RTVSPost2010PropOp39
 70
     1
102
RTVSPost2010Prop40
 90
        0
102
RTVSPost2010PropOp40
 70
     1
102
RTVSPost2010Prop41ColorIndex
 90
       18
102
RTVSPost2010Prop41ColorRGB
 90
        0
102
RTVSPost2010PropOp41
 70
     1
102
RTVSPost2010Prop42
 90
       50
102
RTVSPost2010PropOp42
 70
     1
102
RTVSPost2010Prop43
 90
        3
102
RTVSPost2010PropOp43
 70
     1
102
RTVSPost2010Prop44ColorIndex
 90
        5
102
RTVSPost2010Prop44ColorRGB
 90
      255
102
RTVSPost2010PropOp44
 70
     1
102
RTVSPost2010Prop45
280
     0
102
RTVSPost2010PropOp45
 70
     1
102
RTVSPost2010Prop46
 90
       50
102
RTVSPost2010PropOp46
 70
     1
102
RTVSPost2010Prop47
 90
       50
102
RTVSPost2010PropOp47
 70
     1
102
RTVSPost2010Prop48
 90
       50
102
RTVSPost2010PropOp48
 70
     1
102
RTVSPost2010Prop49
280
     0
102
RTVSPost2010PropOp49
 70
     1
102
RTVSPost2010Prop50
 90
       50
102
RTVSPost2010PropOp50
 70
     1
102
RTVSPost2010Prop51ColorIndex
 90
      256
102
RTVSPost2010Prop51ColorRGB
 90
-16777216
102
RTVSPost2010PropOp51
 70
     0
102
RTVSPost2010Prop52
140
1.0
102
RTVSPost2010PropOp52
 70
     0
102
RTVSPost2010Prop53
 90
        2
102
RTVSPost2010PropOp53
 70
     1
102
RTVSPost2010Prop54
  1
strokes_ogs.tif
102
RTVSPost2010PropOp54
 70
     1
102
RTVSPost2010Prop55
280
     0
102
RTVSPost2010PropOp55
 70
     1
102
RTVSPost2010Prop56
140
1.0
102
RTVSPost2010PropOp56
 70
     1
102
RTVSPost2010Prop57
140
1.0
102
RTVSPost2010PropOp57
 70
     1
102
RTVSPropertyOp0
 70
     1
102
RTVSPropertyOp1
 70
     1
102
RTVSPropertyOp2
 70
     1
102
RTVSPropertyOp3
 70
     1
102
RTVSPropertyOp4
 70
     1
102
RTVSPropertyOp5
 70
     1
102
RTVSPropertyOp6
 70
     1
102
RTVSPropertyOp7
 70
     1
102
RTVSPropertyOp8
 70
     1
102
RTVSPropertyOp9
 70
     1
102
RTVSPropertyOp10
 70
     1
102
RTVSPropertyOp11
 70
     1
102
RTVSPropertyOp12
 70
     1
102
RTVSPropertyOp13
 70
     1
102
RTVSPropertyOp14
 70
     1
102
RTVSPropertyOp15
 70
     1
102
RTVSPropertyOp16
 70
     1
102
RTVSPropertyOp17
 70
     1
102
RTVSPropertyOp18
 70
     1
102
RTVSPropertyOp19
 70
     1
102
RTVSPropertyOp20
 70
     1
102
RTVSPropertyOp21
 70
     1
102
RTVSPropertyOp22
 70
     1
102
RTVSPropertyOp23
 70
     1
102
RTVSPropertyOp24
 70
     1
102
RTVSPropertyOp25
 70
     1
102
RTVSPropertyOp26
 70
     1
102
RTVSPropertyOp27
 70
     1
102
RTVSPropertyOp28
 70
     1
102
RTVSPropertyOp29
 70
     1
102
RTVSPropertyOp30
 70
     1
102
RTVSPropertyOp31
 70
     1
102
RTVSPropertyOp32
 70
     1
102
RTVSPropertyOp33
 70
     1
102
RTVSPropertyOp34
 70
     1
102
RTVSPropertyOp35
 70
     1
102
RTVSPropertyOp36
 70
     1
102
RTVSPropertyOp37
 70
     1
102
RTVSPropertyOp38
 70
     1
102
RTVSPropertyOp39
 70
     1
102
RTVSPropertyOp40
 70
     1
102
RTVSPropertyOp41
 70
     1
102
RTVSPropertyOp42
 70
     1
102
RTVSPropertyOp43
 70
     1
102
RTVSPropertyOp44
 70
     1
102
RTVSPropertyOp45
 70
     1
102
RTVSPropertyOp46
 70
     1
102
RTVSPropertyOp47
 70
     1
102
RTVSPropertyOp48
 70
     1
102
RTVSPropertyOp49
 70
     1
102
RTVSPropertyOp50
 70
     1
102
RTVSPropertyOp51
 70
     0
102
RTVSPropertyOp52
 70
     0
102
RTVSPropertyOp53
 70
     1
102
RTVSPropertyOp54
 70
     1
102
RTVSPropertyOp55
 70
     1
102
RTVSPropertyOp56
 70
     1
102
RTVSPropertyOp57
 70
     1
102
RTVSPropertyOp58
 70
     1
102
RTVSPropertyOp59
 70
     1
102
RTVSPropertyOp60
 70
     1
102
RTVSPropertyOp61
 70
     1
102
RTVSPropertyOp62
 70
     1
  0
XRECORD
  5
14EA
102
{ACAD_REACTORS
330
14E9
102
}
330
14E9
100
AcDbXrecord
280
     1
102
RTVSPost2010Prop28
280
     0
102
RTVSPost2010PropOp28
 70
     1
102
RTVSPost2010Prop29
280
     1
102
RTVSPost2010PropOp29
 70
     1
102
RTVSPost2010Prop30
280
     1
102
RTVSPost2010PropOp30
 70
     1
102
RTVSPost2010Prop31
280
     0
102
RTVSPost2010PropOp31
 70
     1
102
RTVSPost2010Prop32
280
     0
102
RTVSPost2010PropOp32
 70
     1
102
RTVSPost2010Prop33
280
     0
102
RTVSPost2010PropOp33
 70
     1
102
RTVSPost2010Prop34
280
     0
102
RTVSPost2010PropOp34
 70
     1
102
RTVSPost2010Prop35
280
     0
102
RTVSPost2010PropOp35
 70
     1
102
RTVSPost2010Prop36
280
     0
102
RTVSPost2010PropOp36
 70
     1
102
RTVSPost2010Prop37
 90
       50
102
RTVSPost2010PropOp37
 70
     0
102
RTVSPost2010Prop38
140
0.0
102
RTVSPost2010PropOp38
 70
     0
102
RTVSPost2010Prop39
140
1.0
102
RTVSPost2010PropOp39
 70
     0
102
RTVSPost2010Prop40
 90
        0
102
RTVSPost2010PropOp40
 70
     0
102
RTVSPost2010Prop41ColorIndex
 90
       18
102
RTVSPost2010Prop41ColorRGB
 90
        0
102
RTVSPost2010PropOp41
 70
     0
102
RTVSPost2010Prop42
 90
       50
102
RTVSPost2010PropOp42
 70
     0
102
RTVSPost2010Prop43
 90
        3
102
RTVSPost2010PropOp43
 70
     0
102
RTVSPost2010Prop44ColorIndex
 90
        5
102
RTVSPost2010Prop44ColorRGB
 90
      255
102
RTVSPost2010PropOp44
 70
     0
102
RTVSPost2010Prop45
280
     0
102
RTVSPost2010PropOp45
 70
     1
102
RTVSPost2010Prop46
 90
       50
102
RTVSPost2010PropOp46
 70
     0
102
RTVSPost2010Prop47
 90
       50
102
RTVSPost2010PropOp47
 70
     0
102
RTVSPost2010Prop48
 90
       50
102
RTVSPost2010PropOp48
 70
     0
102
RTVSPost2010Prop49
280
     0
102
RTVSPost2010PropOp49
 70
     1
102
RTVSPost2010Prop50
 90
       50
102
RTVSPost2010PropOp50
 70
     0
102
RTVSPost2010Prop51ColorIndex
 90
      256
102
RTVSPost2010Prop51ColorRGB
 90
-16777216
102
RTVSPost2010PropOp51
 70
     0
102
RTVSPost2010Prop52
140
1.0
102
RTVSPost2010PropOp52
 70
     0
102
RTVSPost2010Prop53
 90
        2
102
RTVSPost2010PropOp53
 70
     0
102
RTVSPost2010Prop54
  1
strokes_ogs.tif
102
RTVSPost2010PropOp54
 70
     0
102
RTVSPost2010Prop55
280
     0
102
RTVSPost2010PropOp55
 70
     1
102
RTVSPost2010Prop56
140
1.0
102
RTVSPost2010PropOp56
 70
     0
102
RTVSPost2010Prop57
140
1.0
102
RTVSPost2010PropOp57
 70
     0
102
RTVSPropertyOp0
 70
     0
102
RTVSPropertyOp1
 70
     0
102
RTVSPropertyOp2
 70
     0
102
RTVSPropertyOp3
 70
     0
102
RTVSPropertyOp4
 70
     0
102
RTVSPropertyOp5
 70
     0
102
RTVSPropertyOp6
 70
     0
102
RTVSPropertyOp7
 70
     0
102
RTVSPropertyOp8
 70
     0
102
RTVSPropertyOp9
 70
     0
102
RTVSPropertyOp10
 70
     0
102
RTVSPropertyOp11
 70
     0
102
RTVSPropertyOp12
 70
     0
102
RTVSPropertyOp13
 70
     0
102
RTVSPropertyOp14
 70
     2
102
RTVSPropertyOp15
 70
     0
102
RTVSPropertyOp16
 70
     0
102
RTVSPropertyOp17
 70
     0
102
RTVSPropertyOp18
 70
     0
102
RTVSPropertyOp19
 70
     0
102
RTVSPropertyOp20
 70
     0
102
RTVSPropertyOp21
 70
     0
102
RTVSPropertyOp22
 70
     0
102
RTVSPropertyOp23
 70
     0
102
RTVSPropertyOp24
 70
     0
102
RTVSPropertyOp25
 70
     0
102
RTVSPropertyOp26
 70
     0
102
RTVSPropertyOp27
 70
     0
102
RTVSPropertyOp28
 70
     1
102
RTVSPropertyOp29
 70
     1
102
RTVSPropertyOp30
 70
     1
102
RTVSPropertyOp31
 70
     1
102
RTVSPropertyOp32
 70
     1
102
RTVSPropertyOp33
 70
     1
102
RTVSPropertyOp34
 70
     1
102
RTVSPropertyOp35
 70
     1
102
RTVSPropertyOp36
 70
     1
102
RTVSPropertyOp37
 70
     0
102
RTVSPropertyOp38
 70
     0
102
RTVSPropertyOp39
 70
     0
102
RTVSPropertyOp40
 70
     0
102
RTVSPropertyOp41
 70
     0
102
RTVSPropertyOp42
 70
     0
102
RTVSPropertyOp43
 70
     0
102
RTVSPropertyOp44
 70
     0
102
RTVSPropertyOp45
 70
     1
102
RTVSPropertyOp46
 70
     0
102
RTVSPropertyOp47
 70
     0
102
RTVSPropertyOp48
 70
     0
102
RTVSPropertyOp49
 70
     1
102
RTVSPropertyOp50
 70
     0
102
RTVSPropertyOp51
 70
     0
102
RTVSPropertyOp52
 70
     0
102
RTVSPropertyOp53
 70
     0
102
RTVSPropertyOp54
 70
     0
102
RTVSPropertyOp55
 70
     1
102
RTVSPropertyOp56
 70
     0
102
RTVSPropertyOp57
 70
     0
102
RTVSPropertyOp58
 70
     0
102
RTVSPropertyOp59
 70
     0
102
RTVSPropertyOp60
 70
     0
102
RTVSPropertyOp61
 70
     0
102
RTVSPropertyOp62
 70
     0
  0
XRECORD
  5
14DA
102
{ACAD_REACTORS
330
14D9
102
}
330
14D9
100
AcDbXrecord
280
     1
102
RTVSPost2010Prop28
280
     0
102
RTVSPost2010PropOp28
 70
     1
102
RTVSPost2010Prop29
280
     1
102
RTVSPost2010PropOp29
 70
     1
102
RTVSPost2010Prop30
280
     1
102
RTVSPost2010PropOp30
 70
     1
102
RTVSPost2010Prop31
280
     0
102
RTVSPost2010PropOp31
 70
     1
102
RTVSPost2010Prop32
280
     0
102
RTVSPost2010PropOp32
 70
     1
102
RTVSPost2010Prop33
280
     0
102
RTVSPost2010PropOp33
 70
     1
102
RTVSPost2010Prop34
280
     0
102
RTVSPost2010PropOp34
 70
     1
102
RTVSPost2010Prop35
280
     0
102
RTVSPost2010PropOp35
 70
     1
102
RTVSPost2010Prop36
280
     0
102
RTVSPost2010PropOp36
 70
     1
102
RTVSPost2010Prop37
 90
       50
102
RTVSPost2010PropOp37
 70
     1
102
RTVSPost2010Prop38
140
0.0
102
RTVSPost2010PropOp38
 70
     1
102
RTVSPost2010Prop39
140
1.0
102
RTVSPost2010PropOp39
 70
     1
102
RTVSPost2010Prop40
 90
        0
102
RTVSPost2010PropOp40
 70
     1
102
RTVSPost2010Prop41ColorIndex
 90
       18
102
RTVSPost2010Prop41ColorRGB
 90
        0
102
RTVSPost2010PropOp41
 70
     1
102
RTVSPost2010Prop42
 90
       50
102
RTVSPost2010PropOp42
 70
     1
102
RTVSPost2010Prop43
 90
        3
102
RTVSPost2010PropOp43
 70
     1
102
RTVSPost2010Prop44ColorIndex
 90
        5
102
RTVSPost2010Prop44ColorRGB
 90
      255
102
RTVSPost2010PropOp44
 70
     1
102
RTVSPost2010Prop45
280
     0
102
RTVSPost2010PropOp45
 70
     1
102
RTVSPost2010Prop46
 90
       50
102
RTVSPost2010PropOp46
 70
     1
102
RTVSPost2010Prop47
 90
       50
102
RTVSPost2010PropOp47
 70
     1
102
RTVSPost2010Prop48
 90
       50
102
RTVSPost2010PropOp48
 70
     1
102
RTVSPost2010Prop49
280
     0
102
RTVSPost2010PropOp49
 70
     1
102
RTVSPost2010Prop50
 90
       50
102
RTVSPost2010PropOp50
 70
     1
102
RTVSPost2010Prop51ColorIndex
 90
      256
102
RTVSPost2010Prop51ColorRGB
 90
-16777216
102
RTVSPost2010PropOp51
 70
     0
102
RTVSPost2010Prop52
140
1.0
102
RTVSPost2010PropOp52
 70
     0
102
RTVSPost2010Prop53
 90
        2
102
RTVSPost2010PropOp53
 70
     1
102
RTVSPost2010Prop54
  1
strokes_ogs.tif
102
RTVSPost2010PropOp54
 70
     1
102
RTVSPost2010Prop55
280
     0
102
RTVSPost2010PropOp55
 70
     1
102
RTVSPost2010Prop56
140
1.0
102
RTVSPost2010PropOp56
 70
     1
102
RTVSPost2010Prop57
140
1.0
102
RTVSPost2010PropOp57
 70
     1
102
RTVSPropertyOp0
 70
     1
102
RTVSPropertyOp1
 70
     1
102
RTVSPropertyOp2
 70
     1
102
RTVSPropertyOp3
 70
     1
102
RTVSPropertyOp4
 70
     1
102
RTVSPropertyOp5
 70
     1
102
RTVSPropertyOp6
 70
     1
102
RTVSPropertyOp7
 70
     1
102
RTVSPropertyOp8
 70
     1
102
RTVSPropertyOp9
 70
     1
102
RTVSPropertyOp10
 70
     1
102
RTVSPropertyOp11
 70
     1
102
RTVSPropertyOp12
 70
     1
102
RTVSPropertyOp13
 70
     1
102
RTVSPropertyOp14
 70
     1
102
RTVSPropertyOp15
 70
     1
102
RTVSPropertyOp16
 70
     1
102
RTVSPropertyOp17
 70
     1
102
RTVSPropertyOp18
 70
     1
102
RTVSPropertyOp19
 70
     1
102
RTVSPropertyOp20
 70
     1
102
RTVSPropertyOp21
 70
     1
102
RTVSPropertyOp22
 70
     1
102
RTVSPropertyOp23
 70
     1
102
RTVSPropertyOp24
 70
     1
102
RTVSPropertyOp25
 70
     1
102
RTVSPropertyOp26
 70
     1
102
RTVSPropertyOp27
 70
     1
102
RTVSPropertyOp28
 70
     1
102
RTVSPropertyOp29
 70
     1
102
RTVSPropertyOp30
 70
     1
102
RTVSPropertyOp31
 70
     1
102
RTVSPropertyOp32
 70
     1
102
RTVSPropertyOp33
 70
     1
102
RTVSPropertyOp34
 70
     1
102
RTVSPropertyOp35
 70
     1
102
RTVSPropertyOp36
 70
     1
102
RTVSPropertyOp37
 70
     1
102
RTVSPropertyOp38
 70
     1
102
RTVSPropertyOp39
 70
     1
102
RTVSPropertyOp40
 70
     1
102
RTVSPropertyOp41
 70
     1
102
RTVSPropertyOp42
 70
     1
102
RTVSPropertyOp43
 70
     1
102
RTVSPropertyOp44
 70
     1
102
RTVSPropertyOp45
 70
     1
102
RTVSPropertyOp46
 70
     1
102
RTVSPropertyOp47
 70
     1
102
RTVSPropertyOp48
 70
     1
102
RTVSPropertyOp49
 70
     1
102
RTVSPropertyOp50
 70
     1
102
RTVSPropertyOp51
 70
     0
102
RTVSPropertyOp52
 70
     0
102
RTVSPropertyOp53
 70
     1
102
RTVSPropertyOp54
 70
     1
102
RTVSPropertyOp55
 70
     1
102
RTVSPropertyOp56
 70
     1
102
RTVSPropertyOp57
 70
     1
102
RTVSPropertyOp58
 70
     1
102
RTVSPropertyOp59
 70
     1
102
RTVSPropertyOp60
 70
     1
102
RTVSPropertyOp61
 70
     1
102
RTVSPropertyOp62
 70
     1
  0
XRECORD
  5
14EC
102
{ACAD_REACTORS
330
14EB
102
}
330
14EB
100
AcDbXrecord
280
     1
102
RTVSPost2010Prop28
280
     0
102
RTVSPost2010PropOp28
 70
     1
102
RTVSPost2010Prop29
280
     1
102
RTVSPost2010PropOp29
 70
     1
102
RTVSPost2010Prop30
280
     1
102
RTVSPost2010PropOp30
 70
     1
102
RTVSPost2010Prop31
280
     0
102
RTVSPost2010PropOp31
 70
     1
102
RTVSPost2010Prop32
280
     0
102
RTVSPost2010PropOp32
 70
     1
102
RTVSPost2010Prop33
280
     0
102
RTVSPost2010PropOp33
 70
     1
102
RTVSPost2010Prop34
280
     0
102
RTVSPost2010PropOp34
 70
     1
102
RTVSPost2010Prop35
280
     0
102
RTVSPost2010PropOp35
 70
     1
102
RTVSPost2010Prop36
280
     0
102
RTVSPost2010PropOp36
 70
     1
102
RTVSPost2010Prop37
 90
       50
102
RTVSPost2010PropOp37
 70
     0
102
RTVSPost2010Prop38
140
0.0
102
RTVSPost2010PropOp38
 70
     0
102
RTVSPost2010Prop39
140
1.0
102
RTVSPost2010PropOp39
 70
     0
102
RTVSPost2010Prop40
 90
        0
102
RTVSPost2010PropOp40
 70
     0
102
RTVSPost2010Prop41ColorIndex
 90
       18
102
RTVSPost2010Prop41ColorRGB
 90
        0
102
RTVSPost2010PropOp41
 70
     0
102
RTVSPost2010Prop42
 90
       50
102
RTVSPost2010PropOp42
 70
     0
102
RTVSPost2010Prop43
 90
        3
102
RTVSPost2010PropOp43
 70
     0
102
RTVSPost2010Prop44ColorIndex
 90
        5
102
RTVSPost2010Prop44ColorRGB
 90
      255
102
RTVSPost2010PropOp44
 70
     0
102
RTVSPost2010Prop45
280
     0
102
RTVSPost2010PropOp45
 70
     1
102
RTVSPost2010Prop46
 90
       50
102
RTVSPost2010PropOp46
 70
     0
102
RTVSPost2010Prop47
 90
       50
102
RTVSPost2010PropOp47
 70
     0
102
RTVSPost2010Prop48
 90
       50
102
RTVSPost2010PropOp48
 70
     0
102
RTVSPost2010Prop49
280
     0
102
RTVSPost2010PropOp49
 70
     1
102
RTVSPost2010Prop50
 90
       50
102
RTVSPost2010PropOp50
 70
     0
102
RTVSPost2010Prop51ColorIndex
 90
      256
102
RTVSPost2010Prop51ColorRGB
 90
-16777216
102
RTVSPost2010PropOp51
 70
     0
102
RTVSPost2010Prop52
140
1.0
102
RTVSPost2010PropOp52
 70
     0
102
RTVSPost2010Prop53
 90
        2
102
RTVSPost2010PropOp53
 70
     0
102
RTVSPost2010Prop54
  1
strokes_ogs.tif
102
RTVSPost2010PropOp54
 70
     0
102
RTVSPost2010Prop55
280
     0
102
RTVSPost2010PropOp55
 70
     1
102
RTVSPost2010Prop56
140
1.0
102
RTVSPost2010PropOp56
 70
     0
102
RTVSPost2010Prop57
140
1.0
102
RTVSPost2010PropOp57
 70
     0
102
RTVSPropertyOp0
 70
     0
102
RTVSPropertyOp1
 70
     0
102
RTVSPropertyOp2
 70
     0
102
RTVSPropertyOp3
 70
     0
102
RTVSPropertyOp4
 70
     0
102
RTVSPropertyOp5
 70
     0
102
RTVSPropertyOp6
 70
     0
102
RTVSPropertyOp7
 70
     0
102
RTVSPropertyOp8
 70
     0
102
RTVSPropertyOp9
 70
     0
102
RTVSPropertyOp10
 70
     0
102
RTVSPropertyOp11
 70
     0
102
RTVSPropertyOp12
 70
     0
102
RTVSPropertyOp13
 70
     0
102
RTVSPropertyOp14
 70
     2
102
RTVSPropertyOp15
 70
     0
102
RTVSPropertyOp16
 70
     0
102
RTVSPropertyOp17
 70
     0
102
RTVSPropertyOp18
 70
     0
102
RTVSPropertyOp19
 70
     0
102
RTVSPropertyOp20
 70
     0
102
RTVSPropertyOp21
 70
     0
102
RTVSPropertyOp22
 70
     0
102
RTVSPropertyOp23
 70
     0
102
RTVSPropertyOp24
 70
     0
102
RTVSPropertyOp25
 70
     0
102
RTVSPropertyOp26
 70
     0
102
RTVSPropertyOp27
 70
     0
102
RTVSPropertyOp28
 70
     1
102
RTVSPropertyOp29
 70
     1
102
RTVSPropertyOp30
 70
     1
102
RTVSPropertyOp31
 70
     1
102
RTVSPropertyOp32
 70
     1
102
RTVSPropertyOp33
 70
     1
102
RTVSPropertyOp34
 70
     1
102
RTVSPropertyOp35
 70
     1
102
RTVSPropertyOp36
 70
     1
102
RTVSPropertyOp37
 70
     0
102
RTVSPropertyOp38
 70
     0
102
RTVSPropertyOp39
 70
     0
102
RTVSPropertyOp40
 70
     0
102
RTVSPropertyOp41
 70
     0
102
RTVSPropertyOp42
 70
     0
102
RTVSPropertyOp43
 70
     0
102
RTVSPropertyOp44
 70
     0
102
RTVSPropertyOp45
 70
     1
102
RTVSPropertyOp46
 70
     0
102
RTVSPropertyOp47
 70
     0
102
RTVSPropertyOp48
 70
     0
102
RTVSPropertyOp49
 70
     1
102
RTVSPropertyOp50
 70
     0
102
RTVSPropertyOp51
 70
     0
102
RTVSPropertyOp52
 70
     0
102
RTVSPropertyOp53
 70
     0
102
RTVSPropertyOp54
 70
     0
102
RTVSPropertyOp55
 70
     1
102
RTVSPropertyOp56
 70
     0
102
RTVSPropertyOp57
 70
     0
102
RTVSPropertyOp58
 70
     0
102
RTVSPropertyOp59
 70
     0
102
RTVSPropertyOp60
 70
     0
102
RTVSPropertyOp61
 70
     0
102
RTVSPropertyOp62
 70
     0
  0
XRECORD
  5
14D2
102
{ACAD_REACTORS
330
14D1
102
}
330
14D1
100
AcDbXrecord
280
     1
102
RTVSPost2010Prop28
280
     0
102
RTVSPost2010PropOp28
 70
     1
102
RTVSPost2010Prop29
280
     1
102
RTVSPost2010PropOp29
 70
     1
102
RTVSPost2010Prop30
280
     1
102
RTVSPost2010PropOp30
 70
     1
102
RTVSPost2010Prop31
280
     0
102
RTVSPost2010PropOp31
 70
     1
102
RTVSPost2010Prop32
280
     0
102
RTVSPost2010PropOp32
 70
     1
102
RTVSPost2010Prop33
280
     0
102
RTVSPost2010PropOp33
 70
     1
102
RTVSPost2010Prop34
280
     0
102
RTVSPost2010PropOp34
 70
     1
102
RTVSPost2010Prop35
280
     0
102
RTVSPost2010PropOp35
 70
     1
102
RTVSPost2010Prop36
280
     0
102
RTVSPost2010PropOp36
 70
     1
102
RTVSPost2010Prop37
 90
       50
102
RTVSPost2010PropOp37
 70
     1
102
RTVSPost2010Prop38
140
0.0
102
RTVSPost2010PropOp38
 70
     1
102
RTVSPost2010Prop39
140
1.0
102
RTVSPost2010PropOp39
 70
     1
102
RTVSPost2010Prop40
 90
        0
102
RTVSPost2010PropOp40
 70
     1
102
RTVSPost2010Prop41ColorIndex
 90
       18
102
RTVSPost2010Prop41ColorRGB
 90
        0
102
RTVSPost2010PropOp41
 70
     1
102
RTVSPost2010Prop42
 90
       50
102
RTVSPost2010PropOp42
 70
     1
102
RTVSPost2010Prop43
 90
        3
102
RTVSPost2010PropOp43
 70
     1
102
RTVSPost2010Prop44ColorIndex
 90
        5
102
RTVSPost2010Prop44ColorRGB
 90
      255
102
RTVSPost2010PropOp44
 70
     1
102
RTVSPost2010Prop45
280
     0
102
RTVSPost2010PropOp45
 70
     1
102
RTVSPost2010Prop46
 90
       50
102
RTVSPost2010PropOp46
 70
     1
102
RTVSPost2010Prop47
 90
       50
102
RTVSPost2010PropOp47
 70
     1
102
RTVSPost2010Prop48
 90
       50
102
RTVSPost2010PropOp48
 70
     1
102
RTVSPost2010Prop49
280
     0
102
RTVSPost2010PropOp49
 70
     1
102
RTVSPost2010Prop50
 90
       50
102
RTVSPost2010PropOp50
 70
     1
102
RTVSPost2010Prop51ColorIndex
 90
      256
102
RTVSPost2010Prop51ColorRGB
 90
-16777216
102
RTVSPost2010PropOp51
 70
     0
102
RTVSPost2010Prop52
140
1.0
102
RTVSPost2010PropOp52
 70
     0
102
RTVSPost2010Prop53
 90
        2
102
RTVSPost2010PropOp53
 70
     1
102
RTVSPost2010Prop54
  1
strokes_ogs.tif
102
RTVSPost2010PropOp54
 70
     1
102
RTVSPost2010Prop55
280
     0
102
RTVSPost2010PropOp55
 70
     1
102
RTVSPost2010Prop56
140
1.0
102
RTVSPost2010PropOp56
 70
     1
102
RTVSPost2010Prop57
140
1.0
102
RTVSPost2010PropOp57
 70
     1
102
RTVSPropertyOp0
 70
     1
102
RTVSPropertyOp1
 70
     1
102
RTVSPropertyOp2
 70
     1
102
RTVSPropertyOp3
 70
     1
102
RTVSPropertyOp4
 70
     1
102
RTVSPropertyOp5
 70
     1
102
RTVSPropertyOp6
 70
     1
102
RTVSPropertyOp7
 70
     1
102
RTVSPropertyOp8
 70
     1
102
RTVSPropertyOp9
 70
     1
102
RTVSPropertyOp10
 70
     1
102
RTVSPropertyOp11
 70
     1
102
RTVSPropertyOp12
 70
     1
102
RTVSPropertyOp13
 70
     1
102
RTVSPropertyOp14
 70
     1
102
RTVSPropertyOp15
 70
     1
102
RTVSPropertyOp16
 70
     1
102
RTVSPropertyOp17
 70
     1
102
RTVSPropertyOp18
 70
     1
102
RTVSPropertyOp19
 70
     1
102
RTVSPropertyOp20
 70
     1
102
RTVSPropertyOp21
 70
     1
102
RTVSPropertyOp22
 70
     1
102
RTVSPropertyOp23
 70
     1
102
RTVSPropertyOp24
 70
     1
102
RTVSPropertyOp25
 70
     1
102
RTVSPropertyOp26
 70
     1
102
RTVSPropertyOp27
 70
     1
102
RTVSPropertyOp28
 70
     1
102
RTVSPropertyOp29
 70
     1
102
RTVSPropertyOp30
 70
     1
102
RTVSPropertyOp31
 70
     1
102
RTVSPropertyOp32
 70
     1
102
RTVSPropertyOp33
 70
     1
102
RTVSPropertyOp34
 70
     1
102
RTVSPropertyOp35
 70
     1
102
RTVSPropertyOp36
 70
     1
102
RTVSPropertyOp37
 70
     1
102
RTVSPropertyOp38
 70
     1
102
RTVSPropertyOp39
 70
     1
102
RTVSPropertyOp40
 70
     1
102
RTVSPropertyOp41
 70
     1
102
RTVSPropertyOp42
 70
     1
102
RTVSPropertyOp43
 70
     1
102
RTVSPropertyOp44
 70
     1
102
RTVSPropertyOp45
 70
     1
102
RTVSPropertyOp46
 70
     1
102
RTVSPropertyOp47
 70
     1
102
RTVSPropertyOp48
 70
     1
102
RTVSPropertyOp49
 70
     1
102
RTVSPropertyOp50
 70
     1
102
RTVSPropertyOp51
 70
     0
102
RTVSPropertyOp52
 70
     0
102
RTVSPropertyOp53
 70
     1
102
RTVSPropertyOp54
 70
     1
102
RTVSPropertyOp55
 70
     1
102
RTVSPropertyOp56
 70
     1
102
RTVSPropertyOp57
 70
     1
102
RTVSPropertyOp58
 70
     1
102
RTVSPropertyOp59
 70
     1
102
RTVSPropertyOp60
 70
     1
102
RTVSPropertyOp61
 70
     1
102
RTVSPropertyOp62
 70
     1
  0
XRECORD
  5
14E8
102
{ACAD_REACTORS
330
14E7
102
}
330
14E7
100
AcDbXrecord
280
     1
102
RTVSPost2010Prop28
280
     0
102
RTVSPost2010PropOp28
 70
     1
102
RTVSPost2010Prop29
280
     1
102
RTVSPost2010PropOp29
 70
     1
102
RTVSPost2010Prop30
280
     1
102
RTVSPost2010PropOp30
 70
     1
102
RTVSPost2010Prop31
280
     0
102
RTVSPost2010PropOp31
 70
     1
102
RTVSPost2010Prop32
280
     0
102
RTVSPost2010PropOp32
 70
     1
102
RTVSPost2010Prop33
280
     0
102
RTVSPost2010PropOp33
 70
     1
102
RTVSPost2010Prop34
280
     0
102
RTVSPost2010PropOp34
 70
     1
102
RTVSPost2010Prop35
280
     0
102
RTVSPost2010PropOp35
 70
     1
102
RTVSPost2010Prop36
280
     0
102
RTVSPost2010PropOp36
 70
     1
102
RTVSPost2010Prop37
 90
       50
102
RTVSPost2010PropOp37
 70
     1
102
RTVSPost2010Prop38
140
0.0
102
RTVSPost2010PropOp38
 70
     1
102
RTVSPost2010Prop39
140
1.0
102
RTVSPost2010PropOp39
 70
     1
102
RTVSPost2010Prop40
 90
        0
102
RTVSPost2010PropOp40
 70
     1
102
RTVSPost2010Prop41ColorIndex
 90
       18
102
RTVSPost2010Prop41ColorRGB
 90
        0
102
RTVSPost2010PropOp41
 70
     1
102
RTVSPost2010Prop42
 90
       50
102
RTVSPost2010PropOp42
 70
     1
102
RTVSPost2010Prop43
 90
        3
102
RTVSPost2010PropOp43
 70
     1
102
RTVSPost2010Prop44ColorIndex
 90
        5
102
RTVSPost2010Prop44ColorRGB
 90
      255
102
RTVSPost2010PropOp44
 70
     1
102
RTVSPost2010Prop45
280
     0
102
RTVSPost2010PropOp45
 70
     1
102
RTVSPost2010Prop46
 90
       50
102
RTVSPost2010PropOp46
 70
     1
102
RTVSPost2010Prop47
 90
       50
102
RTVSPost2010PropOp47
 70
     1
102
RTVSPost2010Prop48
 90
       50
102
RTVSPost2010PropOp48
 70
     1
102
RTVSPost2010Prop49
280
     0
102
RTVSPost2010PropOp49
 70
     1
102
RTVSPost2010Prop50
 90
       50
102
RTVSPost2010PropOp50
 70
     1
102
RTVSPost2010Prop51ColorIndex
 90
      256
102
RTVSPost2010Prop51ColorRGB
 90
-16777216
102
RTVSPost2010PropOp51
 70
     0
102
RTVSPost2010Prop52
140
1.0
102
RTVSPost2010PropOp52
 70
     0
102
RTVSPost2010Prop53
 90
        2
102
RTVSPost2010PropOp53
 70
     1
102
RTVSPost2010Prop54
  1
strokes_ogs.tif
102
RTVSPost2010PropOp54
 70
     1
102
RTVSPost2010Prop55
280
     0
102
RTVSPost2010PropOp55
 70
     1
102
RTVSPost2010Prop56
140
1.0
102
RTVSPost2010PropOp56
 70
     1
102
RTVSPost2010Prop57
140
1.0
102
RTVSPost2010PropOp57
 70
     1
102
RTVSPropertyOp0
 70
     1
102
RTVSPropertyOp1
 70
     1
102
RTVSPropertyOp2
 70
     1
102
RTVSPropertyOp3
 70
     1
102
RTVSPropertyOp4
 70
     1
102
RTVSPropertyOp5
 70
     1
102
RTVSPropertyOp6
 70
     1
102
RTVSPropertyOp7
 70
     1
102
RTVSPropertyOp8
 70
     1
102
RTVSPropertyOp9
 70
     1
102
RTVSPropertyOp10
 70
     1
102
RTVSPropertyOp11
 70
     1
102
RTVSPropertyOp12
 70
     1
102
RTVSPropertyOp13
 70
     1
102
RTVSPropertyOp14
 70
     1
102
RTVSPropertyOp15
 70
     1
102
RTVSPropertyOp16
 70
     1
102
RTVSPropertyOp17
 70
     1
102
RTVSPropertyOp18
 70
     1
102
RTVSPropertyOp19
 70
     1
102
RTVSPropertyOp20
 70
     1
102
RTVSPropertyOp21
 70
     1
102
RTVSPropertyOp22
 70
     1
102
RTVSPropertyOp23
 70
     1
102
RTVSPropertyOp24
 70
     1
102
RTVSPropertyOp25
 70
     1
102
RTVSPropertyOp26
 70
     1
102
RTVSPropertyOp27
 70
     1
102
RTVSPropertyOp28
 70
     1
102
RTVSPropertyOp29
 70
     1
102
RTVSPropertyOp30
 70
     1
102
RTVSPropertyOp31
 70
     1
102
RTVSPropertyOp32
 70
     1
102
RTVSPropertyOp33
 70
     1
102
RTVSPropertyOp34
 70
     1
102
RTVSPropertyOp35
 70
     1
102
RTVSPropertyOp36
 70
     1
102
RTVSPropertyOp37
 70
     1
102
RTVSPropertyOp38
 70
     1
102
RTVSPropertyOp39
 70
     1
102
RTVSPropertyOp40
 70
     1
102
RTVSPropertyOp41
 70
     1
102
RTVSPropertyOp42
 70
     1
102
RTVSPropertyOp43
 70
     1
102
RTVSPropertyOp44
 70
     1
102
RTVSPropertyOp45
 70
     1
102
RTVSPropertyOp46
 70
     1
102
RTVSPropertyOp47
 70
     1
102
RTVSPropertyOp48
 70
     1
102
RTVSPropertyOp49
 70
     1
102
RTVSPropertyOp50
 70
     1
102
RTVSPropertyOp51
 70
     0
102
RTVSPropertyOp52
 70
     0
102
RTVSPropertyOp53
 70
     1
102
RTVSPropertyOp54
 70
     1
102
RTVSPropertyOp55
 70
     1
102
RTVSPropertyOp56
 70
     1
102
RTVSPropertyOp57
 70
     1
102
RTVSPropertyOp58
 70
     1
102
RTVSPropertyOp59
 70
     1
102
RTVSPropertyOp60
 70
     1
102
RTVSPropertyOp61
 70
     1
102
RTVSPropertyOp62
 70
     1
  0
XRECORD
  5
14E6
102
{ACAD_REACTORS
330
14E5
102
}
330
14E5
100
AcDbXrecord
280
     1
102
RTVSPost2010Prop28
280
     0
102
RTVSPost2010PropOp28
 70
     1
102
RTVSPost2010Prop29
280
     1
102
RTVSPost2010PropOp29
 70
     1
102
RTVSPost2010Prop30
280
     1
102
RTVSPost2010PropOp30
 70
     1
102
RTVSPost2010Prop31
280
     0
102
RTVSPost2010PropOp31
 70
     1
102
RTVSPost2010Prop32
280
     0
102
RTVSPost2010PropOp32
 70
     1
102
RTVSPost2010Prop33
280
     0
102
RTVSPost2010PropOp33
 70
     1
102
RTVSPost2010Prop34
280
     0
102
RTVSPost2010PropOp34
 70
     1
102
RTVSPost2010Prop35
280
     0
102
RTVSPost2010PropOp35
 70
     1
102
RTVSPost2010Prop36
280
     0
102
RTVSPost2010PropOp36
 70
     1
102
RTVSPost2010Prop37
 90
       50
102
RTVSPost2010PropOp37
 70
     1
102
RTVSPost2010Prop38
140
0.0
102
RTVSPost2010PropOp38
 70
     1
102
RTVSPost2010Prop39
140
1.0
102
RTVSPost2010PropOp39
 70
     1
102
RTVSPost2010Prop40
 90
        0
102
RTVSPost2010PropOp40
 70
     1
102
RTVSPost2010Prop41ColorIndex
 90
       18
102
RTVSPost2010Prop41ColorRGB
 90
        0
102
RTVSPost2010PropOp41
 70
     1
102
RTVSPost2010Prop42
 90
       50
102
RTVSPost2010PropOp42
 70
     1
102
RTVSPost2010Prop43
 90
        3
102
RTVSPost2010PropOp43
 70
     1
102
RTVSPost2010Prop44ColorIndex
 90
        5
102
RTVSPost2010Prop44ColorRGB
 90
      255
102
RTVSPost2010PropOp44
 70
     1
102
RTVSPost2010Prop45
280
     0
102
RTVSPost2010PropOp45
 70
     1
102
RTVSPost2010Prop46
 90
       50
102
RTVSPost2010PropOp46
 70
     1
102
RTVSPost2010Prop47
 90
       50
102
RTVSPost2010PropOp47
 70
     1
102
RTVSPost2010Prop48
 90
       50
102
RTVSPost2010PropOp48
 70
     1
102
RTVSPost2010Prop49
280
     0
102
RTVSPost2010PropOp49
 70
     1
102
RTVSPost2010Prop50
 90
       50
102
RTVSPost2010PropOp50
 70
     1
102
RTVSPost2010Prop51ColorIndex
 90
      256
102
RTVSPost2010Prop51ColorRGB
 90
-16777216
102
RTVSPost2010PropOp51
 70
     0
102
RTVSPost2010Prop52
140
1.0
102
RTVSPost2010PropOp52
 70
     0
102
RTVSPost2010Prop53
 90
        2
102
RTVSPost2010PropOp53
 70
     1
102
RTVSPost2010Prop54
  1
strokes_ogs.tif
102
RTVSPost2010PropOp54
 70
     1
102
RTVSPost2010Prop55
280
     0
102
RTVSPost2010PropOp55
 70
     1
102
RTVSPost2010Prop56
140
1.0
102
RTVSPost2010PropOp56
 70
     1
102
RTVSPost2010Prop57
140
1.0
102
RTVSPost2010PropOp57
 70
     1
102
RTVSPropertyOp0
 70
     1
102
RTVSPropertyOp1
 70
     1
102
RTVSPropertyOp2
 70
     1
102
RTVSPropertyOp3
 70
     1
102
RTVSPropertyOp4
 70
     1
102
RTVSPropertyOp5
 70
     1
102
RTVSPropertyOp6
 70
     1
102
RTVSPropertyOp7
 70
     1
102
RTVSPropertyOp8
 70
     1
102
RTVSPropertyOp9
 70
     1
102
RTVSPropertyOp10
 70
     1
102
RTVSPropertyOp11
 70
     1
102
RTVSPropertyOp12
 70
     1
102
RTVSPropertyOp13
 70
     1
102
RTVSPropertyOp14
 70
     1
102
RTVSPropertyOp15
 70
     1
102
RTVSPropertyOp16
 70
     1
102
RTVSPropertyOp17
 70
     1
102
RTVSPropertyOp18
 70
     1
102
RTVSPropertyOp19
 70
     1
102
RTVSPropertyOp20
 70
     1
102
RTVSPropertyOp21
 70
     1
102
RTVSPropertyOp22
 70
     1
102
RTVSPropertyOp23
 70
     1
102
RTVSPropertyOp24
 70
     1
102
RTVSPropertyOp25
 70
     1
102
RTVSPropertyOp26
 70
     1
102
RTVSPropertyOp27
 70
     1
102
RTVSPropertyOp28
 70
     1
102
RTVSPropertyOp29
 70
     1
102
RTVSPropertyOp30
 70
     1
102
RTVSPropertyOp31
 70
     1
102
RTVSPropertyOp32
 70
     1
102
RTVSPropertyOp33
 70
     1
102
RTVSPropertyOp34
 70
     1
102
RTVSPropertyOp35
 70
     1
102
RTVSPropertyOp36
 70
     1
102
RTVSPropertyOp37
 70
     1
102
RTVSPropertyOp38
 70
     1
102
RTVSPropertyOp39
 70
     1
102
RTVSPropertyOp40
 70
     1
102
RTVSPropertyOp41
 70
     1
102
RTVSPropertyOp42
 70
     1
102
RTVSPropertyOp43
 70
     1
102
RTVSPropertyOp44
 70
     1
102
RTVSPropertyOp45
 70
     1
102
RTVSPropertyOp46
 70
     1
102
RTVSPropertyOp47
 70
     1
102
RTVSPropertyOp48
 70
     1
102
RTVSPropertyOp49
 70
     1
102
RTVSPropertyOp50
 70
     1
102
RTVSPropertyOp51
 70
     0
102
RTVSPropertyOp52
 70
     0
102
RTVSPropertyOp53
 70
     1
102
RTVSPropertyOp54
 70
     1
102
RTVSPropertyOp55
 70
     1
102
RTVSPropertyOp56
 70
     1
102
RTVSPropertyOp57
 70
     1
102
RTVSPropertyOp58
 70
     1
102
RTVSPropertyOp59
 70
     1
102
RTVSPropertyOp60
 70
     1
102
RTVSPropertyOp61
 70
     1
102
RTVSPropertyOp62
 70
     1
  0
XRECORD
  5
14E0
102
{ACAD_REACTORS
330
14DF
102
}
330
14DF
100
AcDbXrecord
280
     1
102
RTVSPost2010Prop28
280
     0
102
RTVSPost2010PropOp28
 70
     1
102
RTVSPost2010Prop29
280
     1
102
RTVSPost2010PropOp29
 70
     1
102
RTVSPost2010Prop30
280
     1
102
RTVSPost2010PropOp30
 70
     1
102
RTVSPost2010Prop31
280
     0
102
RTVSPost2010PropOp31
 70
     1
102
RTVSPost2010Prop32
280
     0
102
RTVSPost2010PropOp32
 70
     1
102
RTVSPost2010Prop33
280
     0
102
RTVSPost2010PropOp33
 70
     1
102
RTVSPost2010Prop34
280
     0
102
RTVSPost2010PropOp34
 70
     1
102
RTVSPost2010Prop35
280
     0
102
RTVSPost2010PropOp35
 70
     1
102
RTVSPost2010Prop36
280
     0
102
RTVSPost2010PropOp36
 70
     1
102
RTVSPost2010Prop37
 90
       50
102
RTVSPost2010PropOp37
 70
     1
102
RTVSPost2010Prop38
140
0.0
102
RTVSPost2010PropOp38
 70
     1
102
RTVSPost2010Prop39
140
1.0
102
RTVSPost2010PropOp39
 70
     1
102
RTVSPost2010Prop40
 90
        0
102
RTVSPost2010PropOp40
 70
     1
102
RTVSPost2010Prop41ColorIndex
 90
       18
102
RTVSPost2010Prop41ColorRGB
 90
        0
102
RTVSPost2010PropOp41
 70
     1
102
RTVSPost2010Prop42
 90
       50
102
RTVSPost2010PropOp42
 70
     1
102
RTVSPost2010Prop43
 90
        3
102
RTVSPost2010PropOp43
 70
     1
102
RTVSPost2010Prop44ColorIndex
 90
        5
102
RTVSPost2010Prop44ColorRGB
 90
      255
102
RTVSPost2010PropOp44
 70
     1
102
RTVSPost2010Prop45
280
     0
102
RTVSPost2010PropOp45
 70
     1
102
RTVSPost2010Prop46
 90
       50
102
RTVSPost2010PropOp46
 70
     1
102
RTVSPost2010Prop47
 90
       50
102
RTVSPost2010PropOp47
 70
     1
102
RTVSPost2010Prop48
 90
       50
102
RTVSPost2010PropOp48
 70
     1
102
RTVSPost2010Prop49
280
     0
102
RTVSPost2010PropOp49
 70
     1
102
RTVSPost2010Prop50
 90
       50
102
RTVSPost2010PropOp50
 70
     1
102
RTVSPost2010Prop51ColorIndex
 90
      256
102
RTVSPost2010Prop51ColorRGB
 90
-16777216
102
RTVSPost2010PropOp51
 70
     0
102
RTVSPost2010Prop52
140
1.0
102
RTVSPost2010PropOp52
 70
     0
102
RTVSPost2010Prop53
 90
        2
102
RTVSPost2010PropOp53
 70
     1
102
RTVSPost2010Prop54
  1
strokes_ogs.tif
102
RTVSPost2010PropOp54
 70
     1
102
RTVSPost2010Prop55
280
     0
102
RTVSPost2010PropOp55
 70
     1
102
RTVSPost2010Prop56
140
1.0
102
RTVSPost2010PropOp56
 70
     1
102
RTVSPost2010Prop57
140
1.0
102
RTVSPost2010PropOp57
 70
     1
102
RTVSPropertyOp0
 70
     1
102
RTVSPropertyOp1
 70
     1
102
RTVSPropertyOp2
 70
     1
102
RTVSPropertyOp3
 70
     1
102
RTVSPropertyOp4
 70
     1
102
RTVSPropertyOp5
 70
     1
102
RTVSPropertyOp6
 70
     1
102
RTVSPropertyOp7
 70
     1
102
RTVSPropertyOp8
 70
     1
102
RTVSPropertyOp9
 70
     1
102
RTVSPropertyOp10
 70
     1
102
RTVSPropertyOp11
 70
     1
102
RTVSPropertyOp12
 70
     1
102
RTVSPropertyOp13
 70
     1
102
RTVSPropertyOp14
 70
     1
102
RTVSPropertyOp15
 70
     1
102
RTVSPropertyOp16
 70
     1
102
RTVSPropertyOp17
 70
     1
102
RTVSPropertyOp18
 70
     1
102
RTVSPropertyOp19
 70
     1
102
RTVSPropertyOp20
 70
     1
102
RTVSPropertyOp21
 70
     1
102
RTVSPropertyOp22
 70
     1
102
RTVSPropertyOp23
 70
     1
102
RTVSPropertyOp24
 70
     1
102
RTVSPropertyOp25
 70
     1
102
RTVSPropertyOp26
 70
     1
102
RTVSPropertyOp27
 70
     1
102
RTVSPropertyOp28
 70
     1
102
RTVSPropertyOp29
 70
     1
102
RTVSPropertyOp30
 70
     1
102
RTVSPropertyOp31
 70
     1
102
RTVSPropertyOp32
 70
     1
102
RTVSPropertyOp33
 70
     1
102
RTVSPropertyOp34
 70
     1
102
RTVSPropertyOp35
 70
     1
102
RTVSPropertyOp36
 70
     1
102
RTVSPropertyOp37
 70
     1
102
RTVSPropertyOp38
 70
     1
102
RTVSPropertyOp39
 70
     1
102
RTVSPropertyOp40
 70
     1
102
RTVSPropertyOp41
 70
     1
102
RTVSPropertyOp42
 70
     1
102
RTVSPropertyOp43
 70
     1
102
RTVSPropertyOp44
 70
     1
102
RTVSPropertyOp45
 70
     1
102
RTVSPropertyOp46
 70
     1
102
RTVSPropertyOp47
 70
     1
102
RTVSPropertyOp48
 70
     1
102
RTVSPropertyOp49
 70
     1
102
RTVSPropertyOp50
 70
     1
102
RTVSPropertyOp51
 70
     0
102
RTVSPropertyOp52
 70
     0
102
RTVSPropertyOp53
 70
     1
102
RTVSPropertyOp54
 70
     1
102
RTVSPropertyOp55
 70
     1
102
RTVSPropertyOp56
 70
     1
102
RTVSPropertyOp57
 70
     1
102
RTVSPropertyOp58
 70
     1
102
RTVSPropertyOp59
 70
     1
102
RTVSPropertyOp60
 70
     1
102
RTVSPropertyOp61
 70
     1
102
RTVSPropertyOp62
 70
     1
  0
XRECORD
  5
14E2
102
{ACAD_REACTORS
330
14E1
102
}
330
14E1
100
AcDbXrecord
280
     1
102
RTVSPost2010Prop28
280
     0
102
RTVSPost2010PropOp28
 70
     1
102
RTVSPost2010Prop29
280
     1
102
RTVSPost2010PropOp29
 70
     1
102
RTVSPost2010Prop30
280
     1
102
RTVSPost2010PropOp30
 70
     1
102
RTVSPost2010Prop31
280
     0
102
RTVSPost2010PropOp31
 70
     1
102
RTVSPost2010Prop32
280
     0
102
RTVSPost2010PropOp32
 70
     1
102
RTVSPost2010Prop33
280
     0
102
RTVSPost2010PropOp33
 70
     1
102
RTVSPost2010Prop34
280
     0
102
RTVSPost2010PropOp34
 70
     1
102
RTVSPost2010Prop35
280
     0
102
RTVSPost2010PropOp35
 70
     1
102
RTVSPost2010Prop36
280
     0
102
RTVSPost2010PropOp36
 70
     1
102
RTVSPost2010Prop37
 90
       50
102
RTVSPost2010PropOp37
 70
     1
102
RTVSPost2010Prop38
140
0.0
102
RTVSPost2010PropOp38
 70
     1
102
RTVSPost2010Prop39
140
1.0
102
RTVSPost2010PropOp39
 70
     1
102
RTVSPost2010Prop40
 90
        0
102
RTVSPost2010PropOp40
 70
     1
102
RTVSPost2010Prop41ColorIndex
 90
       18
102
RTVSPost2010Prop41ColorRGB
 90
        0
102
RTVSPost2010PropOp41
 70
     1
102
RTVSPost2010Prop42
 90
       50
102
RTVSPost2010PropOp42
 70
     1
102
RTVSPost2010Prop43
 90
        3
102
RTVSPost2010PropOp43
 70
     1
102
RTVSPost2010Prop44ColorIndex
 90
        5
102
RTVSPost2010Prop44ColorRGB
 90
      255
102
RTVSPost2010PropOp44
 70
     1
102
RTVSPost2010Prop45
280
     0
102
RTVSPost2010PropOp45
 70
     1
102
RTVSPost2010Prop46
 90
       50
102
RTVSPost2010PropOp46
 70
     1
102
RTVSPost2010Prop47
 90
       50
102
RTVSPost2010PropOp47
 70
     1
102
RTVSPost2010Prop48
 90
       50
102
RTVSPost2010PropOp48
 70
     1
102
RTVSPost2010Prop49
280
     0
102
RTVSPost2010PropOp49
 70
     1
102
RTVSPost2010Prop50
 90
       50
102
RTVSPost2010PropOp50
 70
     1
102
RTVSPost2010Prop51ColorIndex
 90
      256
102
RTVSPost2010Prop51ColorRGB
 90
-16777216
102
RTVSPost2010PropOp51
 70
     0
102
RTVSPost2010Prop52
140
1.0
102
RTVSPost2010PropOp52
 70
     0
102
RTVSPost2010Prop53
 90
        2
102
RTVSPost2010PropOp53
 70
     1
102
RTVSPost2010Prop54
  1
strokes_ogs.tif
102
RTVSPost2010PropOp54
 70
     1
102
RTVSPost2010Prop55
280
     0
102
RTVSPost2010PropOp55
 70
     1
102
RTVSPost2010Prop56
140
1.0
102
RTVSPost2010PropOp56
 70
     1
102
RTVSPost2010Prop57
140
1.0
102
RTVSPost2010PropOp57
 70
     1
102
RTVSPropertyOp0
 70
     1
102
RTVSPropertyOp1
 70
     1
102
RTVSPropertyOp2
 70
     1
102
RTVSPropertyOp3
 70
     1
102
RTVSPropertyOp4
 70
     1
102
RTVSPropertyOp5
 70
     1
102
RTVSPropertyOp6
 70
     1
102
RTVSPropertyOp7
 70
     1
102
RTVSPropertyOp8
 70
     1
102
RTVSPropertyOp9
 70
     1
102
RTVSPropertyOp10
 70
     1
102
RTVSPropertyOp11
 70
     1
102
RTVSPropertyOp12
 70
     1
102
RTVSPropertyOp13
 70
     1
102
RTVSPropertyOp14
 70
     1
102
RTVSPropertyOp15
 70
     1
102
RTVSPropertyOp16
 70
     1
102
RTVSPropertyOp17
 70
     1
102
RTVSPropertyOp18
 70
     1
102
RTVSPropertyOp19
 70
     1
102
RTVSPropertyOp20
 70
     1
102
RTVSPropertyOp21
 70
     1
102
RTVSPropertyOp22
 70
     1
102
RTVSPropertyOp23
 70
     1
102
RTVSPropertyOp24
 70
     1
102
RTVSPropertyOp25
 70
     1
102
RTVSPropertyOp26
 70
     1
102
RTVSPropertyOp27
 70
     1
102
RTVSPropertyOp28
 70
     1
102
RTVSPropertyOp29
 70
     1
102
RTVSPropertyOp30
 70
     1
102
RTVSPropertyOp31
 70
     1
102
RTVSPropertyOp32
 70
     1
102
RTVSPropertyOp33
 70
     1
102
RTVSPropertyOp34
 70
     1
102
RTVSPropertyOp35
 70
     1
102
RTVSPropertyOp36
 70
     1
102
RTVSPropertyOp37
 70
     1
102
RTVSPropertyOp38
 70
     1
102
RTVSPropertyOp39
 70
     1
102
RTVSPropertyOp40
 70
     1
102
RTVSPropertyOp41
 70
     1
102
RTVSPropertyOp42
 70
     1
102
RTVSPropertyOp43
 70
     1
102
RTVSPropertyOp44
 70
     1
102
RTVSPropertyOp45
 70
     1
102
RTVSPropertyOp46
 70
     1
102
RTVSPropertyOp47
 70
     1
102
RTVSPropertyOp48
 70
     1
102
RTVSPropertyOp49
 70
     1
102
RTVSPropertyOp50
 70
     1
102
RTVSPropertyOp51
 70
     0
102
RTVSPropertyOp52
 70
     0
102
RTVSPropertyOp53
 70
     1
102
RTVSPropertyOp54
 70
     1
102
RTVSPropertyOp55
 70
     1
102
RTVSPropertyOp56
 70
     1
102
RTVSPropertyOp57
 70
     1
102
RTVSPropertyOp58
 70
     1
102
RTVSPropertyOp59
 70
     1
102
RTVSPropertyOp60
 70
     1
102
RTVSPropertyOp61
 70
     1
102
RTVSPropertyOp62
 70
     1
  0
XRECORD
  5
14D8
102
{ACAD_REACTORS
330
14D7
102
}
330
14D7
100
AcDbXrecord
280
     1
102
RTVSPost2010Prop28
280
     0
102
RTVSPost2010PropOp28
 70
     1
102
RTVSPost2010Prop29
280
     1
102
RTVSPost2010PropOp29
 70
     1
102
RTVSPost2010Prop30
280
     1
102
RTVSPost2010PropOp30
 70
     1
102
RTVSPost2010Prop31
280
     0
102
RTVSPost2010PropOp31
 70
     1
102
RTVSPost2010Prop32
280
     0
102
RTVSPost2010PropOp32
 70
     1
102
RTVSPost2010Prop33
280
     0
102
RTVSPost2010PropOp33
 70
     1
102
RTVSPost2010Prop34
280
     0
102
RTVSPost2010PropOp34
 70
     1
102
RTVSPost2010Prop35
280
     0
102
RTVSPost2010PropOp35
 70
     1
102
RTVSPost2010Prop36
280
     0
102
RTVSPost2010PropOp36
 70
     1
102
RTVSPost2010Prop37
 90
       50
102
RTVSPost2010PropOp37
 70
     1
102
RTVSPost2010Prop38
140
0.0
102
RTVSPost2010PropOp38
 70
     1
102
RTVSPost2010Prop39
140
1.0
102
RTVSPost2010PropOp39
 70
     1
102
RTVSPost2010Prop40
 90
        0
102
RTVSPost2010PropOp40
 70
     1
102
RTVSPost2010Prop41ColorIndex
 90
       18
102
RTVSPost2010Prop41ColorRGB
 90
        0
102
RTVSPost2010PropOp41
 70
     1
102
RTVSPost2010Prop42
 90
       50
102
RTVSPost2010PropOp42
 70
     1
102
RTVSPost2010Prop43
 90
        3
102
RTVSPost2010PropOp43
 70
     1
102
RTVSPost2010Prop44ColorIndex
 90
        5
102
RTVSPost2010Prop44ColorRGB
 90
      255
102
RTVSPost2010PropOp44
 70
     1
102
RTVSPost2010Prop45
280
     0
102
RTVSPost2010PropOp45
 70
     1
102
RTVSPost2010Prop46
 90
       50
102
RTVSPost2010PropOp46
 70
     1
102
RTVSPost2010Prop47
 90
       50
102
RTVSPost2010PropOp47
 70
     1
102
RTVSPost2010Prop48
 90
       50
102
RTVSPost2010PropOp48
 70
     1
102
RTVSPost2010Prop49
280
     0
102
RTVSPost2010PropOp49
 70
     1
102
RTVSPost2010Prop50
 90
       50
102
RTVSPost2010PropOp50
 70
     1
102
RTVSPost2010Prop51ColorIndex
 90
      256
102
RTVSPost2010Prop51ColorRGB
 90
-16777216
102
RTVSPost2010PropOp51
 70
     0
102
RTVSPost2010Prop52
140
1.0
102
RTVSPost2010PropOp52
 70
     0
102
RTVSPost2010Prop53
 90
        2
102
RTVSPost2010PropOp53
 70
     1
102
RTVSPost2010Prop54
  1
strokes_ogs.tif
102
RTVSPost2010PropOp54
 70
     1
102
RTVSPost2010Prop55
280
     0
102
RTVSPost2010PropOp55
 70
     1
102
RTVSPost2010Prop56
140
1.0
102
RTVSPost2010PropOp56
 70
     1
102
RTVSPost2010Prop57
140
1.0
102
RTVSPost2010PropOp57
 70
     1
102
RTVSPropertyOp0
 70
     1
102
RTVSPropertyOp1
 70
     1
102
RTVSPropertyOp2
 70
     1
102
RTVSPropertyOp3
 70
     1
102
RTVSPropertyOp4
 70
     1
102
RTVSPropertyOp5
 70
     1
102
RTVSPropertyOp6
 70
     1
102
RTVSPropertyOp7
 70
     1
102
RTVSPropertyOp8
 70
     1
102
RTVSPropertyOp9
 70
     1
102
RTVSPropertyOp10
 70
     1
102
RTVSPropertyOp11
 70
     1
102
RTVSPropertyOp12
 70
     1
102
RTVSPropertyOp13
 70
     1
102
RTVSPropertyOp14
 70
     1
102
RTVSPropertyOp15
 70
     1
102
RTVSPropertyOp16
 70
     1
102
RTVSPropertyOp17
 70
     1
102
RTVSPropertyOp18
 70
     1
102
RTVSPropertyOp19
 70
     1
102
RTVSPropertyOp20
 70
     1
102
RTVSPropertyOp21
 70
     1
102
RTVSPropertyOp22
 70
     1
102
RTVSPropertyOp23
 70
     1
102
RTVSPropertyOp24
 70
     1
102
RTVSPropertyOp25
 70
     1
102
RTVSPropertyOp26
 70
     1
102
RTVSPropertyOp27
 70
     1
102
RTVSPropertyOp28
 70
     1
102
RTVSPropertyOp29
 70
     1
102
RTVSPropertyOp30
 70
     1
102
RTVSPropertyOp31
 70
     1
102
RTVSPropertyOp32
 70
     1
102
RTVSPropertyOp33
 70
     1
102
RTVSPropertyOp34
 70
     1
102
RTVSPropertyOp35
 70
     1
102
RTVSPropertyOp36
 70
     1
102
RTVSPropertyOp37
 70
     1
102
RTVSPropertyOp38
 70
     1
102
RTVSPropertyOp39
 70
     1
102
RTVSPropertyOp40
 70
     1
102
RTVSPropertyOp41
 70
     1
102
RTVSPropertyOp42
 70
     1
102
RTVSPropertyOp43
 70
     1
102
RTVSPropertyOp44
 70
     1
102
RTVSPropertyOp45
 70
     1
102
RTVSPropertyOp46
 70
     1
102
RTVSPropertyOp47
 70
     1
102
RTVSPropertyOp48
 70
     1
102
RTVSPropertyOp49
 70
     1
102
RTVSPropertyOp50
 70
     1
102
RTVSPropertyOp51
 70
     0
102
RTVSPropertyOp52
 70
     0
102
RTVSPropertyOp53
 70
     1
102
RTVSPropertyOp54
 70
     1
102
RTVSPropertyOp55
 70
     1
102
RTVSPropertyOp56
 70
     1
102
RTVSPropertyOp57
 70
     1
102
RTVSPropertyOp58
 70
     1
102
RTVSPropertyOp59
 70
     1
102
RTVSPropertyOp60
 70
     1
102
RTVSPropertyOp61
 70
     1
102
RTVSPropertyOp62
 70
     1
  0
XRECORD
  5
14CC
102
{ACAD_REACTORS
330
14CB
102
}
330
14CB
100
AcDbXrecord
280
     1
102
RTVSPost2010Prop28
280
     0
102
RTVSPost2010PropOp28
 70
     1
102
RTVSPost2010Prop29
280
     1
102
RTVSPost2010PropOp29
 70
     1
102
RTVSPost2010Prop30
280
     1
102
RTVSPost2010PropOp30
 70
     1
102
RTVSPost2010Prop31
280
     0
102
RTVSPost2010PropOp31
 70
     1
102
RTVSPost2010Prop32
280
     0
102
RTVSPost2010PropOp32
 70
     1
102
RTVSPost2010Prop33
280
     0
102
RTVSPost2010PropOp33
 70
     1
102
RTVSPost2010Prop34
280
     0
102
RTVSPost2010PropOp34
 70
     1
102
RTVSPost2010Prop35
280
     0
102
RTVSPost2010PropOp35
 70
     1
102
RTVSPost2010Prop36
280
     0
102
RTVSPost2010PropOp36
 70
     1
102
RTVSPost2010Prop37
 90
       50
102
RTVSPost2010PropOp37
 70
     1
102
RTVSPost2010Prop38
140
0.0
102
RTVSPost2010PropOp38
 70
     1
102
RTVSPost2010Prop39
140
1.0
102
RTVSPost2010PropOp39
 70
     1
102
RTVSPost2010Prop40
 90
        0
102
RTVSPost2010PropOp40
 70
     1
102
RTVSPost2010Prop41ColorIndex
 90
       18
102
RTVSPost2010Prop41ColorRGB
 90
        0
102
RTVSPost2010PropOp41
 70
     1
102
RTVSPost2010Prop42
 90
       50
102
RTVSPost2010PropOp42
 70
     1
102
RTVSPost2010Prop43
 90
        3
102
RTVSPost2010PropOp43
 70
     1
102
RTVSPost2010Prop44ColorIndex
 90
        5
102
RTVSPost2010Prop44ColorRGB
 90
      255
102
RTVSPost2010PropOp44
 70
     1
102
RTVSPost2010Prop45
280
     0
102
RTVSPost2010PropOp45
 70
     1
102
RTVSPost2010Prop46
 90
       50
102
RTVSPost2010PropOp46
 70
     1
102
RTVSPost2010Prop47
 90
       50
102
RTVSPost2010PropOp47
 70
     1
102
RTVSPost2010Prop48
 90
       50
102
RTVSPost2010PropOp48
 70
     1
102
RTVSPost2010Prop49
280
     0
102
RTVSPost2010PropOp49
 70
     1
102
RTVSPost2010Prop50
 90
       50
102
RTVSPost2010PropOp50
 70
     1
102
RTVSPost2010Prop51ColorIndex
 90
      256
102
RTVSPost2010Prop51ColorRGB
 90
-16777216
102
RTVSPost2010PropOp51
 70
     0
102
RTVSPost2010Prop52
140
1.0
102
RTVSPost2010PropOp52
 70
     0
102
RTVSPost2010Prop53
 90
        2
102
RTVSPost2010PropOp53
 70
     1
102
RTVSPost2010Prop54
  1
strokes_ogs.tif
102
RTVSPost2010PropOp54
 70
     1
102
RTVSPost2010Prop55
280
     0
102
RTVSPost2010PropOp55
 70
     1
102
RTVSPost2010Prop56
140
1.0
102
RTVSPost2010PropOp56
 70
     1
102
RTVSPost2010Prop57
140
1.0
102
RTVSPost2010PropOp57
 70
     1
102
RTVSPropertyOp0
 70
     1
102
RTVSPropertyOp1
 70
     1
102
RTVSPropertyOp2
 70
     1
102
RTVSPropertyOp3
 70
     1
102
RTVSPropertyOp4
 70
     1
102
RTVSPropertyOp5
 70
     1
102
RTVSPropertyOp6
 70
     1
102
RTVSPropertyOp7
 70
     1
102
RTVSPropertyOp8
 70
     1
102
RTVSPropertyOp9
 70
     1
102
RTVSPropertyOp10
 70
     1
102
RTVSPropertyOp11
 70
     1
102
RTVSPropertyOp12
 70
     1
102
RTVSPropertyOp13
 70
     1
102
RTVSPropertyOp14
 70
     1
102
RTVSPropertyOp15
 70
     1
102
RTVSPropertyOp16
 70
     1
102
RTVSPropertyOp17
 70
     1
102
RTVSPropertyOp18
 70
     1
102
RTVSPropertyOp19
 70
     1
102
RTVSPropertyOp20
 70
     1
102
RTVSPropertyOp21
 70
     1
102
RTVSPropertyOp22
 70
     1
102
RTVSPropertyOp23
 70
     1
102
RTVSPropertyOp24
 70
     1
102
RTVSPropertyOp25
 70
     1
102
RTVSPropertyOp26
 70
     1
102
RTVSPropertyOp27
 70
     1
102
RTVSPropertyOp28
 70
     1
102
RTVSPropertyOp29
 70
     1
102
RTVSPropertyOp30
 70
     1
102
RTVSPropertyOp31
 70
     1
102
RTVSPropertyOp32
 70
     1
102
RTVSPropertyOp33
 70
     1
102
RTVSPropertyOp34
 70
     1
102
RTVSPropertyOp35
 70
     1
102
RTVSPropertyOp36
 70
     1
102
RTVSPropertyOp37
 70
     1
102
RTVSPropertyOp38
 70
     1
102
RTVSPropertyOp39
 70
     1
102
RTVSPropertyOp40
 70
     1
102
RTVSPropertyOp41
 70
     1
102
RTVSPropertyOp42
 70
     1
102
RTVSPropertyOp43
 70
     1
102
RTVSPropertyOp44
 70
     1
102
RTVSPropertyOp45
 70
     1
102
RTVSPropertyOp46
 70
     1
102
RTVSPropertyOp47
 70
     1
102
RTVSPropertyOp48
 70
     1
102
RTVSPropertyOp49
 70
     1
102
RTVSPropertyOp50
 70
     1
102
RTVSPropertyOp51
 70
     0
102
RTVSPropertyOp52
 70
     0
102
RTVSPropertyOp53
 70
     1
102
RTVSPropertyOp54
 70
     1
102
RTVSPropertyOp55
 70
     1
102
RTVSPropertyOp56
 70
     1
102
RTVSPropertyOp57
 70
     1
102
RTVSPropertyOp58
 70
     1
102
RTVSPropertyOp59
 70
     1
102
RTVSPropertyOp60
 70
     1
102
RTVSPropertyOp61
 70
     1
102
RTVSPropertyOp62
 70
     1
  0
XRECORD
  5
14E4
102
{ACAD_REACTORS
330
14E3
102
}
330
14E3
100
AcDbXrecord
280
     1
102
RTVSPost2010Prop28
280
     0
102
RTVSPost2010PropOp28
 70
     1
102
RTVSPost2010Prop29
280
     1
102
RTVSPost2010PropOp29
 70
     1
102
RTVSPost2010Prop30
280
     1
102
RTVSPost2010PropOp30
 70
     1
102
RTVSPost2010Prop31
280
     0
102
RTVSPost2010PropOp31
 70
     1
102
RTVSPost2010Prop32
280
     0
102
RTVSPost2010PropOp32
 70
     1
102
RTVSPost2010Prop33
280
     0
102
RTVSPost2010PropOp33
 70
     1
102
RTVSPost2010Prop34
280
     0
102
RTVSPost2010PropOp34
 70
     1
102
RTVSPost2010Prop35
280
     0
102
RTVSPost2010PropOp35
 70
     1
102
RTVSPost2010Prop36
280
     0
102
RTVSPost2010PropOp36
 70
     1
102
RTVSPost2010Prop37
 90
       50
102
RTVSPost2010PropOp37
 70
     1
102
RTVSPost2010Prop38
140
0.0
102
RTVSPost2010PropOp38
 70
     1
102
RTVSPost2010Prop39
140
1.0
102
RTVSPost2010PropOp39
 70
     1
102
RTVSPost2010Prop40
 90
        0
102
RTVSPost2010PropOp40
 70
     1
102
RTVSPost2010Prop41ColorIndex
 90
       18
102
RTVSPost2010Prop41ColorRGB
 90
        0
102
RTVSPost2010PropOp41
 70
     1
102
RTVSPost2010Prop42
 90
       50
102
RTVSPost2010PropOp42
 70
     1
102
RTVSPost2010Prop43
 90
        3
102
RTVSPost2010PropOp43
 70
     1
102
RTVSPost2010Prop44ColorIndex
 90
        5
102
RTVSPost2010Prop44ColorRGB
 90
      255
102
RTVSPost2010PropOp44
 70
     1
102
RTVSPost2010Prop45
280
     0
102
RTVSPost2010PropOp45
 70
     1
102
RTVSPost2010Prop46
 90
       50
102
RTVSPost2010PropOp46
 70
     1
102
RTVSPost2010Prop47
 90
       50
102
RTVSPost2010PropOp47
 70
     1
102
RTVSPost2010Prop48
 90
       50
102
RTVSPost2010PropOp48
 70
     1
102
RTVSPost2010Prop49
280
     0
102
RTVSPost2010PropOp49
 70
     1
102
RTVSPost2010Prop50
 90
       50
102
RTVSPost2010PropOp50
 70
     1
102
RTVSPost2010Prop51ColorIndex
 90
      256
102
RTVSPost2010Prop51ColorRGB
 90
-16777216
102
RTVSPost2010PropOp51
 70
     0
102
RTVSPost2010Prop52
140
1.0
102
RTVSPost2010PropOp52
 70
     0
102
RTVSPost2010Prop53
 90
        2
102
RTVSPost2010PropOp53
 70
     1
102
RTVSPost2010Prop54
  1
strokes_ogs.tif
102
RTVSPost2010PropOp54
 70
     1
102
RTVSPost2010Prop55
280
     0
102
RTVSPost2010PropOp55
 70
     1
102
RTVSPost2010Prop56
140
1.0
102
RTVSPost2010PropOp56
 70
     1
102
RTVSPost2010Prop57
140
1.0
102
RTVSPost2010PropOp57
 70
     1
102
RTVSPropertyOp0
 70
     1
102
RTVSPropertyOp1
 70
     1
102
RTVSPropertyOp2
 70
     1
102
RTVSPropertyOp3
 70
     1
102
RTVSPropertyOp4
 70
     1
102
RTVSPropertyOp5
 70
     1
102
RTVSPropertyOp6
 70
     1
102
RTVSPropertyOp7
 70
     1
102
RTVSPropertyOp8
 70
     1
102
RTVSPropertyOp9
 70
     1
102
RTVSPropertyOp10
 70
     1
102
RTVSPropertyOp11
 70
     1
102
RTVSPropertyOp12
 70
     1
102
RTVSPropertyOp13
 70
     1
102
RTVSPropertyOp14
 70
     1
102
RTVSPropertyOp15
 70
     1
102
RTVSPropertyOp16
 70
     1
102
RTVSPropertyOp17
 70
     1
102
RTVSPropertyOp18
 70
     1
102
RTVSPropertyOp19
 70
     1
102
RTVSPropertyOp20
 70
     1
102
RTVSPropertyOp21
 70
     1
102
RTVSPropertyOp22
 70
     1
102
RTVSPropertyOp23
 70
     1
102
RTVSPropertyOp24
 70
     1
102
RTVSPropertyOp25
 70
     1
102
RTVSPropertyOp26
 70
     1
102
RTVSPropertyOp27
 70
     1
102
RTVSPropertyOp28
 70
     1
102
RTVSPropertyOp29
 70
     1
102
RTVSPropertyOp30
 70
     1
102
RTVSPropertyOp31
 70
     1
102
RTVSPropertyOp32
 70
     1
102
RTVSPropertyOp33
 70
     1
102
RTVSPropertyOp34
 70
     1
102
RTVSPropertyOp35
 70
     1
102
RTVSPropertyOp36
 70
     1
102
RTVSPropertyOp37
 70
     1
102
RTVSPropertyOp38
 70
     1
102
RTVSPropertyOp39
 70
     1
102
RTVSPropertyOp40
 70
     1
102
RTVSPropertyOp41
 70
     1
102
RTVSPropertyOp42
 70
     1
102
RTVSPropertyOp43
 70
     1
102
RTVSPropertyOp44
 70
     1
102
RTVSPropertyOp45
 70
     1
102
RTVSPropertyOp46
 70
     1
102
RTVSPropertyOp47
 70
     1
102
RTVSPropertyOp48
 70
     1
102
RTVSPropertyOp49
 70
     1
102
RTVSPropertyOp50
 70
     1
102
RTVSPropertyOp51
 70
     0
102
RTVSPropertyOp52
 70
     0
102
RTVSPropertyOp53
 70
     1
102
RTVSPropertyOp54
 70
     1
102
RTVSPropertyOp55
 70
     1
102
RTVSPropertyOp56
 70
     1
102
RTVSPropertyOp57
 70
     1
102
RTVSPropertyOp58
 70
     1
102
RTVSPropertyOp59
 70
     1
102
RTVSPropertyOp60
 70
     1
102
RTVSPropertyOp61
 70
     1
102
RTVSPropertyOp62
 70
     1
  0
ENDSEC
  0
EOF
