  0
SECTION
  2
HEADER
  9
$ACADVER
  1
AC1015
  9
$ACADMAINTVER
 70
    20
  9
$DWGCODEPAGE
  3
ANSI_932
  9
$INSBASE
 10
0.0
 20
0.0
 30
0.0
  9
$EXTMIN
 10
10.0
 20
9.999999999999998
 30
0.0
  9
$EXTMAX
 10
563.4797156949069
 20
356.3387109999999
 30
0.0
  9
$LIMMIN
 10
0.0
 20
0.0
  9
$LIMMAX
 10
565.7000000000001
 20
389.990152
  9
$ORTHOMODE
 70
     1
  9
$REGENMODE
 70
     1
  9
$FILLMODE
 70
     1
  9
$QTEXTMODE
 70
     0
  9
$MIRRTEXT
 70
     1
  9
$LTSCALE
 40
20.0
  9
$ATTMODE
 70
     1
  9
$TEXTSIZE
 40
5.0
  9
$TRACEWID
 40
1.0
  9
$TEXTSTYLE
  7
STANDARD
  9
$CLAYER
  8
0
  9
$CELTYPE
  6
BYLAYER
  9
$CECOLOR
 62
   256
  9
$CELTSCALE
 40
1.0
  9
$DISPSILH
 70
     0
  9
$DIMSCALE
 40
1.0
  9
$DIMASZ
 40
3.0
  9
$DIMEXO
 40
1.0
  9
$DIMDLI
 40
10.0
  9
$DIMRND
 40
0.0
  9
$DIMDLE
 40
0.0
  9
$DIMEXE
 40
1.0
  9
$DIMTP
 40
0.0
  9
$DIMTM
 40
0.0
  9
$DIMTXT
 40
3.2
  9
$DIMCEN
 40
0.0
  9
$DIMTSZ
 40
0.0
  9
$DIMTOL
 70
     0
  9
$DIMLIM
 70
     0
  9
$DIMTIH
 70
     0
  9
$DIMTOH
 70
     0
  9
$DIMSE1
 70
     0
  9
$DIMSE2
 70
     0
  9
$DIMTAD
 70
     3
  9
$DIMZIN
 70
     9
  9
$DIMBLK
  1

  9
$DIMASO
 70
     1
  9
$DIMSHO
 70
     1
  9
$DIMPOST
  1

  9
$DIMAPOST
  1

  9
$DIMALT
 70
     0
  9
$DIMALTD
 70
     2
  9
$DIMALTF
 40
25.4
  9
$DIMLFAC
 40
1.0
  9
$DIMTOFL
 70
     1
  9
$DIMTVP
 40
0.0
  9
$DIMTIX
 70
     0
  9
$DIMSOXD
 70
     0
  9
$DIMSAH
 70
     1
  9
$DIMBLK1
  1

  9
$DIMBLK2
  1

  9
$DIMSTYLE
  2
STANDARD
  9
$DIMCLRD
 70
     0
  9
$DIMCLRE
 70
     0
  9
$DIMCLRT
 70
     0
  9
$DIMTFAC
 40
1.0
  9
$DIMGAP
 40
1.0
  9
$DIMJUST
 70
     0
  9
$DIMSD1
 70
     0
  9
$DIMSD2
 70
     0
  9
$DIMTOLJ
 70
     1
  9
$DIMTZIN
 70
     0
  9
$DIMALTZ
 70
     0
  9
$DIMALTTZ
 70
     0
  9
$DIMUPT
 70
     0
  9
$DIMDEC
 70
     4
  9
$DIMTDEC
 70
     4
  9
$DIMALTU
 70
     2
  9
$DIMALTTD
 70
     2
  9
$DIMTXSTY
  7
STANDARD
  9
$DIMAUNIT
 70
     0
  9
$DIMADEC
 70
     0
  9
$DIMALTRND
 40
0.0
  9
$DIMAZIN
 70
     0
  9
$DIMDSEP
 70
    46
  9
$DIMATFIT
 70
     3
  9
$DIMFRAC
 70
     0
  9
$DIMLDRBLK
  1

  9
$DIMLUNIT
 70
     2
  9
$DIMLWD
 70
    -2
  9
$DIMLWE
 70
    -2
  9
$DIMTMOVE
 70
     0
  9
$LUNITS
 70
     2
  9
$LUPREC
 70
     4
  9
$SKETCHINC
 40
1.0
  9
$FILLETRAD
 40
1.5
  9
$AUNITS
 70
     0
  9
$AUPREC
 70
     2
  9
$MENU
  1
.
  9
$ELEVATION
 40
0.0
  9
$PELEVATION
 40
0.0
  9
$THICKNESS
 40
0.0
  9
$LIMCHECK
 70
     0
  9
$CHAMFERA
 40
10.0
  9
$CHAMFERB
 40
10.0
  9
$CHAMFERC
 40
0.0
  9
$CHAMFERD
 40
0.0
  9
$SKPOLY
 70
     0
  9
$TDCREATE
 40
2451066.603987732
  9
$TDUCREATE
 40
2451066.228987732
  9
$TDUPDATE
 40
2457192.603120521
  9
$TDUUPDATE
 40
2457192.228120521
  9
$TDINDWG
 40
0.0000137847
  9
$TDUSRTIMER
 40
0.0000134606
  9
$USRTIMER
 70
     1
  9
$ANGBASE
 50
0.0
  9
$ANGDIR
 70
     0
  9
$PDMODE
 70
     0
  9
$PDSIZE
 40
0.0
  9
$PLINEWID
 40
0.0
  9
$SPLFRAME
 70
     0
  9
$SPLINETYPE
 70
     6
  9
$SPLINESEGS
 70
     8
  9
$HANDSEED
  5
9EB3
  9
$SURFTAB1
 70
     6
  9
$SURFTAB2
 70
     6
  9
$SURFTYPE
 70
     6
  9
$SURFU
 70
     6
  9
$SURFV
 70
     6
  9
$UCSBASE
  2

  9
$UCSNAME
  2

  9
$UCSORG
 10
0.0
 20
0.0
 30
0.0
  9
$UCSXDIR
 10
1.0
 20
0.0
 30
0.0
  9
$UCSYDIR
 10
0.0
 20
1.0
 30
0.0
  9
$UCSORTHOREF
  2

  9
$UCSORTHOVIEW
 70
     0
  9
$UCSORGTOP
 10
0.0
 20
0.0
 30
0.0
  9
$UCSORGBOTTOM
 10
0.0
 20
0.0
 30
0.0
  9
$UCSORGLEFT
 10
0.0
 20
0.0
 30
0.0
  9
$UCSORGRIGHT
 10
0.0
 20
0.0
 30
0.0
  9
$UCSORGFRONT
 10
0.0
 20
0.0
 30
0.0
  9
$UCSORGBACK
 10
0.0
 20
0.0
 30
0.0
  9
$PUCSBASE
  2

  9
$PUCSNAME
  2

  9
$PUCSORG
 10
0.0
 20
0.0
 30
0.0
  9
$PUCSXDIR
 10
1.0
 20
0.0
 30
0.0
  9
$PUCSYDIR
 10
0.0
 20
1.0
 30
0.0
  9
$PUCSORTHOREF
  2

  9
$PUCSORTHOVIEW
 70
     0
  9
$PUCSORGTOP
 10
0.0
 20
0.0
 30
0.0
  9
$PUCSORGBOTTOM
 10
0.0
 20
0.0
 30
0.0
  9
$PUCSORGLEFT
 10
0.0
 20
0.0
 30
0.0
  9
$PUCSORGRIGHT
 10
0.0
 20
0.0
 30
0.0
  9
$PUCSORGFRONT
 10
0.0
 20
0.0
 30
0.0
  9
$PUCSORGBACK
 10
0.0
 20
0.0
 30
0.0
  9
$USERI1
 70
     0
  9
$USERI2
 70
     0
  9
$USERI3
 70
     0
  9
$USERI4
 70
     0
  9
$USERI5
 70
     0
  9
$USERR1
 40
0.0
  9
$USERR2
 40
0.0
  9
$USERR3
 40
0.0
  9
$USERR4
 40
0.0
  9
$USERR5
 40
0.0
  9
$WORLDVIEW
 70
     1
  9
$SHADEDGE
 70
     3
  9
$SHADEDIF
 70
    70
  9
$TILEMODE
 70
     1
  9
$MAXACTVP
 70
    16
  9
$PINSBASE
 10
0.0
 20
0.0
 30
0.0
  9
$PLIMCHECK
 70
     0
  9
$PEXTMIN
 10
1.000000000000000E+20
 20
1.000000000000000E+20
 30
1.000000000000000E+20
  9
$PEXTMAX
 10
-1.000000000000000E+20
 20
-1.000000000000000E+20
 30
-1.000000000000000E+20
  9
$PLIMMIN
 10
0.0
 20
0.0
  9
$PLIMMAX
 10
420.0
 20
297.0
  9
$UNITMODE
 70
     0
  9
$VISRETAIN
 70
     0
  9
$PLINEGEN
 70
     0
  9
$PSLTSCALE
 70
     0
  9
$TREEDEPTH
 70
  3020
  9
$CMLSTYLE
  2
STANDARD
  9
$CMLJUST
 70
     0
  9
$CMLSCALE
 40
1.0
  9
$PROXYGRAPHICS
 70
     1
  9
$MEASUREMENT
 70
     0
  9
$CELWEIGHT
370
    -1
  9
$ENDCAPS
280
     0
  9
$JOINSTYLE
280
     0
  9
$LWDISPLAY
290
     0
  9
$INSUNITS
 70
     0
  9
$HYPERLINKBASE
  1

  9
$STYLESHEET
  1

  9
$XEDIT
290
     1
  9
$CEPSNTYPE
380
     0
  9
$PSTYLEMODE
290
     1
  9
$FINGERPRINTGUID
  2
{DC72017C-E091-4ADF-A370-72B390258A37}
  9
$VERSIONGUID
  2
{85CC8767-C1CA-4B36-BE97-0E10D00EA71A}
  9
$EXTNAMES
290
     1
  9
$PSVPSCALE
 40
0.0
  9
$OLESTARTUP
290
     0
  0
ENDSEC
  0
SECTION
  2
CLASSES
  0
CLASS
  1
ACDBDICTIONARYWDFLT
  2
AcDbDictionaryWithDefault
  3
ObjectDBX Classes
 90
        0
280
     0
281
     0
  0
CLASS
  1
ACDBPLACEHOLDER
  2
AcDbPlaceHolder
  3
ObjectDBX Classes
 90
        0
280
     0
281
     0
  0
CLASS
  1
LAYOUT
  2
AcDbLayout
  3
ObjectDBX Classes
 90
        0
280
     0
281
     0
  0
CLASS
  1
DICTIONARYVAR
  2
AcDbDictionaryVar
  3
ObjectDBX Classes
 90
        0
280
     0
281
     0
  0
CLASS
  1
MATERIAL
  2
AcDbMaterial
  3
ObjectDBX Classes
 90
     1153
280
     0
281
     0
  0
CLASS
  1
VISUALSTYLE
  2
AcDbVisualStyle
  3
ObjectDBX Classes
 90
     4095
280
     0
281
     0
  0
CLASS
  1
TABLESTYLE
  2
AcDbTableStyle
  3
ObjectDBX Classes
 90
     4095
280
     0
281
     0
  0
CLASS
  1
SCALE
  2
AcDbScale
  3
ObjectDBX Classes
 90
     1153
280
     0
281
     0
  0
CLASS
  1
MLEADERSTYLE
  2
AcDbMLeaderStyle
  3
ACDB_MLEADERSTYLE_CLASS
 90
     4095
280
     0
281
     0
  0
CLASS
  1
ACDBSECTIONVIEWSTYLE
  2
AcDbSectionViewStyle
  3
ObjectDBX Classes
 90
     1025
280
     0
281
     0
  0
CLASS
  1
ACDBDETAILVIEWSTYLE
  2
AcDbDetailViewStyle
  3
ObjectDBX Classes
 90
     1025
280
     0
281
     0
  0
CLASS
  1
CELLSTYLEMAP
  2
AcDbCellStyleMap
  3
ObjectDBX Classes
 90
     1152
280
     0
281
     0
  0
ENDSEC
  0
SECTION
  2
TABLES
  0
TABLE
  2
VPORT
  5
9BF0
330
0
100
AcDbSymbolTable
 70
     1
  0
VPORT
  5
9DFC
330
9BF0
100
AcDbSymbolTableRecord
100
AcDbViewportTableRecord
  2
*ACTIVE
 70
     0
 10
0.0
 20
0.0
 11
1.0
 21
1.0
 12
391.6636440319503
 22
183.16790668093
 13
0.0
 23
0.0
 14
10.0
 24
10.0
 15
10.0
 25
10.0
 16
0.0
 26
0.0
 36
1.0
 17
0.0
 27
0.0
 37
0.0
 40
350.2388932036086
 41
1.899603698811096
 42
50.0
 43
0.0
 44
0.0
 50
0.0
 51
0.0
 71
     0
 72
   100
 73
     1
 74
     0
 75
     0
 76
     0
 77
     0
 78
     0
281
     0
 65
     1
110
0.0
120
0.0
130
0.0
111
1.0
121
0.0
131
0.0
112
0.0
122
1.0
132
0.0
 79
     0
146
0.0
1001
ACAD_NAV_VCDISPLAY
1070
     3
  0
ENDTAB
  0
TABLE
  2
LTYPE
  5
9BED
330
0
100
AcDbSymbolTable
 70
     4
  0
LTYPE
  5
9BFB
330
9BED
100
AcDbSymbolTableRecord
100
AcDbLinetypeTableRecord
  2
BYBLOCK
 70
     0
  3

 72
    65
 73
     0
 40
0.0
  0
LTYPE
  5
9BFC
330
9BED
100
AcDbSymbolTableRecord
100
AcDbLinetypeTableRecord
  2
BYLAYER
 70
     0
  3

 72
    65
 73
     0
 40
0.0
  0
LTYPE
  5
9BFD
330
9BED
100
AcDbSymbolTableRecord
100
AcDbLinetypeTableRecord
  2
CONTINUOUS
 70
     0
  3
Solid line
 72
    65
 73
     0
 40
0.0
  0
LTYPE
  5
9C0B
330
9BED
100
AcDbSymbolTableRecord
100
AcDbLinetypeTableRecord
  2
DASHED
 70
     0
  3
__ __ __ __ __ __ __ __ __ __ __ __ __ __ __ __
 72
    65
 73
     2
 40
0.75
 49
0.5
 74
     0
 49
-0.25
 74
     0
  0
LTYPE
  5
9C0C
330
9BED
100
AcDbSymbolTableRecord
100
AcDbLinetypeTableRecord
  2
CENTER
 70
     0
  3
____ _ ____ _ ____ _ ____ _ ____ _ ____ _ ____ 
 72
    65
 73
     4
 40
2.0
 49
1.25
 74
     0
 49
-0.25
 74
     0
 49
0.25
 74
     0
 49
-0.25
 74
     0
  0
LTYPE
  5
9C0D
330
9BED
100
AcDbSymbolTableRecord
100
AcDbLinetypeTableRecord
  2
PHANTOM
 70
     0
  3
______  __  __  ______  __  __  ______  __  __ 
 72
    65
 73
     6
 40
2.5
 49
1.25
 74
     0
 49
-0.25
 74
     0
 49
0.25
 74
     0
 49
-0.25
 74
     0
 49
0.25
 74
     0
 49
-0.25
 74
     0
  0
ENDTAB
  0
TABLE
  2
LAYER
  5
9BEA
330
0
100
AcDbSymbolTable
 70
     8
  0
LAYER
  5
9BF8
102
{ACAD_XDICTIONARY
360
9E57
102
}
330
9BEA
100
AcDbSymbolTableRecord
100
AcDbLayerTableRecord
  2
0
 70
     0
 62
     7
  6
CONTINUOUS
370
    -3
390
9E05
  0
LAYER
  5
9C0E
102
{ACAD_XDICTIONARY
360
9E59
102
}
330
9BEA
100
AcDbSymbolTableRecord
100
AcDbLayerTableRecord
  2
4
 70
     0
 62
     1
  6
CENTER
370
    -3
390
9E05
  0
LAYER
  5
9C0F
102
{ACAD_XDICTIONARY
360
9E5B
102
}
330
9BEA
100
AcDbSymbolTableRecord
100
AcDbLayerTableRecord
  2
5
 70
     0
 62
     6
  6
PHANTOM
370
    -3
390
9E05
  0
LAYER
  5
9C10
102
{ACAD_XDICTIONARY
360
9E5D
102
}
330
9BEA
100
AcDbSymbolTableRecord
100
AcDbLayerTableRecord
  2
1
 70
     0
 62
     7
  6
CONTINUOUS
370
    -3
390
9E05
  0
LAYER
  5
9C11
102
{ACAD_XDICTIONARY
360
9E5F
102
}
330
9BEA
100
AcDbSymbolTableRecord
100
AcDbLayerTableRecord
  2
2
 70
     0
 62
     4
  6
CONTINUOUS
370
    -3
390
9E05
  0
LAYER
  5
9C12
102
{ACAD_XDICTIONARY
360
9E61
102
}
330
9BEA
100
AcDbSymbolTableRecord
100
AcDbLayerTableRecord
  2
3
 70
     0
 62
     2
  6
DASHED
370
    -3
390
9E05
  0
LAYER
  5
9C13
102
{ACAD_XDICTIONARY
360
9E63
102
}
330
9BEA
100
AcDbSymbolTableRecord
100
AcDbLayerTableRecord
  2
6
 70
     0
 62
     5
  6
CONTINUOUS
370
    -3
390
9E05
  0
LAYER
  5
9C14
102
{ACAD_XDICTIONARY
360
9E65
102
}
330
9BEA
100
AcDbSymbolTableRecord
100
AcDbLayerTableRecord
  2
7
 70
     0
 62
     3
  6
CONTINUOUS
370
    -3
390
9E05
  0
ENDTAB
  0
TABLE
  2
STYLE
  5
9BEB
330
0
100
AcDbSymbolTable
 70
     1
  0
STYLE
  5
9BF9
330
9BEB
100
AcDbSymbolTableRecord
100
AcDbTextStyleTableRecord
  2
STANDARD
 70
     0
 40
0.0
 41
1.0
 50
0.0
 71
     0
 42
5.0
  3
txt
  4

  0
ENDTAB
  0
TABLE
  2
VIEW
  5
9BEE
330
0
100
AcDbSymbolTable
 70
     0
  0
ENDTAB
  0
TABLE
  2
UCS
  5
9BEF
330
0
100
AcDbSymbolTable
 70
     0
  0
ENDTAB
  0
TABLE
  2
APPID
  5
9BF1
330
0
100
AcDbSymbolTable
 70
     3
  0
APPID
  5
9BFA
330
9BF1
100
AcDbSymbolTableRecord
100
AcDbRegAppTableRecord
  2
ACAD
 70
     0
  0
APPID
  5
9E71
330
9BF1
100
AcDbSymbolTableRecord
100
AcDbRegAppTableRecord
  2
ACAD_NAV_VCDISPLAY
 70
     0
  0
APPID
  5
9EAA
330
9BF1
100
AcDbSymbolTableRecord
100
AcDbRegAppTableRecord
  2
ACAD_MLEADERVER
 70
     0
  0
ENDTAB
  0
TABLE
  2
DIMSTYLE
  5
9BF2
330
0
100
AcDbSymbolTable
 70
     1
100
AcDbDimStyleTable
 71
     0
  0
DIMSTYLE
105
9C16
330
9BF2
100
AcDbSymbolTableRecord
100
AcDbDimStyleTableRecord
  2
STANDARD
 70
     0
 41
3.0
 42
1.0
 43
10.0
 44
1.0
 73
     0
 74
     0
 77
     3
 78
     9
140
3.2
141
0.0
147
1.0
172
     1
173
     1
284
     9
285
     9
286
     9
340
9BF9
  0
ENDTAB
  0
TABLE
  2
BLOCK_RECORD
  5
9BE9
330
0
100
AcDbSymbolTable
 70
     0
  0
BLOCK_RECORD
  5
9C06
102
{ACAD_XDICTIONARY
360
9DFF
102
}
330
9BE9
100
AcDbSymbolTableRecord
100
AcDbBlockTableRecord
  2
*MODEL_SPACE
340
9E53
  0
BLOCK_RECORD
  5
9C02
102
{ACAD_XDICTIONARY
360
9DFD
102
}
330
9BE9
100
AcDbSymbolTableRecord
100
AcDbBlockTableRecord
  2
*PAPER_SPACE
340
9E54
  0
ENDTAB
  0
ENDSEC
  0
SECTION
  2
BLOCKS
  0
BLOCK
  5
9C07
330
9C06
100
AcDbEntity
  8
0
100
AcDbBlockBegin
  2
*MODEL_SPACE
 70
     0
 10
0.0
 20
0.0
 30
0.0
  3
*MODEL_SPACE
  1

  0
ENDBLK
  5
9C08
330
9C06
100
AcDbEntity
  8
0
100
AcDbBlockEnd
  0
BLOCK
  5
9C03
330
9C02
100
AcDbEntity
 67
     1
  8
0
100
AcDbBlockBegin
  2
*PAPER_SPACE
 70
     0
 10
0.0
 20
0.0
 30
0.0
  3
*PAPER_SPACE
  1

  0
ENDBLK
  5
9C04
330
9C02
100
AcDbEntity
 67
     1
  8
0
100
AcDbBlockEnd
  0
ENDSEC
  0
SECTION
  2
ENTITIES
  0
TEXT
  5
9C1E
330
9C06
100
AcDbEntity
  8
7
  6
Continuous
100
AcDbText
 10
10.0
 20
18.0
 30
0.0
 40
3.0
  1
TYPE No.TL-61-2
100
AcDbText
  0
TEXT
  5
9C1F
330
9C06
100
AcDbEntity
  8
7
  6
Continuous
100
AcDbText
 10
10.0
 20
26.0
 30
0.0
 40
3.0
  1
CODE No.1123
100
AcDbText
  0
TEXT
  5
9C20
330
9C06
100
AcDbEntity
  8
1
  6
Continuous
100
AcDbText
 10
10.0
 20
10.0
 30
0.0
 40
1.399999999999999
  1
LAYER
100
AcDbText
  0
TEXT
  5
9C21
330
9C06
100
AcDbEntity
  8
1
  6
Continuous
100
AcDbText
 10
17.97951099999998
 20
10.04873699999998
 30
0.0
 40
1.399999999999999
  1
1
100
AcDbText
  0
TEXT
  5
9C22
330
9C06
100
AcDbEntity
  8
7
  6
Continuous
100
AcDbText
 10
29.97951099999999
 20
10.04873699999998
 30
0.0
 40
1.399999999999999
  1
7
100
AcDbText
  0
TEXT
  5
9C23
330
9C06
100
AcDbEntity
  8
4
  6
CENTER
100
AcDbText
 10
23.97951099999999
 20
10.04873699999998
 30
0.0
 40
1.399999999999999
  1
4
100
AcDbText
  0
TEXT
  5
9C24
330
9C06
100
AcDbEntity
  8
3
  6
DASHED
100
AcDbText
 10
21.979511
 20
10.04873699999998
 30
0.0
 40
1.399999999999999
  1
3
100
AcDbText
  0
TEXT
  5
9C25
330
9C06
100
AcDbEntity
  8
2
  6
Continuous
100
AcDbText
 10
19.97951099999999
 20
10.04873699999998
 30
0.0
 40
1.399999999999999
  1
2
100
AcDbText
  0
TEXT
  5
9C26
330
9C06
100
AcDbEntity
  8
6
  6
Continuous
100
AcDbText
 10
27.979511
 20
10.04873699999998
 30
0.0
 40
1.399999999999999
  1
6
100
AcDbText
  0
TEXT
  5
9C27
330
9C06
100
AcDbEntity
  8
5
  6
PHANTOM
100
AcDbText
 10
25.97951099999999
 20
10.04873699999998
 30
0.0
 40
1.399999999999999
  1
5
100
AcDbText
  0
LINE
  5
9C28
330
9C06
100
AcDbEntity
  8
1
  6
Continuous
100
AcDbLine
 10
116.9563279999999
 20
220.171718
 30
0.0
 11
143.956328
 21
220.171718
 31
0.0
  0
LINE
  5
9C29
330
9C06
100
AcDbEntity
  8
4
  6
CENTER
100
AcDbLine
 10
48.956628
 20
247.483718
 30
0.0
 11
48.956628
 21
124.671718
 31
0.0
  0
LINE
  5
9C2A
330
9C06
100
AcDbEntity
  8
1
  6
Continuous
100
AcDbLine
 10
116.9563279999999
 20
241.171718
 30
0.0
 11
116.9563279999999
 21
220.171718
 31
0.0
  0
LINE
  5
9C2B
330
9C06
100
AcDbEntity
  8
1
  6
Continuous
100
AcDbLine
 10
190.956328
 20
241.171718
 30
0.0
 11
190.956328
 21
220.171718
 31
0.0
  0
LINE
  5
9C2C
330
9C06
100
AcDbEntity
  8
4
  6
CENTER
100
AcDbLine
 10
187.056328
 20
236.171718
 30
0.0
 11
177.856328
 21
236.171718
 31
0.0
  0
LINE
  5
9C2D
330
9C06
100
AcDbEntity
  8
4
  6
CENTER
100
AcDbLine
 10
182.456328
 20
240.771718
 30
0.0
 11
182.456328
 21
231.571718
 31
0.0
  0
LINE
  5
9C2E
330
9C06
100
AcDbEntity
  8
4
  6
CENTER
100
AcDbLine
 10
130.056328
 20
236.171718
 30
0.0
 11
120.856328
 21
236.171718
 31
0.0
  0
LINE
  5
9C2F
330
9C06
100
AcDbEntity
  8
4
  6
CENTER
100
AcDbLine
 10
125.4563279999999
 20
240.771718
 30
0.0
 11
125.4563279999999
 21
231.571718
 31
0.0
  0
LINE
  5
9C30
330
9C06
100
AcDbEntity
  8
4
  6
CENTER
100
AcDbLine
 10
149.356328
 20
266.171718
 30
0.0
 11
158.556328
 21
266.171718
 31
0.0
  0
LINE
  5
9C31
330
9C06
100
AcDbEntity
  8
1
  6
Continuous
100
AcDbLine
 10
139.6063279999999
 20
222.171718
 30
0.0
 11
168.306328
 21
222.171718
 31
0.0
  0
LINE
  5
9C32
330
9C06
100
AcDbEntity
  8
1
  6
Continuous
100
AcDbLine
 10
11.956628
 20
218.171718
 30
0.0
 11
26.456628
 21
218.171718
 31
0.0
  0
LINE
  5
9C33
330
9C06
100
AcDbEntity
  8
1
  6
Continuous
100
AcDbLine
 10
11.956628
 20
218.171718
 30
0.0
 11
11.956628
 21
199.6577179999999
 31
0.0
  0
LINE
  5
9C34
330
9C06
100
AcDbEntity
  8
1
  6
Continuous
100
AcDbLine
 10
85.956328
 20
218.171718
 30
0.0
 11
85.956328
 21
199.6577179999999
 31
0.0
  0
LINE
  5
9C35
330
9C06
100
AcDbEntity
  8
4
  6
CENTER
100
AcDbLine
 10
26.456628
 20
163.7717179999999
 30
0.0
 11
26.456628
 21
154.571718
 31
0.0
  0
LINE
  5
9C36
330
9C06
100
AcDbEntity
  8
4
  6
CENTER
100
AcDbLine
 10
21.856628
 20
159.171718
 30
0.0
 11
31.05662800000001
 21
159.171718
 31
0.0
  0
LINE
  5
9C37
330
9C06
100
AcDbEntity
  8
4
  6
CENTER
100
AcDbLine
 10
20.456628
 20
209.771718
 30
0.0
 11
20.456628
 21
200.5717179999999
 31
0.0
  0
LINE
  5
9C38
330
9C06
100
AcDbEntity
  8
4
  6
CENTER
100
AcDbLine
 10
15.856628
 20
205.1717179999999
 30
0.0
 11
25.056628
 21
205.1717179999999
 31
0.0
  0
LINE
  5
9C39
330
9C06
100
AcDbEntity
  8
1
  6
Continuous
100
AcDbLine
 10
61.156328
 20
197.1717179999999
 30
0.0
 11
61.156328
 21
188.171718
 31
0.0
  0
LINE
  5
9C3A
330
9C06
100
AcDbEntity
  8
1
  6
Continuous
100
AcDbLine
 10
36.75662800000001
 20
197.1717179999999
 30
0.0
 11
36.75662800000001
 21
188.171718
 31
0.0
  0
LINE
  5
9C3B
330
9C06
100
AcDbEntity
  8
1
  6
Continuous
100
AcDbLine
 10
36.75662800000001
 20
188.171718
 30
0.0
 11
36.856628
 21
188.171718
 31
0.0
  0
LINE
  5
9C3C
330
9C06
100
AcDbEntity
  8
4
  6
CENTER
100
AcDbLine
 10
31.956628
 20
191.171718
 30
0.0
 11
65.956328
 21
191.171718
 31
0.0
  0
LINE
  5
9C3D
330
9C06
100
AcDbEntity
  8
4
  6
CENTER
100
AcDbLine
 10
77.456328
 20
209.771718
 30
0.0
 11
77.456328
 21
200.5717179999999
 31
0.0
  0
LINE
  5
9C3E
330
9C06
100
AcDbEntity
  8
4
  6
CENTER
100
AcDbLine
 10
72.85632800000001
 20
205.1717179999999
 30
0.0
 11
82.05632800000001
 21
205.1717179999999
 31
0.0
  0
LINE
  5
9C3F
330
9C06
100
AcDbEntity
  8
4
  6
CENTER
100
AcDbLine
 10
71.456328
 20
163.7717179999999
 30
0.0
 11
71.456328
 21
154.571718
 31
0.0
  0
LINE
  5
9C40
330
9C06
100
AcDbEntity
  8
4
  6
CENTER
100
AcDbLine
 10
66.856328
 20
159.171718
 30
0.0
 11
76.05632799999998
 21
159.171718
 31
0.0
  0
LINE
  5
9C41
330
9C06
100
AcDbEntity
  8
1
  6
Continuous
100
AcDbLine
 10
17.95662799999998
 20
187.8587179999999
 30
0.0
 11
17.95662799999998
 21
160.171718
 31
0.0
  0
LINE
  5
9C42
330
9C06
100
AcDbEntity
  8
1
  6
Continuous
100
AcDbLine
 10
79.956328
 20
187.8587179999999
 30
0.0
 11
79.956328
 21
160.171718
 31
0.0
  0
LINE
  5
9C43
330
9C06
100
AcDbEntity
  8
1
  6
Continuous
100
AcDbLine
 10
15.613428
 20
193.5147179999999
 30
0.0
 11
13.71392799999999
 21
195.4147179999999
 31
0.0
  0
LINE
  5
9C44
330
9C06
100
AcDbEntity
  8
1
  6
Continuous
100
AcDbLine
 10
84.19932799999997
 20
195.4147179999999
 30
0.0
 11
82.299328
 21
193.5147179999999
 31
0.0
  0
LINE
  5
9C45
330
9C06
100
AcDbEntity
  8
1
  6
Continuous
100
AcDbLine
 10
25.95662799999999
 20
152.171718
 30
0.0
 11
27.53232800000001
 21
152.171718
 31
0.0
  0
LINE
  5
9C46
330
9C06
100
AcDbEntity
  8
1
  6
Continuous
100
AcDbLine
 10
70.38132799999998
 20
152.171718
 30
0.0
 11
71.956328
 21
152.171718
 31
0.0
  0
LINE
  5
9C47
330
9C06
100
AcDbEntity
  8
1
  6
Continuous
100
AcDbLine
 10
71.456328
 20
236.171718
 30
0.0
 11
71.456328
 21
182.171718
 31
0.0
  0
LINE
  5
9C48
330
9C06
100
AcDbEntity
  8
1
  6
Continuous
100
AcDbLine
 10
26.456628
 20
236.171718
 30
0.0
 11
26.456628
 21
182.171718
 31
0.0
  0
LINE
  5
9C49
330
9C06
100
AcDbEntity
  8
1
  6
Continuous
100
AcDbLine
 10
66.456328
 20
236.171718
 30
0.0
 11
66.456328
 21
182.171718
 31
0.0
  0
LINE
  5
9C4A
330
9C06
100
AcDbEntity
  8
1
  6
Continuous
100
AcDbLine
 10
31.456628
 20
236.171718
 30
0.0
 11
31.456628
 21
182.171718
 31
0.0
  0
LINE
  5
9C4B
330
9C06
100
AcDbEntity
  8
1
  6
Continuous
100
AcDbLine
 10
64.956328
 20
175.671718
 30
0.0
 11
63.056328
 21
175.671718
 31
0.0
  0
LINE
  5
9C4C
330
9C06
100
AcDbEntity
  8
1
  6
Continuous
100
AcDbLine
 10
64.956328
 20
180.6717179999999
 30
0.0
 11
63.056328
 21
180.6717179999999
 31
0.0
  0
LINE
  5
9C4D
330
9C06
100
AcDbEntity
  8
1
  6
Continuous
100
AcDbLine
 10
34.856628
 20
180.6717179999999
 30
0.0
 11
32.95662800000001
 21
180.6717179999999
 31
0.0
  0
LINE
  5
9C4E
330
9C06
100
AcDbEntity
  8
1
  6
Continuous
100
AcDbLine
 10
34.856628
 20
175.671718
 30
0.0
 11
32.95662800000001
 21
175.671718
 31
0.0
  0
LINE
  5
9C4F
330
9C06
100
AcDbEntity
  8
1
  6
Continuous
100
AcDbLine
 10
31.456628
 20
218.171718
 30
0.0
 11
66.456328
 21
218.171718
 31
0.0
  0
LINE
  5
9C50
330
9C06
100
AcDbEntity
  8
1
  6
Continuous
100
AcDbLine
 10
163.956328
 20
220.171718
 30
0.0
 11
190.956328
 21
220.171718
 31
0.0
  0
LINE
  5
9C51
330
9C06
100
AcDbEntity
  8
1
  6
Continuous
100
AcDbLine
 10
71.456328
 20
218.171718
 30
0.0
 11
85.956328
 21
218.171718
 31
0.0
  0
LINE
  5
9C52
330
9C06
100
AcDbEntity
  8
1
  6
Continuous
100
AcDbLine
 10
36.556628
 20
197.1717179999999
 30
0.0
 11
36.556628
 21
186.3717179999999
 31
0.0
  0
LINE
  5
9C53
330
9C06
100
AcDbEntity
  8
1
  6
Continuous
100
AcDbLine
 10
61.35632799999999
 20
197.1717179999999
 30
0.0
 11
61.35632799999999
 21
186.3717179999999
 31
0.0
  0
LINE
  5
9C54
330
9C06
100
AcDbEntity
  8
1
  6
Continuous
100
AcDbLine
 10
36.556628
 20
197.1717179999999
 30
0.0
 11
61.35632799999999
 21
197.1717179999999
 31
0.0
  0
LINE
  5
9C55
330
9C06
100
AcDbEntity
  8
1
  6
Continuous
100
AcDbLine
 10
34.956628
 20
186.3717179999999
 30
0.0
 11
36.556628
 21
186.3717179999999
 31
0.0
  0
LINE
  5
9C56
330
9C06
100
AcDbEntity
  8
1
  6
Continuous
100
AcDbLine
 10
61.35632799999999
 20
186.3717179999999
 30
0.0
 11
62.95632799999999
 21
186.3717179999999
 31
0.0
  0
LINE
  5
9C57
330
9C06
100
AcDbEntity
  8
1
  6
Continuous
100
AcDbLine
 10
34.956628
 20
218.171718
 30
0.0
 11
34.956628
 21
186.3717179999999
 31
0.0
  0
LINE
  5
9C58
330
9C06
100
AcDbEntity
  8
1
  6
Continuous
100
AcDbLine
 10
62.95632799999999
 20
218.171718
 30
0.0
 11
62.95632799999999
 21
186.3717179999999
 31
0.0
  0
LINE
  5
9C59
330
9C06
100
AcDbEntity
  8
1
  6
Continuous
100
AcDbLine
 10
61.056328
 20
196.1717179999999
 30
0.0
 11
61.056328
 21
187.171718
 31
0.0
  0
LINE
  5
9C5A
330
9C06
100
AcDbEntity
  8
1
  6
Continuous
100
AcDbLine
 10
36.856628
 20
196.1717179999999
 30
0.0
 11
36.856628
 21
187.171718
 31
0.0
  0
LINE
  5
9C5B
330
9C06
100
AcDbEntity
  8
1
  6
Continuous
100
AcDbLine
 10
36.856628
 20
196.1717179999999
 30
0.0
 11
61.056328
 21
196.1717179999999
 31
0.0
  0
LINE
  5
9C5C
330
9C06
100
AcDbEntity
  8
1
  6
Continuous
100
AcDbLine
 10
61.056328
 20
188.171718
 30
0.0
 11
61.156328
 21
188.171718
 31
0.0
  0
LINE
  5
9C5D
330
9C06
100
AcDbEntity
  8
1
  6
Continuous
100
AcDbLine
 10
34.856628
 20
181.171718
 30
0.0
 11
34.856628
 21
155.1717179999999
 31
0.0
  0
LINE
  5
9C5E
330
9C06
100
AcDbEntity
  8
1
  6
Continuous
100
AcDbLine
 10
63.056328
 20
181.171718
 30
0.0
 11
63.056328
 21
155.1717179999999
 31
0.0
  0
LINE
  5
9C5F
330
9C06
100
AcDbEntity
  8
1
  6
Continuous
100
AcDbLine
 10
34.856628
 20
155.1717179999999
 30
0.0
 11
63.056328
 21
155.1717179999999
 31
0.0
  0
LINE
  5
9C60
330
9C06
100
AcDbEntity
  8
1
  6
Continuous
100
AcDbLine
 10
61.056328
 20
187.171718
 30
0.0
 11
62.967328
 21
181.6997179999999
 31
0.0
  0
LINE
  5
9C61
330
9C06
100
AcDbEntity
  8
1
  6
Continuous
100
AcDbLine
 10
36.856628
 20
187.171718
 30
0.0
 11
34.94602800000001
 21
181.6997179999999
 31
0.0
  0
LINE
  5
9C62
330
9C06
100
AcDbEntity
  8
1
  6
Continuous
100
AcDbLine
 10
38.706628
 20
155.1717179999999
 30
0.0
 11
38.706628
 21
139.9217179999999
 31
0.0
  0
LINE
  5
9C63
330
9C06
100
AcDbEntity
  8
1
  6
Continuous
100
AcDbLine
 10
59.20632799999999
 20
155.1717179999999
 30
0.0
 11
59.20632799999999
 21
139.9217179999999
 31
0.0
  0
LINE
  5
9C64
330
9C06
100
AcDbEntity
  8
4
  6
CENTER
100
AcDbLine
 10
31.956628
 20
178.171718
 30
0.0
 11
65.956328
 21
178.171718
 31
0.0
  0
LINE
  5
9C65
330
9C06
100
AcDbEntity
  8
1
  6
Continuous
100
AcDbLine
 10
168.306328
 20
237.171718
 30
0.0
 11
168.306328
 21
222.171718
 31
0.0
  0
LINE
  5
9C66
330
9C06
100
AcDbEntity
  8
1
  6
Continuous
100
AcDbLine
 10
139.6063279999999
 20
237.171718
 30
0.0
 11
139.6063279999999
 21
222.171718
 31
0.0
  0
LINE
  5
9C67
330
9C06
100
AcDbEntity
  8
1
  6
Continuous
100
AcDbLine
 10
167.456328
 20
241.671718
 30
0.0
 11
140.456328
 21
241.671718
 31
0.0
  0
LINE
  5
9C68
330
9C06
100
AcDbEntity
  8
1
  6
Continuous
100
AcDbLine
 10
163.956328
 20
222.171718
 30
0.0
 11
163.956328
 21
217.171718
 31
0.0
  0
LINE
  5
9C69
330
9C06
100
AcDbEntity
  8
1
  6
Continuous
100
AcDbLine
 10
143.956328
 20
222.171718
 30
0.0
 11
143.956328
 21
217.171718
 31
0.0
  0
LINE
  5
9C6A
330
9C06
100
AcDbEntity
  8
1
  6
Continuous
100
AcDbLine
 10
39.956628
 20
197.1717179999999
 30
0.0
 11
39.956628
 21
196.1717179999999
 31
0.0
  0
LINE
  5
9C6B
330
9C06
100
AcDbEntity
  8
1
  6
Continuous
100
AcDbLine
 10
57.95632799999999
 20
197.1717179999999
 30
0.0
 11
57.95632799999999
 21
196.1717179999999
 31
0.0
  0
LINE
  5
9C6C
330
9C06
100
AcDbEntity
  8
4
  6
CENTER
100
AcDbLine
 10
431.479604
 20
247.483718
 30
0.0
 11
431.479604
 21
124.671718
 31
0.0
  0
LINE
  5
9C6D
330
9C06
100
AcDbEntity
  8
1
  6
Continuous
100
AcDbLine
 10
563.479604
 20
241.171718
 30
0.0
 11
563.479604
 21
220.171718
 31
0.0
  0
LINE
  5
9C6E
330
9C06
100
AcDbEntity
  8
1
  6
Continuous
100
AcDbLine
 10
489.479604
 20
241.171718
 30
0.0
 11
489.479604
 21
220.171718
 31
0.0
  0
LINE
  5
9C6F
330
9C06
100
AcDbEntity
  8
4
  6
CENTER
100
AcDbLine
 10
493.3796039999998
 20
236.171718
 30
0.0
 11
502.579604
 21
236.171718
 31
0.0
  0
LINE
  5
9C70
330
9C06
100
AcDbEntity
  8
4
  6
CENTER
100
AcDbLine
 10
497.979604
 20
240.771718
 30
0.0
 11
497.979604
 21
231.571718
 31
0.0
  0
LINE
  5
9C71
330
9C06
100
AcDbEntity
  8
4
  6
CENTER
100
AcDbLine
 10
550.379604
 20
236.171718
 30
0.0
 11
559.579604
 21
236.171718
 31
0.0
  0
LINE
  5
9C72
330
9C06
100
AcDbEntity
  8
4
  6
CENTER
100
AcDbLine
 10
554.979604
 20
240.771718
 30
0.0
 11
554.979604
 21
231.571718
 31
0.0
  0
LINE
  5
9C73
330
9C06
100
AcDbEntity
  8
4
  6
CENTER
100
AcDbLine
 10
531.079604
 20
266.171718
 30
0.0
 11
521.8796039999999
 21
266.171718
 31
0.0
  0
LINE
  5
9C74
330
9C06
100
AcDbEntity
  8
1
  6
Continuous
100
AcDbLine
 10
468.479604
 20
218.171718
 30
0.0
 11
468.479604
 21
199.6577179999999
 31
0.0
  0
LINE
  5
9C75
330
9C06
100
AcDbEntity
  8
1
  6
Continuous
100
AcDbLine
 10
394.4796039999998
 20
218.171718
 30
0.0
 11
394.4796039999998
 21
199.6577179999999
 31
0.0
  0
LINE
  5
9C76
330
9C06
100
AcDbEntity
  8
4
  6
CENTER
100
AcDbLine
 10
453.9796039999997
 20
163.7717179999999
 30
0.0
 11
453.9796039999997
 21
154.571718
 31
0.0
  0
LINE
  5
9C77
330
9C06
100
AcDbEntity
  8
4
  6
CENTER
100
AcDbLine
 10
458.5796039999998
 20
159.171718
 30
0.0
 11
449.3796039999998
 21
159.171718
 31
0.0
  0
LINE
  5
9C78
330
9C06
100
AcDbEntity
  8
4
  6
CENTER
100
AcDbLine
 10
459.979604
 20
209.771718
 30
0.0
 11
459.979604
 21
200.5717179999999
 31
0.0
  0
LINE
  5
9C79
330
9C06
100
AcDbEntity
  8
4
  6
CENTER
100
AcDbLine
 10
464.579604
 20
205.1717179999999
 30
0.0
 11
455.3796039999999
 21
205.1717179999999
 31
0.0
  0
LINE
  5
9C7A
330
9C06
100
AcDbEntity
  8
4
  6
CENTER
100
AcDbLine
 10
448.4796039999998
 20
191.171718
 30
0.0
 11
414.479604
 21
191.171718
 31
0.0
  0
LINE
  5
9C7B
330
9C06
100
AcDbEntity
  8
4
  6
CENTER
100
AcDbLine
 10
402.9796039999998
 20
209.771718
 30
0.0
 11
402.9796039999998
 21
200.5717179999999
 31
0.0
  0
LINE
  5
9C7C
330
9C06
100
AcDbEntity
  8
4
  6
CENTER
100
AcDbLine
 10
407.579604
 20
205.1717179999999
 30
0.0
 11
398.3796039999999
 21
205.1717179999999
 31
0.0
  0
LINE
  5
9C7D
330
9C06
100
AcDbEntity
  8
4
  6
CENTER
100
AcDbLine
 10
408.979604
 20
163.7717179999999
 30
0.0
 11
408.979604
 21
154.571718
 31
0.0
  0
LINE
  5
9C7E
330
9C06
100
AcDbEntity
  8
4
  6
CENTER
100
AcDbLine
 10
413.579604
 20
159.171718
 30
0.0
 11
404.379604
 21
159.171718
 31
0.0
  0
LINE
  5
9C7F
330
9C06
100
AcDbEntity
  8
1
  6
Continuous
100
AcDbLine
 10
462.4796039999998
 20
187.8587179999999
 30
0.0
 11
462.4796039999998
 21
160.171718
 31
0.0
  0
LINE
  5
9C80
330
9C06
100
AcDbEntity
  8
1
  6
Continuous
100
AcDbLine
 10
400.479604
 20
187.8587179999999
 30
0.0
 11
400.479604
 21
160.171718
 31
0.0
  0
LINE
  5
9C81
330
9C06
100
AcDbEntity
  8
1
  6
Continuous
100
AcDbLine
 10
464.8226039999998
 20
193.5147179999999
 30
0.0
 11
466.722604
 21
195.4147179999999
 31
0.0
  0
LINE
  5
9C82
330
9C06
100
AcDbEntity
  8
1
  6
Continuous
100
AcDbLine
 10
396.2376039999999
 20
195.4147179999999
 30
0.0
 11
398.1366039999999
 21
193.5147179999999
 31
0.0
  0
LINE
  5
9C83
330
9C06
100
AcDbEntity
  8
1
  6
Continuous
100
AcDbLine
 10
454.479604
 20
152.171718
 30
0.0
 11
452.9046039999998
 21
152.171718
 31
0.0
  0
LINE
  5
9C84
330
9C06
100
AcDbEntity
  8
1
  6
Continuous
100
AcDbLine
 10
410.0556039999998
 20
152.171718
 30
0.0
 11
408.4796039999998
 21
152.171718
 31
0.0
  0
LINE
  5
9C85
330
9C06
100
AcDbEntity
  8
1
  6
Continuous
100
AcDbLine
 10
408.979604
 20
236.171718
 30
0.0
 11
408.979604
 21
218.171718
 31
0.0
  0
LINE
  5
9C86
330
9C06
100
AcDbEntity
  8
1
  6
Continuous
100
AcDbLine
 10
453.9796039999997
 20
236.171718
 30
0.0
 11
453.9796039999997
 21
218.171718
 31
0.0
  0
LINE
  5
9C87
330
9C06
100
AcDbEntity
  8
1
  6
Continuous
100
AcDbLine
 10
413.979604
 20
236.171718
 30
0.0
 11
413.979604
 21
218.171718
 31
0.0
  0
LINE
  5
9C88
330
9C06
100
AcDbEntity
  8
1
  6
Continuous
100
AcDbLine
 10
448.9796039999998
 20
236.171718
 30
0.0
 11
448.9796039999998
 21
218.171718
 31
0.0
  0
LINE
  5
9C89
330
9C06
100
AcDbEntity
  8
1
  6
Continuous
100
AcDbLine
 10
468.479604
 20
218.171718
 30
0.0
 11
394.4796039999998
 21
218.171718
 31
0.0
  0
LINE
  5
9C8A
330
9C06
100
AcDbEntity
  8
1
  6
Continuous
100
AcDbLine
 10
441.729604
 20
147.220718
 30
0.0
 11
441.729604
 21
139.9217179999999
 31
0.0
  0
LINE
  5
9C8B
330
9C06
100
AcDbEntity
  8
1
  6
Continuous
100
AcDbLine
 10
421.229604
 20
147.220718
 30
0.0
 11
421.229604
 21
139.9217179999999
 31
0.0
  0
LINE
  5
9C8C
330
9C06
100
AcDbEntity
  8
1
  6
Continuous
100
AcDbLine
 10
516.4796039999998
 20
220.171718
 30
0.0
 11
516.4796039999998
 21
217.171718
 31
0.0
  0
LINE
  5
9C8D
330
9C06
100
AcDbEntity
  8
1
  6
Continuous
100
AcDbLine
 10
536.4796039999998
 20
220.171718
 30
0.0
 11
536.4796039999998
 21
217.171718
 31
0.0
  0
LINE
  5
9C8E
330
9C06
100
AcDbEntity
  8
1
  6
Continuous
100
AcDbLine
 10
563.479604
 20
220.171718
 30
0.0
 11
489.479604
 21
220.171718
 31
0.0
  0
LINE
  5
9C8F
330
9C06
100
AcDbEntity
  8
4
  6
CENTER
100
AcDbLine
 10
435.479604
 20
211.171718
 30
0.0
 11
427.479604
 21
211.171718
 31
0.0
  0
LINE
  5
9C90
330
9C06
100
AcDbEntity
  8
1
  6
Continuous
100
AcDbLine
 10
330.8896689999999
 20
274.171718
 30
0.0
 11
330.8896689999999
 21
220.171718
 31
0.0
  0
LINE
  5
9C91
330
9C06
100
AcDbEntity
  8
1
  6
Continuous
100
AcDbLine
 10
329.289669
 20
274.171718
 30
0.0
 11
330.8896689999999
 21
274.171718
 31
0.0
  0
LINE
  5
9C92
330
9C06
100
AcDbEntity
  8
1
  6
Continuous
100
AcDbLine
 10
329.289669
 20
220.171718
 30
0.0
 11
330.8896689999999
 21
220.171718
 31
0.0
  0
LINE
  5
9C93
330
9C06
100
AcDbEntity
  8
1
  6
Continuous
100
AcDbLine
 10
264.9896689999998
 20
218.171718
 30
0.0
 11
270.92804
 21
218.171718
 31
0.0
  0
LINE
  5
9C94
330
9C06
100
AcDbEntity
  8
1
  6
Continuous
100
AcDbLine
 10
280.8896689999999
 20
218.171718
 30
0.0
 11
280.8896689999999
 21
143.1717179999999
 31
0.0
  0
LINE
  5
9C95
330
9C06
100
AcDbEntity
  8
1
  6
Continuous
100
AcDbLine
 10
329.289669
 20
274.171718
 30
0.0
 11
329.289669
 21
220.171718
 31
0.0
  0
LINE
  5
9C96
330
9C06
100
AcDbEntity
  8
1
  6
Continuous
100
AcDbLine
 10
279.289669
 20
143.1717179999999
 30
0.0
 11
280.8896689999999
 21
143.1717179999999
 31
0.0
  0
LINE
  5
9C97
330
9C06
100
AcDbEntity
  8
1
  6
Continuous
100
AcDbLine
 10
263.2896689999999
 20
191.921718
 30
0.0
 11
263.2896689999999
 21
155.1717179999999
 31
0.0
  0
LINE
  5
9C98
330
9C06
100
AcDbEntity
  8
1
  6
Continuous
100
AcDbLine
 10
263.2896689999999
 20
155.1717179999999
 30
0.0
 11
268.6896689999999
 21
155.1717179999999
 31
0.0
  0
LINE
  5
9C99
330
9C06
100
AcDbEntity
  8
1
  6
Continuous
100
AcDbLine
 10
279.289669
 20
178.171718
 30
0.0
 11
278.289669
 21
155.1717179999999
 31
0.0
  0
LINE
  5
9C9A
330
9C06
100
AcDbEntity
  8
1
  6
Continuous
100
AcDbLine
 10
271.3896689999999
 20
155.1717179999999
 30
0.0
 11
278.289669
 21
155.1717179999999
 31
0.0
  0
LINE
  5
9C9B
330
9C06
100
AcDbEntity
  8
1
  6
Continuous
100
AcDbLine
 10
263.2896689999999
 20
130.130718
 30
0.0
 11
264.8216689999998
 21
129.6717179999999
 31
0.0
  0
LINE
  5
9C9C
330
9C06
100
AcDbEntity
  8
1
  6
Continuous
100
AcDbLine
 10
263.3896689999999
 20
216.571718
 30
0.0
 11
263.3896689999999
 21
197.1717179999999
 31
0.0
  0
LINE
  5
9C9D
330
9C06
100
AcDbEntity
  8
1
  6
Continuous
100
AcDbLine
 10
263.3896689999999
 20
197.1717179999999
 30
0.0
 11
264.3896689999999
 21
197.1717179999999
 31
0.0
  0
LINE
  5
9C9E
330
9C06
100
AcDbEntity
  8
1
  6
Continuous
100
AcDbLine
 10
264.3896689999999
 20
197.1717179999999
 30
0.0
 11
264.3896689999999
 21
189.3717179999999
 31
0.0
  0
LINE
  5
9C9F
330
9C06
100
AcDbEntity
  8
1
  6
Continuous
100
AcDbLine
 10
267.3896689999998
 20
186.3717179999999
 30
0.0
 11
268.426897
 21
186.3717179999999
 31
0.0
  0
LINE
  5
9CA0
330
9C06
100
AcDbEntity
  8
4
  6
CENTER
100
AcDbLine
 10
258.8896689999999
 20
211.171718
 30
0.0
 11
266.3896689999999
 21
211.171718
 31
0.0
  0
LINE
  5
9CA1
330
9C06
100
AcDbEntity
  8
1
  6
Continuous
100
AcDbLine
 10
319.2896689999999
 20
222.671718
 30
0.0
 11
329.289669
 21
222.671718
 31
0.0
  0
LINE
  5
9CA2
330
9C06
100
AcDbEntity
  8
1
  6
Continuous
100
AcDbLine
 10
316.289669
 20
239.171718
 30
0.0
 11
316.289669
 21
225.671718
 31
0.0
  0
LINE
  5
9CA3
330
9C06
100
AcDbEntity
  8
1
  6
Continuous
100
AcDbLine
 10
323.7896689999999
 20
237.671718
 30
0.0
 11
321.8246689999999
 21
240.776718
 31
0.0
  0
LINE
  5
9CA4
330
9C06
100
AcDbEntity
  8
1
  6
Continuous
100
AcDbLine
 10
320.289669
 20
222.671718
 30
0.0
 11
323.289669
 21
207.1717179999999
 31
0.0
  0
LINE
  5
9CA5
330
9C06
100
AcDbEntity
  8
1
  6
Continuous
100
AcDbLine
 10
275.9434819999999
 20
218.171718
 30
0.0
 11
280.8896689999999
 21
218.171718
 31
0.0
  0
LINE
  5
9CA6
330
9C06
100
AcDbEntity
  8
1
  6
Continuous
100
AcDbLine
 10
273.4423389999999
 20
186.3717179999999
 30
0.0
 11
279.289669
 21
186.3717179999999
 31
0.0
  0
LINE
  5
9CA7
330
9C06
100
AcDbEntity
  8
1
  6
Continuous
100
AcDbLine
 10
279.289669
 20
218.171718
 30
0.0
 11
279.289669
 21
143.1717179999999
 31
0.0
  0
LINE
  5
9CA8
330
9C06
100
AcDbEntity
  8
1
  6
Continuous
100
AcDbLine
 10
329.289669
 20
241.171718
 30
0.0
 11
330.8896689999999
 21
241.171718
 31
0.0
  0
LINE
  5
9CA9
330
9C06
100
AcDbEntity
  8
1
  6
Continuous
100
AcDbLine
 10
329.289669
 20
260.6717179999999
 30
0.0
 11
330.8896689999999
 21
260.6717179999999
 31
0.0
  0
LINE
  5
9CAA
330
9C06
100
AcDbEntity
  8
1
  6
Continuous
100
AcDbLine
 10
279.289669
 20
187.8587179999999
 30
0.0
 11
280.8896689999999
 21
187.8587179999999
 31
0.0
  0
LINE
  5
9CAB
330
9C06
100
AcDbEntity
  8
1
  6
Continuous
100
AcDbLine
 10
279.289669
 20
154.1577179999999
 30
0.0
 11
280.8896689999999
 21
154.1577179999999
 31
0.0
  0
LINE
  5
9CAC
330
9C06
100
AcDbEntity
  8
1
  6
Continuous
100
AcDbLine
 10
61.056328
 20
63.80402700000001
 30
0.0
 11
36.856628
 21
63.80402700000001
 31
0.0
  0
LINE
  5
9CAD
330
9C06
100
AcDbEntity
  8
1
  6
Continuous
100
AcDbLine
 10
85.956328
 20
46.204027
 30
0.0
 11
11.956628
 21
46.204027
 31
0.0
  0
LINE
  5
9CAE
330
9C06
100
AcDbEntity
  8
1
  6
Continuous
100
AcDbLine
 10
85.956328
 20
47.80402699999998
 30
0.0
 11
85.956328
 21
46.204027
 31
0.0
  0
LINE
  5
9CAF
330
9C06
100
AcDbEntity
  8
1
  6
Continuous
100
AcDbLine
 10
11.956628
 20
47.80402699999998
 30
0.0
 11
11.956628
 21
46.204027
 31
0.0
  0
LINE
  5
9CB0
330
9C06
100
AcDbEntity
  8
4
  6
CENTER
100
AcDbLine
 10
48.956628
 20
68.80402700000001
 30
0.0
 11
48.956628
 21
41.20372699999999
 31
0.0
  0
LINE
  5
9CB1
330
9C06
100
AcDbEntity
  8
1
  6
Continuous
100
AcDbLine
 10
17.95662799999998
 20
47.80402699999998
 30
0.0
 11
17.95662799999998
 21
46.204027
 31
0.0
  0
LINE
  5
9CB2
330
9C06
100
AcDbEntity
  8
1
  6
Continuous
100
AcDbLine
 10
79.956328
 20
47.80402699999998
 30
0.0
 11
79.956328
 21
46.204027
 31
0.0
  0
LINE
  5
9CB3
330
9C06
100
AcDbEntity
  8
1
  6
Continuous
100
AcDbLine
 10
59.956328
 20
49.80402699999999
 30
0.0
 11
37.95662800000001
 21
49.80402699999999
 31
0.0
  0
LINE
  5
9CB4
330
9C06
100
AcDbEntity
  8
1
  6
Continuous
100
AcDbLine
 10
37.95662800000001
 20
49.80402699999999
 30
0.0
 11
37.95662800000001
 21
47.80402699999998
 31
0.0
  0
LINE
  5
9CB5
330
9C06
100
AcDbEntity
  8
1
  6
Continuous
100
AcDbLine
 10
59.956328
 20
49.80402699999999
 30
0.0
 11
59.956328
 21
47.80402699999998
 31
0.0
  0
LINE
  5
9CB6
330
9C06
100
AcDbEntity
  8
1
  6
Continuous
100
AcDbLine
 10
85.956328
 20
47.80402699999998
 30
0.0
 11
11.956628
 21
47.80402699999998
 31
0.0
  0
LINE
  5
9CB7
330
9C06
100
AcDbEntity
  8
1
  6
Continuous
100
AcDbLine
 10
59.45632800000001
 20
62.20402700000001
 30
0.0
 11
59.20632799999999
 21
62.20402700000001
 31
0.0
  0
LINE
  5
9CB8
330
9C06
100
AcDbEntity
  8
1
  6
Continuous
100
AcDbLine
 10
59.20632799999999
 20
55.30402699999999
 30
0.0
 11
38.706628
 21
55.30402699999999
 31
0.0
  0
LINE
  5
9CB9
330
9C06
100
AcDbEntity
  8
1
  6
Continuous
100
AcDbLine
 10
59.45632800000001
 20
63.80402700000001
 30
0.0
 11
59.45632800000001
 21
59.290027
 31
0.0
  0
LINE
  5
9CBA
330
9C06
100
AcDbEntity
  8
1
  6
Continuous
100
AcDbLine
 10
61.056328
 20
63.80402700000001
 30
0.0
 11
61.056328
 21
59.290027
 31
0.0
  0
LINE
  5
9CBB
330
9C06
100
AcDbEntity
  8
1
  6
Continuous
100
AcDbLine
 10
36.856628
 20
63.80402700000001
 30
0.0
 11
36.856628
 21
59.290027
 31
0.0
  0
LINE
  5
9CBC
330
9C06
100
AcDbEntity
  8
1
  6
Continuous
100
AcDbLine
 10
61.056328
 20
52.30402699999999
 30
0.0
 11
61.45632800000001
 21
51.700027
 31
0.0
  0
LINE
  5
9CBD
330
9C06
100
AcDbEntity
  8
1
  6
Continuous
100
AcDbLine
 10
61.45632800000001
 20
48.80402700000001
 30
0.0
 11
59.723328
 21
51.42002699999999
 31
0.0
  0
LINE
  5
9CBE
330
9C06
100
AcDbEntity
  8
1
  6
Continuous
100
AcDbLine
 10
36.456628
 20
48.80402700000001
 30
0.0
 11
38.190328
 21
51.42002699999999
 31
0.0
  0
LINE
  5
9CBF
330
9C06
100
AcDbEntity
  8
1
  6
Continuous
100
AcDbLine
 10
36.856628
 20
52.30402699999999
 30
0.0
 11
36.456628
 21
51.700027
 31
0.0
  0
LINE
  5
9CC0
330
9C06
100
AcDbEntity
  8
1
  6
Continuous
100
AcDbLine
 10
38.706628
 20
62.20402700000001
 30
0.0
 11
38.456628
 21
62.20402700000001
 31
0.0
  0
LINE
  5
9CC1
330
9C06
100
AcDbEntity
  8
1
  6
Continuous
100
AcDbLine
 10
59.20632799999999
 20
62.20402700000001
 30
0.0
 11
59.20632799999999
 21
55.30402699999999
 31
0.0
  0
LINE
  5
9CC2
330
9C06
100
AcDbEntity
  8
1
  6
Continuous
100
AcDbLine
 10
38.706628
 20
62.20402700000001
 30
0.0
 11
38.706628
 21
55.30402699999999
 31
0.0
  0
LINE
  5
9CC3
330
9C06
100
AcDbEntity
  8
1
  6
Continuous
100
AcDbLine
 10
57.95632799999999
 20
54.317027
 30
0.0
 11
57.95632799999999
 21
53.604027
 31
0.0
  0
LINE
  5
9CC4
330
9C06
100
AcDbEntity
  8
1
  6
Continuous
100
AcDbLine
 10
39.956628
 20
54.317027
 30
0.0
 11
39.956628
 21
53.604027
 31
0.0
  0
LINE
  5
9CC5
330
9C06
100
AcDbEntity
  8
1
  6
Continuous
100
AcDbLine
 10
57.95632799999999
 20
53.604027
 30
0.0
 11
39.956628
 21
53.604027
 31
0.0
  0
LINE
  5
9CC6
330
9C06
100
AcDbEntity
  8
1
  6
Continuous
100
AcDbLine
 10
54.456628
 20
54.500027
 30
0.0
 11
43.456628
 21
54.500027
 31
0.0
  0
LINE
  5
9CC7
330
9C06
100
AcDbEntity
  8
1
  6
Continuous
100
AcDbLine
 10
63.056328
 20
61.80402700000001
 30
0.0
 11
63.056328
 21
47.80402699999998
 31
0.0
  0
LINE
  5
9CC8
330
9C06
100
AcDbEntity
  8
1
  6
Continuous
100
AcDbLine
 10
38.456628
 20
63.80402700000001
 30
0.0
 11
38.456628
 21
59.290027
 31
0.0
  0
LINE
  5
9CC9
330
9C06
100
AcDbEntity
  8
1
  6
Continuous
100
AcDbLine
 10
34.856628
 20
61.80402700000001
 30
0.0
 11
34.856628
 21
47.80402699999998
 31
0.0
  0
LINE
  5
9CCA
330
9C06
100
AcDbEntity
  8
1
  6
Continuous
100
AcDbLine
 10
63.056328
 20
48.80402700000001
 30
0.0
 11
61.45632800000001
 21
48.80402700000001
 31
0.0
  0
LINE
  5
9CCB
330
9C06
100
AcDbEntity
  8
1
  6
Continuous
100
AcDbLine
 10
61.45632800000001
 20
61.80402700000001
 30
0.0
 11
61.45632800000001
 21
47.80402699999998
 31
0.0
  0
LINE
  5
9CCC
330
9C06
100
AcDbEntity
  8
1
  6
Continuous
100
AcDbLine
 10
36.456628
 20
48.80402700000001
 30
0.0
 11
34.856628
 21
48.80402700000001
 31
0.0
  0
LINE
  5
9CCD
330
9C06
100
AcDbEntity
  8
1
  6
Continuous
100
AcDbLine
 10
36.456628
 20
61.80402700000001
 30
0.0
 11
36.456628
 21
47.80402699999998
 31
0.0
  0
LINE
  5
9CCE
330
9C06
100
AcDbEntity
  8
1
  6
Continuous
100
AcDbLine
 10
61.45632800000001
 20
59.290027
 30
0.0
 11
59.20632799999999
 21
59.290027
 31
0.0
  0
LINE
  5
9CCF
330
9C06
100
AcDbEntity
  8
1
  6
Continuous
100
AcDbLine
 10
54.456628
 20
55.30402699999999
 30
0.0
 11
54.456628
 21
54.317027
 31
0.0
  0
LINE
  5
9CD0
330
9C06
100
AcDbEntity
  8
1
  6
Continuous
100
AcDbLine
 10
61.45632800000001
 20
54.317027
 30
0.0
 11
54.456628
 21
54.317027
 31
0.0
  0
LINE
  5
9CD1
330
9C06
100
AcDbEntity
  8
1
  6
Continuous
100
AcDbLine
 10
36.456628
 20
59.290027
 30
0.0
 11
38.706628
 21
59.290027
 31
0.0
  0
LINE
  5
9CD2
330
9C06
100
AcDbEntity
  8
1
  6
Continuous
100
AcDbLine
 10
36.456628
 20
54.317027
 30
0.0
 11
43.456628
 21
54.317027
 31
0.0
  0
LINE
  5
9CD3
330
9C06
100
AcDbEntity
  8
1
  6
Continuous
100
AcDbLine
 10
43.456628
 20
55.30402699999999
 30
0.0
 11
43.456628
 21
54.317027
 31
0.0
  0
LINE
  5
9CD4
330
9C06
100
AcDbEntity
  8
1
  6
Continuous
100
AcDbLine
 10
38.456628
 20
54.317027
 30
0.0
 11
38.456628
 21
52.30402699999999
 31
0.0
  0
LINE
  5
9CD5
330
9C06
100
AcDbEntity
  8
1
  6
Continuous
100
AcDbLine
 10
36.856628
 20
54.317027
 30
0.0
 11
36.856628
 21
52.30402699999999
 31
0.0
  0
LINE
  5
9CD6
330
9C06
100
AcDbEntity
  8
1
  6
Continuous
100
AcDbLine
 10
61.056328
 20
54.317027
 30
0.0
 11
61.056328
 21
52.30402699999999
 31
0.0
  0
LINE
  5
9CD7
330
9C06
100
AcDbEntity
  8
1
  6
Continuous
100
AcDbLine
 10
59.45632800000001
 20
54.317027
 30
0.0
 11
59.45632800000001
 21
52.30402699999999
 31
0.0
  0
LINE
  5
9CD8
330
9C06
100
AcDbEntity
  8
1
  6
Continuous
100
AcDbLine
 10
63.306328
 20
54.053302
 30
0.0
 11
63.306328
 21
47.80402699999998
 31
0.0
  0
LINE
  5
9CD9
330
9C06
100
AcDbEntity
  8
1
  6
Continuous
100
AcDbLine
 10
34.606628
 20
54.053002
 30
0.0
 11
34.606628
 21
47.80402699999998
 31
0.0
  0
LINE
  5
9CDA
330
9C06
100
AcDbEntity
  8
1
  6
Continuous
100
AcDbLine
 10
323.7896689999999
 20
237.671718
 30
0.0
 11
329.289669
 21
237.671718
 31
0.0
  0
LINE
  5
9CDB
330
9C06
100
AcDbEntity
  8
1
  6
Continuous
100
AcDbLine
 10
61.056328
 20
333.7387109999998
 30
0.0
 11
36.856628
 21
333.7387109999998
 31
0.0
  0
LINE
  5
9CDC
330
9C06
100
AcDbEntity
  8
1
  6
Continuous
100
AcDbLine
 10
85.956328
 20
351.338711
 30
0.0
 11
11.956628
 21
351.338711
 31
0.0
  0
LINE
  5
9CDD
330
9C06
100
AcDbEntity
  8
1
  6
Continuous
100
AcDbLine
 10
85.956328
 20
349.7387109999999
 30
0.0
 11
85.956328
 21
351.338711
 31
0.0
  0
LINE
  5
9CDE
330
9C06
100
AcDbEntity
  8
1
  6
Continuous
100
AcDbLine
 10
11.956628
 20
349.7387109999999
 30
0.0
 11
11.956628
 21
351.338711
 31
0.0
  0
LINE
  5
9CDF
330
9C06
100
AcDbEntity
  8
4
  6
CENTER
100
AcDbLine
 10
48.956628
 20
328.7387109999999
 30
0.0
 11
48.956628
 21
356.3387109999999
 31
0.0
  0
LINE
  5
9CE0
330
9C06
100
AcDbEntity
  8
1
  6
Continuous
100
AcDbLine
 10
85.956328
 20
349.7387109999999
 30
0.0
 11
11.956628
 21
349.7387109999999
 31
0.0
  0
LINE
  5
9CE1
330
9C06
100
AcDbEntity
  8
1
  6
Continuous
100
AcDbLine
 10
59.45632800000001
 20
333.7387109999998
 30
0.0
 11
59.45632800000001
 21
333.8387109999998
 31
0.0
  0
LINE
  5
9CE2
330
9C06
100
AcDbEntity
  8
1
  6
Continuous
100
AcDbLine
 10
61.056328
 20
333.7387109999998
 30
0.0
 11
61.056328
 21
333.8387109999998
 31
0.0
  0
LINE
  5
9CE3
330
9C06
100
AcDbEntity
  8
1
  6
Continuous
100
AcDbLine
 10
36.856628
 20
333.7387109999998
 30
0.0
 11
36.856628
 21
333.8387109999998
 31
0.0
  0
LINE
  5
9CE4
330
9C06
100
AcDbEntity
  8
1
  6
Continuous
100
AcDbLine
 10
38.456628
 20
333.7387109999998
 30
0.0
 11
38.456628
 21
333.8387109999998
 31
0.0
  0
LINE
  5
9CE5
330
9C06
100
AcDbEntity
  8
1
  6
Continuous
100
AcDbLine
 10
61.45632800000001
 20
333.7787109999998
 30
0.0
 11
61.45632800000001
 21
333.9017109999999
 31
0.0
  0
LINE
  5
9CE6
330
9C06
100
AcDbEntity
  8
1
  6
Continuous
100
AcDbLine
 10
36.456628
 20
333.7787109999998
 30
0.0
 11
36.456628
 21
333.9017109999999
 31
0.0
  0
LINE
  5
9CE7
330
9C06
100
AcDbEntity
  8
1
  6
Continuous
100
AcDbLine
 10
168.306328
 20
338.7387109999999
 30
0.0
 11
168.306328
 21
349.7387109999999
 31
0.0
  0
LINE
  5
9CE8
330
9C06
100
AcDbEntity
  8
1
  6
Continuous
100
AcDbLine
 10
139.6063279999999
 20
338.7387109999999
 30
0.0
 11
139.6063279999999
 21
349.7387109999999
 31
0.0
  0
LINE
  5
9CE9
330
9C06
100
AcDbEntity
  8
1
  6
Continuous
100
AcDbLine
 10
68.956328
 20
348.1151529999999
 30
0.0
 11
28.97172799999999
 21
348.1151529999999
 31
0.0
  0
LINE
  5
9CEA
330
9C06
100
AcDbEntity
  8
1
  6
Continuous
100
AcDbLine
 10
141.6063279999999
 20
336.7387109999999
 30
0.0
 11
166.306328
 21
336.7387109999999
 31
0.0
  0
LINE
  5
9CEB
330
9C06
100
AcDbEntity
  8
1
  6
Continuous
100
AcDbLine
 10
66.456328
 20
343.1151529999999
 30
0.0
 11
31.456628
 21
343.1151529999999
 31
0.0
  0
LINE
  5
9CEC
330
9C06
100
AcDbEntity
  8
1
  6
Continuous
100
AcDbLine
 10
60.956328
 20
333.8387109999998
 30
0.0
 11
36.956628
 21
333.8387109999998
 31
0.0
  0
LINE
  5
9CED
330
9C06
100
AcDbEntity
  8
1
  6
Continuous
100
AcDbLine
 10
329.289669
 20
247.171718
 30
0.0
 11
330.8896689999999
 21
247.171718
 31
0.0
  0
LINE
  5
9CEE
330
9C06
100
AcDbEntity
  8
4
  6
CENTER
100
AcDbLine
 10
268.3896689999999
 20
194.7717179999999
 30
0.0
 11
268.3896689999999
 21
187.571718
 31
0.0
  0
LINE
  5
9CEF
330
9C06
100
AcDbEntity
  8
4
  6
CENTER
100
AcDbLine
 10
264.789669
 20
191.171718
 30
0.0
 11
271.989669
 21
191.171718
 31
0.0
  0
LINE
  5
9CF0
330
9C06
100
AcDbEntity
  8
1
  6
Continuous
100
AcDbLine
 10
264.8216689999998
 20
129.6717179999999
 30
0.0
 11
271.662669
 21
152.7927179999998
 31
0.0
  0
LINE
  5
9CF1
330
9C06
100
AcDbEntity
  8
1
  6
Continuous
100
AcDbLine
 10
263.2896689999999
 20
130.130718
 30
0.0
 11
270.1286689999998
 21
153.2467179999999
 31
0.0
  0
LINE
  5
9CF2
330
9C06
100
AcDbEntity
  8
4
  6
CENTER
100
AcDbLine
 10
326.289669
 20
236.171718
 30
0.0
 11
333.8896689999999
 21
236.171718
 31
0.0
  0
LINE
  5
9CF3
330
9C06
100
AcDbEntity
  8
4
  6
CENTER
100
AcDbLine
 10
276.289669
 20
205.1717179999999
 30
0.0
 11
283.8896689999998
 21
205.1717179999999
 31
0.0
  0
LINE
  5
9CF4
330
9C06
100
AcDbEntity
  8
4
  6
CENTER
100
AcDbLine
 10
276.289669
 20
159.171718
 30
0.0
 11
283.8896689999998
 21
159.171718
 31
0.0
  0
LINE
  5
9CF5
330
9C06
100
AcDbEntity
  8
4
  6
CENTER
100
AcDbLine
 10
326.289669
 20
266.171718
 30
0.0
 11
333.8896689999999
 21
266.171718
 31
0.0
  0
LINE
  5
9CF6
330
9C06
100
AcDbEntity
  8
4
  6
CENTER
100
AcDbLine
 10
44.456628
 20
211.171718
 30
0.0
 11
53.456628
 21
211.171718
 31
0.0
  0
LINE
  5
9CF7
330
9C06
100
AcDbEntity
  8
1
  6
Continuous
100
AcDbLine
 10
167.956328
 20
235.571718
 30
0.0
 11
168.306328
 21
235.571718
 31
0.0
  0
LINE
  5
9CF8
330
9C06
100
AcDbEntity
  8
1
  6
Continuous
100
AcDbLine
 10
139.956328
 20
235.571718
 30
0.0
 11
139.6063279999999
 21
235.571718
 31
0.0
  0
LINE
  5
9CF9
330
9C06
100
AcDbEntity
  8
1
  6
Continuous
100
AcDbLine
 10
165.8563279999999
 20
241.671718
 30
0.0
 11
165.8563279999999
 21
237.671718
 31
0.0
  0
LINE
  5
9CFA
330
9C06
100
AcDbEntity
  8
1
  6
Continuous
100
AcDbLine
 10
142.056328
 20
241.671718
 30
0.0
 11
142.056328
 21
237.671718
 31
0.0
  0
LINE
  5
9CFB
330
9C06
100
AcDbEntity
  8
1
  6
Continuous
100
AcDbLine
 10
140.456328
 20
241.671718
 30
0.0
 11
140.456328
 21
237.671718
 31
0.0
  0
LINE
  5
9CFC
330
9C06
100
AcDbEntity
  8
1
  6
Continuous
100
AcDbLine
 10
167.456328
 20
241.671718
 30
0.0
 11
167.456328
 21
237.671718
 31
0.0
  0
LINE
  5
9CFD
330
9C06
100
AcDbEntity
  8
1
  6
Continuous
100
AcDbLine
 10
139.6063279999999
 20
237.171718
 30
0.0
 11
139.956328
 21
237.171718
 31
0.0
  0
LINE
  5
9CFE
330
9C06
100
AcDbEntity
  8
1
  6
Continuous
100
AcDbLine
 10
167.956328
 20
237.171718
 30
0.0
 11
168.306328
 21
237.171718
 31
0.0
  0
LINE
  5
9CFF
330
9C06
100
AcDbEntity
  8
1
  6
Continuous
100
AcDbLine
 10
141.206328
 20
343.6777109999999
 30
0.0
 11
141.206328
 21
349.7387109999999
 31
0.0
  0
LINE
  5
9D00
330
9C06
100
AcDbEntity
  8
1
  6
Continuous
100
AcDbLine
 10
166.706328
 20
343.6777109999999
 30
0.0
 11
166.706328
 21
349.7387109999999
 31
0.0
  0
LINE
  5
9D01
330
9C06
100
AcDbEntity
  8
1
  6
Continuous
100
AcDbLine
 10
34.956628
 20
335.8387109999998
 30
0.0
 11
34.956628
 21
343.1077109999999
 31
0.0
  0
LINE
  5
9D02
330
9C06
100
AcDbEntity
  8
1
  6
Continuous
100
AcDbLine
 10
62.95632799999999
 20
335.8387109999998
 30
0.0
 11
62.95632799999999
 21
343.1077109999999
 31
0.0
  0
LINE
  5
9D03
330
9C06
100
AcDbEntity
  8
1
  6
Continuous
100
AcDbLine
 10
63.056328
 20
335.7387109999999
 30
0.0
 11
63.056328
 21
343.1077109999999
 31
0.0
  0
LINE
  5
9D04
330
9C06
100
AcDbEntity
  8
1
  6
Continuous
100
AcDbLine
 10
34.856628
 20
335.7387109999999
 30
0.0
 11
34.856628
 21
343.1077109999999
 31
0.0
  0
LINE
  5
9D05
330
9C06
100
AcDbEntity
  8
1
  6
Continuous
100
AcDbLine
 10
36.556628
 20
333.878711
 30
0.0
 11
36.556628
 21
343.1077109999999
 31
0.0
  0
LINE
  5
9D06
330
9C06
100
AcDbEntity
  8
1
  6
Continuous
100
AcDbLine
 10
139.6473279999999
 20
338.338711
 30
0.0
 11
141.206328
 21
338.338711
 31
0.0
  0
LINE
  5
9D07
330
9C06
100
AcDbEntity
  8
1
  6
Continuous
100
AcDbLine
 10
166.706328
 20
338.338711
 30
0.0
 11
168.2663279999999
 21
338.338711
 31
0.0
  0
LINE
  5
9D08
330
9C06
100
AcDbEntity
  8
1
  6
Continuous
100
AcDbLine
 10
61.35632799999999
 20
333.878711
 30
0.0
 11
61.35632799999999
 21
343.1077109999999
 31
0.0
  0
LINE
  5
9D09
330
9C06
100
AcDbEntity
  8
1
  6
Continuous
100
AcDbLine
 10
539.079604
 20
222.671718
 30
0.0
 11
513.8796039999999
 21
222.671718
 31
0.0
  0
LINE
  5
9D0A
330
9C06
100
AcDbEntity
  8
1
  6
Continuous
100
AcDbLine
 10
513.8796039999999
 20
235.671718
 30
0.0
 11
513.8796039999999
 21
233.421718
 31
0.0
  0
LINE
  5
9D0B
330
9C06
100
AcDbEntity
  8
1
  6
Continuous
100
AcDbLine
 10
539.079604
 20
235.671718
 30
0.0
 11
539.079604
 21
233.421718
 31
0.0
  0
LINE
  5
9D0C
330
9C06
100
AcDbEntity
  8
1
  6
Continuous
100
AcDbLine
 10
539.079604
 20
235.671718
 30
0.0
 11
529.979604
 21
235.671718
 31
0.0
  0
LINE
  5
9D0D
330
9C06
100
AcDbEntity
  8
1
  6
Continuous
100
AcDbLine
 10
530.2296039999998
 20
237.471718
 30
0.0
 11
522.7296039999998
 21
237.471718
 31
0.0
  0
LINE
  5
9D0E
330
9C06
100
AcDbEntity
  8
1
  6
Continuous
100
AcDbLine
 10
522.7296039999998
 20
237.471718
 30
0.0
 11
522.7296039999998
 21
235.671718
 31
0.0
  0
LINE
  5
9D0F
330
9C06
100
AcDbEntity
  8
1
  6
Continuous
100
AcDbLine
 10
530.2296039999998
 20
237.471718
 30
0.0
 11
530.2296039999998
 21
235.671718
 31
0.0
  0
LINE
  5
9D10
330
9C06
100
AcDbEntity
  8
1
  6
Continuous
100
AcDbLine
 10
540.8796039999998
 20
233.671718
 30
0.0
 11
540.8796039999998
 21
226.171718
 31
0.0
  0
LINE
  5
9D11
330
9C06
100
AcDbEntity
  8
1
  6
Continuous
100
AcDbLine
 10
512.079604
 20
233.671718
 30
0.0
 11
512.079604
 21
226.171718
 31
0.0
  0
LINE
  5
9D12
330
9C06
100
AcDbEntity
  8
1
  6
Continuous
100
AcDbLine
 10
540.8796039999998
 20
226.171718
 30
0.0
 11
539.079604
 21
226.171718
 31
0.0
  0
LINE
  5
9D13
330
9C06
100
AcDbEntity
  8
1
  6
Continuous
100
AcDbLine
 10
513.8796039999999
 20
226.171718
 30
0.0
 11
512.079604
 21
226.171718
 31
0.0
  0
LINE
  5
9D14
330
9C06
100
AcDbEntity
  8
1
  6
Continuous
100
AcDbLine
 10
540.8796039999998
 20
233.671718
 30
0.0
 11
539.079604
 21
233.671718
 31
0.0
  0
LINE
  5
9D15
330
9C06
100
AcDbEntity
  8
1
  6
Continuous
100
AcDbLine
 10
513.8796039999999
 20
233.671718
 30
0.0
 11
512.079604
 21
233.671718
 31
0.0
  0
LINE
  5
9D16
330
9C06
100
AcDbEntity
  8
1
  6
Continuous
100
AcDbLine
 10
522.979604
 20
237.2717179999999
 30
0.0
 11
522.979604
 21
228.771718
 31
0.0
  0
LINE
  5
9D17
330
9C06
100
AcDbEntity
  8
1
  6
Continuous
100
AcDbLine
 10
529.979604
 20
237.2717179999999
 30
0.0
 11
529.979604
 21
228.771718
 31
0.0
  0
LINE
  5
9D18
330
9C06
100
AcDbEntity
  8
1
  6
Continuous
100
AcDbLine
 10
529.979604
 20
237.2717179999999
 30
0.0
 11
522.979604
 21
237.2717179999999
 31
0.0
  0
LINE
  5
9D19
330
9C06
100
AcDbEntity
  8
1
  6
Continuous
100
AcDbLine
 10
540.679604
 20
233.421718
 30
0.0
 11
532.179604
 21
233.421718
 31
0.0
  0
LINE
  5
9D1A
330
9C06
100
AcDbEntity
  8
1
  6
Continuous
100
AcDbLine
 10
540.679604
 20
226.421718
 30
0.0
 11
532.179604
 21
226.421718
 31
0.0
  0
LINE
  5
9D1B
330
9C06
100
AcDbEntity
  8
1
  6
Continuous
100
AcDbLine
 10
520.7796039999998
 20
233.421718
 30
0.0
 11
512.2796039999998
 21
233.421718
 31
0.0
  0
LINE
  5
9D1C
330
9C06
100
AcDbEntity
  8
1
  6
Continuous
100
AcDbLine
 10
520.7796039999998
 20
226.421718
 30
0.0
 11
512.2796039999998
 21
226.421718
 31
0.0
  0
LINE
  5
9D1D
330
9C06
100
AcDbEntity
  8
1
  6
Continuous
100
AcDbLine
 10
540.679604
 20
233.421718
 30
0.0
 11
540.679604
 21
226.421718
 31
0.0
  0
LINE
  5
9D1E
330
9C06
100
AcDbEntity
  8
1
  6
Continuous
100
AcDbLine
 10
512.2796039999998
 20
233.421718
 30
0.0
 11
512.2796039999998
 21
226.421718
 31
0.0
  0
LINE
  5
9D1F
330
9C06
100
AcDbEntity
  8
1
  6
Continuous
100
AcDbLine
 10
513.8796039999999
 20
226.421718
 30
0.0
 11
513.8796039999999
 21
222.671718
 31
0.0
  0
LINE
  5
9D20
330
9C06
100
AcDbEntity
  8
1
  6
Continuous
100
AcDbLine
 10
522.979604
 20
235.671718
 30
0.0
 11
513.8796039999999
 21
235.671718
 31
0.0
  0
LINE
  5
9D21
330
9C06
100
AcDbEntity
  8
1
  6
Continuous
100
AcDbLine
 10
539.079604
 20
226.421718
 30
0.0
 11
539.079604
 21
222.671718
 31
0.0
  0
LINE
  5
9D22
330
9C06
100
AcDbEntity
  8
1
  6
Continuous
100
AcDbLine
 10
443.6796039999999
 20
213.671718
 30
0.0
 11
419.279604
 21
213.671718
 31
0.0
  0
LINE
  5
9D23
330
9C06
100
AcDbEntity
  8
1
  6
Continuous
100
AcDbLine
 10
443.6796039999999
 20
188.171718
 30
0.0
 11
419.279604
 21
188.171718
 31
0.0
  0
LINE
  5
9D24
330
9C06
100
AcDbEntity
  8
1
  6
Continuous
100
AcDbLine
 10
419.279604
 20
213.671718
 30
0.0
 11
419.279604
 21
211.421718
 31
0.0
  0
LINE
  5
9D25
330
9C06
100
AcDbEntity
  8
1
  6
Continuous
100
AcDbLine
 10
443.6796039999999
 20
213.671718
 30
0.0
 11
443.6796039999999
 21
211.421718
 31
0.0
  0
LINE
  5
9D26
330
9C06
100
AcDbEntity
  8
1
  6
Continuous
100
AcDbLine
 10
417.479604
 20
211.671718
 30
0.0
 11
417.479604
 21
204.171718
 31
0.0
  0
LINE
  5
9D27
330
9C06
100
AcDbEntity
  8
1
  6
Continuous
100
AcDbLine
 10
445.4796039999997
 20
211.671718
 30
0.0
 11
445.4796039999997
 21
204.171718
 31
0.0
  0
LINE
  5
9D28
330
9C06
100
AcDbEntity
  8
1
  6
Continuous
100
AcDbLine
 10
445.4796039999997
 20
211.671718
 30
0.0
 11
443.6796039999999
 21
211.671718
 31
0.0
  0
LINE
  5
9D29
330
9C06
100
AcDbEntity
  8
1
  6
Continuous
100
AcDbLine
 10
419.279604
 20
211.671718
 30
0.0
 11
417.479604
 21
211.671718
 31
0.0
  0
LINE
  5
9D2A
330
9C06
100
AcDbEntity
  8
1
  6
Continuous
100
AcDbLine
 10
419.279604
 20
204.171718
 30
0.0
 11
417.479604
 21
204.171718
 31
0.0
  0
LINE
  5
9D2B
330
9C06
100
AcDbEntity
  8
1
  6
Continuous
100
AcDbLine
 10
445.4796039999997
 20
204.171718
 30
0.0
 11
443.6796039999999
 21
204.171718
 31
0.0
  0
LINE
  5
9D2C
330
9C06
100
AcDbEntity
  8
1
  6
Continuous
100
AcDbLine
 10
445.4796039999997
 20
198.671718
 30
0.0
 11
443.6796039999999
 21
198.671718
 31
0.0
  0
LINE
  5
9D2D
330
9C06
100
AcDbEntity
  8
1
  6
Continuous
100
AcDbLine
 10
419.279604
 20
198.671718
 30
0.0
 11
417.479604
 21
198.671718
 31
0.0
  0
LINE
  5
9D2E
330
9C06
100
AcDbEntity
  8
1
  6
Continuous
100
AcDbLine
 10
445.4796039999997
 20
191.171718
 30
0.0
 11
443.6796039999999
 21
191.171718
 31
0.0
  0
LINE
  5
9D2F
330
9C06
100
AcDbEntity
  8
1
  6
Continuous
100
AcDbLine
 10
419.279604
 20
191.171718
 30
0.0
 11
417.479604
 21
191.171718
 31
0.0
  0
LINE
  5
9D30
330
9C06
100
AcDbEntity
  8
1
  6
Continuous
100
AcDbLine
 10
417.479604
 20
198.671718
 30
0.0
 11
417.479604
 21
191.171718
 31
0.0
  0
LINE
  5
9D31
330
9C06
100
AcDbEntity
  8
1
  6
Continuous
100
AcDbLine
 10
445.4796039999997
 20
198.671718
 30
0.0
 11
445.4796039999997
 21
191.171718
 31
0.0
  0
LINE
  5
9D32
330
9C06
100
AcDbEntity
  8
1
  6
Continuous
100
AcDbLine
 10
426.179604
 20
211.421718
 30
0.0
 11
417.679604
 21
211.421718
 31
0.0
  0
LINE
  5
9D33
330
9C06
100
AcDbEntity
  8
1
  6
Continuous
100
AcDbLine
 10
426.179604
 20
204.4217179999999
 30
0.0
 11
417.679604
 21
204.4217179999999
 31
0.0
  0
LINE
  5
9D34
330
9C06
100
AcDbEntity
  8
1
  6
Continuous
100
AcDbLine
 10
445.2796039999998
 20
211.421718
 30
0.0
 11
436.7796039999998
 21
211.421718
 31
0.0
  0
LINE
  5
9D35
330
9C06
100
AcDbEntity
  8
1
  6
Continuous
100
AcDbLine
 10
445.2796039999998
 20
204.4217179999999
 30
0.0
 11
436.7796039999998
 21
204.4217179999999
 31
0.0
  0
LINE
  5
9D36
330
9C06
100
AcDbEntity
  8
1
  6
Continuous
100
AcDbLine
 10
445.2796039999998
 20
198.421718
 30
0.0
 11
436.7796039999998
 21
198.421718
 31
0.0
  0
LINE
  5
9D37
330
9C06
100
AcDbEntity
  8
1
  6
Continuous
100
AcDbLine
 10
445.2796039999998
 20
191.4217179999999
 30
0.0
 11
436.7796039999998
 21
191.4217179999999
 31
0.0
  0
LINE
  5
9D38
330
9C06
100
AcDbEntity
  8
1
  6
Continuous
100
AcDbLine
 10
426.179604
 20
191.4217179999999
 30
0.0
 11
417.679604
 21
191.4217179999999
 31
0.0
  0
LINE
  5
9D39
330
9C06
100
AcDbEntity
  8
1
  6
Continuous
100
AcDbLine
 10
426.179604
 20
198.421718
 30
0.0
 11
417.679604
 21
198.421718
 31
0.0
  0
LINE
  5
9D3A
330
9C06
100
AcDbEntity
  8
1
  6
Continuous
100
AcDbLine
 10
417.679604
 20
211.421718
 30
0.0
 11
417.679604
 21
204.4217179999999
 31
0.0
  0
LINE
  5
9D3B
330
9C06
100
AcDbEntity
  8
1
  6
Continuous
100
AcDbLine
 10
445.2796039999998
 20
211.421718
 30
0.0
 11
445.2796039999998
 21
204.4217179999999
 31
0.0
  0
LINE
  5
9D3C
330
9C06
100
AcDbEntity
  8
1
  6
Continuous
100
AcDbLine
 10
417.679604
 20
198.421718
 30
0.0
 11
417.679604
 21
191.4217179999999
 31
0.0
  0
LINE
  5
9D3D
330
9C06
100
AcDbEntity
  8
1
  6
Continuous
100
AcDbLine
 10
445.2796039999998
 20
198.421718
 30
0.0
 11
445.2796039999998
 21
191.4217179999999
 31
0.0
  0
LINE
  5
9D3E
330
9C06
100
AcDbEntity
  8
1
  6
Continuous
100
AcDbLine
 10
443.6796039999999
 20
191.4217179999999
 30
0.0
 11
443.6796039999999
 21
188.171718
 31
0.0
  0
LINE
  5
9D3F
330
9C06
100
AcDbEntity
  8
1
  6
Continuous
100
AcDbLine
 10
443.6796039999999
 20
204.4217179999999
 30
0.0
 11
443.6796039999999
 21
198.421718
 31
0.0
  0
LINE
  5
9D40
330
9C06
100
AcDbEntity
  8
1
  6
Continuous
100
AcDbLine
 10
419.279604
 20
204.4217179999999
 30
0.0
 11
419.279604
 21
198.421718
 31
0.0
  0
LINE
  5
9D41
330
9C06
100
AcDbEntity
  8
1
  6
Continuous
100
AcDbLine
 10
419.279604
 20
191.4217179999999
 30
0.0
 11
419.279604
 21
188.171718
 31
0.0
  0
LINE
  5
9D42
330
9C06
100
AcDbEntity
  8
1
  6
Continuous
100
AcDbLine
 10
520.7796039999998
 20
233.421718
 30
0.0
 11
520.7796039999998
 21
226.421718
 31
0.0
  0
LINE
  5
9D43
330
9C06
100
AcDbEntity
  8
1
  6
Continuous
100
AcDbLine
 10
529.979604
 20
228.771718
 30
0.0
 11
522.979604
 21
228.771718
 31
0.0
  0
LINE
  5
9D44
330
9C06
100
AcDbEntity
  8
1
  6
Continuous
100
AcDbLine
 10
532.179604
 20
233.421718
 30
0.0
 11
532.179604
 21
226.421718
 31
0.0
  0
LINE
  5
9D45
330
9C06
100
AcDbEntity
  8
1
  6
Continuous
100
AcDbLine
 10
426.179604
 20
211.421718
 30
0.0
 11
426.179604
 21
204.4217179999999
 31
0.0
  0
LINE
  5
9D46
330
9C06
100
AcDbEntity
  8
1
  6
Continuous
100
AcDbLine
 10
436.7796039999998
 20
211.421718
 30
0.0
 11
436.7796039999998
 21
204.4217179999999
 31
0.0
  0
LINE
  5
9D47
330
9C06
100
AcDbEntity
  8
1
  6
Continuous
100
AcDbLine
 10
436.7796039999998
 20
198.421718
 30
0.0
 11
436.7796039999998
 21
191.4217179999999
 31
0.0
  0
LINE
  5
9D48
330
9C06
100
AcDbEntity
  8
1
  6
Continuous
100
AcDbLine
 10
426.179604
 20
198.421718
 30
0.0
 11
426.179604
 21
191.4217179999999
 31
0.0
  0
LINE
  5
9D49
330
9C06
100
AcDbEntity
  8
4
  6
CENTER
100
AcDbLine
 10
73.456328
 20
345.6151529999999
 30
0.0
 11
24.456628
 21
345.6151529999999
 31
0.0
  0
LINE
  5
9D4A
330
9C06
100
AcDbEntity
  8
4
  6
CENTER
100
AcDbLine
 10
153.956328
 20
279.171718
 30
0.0
 11
153.956328
 21
201.671718
 31
0.0
  0
LINE
  5
9D4B
330
9C06
100
AcDbEntity
  8
1
  6
Continuous
100
AcDbLine
 10
324.3646689999998
 20
222.671718
 30
0.0
 11
326.0716689999998
 21
213.8487179999999
 31
0.0
  0
LINE
  5
9D4C
330
9C06
100
AcDbEntity
  8
1
  6
Continuous
100
AcDbLine
 10
324.8606689999999
 20
207.475718
 30
0.0
 11
323.289669
 21
207.1717179999999
 31
0.0
  0
LINE
  5
9D4D
330
9C06
100
AcDbEntity
  8
1
  6
Continuous
100
AcDbLine
 10
322.734669
 20
222.671718
 30
0.0
 11
324.500669
 21
213.5447179999999
 31
0.0
  0
LINE
  5
9D4E
330
9C06
100
AcDbEntity
  8
4
  6
CENTER
100
AcDbLine
 10
526.479604
 20
279.171718
 30
0.0
 11
526.479604
 21
201.671718
 31
0.0
  0
LINE
  5
9D4F
330
9C06
100
AcDbEntity
  8
1
  6
Continuous
100
AcDbLine
 10
190.956328
 20
349.7387109999999
 30
0.0
 11
190.956328
 21
351.338711
 31
0.0
  0
LINE
  5
9D50
330
9C06
100
AcDbEntity
  8
1
  6
Continuous
100
AcDbLine
 10
190.956328
 20
351.338711
 30
0.0
 11
116.9563279999999
 21
351.338711
 31
0.0
  0
LINE
  5
9D51
330
9C06
100
AcDbEntity
  8
1
  6
Continuous
100
AcDbLine
 10
116.9563279999999
 20
349.7387109999999
 30
0.0
 11
116.9563279999999
 21
351.338711
 31
0.0
  0
LINE
  5
9D52
330
9C06
100
AcDbEntity
  8
1
  6
Continuous
100
AcDbLine
 10
182.741328
 20
349.7387109999999
 30
0.0
 11
182.741328
 21
351.338711
 31
0.0
  0
LINE
  5
9D53
330
9C06
100
AcDbEntity
  8
1
  6
Continuous
100
AcDbLine
 10
139.491328
 20
349.7387109999999
 30
0.0
 11
139.491328
 21
351.338711
 31
0.0
  0
LINE
  5
9D54
330
9C06
100
AcDbEntity
  8
1
  6
Continuous
100
AcDbLine
 10
190.956328
 20
349.7387109999999
 30
0.0
 11
116.9563279999999
 21
349.7387109999999
 31
0.0
  0
LINE
  5
9D55
330
9C06
100
AcDbEntity
  8
1
  6
Continuous
100
AcDbLine
 10
125.1723279999998
 20
349.7387109999999
 30
0.0
 11
125.1723279999998
 21
351.338711
 31
0.0
  0
LINE
  5
9D56
330
9C06
100
AcDbEntity
  8
1
  6
Continuous
100
AcDbLine
 10
168.4223279999999
 20
349.7387109999999
 30
0.0
 11
168.4223279999999
 21
351.338711
 31
0.0
  0
LINE
  5
9D57
330
9C06
100
AcDbEntity
  8
1
  6
Continuous
100
AcDbLine
 10
61.35632799999999
 20
340.838711
 30
0.0
 11
36.556628
 21
340.838711
 31
0.0
  0
LINE
  5
9D58
330
9C06
100
AcDbEntity
  8
1
  6
Continuous
100
AcDbLine
 10
63.056328
 20
348.107711
 30
0.0
 11
63.056328
 21
349.7387109999999
 31
0.0
  0
LINE
  5
9D59
330
9C06
100
AcDbEntity
  8
1
  6
Continuous
100
AcDbLine
 10
62.95632799999999
 20
348.107711
 30
0.0
 11
62.95632799999999
 21
349.7387109999999
 31
0.0
  0
LINE
  5
9D5A
330
9C06
100
AcDbEntity
  8
1
  6
Continuous
100
AcDbLine
 10
61.35632799999999
 20
348.107711
 30
0.0
 11
61.35632799999999
 21
349.7387109999999
 31
0.0
  0
LINE
  5
9D5B
330
9C06
100
AcDbEntity
  8
1
  6
Continuous
100
AcDbLine
 10
36.556628
 20
348.107711
 30
0.0
 11
36.556628
 21
349.7387109999999
 31
0.0
  0
LINE
  5
9D5C
330
9C06
100
AcDbEntity
  8
1
  6
Continuous
100
AcDbLine
 10
34.856628
 20
348.107711
 30
0.0
 11
34.856628
 21
349.7387109999999
 31
0.0
  0
LINE
  5
9D5D
330
9C06
100
AcDbEntity
  8
1
  6
Continuous
100
AcDbLine
 10
34.956628
 20
348.107711
 30
0.0
 11
34.956628
 21
349.7387109999999
 31
0.0
  0
LINE
  5
9D5E
330
9C06
100
AcDbEntity
  8
1
  6
Continuous
100
AcDbLine
 10
59.45632800000001
 20
340.838711
 30
0.0
 11
59.45632800000001
 21
343.1077109999999
 31
0.0
  0
LINE
  5
9D5F
330
9C06
100
AcDbEntity
  8
1
  6
Continuous
100
AcDbLine
 10
61.056328
 20
340.838711
 30
0.0
 11
61.056328
 21
343.1077109999999
 31
0.0
  0
LINE
  5
9D60
330
9C06
100
AcDbEntity
  8
1
  6
Continuous
100
AcDbLine
 10
38.456628
 20
340.838711
 30
0.0
 11
38.456628
 21
343.1077109999999
 31
0.0
  0
LINE
  5
9D61
330
9C06
100
AcDbEntity
  8
1
  6
Continuous
100
AcDbLine
 10
36.856628
 20
340.838711
 30
0.0
 11
36.856628
 21
343.1077109999999
 31
0.0
  0
LINE
  5
9D62
330
9C06
100
AcDbEntity
  8
1
  6
Continuous
100
AcDbLine
 10
143.1063279999999
 20
344.2387109999998
 30
0.0
 11
164.806328
 21
344.2387109999998
 31
0.0
  0
LINE
  5
9D63
330
9C06
100
AcDbEntity
  8
4
  6
CENTER
100
AcDbLine
 10
153.956328
 20
331.7387109999998
 30
0.0
 11
153.956328
 21
356.3387109999999
 31
0.0
  0
LINE
  5
9D64
330
9C06
100
AcDbEntity
  8
1
  6
Continuous
100
AcDbLine
 10
141.956328
 20
344.044711
 30
0.0
 11
141.956328
 21
349.7387109999999
 31
0.0
  0
LINE
  5
9D65
330
9C06
100
AcDbEntity
  8
1
  6
Continuous
100
AcDbLine
 10
165.956328
 20
344.044711
 30
0.0
 11
165.956328
 21
349.7387109999999
 31
0.0
  0
LINE
  5
9D66
330
9C06
100
AcDbEntity
  8
4
  6
CENTER
100
AcDbLine
 10
406.3769279999998
 20
240.171718
 30
0.0
 11
455.376928
 21
240.171718
 31
0.0
  0
LINE
  5
9D67
330
9C06
100
AcDbEntity
  8
4
  6
CENTER
100
AcDbLine
 10
138.456328
 20
239.983718
 30
0.0
 11
169.456328
 21
239.983718
 31
0.0
  0
CIRCLE
  5
9D68
330
9C06
100
AcDbEntity
  8
1
  6
Continuous
100
AcDbCircle
 10
182.456328
 20
236.171718
 30
0.0
 40
2.6
  0
CIRCLE
  5
9D69
330
9C06
100
AcDbEntity
  8
1
  6
Continuous
100
AcDbCircle
 10
125.4563279999999
 20
236.171718
 30
0.0
 40
2.6
  0
CIRCLE
  5
9D6A
330
9C06
100
AcDbEntity
  8
1
  6
Continuous
100
AcDbCircle
 10
153.956328
 20
266.171718
 30
0.0
 40
2.6
  0
ARC
  5
9D6B
330
9C06
100
AcDbEntity
  8
1
  6
Continuous
100
AcDbCircle
 10
153.9223279999999
 20
259.671718
 30
0.0
 40
14.5
100
AcDbArc
 50
3.954409999999998
 51
176.0459999999999
  0
ARC
  5
9D6C
330
9C06
100
AcDbEntity
  8
1
  6
Continuous
100
AcDbCircle
 10
139.672328
 20
246.173718
 30
0.0
 40
14.5
100
AcDbArc
 50
89.14810000000001
 51
176.0519999999999
  0
ARC
  5
9D6D
330
9C06
100
AcDbEntity
  8
1
  6
Continuous
100
AcDbCircle
 10
168.241328
 20
246.171718
 30
0.0
 40
14.5
100
AcDbArc
 50
3.95457
 51
90.0
  0
ARC
  5
9D6E
330
9C06
100
AcDbEntity
  8
1
  6
Continuous
100
AcDbCircle
 10
126.1403279999999
 20
237.215718
 30
0.0
 40
10.0
100
AcDbArc
 50
95.35989999999999
 51
156.695
  0
ARC
  5
9D6F
330
9C06
100
AcDbEntity
  8
1
  6
Continuous
100
AcDbCircle
 10
181.7723279999999
 20
237.215718
 30
0.0
 40
10.0
100
AcDbArc
 50
23.30509999999998
 51
84.6401
  0
CIRCLE
  5
9D70
330
9C06
100
AcDbEntity
  8
1
  6
Continuous
100
AcDbCircle
 10
26.456628
 20
159.171718
 30
0.0
 40
2.6
  0
CIRCLE
  5
9D71
330
9C06
100
AcDbEntity
  8
1
  6
Continuous
100
AcDbCircle
 10
20.456628
 20
205.1717179999999
 30
0.0
 40
2.6
  0
CIRCLE
  5
9D72
330
9C06
100
AcDbEntity
  8
1
  6
Continuous
100
AcDbCircle
 10
77.456328
 20
205.1717179999999
 30
0.0
 40
2.6
  0
CIRCLE
  5
9D73
330
9C06
100
AcDbEntity
  8
1
  6
Continuous
100
AcDbCircle
 10
71.456328
 20
159.171718
 30
0.0
 40
2.6
  0
ARC
  5
9D74
330
9C06
100
AcDbEntity
  8
1
  6
Continuous
100
AcDbCircle
 10
17.95662799999998
 20
199.6577179999999
 30
0.0
 40
6.0
100
AcDbArc
 50
180.0
 51
225.0
  0
ARC
  5
9D75
330
9C06
100
AcDbEntity
  8
1
  6
Continuous
100
AcDbCircle
 10
9.956628
 20
187.8587179999999
 30
0.0
 40
8.0
100
AcDbArc
 50
0.0
 51
45.0
  0
ARC
  5
9D76
330
9C06
100
AcDbEntity
  8
1
  6
Continuous
100
AcDbCircle
 10
79.956328
 20
199.6577179999999
 30
0.0
 40
6.0
100
AcDbArc
 50
315.0
 51
0.0
  0
ARC
  5
9D77
330
9C06
100
AcDbEntity
  8
1
  6
Continuous
100
AcDbCircle
 10
87.95632799999998
 20
187.8587179999999
 30
0.0
 40
8.0
100
AcDbArc
 50
135.0
 51
180.0
  0
ARC
  5
9D78
330
9C06
100
AcDbEntity
  8
1
  6
Continuous
100
AcDbCircle
 10
25.95662799999999
 20
160.171718
 30
0.0
 40
8.0
100
AcDbArc
 50
180.0
 51
270.0
  0
ARC
  5
9D79
330
9C06
100
AcDbEntity
  8
1
  6
Continuous
100
AcDbCircle
 10
71.956328
 20
160.171718
 30
0.0
 40
8.0
100
AcDbArc
 50
270.0
 51
0.0
  0
ARC
  5
9D7A
330
9C06
100
AcDbEntity
  8
1
  6
Continuous
100
AcDbCircle
 10
48.956628
 20
158.171718
 30
0.0
 40
15.0
100
AcDbArc
 50
224.4269999999999
 51
226.895
  0
ARC
  5
9D7B
330
9C06
100
AcDbEntity
  8
1
  6
Continuous
100
AcDbCircle
 10
27.53232800000001
 20
137.171718
 30
0.0
 40
15.0
100
AcDbArc
 50
44.427
 51
90.0
  0
ARC
  5
9D7C
330
9C06
100
AcDbEntity
  8
1
  6
Continuous
100
AcDbCircle
 10
70.38132799999998
 20
137.171718
 30
0.0
 40
15.0
100
AcDbArc
 50
90.0
 51
135.5729999999998
  0
ARC
  5
9D7D
330
9C06
100
AcDbEntity
  8
1
  6
Continuous
100
AcDbCircle
 10
64.956328
 20
182.171718
 30
0.0
 40
6.5
100
AcDbArc
 50
270.0
 51
0.0
  0
ARC
  5
9D7E
330
9C06
100
AcDbEntity
  8
1
  6
Continuous
100
AcDbCircle
 10
32.95662800000001
 20
182.171718
 30
0.0
 40
6.5
100
AcDbArc
 50
180.0
 51
270.0
  0
ARC
  5
9D7F
330
9C06
100
AcDbEntity
  8
1
  6
Continuous
100
AcDbCircle
 10
64.956328
 20
182.171718
 30
0.0
 40
1.5
100
AcDbArc
 50
270.0
 51
0.0
  0
ARC
  5
9D80
330
9C06
100
AcDbEntity
  8
1
  6
Continuous
100
AcDbCircle
 10
32.95662800000001
 20
182.171718
 30
0.0
 40
1.5
100
AcDbArc
 50
180.0
 51
270.0
  0
ARC
  5
9D81
330
9C06
100
AcDbEntity
  8
1
  6
Continuous
100
AcDbCircle
 10
36.456628
 20
181.171718
 30
0.0
 40
1.6
100
AcDbArc
 50
160.7549999999999
 51
180.0
  0
ARC
  5
9D82
330
9C06
100
AcDbEntity
  8
1
  6
Continuous
100
AcDbCircle
 10
61.45632800000001
 20
181.171718
 30
0.0
 40
1.6
100
AcDbArc
 50
0.0
 51
19.245
  0
ARC
  5
9D83
330
9C06
100
AcDbEntity
  8
1
  6
Continuous
100
AcDbCircle
 10
48.956628
 20
139.9217179999999
 30
0.0
 40
10.25
100
AcDbArc
 50
180.0
 51
0.00001
  0
ARC
  5
9D84
330
9C06
100
AcDbEntity
  8
1
  6
Continuous
100
AcDbCircle
 10
48.956628
 20
158.171718
 30
0.0
 40
15.0
100
AcDbArc
 50
313.105
 51
315.5729999999999
  0
CIRCLE
  5
9D85
330
9C06
100
AcDbEntity
  8
1
  6
Continuous
100
AcDbCircle
 10
497.979604
 20
236.171718
 30
0.0
 40
2.6
  0
CIRCLE
  5
9D86
330
9C06
100
AcDbEntity
  8
1
  6
Continuous
100
AcDbCircle
 10
554.979604
 20
236.171718
 30
0.0
 40
2.6
  0
CIRCLE
  5
9D87
330
9C06
100
AcDbEntity
  8
1
  6
Continuous
100
AcDbCircle
 10
526.479604
 20
266.171718
 30
0.0
 40
2.6
  0
ARC
  5
9D88
330
9C06
100
AcDbEntity
  8
1
  6
Continuous
100
AcDbCircle
 10
526.5146039999998
 20
259.671718
 30
0.0
 40
14.5
100
AcDbArc
 50
3.954409999999998
 51
176.0459999999999
  0
ARC
  5
9D89
330
9C06
100
AcDbEntity
  8
1
  6
Continuous
100
AcDbCircle
 10
540.7646039999998
 20
246.173718
 30
0.0
 40
14.5
100
AcDbArc
 50
3.94823
 51
90.8519
  0
ARC
  5
9D8A
330
9C06
100
AcDbEntity
  8
1
  6
Continuous
100
AcDbCircle
 10
512.1956039999998
 20
246.171718
 30
0.0
 40
14.5
100
AcDbArc
 50
90.0
 51
176.0449999999999
  0
ARC
  5
9D8B
330
9C06
100
AcDbEntity
  8
1
  6
Continuous
100
AcDbCircle
 10
554.2956039999998
 20
237.215718
 30
0.0
 40
10.0
100
AcDbArc
 50
23.30509999999998
 51
84.6401
  0
ARC
  5
9D8C
330
9C06
100
AcDbEntity
  8
1
  6
Continuous
100
AcDbCircle
 10
498.663604
 20
237.215718
 30
0.0
 40
10.0
100
AcDbArc
 50
95.35989999999999
 51
156.695
  0
CIRCLE
  5
9D8D
330
9C06
100
AcDbEntity
  8
1
  6
Continuous
100
AcDbCircle
 10
453.9796039999997
 20
159.171718
 30
0.0
 40
2.6
  0
CIRCLE
  5
9D8E
330
9C06
100
AcDbEntity
  8
1
  6
Continuous
100
AcDbCircle
 10
459.979604
 20
205.1717179999999
 30
0.0
 40
2.6
  0
CIRCLE
  5
9D8F
330
9C06
100
AcDbEntity
  8
1
  6
Continuous
100
AcDbCircle
 10
402.9796039999998
 20
205.1717179999999
 30
0.0
 40
2.6
  0
CIRCLE
  5
9D90
330
9C06
100
AcDbEntity
  8
1
  6
Continuous
100
AcDbCircle
 10
408.979604
 20
159.171718
 30
0.0
 40
2.6
  0
ARC
  5
9D91
330
9C06
100
AcDbEntity
  8
1
  6
Continuous
100
AcDbCircle
 10
462.4796039999998
 20
199.6577179999999
 30
0.0
 40
6.0
100
AcDbArc
 50
315.0
 51
0.000005
  0
ARC
  5
9D92
330
9C06
100
AcDbEntity
  8
1
  6
Continuous
100
AcDbCircle
 10
470.4796039999997
 20
187.8587179999999
 30
0.0
 40
8.0
100
AcDbArc
 50
135.0
 51
180.0
  0
ARC
  5
9D93
330
9C06
100
AcDbEntity
  8
1
  6
Continuous
100
AcDbCircle
 10
400.479604
 20
199.6577179999999
 30
0.0
 40
6.0
100
AcDbArc
 50
180.0
 51
225.0
  0
ARC
  5
9D94
330
9C06
100
AcDbEntity
  8
1
  6
Continuous
100
AcDbCircle
 10
392.479604
 20
187.8587179999999
 30
0.0
 40
8.0
100
AcDbArc
 50
0.0
 51
45.0
  0
ARC
  5
9D95
330
9C06
100
AcDbEntity
  8
1
  6
Continuous
100
AcDbCircle
 10
454.479604
 20
160.171718
 30
0.0
 40
8.0
100
AcDbArc
 50
270.0
 51
0.000005
  0
ARC
  5
9D96
330
9C06
100
AcDbEntity
  8
1
  6
Continuous
100
AcDbCircle
 10
408.4796039999998
 20
160.171718
 30
0.0
 40
8.0
100
AcDbArc
 50
180.0
 51
270.0
  0
ARC
  5
9D97
330
9C06
100
AcDbEntity
  8
1
  6
Continuous
100
AcDbCircle
 10
431.479604
 20
158.171718
 30
0.0
 40
15.0
100
AcDbArc
 50
224.4269999999999
 51
315.5729999999999
  0
ARC
  5
9D98
330
9C06
100
AcDbEntity
  8
1
  6
Continuous
100
AcDbCircle
 10
452.9046039999998
 20
137.171718
 30
0.0
 40
15.0
100
AcDbArc
 50
90.0
 51
135.5729999999998
  0
ARC
  5
9D99
330
9C06
100
AcDbEntity
  8
1
  6
Continuous
100
AcDbCircle
 10
410.0556039999998
 20
137.171718
 30
0.0
 40
15.0
100
AcDbArc
 50
44.427
 51
90.0
  0
ARC
  5
9D9A
330
9C06
100
AcDbEntity
  8
1
  6
Continuous
100
AcDbCircle
 10
431.479604
 20
139.9217179999999
 30
0.0
 40
10.25
100
AcDbArc
 50
180.0
 51
0.0
  0
ARC
  5
9D9B
330
9C06
100
AcDbEntity
  8
1
  6
Continuous
100
AcDbCircle
 10
268.3896689999999
 20
191.171718
 30
0.0
 40
1.6
100
AcDbArc
 50
69.4153
 51
281.662
  0
ARC
  5
9D9C
330
9C06
100
AcDbEntity
  8
1
  6
Continuous
100
AcDbCircle
 10
268.6896689999999
 20
153.671718
 30
0.0
 40
3.1
100
AcDbArc
 50
343.5179999999999
 51
28.9385
  0
ARC
  5
9D9D
330
9C06
100
AcDbEntity
  8
1
  6
Continuous
100
AcDbCircle
 10
267.3896689999998
 20
189.3717179999999
 30
0.0
 40
3.0
100
AcDbArc
 50
180.0
 51
270.0
  0
ARC
  5
9D9E
330
9C06
100
AcDbEntity
  8
1
  6
Continuous
100
AcDbCircle
 10
319.2896689999999
 20
239.171718
 30
0.0
 40
3.0
100
AcDbArc
 50
32.3335
 51
180.0
  0
ARC
  5
9D9F
330
9C06
100
AcDbEntity
  8
1
  6
Continuous
100
AcDbCircle
 10
319.2896689999999
 20
225.671718
 30
0.0
 40
3.0
100
AcDbArc
 50
180.0
 51
270.0
  0
ARC
  5
9DA0
330
9C06
100
AcDbEntity
  8
1
  6
Continuous
100
AcDbCircle
 10
264.9896689999998
 20
216.571718
 30
0.0
 40
1.6
100
AcDbArc
 50
90.0
 51
180.0
  0
ARC
  5
9DA1
330
9C06
100
AcDbEntity
  8
1
  6
Continuous
100
AcDbCircle
 10
61.056328
 20
52.30402699999999
 30
0.0
 40
1.6
100
AcDbArc
 50
180.0
 51
213.532
  0
ARC
  5
9DA2
330
9C06
100
AcDbEntity
  8
1
  6
Continuous
100
AcDbCircle
 10
36.856628
 20
52.30402699999999
 30
0.0
 40
1.6
100
AcDbArc
 50
326.468
 51
0.000003
  0
ARC
  5
9DA3
330
9C06
100
AcDbEntity
  8
1
  6
Continuous
100
AcDbCircle
 10
48.956628
 20
43.87402699999999
 30
0.0
 40
19.93019999999998
100
AcDbArc
 50
59.04959999999999
 51
120.95
  0
ARC
  5
9DA4
330
9C06
100
AcDbEntity
  8
1
  6
Continuous
100
AcDbCircle
 10
48.956628
 20
42.34202699999999
 30
0.0
 40
19.93019999999998
100
AcDbArc
 50
59.04959999999999
 51
120.95
  0
ARC
  5
9DA5
330
9C06
100
AcDbEntity
  8
1
  6
Continuous
100
AcDbCircle
 10
270.289669
 20
178.171718
 30
0.0
 40
2.75
100
AcDbArc
 50
150.8828369999999
 51
20.122791
  0
ARC
  5
9DA6
330
9C06
100
AcDbEntity
  8
1
  6
Continuous
100
AcDbCircle
 10
270.289669
 20
178.171718
 30
0.0
 40
2.5
100
AcDbArc
 50
175.502814
 51
355.502814
  0
ARC
  5
9DA7
330
9C06
100
AcDbEntity
  8
1
  6
Continuous
100
AcDbCircle
 10
63.056328
 20
343.2387109999999
 30
0.0
 40
5.0
100
AcDbArc
 50
270.0
 51
315.0829309999999
  0
ARC
  5
9DA8
330
9C06
100
AcDbEntity
  8
1
  6
Continuous
100
AcDbCircle
 10
68.956328
 20
345.6151529999999
 30
0.0
 40
2.5
100
AcDbArc
 50
315.0829309999999
 51
90.0
  0
ARC
  5
9DA9
330
9C06
100
AcDbEntity
  8
1
  6
Continuous
100
AcDbCircle
 10
62.95632799999999
 20
191.171718
 30
0.0
 40
1.5
100
AcDbArc
 50
270.0
 51
90.0
  0
ARC
  5
9DAA
330
9C06
100
AcDbEntity
  8
1
  6
Continuous
100
AcDbCircle
 10
34.956628
 20
191.171718
 30
0.0
 40
1.5
100
AcDbArc
 50
90.0
 51
270.0
  0
ARC
  5
9DAB
330
9C06
100
AcDbEntity
  8
1
  6
Continuous
100
AcDbCircle
 10
268.6896689999999
 20
153.671718
 30
0.0
 40
1.5
100
AcDbArc
 50
343.5179999999999
 51
90.0
  0
CIRCLE
  5
9DAC
330
9C06
100
AcDbEntity
  8
1
  6
Continuous
100
AcDbCircle
 10
48.956628
 20
211.171718
 30
0.0
 40
2.5
  0
ARC
  5
9DAD
330
9C06
100
AcDbEntity
  8
1
  6
Continuous
100
AcDbCircle
 10
139.956328
 20
237.671718
 30
0.0
 40
2.1
100
AcDbArc
 50
270.0
 51
0.0
  0
ARC
  5
9DAE
330
9C06
100
AcDbEntity
  8
1
  6
Continuous
100
AcDbCircle
 10
167.956328
 20
237.671718
 30
0.0
 40
2.1
100
AcDbArc
 50
180.0
 51
270.0
  0
ARC
  5
9DAF
330
9C06
100
AcDbEntity
  8
1
  6
Continuous
100
AcDbCircle
 10
139.956328
 20
237.671718
 30
0.0
 40
0.5
100
AcDbArc
 50
270.0
 51
0.0
  0
ARC
  5
9DB0
330
9C06
100
AcDbEntity
  8
1
  6
Continuous
100
AcDbCircle
 10
167.956328
 20
237.671718
 30
0.0
 40
0.5
100
AcDbArc
 50
180.0
 51
270.0
  0
ARC
  5
9DB1
330
9C06
100
AcDbEntity
  8
1
  6
Continuous
100
AcDbCircle
 10
139.956328
 20
336.650711
 30
0.0
 40
2.1
100
AcDbArc
 50
2.386699999999998
 51
53.47059999999999
  0
ARC
  5
9DB2
330
9C06
100
AcDbEntity
  8
1
  6
Continuous
100
AcDbCircle
 10
167.954328
 20
336.6497109999999
 30
0.0
 40
2.1
100
AcDbArc
 50
126.467
 51
177.576
  0
ARC
  5
9DB3
330
9C06
100
AcDbEntity
  8
1
  6
Continuous
100
AcDbCircle
 10
153.956328
 20
217.171718
 30
0.0
 40
10.0
100
AcDbArc
 50
180.0
 51
0.00001
  0
ARC
  5
9DB4
330
9C06
100
AcDbEntity
  8
1
  6
Continuous
100
AcDbCircle
 10
314.6026689999998
 20
212.124718
 30
0.0
 40
10.0
100
AcDbArc
 50
330.314
 51
8.163089999999996
  0
ARC
  5
9DB5
330
9C06
100
AcDbEntity
  8
1
  6
Continuous
100
AcDbCircle
 10
316.173669
 20
212.428718
 30
0.0
 40
10.0
100
AcDbArc
 50
330.314
 51
8.163089999999996
  0
ARC
  5
9DB6
330
9C06
100
AcDbEntity
  8
1
  6
Continuous
100
AcDbCircle
 10
526.479604
 20
217.171718
 30
0.0
 40
10.0
100
AcDbArc
 50
180.0
 51
0.00001
  0
ARC
  5
9DB7
330
9C06
100
AcDbEntity
  8
1
  6
Continuous
100
AcDbCircle
 10
36.856628
 20
61.80402700000001
 30
0.0
 40
2.0
100
AcDbArc
 50
90.0
 51
180.0
  0
ARC
  5
9DB8
330
9C06
100
AcDbEntity
  8
1
  6
Continuous
100
AcDbCircle
 10
36.856628
 20
61.80402700000001
 30
0.0
 40
0.4
100
AcDbArc
 50
90.0
 51
180.0
  0
ARC
  5
9DB9
330
9C06
100
AcDbEntity
  8
1
  6
Continuous
100
AcDbCircle
 10
61.056328
 20
61.80402700000001
 30
0.0
 40
2.0
100
AcDbArc
 50
0.0
 51
90.0
  0
ARC
  5
9DBA
330
9C06
100
AcDbEntity
  8
1
  6
Continuous
100
AcDbCircle
 10
61.056328
 20
61.80402700000001
 30
0.0
 40
0.4
100
AcDbArc
 50
0.0
 51
90.0
  0
ARC
  5
9DBB
330
9C06
100
AcDbEntity
  8
1
  6
Continuous
100
AcDbCircle
 10
36.956628
 20
335.8387109999998
 30
0.0
 40
2.0
100
AcDbArc
 50
180.0
 51
270.0
  0
ARC
  5
9DBC
330
9C06
100
AcDbEntity
  8
1
  6
Continuous
100
AcDbCircle
 10
36.856628
 20
335.7387109999999
 30
0.0
 40
2.0
100
AcDbArc
 50
180.0
 51
270.0
  0
ARC
  5
9DBD
330
9C06
100
AcDbEntity
  8
1
  6
Continuous
100
AcDbCircle
 10
60.956328
 20
335.8387109999998
 30
0.0
 40
2.0
100
AcDbArc
 50
270.0
 51
0.0
  0
ARC
  5
9DBE
330
9C06
100
AcDbEntity
  8
1
  6
Continuous
100
AcDbCircle
 10
61.056328
 20
335.7387109999999
 30
0.0
 40
2.0
100
AcDbArc
 50
270.0
 51
0.0
  0
ARC
  5
9DBF
330
9C06
100
AcDbEntity
  8
1
  6
Continuous
100
AcDbCircle
 10
141.6063279999999
 20
338.7387109999999
 30
0.0
 40
2.0
100
AcDbArc
 50
180.0
 51
270.0
  0
ARC
  5
9DC0
330
9C06
100
AcDbEntity
  8
1
  6
Continuous
100
AcDbCircle
 10
166.306328
 20
338.7387109999999
 30
0.0
 40
2.0
100
AcDbArc
 50
270.0
 51
0.0
  0
ARC
  5
9DC1
330
9C06
100
AcDbEntity
  8
1
  6
Continuous
100
AcDbCircle
 10
143.1063279999999
 20
340.7387109999999
 30
0.0
 40
3.5
100
AcDbArc
 50
90.0
 51
180.0
  0
ARC
  5
9DC2
330
9C06
100
AcDbEntity
  8
1
  6
Continuous
100
AcDbCircle
 10
164.806328
 20
340.7387109999999
 30
0.0
 40
3.5
100
AcDbArc
 50
0.0
 51
90.0
  0
ARC
  5
9DC3
330
9C06
100
AcDbEntity
  8
1
  6
Continuous
100
AcDbCircle
 10
264.723003
 20
211.171718
 30
0.0
 40
2.833333
100
AcDbArc
 50
118.072487
 51
241.9275129999999
  0
ARC
  5
9DC4
330
9C06
100
AcDbEntity
  8
1
  6
Continuous
100
AcDbCircle
 10
48.956628
 20
62.37069399999999
 30
0.0
 40
2.833333
100
AcDbArc
 50
28.072487
 51
151.9275129999998
  0
ARC
  5
9DC5
330
9C06
100
AcDbEntity
  8
1
  6
Continuous
100
AcDbCircle
 10
48.956628
 20
335.1720439999998
 30
0.0
 40
2.833333
100
AcDbArc
 50
208.072487
 51
331.9275129999998
  0
ARC
  5
9DC6
330
9C06
100
AcDbEntity
  8
1
  6
Continuous
100
AcDbCircle
 10
268.039669
 20
191.4217179999999
 30
0.0
 40
4.75
100
AcDbArc
 50
140.2123119999999
 51
180.0
  0
ARC
  5
9DC7
330
9C06
100
AcDbEntity
  8
1
  6
Continuous
100
AcDbCircle
 10
275.166111
 20
240.171718
 30
0.0
 40
2.5
100
AcDbArc
 50
355.502814
 51
175.502814
  0
LINE
  5
9DC8
330
9C06
100
AcDbEntity
  8
4
  6
CENTER
100
AcDbLine
 10
271.166111
 20
240.171718
 30
0.0
 11
279.166111
 21
240.171718
 31
0.0
  0
LINE
  5
9DC9
330
9C06
100
AcDbEntity
  8
4
  6
CENTER
100
AcDbLine
 10
275.166111
 20
236.171718
 30
0.0
 11
275.166111
 21
244.171718
 31
0.0
  0
LINE
  5
9DCA
330
9C06
100
AcDbEntity
  8
1
  6
Continuous
100
AcDbLine
 10
277.658414
 20
239.9756919999999
 30
0.0
 11
272.7819719999998
 21
177.9756919999999
 31
0.0
  0
LINE
  5
9DCB
330
9C06
100
AcDbEntity
  8
1
  6
Continuous
100
AcDbLine
 10
272.673808
 20
240.367743
 30
0.0
 11
267.797366
 21
178.367743
 31
0.0
  0
LINE
  5
9DCC
330
9C06
100
AcDbEntity
  8
1
  6
Continuous
100
AcDbLine
 10
415.4796039999998
 20
242.671718
 30
0.0
 11
447.479604
 21
242.671718
 31
0.0
  0
LINE
  5
9DCD
330
9C06
100
AcDbEntity
  8
1
  6
Continuous
100
AcDbLine
 10
415.4796039999998
 20
237.671718
 30
0.0
 11
447.479604
 21
237.671718
 31
0.0
  0
ARC
  5
9DCE
330
9C06
100
AcDbEntity
  8
1
  6
Continuous
100
AcDbCircle
 10
415.4796039999998
 20
236.171718
 30
0.0
 40
1.5
100
AcDbArc
 50
90.0
 51
180.0
  0
ARC
  5
9DCF
330
9C06
100
AcDbEntity
  8
1
  6
Continuous
100
AcDbCircle
 10
447.479604
 20
236.171718
 30
0.0
 40
1.5
100
AcDbArc
 50
0.0
 51
90.0
  0
ARC
  5
9DD0
330
9C06
100
AcDbEntity
  8
1
  6
Continuous
100
AcDbCircle
 10
415.4796039999998
 20
236.171718
 30
0.0
 40
6.5
100
AcDbArc
 50
90.0
 51
180.0
  0
ARC
  5
9DD1
330
9C06
100
AcDbEntity
  8
1
  6
Continuous
100
AcDbCircle
 10
447.479604
 20
236.171718
 30
0.0
 40
6.5
100
AcDbArc
 50
0.0
 51
90.0
  0
LINE
  5
9DD2
330
9C06
100
AcDbEntity
  8
1
  6
Continuous
100
AcDbLine
 10
32.95662800000001
 20
237.671718
 30
0.0
 11
64.956328
 21
237.671718
 31
0.0
  0
LINE
  5
9DD3
330
9C06
100
AcDbEntity
  8
1
  6
Continuous
100
AcDbLine
 10
32.95662800000001
 20
242.671718
 30
0.0
 11
64.956328
 21
242.671718
 31
0.0
  0
LINE
  5
9DD4
330
9C06
100
AcDbEntity
  8
4
  6
CENTER
100
AcDbLine
 10
23.853952
 20
240.171718
 30
0.0
 11
72.853952
 21
240.171718
 31
0.0
  0
ARC
  5
9DD5
330
9C06
100
AcDbEntity
  8
1
  6
Continuous
100
AcDbCircle
 10
32.95662800000001
 20
236.171718
 30
0.0
 40
6.5
100
AcDbArc
 50
90.0
 51
180.0
  0
ARC
  5
9DD6
330
9C06
100
AcDbEntity
  8
1
  6
Continuous
100
AcDbCircle
 10
64.956328
 20
236.171718
 30
0.0
 40
6.5
100
AcDbArc
 50
0.0
 51
90.0
  0
ARC
  5
9DD7
330
9C06
100
AcDbEntity
  8
1
  6
Continuous
100
AcDbCircle
 10
32.95662800000001
 20
236.171718
 30
0.0
 40
1.5
100
AcDbArc
 50
90.0
 51
180.0
  0
ARC
  5
9DD8
330
9C06
100
AcDbEntity
  8
1
  6
Continuous
100
AcDbCircle
 10
64.956328
 20
236.171718
 30
0.0
 40
1.5
100
AcDbArc
 50
0.0
 51
90.0
  0
LINE
  5
9DD9
330
9C06
100
AcDbEntity
  8
1
  6
Continuous
100
AcDbLine
 10
70.726652
 20
343.849946
 30
0.0
 11
66.596976
 21
339.708298
 31
0.0
  0
ARC
  5
9DDA
330
9C06
100
AcDbEntity
  8
1
  6
Continuous
100
AcDbCircle
 10
28.956928
 20
345.6151529999999
 30
0.0
 40
2.5
100
AcDbArc
 50
90.0
 51
224.917069
  0
LINE
  5
9DDB
330
9C06
100
AcDbEntity
  8
1
  6
Continuous
100
AcDbLine
 10
27.186604
 20
343.849946
 30
0.0
 11
31.31628
 21
339.708298
 31
0.0
  0
ARC
  5
9DDC
330
9C06
100
AcDbEntity
  8
1
  6
Continuous
100
AcDbCircle
 10
34.85692800000001
 20
343.2387109999999
 30
0.0
 40
5.0
100
AcDbArc
 50
224.917069
 51
270.0
  0
ARC
  5
9DDD
330
9C06
100
AcDbEntity
  8
1
  6
Continuous
100
AcDbCircle
 10
68.956328
 20
51.927585
 30
0.0
 40
2.5
100
AcDbArc
 50
270.0
 51
44.91706899999999
  0
LINE
  5
9DDE
330
9C06
100
AcDbEntity
  8
1
  6
Continuous
100
AcDbLine
 10
70.726652
 20
53.69279200000001
 30
0.0
 11
66.596976
 21
57.83444
 31
0.0
  0
ARC
  5
9DDF
330
9C06
100
AcDbEntity
  8
1
  6
Continuous
100
AcDbCircle
 10
63.056328
 20
54.30402700000001
 30
0.0
 40
5.0
100
AcDbArc
 50
44.91706899999999
 51
90.0
  0
LINE
  5
9DE0
330
9C06
100
AcDbEntity
  8
1
  6
Continuous
100
AcDbLine
 10
68.956328
 20
49.427585
 30
0.0
 11
63.306328
 21
49.427585
 31
0.0
  0
ARC
  5
9DE1
330
9C06
100
AcDbEntity
  8
1
  6
Continuous
100
AcDbCircle
 10
34.85692800000001
 20
54.30402700000001
 30
0.0
 40
5.0
100
AcDbArc
 50
90.0
 51
135.0829309999998
  0
LINE
  5
9DE2
330
9C06
100
AcDbEntity
  8
1
  6
Continuous
100
AcDbLine
 10
27.186604
 20
53.69279200000001
 30
0.0
 11
31.31628
 21
57.83444
 31
0.0
  0
ARC
  5
9DE3
330
9C06
100
AcDbEntity
  8
1
  6
Continuous
100
AcDbCircle
 10
28.956928
 20
51.927585
 30
0.0
 40
2.5
100
AcDbArc
 50
135.0829309999998
 51
270.0
  0
LINE
  5
9DE4
330
9C06
100
AcDbEntity
  8
1
  6
Continuous
100
AcDbLine
 10
34.606628
 20
49.427585
 30
0.0
 11
28.97172799999999
 21
49.427585
 31
0.0
  0
LINE
  5
9DE5
330
9C06
100
AcDbEntity
  8
1
  6
Continuous
100
AcDbLine
 10
67.18600399999999
 20
50.162379
 30
0.0
 11
63.056328
 21
54.30402700000001
 31
0.0
  0
LINE
  5
9DE6
330
9C06
100
AcDbEntity
  8
1
  6
Continuous
100
AcDbLine
 10
30.72725200000001
 20
50.162379
 30
0.0
 11
34.856628
 21
54.303726
 31
0.0
  0
LINE
  5
9DE7
330
9C06
100
AcDbEntity
  8
4
  6
CENTER
100
AcDbLine
 10
77.456328
 20
51.376629
 30
0.0
 11
77.456328
 21
42.17662899999999
 31
0.0
  0
LINE
  5
9DE8
330
9C06
100
AcDbEntity
  8
4
  6
CENTER
100
AcDbLine
 10
20.456628
 20
51.376629
 30
0.0
 11
20.456628
 21
42.17662899999999
 31
0.0
  0
LINE
  5
9DE9
330
9C06
100
AcDbEntity
  8
4
  6
CENTER
100
AcDbLine
 10
26.456628
 20
51.376629
 30
0.0
 11
26.456628
 21
42.17662899999999
 31
0.0
  0
LINE
  5
9DEA
330
9C06
100
AcDbEntity
  8
4
  6
CENTER
100
AcDbLine
 10
71.456328
 20
51.376629
 30
0.0
 11
71.456328
 21
42.17662899999999
 31
0.0
  0
LINE
  5
9DEB
330
9C06
100
AcDbEntity
  8
4
  6
CENTER
100
AcDbLine
 10
182.456328
 20
354.8865979999998
 30
0.0
 11
182.456328
 21
345.6865979999999
 31
0.0
  0
LINE
  5
9DEC
330
9C06
100
AcDbEntity
  8
4
  6
CENTER
100
AcDbLine
 10
125.4563279999999
 20
354.8865979999998
 30
0.0
 11
125.4563279999999
 21
345.6865979999999
 31
0.0
  0
LINE
  5
9DED
330
9C06
100
AcDbEntity
  8
4
  6
CENTER
100
AcDbLine
 10
71.456328
 20
354.8865979999998
 30
0.0
 11
71.456328
 21
345.6865979999999
 31
0.0
  0
LINE
  5
9DEE
330
9C06
100
AcDbEntity
  8
4
  6
CENTER
100
AcDbLine
 10
77.456328
 20
354.8865979999998
 30
0.0
 11
77.456328
 21
345.6865979999999
 31
0.0
  0
LINE
  5
9DEF
330
9C06
100
AcDbEntity
  8
4
  6
CENTER
100
AcDbLine
 10
26.456628
 20
354.8865979999998
 30
0.0
 11
26.456628
 21
345.6865979999999
 31
0.0
  0
LINE
  5
9DF0
330
9C06
100
AcDbEntity
  8
4
  6
CENTER
100
AcDbLine
 10
20.456628
 20
354.8865979999998
 30
0.0
 11
20.456628
 21
345.6865979999999
 31
0.0
  0
LINE
  5
9DF1
330
9C06
100
AcDbEntity
  8
4
  6
CENTER
100
AcDbLine
 10
270.289669
 20
174.171718
 30
0.0
 11
270.289669
 21
182.171718
 31
0.0
  0
LINE
  5
9DF2
330
9C06
100
AcDbEntity
  8
4
  6
CENTER
100
AcDbLine
 10
266.289669
 20
178.171718
 30
0.0
 11
274.289669
 21
178.171718
 31
0.0
  0
ENDSEC
  0
SECTION
  2
OBJECTS
  0
DICTIONARY
  5
9BF4
330
0
100
AcDbDictionary
281
     1
  3
ACAD_CIP_PREVIOUS_PRODUCT_INFO
350
9E56
  3
ACAD_COLOR
350
9E38
  3
ACAD_DETAILVIEWSTYLE
350
9E51
  3
ACAD_GROUP
350
9BF5
  3
ACAD_LAYOUT
350
9C01
  3
ACAD_MATERIAL
350
9E06
  3
ACAD_MLEADERSTYLE
350
9E4D
  3
ACAD_MLINESTYLE
350
9BFE
  3
ACAD_PLOTSETTINGS
350
9C00
  3
ACAD_PLOTSTYLENAME
350
9E04
  3
ACAD_SCALELIST
350
9E3B
  3
ACAD_SECTIONVIEWSTYLE
350
9E4F
  3
ACAD_TABLESTYLE
350
9E39
  3
ACAD_VISUALSTYLE
350
9E1F
  3
ACDB_RECOMPOSE_DATA
350
9E74
  3
AcDbVariableDictionary
350
9E67
  3
DWGPROPS
350
9E75
  0
DICTIONARY
  5
9E57
330
9BF8
100
AcDbDictionary
280
     1
281
     1
  3
ADSK_XREC_LAYER_RECONCILED
360
9E58
  0
DICTIONARY
  5
9E59
330
9C0E
100
AcDbDictionary
280
     1
281
     1
  3
ADSK_XREC_LAYER_RECONCILED
360
9E5A
  0
DICTIONARY
  5
9E5B
330
9C0F
100
AcDbDictionary
280
     1
281
     1
  3
ADSK_XREC_LAYER_RECONCILED
360
9E5C
  0
DICTIONARY
  5
9E5D
330
9C10
100
AcDbDictionary
280
     1
281
     1
  3
ADSK_XREC_LAYER_RECONCILED
360
9E5E
  0
DICTIONARY
  5
9E5F
330
9C11
100
AcDbDictionary
280
     1
281
     1
  3
ADSK_XREC_LAYER_RECONCILED
360
9E60
  0
DICTIONARY
  5
9E61
330
9C12
100
AcDbDictionary
280
     1
281
     1
  3
ADSK_XREC_LAYER_RECONCILED
360
9E62
  0
DICTIONARY
  5
9E63
330
9C13
100
AcDbDictionary
280
     1
281
     1
  3
ADSK_XREC_LAYER_RECONCILED
360
9E64
  0
DICTIONARY
  5
9E65
330
9C14
100
AcDbDictionary
280
     1
281
     1
  3
ADSK_XREC_LAYER_RECONCILED
360
9E66
  0
DICTIONARY
  5
9DFF
330
9C06
100
AcDbDictionary
281
     1
  3
ACAD_LAYOUTSELFREF
350
9E00
  0
DICTIONARY
  5
9DFD
330
9C02
100
AcDbDictionary
281
     1
  3
ACAD_LAYOUTSELFREF
350
9DFE
  0
XRECORD
  5
9E56
102
{ACAD_REACTORS
330
9BF4
102
}
330
9BF4
100
AcDbXrecord
280
     1
300
ACDLT
300
2014
300
ACDLT_F_S
  0
DICTIONARY
  5
9E38
102
{ACAD_REACTORS
330
9BF4
102
}
330
9BF4
100
AcDbDictionary
281
     1
  0
DICTIONARY
  5
9E51
102
{ACAD_REACTORS
330
9BF4
102
}
330
9BF4
100
AcDbDictionary
281
     1
  3
Imperial24
350
9E52
  0
DICTIONARY
  5
9BF5
102
{ACAD_REACTORS
330
9BF4
102
}
330
9BF4
100
AcDbDictionary
281
     1
  0
DICTIONARY
  5
9C01
102
{ACAD_REACTORS
330
9BF4
102
}
330
9BF4
100
AcDbDictionary
281
     1
  3
Model
350
9E53
  3
レイアウト1
350
9E54
  0
DICTIONARY
  5
9E06
102
{ACAD_REACTORS
330
9BF4
102
}
330
9BF4
100
AcDbDictionary
281
     1
  3
ByBlock
350
9E0F
  3
ByLayer
350
9E07
  3
Global
350
9E17
  0
DICTIONARY
  5
9E4D
102
{ACAD_REACTORS
330
9BF4
102
}
330
9BF4
100
AcDbDictionary
281
     1
  3
Standard
350
9E4E
  0
DICTIONARY
  5
9BFE
102
{ACAD_REACTORS
330
9BF4
102
}
330
9BF4
100
AcDbDictionary
281
     1
  3
STANDARD
350
9BFF
  0
DICTIONARY
  5
9C00
102
{ACAD_REACTORS
330
9BF4
102
}
330
9BF4
100
AcDbDictionary
281
     1
  0
ACDBDICTIONARYWDFLT
  5
9E04
102
{ACAD_REACTORS
330
9BF4
102
}
330
9BF4
100
AcDbDictionary
281
     1
  3
Normal
350
9E05
100
AcDbDictionaryWithDefault
340
9E05
  0
DICTIONARY
  5
9E3B
102
{ACAD_REACTORS
330
9BF4
102
}
330
9BF4
100
AcDbDictionary
281
     1
  3
A0
350
9E3C
  3
A1
350
9E3D
  3
A2
350
9E3E
  3
A3
350
9E3F
  3
A4
350
9E40
  3
A5
350
9E41
  3
A6
350
9E42
  3
A7
350
9E43
  3
A8
350
9E44
  3
A9
350
9E45
  3
B0
350
9E46
  3
B1
350
9E47
  3
B2
350
9E48
  3
B3
350
9E49
  3
B4
350
9E4A
  3
B5
350
9E4B
  3
B6
350
9E4C
  0
DICTIONARY
  5
9E4F
102
{ACAD_REACTORS
330
9BF4
102
}
330
9BF4
100
AcDbDictionary
281
     1
  3
Imperial24
350
9E50
  0
DICTIONARY
  5
9E39
102
{ACAD_REACTORS
330
9BF4
102
}
330
9BF4
100
AcDbDictionary
281
     1
  3
Standard
350
9E3A
  0
DICTIONARY
  5
9E1F
102
{ACAD_REACTORS
330
9BF4
102
}
330
9BF4
100
AcDbDictionary
281
     1
  3
2dWireframe
350
9E25
  3
Basic
350
9E24
  3
Brighten
350
9E2B
  3
ColorChange
350
9E2F
  3
Conceptual
350
9E28
  3
Dim
350
9E2A
  3
EdgeColorOff
350
9E37
  3
Facepattern
350
9E2E
  3
Flat
350
9E20
  3
FlatWithEdges
350
9E21
  3
Gouraud
350
9E22
  3
GouraudWithEdges
350
9E23
  3
Hidden
350
9E27
  3
JitterOff
350
9E35
  3
Linepattern
350
9E2D
  3
OverhangOff
350
9E36
  3
Realistic
350
9E29
  3
Shaded
350
9E34
  3
Shaded with edges
350
9E33
  3
Shades of Gray
350
9E30
  3
Sketchy
350
9E31
  3
Thicken
350
9E2C
  3
Wireframe
350
9E26
  3
X-Ray
350
9E32
  0
XRECORD
  5
9E74
102
{ACAD_REACTORS
330
9BF4
102
}
330
9BF4
100
AcDbXrecord
280
     1
 90
        1
330
9E3A
  0
DICTIONARY
  5
9E67
102
{ACAD_REACTORS
330
9BF4
102
}
330
9BF4
100
AcDbDictionary
281
     1
  3
CANNOSCALE
350
9E6C
  3
CMLEADERSTYLE
350
9E69
  3
CTABLESTYLE
350
9E68
  3
CVIEWDETAILSTYLE
350
9E6A
  3
CVIEWSECTIONSTYLE
350
9E6B
  3
DIMASSOC
350
9E6F
  3
INDEXCTL
350
9E6E
  3
SORTENTS
350
9E6D
  3
XCLIPFRAME
350
9E70
  0
XRECORD
  5
9E75
102
{ACAD_REACTORS
330
9BF4
102
}
330
9BF4
100
AcDbXrecord
280
     1
  1
DWGPROPS COOKIE
  2

  3

  4

  6

  7

  8
Yoshitsune
  9

300
=
301
=
302
=
303
=
304
=
305
=
306
=
307
=
308
=
309
=
 40
0.0000131134259259
 41
2451066.603987732
 42
2457192.603120521
  1

 90
        0
  0
XRECORD
  5
9E58
102
{ACAD_REACTORS
330
9E57
102
}
330
9E57
100
AcDbXrecord
280
     1
290
     1
  0
XRECORD
  5
9E5A
102
{ACAD_REACTORS
330
9E59
102
}
330
9E59
100
AcDbXrecord
280
     1
290
     1
  0
XRECORD
  5
9E5C
102
{ACAD_REACTORS
330
9E5B
102
}
330
9E5B
100
AcDbXrecord
280
     1
290
     1
  0
XRECORD
  5
9E5E
102
{ACAD_REACTORS
330
9E5D
102
}
330
9E5D
100
AcDbXrecord
280
     1
290
     1
  0
XRECORD
  5
9E60
102
{ACAD_REACTORS
330
9E5F
102
}
330
9E5F
100
AcDbXrecord
280
     1
290
     1
  0
XRECORD
  5
9E62
102
{ACAD_REACTORS
330
9E61
102
}
330
9E61
100
AcDbXrecord
280
     1
290
     1
  0
XRECORD
  5
9E64
102
{ACAD_REACTORS
330
9E63
102
}
330
9E63
100
AcDbXrecord
280
     1
290
     1
  0
XRECORD
  5
9E66
102
{ACAD_REACTORS
330
9E65
102
}
330
9E65
100
AcDbXrecord
280
     1
290
     1
  0
XRECORD
  5
9E00
102
{ACAD_REACTORS
330
9DFF
102
}
330
9DFF
100
AcDbXrecord
280
     1
340
9C06
  0
XRECORD
  5
9DFE
102
{ACAD_REACTORS
330
9DFD
102
}
330
9DFD
100
AcDbXrecord
280
     1
340
9C02
  0
ACDBDETAILVIEWSTYLE
  5
9E52
102
{ACAD_XDICTIONARY
360
9EAD
102
}
102
{ACAD_REACTORS
330
9E51
102
}
330
9E51
100
AcDbModelDocViewStyle
 70
     0
  3
Imperial24
290
     0
100
AcDbDetailViewStyle
 70
     0
 71
     0
 90
        3
 71
     1
340
9BF9
 40
0.24
340
0
 40
0.24
300

 40
0.36
280
     3
 71
     2
340
9BFD
 90
       25
 71
     3
340
9BF9
 40
0.24
 90
        1
 40
0.75
 90
        1
300
%<\AcVar ViewType \f "%tc1">% %<\AcVar ViewDetailId>%\PSCALE %<\AcVar ViewScale \f "%sn">%
 71
     4
340
9BFD
 90
       25
340
9BFD
 90
       25
280
     0
  0
LAYOUT
  5
9E53
102
{ACAD_XDICTIONARY
360
9EAF
102
}
102
{ACAD_REACTORS
330
9C01
102
}
330
9C01
100
AcDbPlotSettings
  1

  2
Canon LBP9100C
  4

  6

 40
0.0
 41
0.0
 42
0.0
 43
0.0
 44
0.0
 45
0.0
 46
0.0
 47
0.0
 48
0.0
 49
0.0
140
0.0
141
0.0
142
1.0
143
1.0
 70
  1712
 72
     0
 73
     0
 74
     0
  7

 75
     0
147
1.0
148
0.0
149
0.0
100
AcDbLayout
  1
Model
 70
     1
 71
     0
 10
0.0
 20
0.0
 11
12.0
 21
9.0
 12
0.0
 22
0.0
 32
0.0
 14
0.0
 24
0.0
 34
0.0
 15
0.0
 25
0.0
 35
0.0
146
0.0
 13
0.0
 23
0.0
 33
0.0
 16
1.0
 26
0.0
 36
0.0
 17
0.0
 27
1.0
 37
0.0
 76
     0
330
9C06
331
9DFC
  0
LAYOUT
  5
9E54
102
{ACAD_XDICTIONARY
360
9EB1
102
}
102
{ACAD_REACTORS
330
9C01
102
}
330
9C01
100
AcDbPlotSettings
  1

  2
Canon LBP9100C
  4

  6

 40
0.0
 41
0.0
 42
0.0
 43
0.0
 44
0.0
 45
0.0
 46
0.0
 47
0.0
 48
0.0
 49
0.0
140
0.0
141
0.0
142
1.0
143
1.0
 70
   688
 72
     0
 73
     0
 74
     5
  7

 75
    16
147
1.0
148
0.0
149
0.0
100
AcDbLayout
  1
レイアウト1
 70
     0
 71
     1
 10
0.0
 20
0.0
 11
420.0
 21
297.0
 12
0.0
 22
0.0
 32
0.0
 14
1.000000000000000E+20
 24
1.000000000000000E+20
 34
1.000000000000000E+20
 15
-1.000000000000000E+20
 25
-1.000000000000000E+20
 35
-1.000000000000000E+20
146
0.0
 13
0.0
 23
0.0
 33
0.0
 16
1.0
 26
0.0
 36
0.0
 17
0.0
 27
1.0
 37
0.0
 76
     0
330
9C02
  0
MATERIAL
  5
9E0F
102
{ACAD_XDICTIONARY
360
9E10
102
}
102
{ACAD_REACTORS
330
9E06
102
}
330
9E06
100
AcDbMaterial
  1
ByBlock
 72
     0
 43
0.0208333333333333
 43
0.0
 43
0.0
 43
0.0
 43
0.0
 43
0.0208333333333333
 43
0.0
 43
0.0
 43
0.0
 43
0.0
 43
1.0
 43
0.0
 43
0.0
 43
0.0
 43
0.0
 43
1.0
 77
     0
 47
0.0208333333333333
 47
0.0
 47
0.0
 47
0.0
 47
0.0
 47
0.0208333333333333
 47
0.0
 47
0.0
 47
0.0
 47
0.0
 47
1.0
 47
0.0
 47
0.0
 47
0.0
 47
0.0
 47
1.0
171
     0
 49
0.0208333333333333
 49
0.0
 49
0.0
 49
0.0
 49
0.0
 49
0.0208333333333333
 49
0.0
 49
0.0
 49
0.0
 49
0.0
 49
1.0
 49
0.0
 49
0.0
 49
0.0
 49
0.0
 49
1.0
175
     0
142
0.0208333333333333
142
0.0
142
0.0
142
0.0
142
0.0
142
0.0208333333333333
142
0.0
142
0.0
142
0.0
142
0.0
142
1.0
142
0.0
142
0.0
142
0.0
142
0.0
142
1.0
179
     0
144
0.0208333333333333
144
0.0
144
0.0
144
0.0
144
0.0
144
0.0208333333333333
144
0.0
144
0.0
144
0.0
144
0.0
144
1.0
144
0.0
144
0.0
144
0.0
144
0.0
144
1.0
147
0.0208333333333333
147
0.0
147
0.0
147
0.0
147
0.0
147
0.0208333333333333
147
0.0
147
0.0
147
0.0
147
0.0
147
1.0
147
0.0
147
0.0
147
0.0
147
0.0
147
1.0
  0
MATERIAL
  5
9E07
102
{ACAD_XDICTIONARY
360
9E08
102
}
102
{ACAD_REACTORS
330
9E06
102
}
330
9E06
100
AcDbMaterial
  1
ByLayer
 72
     0
 43
0.0208333333333333
 43
0.0
 43
0.0
 43
0.0
 43
0.0
 43
0.0208333333333333
 43
0.0
 43
0.0
 43
0.0
 43
0.0
 43
1.0
 43
0.0
 43
0.0
 43
0.0
 43
0.0
 43
1.0
 77
     0
 47
0.0208333333333333
 47
0.0
 47
0.0
 47
0.0
 47
0.0
 47
0.0208333333333333
 47
0.0
 47
0.0
 47
0.0
 47
0.0
 47
1.0
 47
0.0
 47
0.0
 47
0.0
 47
0.0
 47
1.0
171
     0
 49
0.0208333333333333
 49
0.0
 49
0.0
 49
0.0
 49
0.0
 49
0.0208333333333333
 49
0.0
 49
0.0
 49
0.0
 49
0.0
 49
1.0
 49
0.0
 49
0.0
 49
0.0
 49
0.0
 49
1.0
175
     0
142
0.0208333333333333
142
0.0
142
0.0
142
0.0
142
0.0
142
0.0208333333333333
142
0.0
142
0.0
142
0.0
142
0.0
142
1.0
142
0.0
142
0.0
142
0.0
142
0.0
142
1.0
179
     0
144
0.0208333333333333
144
0.0
144
0.0
144
0.0
144
0.0
144
0.0208333333333333
144
0.0
144
0.0
144
0.0
144
0.0
144
1.0
144
0.0
144
0.0
144
0.0
144
0.0
144
1.0
147
0.0208333333333333
147
0.0
147
0.0
147
0.0
147
0.0
147
0.0208333333333333
147
0.0
147
0.0
147
0.0
147
0.0
147
1.0
147
0.0
147
0.0
147
0.0
147
0.0
147
1.0
  0
MATERIAL
  5
9E17
102
{ACAD_XDICTIONARY
360
9E18
102
}
102
{ACAD_REACTORS
330
9E06
102
}
330
9E06
100
AcDbMaterial
  1
Global
 72
     0
 43
0.0208333333333333
 43
0.0
 43
0.0
 43
0.0
 43
0.0
 43
0.0208333333333333
 43
0.0
 43
0.0
 43
0.0
 43
0.0
 43
1.0
 43
0.0
 43
0.0
 43
0.0
 43
0.0
 43
1.0
 77
     0
 47
0.0208333333333333
 47
0.0
 47
0.0
 47
0.0
 47
0.0
 47
0.0208333333333333
 47
0.0
 47
0.0
 47
0.0
 47
0.0
 47
1.0
 47
0.0
 47
0.0
 47
0.0
 47
0.0
 47
1.0
171
     0
 49
0.0208333333333333
 49
0.0
 49
0.0
 49
0.0
 49
0.0
 49
0.0208333333333333
 49
0.0
 49
0.0
 49
0.0
 49
0.0
 49
1.0
 49
0.0
 49
0.0
 49
0.0
 49
0.0
 49
1.0
175
     0
142
0.0208333333333333
142
0.0
142
0.0
142
0.0
142
0.0
142
0.0208333333333333
142
0.0
142
0.0
142
0.0
142
0.0
142
1.0
142
0.0
142
0.0
142
0.0
142
0.0
142
1.0
179
     0
144
0.0208333333333333
144
0.0
144
0.0
144
0.0
144
0.0
144
0.0208333333333333
144
0.0
144
0.0
144
0.0
144
0.0
144
1.0
144
0.0
144
0.0
144
0.0
144
0.0
144
1.0
147
0.0208333333333333
147
0.0
147
0.0
147
0.0
147
0.0
147
0.0208333333333333
147
0.0
147
0.0
147
0.0
147
0.0
147
1.0
147
0.0
147
0.0
147
0.0
147
0.0
147
1.0
  0
MLEADERSTYLE
  5
9E4E
102
{ACAD_REACTORS
330
9E4D
102
}
330
9E4D
100
AcDbMLeaderStyle
170
     2
171
     1
172
     0
 90
        2
 40
0.0
 41
0.0
173
     1
 91
-1056964608
340
9BFB
 92
       -2
290
     1
 42
0.09
291
     1
 43
0.36
  3
Standard
 44
0.18
300

342
9BF9
174
     1
178
     6
175
     1
176
     0
 93
-1056964608
 45
0.18
292
     0
297
     0
 46
0.18
 94
-1056964608
 47
1.0
 49
1.0
140
1.0
293
     1
141
0.0
294
     1
177
     0
142
1.0
295
     0
296
     0
143
0.125
1001
ACAD_MLEADERVER
1070
     2
  0
MLINESTYLE
  5
9BFF
102
{ACAD_REACTORS
330
9BFE
102
}
330
9BFE
100
AcDbMlineStyle
  2
STANDARD
 70
     0
  3

 62
   256
 51
90.0
 52
90.0
 71
     2
 49
0.5
 62
   256
  6
BYLAYER
 49
-0.5
 62
   256
  6
BYLAYER
  0
ACDBPLACEHOLDER
  5
9E05
102
{ACAD_REACTORS
330
9E04
102
}
330
9E04
  0
SCALE
  5
9E3C
102
{ACAD_REACTORS
330
9E3B
102
}
330
9E3B
100
AcDbScale
 70
     0
300
1:1
140
1.0
141
1.0
290
     1
  0
SCALE
  5
9E3D
102
{ACAD_REACTORS
330
9E3B
102
}
330
9E3B
100
AcDbScale
 70
     0
300
1/128" = 1'-0"
140
0.0078125
141
12.0
290
     0
  0
SCALE
  5
9E3E
102
{ACAD_REACTORS
330
9E3B
102
}
330
9E3B
100
AcDbScale
 70
     0
300
1/64" = 1'-0"
140
0.015625
141
12.0
290
     0
  0
SCALE
  5
9E3F
102
{ACAD_REACTORS
330
9E3B
102
}
330
9E3B
100
AcDbScale
 70
     0
300
1/32" = 1'-0"
140
0.03125
141
12.0
290
     0
  0
SCALE
  5
9E40
102
{ACAD_REACTORS
330
9E3B
102
}
330
9E3B
100
AcDbScale
 70
     0
300
1/16" = 1'-0"
140
0.0625
141
12.0
290
     0
  0
SCALE
  5
9E41
102
{ACAD_REACTORS
330
9E3B
102
}
330
9E3B
100
AcDbScale
 70
     0
300
3/32" = 1'-0"
140
0.09375
141
12.0
290
     0
  0
SCALE
  5
9E42
102
{ACAD_REACTORS
330
9E3B
102
}
330
9E3B
100
AcDbScale
 70
     0
300
1/8" = 1'-0"
140
0.125
141
12.0
290
     0
  0
SCALE
  5
9E43
102
{ACAD_REACTORS
330
9E3B
102
}
330
9E3B
100
AcDbScale
 70
     0
300
3/16" = 1'-0"
140
0.1875
141
12.0
290
     0
  0
SCALE
  5
9E44
102
{ACAD_REACTORS
330
9E3B
102
}
330
9E3B
100
AcDbScale
 70
     0
300
1/4" = 1'-0"
140
0.25
141
12.0
290
     0
  0
SCALE
  5
9E45
102
{ACAD_REACTORS
330
9E3B
102
}
330
9E3B
100
AcDbScale
 70
     0
300
3/8" = 1'-0"
140
0.375
141
12.0
290
     0
  0
SCALE
  5
9E46
102
{ACAD_REACTORS
330
9E3B
102
}
330
9E3B
100
AcDbScale
 70
     0
300
1/2" = 1'-0"
140
0.5
141
12.0
290
     0
  0
SCALE
  5
9E47
102
{ACAD_REACTORS
330
9E3B
102
}
330
9E3B
100
AcDbScale
 70
     0
300
3/4" = 1'-0"
140
0.75
141
12.0
290
     0
  0
SCALE
  5
9E48
102
{ACAD_REACTORS
330
9E3B
102
}
330
9E3B
100
AcDbScale
 70
     0
300
1" = 1'-0"
140
1.0
141
12.0
290
     0
  0
SCALE
  5
9E49
102
{ACAD_REACTORS
330
9E3B
102
}
330
9E3B
100
AcDbScale
 70
     0
300
1-1/2" = 1'-0"
140
1.5
141
12.0
290
     0
  0
SCALE
  5
9E4A
102
{ACAD_REACTORS
330
9E3B
102
}
330
9E3B
100
AcDbScale
 70
     0
300
3" = 1'-0"
140
3.0
141
12.0
290
     0
  0
SCALE
  5
9E4B
102
{ACAD_REACTORS
330
9E3B
102
}
330
9E3B
100
AcDbScale
 70
     0
300
6" = 1'-0"
140
6.0
141
12.0
290
     0
  0
SCALE
  5
9E4C
102
{ACAD_REACTORS
330
9E3B
102
}
330
9E3B
100
AcDbScale
 70
     0
300
1'-0" = 1'-0"
140
12.0
141
12.0
290
     0
  0
ACDBSECTIONVIEWSTYLE
  5
9E50
102
{ACAD_XDICTIONARY
360
9EAB
102
}
102
{ACAD_REACTORS
330
9E4F
102
}
330
9E4F
100
AcDbModelDocViewStyle
 70
     0
  3
Imperial24
290
     0
100
AcDbSectionViewStyle
 70
     0
 71
     0
 90
       78
 71
     1
340
9BF9
 40
0.24
340
0
340
0
 40
0.24
300
I, O, Q, S, X, Z
 40
0.48
 90
        3
 40
0.18
 90
        1
 71
     2
340
9BFD
 90
       25
340
9BFD
 90
       50
 40
0.24
 40
0.0
 40
0.24
 71
     3
340
9BF9
 40
0.24
 90
        1
 40
0.75
 90
        1
300
%<\AcVar ViewType \f "%tc1">% %<\AcVar ViewSectionStartId>%-%<\AcVar ViewSectionEndId>%\PSCALE %<\AcVar ViewScale \f "%sn">%
 71
     4
300
ANSI31
 40
1.0
 90
        0
290
     0
290
     0
 90
        6
 40
0.0
 40
1.570796326794896
 40
0.2617993877991494
 40
1.308996938995747
 40
-0.2617993877991494
 40
1.832595714594046
  0
TABLESTYLE
  5
9E3A
102
{ACAD_XDICTIONARY
360
9E72
102
}
102
{ACAD_REACTORS
330
9E39
102
}
330
9E39
100
AcDbTableStyle
  3
Standard
 70
     0
 71
     0
 40
0.06
 41
0.06
280
     0
281
     0
  7
STANDARD
140
0.18
170
     2
 62
     0
 63
     7
283
     0
274
    -2
284
     1
 64
     0
275
    -2
285
     1
 65
     0
276
    -2
286
     1
 66
     0
277
    -2
287
     1
 67
     0
278
    -2
288
     1
 68
     0
279
    -2
289
     1
 69
     0
  7
STANDARD
140
0.25
170
     5
 62
     0
 63
     7
283
     0
274
    -2
284
     1
 64
     0
275
    -2
285
     1
 65
     0
276
    -2
286
     1
 66
     0
277
    -2
287
     1
 67
     0
278
    -2
288
     1
 68
     0
279
    -2
289
     1
 69
     0
  7
STANDARD
140
0.18
170
     5
 62
     0
 63
     7
283
     0
274
    -2
284
     1
 64
     0
275
    -2
285
     1
 65
     0
276
    -2
286
     1
 66
     0
277
    -2
287
     1
 67
     0
278
    -2
288
     1
 68
     0
279
    -2
289
     1
 69
     0
  0
VISUALSTYLE
  5
9E25
102
{ACAD_XDICTIONARY
360
9E83
102
}
102
{ACAD_REACTORS
330
9E1F
102
}
330
9E1F
100
AcDbVisualStyle
  2
2dWireframe
 70
     4
 71
     0
 72
     2
 73
     0
 90
        0
 40
-0.6
 41
-30.0
 62
     5
 63
     7
 74
     1
 91
        4
 64
     7
 65
   257
 75
     1
175
     1
 42
1.0
 92
        0
 66
   257
 43
1.0
 76
     1
 77
     6
 78
     2
 67
     7
 79
     5
170
     0
171
     0
290
     0
174
     0
 93
        1
 44
0.0
173
     0
291
     0
 45
0.0
1001
ACAD
1000
AcDbSavedByObjectVersion
1070
     0
  0
VISUALSTYLE
  5
9E24
102
{ACAD_XDICTIONARY
360
9E81
102
}
102
{ACAD_REACTORS
330
9E1F
102
}
330
9E1F
100
AcDbVisualStyle
  2
Basic
 70
     7
 71
     1
 72
     0
 73
     1
 90
        0
 40
-0.6
 41
-30.0
 62
     5
 63
     7
 74
     0
 91
        4
 64
     7
 65
   257
 75
     1
175
     1
 42
1.0
 92
        8
 66
     7
 43
1.0
 76
     1
 77
     6
 78
     2
 67
     7
 79
     5
170
     0
171
     0
290
     0
174
     0
 93
        1
 44
0.0
173
     0
291
     1
 45
0.0
1001
ACAD
1000
AcDbSavedByObjectVersion
1070
     0
  0
VISUALSTYLE
  5
9E2B
102
{ACAD_XDICTIONARY
360
9E8F
102
}
102
{ACAD_REACTORS
330
9E1F
102
}
330
9E1F
100
AcDbVisualStyle
  2
Brighten
 70
    12
 71
     2
 72
     2
 73
     0
 90
        0
 40
-0.6
 41
-30.0
 62
     5
 63
     7
 74
     1
 91
        4
 64
     7
 65
   257
 75
     1
175
     1
 42
1.0
 92
        8
 66
     7
 43
1.0
 76
     1
 77
     6
 78
     2
 67
     7
 79
     5
170
     0
171
     0
290
     0
174
     0
 93
        1
 44
50.0
173
     0
291
     1
 45
0.0
1001
ACAD
1000
AcDbSavedByObjectVersion
1070
     0
  0
VISUALSTYLE
  5
9E2F
102
{ACAD_XDICTIONARY
360
9E97
102
}
102
{ACAD_REACTORS
330
9E1F
102
}
330
9E1F
100
AcDbVisualStyle
  2
ColorChange
 70
    16
 71
     2
 72
     2
 73
     3
 90
        0
 40
-0.6
 41
-30.0
 62
     5
 63
     8
 74
     1
 91
        4
 64
     7
 65
   257
 75
     1
175
     1
 42
1.0
 92
        8
 66
     8
 43
1.0
 76
     1
 77
     6
 78
     2
 67
     7
 79
     5
170
     0
171
     0
290
     0
174
     0
 93
        1
 44
0.0
173
     0
291
     1
 45
0.0
1001
ACAD
1000
AcDbSavedByObjectVersion
1070
     0
  0
VISUALSTYLE
  5
9E28
102
{ACAD_XDICTIONARY
360
9E89
102
}
102
{ACAD_REACTORS
330
9E1F
102
}
330
9E1F
100
AcDbVisualStyle
  2
Conceptual
 70
     9
 71
     3
 72
     2
 73
     0
 90
        0
 40
-0.6
 41
-30.0
 62
     5
 63
     7
 74
     2
 91
        2
 64
     7
 65
   257
 75
     1
175
     1
 42
179.0
 92
        8
 66
     7
 43
1.0
 76
     1
 77
     6
 78
     2
 67
     7
 79
     3
170
     0
171
     0
290
     0
174
     0
 93
        1
 44
0.0
173
     0
291
     0
 45
0.0
1001
ACAD
1000
AcDbSavedByObjectVersion
1070
     0
  0
VISUALSTYLE
  5
9E2A
102
{ACAD_XDICTIONARY
360
9E8D
102
}
102
{ACAD_REACTORS
330
9E1F
102
}
330
9E1F
100
AcDbVisualStyle
  2
Dim
 70
    11
 71
     2
 72
     2
 73
     0
 90
        0
 40
-0.6
 41
-30.0
 62
     5
 63
     7
 74
     1
 91
        4
 64
     7
 65
   257
 75
     1
175
     1
 42
1.0
 92
        8
 66
     7
 43
1.0
 76
     1
 77
     6
 78
     2
 67
     7
 79
     5
170
     0
171
     0
290
     0
174
     0
 93
        1
 44
-50.0
173
     0
291
     1
 45
0.0
1001
ACAD
1000
AcDbSavedByObjectVersion
1070
     0
  0
VISUALSTYLE
  5
9E37
102
{ACAD_XDICTIONARY
360
9EA7
102
}
102
{ACAD_REACTORS
330
9E1F
102
}
330
9E1F
100
AcDbVisualStyle
  2
EdgeColorOff
 70
    22
 71
     2
 72
     2
 73
     0
 90
        0
 40
-0.6
 41
-30.0
 62
     5
 63
     7
 74
     1
 91
        4
 64
     7
 65
   257
 75
     1
175
     1
 42
1.0
 92
        8
 66
     7
 43
1.0
 76
     1
 77
     6
 78
     2
 67
     7
 79
     5
170
     0
171
     0
290
     0
174
     0
 93
        1
 44
0.0
173
     0
291
     1
 45
0.0
1001
ACAD
1000
AcDbSavedByObjectVersion
1070
     0
  0
VISUALSTYLE
  5
9E2E
102
{ACAD_XDICTIONARY
360
9E95
102
}
102
{ACAD_REACTORS
330
9E1F
102
}
330
9E1F
100
AcDbVisualStyle
  2
Facepattern
 70
    15
 71
     2
 72
     2
 73
     0
 90
        0
 40
-0.6
 41
-30.0
 62
     5
 63
     7
 74
     1
 91
        4
 64
     7
 65
   257
 75
     1
175
     1
 42
1.0
 92
        8
 66
     7
 43
1.0
 76
     1
 77
     6
 78
     2
 67
     7
 79
     5
170
     0
171
     0
290
     0
174
     0
 93
        1
 44
0.0
173
     0
291
     1
 45
0.0
1001
ACAD
1000
AcDbSavedByObjectVersion
1070
     0
  0
VISUALSTYLE
  5
9E20
102
{ACAD_XDICTIONARY
360
9E79
102
}
102
{ACAD_REACTORS
330
9E1F
102
}
330
9E1F
100
AcDbVisualStyle
  2
Flat
 70
     0
 71
     2
 72
     1
 73
     1
 90
        2
 40
-0.6
 41
30.0
 62
     5
 63
     7
 74
     0
 91
        0
 64
     7
 65
   257
 75
     1
175
     1
 42
1.0
 92
        8
 66
     7
 43
1.0
 76
     1
 77
     6
 78
     2
 67
     7
 79
     5
170
     0
171
     0
290
     0
174
     0
 93
       13
 44
0.0
173
     0
291
     1
 45
0.0
1001
ACAD
1000
AcDbSavedByObjectVersion
1070
     0
  0
VISUALSTYLE
  5
9E21
102
{ACAD_XDICTIONARY
360
9E7B
102
}
102
{ACAD_REACTORS
330
9E1F
102
}
330
9E1F
100
AcDbVisualStyle
  2
FlatWithEdges
 70
     1
 71
     2
 72
     1
 73
     1
 90
        2
 40
-0.6
 41
30.0
 62
     5
 63
     7
 74
     1
 91
        0
 64
     7
 65
   257
 75
     1
175
     1
 42
1.0
 92
        0
 66
   257
 43
1.0
 76
     1
 77
     6
 78
     2
 67
     7
 79
     5
170
     0
171
     0
290
     0
174
     0
 93
       13
 44
0.0
173
     0
291
     1
 45
0.0
1001
ACAD
1000
AcDbSavedByObjectVersion
1070
     0
  0
VISUALSTYLE
  5
9E22
102
{ACAD_XDICTIONARY
360
9E7D
102
}
102
{ACAD_REACTORS
330
9E1F
102
}
330
9E1F
100
AcDbVisualStyle
  2
Gouraud
 70
     2
 71
     2
 72
     2
 73
     1
 90
        2
 40
-0.6
 41
30.0
 62
     5
 63
     7
 74
     0
 91
        0
 64
     7
 65
   257
 75
     1
175
     1
 42
1.0
 92
        0
 66
     7
 43
1.0
 76
     1
 77
     6
 78
     2
 67
     7
 79
     5
170
     0
171
     0
290
     0
174
     0
 93
       13
 44
0.0
173
     0
291
     1
 45
0.0
1001
ACAD
1000
AcDbSavedByObjectVersion
1070
     0
  0
VISUALSTYLE
  5
9E23
102
{ACAD_XDICTIONARY
360
9E7F
102
}
102
{ACAD_REACTORS
330
9E1F
102
}
330
9E1F
100
AcDbVisualStyle
  2
GouraudWithEdges
 70
     3
 71
     2
 72
     2
 73
     1
 90
        2
 40
-0.6
 41
30.0
 62
     5
 63
     7
 74
     1
 91
        0
 64
     7
 65
   257
 75
     1
175
     1
 42
1.0
 92
        0
 66
   257
 43
1.0
 76
     1
 77
     6
 78
     2
 67
     7
 79
     5
170
     0
171
     0
290
     0
174
     0
 93
       13
 44
0.0
173
     0
291
     1
 45
0.0
1001
ACAD
1000
AcDbSavedByObjectVersion
1070
     0
  0
VISUALSTYLE
  5
9E27
102
{ACAD_XDICTIONARY
360
9E87
102
}
102
{ACAD_REACTORS
330
9E1F
102
}
330
9E1F
100
AcDbVisualStyle
  2
Hidden
 70
     6
 71
     1
 72
     2
 73
     2
 90
        0
 40
-0.6
 41
-30.0
 62
     5
 63
     7
 74
     2
 91
        2
 64
     7
 65
   257
 75
     2
175
     1
 42
40.0
 92
        0
 66
   257
 43
1.0
 76
     1
 77
     6
 78
     2
 67
     7
 79
     3
170
     0
171
     0
290
     0
174
     0
 93
        1
 44
0.0
173
     0
291
     0
 45
0.0
1001
ACAD
1000
AcDbSavedByObjectVersion
1070
     0
  0
VISUALSTYLE
  5
9E35
102
{ACAD_XDICTIONARY
360
9EA3
102
}
102
{ACAD_REACTORS
330
9E1F
102
}
330
9E1F
100
AcDbVisualStyle
  2
JitterOff
 70
    20
 71
     2
 72
     2
 73
     0
 90
        0
 40
-0.6
 41
-30.0
 62
     5
 63
     7
 74
     1
 91
        4
 64
     7
 65
   257
 75
     1
175
     1
 42
1.0
 92
       10
 66
     7
 43
1.0
 76
     1
 77
     6
 78
     2
 67
     7
 79
     5
170
     0
171
     0
290
     0
174
     0
 93
        1
 44
0.0
173
     0
291
     1
 45
0.0
1001
ACAD
1000
AcDbSavedByObjectVersion
1070
     0
  0
VISUALSTYLE
  5
9E2D
102
{ACAD_XDICTIONARY
360
9E93
102
}
102
{ACAD_REACTORS
330
9E1F
102
}
330
9E1F
100
AcDbVisualStyle
  2
Linepattern
 70
    14
 71
     2
 72
     2
 73
     0
 90
        0
 40
-0.6
 41
-30.0
 62
     5
 63
     7
 74
     1
 91
        4
 64
     7
 65
   257
 75
     7
175
     7
 42
1.0
 92
        8
 66
     7
 43
1.0
 76
     1
 77
     6
 78
     2
 67
     7
 79
     5
170
     0
171
     0
290
     0
174
     0
 93
        1
 44
0.0
173
     0
291
     1
 45
0.0
1001
ACAD
1000
AcDbSavedByObjectVersion
1070
     0
  0
VISUALSTYLE
  5
9E36
102
{ACAD_XDICTIONARY
360
9EA5
102
}
102
{ACAD_REACTORS
330
9E1F
102
}
330
9E1F
100
AcDbVisualStyle
  2
OverhangOff
 70
    21
 71
     2
 72
     2
 73
     0
 90
        0
 40
-0.6
 41
-30.0
 62
     5
 63
     7
 74
     1
 91
        4
 64
     7
 65
   257
 75
     1
175
     1
 42
1.0
 92
        9
 66
     7
 43
1.0
 76
     1
 77
     6
 78
     2
 67
     7
 79
     5
170
     0
171
     0
290
     0
174
     0
 93
        1
 44
0.0
173
     0
291
     1
 45
0.0
1001
ACAD
1000
AcDbSavedByObjectVersion
1070
     0
  0
VISUALSTYLE
  5
9E29
102
{ACAD_XDICTIONARY
360
9E8B
102
}
102
{ACAD_REACTORS
330
9E1F
102
}
330
9E1F
100
AcDbVisualStyle
  2
Realistic
 70
     8
 71
     2
 72
     3
 73
     0
 90
        2
 40
-0.6
 41
30.0
 62
     5
 63
     7
 74
     0
 91
        0
 64
     7
 65
   257
 75
     1
175
     1
 42
1.0
 92
        8
 66
   257
 43
1.0
 76
     1
 77
     6
 78
     2
 67
     7
 79
     3
170
     0
171
     0
290
     0
174
     0
 93
       13
 44
0.0
173
     0
291
     0
 45
0.0
1001
ACAD
1000
AcDbSavedByObjectVersion
1070
     0
  0
VISUALSTYLE
  5
9E34
102
{ACAD_XDICTIONARY
360
9EA1
102
}
102
{ACAD_REACTORS
330
9E1F
102
}
330
9E1F
100
AcDbVisualStyle
  2
Shaded
 70
    27
 71
     2
 72
     2
 73
     1
 90
        2
 40
-0.6
 41
30.0
 62
     5
 63
     7
 74
     0
 91
        4
 64
     7
 65
   257
 75
     1
175
     1
 42
1.0
 92
        8
 66
   257
 43
1.0
 76
     1
 77
     6
 78
     2
 67
     8
 79
     3
170
     0
171
     0
290
     0
174
     0
 93
        5
 44
0.0
173
     0
291
     0
 45
0.0
1001
ACAD
1000
AcDbSavedByObjectVersion
1070
     0
  0
VISUALSTYLE
  5
9E33
102
{ACAD_XDICTIONARY
360
9E9F
102
}
102
{ACAD_REACTORS
330
9E1F
102
}
330
9E1F
100
AcDbVisualStyle
  2
Shaded with edges
 70
    26
 71
     2
 72
     2
 73
     1
 90
        2
 40
-0.6
 41
30.0
 62
     5
 63
     7
 74
     1
 91
       10
 64
     7
 65
   257
 75
     2
175
     1
 42
1.0
 92
        8
 66
   257
 43
1.0
 76
     1
 77
     6
 78
     2
 67
     7
 79
     3
170
     0
171
     0
290
     0
174
     0
 93
        5
 44
0.0
173
     0
291
     0
 45
0.0
1001
ACAD
1000
AcDbSavedByObjectVersion
1070
     0
  0
VISUALSTYLE
  5
9E30
102
{ACAD_XDICTIONARY
360
9E99
102
}
102
{ACAD_REACTORS
330
9E1F
102
}
330
9E1F
100
AcDbVisualStyle
  2
Shades of Gray
 70
    23
 71
     2
 72
     2
 73
     3
 90
        0
 40
-0.6
 41
-30.0
 62
     5
 63
     7
 74
     2
 91
        2
 64
     7
 65
     7
 75
     1
175
     1
 42
40.0
 92
        8
 66
     7
 43
1.0
 76
     1
 77
     6
 78
     2
 67
     7
 79
     3
170
     0
171
     0
290
     0
174
     0
 93
        1
 44
0.0
173
     0
291
     0
 45
0.0
1001
ACAD
1000
AcDbSavedByObjectVersion
1070
     0
  0
VISUALSTYLE
  5
9E31
102
{ACAD_XDICTIONARY
360
9E9B
102
}
102
{ACAD_REACTORS
330
9E1F
102
}
330
9E1F
100
AcDbVisualStyle
  2
Sketchy
 70
    24
 71
     1
 72
     2
 73
     2
 90
        0
 40
-0.6
 41
-30.0
 62
     5
 63
     7
 74
     2
 91
        2
 64
     7
 65
     7
 75
     1
175
     1
 42
40.0
 92
       11
 66
     7
 43
1.0
 76
     1
 77
     6
 78
     2
 67
     7
 79
     6
170
     0
171
     0
290
     0
174
     0
 93
        1
 44
0.0
173
     0
291
     0
 45
0.0
1001
ACAD
1000
AcDbSavedByObjectVersion
1070
     0
  0
VISUALSTYLE
  5
9E2C
102
{ACAD_XDICTIONARY
360
9E91
102
}
102
{ACAD_REACTORS
330
9E1F
102
}
330
9E1F
100
AcDbVisualStyle
  2
Thicken
 70
    13
 71
     2
 72
     2
 73
     0
 90
        0
 40
-0.6
 41
-30.0
 62
     5
 63
     7
 74
     1
 91
        4
 64
     7
 65
   257
 75
     1
175
     1
 42
1.0
 92
       12
 66
     7
 43
1.0
 76
     1
 77
     6
 78
     2
 67
     7
 79
     5
170
     0
171
     0
290
     0
174
     0
 93
        1
 44
0.0
173
     0
291
     1
 45
0.0
1001
ACAD
1000
AcDbSavedByObjectVersion
1070
     0
  0
VISUALSTYLE
  5
9E26
102
{ACAD_XDICTIONARY
360
9E85
102
}
102
{ACAD_REACTORS
330
9E1F
102
}
330
9E1F
100
AcDbVisualStyle
  2
Wireframe
 70
     5
 71
     0
 72
     2
 73
     0
 90
        0
 40
-0.6
 41
-30.0
 62
     5
 63
     7
 74
     1
 91
        4
 64
     7
 65
   257
 75
     1
175
     1
 42
1.0
 92
        0
 66
   257
 43
1.0
 76
     1
 77
     6
 78
     2
 67
     7
 79
     3
170
     0
171
     0
290
     0
174
     0
 93
        1
 44
0.0
173
     0
291
     0
 45
0.0
1001
ACAD
1000
AcDbSavedByObjectVersion
1070
     0
  0
VISUALSTYLE
  5
9E32
102
{ACAD_XDICTIONARY
360
9E9D
102
}
102
{ACAD_REACTORS
330
9E1F
102
}
330
9E1F
100
AcDbVisualStyle
  2
X-Ray
 70
    25
 71
     2
 72
     2
 73
     1
 90
        1
 40
0.5
 41
-30.0
 62
     5
 63
     7
 74
     1
 91
        0
 64
     7
 65
   257
 75
     1
175
     1
 42
1.0
 92
        8
 66
     7
 43
1.0
 76
     1
 77
     6
 78
     2
 67
     7
 79
     3
170
     0
171
     0
290
     0
174
     0
 93
       13
 44
0.0
173
     0
291
     0
 45
0.0
1001
ACAD
1000
AcDbSavedByObjectVersion
1070
     0
  0
DICTIONARYVAR
  5
9E6C
102
{ACAD_REACTORS
330
9E67
102
}
330
9E67
100
DictionaryVariables
280
     0
  1
1:1
  0
DICTIONARYVAR
  5
9E69
102
{ACAD_REACTORS
330
9E67
102
}
330
9E67
100
DictionaryVariables
280
     0
  1
STANDARD
  0
DICTIONARYVAR
  5
9E68
102
{ACAD_REACTORS
330
9E67
102
}
330
9E67
100
DictionaryVariables
280
     0
  1
STANDARD
  0
DICTIONARYVAR
  5
9E6A
102
{ACAD_REACTORS
330
9E67
102
}
330
9E67
100
DictionaryVariables
280
     0
  1
Imperial24
  0
DICTIONARYVAR
  5
9E6B
102
{ACAD_REACTORS
330
9E67
102
}
330
9E67
100
DictionaryVariables
280
     0
  1
Imperial24
  0
DICTIONARYVAR
  5
9E6F
102
{ACAD_REACTORS
330
9E67
102
}
330
9E67
100
DictionaryVariables
280
     0
  1
1
  0
DICTIONARYVAR
  5
9E6E
102
{ACAD_REACTORS
330
9E67
102
}
330
9E67
100
DictionaryVariables
280
     0
  1
0
  0
DICTIONARYVAR
  5
9E6D
102
{ACAD_REACTORS
330
9E67
102
}
330
9E67
100
DictionaryVariables
280
     0
  1
127
  0
DICTIONARYVAR
  5
9E70
102
{ACAD_REACTORS
330
9E67
102
}
330
9E67
100
DictionaryVariables
280
     0
  1
2
  0
DICTIONARY
  5
9EAD
330
9E52
100
AcDbDictionary
280
     1
281
     1
  3
ACAD_XREC_ROUNDTRIP
360
9EAE
  0
DICTIONARY
  5
9EAF
330
9E53
100
AcDbDictionary
280
     1
281
     1
  3
ACAD_XREC_ROUNDTRIP
360
9EB0
  0
DICTIONARY
  5
9EB1
330
9E54
100
AcDbDictionary
280
     1
281
     1
  3
ACAD_XREC_ROUNDTRIP
360
9EB2
  0
DICTIONARY
  5
9E10
330
9E0F
100
AcDbDictionary
280
     1
281
     1
  3
ACAD_XREC_ROUNDTRIP
360
9E77
  3
BUMPTILE
360
9E12
  3
DIFFUSETILE
360
9E11
  3
OPACITYTILE
360
9E15
  3
REFLECTIONTILE
360
9E14
  3
REFRACTIONTILE
360
9E16
  3
SPECULARTILE
360
9E13
  0
DICTIONARY
  5
9E08
330
9E07
100
AcDbDictionary
280
     1
281
     1
  3
ACAD_XREC_ROUNDTRIP
360
9E76
  3
BUMPTILE
360
9E0A
  3
DIFFUSETILE
360
9E09
  3
OPACITYTILE
360
9E0D
  3
REFLECTIONTILE
360
9E0C
  3
REFRACTIONTILE
360
9E0E
  3
SPECULARTILE
360
9E0B
  0
DICTIONARY
  5
9E18
330
9E17
100
AcDbDictionary
280
     1
281
     1
  3
ACAD_XREC_ROUNDTRIP
360
9E78
  3
BUMPTILE
360
9E1A
  3
DIFFUSETILE
360
9E19
  3
OPACITYTILE
360
9E1D
  3
REFLECTIONTILE
360
9E1C
  3
REFRACTIONTILE
360
9E1E
  3
SPECULARTILE
360
9E1B
  0
DICTIONARY
  5
9EAB
330
9E50
100
AcDbDictionary
280
     1
281
     1
  3
ACAD_XREC_ROUNDTRIP
360
9EAC
  0
DICTIONARY
  5
9E72
330
9E3A
100
AcDbDictionary
280
     1
281
     1
  3
ACAD_ROUNDTRIP_2008_TABLESTYLE_CELLSTYLEMAP
360
9E73
  3
ACAD_XREC_ROUNDTRIP
360
9EA9
  0
DICTIONARY
  5
9E83
330
9E25
100
AcDbDictionary
280
     1
281
     1
  3
ACAD_XREC_ROUNDTRIP
360
9E84
  0
DICTIONARY
  5
9E81
330
9E24
100
AcDbDictionary
280
     1
281
     1
  3
ACAD_XREC_ROUNDTRIP
360
9E82
  0
DICTIONARY
  5
9E8F
330
9E2B
100
AcDbDictionary
280
     1
281
     1
  3
ACAD_XREC_ROUNDTRIP
360
9E90
  0
DICTIONARY
  5
9E97
330
9E2F
100
AcDbDictionary
280
     1
281
     1
  3
ACAD_XREC_ROUNDTRIP
360
9E98
  0
DICTIONARY
  5
9E89
330
9E28
100
AcDbDictionary
280
     1
281
     1
  3
ACAD_XREC_ROUNDTRIP
360
9E8A
  0
DICTIONARY
  5
9E8D
330
9E2A
100
AcDbDictionary
280
     1
281
     1
  3
ACAD_XREC_ROUNDTRIP
360
9E8E
  0
DICTIONARY
  5
9EA7
330
9E37
100
AcDbDictionary
280
     1
281
     1
  3
ACAD_XREC_ROUNDTRIP
360
9EA8
  0
DICTIONARY
  5
9E95
330
9E2E
100
AcDbDictionary
280
     1
281
     1
  3
ACAD_XREC_ROUNDTRIP
360
9E96
  0
DICTIONARY
  5
9E79
330
9E20
100
AcDbDictionary
280
     1
281
     1
  3
ACAD_XREC_ROUNDTRIP
360
9E7A
  0
DICTIONARY
  5
9E7B
330
9E21
100
AcDbDictionary
280
     1
281
     1
  3
ACAD_XREC_ROUNDTRIP
360
9E7C
  0
DICTIONARY
  5
9E7D
330
9E22
100
AcDbDictionary
280
     1
281
     1
  3
ACAD_XREC_ROUNDTRIP
360
9E7E
  0
DICTIONARY
  5
9E7F
330
9E23
100
AcDbDictionary
280
     1
281
     1
  3
ACAD_XREC_ROUNDTRIP
360
9E80
  0
DICTIONARY
  5
9E87
330
9E27
100
AcDbDictionary
280
     1
281
     1
  3
ACAD_XREC_ROUNDTRIP
360
9E88
  0
DICTIONARY
  5
9EA3
330
9E35
100
AcDbDictionary
280
     1
281
     1
  3
ACAD_XREC_ROUNDTRIP
360
9EA4
  0
DICTIONARY
  5
9E93
330
9E2D
100
AcDbDictionary
280
     1
281
     1
  3
ACAD_XREC_ROUNDTRIP
360
9E94
  0
DICTIONARY
  5
9EA5
330
9E36
100
AcDbDictionary
280
     1
281
     1
  3
ACAD_XREC_ROUNDTRIP
360
9EA6
  0
DICTIONARY
  5
9E8B
330
9E29
100
AcDbDictionary
280
     1
281
     1
  3
ACAD_XREC_ROUNDTRIP
360
9E8C
  0
DICTIONARY
  5
9EA1
330
9E34
100
AcDbDictionary
280
     1
281
     1
  3
ACAD_XREC_ROUNDTRIP
360
9EA2
  0
DICTIONARY
  5
9E9F
330
9E33
100
AcDbDictionary
280
     1
281
     1
  3
ACAD_XREC_ROUNDTRIP
360
9EA0
  0
DICTIONARY
  5
9E99
330
9E30
100
AcDbDictionary
280
     1
281
     1
  3
ACAD_XREC_ROUNDTRIP
360
9E9A
  0
DICTIONARY
  5
9E9B
330
9E31
100
AcDbDictionary
280
     1
281
     1
  3
ACAD_XREC_ROUNDTRIP
360
9E9C
  0
DICTIONARY
  5
9E91
330
9E2C
100
AcDbDictionary
280
     1
281
     1
  3
ACAD_XREC_ROUNDTRIP
360
9E92
  0
DICTIONARY
  5
9E85
330
9E26
100
AcDbDictionary
280
     1
281
     1
  3
ACAD_XREC_ROUNDTRIP
360
9E86
  0
DICTIONARY
  5
9E9D
330
9E32
100
AcDbDictionary
280
     1
281
     1
  3
ACAD_XREC_ROUNDTRIP
360
9E9E
  0
XRECORD
  5
9EAE
102
{ACAD_REACTORS
330
9EAD
102
}
330
9EAD
100
AcDbXrecord
280
     1
102
DISPLAYNAME
  1
Imperial24
102
FLAGS
 90
        0
  0
XRECORD
  5
9EB0
102
{ACAD_REACTORS
330
9EAF
102
}
330
9EAF
100
AcDbXrecord
280
     1
102
SHADEPLOT
 70
     0
102
SHADEPLOTRESLEVEL
 70
     2
102
SHADEPLOTCUSTOMDPI
 70
   300
  0
XRECORD
  5
9EB2
102
{ACAD_REACTORS
330
9EB1
102
}
330
9EB1
100
AcDbXrecord
280
     1
102
SHADEPLOT
 70
     0
102
SHADEPLOTRESLEVEL
 70
     2
102
SHADEPLOTCUSTOMDPI
 70
   300
  0
XRECORD
  5
9E77
102
{ACAD_REACTORS
330
9E10
102
}
330
9E10
100
AcDbXrecord
280
     1
102
MATERIAL
148
0.0
149
0.0
149
0.0
 93
        0
 94
      127
282
     0
 72
     0
 77
     0
171
     0
175
     0
179
     0
273
     0
  0
XRECORD
  5
9E12
102
{ACAD_REACTORS
330
9E10
102
}
330
9E10
100
AcDbXrecord
280
     1
270
     1
271
     1
  0
XRECORD
  5
9E11
102
{ACAD_REACTORS
330
9E10
102
}
330
9E10
100
AcDbXrecord
280
     1
270
     1
271
     1
  0
XRECORD
  5
9E15
102
{ACAD_REACTORS
330
9E10
102
}
330
9E10
100
AcDbXrecord
280
     1
270
     1
271
     1
  0
XRECORD
  5
9E14
102
{ACAD_REACTORS
330
9E10
102
}
330
9E10
100
AcDbXrecord
280
     1
270
     1
271
     1
  0
XRECORD
  5
9E16
102
{ACAD_REACTORS
330
9E10
102
}
330
9E10
100
AcDbXrecord
280
     1
270
     1
271
     1
  0
XRECORD
  5
9E13
102
{ACAD_REACTORS
330
9E10
102
}
330
9E10
100
AcDbXrecord
280
     1
270
     1
271
     1
  0
XRECORD
  5
9E76
102
{ACAD_REACTORS
330
9E08
102
}
330
9E08
100
AcDbXrecord
280
     1
102
MATERIAL
148
0.0
149
0.0
149
0.0
 93
        0
 94
      127
282
     0
 72
     0
 77
     0
171
     0
175
     0
179
     0
273
     0
  0
XRECORD
  5
9E0A
102
{ACAD_REACTORS
330
9E08
102
}
330
9E08
100
AcDbXrecord
280
     1
270
     1
271
     1
  0
XRECORD
  5
9E09
102
{ACAD_REACTORS
330
9E08
102
}
330
9E08
100
AcDbXrecord
280
     1
270
     1
271
     1
  0
XRECORD
  5
9E0D
102
{ACAD_REACTORS
330
9E08
102
}
330
9E08
100
AcDbXrecord
280
     1
270
     1
271
     1
  0
XRECORD
  5
9E0C
102
{ACAD_REACTORS
330
9E08
102
}
330
9E08
100
AcDbXrecord
280
     1
270
     1
271
     1
  0
XRECORD
  5
9E0E
102
{ACAD_REACTORS
330
9E08
102
}
330
9E08
100
AcDbXrecord
280
     1
270
     1
271
     1
  0
XRECORD
  5
9E0B
102
{ACAD_REACTORS
330
9E08
102
}
330
9E08
100
AcDbXrecord
280
     1
270
     1
271
     1
  0
XRECORD
  5
9E78
102
{ACAD_REACTORS
330
9E18
102
}
330
9E18
100
AcDbXrecord
280
     1
102
MATERIAL
148
0.0
149
0.0
149
0.0
 93
        0
 94
      127
282
     0
 72
     0
 77
     0
171
     0
175
     0
179
     0
273
     0
  0
XRECORD
  5
9E1A
102
{ACAD_REACTORS
330
9E18
102
}
330
9E18
100
AcDbXrecord
280
     1
270
     1
271
     1
  0
XRECORD
  5
9E19
102
{ACAD_REACTORS
330
9E18
102
}
330
9E18
100
AcDbXrecord
280
     1
270
     1
271
     1
  0
XRECORD
  5
9E1D
102
{ACAD_REACTORS
330
9E18
102
}
330
9E18
100
AcDbXrecord
280
     1
270
     1
271
     1
  0
XRECORD
  5
9E1C
102
{ACAD_REACTORS
330
9E18
102
}
330
9E18
100
AcDbXrecord
280
     1
270
     1
271
     1
  0
XRECORD
  5
9E1E
102
{ACAD_REACTORS
330
9E18
102
}
330
9E18
100
AcDbXrecord
280
     1
270
     1
271
     1
  0
XRECORD
  5
9E1B
102
{ACAD_REACTORS
330
9E18
102
}
330
9E18
100
AcDbXrecord
280
     1
270
     1
271
     1
  0
XRECORD
  5
9EAC
102
{ACAD_REACTORS
330
9EAB
102
}
330
9EAB
100
AcDbXrecord
280
     1
102
DISPLAYNAME
  1
Imperial24
102
FLAGS
 90
        0
  0
CELLSTYLEMAP
  5
9E73
102
{ACAD_REACTORS
330
9E72
102
}
330
9E72
100
AcDbCellStyleMap
 90
        3
300
CELLSTYLE
  1
TABLEFORMAT_BEGIN
 90
        5
170
     1
 91
        0
 92
    32768
 62
   257
 93
        1
300
CONTENTFORMAT
  1
CONTENTFORMAT_BEGIN
 90
        0
 91
        0
 92
      512
 93
        0
300

 40
0.0
140
1.0
 94
        5
 62
     0
340
9BF9
144
0.25
309
CONTENTFORMAT_END
171
     0
 94
        0
309
TABLEFORMAT_END
  1
CELLSTYLE_BEGIN
 90
        1
 91
        1
300
_TITLE
309
CELLSTYLE_END
300
CELLSTYLE
  1
TABLEFORMAT_BEGIN
 90
        5
170
     1
 91
        0
 92
        0
 62
   257
 93
        1
300
CONTENTFORMAT
  1
CONTENTFORMAT_BEGIN
 90
        0
 91
        0
 92
      512
 93
        0
300

 40
0.0
140
1.0
 94
        5
 62
     0
340
9BF9
144
0.18
309
CONTENTFORMAT_END
171
     0
 94
        0
309
TABLEFORMAT_END
  1
CELLSTYLE_BEGIN
 90
        2
 91
        1
300
_HEADER
309
CELLSTYLE_END
300
CELLSTYLE
  1
TABLEFORMAT_BEGIN
 90
        5
170
     1
 91
        0
 92
        0
 62
   257
 93
        1
300
CONTENTFORMAT
  1
CONTENTFORMAT_BEGIN
 90
        0
 91
        0
 92
      512
 93
        0
300

 40
0.0
140
1.0
 94
        2
 62
     0
340
9BF9
144
0.18
309
CONTENTFORMAT_END
171
     0
 94
        0
309
TABLEFORMAT_END
  1
CELLSTYLE_BEGIN
 90
        3
 91
        2
300
_DATA
309
CELLSTYLE_END
  0
XRECORD
  5
9EA9
102
{ACAD_REACTORS
330
9E72
102
}
330
9E72
100
AcDbXrecord
280
     1
102
ACAD_ROUNDTRIP_PRE2007_TABLESTYLE
 90
      512
 91
        0
  1

 92
      512
 93
        0
  2

 94
      512
 95
        0
  3

  0
XRECORD
  5
9E84
102
{ACAD_REACTORS
330
9E83
102
}
330
9E83
100
AcDbXrecord
280
     1
102
RTVSPost2010Prop28
280
     1
102
RTVSPost2010PropOp28
 70
     1
102
RTVSPost2010Prop29
280
     1
102
RTVSPost2010PropOp29
 70
     1
102
RTVSPost2010Prop30
280
     0
102
RTVSPost2010PropOp30
 70
     1
102
RTVSPost2010Prop31
280
     0
102
RTVSPost2010PropOp31
 70
     1
102
RTVSPost2010Prop32
280
     0
102
RTVSPost2010PropOp32
 70
     1
102
RTVSPost2010Prop33
280
     0
102
RTVSPost2010PropOp33
 70
     1
102
RTVSPost2010Prop34
280
     0
102
RTVSPost2010PropOp34
 70
     1
102
RTVSPost2010Prop35
280
     0
102
RTVSPost2010PropOp35
 70
     1
102
RTVSPost2010Prop36
280
     0
102
RTVSPost2010PropOp36
 70
     1
102
RTVSPost2010Prop37
 90
       50
102
RTVSPost2010PropOp37
 70
     1
102
RTVSPost2010Prop38
140
0.0
102
RTVSPost2010PropOp38
 70
     1
102
RTVSPost2010Prop39
140
1.0
102
RTVSPost2010PropOp39
 70
     1
102
RTVSPost2010Prop40
 90
        0
102
RTVSPost2010PropOp40
 70
     1
102
RTVSPost2010Prop41ColorIndex
 90
       18
102
RTVSPost2010Prop41ColorRGB
 90
        0
102
RTVSPost2010PropOp41
 70
     1
102
RTVSPost2010Prop42
 90
       50
102
RTVSPost2010PropOp42
 70
     1
102
RTVSPost2010Prop43
 90
        3
102
RTVSPost2010PropOp43
 70
     1
102
RTVSPost2010Prop44ColorIndex
 90
        5
102
RTVSPost2010Prop44ColorRGB
 90
      255
102
RTVSPost2010PropOp44
 70
     1
102
RTVSPost2010Prop45
280
     0
102
RTVSPost2010PropOp45
 70
     1
102
RTVSPost2010Prop46
 90
       50
102
RTVSPost2010PropOp46
 70
     1
102
RTVSPost2010Prop47
 90
       50
102
RTVSPost2010PropOp47
 70
     1
102
RTVSPost2010Prop48
 90
       50
102
RTVSPost2010PropOp48
 70
     1
102
RTVSPost2010Prop49
280
     0
102
RTVSPost2010PropOp49
 70
     1
102
RTVSPost2010Prop50
 90
       50
102
RTVSPost2010PropOp50
 70
     1
102
RTVSPost2010Prop51ColorIndex
 90
      256
102
RTVSPost2010Prop51ColorRGB
 90
-16777216
102
RTVSPost2010PropOp51
 70
     0
102
RTVSPost2010Prop52
140
1.0
102
RTVSPost2010PropOp52
 70
     0
102
RTVSPost2010Prop53
 90
        2
102
RTVSPost2010PropOp53
 70
     1
102
RTVSPost2010Prop54
  1
strokes_ogs.tif
102
RTVSPost2010PropOp54
 70
     1
102
RTVSPost2010Prop55
280
     0
102
RTVSPost2010PropOp55
 70
     1
102
RTVSPost2010Prop56
140
1.0
102
RTVSPost2010PropOp56
 70
     1
102
RTVSPost2010Prop57
140
1.0
102
RTVSPost2010PropOp57
 70
     1
102
RTVSPropertyOp0
 70
     1
102
RTVSPropertyOp1
 70
     1
102
RTVSPropertyOp2
 70
     1
102
RTVSPropertyOp3
 70
     1
102
RTVSPropertyOp4
 70
     1
102
RTVSPropertyOp5
 70
     1
102
RTVSPropertyOp6
 70
     1
102
RTVSPropertyOp7
 70
     1
102
RTVSPropertyOp8
 70
     1
102
RTVSPropertyOp9
 70
     1
102
RTVSPropertyOp10
 70
     1
102
RTVSPropertyOp11
 70
     1
102
RTVSPropertyOp12
 70
     1
102
RTVSPropertyOp13
 70
     1
102
RTVSPropertyOp14
 70
     1
102
RTVSPropertyOp15
 70
     1
102
RTVSPropertyOp16
 70
     1
102
RTVSPropertyOp17
 70
     1
102
RTVSPropertyOp18
 70
     1
102
RTVSPropertyOp19
 70
     1
102
RTVSPropertyOp20
 70
     1
102
RTVSPropertyOp21
 70
     1
102
RTVSPropertyOp22
 70
     1
102
RTVSPropertyOp23
 70
     1
102
RTVSPropertyOp24
 70
     1
102
RTVSPropertyOp25
 70
     1
102
RTVSPropertyOp26
 70
     1
102
RTVSPropertyOp27
 70
     1
102
RTVSPropertyOp28
 70
     1
102
RTVSPropertyOp29
 70
     1
102
RTVSPropertyOp30
 70
     1
102
RTVSPropertyOp31
 70
     1
102
RTVSPropertyOp32
 70
     1
102
RTVSPropertyOp33
 70
     1
102
RTVSPropertyOp34
 70
     1
102
RTVSPropertyOp35
 70
     1
102
RTVSPropertyOp36
 70
     1
102
RTVSPropertyOp37
 70
     1
102
RTVSPropertyOp38
 70
     1
102
RTVSPropertyOp39
 70
     1
102
RTVSPropertyOp40
 70
     1
102
RTVSPropertyOp41
 70
     1
102
RTVSPropertyOp42
 70
     1
102
RTVSPropertyOp43
 70
     1
102
RTVSPropertyOp44
 70
     1
102
RTVSPropertyOp45
 70
     1
102
RTVSPropertyOp46
 70
     1
102
RTVSPropertyOp47
 70
     1
102
RTVSPropertyOp48
 70
     1
102
RTVSPropertyOp49
 70
     1
102
RTVSPropertyOp50
 70
     1
102
RTVSPropertyOp51
 70
     0
102
RTVSPropertyOp52
 70
     0
102
RTVSPropertyOp53
 70
     1
102
RTVSPropertyOp54
 70
     1
102
RTVSPropertyOp55
 70
     1
102
RTVSPropertyOp56
 70
     1
102
RTVSPropertyOp57
 70
     1
102
RTVSPropertyOp58
 70
     1
102
RTVSPropertyOp59
 70
     1
102
RTVSPropertyOp60
 70
     1
102
RTVSPropertyOp61
 70
     1
102
RTVSPropertyOp62
 70
     1
  0
XRECORD
  5
9E82
102
{ACAD_REACTORS
330
9E81
102
}
330
9E81
100
AcDbXrecord
280
     1
102
RTVSPost2010Prop28
280
     0
102
RTVSPost2010PropOp28
 70
     1
102
RTVSPost2010Prop29
280
     1
102
RTVSPost2010PropOp29
 70
     1
102
RTVSPost2010Prop30
280
     1
102
RTVSPost2010PropOp30
 70
     1
102
RTVSPost2010Prop31
280
     0
102
RTVSPost2010PropOp31
 70
     1
102
RTVSPost2010Prop32
280
     0
102
RTVSPost2010PropOp32
 70
     1
102
RTVSPost2010Prop33
280
     0
102
RTVSPost2010PropOp33
 70
     1
102
RTVSPost2010Prop34
280
     0
102
RTVSPost2010PropOp34
 70
     1
102
RTVSPost2010Prop35
280
     0
102
RTVSPost2010PropOp35
 70
     1
102
RTVSPost2010Prop36
280
     0
102
RTVSPost2010PropOp36
 70
     1
102
RTVSPost2010Prop37
 90
       50
102
RTVSPost2010PropOp37
 70
     1
102
RTVSPost2010Prop38
140
0.0
102
RTVSPost2010PropOp38
 70
     1
102
RTVSPost2010Prop39
140
1.0
102
RTVSPost2010PropOp39
 70
     1
102
RTVSPost2010Prop40
 90
        0
102
RTVSPost2010PropOp40
 70
     1
102
RTVSPost2010Prop41ColorIndex
 90
       18
102
RTVSPost2010Prop41ColorRGB
 90
        0
102
RTVSPost2010PropOp41
 70
     1
102
RTVSPost2010Prop42
 90
       50
102
RTVSPost2010PropOp42
 70
     1
102
RTVSPost2010Prop43
 90
        3
102
RTVSPost2010PropOp43
 70
     1
102
RTVSPost2010Prop44ColorIndex
 90
        5
102
RTVSPost2010Prop44ColorRGB
 90
      255
102
RTVSPost2010PropOp44
 70
     1
102
RTVSPost2010Prop45
280
     0
102
RTVSPost2010PropOp45
 70
     1
102
RTVSPost2010Prop46
 90
       50
102
RTVSPost2010PropOp46
 70
     1
102
RTVSPost2010Prop47
 90
       50
102
RTVSPost2010PropOp47
 70
     1
102
RTVSPost2010Prop48
 90
       50
102
RTVSPost2010PropOp48
 70
     1
102
RTVSPost2010Prop49
280
     0
102
RTVSPost2010PropOp49
 70
     1
102
RTVSPost2010Prop50
 90
       50
102
RTVSPost2010PropOp50
 70
     1
102
RTVSPost2010Prop51ColorIndex
 90
      256
102
RTVSPost2010Prop51ColorRGB
 90
-16777216
102
RTVSPost2010PropOp51
 70
     0
102
RTVSPost2010Prop52
140
1.0
102
RTVSPost2010PropOp52
 70
     0
102
RTVSPost2010Prop53
 90
        2
102
RTVSPost2010PropOp53
 70
     1
102
RTVSPost2010Prop54
  1
strokes_ogs.tif
102
RTVSPost2010PropOp54
 70
     1
102
RTVSPost2010Prop55
280
     0
102
RTVSPost2010PropOp55
 70
     1
102
RTVSPost2010Prop56
140
1.0
102
RTVSPost2010PropOp56
 70
     1
102
RTVSPost2010Prop57
140
1.0
102
RTVSPost2010PropOp57
 70
     1
102
RTVSPropertyOp0
 70
     1
102
RTVSPropertyOp1
 70
     1
102
RTVSPropertyOp2
 70
     1
102
RTVSPropertyOp3
 70
     1
102
RTVSPropertyOp4
 70
     1
102
RTVSPropertyOp5
 70
     1
102
RTVSPropertyOp6
 70
     1
102
RTVSPropertyOp7
 70
     1
102
RTVSPropertyOp8
 70
     1
102
RTVSPropertyOp9
 70
     1
102
RTVSPropertyOp10
 70
     1
102
RTVSPropertyOp11
 70
     1
102
RTVSPropertyOp12
 70
     1
102
RTVSPropertyOp13
 70
     1
102
RTVSPropertyOp14
 70
     1
102
RTVSPropertyOp15
 70
     1
102
RTVSPropertyOp16
 70
     1
102
RTVSPropertyOp17
 70
     1
102
RTVSPropertyOp18
 70
     1
102
RTVSPropertyOp19
 70
     1
102
RTVSPropertyOp20
 70
     1
102
RTVSPropertyOp21
 70
     1
102
RTVSPropertyOp22
 70
     1
102
RTVSPropertyOp23
 70
     1
102
RTVSPropertyOp24
 70
     1
102
RTVSPropertyOp25
 70
     1
102
RTVSPropertyOp26
 70
     1
102
RTVSPropertyOp27
 70
     1
102
RTVSPropertyOp28
 70
     1
102
RTVSPropertyOp29
 70
     1
102
RTVSPropertyOp30
 70
     1
102
RTVSPropertyOp31
 70
     1
102
RTVSPropertyOp32
 70
     1
102
RTVSPropertyOp33
 70
     1
102
RTVSPropertyOp34
 70
     1
102
RTVSPropertyOp35
 70
     1
102
RTVSPropertyOp36
 70
     1
102
RTVSPropertyOp37
 70
     1
102
RTVSPropertyOp38
 70
     1
102
RTVSPropertyOp39
 70
     1
102
RTVSPropertyOp40
 70
     1
102
RTVSPropertyOp41
 70
     1
102
RTVSPropertyOp42
 70
     1
102
RTVSPropertyOp43
 70
     1
102
RTVSPropertyOp44
 70
     1
102
RTVSPropertyOp45
 70
     1
102
RTVSPropertyOp46
 70
     1
102
RTVSPropertyOp47
 70
     1
102
RTVSPropertyOp48
 70
     1
102
RTVSPropertyOp49
 70
     1
102
RTVSPropertyOp50
 70
     1
102
RTVSPropertyOp51
 70
     0
102
RTVSPropertyOp52
 70
     0
102
RTVSPropertyOp53
 70
     1
102
RTVSPropertyOp54
 70
     1
102
RTVSPropertyOp55
 70
     1
102
RTVSPropertyOp56
 70
     1
102
RTVSPropertyOp57
 70
     1
102
RTVSPropertyOp58
 70
     1
102
RTVSPropertyOp59
 70
     1
102
RTVSPropertyOp60
 70
     1
102
RTVSPropertyOp61
 70
     1
102
RTVSPropertyOp62
 70
     1
  0
XRECORD
  5
9E90
102
{ACAD_REACTORS
330
9E8F
102
}
330
9E8F
100
AcDbXrecord
280
     1
102
RTVSPost2010Prop28
280
     0
102
RTVSPost2010PropOp28
 70
     1
102
RTVSPost2010Prop29
280
     1
102
RTVSPost2010PropOp29
 70
     1
102
RTVSPost2010Prop30
280
     1
102
RTVSPost2010PropOp30
 70
     1
102
RTVSPost2010Prop31
280
     0
102
RTVSPost2010PropOp31
 70
     1
102
RTVSPost2010Prop32
280
     0
102
RTVSPost2010PropOp32
 70
     1
102
RTVSPost2010Prop33
280
     0
102
RTVSPost2010PropOp33
 70
     1
102
RTVSPost2010Prop34
280
     0
102
RTVSPost2010PropOp34
 70
     1
102
RTVSPost2010Prop35
280
     0
102
RTVSPost2010PropOp35
 70
     1
102
RTVSPost2010Prop36
280
     0
102
RTVSPost2010PropOp36
 70
     1
102
RTVSPost2010Prop37
 90
       50
102
RTVSPost2010PropOp37
 70
     1
102
RTVSPost2010Prop38
140
0.0
102
RTVSPost2010PropOp38
 70
     1
102
RTVSPost2010Prop39
140
1.0
102
RTVSPost2010PropOp39
 70
     1
102
RTVSPost2010Prop40
 90
        0
102
RTVSPost2010PropOp40
 70
     1
102
RTVSPost2010Prop41ColorIndex
 90
       18
102
RTVSPost2010Prop41ColorRGB
 90
        0
102
RTVSPost2010PropOp41
 70
     1
102
RTVSPost2010Prop42
 90
       50
102
RTVSPost2010PropOp42
 70
     1
102
RTVSPost2010Prop43
 90
        3
102
RTVSPost2010PropOp43
 70
     1
102
RTVSPost2010Prop44ColorIndex
 90
        5
102
RTVSPost2010Prop44ColorRGB
 90
      255
102
RTVSPost2010PropOp44
 70
     1
102
RTVSPost2010Prop45
280
     0
102
RTVSPost2010PropOp45
 70
     1
102
RTVSPost2010Prop46
 90
       50
102
RTVSPost2010PropOp46
 70
     1
102
RTVSPost2010Prop47
 90
       50
102
RTVSPost2010PropOp47
 70
     1
102
RTVSPost2010Prop48
 90
       50
102
RTVSPost2010PropOp48
 70
     1
102
RTVSPost2010Prop49
280
     0
102
RTVSPost2010PropOp49
 70
     1
102
RTVSPost2010Prop50
 90
       50
102
RTVSPost2010PropOp50
 70
     1
102
RTVSPost2010Prop51ColorIndex
 90
      256
102
RTVSPost2010Prop51ColorRGB
 90
-16777216
102
RTVSPost2010PropOp51
 70
     0
102
RTVSPost2010Prop52
140
1.0
102
RTVSPost2010PropOp52
 70
     0
102
RTVSPost2010Prop53
 90
        2
102
RTVSPost2010PropOp53
 70
     1
102
RTVSPost2010Prop54
  1
strokes_ogs.tif
102
RTVSPost2010PropOp54
 70
     1
102
RTVSPost2010Prop55
280
     0
102
RTVSPost2010PropOp55
 70
     1
102
RTVSPost2010Prop56
140
1.0
102
RTVSPost2010PropOp56
 70
     1
102
RTVSPost2010Prop57
140
1.0
102
RTVSPost2010PropOp57
 70
     1
102
RTVSPropertyOp0
 70
     1
102
RTVSPropertyOp1
 70
     1
102
RTVSPropertyOp2
 70
     1
102
RTVSPropertyOp3
 70
     1
102
RTVSPropertyOp4
 70
     1
102
RTVSPropertyOp5
 70
     1
102
RTVSPropertyOp6
 70
     1
102
RTVSPropertyOp7
 70
     1
102
RTVSPropertyOp8
 70
     1
102
RTVSPropertyOp9
 70
     1
102
RTVSPropertyOp10
 70
     1
102
RTVSPropertyOp11
 70
     1
102
RTVSPropertyOp12
 70
     1
102
RTVSPropertyOp13
 70
     1
102
RTVSPropertyOp14
 70
     1
102
RTVSPropertyOp15
 70
     1
102
RTVSPropertyOp16
 70
     1
102
RTVSPropertyOp17
 70
     1
102
RTVSPropertyOp18
 70
     1
102
RTVSPropertyOp19
 70
     1
102
RTVSPropertyOp20
 70
     1
102
RTVSPropertyOp21
 70
     1
102
RTVSPropertyOp22
 70
     1
102
RTVSPropertyOp23
 70
     1
102
RTVSPropertyOp24
 70
     1
102
RTVSPropertyOp25
 70
     1
102
RTVSPropertyOp26
 70
     1
102
RTVSPropertyOp27
 70
     1
102
RTVSPropertyOp28
 70
     1
102
RTVSPropertyOp29
 70
     1
102
RTVSPropertyOp30
 70
     1
102
RTVSPropertyOp31
 70
     1
102
RTVSPropertyOp32
 70
     1
102
RTVSPropertyOp33
 70
     1
102
RTVSPropertyOp34
 70
     1
102
RTVSPropertyOp35
 70
     1
102
RTVSPropertyOp36
 70
     1
102
RTVSPropertyOp37
 70
     1
102
RTVSPropertyOp38
 70
     1
102
RTVSPropertyOp39
 70
     1
102
RTVSPropertyOp40
 70
     1
102
RTVSPropertyOp41
 70
     1
102
RTVSPropertyOp42
 70
     1
102
RTVSPropertyOp43
 70
     1
102
RTVSPropertyOp44
 70
     1
102
RTVSPropertyOp45
 70
     1
102
RTVSPropertyOp46
 70
     1
102
RTVSPropertyOp47
 70
     1
102
RTVSPropertyOp48
 70
     1
102
RTVSPropertyOp49
 70
     1
102
RTVSPropertyOp50
 70
     1
102
RTVSPropertyOp51
 70
     0
102
RTVSPropertyOp52
 70
     0
102
RTVSPropertyOp53
 70
     1
102
RTVSPropertyOp54
 70
     1
102
RTVSPropertyOp55
 70
     1
102
RTVSPropertyOp56
 70
     1
102
RTVSPropertyOp57
 70
     1
102
RTVSPropertyOp58
 70
     1
102
RTVSPropertyOp59
 70
     1
102
RTVSPropertyOp60
 70
     1
102
RTVSPropertyOp61
 70
     1
102
RTVSPropertyOp62
 70
     1
  0
XRECORD
  5
9E98
102
{ACAD_REACTORS
330
9E97
102
}
330
9E97
100
AcDbXrecord
280
     1
102
RTVSPost2010Prop28
280
     0
102
RTVSPost2010PropOp28
 70
     1
102
RTVSPost2010Prop29
280
     1
102
RTVSPost2010PropOp29
 70
     1
102
RTVSPost2010Prop30
280
     1
102
RTVSPost2010PropOp30
 70
     1
102
RTVSPost2010Prop31
280
     0
102
RTVSPost2010PropOp31
 70
     1
102
RTVSPost2010Prop32
280
     0
102
RTVSPost2010PropOp32
 70
     1
102
RTVSPost2010Prop33
280
     0
102
RTVSPost2010PropOp33
 70
     1
102
RTVSPost2010Prop34
280
     0
102
RTVSPost2010PropOp34
 70
     1
102
RTVSPost2010Prop35
280
     0
102
RTVSPost2010PropOp35
 70
     1
102
RTVSPost2010Prop36
280
     0
102
RTVSPost2010PropOp36
 70
     1
102
RTVSPost2010Prop37
 90
       50
102
RTVSPost2010PropOp37
 70
     1
102
RTVSPost2010Prop38
140
0.0
102
RTVSPost2010PropOp38
 70
     1
102
RTVSPost2010Prop39
140
1.0
102
RTVSPost2010PropOp39
 70
     1
102
RTVSPost2010Prop40
 90
        0
102
RTVSPost2010PropOp40
 70
     1
102
RTVSPost2010Prop41ColorIndex
 90
       18
102
RTVSPost2010Prop41ColorRGB
 90
        0
102
RTVSPost2010PropOp41
 70
     1
102
RTVSPost2010Prop42
 90
       50
102
RTVSPost2010PropOp42
 70
     1
102
RTVSPost2010Prop43
 90
        3
102
RTVSPost2010PropOp43
 70
     1
102
RTVSPost2010Prop44ColorIndex
 90
        5
102
RTVSPost2010Prop44ColorRGB
 90
      255
102
RTVSPost2010PropOp44
 70
     1
102
RTVSPost2010Prop45
280
     0
102
RTVSPost2010PropOp45
 70
     1
102
RTVSPost2010Prop46
 90
       50
102
RTVSPost2010PropOp46
 70
     1
102
RTVSPost2010Prop47
 90
       50
102
RTVSPost2010PropOp47
 70
     1
102
RTVSPost2010Prop48
 90
       50
102
RTVSPost2010PropOp48
 70
     1
102
RTVSPost2010Prop49
280
     0
102
RTVSPost2010PropOp49
 70
     1
102
RTVSPost2010Prop50
 90
       50
102
RTVSPost2010PropOp50
 70
     1
102
RTVSPost2010Prop51ColorIndex
 90
      256
102
RTVSPost2010Prop51ColorRGB
 90
-16777216
102
RTVSPost2010PropOp51
 70
     0
102
RTVSPost2010Prop52
140
1.0
102
RTVSPost2010PropOp52
 70
     0
102
RTVSPost2010Prop53
 90
        2
102
RTVSPost2010PropOp53
 70
     1
102
RTVSPost2010Prop54
  1
strokes_ogs.tif
102
RTVSPost2010PropOp54
 70
     1
102
RTVSPost2010Prop55
280
     0
102
RTVSPost2010PropOp55
 70
     1
102
RTVSPost2010Prop56
140
1.0
102
RTVSPost2010PropOp56
 70
     1
102
RTVSPost2010Prop57
140
1.0
102
RTVSPost2010PropOp57
 70
     1
102
RTVSPropertyOp0
 70
     1
102
RTVSPropertyOp1
 70
     1
102
RTVSPropertyOp2
 70
     1
102
RTVSPropertyOp3
 70
     1
102
RTVSPropertyOp4
 70
     1
102
RTVSPropertyOp5
 70
     1
102
RTVSPropertyOp6
 70
     1
102
RTVSPropertyOp7
 70
     1
102
RTVSPropertyOp8
 70
     1
102
RTVSPropertyOp9
 70
     1
102
RTVSPropertyOp10
 70
     1
102
RTVSPropertyOp11
 70
     1
102
RTVSPropertyOp12
 70
     1
102
RTVSPropertyOp13
 70
     1
102
RTVSPropertyOp14
 70
     1
102
RTVSPropertyOp15
 70
     1
102
RTVSPropertyOp16
 70
     1
102
RTVSPropertyOp17
 70
     1
102
RTVSPropertyOp18
 70
     1
102
RTVSPropertyOp19
 70
     1
102
RTVSPropertyOp20
 70
     1
102
RTVSPropertyOp21
 70
     1
102
RTVSPropertyOp22
 70
     1
102
RTVSPropertyOp23
 70
     1
102
RTVSPropertyOp24
 70
     1
102
RTVSPropertyOp25
 70
     1
102
RTVSPropertyOp26
 70
     1
102
RTVSPropertyOp27
 70
     1
102
RTVSPropertyOp28
 70
     1
102
RTVSPropertyOp29
 70
     1
102
RTVSPropertyOp30
 70
     1
102
RTVSPropertyOp31
 70
     1
102
RTVSPropertyOp32
 70
     1
102
RTVSPropertyOp33
 70
     1
102
RTVSPropertyOp34
 70
     1
102
RTVSPropertyOp35
 70
     1
102
RTVSPropertyOp36
 70
     1
102
RTVSPropertyOp37
 70
     1
102
RTVSPropertyOp38
 70
     1
102
RTVSPropertyOp39
 70
     1
102
RTVSPropertyOp40
 70
     1
102
RTVSPropertyOp41
 70
     1
102
RTVSPropertyOp42
 70
     1
102
RTVSPropertyOp43
 70
     1
102
RTVSPropertyOp44
 70
     1
102
RTVSPropertyOp45
 70
     1
102
RTVSPropertyOp46
 70
     1
102
RTVSPropertyOp47
 70
     1
102
RTVSPropertyOp48
 70
     1
102
RTVSPropertyOp49
 70
     1
102
RTVSPropertyOp50
 70
     1
102
RTVSPropertyOp51
 70
     0
102
RTVSPropertyOp52
 70
     0
102
RTVSPropertyOp53
 70
     1
102
RTVSPropertyOp54
 70
     1
102
RTVSPropertyOp55
 70
     1
102
RTVSPropertyOp56
 70
     1
102
RTVSPropertyOp57
 70
     1
102
RTVSPropertyOp58
 70
     1
102
RTVSPropertyOp59
 70
     1
102
RTVSPropertyOp60
 70
     1
102
RTVSPropertyOp61
 70
     1
102
RTVSPropertyOp62
 70
     1
  0
XRECORD
  5
9E8A
102
{ACAD_REACTORS
330
9E89
102
}
330
9E89
100
AcDbXrecord
280
     1
102
RTVSPost2010Prop28
280
     0
102
RTVSPost2010PropOp28
 70
     1
102
RTVSPost2010Prop29
280
     1
102
RTVSPost2010PropOp29
 70
     1
102
RTVSPost2010Prop30
280
     1
102
RTVSPost2010PropOp30
 70
     1
102
RTVSPost2010Prop31
280
     0
102
RTVSPost2010PropOp31
 70
     1
102
RTVSPost2010Prop32
280
     0
102
RTVSPost2010PropOp32
 70
     1
102
RTVSPost2010Prop33
280
     0
102
RTVSPost2010PropOp33
 70
     1
102
RTVSPost2010Prop34
280
     0
102
RTVSPost2010PropOp34
 70
     1
102
RTVSPost2010Prop35
280
     0
102
RTVSPost2010PropOp35
 70
     1
102
RTVSPost2010Prop36
280
     0
102
RTVSPost2010PropOp36
 70
     1
102
RTVSPost2010Prop37
 90
       50
102
RTVSPost2010PropOp37
 70
     1
102
RTVSPost2010Prop38
140
0.0
102
RTVSPost2010PropOp38
 70
     1
102
RTVSPost2010Prop39
140
1.0
102
RTVSPost2010PropOp39
 70
     1
102
RTVSPost2010Prop40
 90
        0
102
RTVSPost2010PropOp40
 70
     1
102
RTVSPost2010Prop41ColorIndex
 90
       18
102
RTVSPost2010Prop41ColorRGB
 90
        0
102
RTVSPost2010PropOp41
 70
     1
102
RTVSPost2010Prop42
 90
       50
102
RTVSPost2010PropOp42
 70
     1
102
RTVSPost2010Prop43
 90
        3
102
RTVSPost2010PropOp43
 70
     1
102
RTVSPost2010Prop44ColorIndex
 90
        5
102
RTVSPost2010Prop44ColorRGB
 90
      255
102
RTVSPost2010PropOp44
 70
     1
102
RTVSPost2010Prop45
280
     0
102
RTVSPost2010PropOp45
 70
     1
102
RTVSPost2010Prop46
 90
       50
102
RTVSPost2010PropOp46
 70
     1
102
RTVSPost2010Prop47
 90
       50
102
RTVSPost2010PropOp47
 70
     1
102
RTVSPost2010Prop48
 90
       50
102
RTVSPost2010PropOp48
 70
     1
102
RTVSPost2010Prop49
280
     0
102
RTVSPost2010PropOp49
 70
     1
102
RTVSPost2010Prop50
 90
       50
102
RTVSPost2010PropOp50
 70
     1
102
RTVSPost2010Prop51ColorIndex
 90
      256
102
RTVSPost2010Prop51ColorRGB
 90
-16777216
102
RTVSPost2010PropOp51
 70
     0
102
RTVSPost2010Prop52
140
1.0
102
RTVSPost2010PropOp52
 70
     0
102
RTVSPost2010Prop53
 90
        2
102
RTVSPost2010PropOp53
 70
     1
102
RTVSPost2010Prop54
  1
strokes_ogs.tif
102
RTVSPost2010PropOp54
 70
     1
102
RTVSPost2010Prop55
280
     0
102
RTVSPost2010PropOp55
 70
     1
102
RTVSPost2010Prop56
140
1.0
102
RTVSPost2010PropOp56
 70
     1
102
RTVSPost2010Prop57
140
1.0
102
RTVSPost2010PropOp57
 70
     1
102
RTVSPropertyOp0
 70
     1
102
RTVSPropertyOp1
 70
     1
102
RTVSPropertyOp2
 70
     1
102
RTVSPropertyOp3
 70
     1
102
RTVSPropertyOp4
 70
     1
102
RTVSPropertyOp5
 70
     1
102
RTVSPropertyOp6
 70
     1
102
RTVSPropertyOp7
 70
     1
102
RTVSPropertyOp8
 70
     1
102
RTVSPropertyOp9
 70
     1
102
RTVSPropertyOp10
 70
     1
102
RTVSPropertyOp11
 70
     1
102
RTVSPropertyOp12
 70
     1
102
RTVSPropertyOp13
 70
     1
102
RTVSPropertyOp14
 70
     1
102
RTVSPropertyOp15
 70
     1
102
RTVSPropertyOp16
 70
     1
102
RTVSPropertyOp17
 70
     1
102
RTVSPropertyOp18
 70
     1
102
RTVSPropertyOp19
 70
     1
102
RTVSPropertyOp20
 70
     1
102
RTVSPropertyOp21
 70
     1
102
RTVSPropertyOp22
 70
     1
102
RTVSPropertyOp23
 70
     1
102
RTVSPropertyOp24
 70
     1
102
RTVSPropertyOp25
 70
     1
102
RTVSPropertyOp26
 70
     1
102
RTVSPropertyOp27
 70
     1
102
RTVSPropertyOp28
 70
     1
102
RTVSPropertyOp29
 70
     1
102
RTVSPropertyOp30
 70
     1
102
RTVSPropertyOp31
 70
     1
102
RTVSPropertyOp32
 70
     1
102
RTVSPropertyOp33
 70
     1
102
RTVSPropertyOp34
 70
     1
102
RTVSPropertyOp35
 70
     1
102
RTVSPropertyOp36
 70
     1
102
RTVSPropertyOp37
 70
     1
102
RTVSPropertyOp38
 70
     1
102
RTVSPropertyOp39
 70
     1
102
RTVSPropertyOp40
 70
     1
102
RTVSPropertyOp41
 70
     1
102
RTVSPropertyOp42
 70
     1
102
RTVSPropertyOp43
 70
     1
102
RTVSPropertyOp44
 70
     1
102
RTVSPropertyOp45
 70
     1
102
RTVSPropertyOp46
 70
     1
102
RTVSPropertyOp47
 70
     1
102
RTVSPropertyOp48
 70
     1
102
RTVSPropertyOp49
 70
     1
102
RTVSPropertyOp50
 70
     1
102
RTVSPropertyOp51
 70
     0
102
RTVSPropertyOp52
 70
     0
102
RTVSPropertyOp53
 70
     1
102
RTVSPropertyOp54
 70
     1
102
RTVSPropertyOp55
 70
     1
102
RTVSPropertyOp56
 70
     1
102
RTVSPropertyOp57
 70
     1
102
RTVSPropertyOp58
 70
     1
102
RTVSPropertyOp59
 70
     1
102
RTVSPropertyOp60
 70
     1
102
RTVSPropertyOp61
 70
     1
102
RTVSPropertyOp62
 70
     1
  0
XRECORD
  5
9E8E
102
{ACAD_REACTORS
330
9E8D
102
}
330
9E8D
100
AcDbXrecord
280
     1
102
RTVSPost2010Prop28
280
     0
102
RTVSPost2010PropOp28
 70
     1
102
RTVSPost2010Prop29
280
     1
102
RTVSPost2010PropOp29
 70
     1
102
RTVSPost2010Prop30
280
     1
102
RTVSPost2010PropOp30
 70
     1
102
RTVSPost2010Prop31
280
     0
102
RTVSPost2010PropOp31
 70
     1
102
RTVSPost2010Prop32
280
     0
102
RTVSPost2010PropOp32
 70
     1
102
RTVSPost2010Prop33
280
     0
102
RTVSPost2010PropOp33
 70
     1
102
RTVSPost2010Prop34
280
     0
102
RTVSPost2010PropOp34
 70
     1
102
RTVSPost2010Prop35
280
     0
102
RTVSPost2010PropOp35
 70
     1
102
RTVSPost2010Prop36
280
     0
102
RTVSPost2010PropOp36
 70
     1
102
RTVSPost2010Prop37
 90
       50
102
RTVSPost2010PropOp37
 70
     1
102
RTVSPost2010Prop38
140
0.0
102
RTVSPost2010PropOp38
 70
     1
102
RTVSPost2010Prop39
140
1.0
102
RTVSPost2010PropOp39
 70
     1
102
RTVSPost2010Prop40
 90
        0
102
RTVSPost2010PropOp40
 70
     1
102
RTVSPost2010Prop41ColorIndex
 90
       18
102
RTVSPost2010Prop41ColorRGB
 90
        0
102
RTVSPost2010PropOp41
 70
     1
102
RTVSPost2010Prop42
 90
       50
102
RTVSPost2010PropOp42
 70
     1
102
RTVSPost2010Prop43
 90
        3
102
RTVSPost2010PropOp43
 70
     1
102
RTVSPost2010Prop44ColorIndex
 90
        5
102
RTVSPost2010Prop44ColorRGB
 90
      255
102
RTVSPost2010PropOp44
 70
     1
102
RTVSPost2010Prop45
280
     0
102
RTVSPost2010PropOp45
 70
     1
102
RTVSPost2010Prop46
 90
       50
102
RTVSPost2010PropOp46
 70
     1
102
RTVSPost2010Prop47
 90
       50
102
RTVSPost2010PropOp47
 70
     1
102
RTVSPost2010Prop48
 90
       50
102
RTVSPost2010PropOp48
 70
     1
102
RTVSPost2010Prop49
280
     0
102
RTVSPost2010PropOp49
 70
     1
102
RTVSPost2010Prop50
 90
       50
102
RTVSPost2010PropOp50
 70
     1
102
RTVSPost2010Prop51ColorIndex
 90
      256
102
RTVSPost2010Prop51ColorRGB
 90
-16777216
102
RTVSPost2010PropOp51
 70
     0
102
RTVSPost2010Prop52
140
1.0
102
RTVSPost2010PropOp52
 70
     0
102
RTVSPost2010Prop53
 90
        2
102
RTVSPost2010PropOp53
 70
     1
102
RTVSPost2010Prop54
  1
strokes_ogs.tif
102
RTVSPost2010PropOp54
 70
     1
102
RTVSPost2010Prop55
280
     0
102
RTVSPost2010PropOp55
 70
     1
102
RTVSPost2010Prop56
140
1.0
102
RTVSPost2010PropOp56
 70
     1
102
RTVSPost2010Prop57
140
1.0
102
RTVSPost2010PropOp57
 70
     1
102
RTVSPropertyOp0
 70
     1
102
RTVSPropertyOp1
 70
     1
102
RTVSPropertyOp2
 70
     1
102
RTVSPropertyOp3
 70
     1
102
RTVSPropertyOp4
 70
     1
102
RTVSPropertyOp5
 70
     1
102
RTVSPropertyOp6
 70
     1
102
RTVSPropertyOp7
 70
     1
102
RTVSPropertyOp8
 70
     1
102
RTVSPropertyOp9
 70
     1
102
RTVSPropertyOp10
 70
     1
102
RTVSPropertyOp11
 70
     1
102
RTVSPropertyOp12
 70
     1
102
RTVSPropertyOp13
 70
     1
102
RTVSPropertyOp14
 70
     1
102
RTVSPropertyOp15
 70
     1
102
RTVSPropertyOp16
 70
     1
102
RTVSPropertyOp17
 70
     1
102
RTVSPropertyOp18
 70
     1
102
RTVSPropertyOp19
 70
     1
102
RTVSPropertyOp20
 70
     1
102
RTVSPropertyOp21
 70
     1
102
RTVSPropertyOp22
 70
     1
102
RTVSPropertyOp23
 70
     1
102
RTVSPropertyOp24
 70
     1
102
RTVSPropertyOp25
 70
     1
102
RTVSPropertyOp26
 70
     1
102
RTVSPropertyOp27
 70
     1
102
RTVSPropertyOp28
 70
     1
102
RTVSPropertyOp29
 70
     1
102
RTVSPropertyOp30
 70
     1
102
RTVSPropertyOp31
 70
     1
102
RTVSPropertyOp32
 70
     1
102
RTVSPropertyOp33
 70
     1
102
RTVSPropertyOp34
 70
     1
102
RTVSPropertyOp35
 70
     1
102
RTVSPropertyOp36
 70
     1
102
RTVSPropertyOp37
 70
     1
102
RTVSPropertyOp38
 70
     1
102
RTVSPropertyOp39
 70
     1
102
RTVSPropertyOp40
 70
     1
102
RTVSPropertyOp41
 70
     1
102
RTVSPropertyOp42
 70
     1
102
RTVSPropertyOp43
 70
     1
102
RTVSPropertyOp44
 70
     1
102
RTVSPropertyOp45
 70
     1
102
RTVSPropertyOp46
 70
     1
102
RTVSPropertyOp47
 70
     1
102
RTVSPropertyOp48
 70
     1
102
RTVSPropertyOp49
 70
     1
102
RTVSPropertyOp50
 70
     1
102
RTVSPropertyOp51
 70
     0
102
RTVSPropertyOp52
 70
     0
102
RTVSPropertyOp53
 70
     1
102
RTVSPropertyOp54
 70
     1
102
RTVSPropertyOp55
 70
     1
102
RTVSPropertyOp56
 70
     1
102
RTVSPropertyOp57
 70
     1
102
RTVSPropertyOp58
 70
     1
102
RTVSPropertyOp59
 70
     1
102
RTVSPropertyOp60
 70
     1
102
RTVSPropertyOp61
 70
     1
102
RTVSPropertyOp62
 70
     1
  0
XRECORD
  5
9EA8
102
{ACAD_REACTORS
330
9EA7
102
}
330
9EA7
100
AcDbXrecord
280
     1
102
RTVSPost2010Prop28
280
     0
102
RTVSPost2010PropOp28
 70
     1
102
RTVSPost2010Prop29
280
     1
102
RTVSPost2010PropOp29
 70
     1
102
RTVSPost2010Prop30
280
     1
102
RTVSPost2010PropOp30
 70
     1
102
RTVSPost2010Prop31
280
     0
102
RTVSPost2010PropOp31
 70
     1
102
RTVSPost2010Prop32
280
     0
102
RTVSPost2010PropOp32
 70
     1
102
RTVSPost2010Prop33
280
     0
102
RTVSPost2010PropOp33
 70
     1
102
RTVSPost2010Prop34
280
     0
102
RTVSPost2010PropOp34
 70
     1
102
RTVSPost2010Prop35
280
     0
102
RTVSPost2010PropOp35
 70
     1
102
RTVSPost2010Prop36
280
     0
102
RTVSPost2010PropOp36
 70
     1
102
RTVSPost2010Prop37
 90
       50
102
RTVSPost2010PropOp37
 70
     0
102
RTVSPost2010Prop38
140
0.0
102
RTVSPost2010PropOp38
 70
     0
102
RTVSPost2010Prop39
140
1.0
102
RTVSPost2010PropOp39
 70
     0
102
RTVSPost2010Prop40
 90
        0
102
RTVSPost2010PropOp40
 70
     0
102
RTVSPost2010Prop41ColorIndex
 90
       18
102
RTVSPost2010Prop41ColorRGB
 90
        0
102
RTVSPost2010PropOp41
 70
     0
102
RTVSPost2010Prop42
 90
       50
102
RTVSPost2010PropOp42
 70
     0
102
RTVSPost2010Prop43
 90
        3
102
RTVSPost2010PropOp43
 70
     0
102
RTVSPost2010Prop44ColorIndex
 90
        5
102
RTVSPost2010Prop44ColorRGB
 90
      255
102
RTVSPost2010PropOp44
 70
     0
102
RTVSPost2010Prop45
280
     0
102
RTVSPost2010PropOp45
 70
     1
102
RTVSPost2010Prop46
 90
       50
102
RTVSPost2010PropOp46
 70
     0
102
RTVSPost2010Prop47
 90
       50
102
RTVSPost2010PropOp47
 70
     0
102
RTVSPost2010Prop48
 90
       50
102
RTVSPost2010PropOp48
 70
     0
102
RTVSPost2010Prop49
280
     0
102
RTVSPost2010PropOp49
 70
     1
102
RTVSPost2010Prop50
 90
       50
102
RTVSPost2010PropOp50
 70
     0
102
RTVSPost2010Prop51ColorIndex
 90
      256
102
RTVSPost2010Prop51ColorRGB
 90
-16777216
102
RTVSPost2010PropOp51
 70
     0
102
RTVSPost2010Prop52
140
1.0
102
RTVSPost2010PropOp52
 70
     0
102
RTVSPost2010Prop53
 90
        2
102
RTVSPost2010PropOp53
 70
     0
102
RTVSPost2010Prop54
  1
strokes_ogs.tif
102
RTVSPost2010PropOp54
 70
     0
102
RTVSPost2010Prop55
280
     0
102
RTVSPost2010PropOp55
 70
     1
102
RTVSPost2010Prop56
140
1.0
102
RTVSPost2010PropOp56
 70
     0
102
RTVSPost2010Prop57
140
1.0
102
RTVSPost2010PropOp57
 70
     0
102
RTVSPropertyOp0
 70
     0
102
RTVSPropertyOp1
 70
     0
102
RTVSPropertyOp2
 70
     0
102
RTVSPropertyOp3
 70
     0
102
RTVSPropertyOp4
 70
     0
102
RTVSPropertyOp5
 70
     0
102
RTVSPropertyOp6
 70
     0
102
RTVSPropertyOp7
 70
     0
102
RTVSPropertyOp8
 70
     0
102
RTVSPropertyOp9
 70
     0
102
RTVSPropertyOp10
 70
     0
102
RTVSPropertyOp11
 70
     0
102
RTVSPropertyOp12
 70
     0
102
RTVSPropertyOp13
 70
     0
102
RTVSPropertyOp14
 70
     2
102
RTVSPropertyOp15
 70
     0
102
RTVSPropertyOp16
 70
     0
102
RTVSPropertyOp17
 70
     0
102
RTVSPropertyOp18
 70
     0
102
RTVSPropertyOp19
 70
     0
102
RTVSPropertyOp20
 70
     0
102
RTVSPropertyOp21
 70
     0
102
RTVSPropertyOp22
 70
     0
102
RTVSPropertyOp23
 70
     0
102
RTVSPropertyOp24
 70
     0
102
RTVSPropertyOp25
 70
     0
102
RTVSPropertyOp26
 70
     0
102
RTVSPropertyOp27
 70
     0
102
RTVSPropertyOp28
 70
     1
102
RTVSPropertyOp29
 70
     1
102
RTVSPropertyOp30
 70
     1
102
RTVSPropertyOp31
 70
     1
102
RTVSPropertyOp32
 70
     1
102
RTVSPropertyOp33
 70
     1
102
RTVSPropertyOp34
 70
     1
102
RTVSPropertyOp35
 70
     1
102
RTVSPropertyOp36
 70
     1
102
RTVSPropertyOp37
 70
     0
102
RTVSPropertyOp38
 70
     0
102
RTVSPropertyOp39
 70
     0
102
RTVSPropertyOp40
 70
     0
102
RTVSPropertyOp41
 70
     0
102
RTVSPropertyOp42
 70
     0
102
RTVSPropertyOp43
 70
     0
102
RTVSPropertyOp44
 70
     0
102
RTVSPropertyOp45
 70
     1
102
RTVSPropertyOp46
 70
     0
102
RTVSPropertyOp47
 70
     0
102
RTVSPropertyOp48
 70
     0
102
RTVSPropertyOp49
 70
     1
102
RTVSPropertyOp50
 70
     0
102
RTVSPropertyOp51
 70
     0
102
RTVSPropertyOp52
 70
     0
102
RTVSPropertyOp53
 70
     0
102
RTVSPropertyOp54
 70
     0
102
RTVSPropertyOp55
 70
     1
102
RTVSPropertyOp56
 70
     0
102
RTVSPropertyOp57
 70
     0
102
RTVSPropertyOp58
 70
     0
102
RTVSPropertyOp59
 70
     0
102
RTVSPropertyOp60
 70
     0
102
RTVSPropertyOp61
 70
     0
102
RTVSPropertyOp62
 70
     0
  0
XRECORD
  5
9E96
102
{ACAD_REACTORS
330
9E95
102
}
330
9E95
100
AcDbXrecord
280
     1
102
RTVSPost2010Prop28
280
     0
102
RTVSPost2010PropOp28
 70
     1
102
RTVSPost2010Prop29
280
     1
102
RTVSPost2010PropOp29
 70
     1
102
RTVSPost2010Prop30
280
     1
102
RTVSPost2010PropOp30
 70
     1
102
RTVSPost2010Prop31
280
     0
102
RTVSPost2010PropOp31
 70
     1
102
RTVSPost2010Prop32
280
     0
102
RTVSPost2010PropOp32
 70
     1
102
RTVSPost2010Prop33
280
     0
102
RTVSPost2010PropOp33
 70
     1
102
RTVSPost2010Prop34
280
     0
102
RTVSPost2010PropOp34
 70
     1
102
RTVSPost2010Prop35
280
     0
102
RTVSPost2010PropOp35
 70
     1
102
RTVSPost2010Prop36
280
     0
102
RTVSPost2010PropOp36
 70
     1
102
RTVSPost2010Prop37
 90
       50
102
RTVSPost2010PropOp37
 70
     1
102
RTVSPost2010Prop38
140
0.0
102
RTVSPost2010PropOp38
 70
     1
102
RTVSPost2010Prop39
140
1.0
102
RTVSPost2010PropOp39
 70
     1
102
RTVSPost2010Prop40
 90
        0
102
RTVSPost2010PropOp40
 70
     1
102
RTVSPost2010Prop41ColorIndex
 90
       18
102
RTVSPost2010Prop41ColorRGB
 90
        0
102
RTVSPost2010PropOp41
 70
     1
102
RTVSPost2010Prop42
 90
       50
102
RTVSPost2010PropOp42
 70
     1
102
RTVSPost2010Prop43
 90
        3
102
RTVSPost2010PropOp43
 70
     1
102
RTVSPost2010Prop44ColorIndex
 90
        5
102
RTVSPost2010Prop44ColorRGB
 90
      255
102
RTVSPost2010PropOp44
 70
     1
102
RTVSPost2010Prop45
280
     0
102
RTVSPost2010PropOp45
 70
     1
102
RTVSPost2010Prop46
 90
       50
102
RTVSPost2010PropOp46
 70
     1
102
RTVSPost2010Prop47
 90
       50
102
RTVSPost2010PropOp47
 70
     1
102
RTVSPost2010Prop48
 90
       50
102
RTVSPost2010PropOp48
 70
     1
102
RTVSPost2010Prop49
280
     0
102
RTVSPost2010PropOp49
 70
     1
102
RTVSPost2010Prop50
 90
       50
102
RTVSPost2010PropOp50
 70
     1
102
RTVSPost2010Prop51ColorIndex
 90
      256
102
RTVSPost2010Prop51ColorRGB
 90
-16777216
102
RTVSPost2010PropOp51
 70
     0
102
RTVSPost2010Prop52
140
1.0
102
RTVSPost2010PropOp52
 70
     0
102
RTVSPost2010Prop53
 90
        2
102
RTVSPost2010PropOp53
 70
     1
102
RTVSPost2010Prop54
  1
strokes_ogs.tif
102
RTVSPost2010PropOp54
 70
     1
102
RTVSPost2010Prop55
280
     0
102
RTVSPost2010PropOp55
 70
     1
102
RTVSPost2010Prop56
140
1.0
102
RTVSPost2010PropOp56
 70
     1
102
RTVSPost2010Prop57
140
1.0
102
RTVSPost2010PropOp57
 70
     1
102
RTVSPropertyOp0
 70
     1
102
RTVSPropertyOp1
 70
     1
102
RTVSPropertyOp2
 70
     1
102
RTVSPropertyOp3
 70
     1
102
RTVSPropertyOp4
 70
     1
102
RTVSPropertyOp5
 70
     1
102
RTVSPropertyOp6
 70
     1
102
RTVSPropertyOp7
 70
     1
102
RTVSPropertyOp8
 70
     1
102
RTVSPropertyOp9
 70
     1
102
RTVSPropertyOp10
 70
     1
102
RTVSPropertyOp11
 70
     1
102
RTVSPropertyOp12
 70
     1
102
RTVSPropertyOp13
 70
     1
102
RTVSPropertyOp14
 70
     1
102
RTVSPropertyOp15
 70
     1
102
RTVSPropertyOp16
 70
     1
102
RTVSPropertyOp17
 70
     1
102
RTVSPropertyOp18
 70
     1
102
RTVSPropertyOp19
 70
     1
102
RTVSPropertyOp20
 70
     1
102
RTVSPropertyOp21
 70
     1
102
RTVSPropertyOp22
 70
     1
102
RTVSPropertyOp23
 70
     1
102
RTVSPropertyOp24
 70
     1
102
RTVSPropertyOp25
 70
     1
102
RTVSPropertyOp26
 70
     1
102
RTVSPropertyOp27
 70
     1
102
RTVSPropertyOp28
 70
     1
102
RTVSPropertyOp29
 70
     1
102
RTVSPropertyOp30
 70
     1
102
RTVSPropertyOp31
 70
     1
102
RTVSPropertyOp32
 70
     1
102
RTVSPropertyOp33
 70
     1
102
RTVSPropertyOp34
 70
     1
102
RTVSPropertyOp35
 70
     1
102
RTVSPropertyOp36
 70
     1
102
RTVSPropertyOp37
 70
     1
102
RTVSPropertyOp38
 70
     1
102
RTVSPropertyOp39
 70
     1
102
RTVSPropertyOp40
 70
     1
102
RTVSPropertyOp41
 70
     1
102
RTVSPropertyOp42
 70
     1
102
RTVSPropertyOp43
 70
     1
102
RTVSPropertyOp44
 70
     1
102
RTVSPropertyOp45
 70
     1
102
RTVSPropertyOp46
 70
     1
102
RTVSPropertyOp47
 70
     1
102
RTVSPropertyOp48
 70
     1
102
RTVSPropertyOp49
 70
     1
102
RTVSPropertyOp50
 70
     1
102
RTVSPropertyOp51
 70
     0
102
RTVSPropertyOp52
 70
     0
102
RTVSPropertyOp53
 70
     1
102
RTVSPropertyOp54
 70
     1
102
RTVSPropertyOp55
 70
     1
102
RTVSPropertyOp56
 70
     1
102
RTVSPropertyOp57
 70
     1
102
RTVSPropertyOp58
 70
     1
102
RTVSPropertyOp59
 70
     1
102
RTVSPropertyOp60
 70
     1
102
RTVSPropertyOp61
 70
     1
102
RTVSPropertyOp62
 70
     1
  0
XRECORD
  5
9E7A
102
{ACAD_REACTORS
330
9E79
102
}
330
9E79
100
AcDbXrecord
280
     1
102
RTVSPost2010Prop28
280
     0
102
RTVSPost2010PropOp28
 70
     1
102
RTVSPost2010Prop29
280
     1
102
RTVSPost2010PropOp29
 70
     1
102
RTVSPost2010Prop30
280
     1
102
RTVSPost2010PropOp30
 70
     1
102
RTVSPost2010Prop31
280
     0
102
RTVSPost2010PropOp31
 70
     1
102
RTVSPost2010Prop32
280
     0
102
RTVSPost2010PropOp32
 70
     1
102
RTVSPost2010Prop33
280
     0
102
RTVSPost2010PropOp33
 70
     1
102
RTVSPost2010Prop34
280
     0
102
RTVSPost2010PropOp34
 70
     1
102
RTVSPost2010Prop35
280
     0
102
RTVSPost2010PropOp35
 70
     1
102
RTVSPost2010Prop36
280
     0
102
RTVSPost2010PropOp36
 70
     1
102
RTVSPost2010Prop37
 90
       50
102
RTVSPost2010PropOp37
 70
     1
102
RTVSPost2010Prop38
140
0.0
102
RTVSPost2010PropOp38
 70
     1
102
RTVSPost2010Prop39
140
1.0
102
RTVSPost2010PropOp39
 70
     1
102
RTVSPost2010Prop40
 90
        0
102
RTVSPost2010PropOp40
 70
     1
102
RTVSPost2010Prop41ColorIndex
 90
       18
102
RTVSPost2010Prop41ColorRGB
 90
        0
102
RTVSPost2010PropOp41
 70
     1
102
RTVSPost2010Prop42
 90
       50
102
RTVSPost2010PropOp42
 70
     1
102
RTVSPost2010Prop43
 90
        3
102
RTVSPost2010PropOp43
 70
     1
102
RTVSPost2010Prop44ColorIndex
 90
        5
102
RTVSPost2010Prop44ColorRGB
 90
      255
102
RTVSPost2010PropOp44
 70
     1
102
RTVSPost2010Prop45
280
     0
102
RTVSPost2010PropOp45
 70
     1
102
RTVSPost2010Prop46
 90
       50
102
RTVSPost2010PropOp46
 70
     1
102
RTVSPost2010Prop47
 90
       50
102
RTVSPost2010PropOp47
 70
     1
102
RTVSPost2010Prop48
 90
       50
102
RTVSPost2010PropOp48
 70
     1
102
RTVSPost2010Prop49
280
     0
102
RTVSPost2010PropOp49
 70
     1
102
RTVSPost2010Prop50
 90
       50
102
RTVSPost2010PropOp50
 70
     1
102
RTVSPost2010Prop51ColorIndex
 90
      256
102
RTVSPost2010Prop51ColorRGB
 90
-16777216
102
RTVSPost2010PropOp51
 70
     0
102
RTVSPost2010Prop52
140
1.0
102
RTVSPost2010PropOp52
 70
     0
102
RTVSPost2010Prop53
 90
        2
102
RTVSPost2010PropOp53
 70
     1
102
RTVSPost2010Prop54
  1
strokes_ogs.tif
102
RTVSPost2010PropOp54
 70
     1
102
RTVSPost2010Prop55
280
     0
102
RTVSPost2010PropOp55
 70
     1
102
RTVSPost2010Prop56
140
1.0
102
RTVSPost2010PropOp56
 70
     1
102
RTVSPost2010Prop57
140
1.0
102
RTVSPost2010PropOp57
 70
     1
102
RTVSPropertyOp0
 70
     1
102
RTVSPropertyOp1
 70
     1
102
RTVSPropertyOp2
 70
     1
102
RTVSPropertyOp3
 70
     1
102
RTVSPropertyOp4
 70
     1
102
RTVSPropertyOp5
 70
     1
102
RTVSPropertyOp6
 70
     1
102
RTVSPropertyOp7
 70
     1
102
RTVSPropertyOp8
 70
     1
102
RTVSPropertyOp9
 70
     1
102
RTVSPropertyOp10
 70
     1
102
RTVSPropertyOp11
 70
     1
102
RTVSPropertyOp12
 70
     1
102
RTVSPropertyOp13
 70
     1
102
RTVSPropertyOp14
 70
     1
102
RTVSPropertyOp15
 70
     1
102
RTVSPropertyOp16
 70
     1
102
RTVSPropertyOp17
 70
     1
102
RTVSPropertyOp18
 70
     1
102
RTVSPropertyOp19
 70
     1
102
RTVSPropertyOp20
 70
     1
102
RTVSPropertyOp21
 70
     1
102
RTVSPropertyOp22
 70
     1
102
RTVSPropertyOp23
 70
     1
102
RTVSPropertyOp24
 70
     1
102
RTVSPropertyOp25
 70
     1
102
RTVSPropertyOp26
 70
     1
102
RTVSPropertyOp27
 70
     1
102
RTVSPropertyOp28
 70
     1
102
RTVSPropertyOp29
 70
     1
102
RTVSPropertyOp30
 70
     1
102
RTVSPropertyOp31
 70
     1
102
RTVSPropertyOp32
 70
     1
102
RTVSPropertyOp33
 70
     1
102
RTVSPropertyOp34
 70
     1
102
RTVSPropertyOp35
 70
     1
102
RTVSPropertyOp36
 70
     1
102
RTVSPropertyOp37
 70
     1
102
RTVSPropertyOp38
 70
     1
102
RTVSPropertyOp39
 70
     1
102
RTVSPropertyOp40
 70
     1
102
RTVSPropertyOp41
 70
     1
102
RTVSPropertyOp42
 70
     1
102
RTVSPropertyOp43
 70
     1
102
RTVSPropertyOp44
 70
     1
102
RTVSPropertyOp45
 70
     1
102
RTVSPropertyOp46
 70
     1
102
RTVSPropertyOp47
 70
     1
102
RTVSPropertyOp48
 70
     1
102
RTVSPropertyOp49
 70
     1
102
RTVSPropertyOp50
 70
     1
102
RTVSPropertyOp51
 70
     0
102
RTVSPropertyOp52
 70
     0
102
RTVSPropertyOp53
 70
     1
102
RTVSPropertyOp54
 70
     1
102
RTVSPropertyOp55
 70
     1
102
RTVSPropertyOp56
 70
     1
102
RTVSPropertyOp57
 70
     1
102
RTVSPropertyOp58
 70
     1
102
RTVSPropertyOp59
 70
     1
102
RTVSPropertyOp60
 70
     1
102
RTVSPropertyOp61
 70
     1
102
RTVSPropertyOp62
 70
     1
  0
XRECORD
  5
9E7C
102
{ACAD_REACTORS
330
9E7B
102
}
330
9E7B
100
AcDbXrecord
280
     1
102
RTVSPost2010Prop28
280
     0
102
RTVSPost2010PropOp28
 70
     1
102
RTVSPost2010Prop29
280
     1
102
RTVSPost2010PropOp29
 70
     1
102
RTVSPost2010Prop30
280
     1
102
RTVSPost2010PropOp30
 70
     1
102
RTVSPost2010Prop31
280
     0
102
RTVSPost2010PropOp31
 70
     1
102
RTVSPost2010Prop32
280
     0
102
RTVSPost2010PropOp32
 70
     1
102
RTVSPost2010Prop33
280
     0
102
RTVSPost2010PropOp33
 70
     1
102
RTVSPost2010Prop34
280
     0
102
RTVSPost2010PropOp34
 70
     1
102
RTVSPost2010Prop35
280
     0
102
RTVSPost2010PropOp35
 70
     1
102
RTVSPost2010Prop36
280
     0
102
RTVSPost2010PropOp36
 70
     1
102
RTVSPost2010Prop37
 90
       50
102
RTVSPost2010PropOp37
 70
     1
102
RTVSPost2010Prop38
140
0.0
102
RTVSPost2010PropOp38
 70
     1
102
RTVSPost2010Prop39
140
1.0
102
RTVSPost2010PropOp39
 70
     1
102
RTVSPost2010Prop40
 90
        0
102
RTVSPost2010PropOp40
 70
     1
102
RTVSPost2010Prop41ColorIndex
 90
       18
102
RTVSPost2010Prop41ColorRGB
 90
        0
102
RTVSPost2010PropOp41
 70
     1
102
RTVSPost2010Prop42
 90
       50
102
RTVSPost2010PropOp42
 70
     1
102
RTVSPost2010Prop43
 90
        3
102
RTVSPost2010PropOp43
 70
     1
102
RTVSPost2010Prop44ColorIndex
 90
        5
102
RTVSPost2010Prop44ColorRGB
 90
      255
102
RTVSPost2010PropOp44
 70
     1
102
RTVSPost2010Prop45
280
     0
102
RTVSPost2010PropOp45
 70
     1
102
RTVSPost2010Prop46
 90
       50
102
RTVSPost2010PropOp46
 70
     1
102
RTVSPost2010Prop47
 90
       50
102
RTVSPost2010PropOp47
 70
     1
102
RTVSPost2010Prop48
 90
       50
102
RTVSPost2010PropOp48
 70
     1
102
RTVSPost2010Prop49
280
     0
102
RTVSPost2010PropOp49
 70
     1
102
RTVSPost2010Prop50
 90
       50
102
RTVSPost2010PropOp50
 70
     1
102
RTVSPost2010Prop51ColorIndex
 90
      256
102
RTVSPost2010Prop51ColorRGB
 90
-16777216
102
RTVSPost2010PropOp51
 70
     0
102
RTVSPost2010Prop52
140
1.0
102
RTVSPost2010PropOp52
 70
     0
102
RTVSPost2010Prop53
 90
        2
102
RTVSPost2010PropOp53
 70
     1
102
RTVSPost2010Prop54
  1
strokes_ogs.tif
102
RTVSPost2010PropOp54
 70
     1
102
RTVSPost2010Prop55
280
     0
102
RTVSPost2010PropOp55
 70
     1
102
RTVSPost2010Prop56
140
1.0
102
RTVSPost2010PropOp56
 70
     1
102
RTVSPost2010Prop57
140
1.0
102
RTVSPost2010PropOp57
 70
     1
102
RTVSPropertyOp0
 70
     1
102
RTVSPropertyOp1
 70
     1
102
RTVSPropertyOp2
 70
     1
102
RTVSPropertyOp3
 70
     1
102
RTVSPropertyOp4
 70
     1
102
RTVSPropertyOp5
 70
     1
102
RTVSPropertyOp6
 70
     1
102
RTVSPropertyOp7
 70
     1
102
RTVSPropertyOp8
 70
     1
102
RTVSPropertyOp9
 70
     1
102
RTVSPropertyOp10
 70
     1
102
RTVSPropertyOp11
 70
     1
102
RTVSPropertyOp12
 70
     1
102
RTVSPropertyOp13
 70
     1
102
RTVSPropertyOp14
 70
     1
102
RTVSPropertyOp15
 70
     1
102
RTVSPropertyOp16
 70
     1
102
RTVSPropertyOp17
 70
     1
102
RTVSPropertyOp18
 70
     1
102
RTVSPropertyOp19
 70
     1
102
RTVSPropertyOp20
 70
     1
102
RTVSPropertyOp21
 70
     1
102
RTVSPropertyOp22
 70
     1
102
RTVSPropertyOp23
 70
     1
102
RTVSPropertyOp24
 70
     1
102
RTVSPropertyOp25
 70
     1
102
RTVSPropertyOp26
 70
     1
102
RTVSPropertyOp27
 70
     1
102
RTVSPropertyOp28
 70
     1
102
RTVSPropertyOp29
 70
     1
102
RTVSPropertyOp30
 70
     1
102
RTVSPropertyOp31
 70
     1
102
RTVSPropertyOp32
 70
     1
102
RTVSPropertyOp33
 70
     1
102
RTVSPropertyOp34
 70
     1
102
RTVSPropertyOp35
 70
     1
102
RTVSPropertyOp36
 70
     1
102
RTVSPropertyOp37
 70
     1
102
RTVSPropertyOp38
 70
     1
102
RTVSPropertyOp39
 70
     1
102
RTVSPropertyOp40
 70
     1
102
RTVSPropertyOp41
 70
     1
102
RTVSPropertyOp42
 70
     1
102
RTVSPropertyOp43
 70
     1
102
RTVSPropertyOp44
 70
     1
102
RTVSPropertyOp45
 70
     1
102
RTVSPropertyOp46
 70
     1
102
RTVSPropertyOp47
 70
     1
102
RTVSPropertyOp48
 70
     1
102
RTVSPropertyOp49
 70
     1
102
RTVSPropertyOp50
 70
     1
102
RTVSPropertyOp51
 70
     0
102
RTVSPropertyOp52
 70
     0
102
RTVSPropertyOp53
 70
     1
102
RTVSPropertyOp54
 70
     1
102
RTVSPropertyOp55
 70
     1
102
RTVSPropertyOp56
 70
     1
102
RTVSPropertyOp57
 70
     1
102
RTVSPropertyOp58
 70
     1
102
RTVSPropertyOp59
 70
     1
102
RTVSPropertyOp60
 70
     1
102
RTVSPropertyOp61
 70
     1
102
RTVSPropertyOp62
 70
     1
  0
XRECORD
  5
9E7E
102
{ACAD_REACTORS
330
9E7D
102
}
330
9E7D
100
AcDbXrecord
280
     1
102
RTVSPost2010Prop28
280
     0
102
RTVSPost2010PropOp28
 70
     1
102
RTVSPost2010Prop29
280
     1
102
RTVSPost2010PropOp29
 70
     1
102
RTVSPost2010Prop30
280
     1
102
RTVSPost2010PropOp30
 70
     1
102
RTVSPost2010Prop31
280
     0
102
RTVSPost2010PropOp31
 70
     1
102
RTVSPost2010Prop32
280
     0
102
RTVSPost2010PropOp32
 70
     1
102
RTVSPost2010Prop33
280
     0
102
RTVSPost2010PropOp33
 70
     1
102
RTVSPost2010Prop34
280
     0
102
RTVSPost2010PropOp34
 70
     1
102
RTVSPost2010Prop35
280
     0
102
RTVSPost2010PropOp35
 70
     1
102
RTVSPost2010Prop36
280
     0
102
RTVSPost2010PropOp36
 70
     1
102
RTVSPost2010Prop37
 90
       50
102
RTVSPost2010PropOp37
 70
     1
102
RTVSPost2010Prop38
140
0.0
102
RTVSPost2010PropOp38
 70
     1
102
RTVSPost2010Prop39
140
1.0
102
RTVSPost2010PropOp39
 70
     1
102
RTVSPost2010Prop40
 90
        0
102
RTVSPost2010PropOp40
 70
     1
102
RTVSPost2010Prop41ColorIndex
 90
       18
102
RTVSPost2010Prop41ColorRGB
 90
        0
102
RTVSPost2010PropOp41
 70
     1
102
RTVSPost2010Prop42
 90
       50
102
RTVSPost2010PropOp42
 70
     1
102
RTVSPost2010Prop43
 90
        3
102
RTVSPost2010PropOp43
 70
     1
102
RTVSPost2010Prop44ColorIndex
 90
        5
102
RTVSPost2010Prop44ColorRGB
 90
      255
102
RTVSPost2010PropOp44
 70
     1
102
RTVSPost2010Prop45
280
     0
102
RTVSPost2010PropOp45
 70
     1
102
RTVSPost2010Prop46
 90
       50
102
RTVSPost2010PropOp46
 70
     1
102
RTVSPost2010Prop47
 90
       50
102
RTVSPost2010PropOp47
 70
     1
102
RTVSPost2010Prop48
 90
       50
102
RTVSPost2010PropOp48
 70
     1
102
RTVSPost2010Prop49
280
     0
102
RTVSPost2010PropOp49
 70
     1
102
RTVSPost2010Prop50
 90
       50
102
RTVSPost2010PropOp50
 70
     1
102
RTVSPost2010Prop51ColorIndex
 90
      256
102
RTVSPost2010Prop51ColorRGB
 90
-16777216
102
RTVSPost2010PropOp51
 70
     0
102
RTVSPost2010Prop52
140
1.0
102
RTVSPost2010PropOp52
 70
     0
102
RTVSPost2010Prop53
 90
        2
102
RTVSPost2010PropOp53
 70
     1
102
RTVSPost2010Prop54
  1
strokes_ogs.tif
102
RTVSPost2010PropOp54
 70
     1
102
RTVSPost2010Prop55
280
     0
102
RTVSPost2010PropOp55
 70
     1
102
RTVSPost2010Prop56
140
1.0
102
RTVSPost2010PropOp56
 70
     1
102
RTVSPost2010Prop57
140
1.0
102
RTVSPost2010PropOp57
 70
     1
102
RTVSPropertyOp0
 70
     1
102
RTVSPropertyOp1
 70
     1
102
RTVSPropertyOp2
 70
     1
102
RTVSPropertyOp3
 70
     1
102
RTVSPropertyOp4
 70
     1
102
RTVSPropertyOp5
 70
     1
102
RTVSPropertyOp6
 70
     1
102
RTVSPropertyOp7
 70
     1
102
RTVSPropertyOp8
 70
     1
102
RTVSPropertyOp9
 70
     1
102
RTVSPropertyOp10
 70
     1
102
RTVSPropertyOp11
 70
     1
102
RTVSPropertyOp12
 70
     1
102
RTVSPropertyOp13
 70
     1
102
RTVSPropertyOp14
 70
     1
102
RTVSPropertyOp15
 70
     1
102
RTVSPropertyOp16
 70
     1
102
RTVSPropertyOp17
 70
     1
102
RTVSPropertyOp18
 70
     1
102
RTVSPropertyOp19
 70
     1
102
RTVSPropertyOp20
 70
     1
102
RTVSPropertyOp21
 70
     1
102
RTVSPropertyOp22
 70
     1
102
RTVSPropertyOp23
 70
     1
102
RTVSPropertyOp24
 70
     1
102
RTVSPropertyOp25
 70
     1
102
RTVSPropertyOp26
 70
     1
102
RTVSPropertyOp27
 70
     1
102
RTVSPropertyOp28
 70
     1
102
RTVSPropertyOp29
 70
     1
102
RTVSPropertyOp30
 70
     1
102
RTVSPropertyOp31
 70
     1
102
RTVSPropertyOp32
 70
     1
102
RTVSPropertyOp33
 70
     1
102
RTVSPropertyOp34
 70
     1
102
RTVSPropertyOp35
 70
     1
102
RTVSPropertyOp36
 70
     1
102
RTVSPropertyOp37
 70
     1
102
RTVSPropertyOp38
 70
     1
102
RTVSPropertyOp39
 70
     1
102
RTVSPropertyOp40
 70
     1
102
RTVSPropertyOp41
 70
     1
102
RTVSPropertyOp42
 70
     1
102
RTVSPropertyOp43
 70
     1
102
RTVSPropertyOp44
 70
     1
102
RTVSPropertyOp45
 70
     1
102
RTVSPropertyOp46
 70
     1
102
RTVSPropertyOp47
 70
     1
102
RTVSPropertyOp48
 70
     1
102
RTVSPropertyOp49
 70
     1
102
RTVSPropertyOp50
 70
     1
102
RTVSPropertyOp51
 70
     0
102
RTVSPropertyOp52
 70
     0
102
RTVSPropertyOp53
 70
     1
102
RTVSPropertyOp54
 70
     1
102
RTVSPropertyOp55
 70
     1
102
RTVSPropertyOp56
 70
     1
102
RTVSPropertyOp57
 70
     1
102
RTVSPropertyOp58
 70
     1
102
RTVSPropertyOp59
 70
     1
102
RTVSPropertyOp60
 70
     1
102
RTVSPropertyOp61
 70
     1
102
RTVSPropertyOp62
 70
     1
  0
XRECORD
  5
9E80
102
{ACAD_REACTORS
330
9E7F
102
}
330
9E7F
100
AcDbXrecord
280
     1
102
RTVSPost2010Prop28
280
     0
102
RTVSPost2010PropOp28
 70
     1
102
RTVSPost2010Prop29
280
     1
102
RTVSPost2010PropOp29
 70
     1
102
RTVSPost2010Prop30
280
     1
102
RTVSPost2010PropOp30
 70
     1
102
RTVSPost2010Prop31
280
     0
102
RTVSPost2010PropOp31
 70
     1
102
RTVSPost2010Prop32
280
     0
102
RTVSPost2010PropOp32
 70
     1
102
RTVSPost2010Prop33
280
     0
102
RTVSPost2010PropOp33
 70
     1
102
RTVSPost2010Prop34
280
     0
102
RTVSPost2010PropOp34
 70
     1
102
RTVSPost2010Prop35
280
     0
102
RTVSPost2010PropOp35
 70
     1
102
RTVSPost2010Prop36
280
     0
102
RTVSPost2010PropOp36
 70
     1
102
RTVSPost2010Prop37
 90
       50
102
RTVSPost2010PropOp37
 70
     1
102
RTVSPost2010Prop38
140
0.0
102
RTVSPost2010PropOp38
 70
     1
102
RTVSPost2010Prop39
140
1.0
102
RTVSPost2010PropOp39
 70
     1
102
RTVSPost2010Prop40
 90
        0
102
RTVSPost2010PropOp40
 70
     1
102
RTVSPost2010Prop41ColorIndex
 90
       18
102
RTVSPost2010Prop41ColorRGB
 90
        0
102
RTVSPost2010PropOp41
 70
     1
102
RTVSPost2010Prop42
 90
       50
102
RTVSPost2010PropOp42
 70
     1
102
RTVSPost2010Prop43
 90
        3
102
RTVSPost2010PropOp43
 70
     1
102
RTVSPost2010Prop44ColorIndex
 90
        5
102
RTVSPost2010Prop44ColorRGB
 90
      255
102
RTVSPost2010PropOp44
 70
     1
102
RTVSPost2010Prop45
280
     0
102
RTVSPost2010PropOp45
 70
     1
102
RTVSPost2010Prop46
 90
       50
102
RTVSPost2010PropOp46
 70
     1
102
RTVSPost2010Prop47
 90
       50
102
RTVSPost2010PropOp47
 70
     1
102
RTVSPost2010Prop48
 90
       50
102
RTVSPost2010PropOp48
 70
     1
102
RTVSPost2010Prop49
280
     0
102
RTVSPost2010PropOp49
 70
     1
102
RTVSPost2010Prop50
 90
       50
102
RTVSPost2010PropOp50
 70
     1
102
RTVSPost2010Prop51ColorIndex
 90
      256
102
RTVSPost2010Prop51ColorRGB
 90
-16777216
102
RTVSPost2010PropOp51
 70
     0
102
RTVSPost2010Prop52
140
1.0
102
RTVSPost2010PropOp52
 70
     0
102
RTVSPost2010Prop53
 90
        2
102
RTVSPost2010PropOp53
 70
     1
102
RTVSPost2010Prop54
  1
strokes_ogs.tif
102
RTVSPost2010PropOp54
 70
     1
102
RTVSPost2010Prop55
280
     0
102
RTVSPost2010PropOp55
 70
     1
102
RTVSPost2010Prop56
140
1.0
102
RTVSPost2010PropOp56
 70
     1
102
RTVSPost2010Prop57
140
1.0
102
RTVSPost2010PropOp57
 70
     1
102
RTVSPropertyOp0
 70
     1
102
RTVSPropertyOp1
 70
     1
102
RTVSPropertyOp2
 70
     1
102
RTVSPropertyOp3
 70
     1
102
RTVSPropertyOp4
 70
     1
102
RTVSPropertyOp5
 70
     1
102
RTVSPropertyOp6
 70
     1
102
RTVSPropertyOp7
 70
     1
102
RTVSPropertyOp8
 70
     1
102
RTVSPropertyOp9
 70
     1
102
RTVSPropertyOp10
 70
     1
102
RTVSPropertyOp11
 70
     1
102
RTVSPropertyOp12
 70
     1
102
RTVSPropertyOp13
 70
     1
102
RTVSPropertyOp14
 70
     1
102
RTVSPropertyOp15
 70
     1
102
RTVSPropertyOp16
 70
     1
102
RTVSPropertyOp17
 70
     1
102
RTVSPropertyOp18
 70
     1
102
RTVSPropertyOp19
 70
     1
102
RTVSPropertyOp20
 70
     1
102
RTVSPropertyOp21
 70
     1
102
RTVSPropertyOp22
 70
     1
102
RTVSPropertyOp23
 70
     1
102
RTVSPropertyOp24
 70
     1
102
RTVSPropertyOp25
 70
     1
102
RTVSPropertyOp26
 70
     1
102
RTVSPropertyOp27
 70
     1
102
RTVSPropertyOp28
 70
     1
102
RTVSPropertyOp29
 70
     1
102
RTVSPropertyOp30
 70
     1
102
RTVSPropertyOp31
 70
     1
102
RTVSPropertyOp32
 70
     1
102
RTVSPropertyOp33
 70
     1
102
RTVSPropertyOp34
 70
     1
102
RTVSPropertyOp35
 70
     1
102
RTVSPropertyOp36
 70
     1
102
RTVSPropertyOp37
 70
     1
102
RTVSPropertyOp38
 70
     1
102
RTVSPropertyOp39
 70
     1
102
RTVSPropertyOp40
 70
     1
102
RTVSPropertyOp41
 70
     1
102
RTVSPropertyOp42
 70
     1
102
RTVSPropertyOp43
 70
     1
102
RTVSPropertyOp44
 70
     1
102
RTVSPropertyOp45
 70
     1
102
RTVSPropertyOp46
 70
     1
102
RTVSPropertyOp47
 70
     1
102
RTVSPropertyOp48
 70
     1
102
RTVSPropertyOp49
 70
     1
102
RTVSPropertyOp50
 70
     1
102
RTVSPropertyOp51
 70
     0
102
RTVSPropertyOp52
 70
     0
102
RTVSPropertyOp53
 70
     1
102
RTVSPropertyOp54
 70
     1
102
RTVSPropertyOp55
 70
     1
102
RTVSPropertyOp56
 70
     1
102
RTVSPropertyOp57
 70
     1
102
RTVSPropertyOp58
 70
     1
102
RTVSPropertyOp59
 70
     1
102
RTVSPropertyOp60
 70
     1
102
RTVSPropertyOp61
 70
     1
102
RTVSPropertyOp62
 70
     1
  0
XRECORD
  5
9E88
102
{ACAD_REACTORS
330
9E87
102
}
330
9E87
100
AcDbXrecord
280
     1
102
RTVSPost2010Prop28
280
     0
102
RTVSPost2010PropOp28
 70
     1
102
RTVSPost2010Prop29
280
     1
102
RTVSPost2010PropOp29
 70
     1
102
RTVSPost2010Prop30
280
     1
102
RTVSPost2010PropOp30
 70
     1
102
RTVSPost2010Prop31
280
     0
102
RTVSPost2010PropOp31
 70
     1
102
RTVSPost2010Prop32
280
     0
102
RTVSPost2010PropOp32
 70
     1
102
RTVSPost2010Prop33
280
     0
102
RTVSPost2010PropOp33
 70
     1
102
RTVSPost2010Prop34
280
     0
102
RTVSPost2010PropOp34
 70
     1
102
RTVSPost2010Prop35
280
     0
102
RTVSPost2010PropOp35
 70
     1
102
RTVSPost2010Prop36
280
     0
102
RTVSPost2010PropOp36
 70
     1
102
RTVSPost2010Prop37
 90
       50
102
RTVSPost2010PropOp37
 70
     1
102
RTVSPost2010Prop38
140
0.0
102
RTVSPost2010PropOp38
 70
     1
102
RTVSPost2010Prop39
140
1.0
102
RTVSPost2010PropOp39
 70
     1
102
RTVSPost2010Prop40
 90
        0
102
RTVSPost2010PropOp40
 70
     1
102
RTVSPost2010Prop41ColorIndex
 90
       18
102
RTVSPost2010Prop41ColorRGB
 90
        0
102
RTVSPost2010PropOp41
 70
     1
102
RTVSPost2010Prop42
 90
       50
102
RTVSPost2010PropOp42
 70
     1
102
RTVSPost2010Prop43
 90
        3
102
RTVSPost2010PropOp43
 70
     1
102
RTVSPost2010Prop44ColorIndex
 90
        5
102
RTVSPost2010Prop44ColorRGB
 90
      255
102
RTVSPost2010PropOp44
 70
     1
102
RTVSPost2010Prop45
280
     0
102
RTVSPost2010PropOp45
 70
     1
102
RTVSPost2010Prop46
 90
       50
102
RTVSPost2010PropOp46
 70
     1
102
RTVSPost2010Prop47
 90
       50
102
RTVSPost2010PropOp47
 70
     1
102
RTVSPost2010Prop48
 90
       50
102
RTVSPost2010PropOp48
 70
     1
102
RTVSPost2010Prop49
280
     0
102
RTVSPost2010PropOp49
 70
     1
102
RTVSPost2010Prop50
 90
       50
102
RTVSPost2010PropOp50
 70
     1
102
RTVSPost2010Prop51ColorIndex
 90
      256
102
RTVSPost2010Prop51ColorRGB
 90
-16777216
102
RTVSPost2010PropOp51
 70
     0
102
RTVSPost2010Prop52
140
1.0
102
RTVSPost2010PropOp52
 70
     0
102
RTVSPost2010Prop53
 90
        2
102
RTVSPost2010PropOp53
 70
     1
102
RTVSPost2010Prop54
  1
strokes_ogs.tif
102
RTVSPost2010PropOp54
 70
     1
102
RTVSPost2010Prop55
280
     0
102
RTVSPost2010PropOp55
 70
     1
102
RTVSPost2010Prop56
140
1.0
102
RTVSPost2010PropOp56
 70
     1
102
RTVSPost2010Prop57
140
1.0
102
RTVSPost2010PropOp57
 70
     1
102
RTVSPropertyOp0
 70
     1
102
RTVSPropertyOp1
 70
     1
102
RTVSPropertyOp2
 70
     1
102
RTVSPropertyOp3
 70
     1
102
RTVSPropertyOp4
 70
     1
102
RTVSPropertyOp5
 70
     1
102
RTVSPropertyOp6
 70
     1
102
RTVSPropertyOp7
 70
     1
102
RTVSPropertyOp8
 70
     1
102
RTVSPropertyOp9
 70
     1
102
RTVSPropertyOp10
 70
     1
102
RTVSPropertyOp11
 70
     1
102
RTVSPropertyOp12
 70
     1
102
RTVSPropertyOp13
 70
     1
102
RTVSPropertyOp14
 70
     1
102
RTVSPropertyOp15
 70
     1
102
RTVSPropertyOp16
 70
     1
102
RTVSPropertyOp17
 70
     1
102
RTVSPropertyOp18
 70
     1
102
RTVSPropertyOp19
 70
     1
102
RTVSPropertyOp20
 70
     1
102
RTVSPropertyOp21
 70
     1
102
RTVSPropertyOp22
 70
     1
102
RTVSPropertyOp23
 70
     1
102
RTVSPropertyOp24
 70
     1
102
RTVSPropertyOp25
 70
     1
102
RTVSPropertyOp26
 70
     1
102
RTVSPropertyOp27
 70
     1
102
RTVSPropertyOp28
 70
     1
102
RTVSPropertyOp29
 70
     1
102
RTVSPropertyOp30
 70
     1
102
RTVSPropertyOp31
 70
     1
102
RTVSPropertyOp32
 70
     1
102
RTVSPropertyOp33
 70
     1
102
RTVSPropertyOp34
 70
     1
102
RTVSPropertyOp35
 70
     1
102
RTVSPropertyOp36
 70
     1
102
RTVSPropertyOp37
 70
     1
102
RTVSPropertyOp38
 70
     1
102
RTVSPropertyOp39
 70
     1
102
RTVSPropertyOp40
 70
     1
102
RTVSPropertyOp41
 70
     1
102
RTVSPropertyOp42
 70
     1
102
RTVSPropertyOp43
 70
     1
102
RTVSPropertyOp44
 70
     1
102
RTVSPropertyOp45
 70
     1
102
RTVSPropertyOp46
 70
     1
102
RTVSPropertyOp47
 70
     1
102
RTVSPropertyOp48
 70
     1
102
RTVSPropertyOp49
 70
     1
102
RTVSPropertyOp50
 70
     1
102
RTVSPropertyOp51
 70
     0
102
RTVSPropertyOp52
 70
     0
102
RTVSPropertyOp53
 70
     1
102
RTVSPropertyOp54
 70
     1
102
RTVSPropertyOp55
 70
     1
102
RTVSPropertyOp56
 70
     1
102
RTVSPropertyOp57
 70
     1
102
RTVSPropertyOp58
 70
     1
102
RTVSPropertyOp59
 70
     1
102
RTVSPropertyOp60
 70
     1
102
RTVSPropertyOp61
 70
     1
102
RTVSPropertyOp62
 70
     1
  0
XRECORD
  5
9EA4
102
{ACAD_REACTORS
330
9EA3
102
}
330
9EA3
100
AcDbXrecord
280
     1
102
RTVSPost2010Prop28
280
     0
102
RTVSPost2010PropOp28
 70
     1
102
RTVSPost2010Prop29
280
     1
102
RTVSPost2010PropOp29
 70
     1
102
RTVSPost2010Prop30
280
     1
102
RTVSPost2010PropOp30
 70
     1
102
RTVSPost2010Prop31
280
     0
102
RTVSPost2010PropOp31
 70
     1
102
RTVSPost2010Prop32
280
     0
102
RTVSPost2010PropOp32
 70
     1
102
RTVSPost2010Prop33
280
     0
102
RTVSPost2010PropOp33
 70
     1
102
RTVSPost2010Prop34
280
     0
102
RTVSPost2010PropOp34
 70
     1
102
RTVSPost2010Prop35
280
     0
102
RTVSPost2010PropOp35
 70
     1
102
RTVSPost2010Prop36
280
     0
102
RTVSPost2010PropOp36
 70
     1
102
RTVSPost2010Prop37
 90
       50
102
RTVSPost2010PropOp37
 70
     0
102
RTVSPost2010Prop38
140
0.0
102
RTVSPost2010PropOp38
 70
     0
102
RTVSPost2010Prop39
140
1.0
102
RTVSPost2010PropOp39
 70
     0
102
RTVSPost2010Prop40
 90
        0
102
RTVSPost2010PropOp40
 70
     0
102
RTVSPost2010Prop41ColorIndex
 90
       18
102
RTVSPost2010Prop41ColorRGB
 90
        0
102
RTVSPost2010PropOp41
 70
     0
102
RTVSPost2010Prop42
 90
       50
102
RTVSPost2010PropOp42
 70
     0
102
RTVSPost2010Prop43
 90
        3
102
RTVSPost2010PropOp43
 70
     0
102
RTVSPost2010Prop44ColorIndex
 90
        5
102
RTVSPost2010Prop44ColorRGB
 90
      255
102
RTVSPost2010PropOp44
 70
     0
102
RTVSPost2010Prop45
280
     0
102
RTVSPost2010PropOp45
 70
     1
102
RTVSPost2010Prop46
 90
       50
102
RTVSPost2010PropOp46
 70
     0
102
RTVSPost2010Prop47
 90
       50
102
RTVSPost2010PropOp47
 70
     0
102
RTVSPost2010Prop48
 90
       50
102
RTVSPost2010PropOp48
 70
     0
102
RTVSPost2010Prop49
280
     0
102
RTVSPost2010PropOp49
 70
     1
102
RTVSPost2010Prop50
 90
       50
102
RTVSPost2010PropOp50
 70
     0
102
RTVSPost2010Prop51ColorIndex
 90
      256
102
RTVSPost2010Prop51ColorRGB
 90
-16777216
102
RTVSPost2010PropOp51
 70
     0
102
RTVSPost2010Prop52
140
1.0
102
RTVSPost2010PropOp52
 70
     0
102
RTVSPost2010Prop53
 90
        2
102
RTVSPost2010PropOp53
 70
     0
102
RTVSPost2010Prop54
  1
strokes_ogs.tif
102
RTVSPost2010PropOp54
 70
     0
102
RTVSPost2010Prop55
280
     0
102
RTVSPost2010PropOp55
 70
     1
102
RTVSPost2010Prop56
140
1.0
102
RTVSPost2010PropOp56
 70
     0
102
RTVSPost2010Prop57
140
1.0
102
RTVSPost2010PropOp57
 70
     0
102
RTVSPropertyOp0
 70
     0
102
RTVSPropertyOp1
 70
     0
102
RTVSPropertyOp2
 70
     0
102
RTVSPropertyOp3
 70
     0
102
RTVSPropertyOp4
 70
     0
102
RTVSPropertyOp5
 70
     0
102
RTVSPropertyOp6
 70
     0
102
RTVSPropertyOp7
 70
     0
102
RTVSPropertyOp8
 70
     0
102
RTVSPropertyOp9
 70
     0
102
RTVSPropertyOp10
 70
     0
102
RTVSPropertyOp11
 70
     0
102
RTVSPropertyOp12
 70
     0
102
RTVSPropertyOp13
 70
     0
102
RTVSPropertyOp14
 70
     2
102
RTVSPropertyOp15
 70
     0
102
RTVSPropertyOp16
 70
     0
102
RTVSPropertyOp17
 70
     0
102
RTVSPropertyOp18
 70
     0
102
RTVSPropertyOp19
 70
     0
102
RTVSPropertyOp20
 70
     0
102
RTVSPropertyOp21
 70
     0
102
RTVSPropertyOp22
 70
     0
102
RTVSPropertyOp23
 70
     0
102
RTVSPropertyOp24
 70
     0
102
RTVSPropertyOp25
 70
     0
102
RTVSPropertyOp26
 70
     0
102
RTVSPropertyOp27
 70
     0
102
RTVSPropertyOp28
 70
     1
102
RTVSPropertyOp29
 70
     1
102
RTVSPropertyOp30
 70
     1
102
RTVSPropertyOp31
 70
     1
102
RTVSPropertyOp32
 70
     1
102
RTVSPropertyOp33
 70
     1
102
RTVSPropertyOp34
 70
     1
102
RTVSPropertyOp35
 70
     1
102
RTVSPropertyOp36
 70
     1
102
RTVSPropertyOp37
 70
     0
102
RTVSPropertyOp38
 70
     0
102
RTVSPropertyOp39
 70
     0
102
RTVSPropertyOp40
 70
     0
102
RTVSPropertyOp41
 70
     0
102
RTVSPropertyOp42
 70
     0
102
RTVSPropertyOp43
 70
     0
102
RTVSPropertyOp44
 70
     0
102
RTVSPropertyOp45
 70
     1
102
RTVSPropertyOp46
 70
     0
102
RTVSPropertyOp47
 70
     0
102
RTVSPropertyOp48
 70
     0
102
RTVSPropertyOp49
 70
     1
102
RTVSPropertyOp50
 70
     0
102
RTVSPropertyOp51
 70
     0
102
RTVSPropertyOp52
 70
     0
102
RTVSPropertyOp53
 70
     0
102
RTVSPropertyOp54
 70
     0
102
RTVSPropertyOp55
 70
     1
102
RTVSPropertyOp56
 70
     0
102
RTVSPropertyOp57
 70
     0
102
RTVSPropertyOp58
 70
     0
102
RTVSPropertyOp59
 70
     0
102
RTVSPropertyOp60
 70
     0
102
RTVSPropertyOp61
 70
     0
102
RTVSPropertyOp62
 70
     0
  0
XRECORD
  5
9E94
102
{ACAD_REACTORS
330
9E93
102
}
330
9E93
100
AcDbXrecord
280
     1
102
RTVSPost2010Prop28
280
     0
102
RTVSPost2010PropOp28
 70
     1
102
RTVSPost2010Prop29
280
     1
102
RTVSPost2010PropOp29
 70
     1
102
RTVSPost2010Prop30
280
     1
102
RTVSPost2010PropOp30
 70
     1
102
RTVSPost2010Prop31
280
     0
102
RTVSPost2010PropOp31
 70
     1
102
RTVSPost2010Prop32
280
     0
102
RTVSPost2010PropOp32
 70
     1
102
RTVSPost2010Prop33
280
     0
102
RTVSPost2010PropOp33
 70
     1
102
RTVSPost2010Prop34
280
     0
102
RTVSPost2010PropOp34
 70
     1
102
RTVSPost2010Prop35
280
     0
102
RTVSPost2010PropOp35
 70
     1
102
RTVSPost2010Prop36
280
     0
102
RTVSPost2010PropOp36
 70
     1
102
RTVSPost2010Prop37
 90
       50
102
RTVSPost2010PropOp37
 70
     1
102
RTVSPost2010Prop38
140
0.0
102
RTVSPost2010PropOp38
 70
     1
102
RTVSPost2010Prop39
140
1.0
102
RTVSPost2010PropOp39
 70
     1
102
RTVSPost2010Prop40
 90
        0
102
RTVSPost2010PropOp40
 70
     1
102
RTVSPost2010Prop41ColorIndex
 90
       18
102
RTVSPost2010Prop41ColorRGB
 90
        0
102
RTVSPost2010PropOp41
 70
     1
102
RTVSPost2010Prop42
 90
       50
102
RTVSPost2010PropOp42
 70
     1
102
RTVSPost2010Prop43
 90
        3
102
RTVSPost2010PropOp43
 70
     1
102
RTVSPost2010Prop44ColorIndex
 90
        5
102
RTVSPost2010Prop44ColorRGB
 90
      255
102
RTVSPost2010PropOp44
 70
     1
102
RTVSPost2010Prop45
280
     0
102
RTVSPost2010PropOp45
 70
     1
102
RTVSPost2010Prop46
 90
       50
102
RTVSPost2010PropOp46
 70
     1
102
RTVSPost2010Prop47
 90
       50
102
RTVSPost2010PropOp47
 70
     1
102
RTVSPost2010Prop48
 90
       50
102
RTVSPost2010PropOp48
 70
     1
102
RTVSPost2010Prop49
280
     0
102
RTVSPost2010PropOp49
 70
     1
102
RTVSPost2010Prop50
 90
       50
102
RTVSPost2010PropOp50
 70
     1
102
RTVSPost2010Prop51ColorIndex
 90
      256
102
RTVSPost2010Prop51ColorRGB
 90
-16777216
102
RTVSPost2010PropOp51
 70
     0
102
RTVSPost2010Prop52
140
1.0
102
RTVSPost2010PropOp52
 70
     0
102
RTVSPost2010Prop53
 90
        2
102
RTVSPost2010PropOp53
 70
     1
102
RTVSPost2010Prop54
  1
strokes_ogs.tif
102
RTVSPost2010PropOp54
 70
     1
102
RTVSPost2010Prop55
280
     0
102
RTVSPost2010PropOp55
 70
     1
102
RTVSPost2010Prop56
140
1.0
102
RTVSPost2010PropOp56
 70
     1
102
RTVSPost2010Prop57
140
1.0
102
RTVSPost2010PropOp57
 70
     1
102
RTVSPropertyOp0
 70
     1
102
RTVSPropertyOp1
 70
     1
102
RTVSPropertyOp2
 70
     1
102
RTVSPropertyOp3
 70
     1
102
RTVSPropertyOp4
 70
     1
102
RTVSPropertyOp5
 70
     1
102
RTVSPropertyOp6
 70
     1
102
RTVSPropertyOp7
 70
     1
102
RTVSPropertyOp8
 70
     1
102
RTVSPropertyOp9
 70
     1
102
RTVSPropertyOp10
 70
     1
102
RTVSPropertyOp11
 70
     1
102
RTVSPropertyOp12
 70
     1
102
RTVSPropertyOp13
 70
     1
102
RTVSPropertyOp14
 70
     1
102
RTVSPropertyOp15
 70
     1
102
RTVSPropertyOp16
 70
     1
102
RTVSPropertyOp17
 70
     1
102
RTVSPropertyOp18
 70
     1
102
RTVSPropertyOp19
 70
     1
102
RTVSPropertyOp20
 70
     1
102
RTVSPropertyOp21
 70
     1
102
RTVSPropertyOp22
 70
     1
102
RTVSPropertyOp23
 70
     1
102
RTVSPropertyOp24
 70
     1
102
RTVSPropertyOp25
 70
     1
102
RTVSPropertyOp26
 70
     1
102
RTVSPropertyOp27
 70
     1
102
RTVSPropertyOp28
 70
     1
102
RTVSPropertyOp29
 70
     1
102
RTVSPropertyOp30
 70
     1
102
RTVSPropertyOp31
 70
     1
102
RTVSPropertyOp32
 70
     1
102
RTVSPropertyOp33
 70
     1
102
RTVSPropertyOp34
 70
     1
102
RTVSPropertyOp35
 70
     1
102
RTVSPropertyOp36
 70
     1
102
RTVSPropertyOp37
 70
     1
102
RTVSPropertyOp38
 70
     1
102
RTVSPropertyOp39
 70
     1
102
RTVSPropertyOp40
 70
     1
102
RTVSPropertyOp41
 70
     1
102
RTVSPropertyOp42
 70
     1
102
RTVSPropertyOp43
 70
     1
102
RTVSPropertyOp44
 70
     1
102
RTVSPropertyOp45
 70
     1
102
RTVSPropertyOp46
 70
     1
102
RTVSPropertyOp47
 70
     1
102
RTVSPropertyOp48
 70
     1
102
RTVSPropertyOp49
 70
     1
102
RTVSPropertyOp50
 70
     1
102
RTVSPropertyOp51
 70
     0
102
RTVSPropertyOp52
 70
     0
102
RTVSPropertyOp53
 70
     1
102
RTVSPropertyOp54
 70
     1
102
RTVSPropertyOp55
 70
     1
102
RTVSPropertyOp56
 70
     1
102
RTVSPropertyOp57
 70
     1
102
RTVSPropertyOp58
 70
     1
102
RTVSPropertyOp59
 70
     1
102
RTVSPropertyOp60
 70
     1
102
RTVSPropertyOp61
 70
     1
102
RTVSPropertyOp62
 70
     1
  0
XRECORD
  5
9EA6
102
{ACAD_REACTORS
330
9EA5
102
}
330
9EA5
100
AcDbXrecord
280
     1
102
RTVSPost2010Prop28
280
     0
102
RTVSPost2010PropOp28
 70
     1
102
RTVSPost2010Prop29
280
     1
102
RTVSPost2010PropOp29
 70
     1
102
RTVSPost2010Prop30
280
     1
102
RTVSPost2010PropOp30
 70
     1
102
RTVSPost2010Prop31
280
     0
102
RTVSPost2010PropOp31
 70
     1
102
RTVSPost2010Prop32
280
     0
102
RTVSPost2010PropOp32
 70
     1
102
RTVSPost2010Prop33
280
     0
102
RTVSPost2010PropOp33
 70
     1
102
RTVSPost2010Prop34
280
     0
102
RTVSPost2010PropOp34
 70
     1
102
RTVSPost2010Prop35
280
     0
102
RTVSPost2010PropOp35
 70
     1
102
RTVSPost2010Prop36
280
     0
102
RTVSPost2010PropOp36
 70
     1
102
RTVSPost2010Prop37
 90
       50
102
RTVSPost2010PropOp37
 70
     0
102
RTVSPost2010Prop38
140
0.0
102
RTVSPost2010PropOp38
 70
     0
102
RTVSPost2010Prop39
140
1.0
102
RTVSPost2010PropOp39
 70
     0
102
RTVSPost2010Prop40
 90
        0
102
RTVSPost2010PropOp40
 70
     0
102
RTVSPost2010Prop41ColorIndex
 90
       18
102
RTVSPost2010Prop41ColorRGB
 90
        0
102
RTVSPost2010PropOp41
 70
     0
102
RTVSPost2010Prop42
 90
       50
102
RTVSPost2010PropOp42
 70
     0
102
RTVSPost2010Prop43
 90
        3
102
RTVSPost2010PropOp43
 70
     0
102
RTVSPost2010Prop44ColorIndex
 90
        5
102
RTVSPost2010Prop44ColorRGB
 90
      255
102
RTVSPost2010PropOp44
 70
     0
102
RTVSPost2010Prop45
280
     0
102
RTVSPost2010PropOp45
 70
     1
102
RTVSPost2010Prop46
 90
       50
102
RTVSPost2010PropOp46
 70
     0
102
RTVSPost2010Prop47
 90
       50
102
RTVSPost2010PropOp47
 70
     0
102
RTVSPost2010Prop48
 90
       50
102
RTVSPost2010PropOp48
 70
     0
102
RTVSPost2010Prop49
280
     0
102
RTVSPost2010PropOp49
 70
     1
102
RTVSPost2010Prop50
 90
       50
102
RTVSPost2010PropOp50
 70
     0
102
RTVSPost2010Prop51ColorIndex
 90
      256
102
RTVSPost2010Prop51ColorRGB
 90
-16777216
102
RTVSPost2010PropOp51
 70
     0
102
RTVSPost2010Prop52
140
1.0
102
RTVSPost2010PropOp52
 70
     0
102
RTVSPost2010Prop53
 90
        2
102
RTVSPost2010PropOp53
 70
     0
102
RTVSPost2010Prop54
  1
strokes_ogs.tif
102
RTVSPost2010PropOp54
 70
     0
102
RTVSPost2010Prop55
280
     0
102
RTVSPost2010PropOp55
 70
     1
102
RTVSPost2010Prop56
140
1.0
102
RTVSPost2010PropOp56
 70
     0
102
RTVSPost2010Prop57
140
1.0
102
RTVSPost2010PropOp57
 70
     0
102
RTVSPropertyOp0
 70
     0
102
RTVSPropertyOp1
 70
     0
102
RTVSPropertyOp2
 70
     0
102
RTVSPropertyOp3
 70
     0
102
RTVSPropertyOp4
 70
     0
102
RTVSPropertyOp5
 70
     0
102
RTVSPropertyOp6
 70
     0
102
RTVSPropertyOp7
 70
     0
102
RTVSPropertyOp8
 70
     0
102
RTVSPropertyOp9
 70
     0
102
RTVSPropertyOp10
 70
     0
102
RTVSPropertyOp11
 70
     0
102
RTVSPropertyOp12
 70
     0
102
RTVSPropertyOp13
 70
     0
102
RTVSPropertyOp14
 70
     2
102
RTVSPropertyOp15
 70
     0
102
RTVSPropertyOp16
 70
     0
102
RTVSPropertyOp17
 70
     0
102
RTVSPropertyOp18
 70
     0
102
RTVSPropertyOp19
 70
     0
102
RTVSPropertyOp20
 70
     0
102
RTVSPropertyOp21
 70
     0
102
RTVSPropertyOp22
 70
     0
102
RTVSPropertyOp23
 70
     0
102
RTVSPropertyOp24
 70
     0
102
RTVSPropertyOp25
 70
     0
102
RTVSPropertyOp26
 70
     0
102
RTVSPropertyOp27
 70
     0
102
RTVSPropertyOp28
 70
     1
102
RTVSPropertyOp29
 70
     1
102
RTVSPropertyOp30
 70
     1
102
RTVSPropertyOp31
 70
     1
102
RTVSPropertyOp32
 70
     1
102
RTVSPropertyOp33
 70
     1
102
RTVSPropertyOp34
 70
     1
102
RTVSPropertyOp35
 70
     1
102
RTVSPropertyOp36
 70
     1
102
RTVSPropertyOp37
 70
     0
102
RTVSPropertyOp38
 70
     0
102
RTVSPropertyOp39
 70
     0
102
RTVSPropertyOp40
 70
     0
102
RTVSPropertyOp41
 70
     0
102
RTVSPropertyOp42
 70
     0
102
RTVSPropertyOp43
 70
     0
102
RTVSPropertyOp44
 70
     0
102
RTVSPropertyOp45
 70
     1
102
RTVSPropertyOp46
 70
     0
102
RTVSPropertyOp47
 70
     0
102
RTVSPropertyOp48
 70
     0
102
RTVSPropertyOp49
 70
     1
102
RTVSPropertyOp50
 70
     0
102
RTVSPropertyOp51
 70
     0
102
RTVSPropertyOp52
 70
     0
102
RTVSPropertyOp53
 70
     0
102
RTVSPropertyOp54
 70
     0
102
RTVSPropertyOp55
 70
     1
102
RTVSPropertyOp56
 70
     0
102
RTVSPropertyOp57
 70
     0
102
RTVSPropertyOp58
 70
     0
102
RTVSPropertyOp59
 70
     0
102
RTVSPropertyOp60
 70
     0
102
RTVSPropertyOp61
 70
     0
102
RTVSPropertyOp62
 70
     0
  0
XRECORD
  5
9E8C
102
{ACAD_REACTORS
330
9E8B
102
}
330
9E8B
100
AcDbXrecord
280
     1
102
RTVSPost2010Prop28
280
     0
102
RTVSPost2010PropOp28
 70
     1
102
RTVSPost2010Prop29
280
     1
102
RTVSPost2010PropOp29
 70
     1
102
RTVSPost2010Prop30
280
     1
102
RTVSPost2010PropOp30
 70
     1
102
RTVSPost2010Prop31
280
     0
102
RTVSPost2010PropOp31
 70
     1
102
RTVSPost2010Prop32
280
     0
102
RTVSPost2010PropOp32
 70
     1
102
RTVSPost2010Prop33
280
     0
102
RTVSPost2010PropOp33
 70
     1
102
RTVSPost2010Prop34
280
     0
102
RTVSPost2010PropOp34
 70
     1
102
RTVSPost2010Prop35
280
     0
102
RTVSPost2010PropOp35
 70
     1
102
RTVSPost2010Prop36
280
     0
102
RTVSPost2010PropOp36
 70
     1
102
RTVSPost2010Prop37
 90
       50
102
RTVSPost2010PropOp37
 70
     1
102
RTVSPost2010Prop38
140
0.0
102
RTVSPost2010PropOp38
 70
     1
102
RTVSPost2010Prop39
140
1.0
102
RTVSPost2010PropOp39
 70
     1
102
RTVSPost2010Prop40
 90
        0
102
RTVSPost2010PropOp40
 70
     1
102
RTVSPost2010Prop41ColorIndex
 90
       18
102
RTVSPost2010Prop41ColorRGB
 90
        0
102
RTVSPost2010PropOp41
 70
     1
102
RTVSPost2010Prop42
 90
       50
102
RTVSPost2010PropOp42
 70
     1
102
RTVSPost2010Prop43
 90
        3
102
RTVSPost2010PropOp43
 70
     1
102
RTVSPost2010Prop44ColorIndex
 90
        5
102
RTVSPost2010Prop44ColorRGB
 90
      255
102
RTVSPost2010PropOp44
 70
     1
102
RTVSPost2010Prop45
280
     0
102
RTVSPost2010PropOp45
 70
     1
102
RTVSPost2010Prop46
 90
       50
102
RTVSPost2010PropOp46
 70
     1
102
RTVSPost2010Prop47
 90
       50
102
RTVSPost2010PropOp47
 70
     1
102
RTVSPost2010Prop48
 90
       50
102
RTVSPost2010PropOp48
 70
     1
102
RTVSPost2010Prop49
280
     0
102
RTVSPost2010PropOp49
 70
     1
102
RTVSPost2010Prop50
 90
       50
102
RTVSPost2010PropOp50
 70
     1
102
RTVSPost2010Prop51ColorIndex
 90
      256
102
RTVSPost2010Prop51ColorRGB
 90
-16777216
102
RTVSPost2010PropOp51
 70
     0
102
RTVSPost2010Prop52
140
1.0
102
RTVSPost2010PropOp52
 70
     0
102
RTVSPost2010Prop53
 90
        2
102
RTVSPost2010PropOp53
 70
     1
102
RTVSPost2010Prop54
  1
strokes_ogs.tif
102
RTVSPost2010PropOp54
 70
     1
102
RTVSPost2010Prop55
280
     0
102
RTVSPost2010PropOp55
 70
     1
102
RTVSPost2010Prop56
140
1.0
102
RTVSPost2010PropOp56
 70
     1
102
RTVSPost2010Prop57
140
1.0
102
RTVSPost2010PropOp57
 70
     1
102
RTVSPropertyOp0
 70
     1
102
RTVSPropertyOp1
 70
     1
102
RTVSPropertyOp2
 70
     1
102
RTVSPropertyOp3
 70
     1
102
RTVSPropertyOp4
 70
     1
102
RTVSPropertyOp5
 70
     1
102
RTVSPropertyOp6
 70
     1
102
RTVSPropertyOp7
 70
     1
102
RTVSPropertyOp8
 70
     1
102
RTVSPropertyOp9
 70
     1
102
RTVSPropertyOp10
 70
     1
102
RTVSPropertyOp11
 70
     1
102
RTVSPropertyOp12
 70
     1
102
RTVSPropertyOp13
 70
     1
102
RTVSPropertyOp14
 70
     1
102
RTVSPropertyOp15
 70
     1
102
RTVSPropertyOp16
 70
     1
102
RTVSPropertyOp17
 70
     1
102
RTVSPropertyOp18
 70
     1
102
RTVSPropertyOp19
 70
     1
102
RTVSPropertyOp20
 70
     1
102
RTVSPropertyOp21
 70
     1
102
RTVSPropertyOp22
 70
     1
102
RTVSPropertyOp23
 70
     1
102
RTVSPropertyOp24
 70
     1
102
RTVSPropertyOp25
 70
     1
102
RTVSPropertyOp26
 70
     1
102
RTVSPropertyOp27
 70
     1
102
RTVSPropertyOp28
 70
     1
102
RTVSPropertyOp29
 70
     1
102
RTVSPropertyOp30
 70
     1
102
RTVSPropertyOp31
 70
     1
102
RTVSPropertyOp32
 70
     1
102
RTVSPropertyOp33
 70
     1
102
RTVSPropertyOp34
 70
     1
102
RTVSPropertyOp35
 70
     1
102
RTVSPropertyOp36
 70
     1
102
RTVSPropertyOp37
 70
     1
102
RTVSPropertyOp38
 70
     1
102
RTVSPropertyOp39
 70
     1
102
RTVSPropertyOp40
 70
     1
102
RTVSPropertyOp41
 70
     1
102
RTVSPropertyOp42
 70
     1
102
RTVSPropertyOp43
 70
     1
102
RTVSPropertyOp44
 70
     1
102
RTVSPropertyOp45
 70
     1
102
RTVSPropertyOp46
 70
     1
102
RTVSPropertyOp47
 70
     1
102
RTVSPropertyOp48
 70
     1
102
RTVSPropertyOp49
 70
     1
102
RTVSPropertyOp50
 70
     1
102
RTVSPropertyOp51
 70
     0
102
RTVSPropertyOp52
 70
     0
102
RTVSPropertyOp53
 70
     1
102
RTVSPropertyOp54
 70
     1
102
RTVSPropertyOp55
 70
     1
102
RTVSPropertyOp56
 70
     1
102
RTVSPropertyOp57
 70
     1
102
RTVSPropertyOp58
 70
     1
102
RTVSPropertyOp59
 70
     1
102
RTVSPropertyOp60
 70
     1
102
RTVSPropertyOp61
 70
     1
102
RTVSPropertyOp62
 70
     1
  0
XRECORD
  5
9EA2
102
{ACAD_REACTORS
330
9EA1
102
}
330
9EA1
100
AcDbXrecord
280
     1
102
RTVSPost2010Prop28
280
     0
102
RTVSPost2010PropOp28
 70
     1
102
RTVSPost2010Prop29
280
     1
102
RTVSPost2010PropOp29
 70
     1
102
RTVSPost2010Prop30
280
     1
102
RTVSPost2010PropOp30
 70
     1
102
RTVSPost2010Prop31
280
     0
102
RTVSPost2010PropOp31
 70
     1
102
RTVSPost2010Prop32
280
     0
102
RTVSPost2010PropOp32
 70
     1
102
RTVSPost2010Prop33
280
     0
102
RTVSPost2010PropOp33
 70
     1
102
RTVSPost2010Prop34
280
     0
102
RTVSPost2010PropOp34
 70
     1
102
RTVSPost2010Prop35
280
     0
102
RTVSPost2010PropOp35
 70
     1
102
RTVSPost2010Prop36
280
     0
102
RTVSPost2010PropOp36
 70
     1
102
RTVSPost2010Prop37
 90
       50
102
RTVSPost2010PropOp37
 70
     1
102
RTVSPost2010Prop38
140
0.0
102
RTVSPost2010PropOp38
 70
     1
102
RTVSPost2010Prop39
140
1.0
102
RTVSPost2010PropOp39
 70
     1
102
RTVSPost2010Prop40
 90
        0
102
RTVSPost2010PropOp40
 70
     1
102
RTVSPost2010Prop41ColorIndex
 90
       18
102
RTVSPost2010Prop41ColorRGB
 90
        0
102
RTVSPost2010PropOp41
 70
     1
102
RTVSPost2010Prop42
 90
       50
102
RTVSPost2010PropOp42
 70
     1
102
RTVSPost2010Prop43
 90
        3
102
RTVSPost2010PropOp43
 70
     1
102
RTVSPost2010Prop44ColorIndex
 90
        5
102
RTVSPost2010Prop44ColorRGB
 90
      255
102
RTVSPost2010PropOp44
 70
     1
102
RTVSPost2010Prop45
280
     0
102
RTVSPost2010PropOp45
 70
     1
102
RTVSPost2010Prop46
 90
       50
102
RTVSPost2010PropOp46
 70
     1
102
RTVSPost2010Prop47
 90
       50
102
RTVSPost2010PropOp47
 70
     1
102
RTVSPost2010Prop48
 90
       50
102
RTVSPost2010PropOp48
 70
     1
102
RTVSPost2010Prop49
280
     0
102
RTVSPost2010PropOp49
 70
     1
102
RTVSPost2010Prop50
 90
       50
102
RTVSPost2010PropOp50
 70
     1
102
RTVSPost2010Prop51ColorIndex
 90
      256
102
RTVSPost2010Prop51ColorRGB
 90
-16777216
102
RTVSPost2010PropOp51
 70
     0
102
RTVSPost2010Prop52
140
1.0
102
RTVSPost2010PropOp52
 70
     0
102
RTVSPost2010Prop53
 90
        2
102
RTVSPost2010PropOp53
 70
     1
102
RTVSPost2010Prop54
  1
strokes_ogs.tif
102
RTVSPost2010PropOp54
 70
     1
102
RTVSPost2010Prop55
280
     0
102
RTVSPost2010PropOp55
 70
     1
102
RTVSPost2010Prop56
140
1.0
102
RTVSPost2010PropOp56
 70
     1
102
RTVSPost2010Prop57
140
1.0
102
RTVSPost2010PropOp57
 70
     1
102
RTVSPropertyOp0
 70
     1
102
RTVSPropertyOp1
 70
     1
102
RTVSPropertyOp2
 70
     1
102
RTVSPropertyOp3
 70
     1
102
RTVSPropertyOp4
 70
     1
102
RTVSPropertyOp5
 70
     1
102
RTVSPropertyOp6
 70
     1
102
RTVSPropertyOp7
 70
     1
102
RTVSPropertyOp8
 70
     1
102
RTVSPropertyOp9
 70
     1
102
RTVSPropertyOp10
 70
     1
102
RTVSPropertyOp11
 70
     1
102
RTVSPropertyOp12
 70
     1
102
RTVSPropertyOp13
 70
     1
102
RTVSPropertyOp14
 70
     1
102
RTVSPropertyOp15
 70
     1
102
RTVSPropertyOp16
 70
     1
102
RTVSPropertyOp17
 70
     1
102
RTVSPropertyOp18
 70
     1
102
RTVSPropertyOp19
 70
     1
102
RTVSPropertyOp20
 70
     1
102
RTVSPropertyOp21
 70
     1
102
RTVSPropertyOp22
 70
     1
102
RTVSPropertyOp23
 70
     1
102
RTVSPropertyOp24
 70
     1
102
RTVSPropertyOp25
 70
     1
102
RTVSPropertyOp26
 70
     1
102
RTVSPropertyOp27
 70
     1
102
RTVSPropertyOp28
 70
     1
102
RTVSPropertyOp29
 70
     1
102
RTVSPropertyOp30
 70
     1
102
RTVSPropertyOp31
 70
     1
102
RTVSPropertyOp32
 70
     1
102
RTVSPropertyOp33
 70
     1
102
RTVSPropertyOp34
 70
     1
102
RTVSPropertyOp35
 70
     1
102
RTVSPropertyOp36
 70
     1
102
RTVSPropertyOp37
 70
     1
102
RTVSPropertyOp38
 70
     1
102
RTVSPropertyOp39
 70
     1
102
RTVSPropertyOp40
 70
     1
102
RTVSPropertyOp41
 70
     1
102
RTVSPropertyOp42
 70
     1
102
RTVSPropertyOp43
 70
     1
102
RTVSPropertyOp44
 70
     1
102
RTVSPropertyOp45
 70
     1
102
RTVSPropertyOp46
 70
     1
102
RTVSPropertyOp47
 70
     1
102
RTVSPropertyOp48
 70
     1
102
RTVSPropertyOp49
 70
     1
102
RTVSPropertyOp50
 70
     1
102
RTVSPropertyOp51
 70
     0
102
RTVSPropertyOp52
 70
     0
102
RTVSPropertyOp53
 70
     1
102
RTVSPropertyOp54
 70
     1
102
RTVSPropertyOp55
 70
     1
102
RTVSPropertyOp56
 70
     1
102
RTVSPropertyOp57
 70
     1
102
RTVSPropertyOp58
 70
     1
102
RTVSPropertyOp59
 70
     1
102
RTVSPropertyOp60
 70
     1
102
RTVSPropertyOp61
 70
     1
102
RTVSPropertyOp62
 70
     1
  0
XRECORD
  5
9EA0
102
{ACAD_REACTORS
330
9E9F
102
}
330
9E9F
100
AcDbXrecord
280
     1
102
RTVSPost2010Prop28
280
     0
102
RTVSPost2010PropOp28
 70
     1
102
RTVSPost2010Prop29
280
     1
102
RTVSPost2010PropOp29
 70
     1
102
RTVSPost2010Prop30
280
     1
102
RTVSPost2010PropOp30
 70
     1
102
RTVSPost2010Prop31
280
     0
102
RTVSPost2010PropOp31
 70
     1
102
RTVSPost2010Prop32
280
     0
102
RTVSPost2010PropOp32
 70
     1
102
RTVSPost2010Prop33
280
     0
102
RTVSPost2010PropOp33
 70
     1
102
RTVSPost2010Prop34
280
     0
102
RTVSPost2010PropOp34
 70
     1
102
RTVSPost2010Prop35
280
     0
102
RTVSPost2010PropOp35
 70
     1
102
RTVSPost2010Prop36
280
     0
102
RTVSPost2010PropOp36
 70
     1
102
RTVSPost2010Prop37
 90
       50
102
RTVSPost2010PropOp37
 70
     1
102
RTVSPost2010Prop38
140
0.0
102
RTVSPost2010PropOp38
 70
     1
102
RTVSPost2010Prop39
140
1.0
102
RTVSPost2010PropOp39
 70
     1
102
RTVSPost2010Prop40
 90
        0
102
RTVSPost2010PropOp40
 70
     1
102
RTVSPost2010Prop41ColorIndex
 90
       18
102
RTVSPost2010Prop41ColorRGB
 90
        0
102
RTVSPost2010PropOp41
 70
     1
102
RTVSPost2010Prop42
 90
       50
102
RTVSPost2010PropOp42
 70
     1
102
RTVSPost2010Prop43
 90
        3
102
RTVSPost2010PropOp43
 70
     1
102
RTVSPost2010Prop44ColorIndex
 90
        5
102
RTVSPost2010Prop44ColorRGB
 90
      255
102
RTVSPost2010PropOp44
 70
     1
102
RTVSPost2010Prop45
280
     0
102
RTVSPost2010PropOp45
 70
     1
102
RTVSPost2010Prop46
 90
       50
102
RTVSPost2010PropOp46
 70
     1
102
RTVSPost2010Prop47
 90
       50
102
RTVSPost2010PropOp47
 70
     1
102
RTVSPost2010Prop48
 90
       50
102
RTVSPost2010PropOp48
 70
     1
102
RTVSPost2010Prop49
280
     0
102
RTVSPost2010PropOp49
 70
     1
102
RTVSPost2010Prop50
 90
       50
102
RTVSPost2010PropOp50
 70
     1
102
RTVSPost2010Prop51ColorIndex
 90
      256
102
RTVSPost2010Prop51ColorRGB
 90
-16777216
102
RTVSPost2010PropOp51
 70
     0
102
RTVSPost2010Prop52
140
1.0
102
RTVSPost2010PropOp52
 70
     0
102
RTVSPost2010Prop53
 90
        2
102
RTVSPost2010PropOp53
 70
     1
102
RTVSPost2010Prop54
  1
strokes_ogs.tif
102
RTVSPost2010PropOp54
 70
     1
102
RTVSPost2010Prop55
280
     0
102
RTVSPost2010PropOp55
 70
     1
102
RTVSPost2010Prop56
140
1.0
102
RTVSPost2010PropOp56
 70
     1
102
RTVSPost2010Prop57
140
1.0
102
RTVSPost2010PropOp57
 70
     1
102
RTVSPropertyOp0
 70
     1
102
RTVSPropertyOp1
 70
     1
102
RTVSPropertyOp2
 70
     1
102
RTVSPropertyOp3
 70
     1
102
RTVSPropertyOp4
 70
     1
102
RTVSPropertyOp5
 70
     1
102
RTVSPropertyOp6
 70
     1
102
RTVSPropertyOp7
 70
     1
102
RTVSPropertyOp8
 70
     1
102
RTVSPropertyOp9
 70
     1
102
RTVSPropertyOp10
 70
     1
102
RTVSPropertyOp11
 70
     1
102
RTVSPropertyOp12
 70
     1
102
RTVSPropertyOp13
 70
     1
102
RTVSPropertyOp14
 70
     1
102
RTVSPropertyOp15
 70
     1
102
RTVSPropertyOp16
 70
     1
102
RTVSPropertyOp17
 70
     1
102
RTVSPropertyOp18
 70
     1
102
RTVSPropertyOp19
 70
     1
102
RTVSPropertyOp20
 70
     1
102
RTVSPropertyOp21
 70
     1
102
RTVSPropertyOp22
 70
     1
102
RTVSPropertyOp23
 70
     1
102
RTVSPropertyOp24
 70
     1
102
RTVSPropertyOp25
 70
     1
102
RTVSPropertyOp26
 70
     1
102
RTVSPropertyOp27
 70
     1
102
RTVSPropertyOp28
 70
     1
102
RTVSPropertyOp29
 70
     1
102
RTVSPropertyOp30
 70
     1
102
RTVSPropertyOp31
 70
     1
102
RTVSPropertyOp32
 70
     1
102
RTVSPropertyOp33
 70
     1
102
RTVSPropertyOp34
 70
     1
102
RTVSPropertyOp35
 70
     1
102
RTVSPropertyOp36
 70
     1
102
RTVSPropertyOp37
 70
     1
102
RTVSPropertyOp38
 70
     1
102
RTVSPropertyOp39
 70
     1
102
RTVSPropertyOp40
 70
     1
102
RTVSPropertyOp41
 70
     1
102
RTVSPropertyOp42
 70
     1
102
RTVSPropertyOp43
 70
     1
102
RTVSPropertyOp44
 70
     1
102
RTVSPropertyOp45
 70
     1
102
RTVSPropertyOp46
 70
     1
102
RTVSPropertyOp47
 70
     1
102
RTVSPropertyOp48
 70
     1
102
RTVSPropertyOp49
 70
     1
102
RTVSPropertyOp50
 70
     1
102
RTVSPropertyOp51
 70
     0
102
RTVSPropertyOp52
 70
     0
102
RTVSPropertyOp53
 70
     1
102
RTVSPropertyOp54
 70
     1
102
RTVSPropertyOp55
 70
     1
102
RTVSPropertyOp56
 70
     1
102
RTVSPropertyOp57
 70
     1
102
RTVSPropertyOp58
 70
     1
102
RTVSPropertyOp59
 70
     1
102
RTVSPropertyOp60
 70
     1
102
RTVSPropertyOp61
 70
     1
102
RTVSPropertyOp62
 70
     1
  0
XRECORD
  5
9E9A
102
{ACAD_REACTORS
330
9E99
102
}
330
9E99
100
AcDbXrecord
280
     1
102
RTVSPost2010Prop28
280
     0
102
RTVSPost2010PropOp28
 70
     1
102
RTVSPost2010Prop29
280
     1
102
RTVSPost2010PropOp29
 70
     1
102
RTVSPost2010Prop30
280
     1
102
RTVSPost2010PropOp30
 70
     1
102
RTVSPost2010Prop31
280
     0
102
RTVSPost2010PropOp31
 70
     1
102
RTVSPost2010Prop32
280
     0
102
RTVSPost2010PropOp32
 70
     1
102
RTVSPost2010Prop33
280
     0
102
RTVSPost2010PropOp33
 70
     1
102
RTVSPost2010Prop34
280
     0
102
RTVSPost2010PropOp34
 70
     1
102
RTVSPost2010Prop35
280
     0
102
RTVSPost2010PropOp35
 70
     1
102
RTVSPost2010Prop36
280
     0
102
RTVSPost2010PropOp36
 70
     1
102
RTVSPost2010Prop37
 90
       50
102
RTVSPost2010PropOp37
 70
     1
102
RTVSPost2010Prop38
140
0.0
102
RTVSPost2010PropOp38
 70
     1
102
RTVSPost2010Prop39
140
1.0
102
RTVSPost2010PropOp39
 70
     1
102
RTVSPost2010Prop40
 90
        0
102
RTVSPost2010PropOp40
 70
     1
102
RTVSPost2010Prop41ColorIndex
 90
       18
102
RTVSPost2010Prop41ColorRGB
 90
        0
102
RTVSPost2010PropOp41
 70
     1
102
RTVSPost2010Prop42
 90
       50
102
RTVSPost2010PropOp42
 70
     1
102
RTVSPost2010Prop43
 90
        3
102
RTVSPost2010PropOp43
 70
     1
102
RTVSPost2010Prop44ColorIndex
 90
        5
102
RTVSPost2010Prop44ColorRGB
 90
      255
102
RTVSPost2010PropOp44
 70
     1
102
RTVSPost2010Prop45
280
     0
102
RTVSPost2010PropOp45
 70
     1
102
RTVSPost2010Prop46
 90
       50
102
RTVSPost2010PropOp46
 70
     1
102
RTVSPost2010Prop47
 90
       50
102
RTVSPost2010PropOp47
 70
     1
102
RTVSPost2010Prop48
 90
       50
102
RTVSPost2010PropOp48
 70
     1
102
RTVSPost2010Prop49
280
     0
102
RTVSPost2010PropOp49
 70
     1
102
RTVSPost2010Prop50
 90
       50
102
RTVSPost2010PropOp50
 70
     1
102
RTVSPost2010Prop51ColorIndex
 90
      256
102
RTVSPost2010Prop51ColorRGB
 90
-16777216
102
RTVSPost2010PropOp51
 70
     0
102
RTVSPost2010Prop52
140
1.0
102
RTVSPost2010PropOp52
 70
     0
102
RTVSPost2010Prop53
 90
        2
102
RTVSPost2010PropOp53
 70
     1
102
RTVSPost2010Prop54
  1
strokes_ogs.tif
102
RTVSPost2010PropOp54
 70
     1
102
RTVSPost2010Prop55
280
     0
102
RTVSPost2010PropOp55
 70
     1
102
RTVSPost2010Prop56
140
1.0
102
RTVSPost2010PropOp56
 70
     1
102
RTVSPost2010Prop57
140
1.0
102
RTVSPost2010PropOp57
 70
     1
102
RTVSPropertyOp0
 70
     1
102
RTVSPropertyOp1
 70
     1
102
RTVSPropertyOp2
 70
     1
102
RTVSPropertyOp3
 70
     1
102
RTVSPropertyOp4
 70
     1
102
RTVSPropertyOp5
 70
     1
102
RTVSPropertyOp6
 70
     1
102
RTVSPropertyOp7
 70
     1
102
RTVSPropertyOp8
 70
     1
102
RTVSPropertyOp9
 70
     1
102
RTVSPropertyOp10
 70
     1
102
RTVSPropertyOp11
 70
     1
102
RTVSPropertyOp12
 70
     1
102
RTVSPropertyOp13
 70
     1
102
RTVSPropertyOp14
 70
     1
102
RTVSPropertyOp15
 70
     1
102
RTVSPropertyOp16
 70
     1
102
RTVSPropertyOp17
 70
     1
102
RTVSPropertyOp18
 70
     1
102
RTVSPropertyOp19
 70
     1
102
RTVSPropertyOp20
 70
     1
102
RTVSPropertyOp21
 70
     1
102
RTVSPropertyOp22
 70
     1
102
RTVSPropertyOp23
 70
     1
102
RTVSPropertyOp24
 70
     1
102
RTVSPropertyOp25
 70
     1
102
RTVSPropertyOp26
 70
     1
102
RTVSPropertyOp27
 70
     1
102
RTVSPropertyOp28
 70
     1
102
RTVSPropertyOp29
 70
     1
102
RTVSPropertyOp30
 70
     1
102
RTVSPropertyOp31
 70
     1
102
RTVSPropertyOp32
 70
     1
102
RTVSPropertyOp33
 70
     1
102
RTVSPropertyOp34
 70
     1
102
RTVSPropertyOp35
 70
     1
102
RTVSPropertyOp36
 70
     1
102
RTVSPropertyOp37
 70
     1
102
RTVSPropertyOp38
 70
     1
102
RTVSPropertyOp39
 70
     1
102
RTVSPropertyOp40
 70
     1
102
RTVSPropertyOp41
 70
     1
102
RTVSPropertyOp42
 70
     1
102
RTVSPropertyOp43
 70
     1
102
RTVSPropertyOp44
 70
     1
102
RTVSPropertyOp45
 70
     1
102
RTVSPropertyOp46
 70
     1
102
RTVSPropertyOp47
 70
     1
102
RTVSPropertyOp48
 70
     1
102
RTVSPropertyOp49
 70
     1
102
RTVSPropertyOp50
 70
     1
102
RTVSPropertyOp51
 70
     0
102
RTVSPropertyOp52
 70
     0
102
RTVSPropertyOp53
 70
     1
102
RTVSPropertyOp54
 70
     1
102
RTVSPropertyOp55
 70
     1
102
RTVSPropertyOp56
 70
     1
102
RTVSPropertyOp57
 70
     1
102
RTVSPropertyOp58
 70
     1
102
RTVSPropertyOp59
 70
     1
102
RTVSPropertyOp60
 70
     1
102
RTVSPropertyOp61
 70
     1
102
RTVSPropertyOp62
 70
     1
  0
XRECORD
  5
9E9C
102
{ACAD_REACTORS
330
9E9B
102
}
330
9E9B
100
AcDbXrecord
280
     1
102
RTVSPost2010Prop28
280
     0
102
RTVSPost2010PropOp28
 70
     1
102
RTVSPost2010Prop29
280
     1
102
RTVSPost2010PropOp29
 70
     1
102
RTVSPost2010Prop30
280
     1
102
RTVSPost2010PropOp30
 70
     1
102
RTVSPost2010Prop31
280
     0
102
RTVSPost2010PropOp31
 70
     1
102
RTVSPost2010Prop32
280
     0
102
RTVSPost2010PropOp32
 70
     1
102
RTVSPost2010Prop33
280
     0
102
RTVSPost2010PropOp33
 70
     1
102
RTVSPost2010Prop34
280
     0
102
RTVSPost2010PropOp34
 70
     1
102
RTVSPost2010Prop35
280
     0
102
RTVSPost2010PropOp35
 70
     1
102
RTVSPost2010Prop36
280
     0
102
RTVSPost2010PropOp36
 70
     1
102
RTVSPost2010Prop37
 90
       50
102
RTVSPost2010PropOp37
 70
     1
102
RTVSPost2010Prop38
140
0.0
102
RTVSPost2010PropOp38
 70
     1
102
RTVSPost2010Prop39
140
1.0
102
RTVSPost2010PropOp39
 70
     1
102
RTVSPost2010Prop40
 90
        0
102
RTVSPost2010PropOp40
 70
     1
102
RTVSPost2010Prop41ColorIndex
 90
       18
102
RTVSPost2010Prop41ColorRGB
 90
        0
102
RTVSPost2010PropOp41
 70
     1
102
RTVSPost2010Prop42
 90
       50
102
RTVSPost2010PropOp42
 70
     1
102
RTVSPost2010Prop43
 90
        3
102
RTVSPost2010PropOp43
 70
     1
102
RTVSPost2010Prop44ColorIndex
 90
        5
102
RTVSPost2010Prop44ColorRGB
 90
      255
102
RTVSPost2010PropOp44
 70
     1
102
RTVSPost2010Prop45
280
     0
102
RTVSPost2010PropOp45
 70
     1
102
RTVSPost2010Prop46
 90
       50
102
RTVSPost2010PropOp46
 70
     1
102
RTVSPost2010Prop47
 90
       50
102
RTVSPost2010PropOp47
 70
     1
102
RTVSPost2010Prop48
 90
       50
102
RTVSPost2010PropOp48
 70
     1
102
RTVSPost2010Prop49
280
     0
102
RTVSPost2010PropOp49
 70
     1
102
RTVSPost2010Prop50
 90
       50
102
RTVSPost2010PropOp50
 70
     1
102
RTVSPost2010Prop51ColorIndex
 90
      256
102
RTVSPost2010Prop51ColorRGB
 90
-16777216
102
RTVSPost2010PropOp51
 70
     0
102
RTVSPost2010Prop52
140
1.0
102
RTVSPost2010PropOp52
 70
     0
102
RTVSPost2010Prop53
 90
        2
102
RTVSPost2010PropOp53
 70
     1
102
RTVSPost2010Prop54
  1
strokes_ogs.tif
102
RTVSPost2010PropOp54
 70
     1
102
RTVSPost2010Prop55
280
     0
102
RTVSPost2010PropOp55
 70
     1
102
RTVSPost2010Prop56
140
1.0
102
RTVSPost2010PropOp56
 70
     1
102
RTVSPost2010Prop57
140
1.0
102
RTVSPost2010PropOp57
 70
     1
102
RTVSPropertyOp0
 70
     1
102
RTVSPropertyOp1
 70
     1
102
RTVSPropertyOp2
 70
     1
102
RTVSPropertyOp3
 70
     1
102
RTVSPropertyOp4
 70
     1
102
RTVSPropertyOp5
 70
     1
102
RTVSPropertyOp6
 70
     1
102
RTVSPropertyOp7
 70
     1
102
RTVSPropertyOp8
 70
     1
102
RTVSPropertyOp9
 70
     1
102
RTVSPropertyOp10
 70
     1
102
RTVSPropertyOp11
 70
     1
102
RTVSPropertyOp12
 70
     1
102
RTVSPropertyOp13
 70
     1
102
RTVSPropertyOp14
 70
     1
102
RTVSPropertyOp15
 70
     1
102
RTVSPropertyOp16
 70
     1
102
RTVSPropertyOp17
 70
     1
102
RTVSPropertyOp18
 70
     1
102
RTVSPropertyOp19
 70
     1
102
RTVSPropertyOp20
 70
     1
102
RTVSPropertyOp21
 70
     1
102
RTVSPropertyOp22
 70
     1
102
RTVSPropertyOp23
 70
     1
102
RTVSPropertyOp24
 70
     1
102
RTVSPropertyOp25
 70
     1
102
RTVSPropertyOp26
 70
     1
102
RTVSPropertyOp27
 70
     1
102
RTVSPropertyOp28
 70
     1
102
RTVSPropertyOp29
 70
     1
102
RTVSPropertyOp30
 70
     1
102
RTVSPropertyOp31
 70
     1
102
RTVSPropertyOp32
 70
     1
102
RTVSPropertyOp33
 70
     1
102
RTVSPropertyOp34
 70
     1
102
RTVSPropertyOp35
 70
     1
102
RTVSPropertyOp36
 70
     1
102
RTVSPropertyOp37
 70
     1
102
RTVSPropertyOp38
 70
     1
102
RTVSPropertyOp39
 70
     1
102
RTVSPropertyOp40
 70
     1
102
RTVSPropertyOp41
 70
     1
102
RTVSPropertyOp42
 70
     1
102
RTVSPropertyOp43
 70
     1
102
RTVSPropertyOp44
 70
     1
102
RTVSPropertyOp45
 70
     1
102
RTVSPropertyOp46
 70
     1
102
RTVSPropertyOp47
 70
     1
102
RTVSPropertyOp48
 70
     1
102
RTVSPropertyOp49
 70
     1
102
RTVSPropertyOp50
 70
     1
102
RTVSPropertyOp51
 70
     0
102
RTVSPropertyOp52
 70
     0
102
RTVSPropertyOp53
 70
     1
102
RTVSPropertyOp54
 70
     1
102
RTVSPropertyOp55
 70
     1
102
RTVSPropertyOp56
 70
     1
102
RTVSPropertyOp57
 70
     1
102
RTVSPropertyOp58
 70
     1
102
RTVSPropertyOp59
 70
     1
102
RTVSPropertyOp60
 70
     1
102
RTVSPropertyOp61
 70
     1
102
RTVSPropertyOp62
 70
     1
  0
XRECORD
  5
9E92
102
{ACAD_REACTORS
330
9E91
102
}
330
9E91
100
AcDbXrecord
280
     1
102
RTVSPost2010Prop28
280
     0
102
RTVSPost2010PropOp28
 70
     1
102
RTVSPost2010Prop29
280
     1
102
RTVSPost2010PropOp29
 70
     1
102
RTVSPost2010Prop30
280
     1
102
RTVSPost2010PropOp30
 70
     1
102
RTVSPost2010Prop31
280
     0
102
RTVSPost2010PropOp31
 70
     1
102
RTVSPost2010Prop32
280
     0
102
RTVSPost2010PropOp32
 70
     1
102
RTVSPost2010Prop33
280
     0
102
RTVSPost2010PropOp33
 70
     1
102
RTVSPost2010Prop34
280
     0
102
RTVSPost2010PropOp34
 70
     1
102
RTVSPost2010Prop35
280
     0
102
RTVSPost2010PropOp35
 70
     1
102
RTVSPost2010Prop36
280
     0
102
RTVSPost2010PropOp36
 70
     1
102
RTVSPost2010Prop37
 90
       50
102
RTVSPost2010PropOp37
 70
     1
102
RTVSPost2010Prop38
140
0.0
102
RTVSPost2010PropOp38
 70
     1
102
RTVSPost2010Prop39
140
1.0
102
RTVSPost2010PropOp39
 70
     1
102
RTVSPost2010Prop40
 90
        0
102
RTVSPost2010PropOp40
 70
     1
102
RTVSPost2010Prop41ColorIndex
 90
       18
102
RTVSPost2010Prop41ColorRGB
 90
        0
102
RTVSPost2010PropOp41
 70
     1
102
RTVSPost2010Prop42
 90
       50
102
RTVSPost2010PropOp42
 70
     1
102
RTVSPost2010Prop43
 90
        3
102
RTVSPost2010PropOp43
 70
     1
102
RTVSPost2010Prop44ColorIndex
 90
        5
102
RTVSPost2010Prop44ColorRGB
 90
      255
102
RTVSPost2010PropOp44
 70
     1
102
RTVSPost2010Prop45
280
     0
102
RTVSPost2010PropOp45
 70
     1
102
RTVSPost2010Prop46
 90
       50
102
RTVSPost2010PropOp46
 70
     1
102
RTVSPost2010Prop47
 90
       50
102
RTVSPost2010PropOp47
 70
     1
102
RTVSPost2010Prop48
 90
       50
102
RTVSPost2010PropOp48
 70
     1
102
RTVSPost2010Prop49
280
     0
102
RTVSPost2010PropOp49
 70
     1
102
RTVSPost2010Prop50
 90
       50
102
RTVSPost2010PropOp50
 70
     1
102
RTVSPost2010Prop51ColorIndex
 90
      256
102
RTVSPost2010Prop51ColorRGB
 90
-16777216
102
RTVSPost2010PropOp51
 70
     0
102
RTVSPost2010Prop52
140
1.0
102
RTVSPost2010PropOp52
 70
     0
102
RTVSPost2010Prop53
 90
        2
102
RTVSPost2010PropOp53
 70
     1
102
RTVSPost2010Prop54
  1
strokes_ogs.tif
102
RTVSPost2010PropOp54
 70
     1
102
RTVSPost2010Prop55
280
     0
102
RTVSPost2010PropOp55
 70
     1
102
RTVSPost2010Prop56
140
1.0
102
RTVSPost2010PropOp56
 70
     1
102
RTVSPost2010Prop57
140
1.0
102
RTVSPost2010PropOp57
 70
     1
102
RTVSPropertyOp0
 70
     1
102
RTVSPropertyOp1
 70
     1
102
RTVSPropertyOp2
 70
     1
102
RTVSPropertyOp3
 70
     1
102
RTVSPropertyOp4
 70
     1
102
RTVSPropertyOp5
 70
     1
102
RTVSPropertyOp6
 70
     1
102
RTVSPropertyOp7
 70
     1
102
RTVSPropertyOp8
 70
     1
102
RTVSPropertyOp9
 70
     1
102
RTVSPropertyOp10
 70
     1
102
RTVSPropertyOp11
 70
     1
102
RTVSPropertyOp12
 70
     1
102
RTVSPropertyOp13
 70
     1
102
RTVSPropertyOp14
 70
     1
102
RTVSPropertyOp15
 70
     1
102
RTVSPropertyOp16
 70
     1
102
RTVSPropertyOp17
 70
     1
102
RTVSPropertyOp18
 70
     1
102
RTVSPropertyOp19
 70
     1
102
RTVSPropertyOp20
 70
     1
102
RTVSPropertyOp21
 70
     1
102
RTVSPropertyOp22
 70
     1
102
RTVSPropertyOp23
 70
     1
102
RTVSPropertyOp24
 70
     1
102
RTVSPropertyOp25
 70
     1
102
RTVSPropertyOp26
 70
     1
102
RTVSPropertyOp27
 70
     1
102
RTVSPropertyOp28
 70
     1
102
RTVSPropertyOp29
 70
     1
102
RTVSPropertyOp30
 70
     1
102
RTVSPropertyOp31
 70
     1
102
RTVSPropertyOp32
 70
     1
102
RTVSPropertyOp33
 70
     1
102
RTVSPropertyOp34
 70
     1
102
RTVSPropertyOp35
 70
     1
102
RTVSPropertyOp36
 70
     1
102
RTVSPropertyOp37
 70
     1
102
RTVSPropertyOp38
 70
     1
102
RTVSPropertyOp39
 70
     1
102
RTVSPropertyOp40
 70
     1
102
RTVSPropertyOp41
 70
     1
102
RTVSPropertyOp42
 70
     1
102
RTVSPropertyOp43
 70
     1
102
RTVSPropertyOp44
 70
     1
102
RTVSPropertyOp45
 70
     1
102
RTVSPropertyOp46
 70
     1
102
RTVSPropertyOp47
 70
     1
102
RTVSPropertyOp48
 70
     1
102
RTVSPropertyOp49
 70
     1
102
RTVSPropertyOp50
 70
     1
102
RTVSPropertyOp51
 70
     0
102
RTVSPropertyOp52
 70
     0
102
RTVSPropertyOp53
 70
     1
102
RTVSPropertyOp54
 70
     1
102
RTVSPropertyOp55
 70
     1
102
RTVSPropertyOp56
 70
     1
102
RTVSPropertyOp57
 70
     1
102
RTVSPropertyOp58
 70
     1
102
RTVSPropertyOp59
 70
     1
102
RTVSPropertyOp60
 70
     1
102
RTVSPropertyOp61
 70
     1
102
RTVSPropertyOp62
 70
     1
  0
XRECORD
  5
9E86
102
{ACAD_REACTORS
330
9E85
102
}
330
9E85
100
AcDbXrecord
280
     1
102
RTVSPost2010Prop28
280
     0
102
RTVSPost2010PropOp28
 70
     1
102
RTVSPost2010Prop29
280
     1
102
RTVSPost2010PropOp29
 70
     1
102
RTVSPost2010Prop30
280
     1
102
RTVSPost2010PropOp30
 70
     1
102
RTVSPost2010Prop31
280
     0
102
RTVSPost2010PropOp31
 70
     1
102
RTVSPost2010Prop32
280
     0
102
RTVSPost2010PropOp32
 70
     1
102
RTVSPost2010Prop33
280
     0
102
RTVSPost2010PropOp33
 70
     1
102
RTVSPost2010Prop34
280
     0
102
RTVSPost2010PropOp34
 70
     1
102
RTVSPost2010Prop35
280
     0
102
RTVSPost2010PropOp35
 70
     1
102
RTVSPost2010Prop36
280
     0
102
RTVSPost2010PropOp36
 70
     1
102
RTVSPost2010Prop37
 90
       50
102
RTVSPost2010PropOp37
 70
     1
102
RTVSPost2010Prop38
140
0.0
102
RTVSPost2010PropOp38
 70
     1
102
RTVSPost2010Prop39
140
1.0
102
RTVSPost2010PropOp39
 70
     1
102
RTVSPost2010Prop40
 90
        0
102
RTVSPost2010PropOp40
 70
     1
102
RTVSPost2010Prop41ColorIndex
 90
       18
102
RTVSPost2010Prop41ColorRGB
 90
        0
102
RTVSPost2010PropOp41
 70
     1
102
RTVSPost2010Prop42
 90
       50
102
RTVSPost2010PropOp42
 70
     1
102
RTVSPost2010Prop43
 90
        3
102
RTVSPost2010PropOp43
 70
     1
102
RTVSPost2010Prop44ColorIndex
 90
        5
102
RTVSPost2010Prop44ColorRGB
 90
      255
102
RTVSPost2010PropOp44
 70
     1
102
RTVSPost2010Prop45
280
     0
102
RTVSPost2010PropOp45
 70
     1
102
RTVSPost2010Prop46
 90
       50
102
RTVSPost2010PropOp46
 70
     1
102
RTVSPost2010Prop47
 90
       50
102
RTVSPost2010PropOp47
 70
     1
102
RTVSPost2010Prop48
 90
       50
102
RTVSPost2010PropOp48
 70
     1
102
RTVSPost2010Prop49
280
     0
102
RTVSPost2010PropOp49
 70
     1
102
RTVSPost2010Prop50
 90
       50
102
RTVSPost2010PropOp50
 70
     1
102
RTVSPost2010Prop51ColorIndex
 90
      256
102
RTVSPost2010Prop51ColorRGB
 90
-16777216
102
RTVSPost2010PropOp51
 70
     0
102
RTVSPost2010Prop52
140
1.0
102
RTVSPost2010PropOp52
 70
     0
102
RTVSPost2010Prop53
 90
        2
102
RTVSPost2010PropOp53
 70
     1
102
RTVSPost2010Prop54
  1
strokes_ogs.tif
102
RTVSPost2010PropOp54
 70
     1
102
RTVSPost2010Prop55
280
     0
102
RTVSPost2010PropOp55
 70
     1
102
RTVSPost2010Prop56
140
1.0
102
RTVSPost2010PropOp56
 70
     1
102
RTVSPost2010Prop57
140
1.0
102
RTVSPost2010PropOp57
 70
     1
102
RTVSPropertyOp0
 70
     1
102
RTVSPropertyOp1
 70
     1
102
RTVSPropertyOp2
 70
     1
102
RTVSPropertyOp3
 70
     1
102
RTVSPropertyOp4
 70
     1
102
RTVSPropertyOp5
 70
     1
102
RTVSPropertyOp6
 70
     1
102
RTVSPropertyOp7
 70
     1
102
RTVSPropertyOp8
 70
     1
102
RTVSPropertyOp9
 70
     1
102
RTVSPropertyOp10
 70
     1
102
RTVSPropertyOp11
 70
     1
102
RTVSPropertyOp12
 70
     1
102
RTVSPropertyOp13
 70
     1
102
RTVSPropertyOp14
 70
     1
102
RTVSPropertyOp15
 70
     1
102
RTVSPropertyOp16
 70
     1
102
RTVSPropertyOp17
 70
     1
102
RTVSPropertyOp18
 70
     1
102
RTVSPropertyOp19
 70
     1
102
RTVSPropertyOp20
 70
     1
102
RTVSPropertyOp21
 70
     1
102
RTVSPropertyOp22
 70
     1
102
RTVSPropertyOp23
 70
     1
102
RTVSPropertyOp24
 70
     1
102
RTVSPropertyOp25
 70
     1
102
RTVSPropertyOp26
 70
     1
102
RTVSPropertyOp27
 70
     1
102
RTVSPropertyOp28
 70
     1
102
RTVSPropertyOp29
 70
     1
102
RTVSPropertyOp30
 70
     1
102
RTVSPropertyOp31
 70
     1
102
RTVSPropertyOp32
 70
     1
102
RTVSPropertyOp33
 70
     1
102
RTVSPropertyOp34
 70
     1
102
RTVSPropertyOp35
 70
     1
102
RTVSPropertyOp36
 70
     1
102
RTVSPropertyOp37
 70
     1
102
RTVSPropertyOp38
 70
     1
102
RTVSPropertyOp39
 70
     1
102
RTVSPropertyOp40
 70
     1
102
RTVSPropertyOp41
 70
     1
102
RTVSPropertyOp42
 70
     1
102
RTVSPropertyOp43
 70
     1
102
RTVSPropertyOp44
 70
     1
102
RTVSPropertyOp45
 70
     1
102
RTVSPropertyOp46
 70
     1
102
RTVSPropertyOp47
 70
     1
102
RTVSPropertyOp48
 70
     1
102
RTVSPropertyOp49
 70
     1
102
RTVSPropertyOp50
 70
     1
102
RTVSPropertyOp51
 70
     0
102
RTVSPropertyOp52
 70
     0
102
RTVSPropertyOp53
 70
     1
102
RTVSPropertyOp54
 70
     1
102
RTVSPropertyOp55
 70
     1
102
RTVSPropertyOp56
 70
     1
102
RTVSPropertyOp57
 70
     1
102
RTVSPropertyOp58
 70
     1
102
RTVSPropertyOp59
 70
     1
102
RTVSPropertyOp60
 70
     1
102
RTVSPropertyOp61
 70
     1
102
RTVSPropertyOp62
 70
     1
  0
XRECORD
  5
9E9E
102
{ACAD_REACTORS
330
9E9D
102
}
330
9E9D
100
AcDbXrecord
280
     1
102
RTVSPost2010Prop28
280
     0
102
RTVSPost2010PropOp28
 70
     1
102
RTVSPost2010Prop29
280
     1
102
RTVSPost2010PropOp29
 70
     1
102
RTVSPost2010Prop30
280
     1
102
RTVSPost2010PropOp30
 70
     1
102
RTVSPost2010Prop31
280
     0
102
RTVSPost2010PropOp31
 70
     1
102
RTVSPost2010Prop32
280
     0
102
RTVSPost2010PropOp32
 70
     1
102
RTVSPost2010Prop33
280
     0
102
RTVSPost2010PropOp33
 70
     1
102
RTVSPost2010Prop34
280
     0
102
RTVSPost2010PropOp34
 70
     1
102
RTVSPost2010Prop35
280
     0
102
RTVSPost2010PropOp35
 70
     1
102
RTVSPost2010Prop36
280
     0
102
RTVSPost2010PropOp36
 70
     1
102
RTVSPost2010Prop37
 90
       50
102
RTVSPost2010PropOp37
 70
     1
102
RTVSPost2010Prop38
140
0.0
102
RTVSPost2010PropOp38
 70
     1
102
RTVSPost2010Prop39
140
1.0
102
RTVSPost2010PropOp39
 70
     1
102
RTVSPost2010Prop40
 90
        0
102
RTVSPost2010PropOp40
 70
     1
102
RTVSPost2010Prop41ColorIndex
 90
       18
102
RTVSPost2010Prop41ColorRGB
 90
        0
102
RTVSPost2010PropOp41
 70
     1
102
RTVSPost2010Prop42
 90
       50
102
RTVSPost2010PropOp42
 70
     1
102
RTVSPost2010Prop43
 90
        3
102
RTVSPost2010PropOp43
 70
     1
102
RTVSPost2010Prop44ColorIndex
 90
        5
102
RTVSPost2010Prop44ColorRGB
 90
      255
102
RTVSPost2010PropOp44
 70
     1
102
RTVSPost2010Prop45
280
     0
102
RTVSPost2010PropOp45
 70
     1
102
RTVSPost2010Prop46
 90
       50
102
RTVSPost2010PropOp46
 70
     1
102
RTVSPost2010Prop47
 90
       50
102
RTVSPost2010PropOp47
 70
     1
102
RTVSPost2010Prop48
 90
       50
102
RTVSPost2010PropOp48
 70
     1
102
RTVSPost2010Prop49
280
     0
102
RTVSPost2010PropOp49
 70
     1
102
RTVSPost2010Prop50
 90
       50
102
RTVSPost2010PropOp50
 70
     1
102
RTVSPost2010Prop51ColorIndex
 90
      256
102
RTVSPost2010Prop51ColorRGB
 90
-16777216
102
RTVSPost2010PropOp51
 70
     0
102
RTVSPost2010Prop52
140
1.0
102
RTVSPost2010PropOp52
 70
     0
102
RTVSPost2010Prop53
 90
        2
102
RTVSPost2010PropOp53
 70
     1
102
RTVSPost2010Prop54
  1
strokes_ogs.tif
102
RTVSPost2010PropOp54
 70
     1
102
RTVSPost2010Prop55
280
     0
102
RTVSPost2010PropOp55
 70
     1
102
RTVSPost2010Prop56
140
1.0
102
RTVSPost2010PropOp56
 70
     1
102
RTVSPost2010Prop57
140
1.0
102
RTVSPost2010PropOp57
 70
     1
102
RTVSPropertyOp0
 70
     1
102
RTVSPropertyOp1
 70
     1
102
RTVSPropertyOp2
 70
     1
102
RTVSPropertyOp3
 70
     1
102
RTVSPropertyOp4
 70
     1
102
RTVSPropertyOp5
 70
     1
102
RTVSPropertyOp6
 70
     1
102
RTVSPropertyOp7
 70
     1
102
RTVSPropertyOp8
 70
     1
102
RTVSPropertyOp9
 70
     1
102
RTVSPropertyOp10
 70
     1
102
RTVSPropertyOp11
 70
     1
102
RTVSPropertyOp12
 70
     1
102
RTVSPropertyOp13
 70
     1
102
RTVSPropertyOp14
 70
     1
102
RTVSPropertyOp15
 70
     1
102
RTVSPropertyOp16
 70
     1
102
RTVSPropertyOp17
 70
     1
102
RTVSPropertyOp18
 70
     1
102
RTVSPropertyOp19
 70
     1
102
RTVSPropertyOp20
 70
     1
102
RTVSPropertyOp21
 70
     1
102
RTVSPropertyOp22
 70
     1
102
RTVSPropertyOp23
 70
     1
102
RTVSPropertyOp24
 70
     1
102
RTVSPropertyOp25
 70
     1
102
RTVSPropertyOp26
 70
     1
102
RTVSPropertyOp27
 70
     1
102
RTVSPropertyOp28
 70
     1
102
RTVSPropertyOp29
 70
     1
102
RTVSPropertyOp30
 70
     1
102
RTVSPropertyOp31
 70
     1
102
RTVSPropertyOp32
 70
     1
102
RTVSPropertyOp33
 70
     1
102
RTVSPropertyOp34
 70
     1
102
RTVSPropertyOp35
 70
     1
102
RTVSPropertyOp36
 70
     1
102
RTVSPropertyOp37
 70
     1
102
RTVSPropertyOp38
 70
     1
102
RTVSPropertyOp39
 70
     1
102
RTVSPropertyOp40
 70
     1
102
RTVSPropertyOp41
 70
     1
102
RTVSPropertyOp42
 70
     1
102
RTVSPropertyOp43
 70
     1
102
RTVSPropertyOp44
 70
     1
102
RTVSPropertyOp45
 70
     1
102
RTVSPropertyOp46
 70
     1
102
RTVSPropertyOp47
 70
     1
102
RTVSPropertyOp48
 70
     1
102
RTVSPropertyOp49
 70
     1
102
RTVSPropertyOp50
 70
     1
102
RTVSPropertyOp51
 70
     0
102
RTVSPropertyOp52
 70
     0
102
RTVSPropertyOp53
 70
     1
102
RTVSPropertyOp54
 70
     1
102
RTVSPropertyOp55
 70
     1
102
RTVSPropertyOp56
 70
     1
102
RTVSPropertyOp57
 70
     1
102
RTVSPropertyOp58
 70
     1
102
RTVSPropertyOp59
 70
     1
102
RTVSPropertyOp60
 70
     1
102
RTVSPropertyOp61
 70
     1
102
RTVSPropertyOp62
 70
     1
  0
ENDSEC
  0
EOF
