  0
SECTION
  2
HEADER
  9
$ACADVER
  1
AC1015
  9
$ACADMAINTVER
 70
    20
  9
$DWGCODEPAGE
  3
ANSI_932
  9
$INSBASE
 10
0.0
 20
0.0
 30
0.0
  9
$EXTMIN
 10
10.0
 20
9.999999999999998
 30
0.0
  9
$EXTMAX
 10
291.170483
 20
256.092346
 30
0.0
  9
$LIMMIN
 10
0.0
 20
0.0
  9
$LIMMAX
 10
396.0
 20
273.0
  9
$ORTHOMODE
 70
     1
  9
$REGENMODE
 70
     1
  9
$FILLMODE
 70
     1
  9
$QTEXTMODE
 70
     0
  9
$MIRRTEXT
 70
     1
  9
$LTSCALE
 40
20.0
  9
$ATTMODE
 70
     1
  9
$TEXTSIZE
 40
5.0
  9
$TRACEWID
 40
1.0
  9
$TEXTSTYLE
  7
STANDARD
  9
$CLAYER
  8
0
  9
$CELTYPE
  6
BYLAYER
  9
$CECOLOR
 62
   256
  9
$CELTSCALE
 40
1.0
  9
$DISPSILH
 70
     0
  9
$DIMSCALE
 40
1.0
  9
$DIMASZ
 40
3.0
  9
$DIMEXO
 40
1.0
  9
$DIMDLI
 40
10.0
  9
$DIMRND
 40
0.0
  9
$DIMDLE
 40
0.0
  9
$DIMEXE
 40
1.0
  9
$DIMTP
 40
0.0
  9
$DIMTM
 40
0.0
  9
$DIMTXT
 40
3.2
  9
$DIMCEN
 40
0.0
  9
$DIMTSZ
 40
0.0
  9
$DIMTOL
 70
     0
  9
$DIMLIM
 70
     0
  9
$DIMTIH
 70
     0
  9
$DIMTOH
 70
     0
  9
$DIMSE1
 70
     0
  9
$DIMSE2
 70
     0
  9
$DIMTAD
 70
     3
  9
$DIMZIN
 70
     8
  9
$DIMBLK
  1

  9
$DIMASO
 70
     1
  9
$DIMSHO
 70
     1
  9
$DIMPOST
  1

  9
$DIMAPOST
  1

  9
$DIMALT
 70
     0
  9
$DIMALTD
 70
     2
  9
$DIMALTF
 40
25.4
  9
$DIMLFAC
 40
1.0
  9
$DIMTOFL
 70
     1
  9
$DIMTVP
 40
0.0
  9
$DIMTIX
 70
     0
  9
$DIMSOXD
 70
     0
  9
$DIMSAH
 70
     1
  9
$DIMBLK1
  1

  9
$DIMBLK2
  1

  9
$DIMSTYLE
  2
STANDARD
  9
$DIMCLRD
 70
     0
  9
$DIMCLRE
 70
     0
  9
$DIMCLRT
 70
     0
  9
$DIMTFAC
 40
1.0
  9
$DIMGAP
 40
1.0
  9
$DIMJUST
 70
     0
  9
$DIMSD1
 70
     0
  9
$DIMSD2
 70
     0
  9
$DIMTOLJ
 70
     1
  9
$DIMTZIN
 70
     0
  9
$DIMALTZ
 70
     0
  9
$DIMALTTZ
 70
     0
  9
$DIMUPT
 70
     0
  9
$DIMDEC
 70
     4
  9
$DIMTDEC
 70
     4
  9
$DIMALTU
 70
     2
  9
$DIMALTTD
 70
     2
  9
$DIMTXSTY
  7
STANDARD
  9
$DIMAUNIT
 70
     0
  9
$DIMADEC
 70
     0
  9
$DIMALTRND
 40
0.0
  9
$DIMAZIN
 70
     0
  9
$DIMDSEP
 70
    46
  9
$DIMATFIT
 70
     3
  9
$DIMFRAC
 70
     0
  9
$DIMLDRBLK
  1

  9
$DIMLUNIT
 70
     2
  9
$DIMLWD
 70
    -2
  9
$DIMLWE
 70
    -2
  9
$DIMTMOVE
 70
     0
  9
$LUNITS
 70
     2
  9
$LUPREC
 70
     4
  9
$SKETCHINC
 40
1.0
  9
$FILLETRAD
 40
1.6
  9
$AUNITS
 70
     0
  9
$AUPREC
 70
     2
  9
$MENU
  1
.
  9
$ELEVATION
 40
0.0
  9
$PELEVATION
 40
0.0
  9
$THICKNESS
 40
0.0
  9
$LIMCHECK
 70
     0
  9
$CHAMFERA
 40
10.0
  9
$CHAMFERB
 40
10.0
  9
$CHAMFERC
 40
0.0
  9
$CHAMFERD
 40
0.0
  9
$SKPOLY
 70
     0
  9
$TDCREATE
 40
2450955.651458218
  9
$TDUCREATE
 40
2450955.276458218
  9
$TDUPDATE
 40
2457192.603406482
  9
$TDUUPDATE
 40
2457192.228406481
  9
$TDINDWG
 40
0.0000138194
  9
$TDUSRTIMER
 40
0.0000133102
  9
$USRTIMER
 70
     1
  9
$ANGBASE
 50
0.0
  9
$ANGDIR
 70
     0
  9
$PDMODE
 70
     0
  9
$PDSIZE
 40
0.0
  9
$PLINEWID
 40
0.0
  9
$SPLFRAME
 70
     0
  9
$SPLINETYPE
 70
     6
  9
$SPLINESEGS
 70
     8
  9
$HANDSEED
  5
465
  9
$SURFTAB1
 70
     6
  9
$SURFTAB2
 70
     6
  9
$SURFTYPE
 70
     6
  9
$SURFU
 70
     6
  9
$SURFV
 70
     6
  9
$UCSBASE
  2

  9
$UCSNAME
  2

  9
$UCSORG
 10
0.0
 20
0.0
 30
0.0
  9
$UCSXDIR
 10
1.0
 20
0.0
 30
0.0
  9
$UCSYDIR
 10
0.0
 20
1.0
 30
0.0
  9
$UCSORTHOREF
  2

  9
$UCSORTHOVIEW
 70
     0
  9
$UCSORGTOP
 10
0.0
 20
0.0
 30
0.0
  9
$UCSORGBOTTOM
 10
0.0
 20
0.0
 30
0.0
  9
$UCSORGLEFT
 10
0.0
 20
0.0
 30
0.0
  9
$UCSORGRIGHT
 10
0.0
 20
0.0
 30
0.0
  9
$UCSORGFRONT
 10
0.0
 20
0.0
 30
0.0
  9
$UCSORGBACK
 10
0.0
 20
0.0
 30
0.0
  9
$PUCSBASE
  2

  9
$PUCSNAME
  2

  9
$PUCSORG
 10
0.0
 20
0.0
 30
0.0
  9
$PUCSXDIR
 10
1.0
 20
0.0
 30
0.0
  9
$PUCSYDIR
 10
0.0
 20
1.0
 30
0.0
  9
$PUCSORTHOREF
  2

  9
$PUCSORTHOVIEW
 70
     0
  9
$PUCSORGTOP
 10
0.0
 20
0.0
 30
0.0
  9
$PUCSORGBOTTOM
 10
0.0
 20
0.0
 30
0.0
  9
$PUCSORGLEFT
 10
0.0
 20
0.0
 30
0.0
  9
$PUCSORGRIGHT
 10
0.0
 20
0.0
 30
0.0
  9
$PUCSORGFRONT
 10
0.0
 20
0.0
 30
0.0
  9
$PUCSORGBACK
 10
0.0
 20
0.0
 30
0.0
  9
$USERI1
 70
     0
  9
$USERI2
 70
     0
  9
$USERI3
 70
     0
  9
$USERI4
 70
     0
  9
$USERI5
 70
     0
  9
$USERR1
 40
0.0
  9
$USERR2
 40
0.0
  9
$USERR3
 40
0.0
  9
$USERR4
 40
0.0
  9
$USERR5
 40
0.0
  9
$WORLDVIEW
 70
     1
  9
$SHADEDGE
 70
     3
  9
$SHADEDIF
 70
    70
  9
$TILEMODE
 70
     1
  9
$MAXACTVP
 70
    16
  9
$PINSBASE
 10
0.0
 20
0.0
 30
0.0
  9
$PLIMCHECK
 70
     0
  9
$PEXTMIN
 10
1.000000000000000E+20
 20
1.000000000000000E+20
 30
1.000000000000000E+20
  9
$PEXTMAX
 10
-1.000000000000000E+20
 20
-1.000000000000000E+20
 30
-1.000000000000000E+20
  9
$PLIMMIN
 10
0.0
 20
0.0
  9
$PLIMMAX
 10
420.0
 20
297.0
  9
$UNITMODE
 70
     0
  9
$VISRETAIN
 70
     0
  9
$PLINEGEN
 70
     0
  9
$PSLTSCALE
 70
     0
  9
$TREEDEPTH
 70
  3020
  9
$CMLSTYLE
  2
STANDARD
  9
$CMLJUST
 70
     0
  9
$CMLSCALE
 40
1.0
  9
$PROXYGRAPHICS
 70
     1
  9
$MEASUREMENT
 70
     0
  9
$CELWEIGHT
370
    -1
  9
$ENDCAPS
280
     0
  9
$JOINSTYLE
280
     0
  9
$LWDISPLAY
290
     0
  9
$INSUNITS
 70
     0
  9
$HYPERLINKBASE
  1

  9
$STYLESHEET
  1

  9
$XEDIT
290
     1
  9
$CEPSNTYPE
380
     0
  9
$PSTYLEMODE
290
     1
  9
$FINGERPRINTGUID
  2
{E51DEDA9-490C-4134-A47A-798802AC2ACE}
  9
$VERSIONGUID
  2
{C2653F33-CBBE-4074-AA2B-2070EFB9B5E5}
  9
$EXTNAMES
290
     1
  9
$PSVPSCALE
 40
0.0
  9
$OLESTARTUP
290
     0
  0
ENDSEC
  0
SECTION
  2
CLASSES
  0
CLASS
  1
ACDBDICTIONARYWDFLT
  2
AcDbDictionaryWithDefault
  3
ObjectDBX Classes
 90
        0
280
     0
281
     0
  0
CLASS
  1
ACDBPLACEHOLDER
  2
AcDbPlaceHolder
  3
ObjectDBX Classes
 90
        0
280
     0
281
     0
  0
CLASS
  1
LAYOUT
  2
AcDbLayout
  3
ObjectDBX Classes
 90
        0
280
     0
281
     0
  0
CLASS
  1
DICTIONARYVAR
  2
AcDbDictionaryVar
  3
ObjectDBX Classes
 90
        0
280
     0
281
     0
  0
CLASS
  1
MATERIAL
  2
AcDbMaterial
  3
ObjectDBX Classes
 90
     1153
280
     0
281
     0
  0
CLASS
  1
VISUALSTYLE
  2
AcDbVisualStyle
  3
ObjectDBX Classes
 90
     4095
280
     0
281
     0
  0
CLASS
  1
TABLESTYLE
  2
AcDbTableStyle
  3
ObjectDBX Classes
 90
     4095
280
     0
281
     0
  0
CLASS
  1
SCALE
  2
AcDbScale
  3
ObjectDBX Classes
 90
     1153
280
     0
281
     0
  0
CLASS
  1
MLEADERSTYLE
  2
AcDbMLeaderStyle
  3
ACDB_MLEADERSTYLE_CLASS
 90
     4095
280
     0
281
     0
  0
CLASS
  1
ACDBSECTIONVIEWSTYLE
  2
AcDbSectionViewStyle
  3
ObjectDBX Classes
 90
     1025
280
     0
281
     0
  0
CLASS
  1
ACDBDETAILVIEWSTYLE
  2
AcDbDetailViewStyle
  3
ObjectDBX Classes
 90
     1025
280
     0
281
     0
  0
CLASS
  1
CELLSTYLEMAP
  2
AcDbCellStyleMap
  3
ObjectDBX Classes
 90
     1152
280
     0
281
     0
  0
ENDSEC
  0
SECTION
  2
TABLES
  0
TABLE
  2
VPORT
  5
1DA
330
0
100
AcDbSymbolTable
 70
     1
  0
VPORT
  5
3AE
330
1DA
100
AcDbSymbolTableRecord
100
AcDbViewportTableRecord
  2
*ACTIVE
 70
     0
 10
0.0
 20
0.0
 11
1.0
 21
1.0
 12
225.1228738418993
 22
133.0425116179306
 13
0.0
 23
0.0
 14
10.0
 24
10.0
 15
10.0
 25
10.0
 16
0.0
 26
0.0
 36
1.0
 17
0.0
 27
0.0
 37
0.0
 40
248.8591259947944
 41
1.899603698811096
 42
50.0
 43
0.0
 44
0.0
 50
0.0
 51
0.0
 71
     0
 72
   100
 73
     1
 74
     0
 75
     0
 76
     0
 77
     0
 78
     0
281
     0
 65
     1
110
0.0
120
0.0
130
0.0
111
1.0
121
0.0
131
0.0
112
0.0
122
1.0
132
0.0
 79
     0
146
0.0
1001
ACAD_NAV_VCDISPLAY
1070
     3
  0
ENDTAB
  0
TABLE
  2
LTYPE
  5
1D7
330
0
100
AcDbSymbolTable
 70
     4
  0
LTYPE
  5
1E5
330
1D7
100
AcDbSymbolTableRecord
100
AcDbLinetypeTableRecord
  2
BYBLOCK
 70
     0
  3

 72
    65
 73
     0
 40
0.0
  0
LTYPE
  5
1E6
330
1D7
100
AcDbSymbolTableRecord
100
AcDbLinetypeTableRecord
  2
BYLAYER
 70
     0
  3

 72
    65
 73
     0
 40
0.0
  0
LTYPE
  5
1E7
330
1D7
100
AcDbSymbolTableRecord
100
AcDbLinetypeTableRecord
  2
CONTINUOUS
 70
     0
  3
Solid line
 72
    65
 73
     0
 40
0.0
  0
LTYPE
  5
1F5
330
1D7
100
AcDbSymbolTableRecord
100
AcDbLinetypeTableRecord
  2
DASHED
 70
     0
  3
__ __ __ __ __ __ __ __ __ __ __ __ __ __ __ __
 72
    65
 73
     2
 40
0.75
 49
0.5
 74
     0
 49
-0.25
 74
     0
  0
LTYPE
  5
1F6
330
1D7
100
AcDbSymbolTableRecord
100
AcDbLinetypeTableRecord
  2
CENTER
 70
     0
  3
____ _ ____ _ ____ _ ____ _ ____ _ ____ _ ____ 
 72
    65
 73
     4
 40
2.0
 49
1.25
 74
     0
 49
-0.25
 74
     0
 49
0.25
 74
     0
 49
-0.25
 74
     0
  0
LTYPE
  5
1F7
330
1D7
100
AcDbSymbolTableRecord
100
AcDbLinetypeTableRecord
  2
PHANTOM
 70
     0
  3
______  __  __  ______  __  __  ______  __  __ 
 72
    65
 73
     6
 40
2.5
 49
1.25
 74
     0
 49
-0.25
 74
     0
 49
0.25
 74
     0
 49
-0.25
 74
     0
 49
0.25
 74
     0
 49
-0.25
 74
     0
  0
ENDTAB
  0
TABLE
  2
LAYER
  5
1D4
330
0
100
AcDbSymbolTable
 70
     8
  0
LAYER
  5
1E2
102
{ACAD_XDICTIONARY
360
409
102
}
330
1D4
100
AcDbSymbolTableRecord
100
AcDbLayerTableRecord
  2
0
 70
     0
 62
     7
  6
CONTINUOUS
370
    -3
390
3B7
  0
LAYER
  5
1F8
102
{ACAD_XDICTIONARY
360
40B
102
}
330
1D4
100
AcDbSymbolTableRecord
100
AcDbLayerTableRecord
  2
4
 70
     0
 62
     1
  6
CENTER
370
    -3
390
3B7
  0
LAYER
  5
1F9
102
{ACAD_XDICTIONARY
360
40D
102
}
330
1D4
100
AcDbSymbolTableRecord
100
AcDbLayerTableRecord
  2
5
 70
     0
 62
     6
  6
PHANTOM
370
    -3
390
3B7
  0
LAYER
  5
1FA
102
{ACAD_XDICTIONARY
360
40F
102
}
330
1D4
100
AcDbSymbolTableRecord
100
AcDbLayerTableRecord
  2
1
 70
     0
 62
     7
  6
CONTINUOUS
370
    -3
390
3B7
  0
LAYER
  5
1FB
102
{ACAD_XDICTIONARY
360
411
102
}
330
1D4
100
AcDbSymbolTableRecord
100
AcDbLayerTableRecord
  2
2
 70
     0
 62
     4
  6
CONTINUOUS
370
    -3
390
3B7
  0
LAYER
  5
1FC
102
{ACAD_XDICTIONARY
360
413
102
}
330
1D4
100
AcDbSymbolTableRecord
100
AcDbLayerTableRecord
  2
3
 70
     0
 62
     2
  6
DASHED
370
    -3
390
3B7
  0
LAYER
  5
1FD
102
{ACAD_XDICTIONARY
360
415
102
}
330
1D4
100
AcDbSymbolTableRecord
100
AcDbLayerTableRecord
  2
6
 70
     0
 62
     5
  6
CONTINUOUS
370
    -3
390
3B7
  0
LAYER
  5
1FE
102
{ACAD_XDICTIONARY
360
417
102
}
330
1D4
100
AcDbSymbolTableRecord
100
AcDbLayerTableRecord
  2
7
 70
     0
 62
     3
  6
CONTINUOUS
370
    -3
390
3B7
  0
ENDTAB
  0
TABLE
  2
STYLE
  5
1D5
330
0
100
AcDbSymbolTable
 70
     1
  0
STYLE
  5
1E3
330
1D5
100
AcDbSymbolTableRecord
100
AcDbTextStyleTableRecord
  2
STANDARD
 70
     0
 40
0.0
 41
1.0
 50
0.0
 71
     0
 42
5.0
  3
txt
  4

  0
ENDTAB
  0
TABLE
  2
VIEW
  5
1D8
330
0
100
AcDbSymbolTable
 70
     0
  0
ENDTAB
  0
TABLE
  2
UCS
  5
1D9
330
0
100
AcDbSymbolTable
 70
     0
  0
ENDTAB
  0
TABLE
  2
APPID
  5
1DB
330
0
100
AcDbSymbolTable
 70
     3
  0
APPID
  5
1E4
330
1DB
100
AcDbSymbolTableRecord
100
AcDbRegAppTableRecord
  2
ACAD
 70
     0
  0
APPID
  5
423
330
1DB
100
AcDbSymbolTableRecord
100
AcDbRegAppTableRecord
  2
ACAD_NAV_VCDISPLAY
 70
     0
  0
APPID
  5
45C
330
1DB
100
AcDbSymbolTableRecord
100
AcDbRegAppTableRecord
  2
ACAD_MLEADERVER
 70
     0
  0
ENDTAB
  0
TABLE
  2
DIMSTYLE
  5
1DC
330
0
100
AcDbSymbolTable
 70
     1
100
AcDbDimStyleTable
 71
     0
  0
DIMSTYLE
105
200
330
1DC
100
AcDbSymbolTableRecord
100
AcDbDimStyleTableRecord
  2
STANDARD
 70
     0
 41
3.0
 42
1.0
 43
10.0
 44
1.0
 73
     0
 74
     0
 77
     3
 78
     8
140
3.2
141
0.0
147
1.0
172
     1
173
     1
284
     8
285
     8
286
     8
340
1E3
  0
ENDTAB
  0
TABLE
  2
BLOCK_RECORD
  5
1D3
330
0
100
AcDbSymbolTable
 70
     0
  0
BLOCK_RECORD
  5
1F0
102
{ACAD_XDICTIONARY
360
3B1
102
}
330
1D3
100
AcDbSymbolTableRecord
100
AcDbBlockTableRecord
  2
*MODEL_SPACE
340
405
  0
BLOCK_RECORD
  5
1EC
102
{ACAD_XDICTIONARY
360
3AF
102
}
330
1D3
100
AcDbSymbolTableRecord
100
AcDbBlockTableRecord
  2
*PAPER_SPACE
340
406
  0
ENDTAB
  0
ENDSEC
  0
SECTION
  2
BLOCKS
  0
BLOCK
  5
1F1
330
1F0
100
AcDbEntity
  8
0
100
AcDbBlockBegin
  2
*MODEL_SPACE
 70
     0
 10
0.0
 20
0.0
 30
0.0
  3
*MODEL_SPACE
  1

  0
ENDBLK
  5
1F2
330
1F0
100
AcDbEntity
  8
0
100
AcDbBlockEnd
  0
BLOCK
  5
1ED
330
1EC
100
AcDbEntity
 67
     1
  8
0
100
AcDbBlockBegin
  2
*PAPER_SPACE
 70
     0
 10
0.0
 20
0.0
 30
0.0
  3
*PAPER_SPACE
  1

  0
ENDBLK
  5
1EE
330
1EC
100
AcDbEntity
 67
     1
  8
0
100
AcDbBlockEnd
  0
ENDSEC
  0
SECTION
  2
ENTITIES
  0
TEXT
  5
208
330
1F0
100
AcDbEntity
  8
7
  6
Continuous
100
AcDbText
 10
10.0
 20
18.0
 30
0.0
 40
3.0
  1
TYPE No.TL-82
100
AcDbText
  0
TEXT
  5
209
330
1F0
100
AcDbEntity
  8
7
  6
Continuous
100
AcDbText
 10
10.0
 20
26.0
 30
0.0
 40
3.0
  1
CODE No.1075
100
AcDbText
  0
TEXT
  5
20A
330
1F0
100
AcDbEntity
  8
1
  6
Continuous
100
AcDbText
 10
10.0
 20
10.0
 30
0.0
 40
1.399999999999999
  1
LAYER
100
AcDbText
  0
TEXT
  5
20B
330
1F0
100
AcDbEntity
  8
1
  6
Continuous
100
AcDbText
 10
17.97951099999998
 20
10.04873699999998
 30
0.0
 40
1.399999999999999
  1
1
100
AcDbText
  0
TEXT
  5
20C
330
1F0
100
AcDbEntity
  8
7
  6
Continuous
100
AcDbText
 10
29.97951099999999
 20
10.04873699999998
 30
0.0
 40
1.399999999999999
  1
7
100
AcDbText
  0
TEXT
  5
20D
330
1F0
100
AcDbEntity
  8
4
  6
CENTER
100
AcDbText
 10
23.97951099999999
 20
10.04873699999998
 30
0.0
 40
1.399999999999999
  1
4
100
AcDbText
  0
TEXT
  5
20E
330
1F0
100
AcDbEntity
  8
3
  6
DASHED
100
AcDbText
 10
21.979511
 20
10.04873699999998
 30
0.0
 40
1.399999999999999
  1
3
100
AcDbText
  0
TEXT
  5
20F
330
1F0
100
AcDbEntity
  8
2
  6
Continuous
100
AcDbText
 10
19.97951099999999
 20
10.04873699999998
 30
0.0
 40
1.399999999999999
  1
2
100
AcDbText
  0
TEXT
  5
210
330
1F0
100
AcDbEntity
  8
6
  6
Continuous
100
AcDbText
 10
27.979511
 20
10.04873699999998
 30
0.0
 40
1.399999999999999
  1
6
100
AcDbText
  0
TEXT
  5
211
330
1F0
100
AcDbEntity
  8
5
  6
PHANTOM
100
AcDbText
 10
25.97951099999999
 20
10.04873699999998
 30
0.0
 40
1.399999999999999
  1
5
100
AcDbText
  0
LINE
  5
212
330
1F0
100
AcDbEntity
  8
4
  6
CENTER
100
AcDbLine
 10
28.22047100000001
 20
106.0923459999999
 30
0.0
 11
28.22047100000001
 21
186.092346
 31
0.0
  0
LINE
  5
213
330
1F0
100
AcDbEntity
  8
1
  6
Continuous
100
AcDbLine
 10
36.57046799999999
 20
111.0923459999999
 30
0.0
 11
36.57046799999999
 21
181.0923459999999
 31
0.0
  0
LINE
  5
214
330
1F0
100
AcDbEntity
  8
1
  6
Continuous
100
AcDbLine
 10
19.87047399999999
 20
111.0923459999999
 30
0.0
 11
19.87047399999999
 21
181.0923459999999
 31
0.0
  0
LINE
  5
215
330
1F0
100
AcDbEntity
  8
1
  6
Continuous
100
AcDbLine
 10
36.57046799999999
 20
181.0923459999999
 30
0.0
 11
19.87047399999999
 21
181.0923459999999
 31
0.0
  0
LINE
  5
216
330
1F0
100
AcDbEntity
  8
1
  6
Continuous
100
AcDbLine
 10
36.57046799999999
 20
111.0923459999999
 30
0.0
 11
19.87047399999999
 21
111.0923459999999
 31
0.0
  0
LINE
  5
217
330
1F0
100
AcDbEntity
  8
1
  6
Continuous
100
AcDbLine
 10
34.970469
 20
111.0923459999999
 30
0.0
 11
34.970469
 21
181.0923459999999
 31
0.0
  0
LINE
  5
218
330
1F0
100
AcDbEntity
  8
1
  6
Continuous
100
AcDbLine
 10
21.470472
 20
111.0923459999999
 30
0.0
 11
21.470472
 21
181.0923459999999
 31
0.0
  0
LINE
  5
219
330
1F0
100
AcDbEntity
  8
1
  6
Continuous
100
AcDbLine
 10
34.970469
 20
179.492355
 30
0.0
 11
21.470472
 21
179.492355
 31
0.0
  0
LINE
  5
21A
330
1F0
100
AcDbEntity
  8
1
  6
Continuous
100
AcDbLine
 10
107.2204709999999
 20
111.0923459999999
 30
0.0
 11
90.22047099999999
 21
111.0923459999999
 31
0.0
  0
LINE
  5
21B
330
1F0
100
AcDbEntity
  8
1
  6
Continuous
100
AcDbLine
 10
107.2204709999999
 20
181.0923459999999
 30
0.0
 11
90.22047099999999
 21
181.0923459999999
 31
0.0
  0
LINE
  5
21C
330
1F0
100
AcDbEntity
  8
1
  6
Continuous
100
AcDbLine
 10
88.22047099999997
 20
113.0923459999999
 30
0.0
 11
88.22047099999997
 21
179.0923459999999
 31
0.0
  0
LINE
  5
21D
330
1F0
100
AcDbEntity
  8
1
  6
Continuous
100
AcDbLine
 10
109.2204709999998
 20
113.0923459999999
 30
0.0
 11
109.2204709999998
 21
179.0923459999999
 31
0.0
  0
LINE
  5
21E
330
1F0
100
AcDbEntity
  8
4
  6
CENTER
100
AcDbLine
 10
83.22047099999997
 20
146.0923459999999
 30
0.0
 11
114.2204709999999
 21
146.0923459999999
 31
0.0
  0
LINE
  5
21F
330
1F0
100
AcDbEntity
  8
4
  6
CENTER
100
AcDbLine
 10
101.220471
 20
111.5923459999999
 30
0.0
 11
101.220471
 21
120.5923459999999
 31
0.0
  0
LINE
  5
220
330
1F0
100
AcDbEntity
  8
4
  6
CENTER
100
AcDbLine
 10
105.7204709999999
 20
116.092346
 30
0.0
 11
96.720471
 21
116.092346
 31
0.0
  0
LINE
  5
221
330
1F0
100
AcDbEntity
  8
4
  6
CENTER
100
AcDbLine
 10
101.220471
 20
171.5923459999999
 30
0.0
 11
101.220471
 21
180.5923459999999
 31
0.0
  0
LINE
  5
222
330
1F0
100
AcDbEntity
  8
4
  6
CENTER
100
AcDbLine
 10
105.7204709999999
 20
176.0923459999999
 30
0.0
 11
96.720471
 21
176.0923459999999
 31
0.0
  0
LINE
  5
223
330
1F0
100
AcDbEntity
  8
1
  6
Continuous
100
AcDbLine
 10
36.57046799999999
 20
42.69234599999999
 30
0.0
 11
36.57046799999999
 21
62.092346
 31
0.0
  0
LINE
  5
224
330
1F0
100
AcDbEntity
  8
1
  6
Continuous
100
AcDbLine
 10
19.87047399999999
 20
42.69234599999999
 30
0.0
 11
19.87047399999999
 21
62.092346
 31
0.0
  0
LINE
  5
225
330
1F0
100
AcDbEntity
  8
1
  6
Continuous
100
AcDbLine
 10
36.57046799999999
 20
62.092346
 30
0.0
 11
34.970469
 21
62.092346
 31
0.0
  0
LINE
  5
226
330
1F0
100
AcDbEntity
  8
1
  6
Continuous
100
AcDbLine
 10
34.97046799999999
 20
41.09234599999999
 30
0.0
 11
21.47047399999999
 21
41.09234599999999
 31
0.0
  0
LINE
  5
227
330
1F0
100
AcDbEntity
  8
1
  6
Continuous
100
AcDbLine
 10
34.970469
 20
41.09234599999999
 30
0.0
 11
34.970469
 21
62.092346
 31
0.0
  0
LINE
  5
228
330
1F0
100
AcDbEntity
  8
1
  6
Continuous
100
AcDbLine
 10
21.470472
 20
41.09234599999999
 30
0.0
 11
21.470472
 21
62.092346
 31
0.0
  0
LINE
  5
229
330
1F0
100
AcDbEntity
  8
1
  6
Continuous
100
AcDbLine
 10
21.470472
 20
62.092346
 30
0.0
 11
19.87047399999999
 21
62.092346
 31
0.0
  0
LINE
  5
22A
330
1F0
100
AcDbEntity
  8
1
  6
Continuous
100
AcDbLine
 10
34.970469
 20
55.092346
 30
0.0
 11
21.470472
 21
55.092346
 31
0.0
  0
LINE
  5
22B
330
1F0
100
AcDbEntity
  8
4
  6
CENTER
100
AcDbLine
 10
28.22047100000001
 20
36.092346
 30
0.0
 11
28.22047100000001
 21
67.09234599999999
 31
0.0
  0
LINE
  5
22C
330
1F0
100
AcDbEntity
  8
4
  6
CENTER
100
AcDbLine
 10
31.720471
 20
51.592346
 30
0.0
 11
24.720471
 21
51.592346
 31
0.0
  0
LINE
  5
22D
330
1F0
100
AcDbEntity
  8
1
  6
Continuous
100
AcDbLine
 10
34.070469
 20
45.292343
 30
0.0
 11
22.370472
 21
45.292343
 31
0.0
  0
LINE
  5
22E
330
1F0
100
AcDbEntity
  8
1
  6
Continuous
100
AcDbLine
 10
36.57046799999999
 20
230.0923459999999
 30
0.0
 11
36.57046799999999
 21
249.4923459999998
 31
0.0
  0
LINE
  5
22F
330
1F0
100
AcDbEntity
  8
1
  6
Continuous
100
AcDbLine
 10
19.87047399999999
 20
230.0923459999999
 30
0.0
 11
19.87047399999999
 21
249.4923459999998
 31
0.0
  0
LINE
  5
230
330
1F0
100
AcDbEntity
  8
1
  6
Continuous
100
AcDbLine
 10
34.97046799999999
 20
251.0923459999999
 30
0.0
 11
21.47047399999999
 21
251.0923459999999
 31
0.0
  0
LINE
  5
231
330
1F0
100
AcDbEntity
  8
1
  6
Continuous
100
AcDbLine
 10
36.57046799999999
 20
230.0923459999999
 30
0.0
 11
34.970469
 21
230.0923459999999
 31
0.0
  0
LINE
  5
232
330
1F0
100
AcDbEntity
  8
1
  6
Continuous
100
AcDbLine
 10
34.970469
 20
230.0923459999999
 30
0.0
 11
34.970469
 21
251.0923459999999
 31
0.0
  0
LINE
  5
233
330
1F0
100
AcDbEntity
  8
1
  6
Continuous
100
AcDbLine
 10
21.470472
 20
230.0923459999999
 30
0.0
 11
21.470472
 21
251.0923459999999
 31
0.0
  0
LINE
  5
234
330
1F0
100
AcDbEntity
  8
1
  6
Continuous
100
AcDbLine
 10
34.970469
 20
238.5923459999999
 30
0.0
 11
21.470472
 21
238.5923459999999
 31
0.0
  0
LINE
  5
235
330
1F0
100
AcDbEntity
  8
1
  6
Continuous
100
AcDbLine
 10
21.470472
 20
230.0923459999999
 30
0.0
 11
19.87047399999999
 21
230.0923459999999
 31
0.0
  0
LINE
  5
236
330
1F0
100
AcDbEntity
  8
1
  6
Continuous
100
AcDbLine
 10
22.220471
 20
177.192352
 30
0.0
 11
22.220471
 21
131.0923459999999
 31
0.0
  0
LINE
  5
237
330
1F0
100
AcDbEntity
  8
1
  6
Continuous
100
AcDbLine
 10
34.220471
 20
177.192352
 30
0.0
 11
34.220471
 21
131.0923459999999
 31
0.0
  0
LINE
  5
238
330
1F0
100
AcDbEntity
  8
1
  6
Continuous
100
AcDbLine
 10
33.22047100000001
 20
177.192352
 30
0.0
 11
33.22047100000001
 21
131.0923459999999
 31
0.0
  0
LINE
  5
239
330
1F0
100
AcDbEntity
  8
1
  6
Continuous
100
AcDbLine
 10
23.220471
 20
177.192352
 30
0.0
 11
23.220471
 21
131.0923459999999
 31
0.0
  0
LINE
  5
23A
330
1F0
100
AcDbEntity
  8
4
  6
CENTER
100
AcDbLine
 10
39.670468
 20
146.0923459999999
 30
0.0
 11
31.220471
 21
146.0923459999999
 31
0.0
  0
LINE
  5
23B
330
1F0
100
AcDbEntity
  8
4
  6
CENTER
100
AcDbLine
 10
36.220471
 20
174.4923399999999
 30
0.0
 11
31.220471
 21
174.4923399999999
 31
0.0
  0
LINE
  5
23C
330
1F0
100
AcDbEntity
  8
1
  6
Continuous
100
AcDbLine
 10
34.220471
 20
177.192352
 30
0.0
 11
33.22047100000001
 21
177.192352
 31
0.0
  0
LINE
  5
23D
330
1F0
100
AcDbEntity
  8
1
  6
Continuous
100
AcDbLine
 10
23.220471
 20
177.192352
 30
0.0
 11
22.220471
 21
177.192352
 31
0.0
  0
LINE
  5
23E
330
1F0
100
AcDbEntity
  8
1
  6
Continuous
100
AcDbLine
 10
33.22047100000001
 20
161.692352
 30
0.0
 11
28.920468
 21
161.692352
 31
0.0
  0
LINE
  5
23F
330
1F0
100
AcDbEntity
  8
1
  6
Continuous
100
AcDbLine
 10
33.22047100000001
 20
160.692352
 30
0.0
 11
28.85292399999999
 21
160.692352
 31
0.0
  0
LINE
  5
240
330
1F0
100
AcDbEntity
  8
1
  6
Continuous
100
AcDbLine
 10
34.220471
 20
131.0923459999999
 30
0.0
 11
33.22047100000001
 21
131.0923459999999
 31
0.0
  0
LINE
  5
241
330
1F0
100
AcDbEntity
  8
1
  6
Continuous
100
AcDbLine
 10
23.220471
 20
131.0923459999999
 30
0.0
 11
22.220471
 21
131.0923459999999
 31
0.0
  0
LINE
  5
242
330
1F0
100
AcDbEntity
  8
1
  6
Continuous
100
AcDbLine
 10
34.970469
 20
123.4923399999999
 30
0.0
 11
28.920468
 21
123.4923399999999
 31
0.0
  0
LINE
  5
243
330
1F0
100
AcDbEntity
  8
1
  6
Continuous
100
AcDbLine
 10
34.970469
 20
125.0923459999999
 30
0.0
 11
28.920468
 21
125.0923459999999
 31
0.0
  0
LINE
  5
244
330
1F0
100
AcDbEntity
  8
4
  6
CENTER
100
AcDbLine
 10
25.22047099999999
 20
174.4923399999999
 30
0.0
 11
20.22047099999999
 21
174.4923399999999
 31
0.0
  0
LINE
  5
245
330
1F0
100
AcDbEntity
  8
4
  6
CENTER
100
AcDbLine
 10
25.22047099999999
 20
146.0923459999999
 30
0.0
 11
16.770474
 21
146.0923459999999
 31
0.0
  0
LINE
  5
246
330
1F0
100
AcDbEntity
  8
1
  6
Continuous
100
AcDbLine
 10
34.670468
 20
175.9923399999999
 30
0.0
 11
34.670468
 21
172.9923399999999
 31
0.0
  0
LINE
  5
247
330
1F0
100
AcDbEntity
  8
1
  6
Continuous
100
AcDbLine
 10
21.770474
 20
175.9923399999999
 30
0.0
 11
21.770474
 21
172.9923399999999
 31
0.0
  0
LINE
  5
248
330
1F0
100
AcDbEntity
  8
1
  6
Continuous
100
AcDbLine
 10
34.670468
 20
172.9923399999999
 30
0.0
 11
34.220471
 21
172.9923399999999
 31
0.0
  0
LINE
  5
249
330
1F0
100
AcDbEntity
  8
1
  6
Continuous
100
AcDbLine
 10
34.670468
 20
175.9923399999999
 30
0.0
 11
34.220471
 21
175.9923399999999
 31
0.0
  0
LINE
  5
24A
330
1F0
100
AcDbEntity
  8
1
  6
Continuous
100
AcDbLine
 10
22.220471
 20
175.9923399999999
 30
0.0
 11
21.770474
 21
175.9923399999999
 31
0.0
  0
LINE
  5
24B
330
1F0
100
AcDbEntity
  8
1
  6
Continuous
100
AcDbLine
 10
22.220471
 20
172.9923399999999
 30
0.0
 11
21.770474
 21
172.9923399999999
 31
0.0
  0
LINE
  5
24C
330
1F0
100
AcDbEntity
  8
1
  6
Continuous
100
AcDbLine
 10
23.32046899999999
 20
177.4923399999999
 30
0.0
 11
23.32046899999999
 21
171.4923399999999
 31
0.0
  0
LINE
  5
24D
330
1F0
100
AcDbEntity
  8
1
  6
Continuous
100
AcDbLine
 10
33.120472
 20
177.4923399999999
 30
0.0
 11
33.120472
 21
171.4923399999999
 31
0.0
  0
LINE
  5
24E
330
1F0
100
AcDbEntity
  8
1
  6
Continuous
100
AcDbLine
 10
33.120472
 20
171.4923399999999
 30
0.0
 11
23.32046899999999
 21
171.4923399999999
 31
0.0
  0
LINE
  5
24F
330
1F0
100
AcDbEntity
  8
1
  6
Continuous
100
AcDbLine
 10
33.120472
 20
177.4923399999999
 30
0.0
 11
23.32046899999999
 21
177.4923399999999
 31
0.0
  0
LINE
  5
250
330
1F0
100
AcDbEntity
  8
1
  6
Continuous
100
AcDbLine
 10
33.22047100000001
 20
175.9923399999999
 30
0.0
 11
33.120472
 21
175.9923399999999
 31
0.0
  0
LINE
  5
251
330
1F0
100
AcDbEntity
  8
1
  6
Continuous
100
AcDbLine
 10
33.22047100000001
 20
172.9923399999999
 30
0.0
 11
33.120472
 21
172.9923399999999
 31
0.0
  0
LINE
  5
252
330
1F0
100
AcDbEntity
  8
1
  6
Continuous
100
AcDbLine
 10
23.32046899999999
 20
175.9923399999999
 30
0.0
 11
23.220471
 21
175.9923399999999
 31
0.0
  0
LINE
  5
253
330
1F0
100
AcDbEntity
  8
1
  6
Continuous
100
AcDbLine
 10
23.32046899999999
 20
172.9923399999999
 30
0.0
 11
23.220471
 21
172.9923399999999
 31
0.0
  0
LINE
  5
254
330
1F0
100
AcDbEntity
  8
1
  6
Continuous
100
AcDbLine
 10
27.520474
 20
125.0923459999999
 30
0.0
 11
21.470472
 21
125.0923459999999
 31
0.0
  0
LINE
  5
255
330
1F0
100
AcDbEntity
  8
1
  6
Continuous
100
AcDbLine
 10
27.520474
 20
123.4923399999999
 30
0.0
 11
21.470472
 21
123.4923399999999
 31
0.0
  0
LINE
  5
256
330
1F0
100
AcDbEntity
  8
1
  6
Continuous
100
AcDbLine
 10
25.23929199999999
 20
156.6494749999999
 30
0.0
 11
28.920475
 21
157.6358329999999
 31
0.0
  0
LINE
  5
257
330
1F0
100
AcDbEntity
  8
1
  6
Continuous
100
AcDbLine
 10
25.601643
 20
155.2971799999999
 30
0.0
 11
29.282818
 21
156.2835379999999
 31
0.0
  0
LINE
  5
258
330
1F0
100
AcDbEntity
  8
1
  6
Continuous
100
AcDbLine
 10
25.2393
 20
154.4124449999999
 30
0.0
 11
30.839283
 21
155.9129629999999
 31
0.0
  0
LINE
  5
259
330
1F0
100
AcDbEntity
  8
1
  6
Continuous
100
AcDbLine
 10
25.60165
 20
153.0601499999999
 30
0.0
 11
31.201634
 21
154.5606679999998
 31
0.0
  0
LINE
  5
25A
330
1F0
100
AcDbEntity
  8
1
  6
Continuous
100
AcDbLine
 10
25.23929199999999
 20
152.1754149999999
 30
0.0
 11
30.83929099999999
 21
153.6759329999999
 31
0.0
  0
LINE
  5
25B
330
1F0
100
AcDbEntity
  8
1
  6
Continuous
100
AcDbLine
 10
25.601635
 20
150.8231199999999
 30
0.0
 11
31.201634
 21
152.3236379999999
 31
0.0
  0
LINE
  5
25C
330
1F0
100
AcDbEntity
  8
1
  6
Continuous
100
AcDbLine
 10
25.23929199999999
 20
149.9384
 30
0.0
 11
30.83929799999999
 21
151.4389189999999
 31
0.0
  0
LINE
  5
25D
330
1F0
100
AcDbEntity
  8
1
  6
Continuous
100
AcDbLine
 10
25.601643
 20
148.586105
 30
0.0
 11
31.201641
 21
150.086608
 31
0.0
  0
LINE
  5
25E
330
1F0
100
AcDbEntity
  8
1
  6
Continuous
100
AcDbLine
 10
25.2393
 20
147.70137
 30
0.0
 11
30.839283
 21
149.2018889999999
 31
0.0
  0
LINE
  5
25F
330
1F0
100
AcDbEntity
  8
1
  6
Continuous
100
AcDbLine
 10
25.60165
 20
146.349075
 30
0.0
 11
31.201634
 21
147.8495939999999
 31
0.0
  0
LINE
  5
260
330
1F0
100
AcDbEntity
  8
1
  6
Continuous
100
AcDbLine
 10
25.23929199999999
 20
145.4643399999999
 30
0.0
 11
30.83929099999999
 21
146.964859
 31
0.0
  0
LINE
  5
261
330
1F0
100
AcDbEntity
  8
1
  6
Continuous
100
AcDbLine
 10
25.601635
 20
144.11206
 30
0.0
 11
31.201634
 21
145.6125639999999
 31
0.0
  0
LINE
  5
262
330
1F0
100
AcDbEntity
  8
1
  6
Continuous
100
AcDbLine
 10
25.23929199999999
 20
143.227325
 30
0.0
 11
30.83929799999999
 21
144.727844
 31
0.0
  0
LINE
  5
263
330
1F0
100
AcDbEntity
  8
1
  6
Continuous
100
AcDbLine
 10
25.601643
 20
141.87503
 30
0.0
 11
31.201641
 21
143.3755339999999
 31
0.0
  0
LINE
  5
264
330
1F0
100
AcDbEntity
  8
1
  6
Continuous
100
AcDbLine
 10
25.2393
 20
140.99031
 30
0.0
 11
30.839283
 21
142.490814
 31
0.0
  0
LINE
  5
265
330
1F0
100
AcDbEntity
  8
1
  6
Continuous
100
AcDbLine
 10
25.601643
 20
139.638
 30
0.0
 11
31.201634
 21
141.138519
 31
0.0
  0
LINE
  5
266
330
1F0
100
AcDbEntity
  8
1
  6
Continuous
100
AcDbLine
 10
25.2393
 20
138.75328
 30
0.0
 11
30.83929099999999
 21
140.2537839999999
 31
0.0
  0
LINE
  5
267
330
1F0
100
AcDbEntity
  8
1
  6
Continuous
100
AcDbLine
 10
25.601643
 20
137.40097
 30
0.0
 11
31.201641
 21
138.901489
 31
0.0
  0
LINE
  5
268
330
1F0
100
AcDbEntity
  8
1
  6
Continuous
100
AcDbLine
 10
25.2393
 20
136.51625
 30
0.0
 11
30.83929799999999
 21
138.0167689999999
 31
0.0
  0
LINE
  5
269
330
1F0
100
AcDbEntity
  8
1
  6
Continuous
100
AcDbLine
 10
25.60165
 20
135.1639549999999
 30
0.0
 11
31.201641
 21
136.664474
 31
0.0
  0
LINE
  5
26A
330
1F0
100
AcDbEntity
  8
1
  6
Continuous
100
AcDbLine
 10
25.2393
 20
134.27922
 30
0.0
 11
30.83929799999999
 21
135.7797389999997
 31
0.0
  0
LINE
  5
26B
330
1F0
100
AcDbEntity
  8
1
  6
Continuous
100
AcDbLine
 10
25.601643
 20
132.926925
 30
0.0
 11
31.201649
 21
134.427444
 31
0.0
  0
LINE
  5
26C
330
1F0
100
AcDbEntity
  8
1
  6
Continuous
100
AcDbLine
 10
25.2393
 20
132.0421979999998
 30
0.0
 11
30.83929099999999
 21
133.542709
 31
0.0
  0
LINE
  5
26D
330
1F0
100
AcDbEntity
  8
1
  6
Continuous
100
AcDbLine
 10
25.601643
 20
130.6899029999999
 30
0.0
 11
31.201641
 21
132.1904139999998
 31
0.0
  0
LINE
  5
26E
330
1F0
100
AcDbEntity
  8
1
  6
Continuous
100
AcDbLine
 10
25.2393
 20
129.8051749999999
 30
0.0
 11
30.83929799999999
 21
131.3056939999998
 31
0.0
  0
LINE
  5
26F
330
1F0
100
AcDbEntity
  8
1
  6
Continuous
100
AcDbLine
 10
25.60165
 20
128.4528799999999
 30
0.0
 11
31.201641
 21
129.9533919999998
 31
0.0
  0
LINE
  5
270
330
1F0
100
AcDbEntity
  8
1
  6
Continuous
100
AcDbLine
 10
25.2393
 20
127.5681449999999
 30
0.0
 11
30.83929799999999
 21
129.0686639999998
 31
0.0
  0
LINE
  5
271
330
1F0
100
AcDbEntity
  8
1
  6
Continuous
100
AcDbLine
 10
25.601643
 20
126.215858
 30
0.0
 11
31.201649
 21
127.716377
 31
0.0
  0
LINE
  5
272
330
1F0
100
AcDbEntity
  8
1
  6
Continuous
100
AcDbLine
 10
27.520474
 20
162.3923489999999
 30
0.0
 11
27.520474
 21
160.9923549999998
 31
0.0
  0
LINE
  5
273
330
1F0
100
AcDbEntity
  8
1
  6
Continuous
100
AcDbLine
 10
28.920468
 20
162.3923489999999
 30
0.0
 11
28.920468
 21
160.9923549999998
 31
0.0
  0
LINE
  5
274
330
1F0
100
AcDbEntity
  8
1
  6
Continuous
100
AcDbLine
 10
27.520474
 20
126.7300029999999
 30
0.0
 11
27.520474
 21
122.29235
 31
0.0
  0
LINE
  5
275
330
1F0
100
AcDbEntity
  8
1
  6
Continuous
100
AcDbLine
 10
28.920468
 20
127.1051249999999
 30
0.0
 11
28.920468
 21
122.29235
 31
0.0
  0
LINE
  5
276
330
1F0
100
AcDbEntity
  8
1
  6
Continuous
100
AcDbLine
 10
29.002033
 20
156.2083129999998
 30
0.0
 11
31.111744
 21
155.9308469999998
 31
0.0
  0
LINE
  5
277
330
1F0
100
AcDbEntity
  8
1
  6
Continuous
100
AcDbLine
 10
25.329189
 20
155.2792959999998
 30
0.0
 11
27.438908
 21
155.001831
 31
0.0
  0
LINE
  5
278
330
1F0
100
AcDbEntity
  8
1
  6
Continuous
100
AcDbLine
 10
29.002033
 20
153.971282
 30
0.0
 11
31.111744
 21
153.693801
 31
0.0
  0
LINE
  5
279
330
1F0
100
AcDbEntity
  8
1
  6
Continuous
100
AcDbLine
 10
25.329197
 20
153.042282
 30
0.0
 11
27.438908
 21
152.764801
 31
0.0
  0
LINE
  5
27A
330
1F0
100
AcDbEntity
  8
1
  6
Continuous
100
AcDbLine
 10
29.002033
 20
151.7342519999999
 30
0.0
 11
31.11175199999999
 21
151.456787
 31
0.0
  0
LINE
  5
27B
330
1F0
100
AcDbEntity
  8
1
  6
Continuous
100
AcDbLine
 10
25.329197
 20
150.8052519999999
 30
0.0
 11
27.438908
 21
150.5277859999999
 31
0.0
  0
LINE
  5
27C
330
1F0
100
AcDbEntity
  8
1
  6
Continuous
100
AcDbLine
 10
29.002026
 20
149.497222
 30
0.0
 11
31.111744
 21
149.2197569999999
 31
0.0
  0
LINE
  5
27D
330
1F0
100
AcDbEntity
  8
1
  6
Continuous
100
AcDbLine
 10
25.329189
 20
148.5682219999999
 30
0.0
 11
27.438908
 21
148.2907559999999
 31
0.0
  0
LINE
  5
27E
330
1F0
100
AcDbEntity
  8
1
  6
Continuous
100
AcDbLine
 10
29.002033
 20
147.260208
 30
0.0
 11
31.111744
 21
146.982742
 31
0.0
  0
LINE
  5
27F
330
1F0
100
AcDbEntity
  8
1
  6
Continuous
100
AcDbLine
 10
25.329189
 20
146.3311919999999
 30
0.0
 11
27.438908
 21
146.053726
 31
0.0
  0
LINE
  5
280
330
1F0
100
AcDbEntity
  8
1
  6
Continuous
100
AcDbLine
 10
29.002033
 20
145.0231929999999
 30
0.0
 11
31.11175199999999
 21
144.7457119999999
 31
0.0
  0
LINE
  5
281
330
1F0
100
AcDbEntity
  8
1
  6
Continuous
100
AcDbLine
 10
25.329189
 20
144.094177
 30
0.0
 11
27.438908
 21
143.816696
 31
0.0
  0
LINE
  5
282
330
1F0
100
AcDbEntity
  8
1
  6
Continuous
100
AcDbLine
 10
29.002033
 20
142.7861629999999
 30
0.0
 11
31.11175199999999
 21
142.5086969999999
 31
0.0
  0
LINE
  5
283
330
1F0
100
AcDbEntity
  8
1
  6
Continuous
100
AcDbLine
 10
25.329197
 20
141.857147
 30
0.0
 11
27.438915
 21
141.5796809999999
 31
0.0
  0
LINE
  5
284
330
1F0
100
AcDbEntity
  8
1
  6
Continuous
100
AcDbLine
 10
29.002033
 20
140.549133
 30
0.0
 11
31.11175199999999
 21
140.2716669999998
 31
0.0
  0
LINE
  5
285
330
1F0
100
AcDbEntity
  8
1
  6
Continuous
100
AcDbLine
 10
25.329197
 20
139.6201169999999
 30
0.0
 11
27.438908
 21
139.3426509999999
 31
0.0
  0
LINE
  5
286
330
1F0
100
AcDbEntity
  8
1
  6
Continuous
100
AcDbLine
 10
29.002033
 20
138.312103
 30
0.0
 11
31.11175199999999
 21
138.034637
 31
0.0
  0
LINE
  5
287
330
1F0
100
AcDbEntity
  8
1
  6
Continuous
100
AcDbLine
 10
25.329197
 20
137.3830869999999
 30
0.0
 11
27.438915
 21
137.1056209999998
 31
0.0
  0
LINE
  5
288
330
1F0
100
AcDbEntity
  8
1
  6
Continuous
100
AcDbLine
 10
29.002033
 20
136.0750879999999
 30
0.0
 11
31.11175199999999
 21
135.7976219999999
 31
0.0
  0
LINE
  5
289
330
1F0
100
AcDbEntity
  8
1
  6
Continuous
100
AcDbLine
 10
25.329197
 20
135.146072
 30
0.0
 11
27.438908
 21
134.868606
 31
0.0
  0
LINE
  5
28A
330
1F0
100
AcDbEntity
  8
1
  6
Continuous
100
AcDbLine
 10
29.002033
 20
133.8380579999999
 30
0.0
 11
31.11175199999999
 21
133.5605919999999
 31
0.0
  0
LINE
  5
28B
330
1F0
100
AcDbEntity
  8
1
  6
Continuous
100
AcDbLine
 10
25.329197
 20
132.9090419999999
 30
0.0
 11
27.438908
 21
132.6315759999999
 31
0.0
  0
LINE
  5
28C
330
1F0
100
AcDbEntity
  8
1
  6
Continuous
100
AcDbLine
 10
29.002033
 20
131.601028
 30
0.0
 11
31.11175199999999
 21
131.323562
 31
0.0
  0
LINE
  5
28D
330
1F0
100
AcDbEntity
  8
1
  6
Continuous
100
AcDbLine
 10
25.329197
 20
130.672012
 30
0.0
 11
27.438908
 21
130.394546
 31
0.0
  0
LINE
  5
28E
330
1F0
100
AcDbEntity
  8
1
  6
Continuous
100
AcDbLine
 10
29.002026
 20
129.3640059999999
 30
0.0
 11
31.11175199999999
 21
129.0865399999999
 31
0.0
  0
LINE
  5
28F
330
1F0
100
AcDbEntity
  8
1
  6
Continuous
100
AcDbLine
 10
25.329197
 20
128.434989
 30
0.0
 11
27.438915
 21
128.157524
 31
0.0
  0
LINE
  5
290
330
1F0
100
AcDbEntity
  8
1
  6
Continuous
100
AcDbLine
 10
27.520474
 20
161.692352
 30
0.0
 11
23.220471
 21
161.692352
 31
0.0
  0
LINE
  5
291
330
1F0
100
AcDbEntity
  8
1
  6
Continuous
100
AcDbLine
 10
27.58801699999999
 20
160.692352
 30
0.0
 11
23.220471
 21
160.692352
 31
0.0
  0
LINE
  5
292
330
1F0
100
AcDbEntity
  8
1
  6
Continuous
100
AcDbLine
 10
27.520474
 20
160.692352
 30
0.0
 11
27.520474
 21
157.2607109999999
 31
0.0
  0
LINE
  5
293
330
1F0
100
AcDbEntity
  8
1
  6
Continuous
100
AcDbLine
 10
28.920468
 20
160.692352
 30
0.0
 11
28.920468
 21
157.6358329999999
 31
0.0
  0
LINE
  5
294
330
1F0
100
AcDbEntity
  8
1
  6
Continuous
100
AcDbLine
 10
22.220471
 20
238.5923459999999
 30
0.0
 11
22.220471
 21
232.2923429999999
 31
0.0
  0
LINE
  5
295
330
1F0
100
AcDbEntity
  8
1
  6
Continuous
100
AcDbLine
 10
23.220471
 20
238.5923459999999
 30
0.0
 11
23.220471
 21
232.2923429999999
 31
0.0
  0
LINE
  5
296
330
1F0
100
AcDbEntity
  8
1
  6
Continuous
100
AcDbLine
 10
23.32046899999999
 20
238.2923429999999
 30
0.0
 11
23.32046899999999
 21
232.2923429999999
 31
0.0
  0
LINE
  5
297
330
1F0
100
AcDbEntity
  8
1
  6
Continuous
100
AcDbLine
 10
33.120472
 20
238.2923429999999
 30
0.0
 11
33.120472
 21
232.2923429999999
 31
0.0
  0
LINE
  5
298
330
1F0
100
AcDbEntity
  8
1
  6
Continuous
100
AcDbLine
 10
33.22047100000001
 20
238.5923459999999
 30
0.0
 11
33.22047100000001
 21
232.2923429999999
 31
0.0
  0
LINE
  5
299
330
1F0
100
AcDbEntity
  8
1
  6
Continuous
100
AcDbLine
 10
34.220471
 20
238.5923459999999
 30
0.0
 11
34.220471
 21
232.2923429999999
 31
0.0
  0
LINE
  5
29A
330
1F0
100
AcDbEntity
  8
4
  6
CENTER
100
AcDbLine
 10
36.220471
 20
235.292343
 30
0.0
 11
20.22047099999999
 21
235.292343
 31
0.0
  0
LINE
  5
29B
330
1F0
100
AcDbEntity
  8
1
  6
Continuous
100
AcDbLine
 10
21.770474
 20
236.7923429999999
 30
0.0
 11
21.770474
 21
233.792343
 31
0.0
  0
LINE
  5
29C
330
1F0
100
AcDbEntity
  8
1
  6
Continuous
100
AcDbLine
 10
34.670468
 20
236.7923429999999
 30
0.0
 11
34.670468
 21
233.792343
 31
0.0
  0
LINE
  5
29D
330
1F0
100
AcDbEntity
  8
1
  6
Continuous
100
AcDbLine
 10
34.670468
 20
236.7923429999999
 30
0.0
 11
34.220471
 21
236.7923429999999
 31
0.0
  0
LINE
  5
29E
330
1F0
100
AcDbEntity
  8
1
  6
Continuous
100
AcDbLine
 10
34.670468
 20
233.792343
 30
0.0
 11
34.220471
 21
233.792343
 31
0.0
  0
LINE
  5
29F
330
1F0
100
AcDbEntity
  8
1
  6
Continuous
100
AcDbLine
 10
22.220471
 20
236.7923429999999
 30
0.0
 11
21.770474
 21
236.7923429999999
 31
0.0
  0
LINE
  5
2A0
330
1F0
100
AcDbEntity
  8
1
  6
Continuous
100
AcDbLine
 10
22.220471
 20
233.792343
 30
0.0
 11
21.770474
 21
233.792343
 31
0.0
  0
LINE
  5
2A1
330
1F0
100
AcDbEntity
  8
1
  6
Continuous
100
AcDbLine
 10
33.120472
 20
232.2923429999999
 30
0.0
 11
23.32046899999999
 21
232.2923429999999
 31
0.0
  0
LINE
  5
2A2
330
1F0
100
AcDbEntity
  8
1
  6
Continuous
100
AcDbLine
 10
33.120472
 20
238.2923429999999
 30
0.0
 11
23.32046899999999
 21
238.2923429999999
 31
0.0
  0
LINE
  5
2A3
330
1F0
100
AcDbEntity
  8
1
  6
Continuous
100
AcDbLine
 10
23.220471
 20
236.7923429999999
 30
0.0
 11
23.32046899999999
 21
236.7923429999999
 31
0.0
  0
LINE
  5
2A4
330
1F0
100
AcDbEntity
  8
1
  6
Continuous
100
AcDbLine
 10
23.220471
 20
233.792343
 30
0.0
 11
23.32046899999999
 21
233.792343
 31
0.0
  0
LINE
  5
2A5
330
1F0
100
AcDbEntity
  8
1
  6
Continuous
100
AcDbLine
 10
33.120472
 20
236.7923429999999
 30
0.0
 11
33.22047100000001
 21
236.7923429999999
 31
0.0
  0
LINE
  5
2A6
330
1F0
100
AcDbEntity
  8
1
  6
Continuous
100
AcDbLine
 10
33.120472
 20
233.792343
 30
0.0
 11
33.22047100000001
 21
233.792343
 31
0.0
  0
LINE
  5
2A7
330
1F0
100
AcDbEntity
  8
4
  6
CENTER
100
AcDbLine
 10
24.720471
 20
122.497451
 30
0.0
 11
31.720471
 21
122.497451
 31
0.0
  0
LINE
  5
2A8
330
1F0
100
AcDbEntity
  8
4
  6
CENTER
100
AcDbLine
 10
36.670468
 20
56.592346
 30
0.0
 11
19.770474
 21
56.592346
 31
0.0
  0
LINE
  5
2A9
330
1F0
100
AcDbEntity
  8
1
  6
Continuous
100
AcDbLine
 10
22.220471
 20
60.69234399999999
 30
0.0
 11
22.220471
 21
55.092346
 31
0.0
  0
LINE
  5
2AA
330
1F0
100
AcDbEntity
  8
1
  6
Continuous
100
AcDbLine
 10
23.220471
 20
60.69234399999999
 30
0.0
 11
23.220471
 21
55.092346
 31
0.0
  0
LINE
  5
2AB
330
1F0
100
AcDbEntity
  8
1
  6
Continuous
100
AcDbLine
 10
33.22047100000001
 20
60.69234399999999
 30
0.0
 11
33.22047100000001
 21
55.092346
 31
0.0
  0
LINE
  5
2AC
330
1F0
100
AcDbEntity
  8
1
  6
Continuous
100
AcDbLine
 10
34.220471
 20
60.69234399999999
 30
0.0
 11
34.220471
 21
55.092346
 31
0.0
  0
LINE
  5
2AD
330
1F0
100
AcDbEntity
  8
1
  6
Continuous
100
AcDbLine
 10
23.220471
 20
232.2923429999999
 30
0.0
 11
22.220471
 21
232.2923429999999
 31
0.0
  0
LINE
  5
2AE
330
1F0
100
AcDbEntity
  8
1
  6
Continuous
100
AcDbLine
 10
34.220471
 20
232.2923429999999
 30
0.0
 11
33.22047100000001
 21
232.2923429999999
 31
0.0
  0
LINE
  5
2AF
330
1F0
100
AcDbEntity
  8
1
  6
Continuous
100
AcDbLine
 10
33.120472
 20
57.19234399999999
 30
0.0
 11
33.120472
 21
59.592346
 31
0.0
  0
LINE
  5
2B0
330
1F0
100
AcDbEntity
  8
1
  6
Continuous
100
AcDbLine
 10
23.32046899999999
 20
57.19234399999999
 30
0.0
 11
23.32046899999999
 21
59.592346
 31
0.0
  0
LINE
  5
2B1
330
1F0
100
AcDbEntity
  8
1
  6
Continuous
100
AcDbLine
 10
23.32046899999999
 20
59.592346
 30
0.0
 11
33.120472
 21
59.592346
 31
0.0
  0
LINE
  5
2B2
330
1F0
100
AcDbEntity
  8
1
  6
Continuous
100
AcDbLine
 10
23.32046899999999
 20
58.09234599999999
 30
0.0
 11
23.220471
 21
58.09234599999999
 31
0.0
  0
LINE
  5
2B3
330
1F0
100
AcDbEntity
  8
1
  6
Continuous
100
AcDbLine
 10
33.22047100000001
 20
58.09234599999999
 30
0.0
 11
33.120472
 21
58.09234599999999
 31
0.0
  0
LINE
  5
2B4
330
1F0
100
AcDbEntity
  8
1
  6
Continuous
100
AcDbLine
 10
27.520474
 20
51.292346
 30
0.0
 11
27.520474
 21
56.89234899999998
 31
0.0
  0
LINE
  5
2B5
330
1F0
100
AcDbEntity
  8
1
  6
Continuous
100
AcDbLine
 10
28.920468
 20
51.292346
 30
0.0
 11
28.920468
 21
56.89234899999998
 31
0.0
  0
LINE
  5
2B6
330
1F0
100
AcDbEntity
  8
4
  6
CENTER
100
AcDbLine
 10
213.470471
 20
146.5923459999999
 30
0.0
 11
221.870464
 21
146.5923459999999
 31
0.0
  0
LINE
  5
2B7
330
1F0
100
AcDbEntity
  8
4
  6
CENTER
100
AcDbLine
 10
217.6704829999999
 20
118.092346
 30
0.0
 11
217.6704829999999
 21
184.0923459999999
 31
0.0
  0
LINE
  5
2B8
330
1F0
100
AcDbEntity
  8
1
  6
Continuous
100
AcDbLine
 10
212.6704829999999
 20
123.0923459999999
 30
0.0
 11
212.6704829999999
 21
156.0923459999998
 31
0.0
  0
LINE
  5
2B9
330
1F0
100
AcDbEntity
  8
1
  6
Continuous
100
AcDbLine
 10
222.670483
 20
123.0923459999999
 30
0.0
 11
222.670483
 21
156.0923459999998
 31
0.0
  0
LINE
  5
2BA
330
1F0
100
AcDbEntity
  8
4
  6
CENTER
100
AcDbLine
 10
213.470471
 20
129.592346
 30
0.0
 11
221.870464
 21
129.592346
 31
0.0
  0
LINE
  5
2BB
330
1F0
100
AcDbEntity
  8
1
  6
Continuous
100
AcDbLine
 10
212.6704829999999
 20
123.0923459999999
 30
0.0
 11
222.670483
 21
123.0923459999999
 31
0.0
  0
LINE
  5
2BC
330
1F0
100
AcDbEntity
  8
1
  6
Continuous
100
AcDbLine
 10
214.670483
 20
179.0923459999999
 30
0.0
 11
220.670483
 21
179.0923459999999
 31
0.0
  0
LINE
  5
2BD
330
1F0
100
AcDbEntity
  8
1
  6
Continuous
100
AcDbLine
 10
213.1704829999999
 20
156.0923459999998
 30
0.0
 11
222.1704829999999
 21
156.0923459999998
 31
0.0
  0
LINE
  5
2BE
330
1F0
100
AcDbEntity
  8
1
  6
Continuous
100
AcDbLine
 10
214.670452
 20
179.0923459999999
 30
0.0
 11
212.670452
 21
156.0923459999998
 31
0.0
  0
LINE
  5
2BF
330
1F0
100
AcDbEntity
  8
1
  6
Continuous
100
AcDbLine
 10
220.670452
 20
179.0923459999999
 30
0.0
 11
222.670452
 21
156.0923459999998
 31
0.0
  0
LINE
  5
2C0
330
1F0
100
AcDbEntity
  8
1
  6
Continuous
100
AcDbLine
 10
215.470471
 20
126.542343
 30
0.0
 11
215.470471
 21
132.642349
 31
0.0
  0
LINE
  5
2C1
330
1F0
100
AcDbEntity
  8
1
  6
Continuous
100
AcDbLine
 10
219.870464
 20
126.542343
 30
0.0
 11
219.870464
 21
132.642349
 31
0.0
  0
LINE
  5
2C2
330
1F0
100
AcDbEntity
  8
1
  6
Continuous
100
AcDbLine
 10
215.470471
 20
143.5423429999999
 30
0.0
 11
215.470471
 21
149.6423489999999
 31
0.0
  0
LINE
  5
2C3
330
1F0
100
AcDbEntity
  8
1
  6
Continuous
100
AcDbLine
 10
219.870464
 20
143.5423429999999
 30
0.0
 11
219.870464
 21
149.6423489999999
 31
0.0
  0
LINE
  5
2C4
330
1F0
100
AcDbEntity
  8
1
  6
Continuous
100
AcDbLine
 10
213.5636709999999
 20
160.5923459999999
 30
0.0
 11
221.7772939999999
 21
160.5923459999999
 31
0.0
  0
LINE
  5
2C5
330
1F0
100
AcDbEntity
  8
1
  6
Continuous
100
AcDbLine
 10
279.270458
 20
123.0923459999999
 30
0.0
 11
277.6704829999999
 21
123.0923459999999
 31
0.0
  0
LINE
  5
2C6
330
1F0
100
AcDbEntity
  8
1
  6
Continuous
100
AcDbLine
 10
277.6704829999999
 20
123.0923459999999
 30
0.0
 11
277.6704829999999
 21
156.0923459999998
 31
0.0
  0
LINE
  5
2C7
330
1F0
100
AcDbEntity
  8
1
  6
Continuous
100
AcDbLine
 10
279.270458
 20
123.0923459999999
 30
0.0
 11
279.270458
 21
156.0923459999998
 31
0.0
  0
LINE
  5
2C8
330
1F0
100
AcDbEntity
  8
1
  6
Continuous
100
AcDbLine
 10
282.0704769999998
 20
160.592361
 30
0.0
 11
278.230541
 21
157.308303
 31
0.0
  0
LINE
  5
2C9
330
1F0
100
AcDbEntity
  8
1
  6
Continuous
100
AcDbLine
 10
279.270458
 20
156.0923459999998
 30
0.0
 11
283.1103939999999
 21
159.376403
 31
0.0
  0
LINE
  5
2CA
330
1F0
100
AcDbEntity
  8
1
  6
Continuous
100
AcDbLine
 10
282.0704769999998
 20
160.5923459999999
 30
0.0
 11
277.9585079999999
 21
172.3026729999999
 31
0.0
  0
LINE
  5
2CB
330
1F0
100
AcDbEntity
  8
1
  6
Continuous
100
AcDbLine
 10
279.4681209999998
 20
172.832763
 30
0.0
 11
283.5800899999999
 21
161.122436
 31
0.0
  0
LINE
  5
2CC
330
1F0
100
AcDbEntity
  8
1
  6
Continuous
100
AcDbLine
 10
291.170483
 20
169.8923639999998
 30
0.0
 11
287.1458549999999
 21
176.61267
 31
0.0
  0
LINE
  5
2CD
330
1F0
100
AcDbEntity
  8
1
  6
Continuous
100
AcDbLine
 10
289.797802
 20
169.070297
 30
0.0
 11
285.7732049999999
 21
175.790603
 31
0.0
  0
LINE
  5
2CE
330
1F0
100
AcDbEntity
  8
1
  6
Continuous
100
AcDbLine
 10
291.170483
 20
169.8923639999998
 30
0.0
 11
289.797802
 21
169.070297
 31
0.0
  0
LINE
  5
2CF
330
1F0
100
AcDbEntity
  8
4
  6
CENTER
100
AcDbLine
 10
217.6704829999999
 20
225.192337
 30
0.0
 11
217.6704829999999
 21
248.6923369999999
 31
0.0
  0
LINE
  5
2D0
330
1F0
100
AcDbEntity
  8
1
  6
Continuous
100
AcDbLine
 10
214.3950009999998
 20
231.984573
 30
0.0
 11
215.179089
 21
241.399841
 31
0.0
  0
LINE
  5
2D1
330
1F0
100
AcDbEntity
  8
1
  6
Continuous
100
AcDbLine
 10
220.9459649999998
 20
231.984542
 30
0.0
 11
220.161846
 21
241.399826
 31
0.0
  0
LINE
  5
2D2
330
1F0
100
AcDbEntity
  8
1
  6
Continuous
100
AcDbLine
 10
214.1461599999999
 20
230.562408
 30
0.0
 11
213.061779
 21
234.5923149999999
 31
0.0
  0
LINE
  5
2D3
330
1F0
100
AcDbEntity
  8
1
  6
Continuous
100
AcDbLine
 10
214.1987729999999
 20
231.966873
 30
0.0
 11
213.231274
 21
235.562408
 31
0.0
  0
LINE
  5
2D4
330
1F0
100
AcDbEntity
  8
1
  6
Continuous
100
AcDbLine
 10
222.319683
 20
235.736633
 30
0.0
 11
222.670483
 21
231.792327
 31
0.0
  0
LINE
  5
2D5
330
1F0
100
AcDbEntity
  8
1
  6
Continuous
100
AcDbLine
 10
222.670452
 20
230.192337
 30
0.0
 11
222.279156
 21
234.5923299999999
 31
0.0
  0
LINE
  5
2D6
330
1F0
100
AcDbEntity
  8
1
  6
Continuous
100
AcDbLine
 10
213.021252
 20
235.736618
 30
0.0
 11
212.6704829999999
 21
231.792343
 31
0.0
  0
LINE
  5
2D7
330
1F0
100
AcDbEntity
  8
1
  6
Continuous
100
AcDbLine
 10
213.061779
 20
234.5923299999999
 30
0.0
 11
212.670452
 21
230.1923209999999
 31
0.0
  0
LINE
  5
2D8
330
1F0
100
AcDbEntity
  8
1
  6
Continuous
100
AcDbLine
 10
222.670483
 20
230.192337
 30
0.0
 11
222.670483
 21
231.792312
 31
0.0
  0
LINE
  5
2D9
330
1F0
100
AcDbEntity
  8
1
  6
Continuous
100
AcDbLine
 10
212.6704829999999
 20
230.192337
 30
0.0
 11
212.6704829999999
 21
231.792312
 31
0.0
  0
LINE
  5
2DA
330
1F0
100
AcDbEntity
  8
1
  6
Continuous
100
AcDbLine
 10
212.6704829999999
 20
230.192337
 30
0.0
 11
222.670483
 21
230.192337
 31
0.0
  0
LINE
  5
2DB
330
1F0
100
AcDbEntity
  8
1
  6
Continuous
100
AcDbLine
 10
213.5192989999999
 20
236.1923369999999
 30
0.0
 11
214.673077
 21
236.1923369999999
 31
0.0
  0
LINE
  5
2DC
330
1F0
100
AcDbEntity
  8
1
  6
Continuous
100
AcDbLine
 10
220.667858
 20
236.1923369999999
 30
0.0
 11
221.8216669999999
 21
236.1923369999999
 31
0.0
  0
LINE
  5
2DD
330
1F0
100
AcDbEntity
  8
1
  6
Continuous
100
AcDbLine
 10
221.142162
 20
231.966873
 30
0.0
 11
222.109661
 21
235.562423
 31
0.0
  0
LINE
  5
2DE
330
1F0
100
AcDbEntity
  8
1
  6
Continuous
100
AcDbLine
 10
222.279156
 20
234.5923299999999
 30
0.0
 11
221.1947749999999
 21
230.5623929999999
 31
0.0
  0
LINE
  5
2DF
330
1F0
100
AcDbEntity
  8
1
  6
Continuous
100
AcDbLine
 10
212.6704829999999
 20
231.792312
 30
0.0
 11
212.812756
 21
231.792312
 31
0.0
  0
LINE
  5
2E0
330
1F0
100
AcDbEntity
  8
1
  6
Continuous
100
AcDbLine
 10
222.5281789999999
 20
231.792312
 30
0.0
 11
222.670483
 21
231.792312
 31
0.0
  0
LINE
  5
2E1
330
1F0
100
AcDbEntity
  8
4
  6
CENTER
100
AcDbLine
 10
217.6704829999999
 20
66.69234399999999
 30
0.0
 11
217.6704829999999
 21
43.192344
 31
0.0
  0
LINE
  5
2E2
330
1F0
100
AcDbEntity
  8
1
  6
Continuous
100
AcDbLine
 10
214.745403
 20
55.692352
 30
0.0
 11
215.179089
 21
50.484867
 31
0.0
  0
LINE
  5
2E3
330
1F0
100
AcDbEntity
  8
1
  6
Continuous
100
AcDbLine
 10
220.5955009999999
 20
55.692348
 30
0.0
 11
220.161846
 21
50.48487399999999
 31
0.0
  0
LINE
  5
2E4
330
1F0
100
AcDbEntity
  8
1
  6
Continuous
100
AcDbLine
 10
222.319683
 20
56.148063
 30
0.0
 11
222.670483
 21
60.092365
 31
0.0
  0
LINE
  5
2E5
330
1F0
100
AcDbEntity
  8
1
  6
Continuous
100
AcDbLine
 10
213.021252
 20
56.148059
 30
0.0
 11
212.6704829999999
 21
60.09235699999999
 31
0.0
  0
LINE
  5
2E6
330
1F0
100
AcDbEntity
  8
1
  6
Continuous
100
AcDbLine
 10
222.670483
 20
61.69234399999999
 30
0.0
 11
222.670483
 21
60.092369
 31
0.0
  0
LINE
  5
2E7
330
1F0
100
AcDbEntity
  8
1
  6
Continuous
100
AcDbLine
 10
212.6704829999999
 20
61.69234399999999
 30
0.0
 11
212.6704829999999
 21
60.092369
 31
0.0
  0
LINE
  5
2E8
330
1F0
100
AcDbEntity
  8
1
  6
Continuous
100
AcDbLine
 10
212.6704829999999
 20
61.69234399999999
 30
0.0
 11
222.670483
 21
61.69234399999999
 31
0.0
  0
LINE
  5
2E9
330
1F0
100
AcDbEntity
  8
1
  6
Continuous
100
AcDbLine
 10
213.5192989999999
 20
55.692352
 30
0.0
 11
221.8216669999999
 21
55.692352
 31
0.0
  0
LINE
  5
2EA
330
1F0
100
AcDbEntity
  8
1
  6
Continuous
100
AcDbLine
 10
212.6704829999999
 20
60.092369
 30
0.0
 11
222.670483
 21
60.092369
 31
0.0
  0
LINE
  5
2EB
330
1F0
100
AcDbEntity
  8
4
  6
CENTER
100
AcDbLine
 10
275.6704829999998
 20
146.5923459999999
 30
0.0
 11
281.270458
 21
146.5923459999999
 31
0.0
  0
LINE
  5
2EC
330
1F0
100
AcDbEntity
  8
4
  6
CENTER
100
AcDbLine
 10
275.6704829999998
 20
129.592346
 30
0.0
 11
281.270458
 21
129.592346
 31
0.0
  0
LINE
  5
2ED
330
1F0
100
AcDbEntity
  8
4
  6
CENTER
100
AcDbLine
 10
282.770458
 20
181.0923459999999
 30
0.0
 11
282.770458
 21
166.892334
 31
0.0
  0
LINE
  5
2EE
330
1F0
100
AcDbEntity
  8
4
  6
CENTER
100
AcDbLine
 10
275.6704519999999
 20
173.9923399999999
 30
0.0
 11
289.870464
 21
173.9923399999999
 31
0.0
  0
LINE
  5
2EF
330
1F0
100
AcDbEntity
  8
4
  6
CENTER
100
AcDbLine
 10
210.570477
 20
235.292343
 30
0.0
 11
224.770458
 21
235.292343
 31
0.0
  0
LINE
  5
2F0
330
1F0
100
AcDbEntity
  8
4
  6
CENTER
100
AcDbLine
 10
210.570477
 20
56.592346
 30
0.0
 11
224.770458
 21
56.592346
 31
0.0
  0
LINE
  5
2F1
330
1F0
100
AcDbEntity
  8
4
  6
CENTER
100
AcDbLine
 10
210.570477
 20
173.9923399999999
 30
0.0
 11
224.770458
 21
173.9923399999999
 31
0.0
  0
LINE
  5
2F2
330
1F0
100
AcDbEntity
  8
1
  6
Continuous
100
AcDbLine
 10
24.720471
 20
149.0923459999999
 30
0.0
 11
23.720471
 21
149.0923459999999
 31
0.0
  0
LINE
  5
2F3
330
1F0
100
AcDbEntity
  8
1
  6
Continuous
100
AcDbLine
 10
24.720471
 20
143.0923459999999
 30
0.0
 11
23.720471
 21
143.0923459999999
 31
0.0
  0
LINE
  5
2F4
330
1F0
100
AcDbEntity
  8
1
  6
Continuous
100
AcDbLine
 10
22.220471
 20
148.0923459999999
 30
0.0
 11
21.72047099999999
 21
148.0923459999999
 31
0.0
  0
LINE
  5
2F5
330
1F0
100
AcDbEntity
  8
1
  6
Continuous
100
AcDbLine
 10
22.220471
 20
144.092346
 30
0.0
 11
21.72047099999999
 21
144.092346
 31
0.0
  0
LINE
  5
2F6
330
1F0
100
AcDbEntity
  8
1
  6
Continuous
100
AcDbLine
 10
21.72047099999999
 20
147.5923459999999
 30
0.0
 11
21.470472
 21
147.5923459999999
 31
0.0
  0
LINE
  5
2F7
330
1F0
100
AcDbEntity
  8
1
  6
Continuous
100
AcDbLine
 10
21.72047099999999
 20
144.5923459999999
 30
0.0
 11
21.470472
 21
144.5923459999999
 31
0.0
  0
LINE
  5
2F8
330
1F0
100
AcDbEntity
  8
1
  6
Continuous
100
AcDbLine
 10
24.720471
 20
149.0923459999999
 30
0.0
 11
24.720471
 21
143.0923459999999
 31
0.0
  0
LINE
  5
2F9
330
1F0
100
AcDbEntity
  8
1
  6
Continuous
100
AcDbLine
 10
23.720471
 20
149.0923459999999
 30
0.0
 11
23.720471
 21
143.0923459999999
 31
0.0
  0
LINE
  5
2FA
330
1F0
100
AcDbEntity
  8
1
  6
Continuous
100
AcDbLine
 10
23.720471
 20
144.092346
 30
0.0
 11
23.220471
 21
144.092346
 31
0.0
  0
LINE
  5
2FB
330
1F0
100
AcDbEntity
  8
1
  6
Continuous
100
AcDbLine
 10
23.720471
 20
148.0923459999999
 30
0.0
 11
23.220471
 21
148.0923459999999
 31
0.0
  0
LINE
  5
2FC
330
1F0
100
AcDbEntity
  8
1
  6
Continuous
100
AcDbLine
 10
21.72047099999999
 20
148.0923459999999
 30
0.0
 11
21.72047099999999
 21
144.092346
 31
0.0
  0
LINE
  5
2FD
330
1F0
100
AcDbEntity
  8
1
  6
Continuous
100
AcDbLine
 10
31.720471
 20
149.0923459999999
 30
0.0
 11
31.720471
 21
143.0923459999999
 31
0.0
  0
LINE
  5
2FE
330
1F0
100
AcDbEntity
  8
1
  6
Continuous
100
AcDbLine
 10
31.720471
 20
149.0923459999999
 30
0.0
 11
32.720471
 21
149.0923459999999
 31
0.0
  0
LINE
  5
2FF
330
1F0
100
AcDbEntity
  8
1
  6
Continuous
100
AcDbLine
 10
32.720471
 20
149.0923459999999
 30
0.0
 11
32.720471
 21
143.0923459999999
 31
0.0
  0
LINE
  5
300
330
1F0
100
AcDbEntity
  8
1
  6
Continuous
100
AcDbLine
 10
32.720471
 20
148.0923459999999
 30
0.0
 11
33.22047100000001
 21
148.0923459999999
 31
0.0
  0
LINE
  5
301
330
1F0
100
AcDbEntity
  8
1
  6
Continuous
100
AcDbLine
 10
32.720471
 20
144.092346
 30
0.0
 11
33.22047100000001
 21
144.092346
 31
0.0
  0
LINE
  5
302
330
1F0
100
AcDbEntity
  8
1
  6
Continuous
100
AcDbLine
 10
31.720471
 20
143.0923459999999
 30
0.0
 11
32.720471
 21
143.0923459999999
 31
0.0
  0
LINE
  5
303
330
1F0
100
AcDbEntity
  8
1
  6
Continuous
100
AcDbLine
 10
34.220471
 20
144.092346
 30
0.0
 11
34.72047100000001
 21
144.092346
 31
0.0
  0
LINE
  5
304
330
1F0
100
AcDbEntity
  8
1
  6
Continuous
100
AcDbLine
 10
34.72047100000001
 20
148.0923459999999
 30
0.0
 11
34.72047100000001
 21
144.092346
 31
0.0
  0
LINE
  5
305
330
1F0
100
AcDbEntity
  8
1
  6
Continuous
100
AcDbLine
 10
34.72047100000001
 20
144.5923459999999
 30
0.0
 11
34.970469
 21
144.5923459999999
 31
0.0
  0
LINE
  5
306
330
1F0
100
AcDbEntity
  8
1
  6
Continuous
100
AcDbLine
 10
34.72047100000001
 20
147.5923459999999
 30
0.0
 11
34.970469
 21
147.5923459999999
 31
0.0
  0
LINE
  5
307
330
1F0
100
AcDbEntity
  8
1
  6
Continuous
100
AcDbLine
 10
34.220471
 20
148.0923459999999
 30
0.0
 11
34.72047100000001
 21
148.0923459999999
 31
0.0
  0
LINE
  5
308
330
1F0
100
AcDbEntity
  8
1
  6
Continuous
100
AcDbLine
 10
23.020474
 20
159.6923519999998
 30
0.0
 11
22.420468
 21
159.6923519999998
 31
0.0
  0
LINE
  5
309
330
1F0
100
AcDbEntity
  8
1
  6
Continuous
100
AcDbLine
 10
34.020474
 20
159.6923519999998
 30
0.0
 11
33.420468
 21
159.6923519999998
 31
0.0
  0
LINE
  5
30A
330
1F0
100
AcDbEntity
  8
1
  6
Continuous
100
AcDbLine
 10
34.020474
 20
146.0923459999999
 30
0.0
 11
33.420468
 21
146.0923459999999
 31
0.0
  0
LINE
  5
30B
330
1F0
100
AcDbEntity
  8
1
  6
Continuous
100
AcDbLine
 10
23.020474
 20
146.0923459999999
 30
0.0
 11
22.420468
 21
146.0923459999999
 31
0.0
  0
LINE
  5
30C
330
1F0
100
AcDbEntity
  8
4
  6
CENTER
100
AcDbLine
 10
95.12048
 20
149.6423489999999
 30
0.0
 11
95.12048
 21
142.5423429999999
 31
0.0
  0
LINE
  5
30D
330
1F0
100
AcDbEntity
  8
1
  6
Continuous
100
AcDbLine
 10
34.220471
 20
60.69234399999999
 30
0.0
 11
33.22047100000001
 21
60.69234399999999
 31
0.0
  0
LINE
  5
30E
330
1F0
100
AcDbEntity
  8
1
  6
Continuous
100
AcDbLine
 10
23.220471
 20
60.69234399999999
 30
0.0
 11
22.220471
 21
60.69234399999999
 31
0.0
  0
LINE
  5
30F
330
1F0
100
AcDbEntity
  8
1
  6
Continuous
100
AcDbLine
 10
23.720471
 20
58.19234399999999
 30
0.0
 11
23.720471
 21
55.092346
 31
0.0
  0
LINE
  5
310
330
1F0
100
AcDbEntity
  8
1
  6
Continuous
100
AcDbLine
 10
24.720471
 20
58.19234399999999
 30
0.0
 11
24.720471
 21
55.092346
 31
0.0
  0
LINE
  5
311
330
1F0
100
AcDbEntity
  8
1
  6
Continuous
100
AcDbLine
 10
31.720471
 20
58.19234399999999
 30
0.0
 11
31.720471
 21
55.092346
 31
0.0
  0
LINE
  5
312
330
1F0
100
AcDbEntity
  8
1
  6
Continuous
100
AcDbLine
 10
32.720471
 20
58.19234399999999
 30
0.0
 11
32.720471
 21
55.092346
 31
0.0
  0
LINE
  5
313
330
1F0
100
AcDbEntity
  8
1
  6
Continuous
100
AcDbLine
 10
21.72047099999999
 20
57.19234399999999
 30
0.0
 11
21.72047099999999
 21
55.092346
 31
0.0
  0
LINE
  5
314
330
1F0
100
AcDbEntity
  8
1
  6
Continuous
100
AcDbLine
 10
34.72047100000001
 20
57.19234399999999
 30
0.0
 11
34.72047100000001
 21
55.092346
 31
0.0
  0
LINE
  5
315
330
1F0
100
AcDbEntity
  8
1
  6
Continuous
100
AcDbLine
 10
31.720471
 20
58.19234399999999
 30
0.0
 11
32.720471
 21
58.19234399999999
 31
0.0
  0
LINE
  5
316
330
1F0
100
AcDbEntity
  8
1
  6
Continuous
100
AcDbLine
 10
33.22047100000001
 20
57.19234399999999
 30
0.0
 11
32.720471
 21
57.19234399999999
 31
0.0
  0
LINE
  5
317
330
1F0
100
AcDbEntity
  8
1
  6
Continuous
100
AcDbLine
 10
34.220471
 20
57.19234399999999
 30
0.0
 11
34.72047100000001
 21
57.19234399999999
 31
0.0
  0
LINE
  5
318
330
1F0
100
AcDbEntity
  8
1
  6
Continuous
100
AcDbLine
 10
34.970469
 20
56.69234399999999
 30
0.0
 11
34.72047100000001
 21
56.69234399999999
 31
0.0
  0
LINE
  5
319
330
1F0
100
AcDbEntity
  8
1
  6
Continuous
100
AcDbLine
 10
23.720471
 20
58.19234399999999
 30
0.0
 11
24.720471
 21
58.19234399999999
 31
0.0
  0
LINE
  5
31A
330
1F0
100
AcDbEntity
  8
1
  6
Continuous
100
AcDbLine
 10
23.720471
 20
57.19234399999999
 30
0.0
 11
23.220471
 21
57.19234399999999
 31
0.0
  0
LINE
  5
31B
330
1F0
100
AcDbEntity
  8
1
  6
Continuous
100
AcDbLine
 10
21.72047099999999
 20
57.19234399999999
 30
0.0
 11
22.220471
 21
57.19234399999999
 31
0.0
  0
LINE
  5
31C
330
1F0
100
AcDbEntity
  8
1
  6
Continuous
100
AcDbLine
 10
21.72047099999999
 20
56.69234399999999
 30
0.0
 11
21.470472
 21
56.69234399999999
 31
0.0
  0
LINE
  5
31D
330
1F0
100
AcDbEntity
  8
4
  6
CENTER
100
AcDbLine
 10
36.720471
 20
55.19234399999999
 30
0.0
 11
29.72047100000001
 21
55.19234399999999
 31
0.0
  0
LINE
  5
31E
330
1F0
100
AcDbEntity
  8
4
  6
CENTER
100
AcDbLine
 10
26.720471
 20
55.19234399999999
 30
0.0
 11
19.720471
 21
55.19234399999999
 31
0.0
  0
LINE
  5
31F
330
1F0
100
AcDbEntity
  8
4
  6
CENTER
100
AcDbLine
 10
28.22047100000001
 20
256.092346
 30
0.0
 11
28.22047100000001
 21
227.292343
 31
0.0
  0
LINE
  5
320
330
1F0
100
AcDbEntity
  8
4
  6
CENTER
100
AcDbLine
 10
17.770474
 20
176.0923459999999
 30
0.0
 11
23.370472
 21
176.0923459999999
 31
0.0
  0
LINE
  5
321
330
1F0
100
AcDbEntity
  8
4
  6
CENTER
100
AcDbLine
 10
33.070469
 20
176.0923459999999
 30
0.0
 11
38.670468
 21
176.0923459999999
 31
0.0
  0
LINE
  5
322
330
1F0
100
AcDbEntity
  8
4
  6
CENTER
100
AcDbLine
 10
17.770474
 20
116.092346
 30
0.0
 11
23.370472
 21
116.092346
 31
0.0
  0
LINE
  5
323
330
1F0
100
AcDbEntity
  8
4
  6
CENTER
100
AcDbLine
 10
33.070469
 20
116.092346
 30
0.0
 11
38.670468
 21
116.092346
 31
0.0
  0
LINE
  5
324
330
1F0
100
AcDbEntity
  8
4
  6
CENTER
100
AcDbLine
 10
38.670468
 20
243.0923459999999
 30
0.0
 11
33.070469
 21
243.0923459999999
 31
0.0
  0
LINE
  5
325
330
1F0
100
AcDbEntity
  8
4
  6
CENTER
100
AcDbLine
 10
23.370472
 20
243.0923459999999
 30
0.0
 11
17.770474
 21
243.0923459999999
 31
0.0
  0
LINE
  5
326
330
1F0
100
AcDbEntity
  8
4
  6
CENTER
100
AcDbLine
 10
38.670468
 20
49.092346
 30
0.0
 11
33.070469
 21
49.092346
 31
0.0
  0
LINE
  5
327
330
1F0
100
AcDbEntity
  8
4
  6
CENTER
100
AcDbLine
 10
23.370472
 20
49.092346
 30
0.0
 11
17.770474
 21
49.092346
 31
0.0
  0
ARC
  5
328
330
1F0
100
AcDbEntity
  8
1
  6
Continuous
100
AcDbCircle
 10
90.22047099999999
 20
113.0923459999999
 30
0.0
 40
2.0
100
AcDbArc
 50
179.9999909999999
 51
270.000001
  0
ARC
  5
329
330
1F0
100
AcDbEntity
  8
1
  6
Continuous
100
AcDbCircle
 10
90.22047099999999
 20
179.0923459999999
 30
0.0
 40
2.0
100
AcDbArc
 50
89.99999599999998
 51
180.000005
  0
CIRCLE
  5
32A
330
1F0
100
AcDbEntity
  8
1
  6
Continuous
100
AcDbCircle
 10
101.220471
 20
116.092346
 30
0.0
 40
2.5
  0
CIRCLE
  5
32B
330
1F0
100
AcDbEntity
  8
1
  6
Continuous
100
AcDbCircle
 10
101.220471
 20
176.0923459999999
 30
0.0
 40
2.5
  0
ARC
  5
32C
330
1F0
100
AcDbEntity
  8
1
  6
Continuous
100
AcDbCircle
 10
107.2204709999999
 20
113.0923459999999
 30
0.0
 40
2.0
100
AcDbArc
 50
270.0000039999998
 51
0.000005
  0
ARC
  5
32D
330
1F0
100
AcDbEntity
  8
1
  6
Continuous
100
AcDbCircle
 10
107.2204709999999
 20
179.0923459999999
 30
0.0
 40
2.0
100
AcDbArc
 50
359.999995
 51
89.99999599999998
  0
ARC
  5
32E
330
1F0
100
AcDbEntity
  8
1
  6
Continuous
100
AcDbCircle
 10
28.22047100000001
 20
51.592346
 30
0.0
 40
1.5
100
AcDbArc
 50
117.8180039999998
 51
62.181998
  0
ARC
  5
32F
330
1F0
100
AcDbEntity
  8
1
  6
Continuous
100
AcDbCircle
 10
29.09425699999999
 20
122.497451
 30
0.0
 40
0.626211
100
AcDbArc
 50
292.497766
 51
67.502234
  0
ARC
  5
330
330
1F0
100
AcDbEntity
  8
1
  6
Continuous
100
AcDbCircle
 10
27.346684
 20
122.497451
 30
0.0
 40
0.626211
100
AcDbArc
 50
112.4977649999999
 51
247.5022319999999
  0
ARC
  5
331
330
1F0
100
AcDbEntity
  8
1
  6
Continuous
100
AcDbCircle
 10
25.420468
 20
155.973327
 30
0.0
 40
0.7
100
AcDbArc
 50
105.0
 51
263.7175649999999
  0
ARC
  5
332
330
1F0
100
AcDbEntity
  8
1
  6
Continuous
100
AcDbCircle
 10
29.10164299999999
 20
156.959686
 30
0.0
 40
0.7
100
AcDbArc
 50
285.000001
 51
105.0
  0
ARC
  5
333
330
1F0
100
AcDbEntity
  8
1
  6
Continuous
100
AcDbCircle
 10
31.020474
 20
155.236816
 30
0.0
 40
0.7
100
AcDbArc
 50
284.999994
 51
83.71755400000003
  0
ARC
  5
334
330
1F0
100
AcDbEntity
  8
1
  6
Continuous
100
AcDbCircle
 10
25.420468
 20
153.736297
 30
0.0
 40
0.7
100
AcDbArc
 50
105.0
 51
263.7175649999999
  0
ARC
  5
335
330
1F0
100
AcDbEntity
  8
1
  6
Continuous
100
AcDbCircle
 10
31.020474
 20
152.9997859999998
 30
0.0
 40
0.7
100
AcDbArc
 50
285.000001
 51
83.71755400000003
  0
ARC
  5
336
330
1F0
100
AcDbEntity
  8
1
  6
Continuous
100
AcDbCircle
 10
25.420468
 20
151.4992669999998
 30
0.0
 40
0.7
100
AcDbArc
 50
105.0
 51
263.7175649999999
  0
ARC
  5
337
330
1F0
100
AcDbEntity
  8
1
  6
Continuous
100
AcDbCircle
 10
25.420468
 20
149.262237
 30
0.0
 40
0.7
100
AcDbArc
 50
105.0
 51
263.7175649999999
  0
ARC
  5
338
330
1F0
100
AcDbEntity
  8
1
  6
Continuous
100
AcDbCircle
 10
31.020474
 20
150.7627559999999
 30
0.0
 40
0.7
100
AcDbArc
 50
285.000001
 51
83.71755400000003
  0
ARC
  5
339
330
1F0
100
AcDbEntity
  8
1
  6
Continuous
100
AcDbCircle
 10
31.020474
 20
148.5257409999998
 30
0.0
 40
0.7
100
AcDbArc
 50
284.999994
 51
83.71755400000003
  0
ARC
  5
33A
330
1F0
100
AcDbEntity
  8
1
  6
Continuous
100
AcDbCircle
 10
25.420468
 20
147.0252219999998
 30
0.0
 40
0.7
100
AcDbArc
 50
105.0
 51
263.7175649999999
  0
ARC
  5
33B
330
1F0
100
AcDbEntity
  8
1
  6
Continuous
100
AcDbCircle
 10
25.420468
 20
144.788208
 30
0.0
 40
0.7
100
AcDbArc
 50
105.0
 51
263.7175649999999
  0
ARC
  5
33C
330
1F0
100
AcDbEntity
  8
1
  6
Continuous
100
AcDbCircle
 10
31.020474
 20
146.288711
 30
0.0
 40
0.7
100
AcDbArc
 50
284.999994
 51
83.71755400000003
  0
ARC
  5
33D
330
1F0
100
AcDbEntity
  8
1
  6
Continuous
100
AcDbCircle
 10
31.020474
 20
144.0516959999999
 30
0.0
 40
0.7
100
AcDbArc
 50
285.000001
 51
83.71755400000003
  0
ARC
  5
33E
330
1F0
100
AcDbEntity
  8
1
  6
Continuous
100
AcDbCircle
 10
25.420468
 20
142.5511779999999
 30
0.0
 40
0.7
100
AcDbArc
 50
105.0
 51
263.7175649999999
  0
ARC
  5
33F
330
1F0
100
AcDbEntity
  8
1
  6
Continuous
100
AcDbCircle
 10
25.420468
 20
140.314147
 30
0.0
 40
0.7
100
AcDbArc
 50
105.0
 51
263.7175649999999
  0
ARC
  5
340
330
1F0
100
AcDbEntity
  8
1
  6
Continuous
100
AcDbCircle
 10
31.020474
 20
141.8146659999998
 30
0.0
 40
0.7
100
AcDbArc
 50
285.000001
 51
83.71755400000003
  0
ARC
  5
341
330
1F0
100
AcDbEntity
  8
1
  6
Continuous
100
AcDbCircle
 10
31.020474
 20
139.577636
 30
0.0
 40
0.7
100
AcDbArc
 50
285.000001
 51
83.71755400000003
  0
ARC
  5
342
330
1F0
100
AcDbEntity
  8
1
  6
Continuous
100
AcDbCircle
 10
25.420468
 20
138.0771169999998
 30
0.0
 40
0.7
100
AcDbArc
 50
105.0
 51
263.7175649999999
  0
ARC
  5
343
330
1F0
100
AcDbEntity
  8
1
  6
Continuous
100
AcDbCircle
 10
25.420468
 20
135.840087
 30
0.0
 40
0.7
100
AcDbArc
 50
105.0
 51
263.7175649999999
  0
ARC
  5
344
330
1F0
100
AcDbEntity
  8
1
  6
Continuous
100
AcDbCircle
 10
31.020474
 20
137.340606
 30
0.0
 40
0.7
100
AcDbArc
 50
284.999994
 51
83.71755400000003
  0
ARC
  5
345
330
1F0
100
AcDbEntity
  8
1
  6
Continuous
100
AcDbCircle
 10
31.020474
 20
135.103591
 30
0.0
 40
0.7
100
AcDbArc
 50
284.999994
 51
83.71755400000003
  0
ARC
  5
346
330
1F0
100
AcDbEntity
  8
1
  6
Continuous
100
AcDbCircle
 10
25.420468
 20
133.603073
 30
0.0
 40
0.7
100
AcDbArc
 50
105.0
 51
263.7175649999999
  0
ARC
  5
347
330
1F0
100
AcDbEntity
  8
1
  6
Continuous
100
AcDbCircle
 10
25.420468
 20
131.36605
 30
0.0
 40
0.7
100
AcDbArc
 50
105.0
 51
263.7175649999999
  0
ARC
  5
348
330
1F0
100
AcDbEntity
  8
1
  6
Continuous
100
AcDbCircle
 10
31.020474
 20
132.8665609999999
 30
0.0
 40
0.7
100
AcDbArc
 50
285.000001
 51
83.71755400000003
  0
ARC
  5
349
330
1F0
100
AcDbEntity
  8
1
  6
Continuous
100
AcDbCircle
 10
31.020474
 20
130.629539
 30
0.0
 40
0.7
100
AcDbArc
 50
284.999994
 51
83.71755400000003
  0
ARC
  5
34A
330
1F0
100
AcDbEntity
  8
1
  6
Continuous
100
AcDbCircle
 10
31.020474
 20
128.392517
 30
0.0
 40
0.7
100
AcDbArc
 50
285.000001
 51
82.50747599999998
  0
ARC
  5
34B
330
1F0
100
AcDbEntity
  8
1
  6
Continuous
100
AcDbCircle
 10
25.420468
 20
126.8919979999999
 30
0.0
 40
0.7
100
AcDbArc
 50
105.0
 51
284.999998
  0
ARC
  5
34C
330
1F0
100
AcDbEntity
  8
1
  6
Continuous
100
AcDbCircle
 10
25.420468
 20
129.129028
 30
0.0
 40
0.7
100
AcDbArc
 50
105.0
 51
263.7175649999999
  0
ARC
  5
34D
330
1F0
100
AcDbEntity
  8
1
  6
Continuous
100
AcDbCircle
 10
28.22047100000001
 20
122.29235
 30
0.0
 40
0.7
100
AcDbArc
 50
179.9999909999999
 51
0.00001
  0
ARC
  5
34E
330
1F0
100
AcDbEntity
  8
1
  6
Continuous
100
AcDbCircle
 10
28.22047100000001
 20
162.3923489999999
 30
0.0
 40
0.7
100
AcDbArc
 50
0.0
 51
180.000005
  0
ARC
  5
34F
330
1F0
100
AcDbEntity
  8
1
  6
Continuous
100
AcDbCircle
 10
28.22047100000001
 20
160.9923549999998
 30
0.0
 40
0.7
100
AcDbArc
 50
179.9999909999999
 51
0.00001
  0
ARC
  5
350
330
1F0
100
AcDbEntity
  8
1
  6
Continuous
100
AcDbCircle
 10
28.22047100000001
 20
120.38771
 30
0.0
 40
2.909740999999998
100
AcDbArc
 50
67.502234
 51
76.07980400000002
  0
ARC
  5
351
330
1F0
100
AcDbEntity
  8
1
  6
Continuous
100
AcDbCircle
 10
28.22047100000001
 20
124.607193
 30
0.0
 40
2.909740999999998
100
AcDbArc
 50
247.5022350000001
 51
261.8487809999999
  0
ARC
  5
352
330
1F0
100
AcDbEntity
  8
1
  6
Continuous
100
AcDbCircle
 10
28.22047100000001
 20
124.607193
 30
0.0
 40
2.909740999999998
100
AcDbArc
 50
278.15122
 51
292.497766
  0
ARC
  5
353
330
1F0
100
AcDbEntity
  8
1
  6
Continuous
100
AcDbCircle
 10
28.22047100000001
 20
120.38771
 30
0.0
 40
2.909740999999998
100
AcDbArc
 50
103.920194
 51
112.4977649999999
  0
ARC
  5
354
330
1F0
100
AcDbEntity
  8
1
  6
Continuous
100
AcDbCircle
 10
28.22047100000001
 20
51.292346
 30
0.0
 40
0.7
100
AcDbArc
 50
179.9999909999999
 51
0.00001
  0
ARC
  5
355
330
1F0
100
AcDbEntity
  8
1
  6
Continuous
100
AcDbCircle
 10
28.22047100000001
 20
55.092346
 30
0.0
 40
3.5
100
AcDbArc
 50
0.0
 51
180.000005
  0
ARC
  5
356
330
1F0
100
AcDbEntity
  8
1
  6
Continuous
100
AcDbCircle
 10
28.22047100000001
 20
55.092346
 30
0.0
 40
2.1
100
AcDbArc
 50
0.0
 51
71.27857
  0
ARC
  5
357
330
1F0
100
AcDbEntity
  8
1
  6
Continuous
100
AcDbCircle
 10
28.22047100000001
 20
55.092346
 30
0.0
 40
2.1
100
AcDbArc
 50
108.7214279999999
 51
180.000005
  0
ARC
  5
358
330
1F0
100
AcDbEntity
  8
1
  6
Continuous
100
AcDbCircle
 10
28.22047100000001
 20
55.092346
 30
0.0
 40
1.3
100
AcDbArc
 50
0.0
 51
57.352142
  0
ARC
  5
359
330
1F0
100
AcDbEntity
  8
1
  6
Continuous
100
AcDbCircle
 10
28.22047100000001
 20
55.092346
 30
0.0
 40
1.3
100
AcDbArc
 50
122.57881
 51
180.000005
  0
ARC
  5
35A
330
1F0
100
AcDbEntity
  8
1
  6
Continuous
100
AcDbCircle
 10
217.6704829999999
 20
132.642349
 30
0.0
 40
2.2
100
AcDbArc
 50
0.0
 51
180.000005
  0
ARC
  5
35B
330
1F0
100
AcDbEntity
  8
1
  6
Continuous
100
AcDbCircle
 10
217.6704829999999
 20
126.542343
 30
0.0
 40
2.2
100
AcDbArc
 50
179.9999909999999
 51
0.00001
  0
ARC
  5
35C
330
1F0
100
AcDbEntity
  8
1
  6
Continuous
100
AcDbCircle
 10
217.6704829999999
 20
149.6423489999999
 30
0.0
 40
2.2
100
AcDbArc
 50
0.0
 51
180.000005
  0
ARC
  5
35D
330
1F0
100
AcDbEntity
  8
1
  6
Continuous
100
AcDbCircle
 10
217.6704829999999
 20
143.5423429999999
 30
0.0
 40
2.2
100
AcDbArc
 50
179.9999909999999
 51
0.00001
  0
ARC
  5
35E
330
1F0
100
AcDbEntity
  8
1
  6
Continuous
100
AcDbCircle
 10
279.270458
 20
156.0923459999998
 30
0.0
 40
1.6
100
AcDbArc
 50
130.538248
 51
180.000005
  0
ARC
  5
35F
330
1F0
100
AcDbEntity
  8
1
  6
Continuous
100
AcDbCircle
 10
282.0704769999998
 20
160.5923459999999
 30
0.0
 40
1.6
100
AcDbArc
 50
310.538246
 51
19.348217
  0
ARC
  5
360
330
1F0
100
AcDbEntity
  8
1
  6
Continuous
100
AcDbCircle
 10
282.770458
 20
173.9923399999999
 30
0.0
 40
3.5
100
AcDbArc
 50
30.91628399999999
 51
199.3482229999998
  0
ARC
  5
361
330
1F0
100
AcDbEntity
  8
1
  6
Continuous
100
AcDbCircle
 10
282.770458
 20
173.9923399999999
 30
0.0
 40
5.099999999999997
100
AcDbArc
 50
30.91628399999999
 51
199.3482229999998
  0
ARC
  5
362
330
1F0
100
AcDbEntity
  8
1
  6
Continuous
100
AcDbCircle
 10
217.6704829999999
 20
241.192337
 30
0.0
 40
2.5
100
AcDbArc
 50
4.760544
 51
175.239459
  0
ARC
  5
363
330
1F0
100
AcDbEntity
  8
1
  6
Continuous
100
AcDbCircle
 10
221.6268429999999
 20
235.692337
 30
0.0
 40
0.5
100
AcDbArc
 50
344.9395509999998
 51
90.00000300000001
  0
ARC
  5
364
330
1F0
100
AcDbEntity
  8
1
  6
Continuous
100
AcDbCircle
 10
221.8216669999999
 20
235.692337
 30
0.0
 40
0.5
100
AcDbArc
 50
5.082112999999997
 51
90.00000300000001
  0
ARC
  5
365
330
1F0
100
AcDbEntity
  8
1
  6
Continuous
100
AcDbCircle
 10
213.7140919999999
 20
235.692337
 30
0.0
 40
0.5
100
AcDbArc
 50
90.00000300000001
 51
195.060681
  0
ARC
  5
366
330
1F0
100
AcDbEntity
  8
1
  6
Continuous
100
AcDbCircle
 10
213.5192989999999
 20
235.692337
 30
0.0
 40
0.5
100
AcDbArc
 50
90.00000300000001
 51
174.917893
  0
ARC
  5
367
330
1F0
100
AcDbEntity
  8
1
  6
Continuous
100
AcDbCircle
 10
220.7119559999999
 20
230.6923209999999
 30
0.0
 40
0.5
100
AcDbArc
 50
269.9999969999999
 51
344.93945
  0
ARC
  5
368
330
1F0
100
AcDbEntity
  8
1
  6
Continuous
100
AcDbCircle
 10
214.6289789999999
 20
230.6923209999999
 30
0.0
 40
0.5
100
AcDbArc
 50
195.0606849999999
 51
269.9999969999999
  0
ARC
  5
369
330
1F0
100
AcDbEntity
  8
1
  6
Continuous
100
AcDbCircle
 10
221.0456049999999
 20
231.992843
 30
0.0
 40
0.1
100
AcDbArc
 50
184.7605409999999
 51
344.9395509999998
  0
ARC
  5
36A
330
1F0
100
AcDbEntity
  8
1
  6
Continuous
100
AcDbCircle
 10
214.2953299999998
 20
231.992858
 30
0.0
 40
0.1
100
AcDbArc
 50
195.0606849999999
 51
355.2394529999999
  0
ARC
  5
36B
330
1F0
100
AcDbEntity
  8
1
  6
Continuous
100
AcDbCircle
 10
217.6704829999999
 20
52.065044
 30
0.0
 40
2.5
100
AcDbArc
 50
184.7605409999999
 51
355.239456
  0
ARC
  5
36C
330
1F0
100
AcDbEntity
  8
1
  6
Continuous
100
AcDbCircle
 10
221.8216669999999
 20
56.192352
 30
0.0
 40
0.5
100
AcDbArc
 50
269.9999969999999
 51
354.9178869999999
  0
ARC
  5
36D
330
1F0
100
AcDbEntity
  8
1
  6
Continuous
100
AcDbCircle
 10
213.5192989999999
 20
56.192352
 30
0.0
 40
0.5
100
AcDbArc
 50
185.0821069999998
 51
269.9999969999999
  0
ARC
  5
36E
330
1F0
100
AcDbEntity
  8
1
  6
Continuous
100
AcDbCircle
 10
217.6704829999999
 20
50.692344
 30
0.0
 40
2.5
100
AcDbArc
 50
184.7605409999999
 51
355.239456
  0
CIRCLE
  5
36F
330
1F0
100
AcDbEntity
  8
1
  6
Continuous
100
AcDbCircle
 10
95.12048
 20
146.0923459999999
 30
0.0
 40
1.5
  0
CIRCLE
  5
370
330
1F0
100
AcDbEntity
  8
1
  6
Continuous
100
AcDbCircle
 10
95.12048
 20
146.0923459999999
 30
0.0
 40
1.55
  0
ARC
  5
371
330
1F0
100
AcDbEntity
  8
1
  6
Continuous
100
AcDbCircle
 10
28.22047100000001
 20
56.89234899999998
 30
0.0
 40
0.699997
100
AcDbArc
 50
0.0
 51
180.000005
  0
ARC
  5
372
330
1F0
100
AcDbEntity
  8
1
  6
Continuous
100
AcDbCircle
 10
28.22114199999999
 20
250.1924009999999
 30
0.0
 40
7.932788
100
AcDbArc
 50
259.8959999999999
 51
262.2069999999999
  0
ARC
  5
373
330
1F0
100
AcDbEntity
  8
1
  6
Continuous
100
AcDbCircle
 10
28.22114199999999
 20
238.9936329999999
 30
0.0
 40
7.932788
100
AcDbArc
 50
97.793
 51
100.104
  0
ARC
  5
374
330
1F0
100
AcDbEntity
  8
1
  6
Continuous
100
AcDbCircle
 10
27.153368
 20
242.3985999999999
 30
0.0
 40
0.066678
100
AcDbArc
 50
262.2069999999999
 51
0.0
  0
ARC
  5
375
330
1F0
100
AcDbEntity
  8
1
  6
Continuous
100
AcDbCircle
 10
27.153368
 20
246.7874339999999
 30
0.0
 40
0.066678
100
AcDbArc
 50
0.0
 51
97.793
  0
LINE
  5
376
330
1F0
100
AcDbEntity
  8
1
  6
Continuous
100
AcDbLine
 10
27.88687100000001
 20
242.267327
 30
0.0
 11
27.88687100000001
 21
246.9187069999999
 31
0.0
  0
LINE
  5
377
330
1F0
100
AcDbEntity
  8
1
  6
Continuous
100
AcDbLine
 10
27.221034
 20
242.3985999999999
 30
0.0
 11
27.221034
 21
246.7874339999999
 31
0.0
  0
LINE
  5
378
330
1F0
100
AcDbEntity
  8
1
  6
Continuous
100
AcDbLine
 10
26.553845
 20
243.792525
 30
0.0
 11
26.553845
 21
242.711218
 31
0.0
  0
LINE
  5
379
330
1F0
100
AcDbEntity
  8
1
  6
Continuous
100
AcDbLine
 10
26.553845
 20
244.5923399999998
 30
0.0
 11
26.886763
 21
244.5923399999998
 31
0.0
  0
LINE
  5
37A
330
1F0
100
AcDbEntity
  8
1
  6
Continuous
100
AcDbLine
 10
25.22081899999999
 20
242.7152779999999
 30
0.0
 11
25.22081899999999
 21
244.259422
 31
0.0
  0
LINE
  5
37B
330
1F0
100
AcDbEntity
  8
1
  6
Continuous
100
AcDbLine
 10
24.55363
 20
244.259422
 30
0.0
 11
24.55363
 21
242.835724
 31
0.0
  0
LINE
  5
37C
330
1F0
100
AcDbEntity
  8
1
  6
Continuous
100
AcDbLine
 10
24.887901
 20
244.5923399999998
 30
0.0
 11
24.887901
 21
246.191971
 31
0.0
  0
LINE
  5
37D
330
1F0
100
AcDbEntity
  8
1
  6
Continuous
100
AcDbLine
 10
24.215298
 20
245.8401069999999
 30
0.0
 11
23.46149599999999
 21
243.030603
 31
0.0
  0
LINE
  5
37E
330
1F0
100
AcDbEntity
  8
1
  6
Continuous
100
AcDbLine
 10
22.503342
 20
244.5923399999998
 30
0.0
 11
23.881027
 21
244.5923399999998
 31
0.0
  0
ARC
  5
37F
330
1F0
100
AcDbEntity
  8
1
  6
Continuous
100
AcDbCircle
 10
24.887901
 20
244.259422
 30
0.0
 40
0.333392
100
AcDbArc
 50
0.0
 51
180.0
  0
ARC
  5
380
330
1F0
100
AcDbEntity
  8
1
  6
Continuous
100
AcDbCircle
 10
24.22071199999999
 20
244.5923399999998
 30
0.0
 40
1.717978999999998
100
AcDbArc
 50
152.2499999999998
 51
234.4619999999999
  0
ARC
  5
381
330
1F0
100
AcDbEntity
  8
1
  6
Continuous
100
AcDbCircle
 10
24.22071199999999
 20
244.5923399999998
 30
0.0
 40
1.717978999999998
100
AcDbArc
 50
125.538
 51
135.6989999999999
  0
ARC
  5
382
330
1F0
100
AcDbEntity
  8
1
  6
Continuous
100
AcDbCircle
 10
26.886763
 20
242.711218
 30
0.0
 40
0.333392
100
AcDbArc
 50
180.0
 51
259.8959999999999
  0
ARC
  5
383
330
1F0
100
AcDbEntity
  8
1
  6
Continuous
100
AcDbCircle
 10
26.886763
 20
246.474816
 30
0.0
 40
0.333392
100
AcDbArc
 50
100.104
 51
180.0
  0
LINE
  5
384
330
1F0
100
AcDbEntity
  8
1
  6
Continuous
100
AcDbLine
 10
26.553845
 20
246.474816
 30
0.0
 11
26.553845
 21
244.5923399999998
 31
0.0
  0
LINE
  5
385
330
1F0
100
AcDbEntity
  8
1
  6
Continuous
100
AcDbLine
 10
25.888009
 20
242.401306
 30
0.0
 11
25.888009
 21
246.5749619999999
 31
0.0
  0
LINE
  5
386
330
1F0
100
AcDbEntity
  8
1
  6
Continuous
100
AcDbLine
 10
32.553137
 20
242.7639979999999
 30
0.0
 11
32.553137
 21
245.6384609999998
 31
0.0
  0
LINE
  5
387
330
1F0
100
AcDbEntity
  8
1
  6
Continuous
100
AcDbLine
 10
31.887301
 20
245.8225129999999
 30
0.0
 11
31.887301
 21
243.3635209999999
 31
0.0
  0
LINE
  5
388
330
1F0
100
AcDbEntity
  8
1
  6
Continuous
100
AcDbLine
 10
31.22011099999999
 20
242.9480499999999
 30
0.0
 11
31.22011099999999
 21
246.2366309999999
 31
0.0
  0
LINE
  5
389
330
1F0
100
AcDbEntity
  8
1
  6
Continuous
100
AcDbLine
 10
29.887086
 20
243.792525
 30
0.0
 11
29.887086
 21
242.520399
 31
0.0
  0
LINE
  5
38A
330
1F0
100
AcDbEntity
  8
1
  6
Continuous
100
AcDbLine
 10
28.55405999999998
 20
244.5923399999998
 30
0.0
 11
29.21989599999999
 21
244.5923399999998
 31
0.0
  0
ARC
  5
38B
330
1F0
100
AcDbEntity
  8
1
  6
Continuous
100
AcDbCircle
 10
32.220219
 20
244.5923399999998
 30
0.0
 40
1.717978999999998
100
AcDbArc
 50
305.5377
 51
346.5374
  0
ARC
  5
38C
330
1F0
100
AcDbEntity
  8
1
  6
Continuous
100
AcDbCircle
 10
32.220219
 20
244.5923399999998
 30
0.0
 40
1.717978999999998
100
AcDbArc
 50
0.0
 51
54.46200000000001
  0
ARC
  5
38D
330
1F0
100
AcDbEntity
  8
1
  6
Continuous
100
AcDbCircle
 10
31.553029
 20
243.3635209999999
 30
0.0
 40
0.333392
100
AcDbArc
 50
296.0144000000001
 51
0.0
  0
ARC
  5
38E
330
1F0
100
AcDbEntity
  8
1
  6
Continuous
100
AcDbCircle
 10
28.22114199999999
 20
250.1924009999999
 30
0.0
 40
7.932788
100
AcDbArc
 50
292.9439999999999
 51
296.0144000000001
  0
ARC
  5
38F
330
1F0
100
AcDbEntity
  8
1
  6
Continuous
100
AcDbCircle
 10
31.286424
 20
242.9480499999999
 30
0.0
 40
0.066678
100
AcDbArc
 50
180.0
 51
292.9439999999999
  0
ARC
  5
390
330
1F0
100
AcDbEntity
  8
1
  6
Continuous
100
AcDbCircle
 10
31.553029
 20
245.8225129999999
 30
0.0
 40
0.333392
100
AcDbArc
 50
0.0
 51
63.986
  0
ARC
  5
391
330
1F0
100
AcDbEntity
  8
1
  6
Continuous
100
AcDbCircle
 10
29.95339899999999
 20
242.520399
 30
0.0
 40
0.066678
100
AcDbArc
 50
180.0
 51
282.7289
  0
ARC
  5
392
330
1F0
100
AcDbEntity
  8
1
  6
Continuous
100
AcDbCircle
 10
28.22114199999999
 20
250.1924009999999
 30
0.0
 40
7.932788
100
AcDbArc
 50
282.7289
 51
283.2681
  0
ARC
  5
393
330
1F0
100
AcDbEntity
  8
1
  6
Continuous
100
AcDbCircle
 10
28.22114199999999
 20
250.1924009999999
 30
0.0
 40
7.932788
100
AcDbArc
 50
283.2681
 51
285.2574999999998
  0
ARC
  5
394
330
1F0
100
AcDbEntity
  8
1
  6
Continuous
100
AcDbCircle
 10
30.220004
 20
242.861437
 30
0.0
 40
0.333392
100
AcDbArc
 50
285.2574999999998
 51
0.0
  0
ARC
  5
395
330
1F0
100
AcDbEntity
  8
1
  6
Continuous
100
AcDbCircle
 10
30.220004
 20
246.324597
 30
0.0
 40
0.333392
100
AcDbArc
 50
0.0
 51
74.742
  0
ARC
  5
396
330
1F0
100
AcDbEntity
  8
1
  6
Continuous
100
AcDbCircle
 10
28.22114199999999
 20
238.9936329999999
 30
0.0
 40
7.932788
100
AcDbArc
 50
74.742
 51
74.79399999999998
  0
ARC
  5
397
330
1F0
100
AcDbEntity
  8
1
  6
Continuous
100
AcDbCircle
 10
28.22114199999999
 20
238.9936329999999
 30
0.0
 40
7.932788
100
AcDbArc
 50
74.79399999999998
 51
77.271
  0
ARC
  5
398
330
1F0
100
AcDbEntity
  8
1
  6
Continuous
100
AcDbCircle
 10
29.95339899999999
 20
246.665635
 30
0.0
 40
0.066678
100
AcDbArc
 50
77.271
 51
180.0
  0
LINE
  5
399
330
1F0
100
AcDbEntity
  8
1
  6
Continuous
100
AcDbLine
 10
30.554275
 20
242.861437
 30
0.0
 11
30.554275
 21
246.324597
 31
0.0
  0
LINE
  5
39A
330
1F0
100
AcDbEntity
  8
1
  6
Continuous
100
AcDbLine
 10
29.887086
 20
246.665635
 30
0.0
 11
29.887086
 21
245.3921559999999
 31
0.0
  0
LINE
  5
39B
330
1F0
100
AcDbEntity
  8
1
  6
Continuous
100
AcDbLine
 10
29.21989599999999
 20
242.3228139999999
 30
0.0
 11
29.21989599999999
 21
246.8632209999999
 31
0.0
  0
LINE
  5
39C
330
1F0
100
AcDbEntity
  8
1
  6
Continuous
100
AcDbLine
 10
28.55405999999998
 20
242.267327
 30
0.0
 11
28.55405999999998
 21
246.9187069999999
 31
0.0
  0
ARC
  5
39D
330
1F0
100
AcDbEntity
  8
1
  6
Continuous
100
AcDbCircle
 10
31.286424
 20
246.2366309999999
 30
0.0
 40
0.066678
100
AcDbArc
 50
67.056
 51
180.0
  0
ARC
  5
39E
330
1F0
100
AcDbEntity
  8
1
  6
Continuous
100
AcDbCircle
 10
28.22114199999999
 20
238.9936329999999
 30
0.0
 40
7.932788
100
AcDbArc
 50
63.986
 51
67.056
  0
ARC
  5
39F
330
1F0
100
AcDbEntity
  8
1
  6
Continuous
100
AcDbCircle
 10
28.22114199999999
 20
238.9936329999999
 30
0.0
 40
8.599396
100
AcDbArc
 50
54.46200000000001
 51
125.538
  0
ARC
  5
3A0
330
1F0
100
AcDbEntity
  8
1
  6
Continuous
100
AcDbCircle
 10
28.22114199999999
 20
250.1924009999999
 30
0.0
 40
8.599396
100
AcDbArc
 50
234.4619999999999
 51
305.5377
  0
ARC
  5
3A1
330
1F0
100
AcDbEntity
  8
1
  6
Continuous
100
AcDbCircle
 10
21.47047399999999
 20
249.4923459999998
 30
0.0
 40
1.6
100
AcDbArc
 50
90.0
 51
180.0
  0
ARC
  5
3A2
330
1F0
100
AcDbEntity
  8
1
  6
Continuous
100
AcDbCircle
 10
34.97046799999999
 20
249.4923459999998
 30
0.0
 40
1.6
100
AcDbArc
 50
0.0
 51
90.0
  0
ARC
  5
3A3
330
1F0
100
AcDbEntity
  8
1
  6
Continuous
100
AcDbCircle
 10
21.47047399999999
 20
42.69234599999999
 30
0.0
 40
1.6
100
AcDbArc
 50
180.0
 51
270.0
  0
ARC
  5
3A4
330
1F0
100
AcDbEntity
  8
1
  6
Continuous
100
AcDbCircle
 10
34.97046799999999
 20
42.69234599999999
 30
0.0
 40
1.6
100
AcDbArc
 50
270.0
 51
0.0
  0
ENDSEC
  0
SECTION
  2
OBJECTS
  0
DICTIONARY
  5
1DE
330
0
100
AcDbDictionary
281
     1
  3
ACAD_CIP_PREVIOUS_PRODUCT_INFO
350
408
  3
ACAD_COLOR
350
3EA
  3
ACAD_DETAILVIEWSTYLE
350
403
  3
ACAD_GROUP
350
1DF
  3
ACAD_LAYOUT
350
1EB
  3
ACAD_MATERIAL
350
3B8
  3
ACAD_MLEADERSTYLE
350
3FF
  3
ACAD_MLINESTYLE
350
1E8
  3
ACAD_PLOTSETTINGS
350
1EA
  3
ACAD_PLOTSTYLENAME
350
3B6
  3
ACAD_SCALELIST
350
3ED
  3
ACAD_SECTIONVIEWSTYLE
350
401
  3
ACAD_TABLESTYLE
350
3EB
  3
ACAD_VISUALSTYLE
350
3D1
  3
ACDB_RECOMPOSE_DATA
350
426
  3
AcDbVariableDictionary
350
419
  3
DWGPROPS
350
427
  0
DICTIONARY
  5
409
330
1E2
100
AcDbDictionary
280
     1
281
     1
  3
ADSK_XREC_LAYER_RECONCILED
360
40A
  0
DICTIONARY
  5
40B
330
1F8
100
AcDbDictionary
280
     1
281
     1
  3
ADSK_XREC_LAYER_RECONCILED
360
40C
  0
DICTIONARY
  5
40D
330
1F9
100
AcDbDictionary
280
     1
281
     1
  3
ADSK_XREC_LAYER_RECONCILED
360
40E
  0
DICTIONARY
  5
40F
330
1FA
100
AcDbDictionary
280
     1
281
     1
  3
ADSK_XREC_LAYER_RECONCILED
360
410
  0
DICTIONARY
  5
411
330
1FB
100
AcDbDictionary
280
     1
281
     1
  3
ADSK_XREC_LAYER_RECONCILED
360
412
  0
DICTIONARY
  5
413
330
1FC
100
AcDbDictionary
280
     1
281
     1
  3
ADSK_XREC_LAYER_RECONCILED
360
414
  0
DICTIONARY
  5
415
330
1FD
100
AcDbDictionary
280
     1
281
     1
  3
ADSK_XREC_LAYER_RECONCILED
360
416
  0
DICTIONARY
  5
417
330
1FE
100
AcDbDictionary
280
     1
281
     1
  3
ADSK_XREC_LAYER_RECONCILED
360
418
  0
DICTIONARY
  5
3B1
330
1F0
100
AcDbDictionary
281
     1
  3
ACAD_LAYOUTSELFREF
350
3B2
  0
DICTIONARY
  5
3AF
330
1EC
100
AcDbDictionary
281
     1
  3
ACAD_LAYOUTSELFREF
350
3B0
  0
XRECORD
  5
408
102
{ACAD_REACTORS
330
1DE
102
}
330
1DE
100
AcDbXrecord
280
     1
300
ACDLT
300
2014
300
ACDLT_F_S
  0
DICTIONARY
  5
3EA
102
{ACAD_REACTORS
330
1DE
102
}
330
1DE
100
AcDbDictionary
281
     1
  0
DICTIONARY
  5
403
102
{ACAD_REACTORS
330
1DE
102
}
330
1DE
100
AcDbDictionary
281
     1
  3
Imperial24
350
404
  0
DICTIONARY
  5
1DF
102
{ACAD_REACTORS
330
1DE
102
}
330
1DE
100
AcDbDictionary
281
     1
  0
DICTIONARY
  5
1EB
102
{ACAD_REACTORS
330
1DE
102
}
330
1DE
100
AcDbDictionary
281
     1
  3
Model
350
405
  3
レイアウト1
350
406
  0
DICTIONARY
  5
3B8
102
{ACAD_REACTORS
330
1DE
102
}
330
1DE
100
AcDbDictionary
281
     1
  3
ByBlock
350
3C1
  3
ByLayer
350
3B9
  3
Global
350
3C9
  0
DICTIONARY
  5
3FF
102
{ACAD_REACTORS
330
1DE
102
}
330
1DE
100
AcDbDictionary
281
     1
  3
Standard
350
400
  0
DICTIONARY
  5
1E8
102
{ACAD_REACTORS
330
1DE
102
}
330
1DE
100
AcDbDictionary
281
     1
  3
STANDARD
350
1E9
  0
DICTIONARY
  5
1EA
102
{ACAD_REACTORS
330
1DE
102
}
330
1DE
100
AcDbDictionary
281
     1
  0
ACDBDICTIONARYWDFLT
  5
3B6
102
{ACAD_REACTORS
330
1DE
102
}
330
1DE
100
AcDbDictionary
281
     1
  3
Normal
350
3B7
100
AcDbDictionaryWithDefault
340
3B7
  0
DICTIONARY
  5
3ED
102
{ACAD_REACTORS
330
1DE
102
}
330
1DE
100
AcDbDictionary
281
     1
  3
A0
350
3EE
  3
A1
350
3EF
  3
A2
350
3F0
  3
A3
350
3F1
  3
A4
350
3F2
  3
A5
350
3F3
  3
A6
350
3F4
  3
A7
350
3F5
  3
A8
350
3F6
  3
A9
350
3F7
  3
B0
350
3F8
  3
B1
350
3F9
  3
B2
350
3FA
  3
B3
350
3FB
  3
B4
350
3FC
  3
B5
350
3FD
  3
B6
350
3FE
  0
DICTIONARY
  5
401
102
{ACAD_REACTORS
330
1DE
102
}
330
1DE
100
AcDbDictionary
281
     1
  3
Imperial24
350
402
  0
DICTIONARY
  5
3EB
102
{ACAD_REACTORS
330
1DE
102
}
330
1DE
100
AcDbDictionary
281
     1
  3
Standard
350
3EC
  0
DICTIONARY
  5
3D1
102
{ACAD_REACTORS
330
1DE
102
}
330
1DE
100
AcDbDictionary
281
     1
  3
2dWireframe
350
3D7
  3
Basic
350
3D6
  3
Brighten
350
3DD
  3
ColorChange
350
3E1
  3
Conceptual
350
3DA
  3
Dim
350
3DC
  3
EdgeColorOff
350
3E9
  3
Facepattern
350
3E0
  3
Flat
350
3D2
  3
FlatWithEdges
350
3D3
  3
Gouraud
350
3D4
  3
GouraudWithEdges
350
3D5
  3
Hidden
350
3D9
  3
JitterOff
350
3E7
  3
Linepattern
350
3DF
  3
OverhangOff
350
3E8
  3
Realistic
350
3DB
  3
Shaded
350
3E6
  3
Shaded with edges
350
3E5
  3
Shades of Gray
350
3E2
  3
Sketchy
350
3E3
  3
Thicken
350
3DE
  3
Wireframe
350
3D8
  3
X-Ray
350
3E4
  0
XRECORD
  5
426
102
{ACAD_REACTORS
330
1DE
102
}
330
1DE
100
AcDbXrecord
280
     1
 90
        1
330
3EC
  0
DICTIONARY
  5
419
102
{ACAD_REACTORS
330
1DE
102
}
330
1DE
100
AcDbDictionary
281
     1
  3
CANNOSCALE
350
41E
  3
CMLEADERSTYLE
350
41B
  3
CTABLESTYLE
350
41A
  3
CVIEWDETAILSTYLE
350
41C
  3
CVIEWSECTIONSTYLE
350
41D
  3
DIMASSOC
350
421
  3
INDEXCTL
350
420
  3
SORTENTS
350
41F
  3
XCLIPFRAME
350
422
  0
XRECORD
  5
427
102
{ACAD_REACTORS
330
1DE
102
}
330
1DE
100
AcDbXrecord
280
     1
  1
DWGPROPS COOKIE
  2

  3

  4

  6

  7

  8
Yoshitsune
  9

300
=
301
=
302
=
303
=
304
=
305
=
306
=
307
=
308
=
309
=
 40
0.0000131018518519
 41
2450955.651458218
 42
2457192.603406482
  1

 90
        0
  0
XRECORD
  5
40A
102
{ACAD_REACTORS
330
409
102
}
330
409
100
AcDbXrecord
280
     1
290
     1
  0
XRECORD
  5
40C
102
{ACAD_REACTORS
330
40B
102
}
330
40B
100
AcDbXrecord
280
     1
290
     1
  0
XRECORD
  5
40E
102
{ACAD_REACTORS
330
40D
102
}
330
40D
100
AcDbXrecord
280
     1
290
     1
  0
XRECORD
  5
410
102
{ACAD_REACTORS
330
40F
102
}
330
40F
100
AcDbXrecord
280
     1
290
     1
  0
XRECORD
  5
412
102
{ACAD_REACTORS
330
411
102
}
330
411
100
AcDbXrecord
280
     1
290
     1
  0
XRECORD
  5
414
102
{ACAD_REACTORS
330
413
102
}
330
413
100
AcDbXrecord
280
     1
290
     1
  0
XRECORD
  5
416
102
{ACAD_REACTORS
330
415
102
}
330
415
100
AcDbXrecord
280
     1
290
     1
  0
XRECORD
  5
418
102
{ACAD_REACTORS
330
417
102
}
330
417
100
AcDbXrecord
280
     1
290
     1
  0
XRECORD
  5
3B2
102
{ACAD_REACTORS
330
3B1
102
}
330
3B1
100
AcDbXrecord
280
     1
340
1F0
  0
XRECORD
  5
3B0
102
{ACAD_REACTORS
330
3AF
102
}
330
3AF
100
AcDbXrecord
280
     1
340
1EC
  0
ACDBDETAILVIEWSTYLE
  5
404
102
{ACAD_XDICTIONARY
360
45F
102
}
102
{ACAD_REACTORS
330
403
102
}
330
403
100
AcDbModelDocViewStyle
 70
     0
  3
Imperial24
290
     0
100
AcDbDetailViewStyle
 70
     0
 71
     0
 90
        3
 71
     1
340
1E3
 40
0.24
340
0
 40
0.24
300

 40
0.36
280
     3
 71
     2
340
1E7
 90
       25
 71
     3
340
1E3
 40
0.24
 90
        1
 40
0.75
 90
        1
300
%<\AcVar ViewType \f "%tc1">% %<\AcVar ViewDetailId>%\PSCALE %<\AcVar ViewScale \f "%sn">%
 71
     4
340
1E7
 90
       25
340
1E7
 90
       25
280
     0
  0
LAYOUT
  5
405
102
{ACAD_XDICTIONARY
360
461
102
}
102
{ACAD_REACTORS
330
1EB
102
}
330
1EB
100
AcDbPlotSettings
  1

  2
Canon LBP9100C
  4

  6

 40
0.0
 41
0.0
 42
0.0
 43
0.0
 44
0.0
 45
0.0
 46
0.0
 47
0.0
 48
0.0
 49
0.0
140
0.0
141
0.0
142
1.0
143
1.0
 70
  1712
 72
     0
 73
     0
 74
     0
  7

 75
     0
147
1.0
148
0.0
149
0.0
100
AcDbLayout
  1
Model
 70
     1
 71
     0
 10
0.0
 20
0.0
 11
12.0
 21
9.0
 12
0.0
 22
0.0
 32
0.0
 14
0.0
 24
0.0
 34
0.0
 15
0.0
 25
0.0
 35
0.0
146
0.0
 13
0.0
 23
0.0
 33
0.0
 16
1.0
 26
0.0
 36
0.0
 17
0.0
 27
1.0
 37
0.0
 76
     0
330
1F0
331
3AE
  0
LAYOUT
  5
406
102
{ACAD_XDICTIONARY
360
463
102
}
102
{ACAD_REACTORS
330
1EB
102
}
330
1EB
100
AcDbPlotSettings
  1

  2
Canon LBP9100C
  4

  6

 40
0.0
 41
0.0
 42
0.0
 43
0.0
 44
0.0
 45
0.0
 46
0.0
 47
0.0
 48
0.0
 49
0.0
140
0.0
141
0.0
142
1.0
143
1.0
 70
   688
 72
     0
 73
     0
 74
     5
  7

 75
    16
147
1.0
148
0.0
149
0.0
100
AcDbLayout
  1
レイアウト1
 70
     0
 71
     1
 10
0.0
 20
0.0
 11
420.0
 21
297.0
 12
0.0
 22
0.0
 32
0.0
 14
1.000000000000000E+20
 24
1.000000000000000E+20
 34
1.000000000000000E+20
 15
-1.000000000000000E+20
 25
-1.000000000000000E+20
 35
-1.000000000000000E+20
146
0.0
 13
0.0
 23
0.0
 33
0.0
 16
1.0
 26
0.0
 36
0.0
 17
0.0
 27
1.0
 37
0.0
 76
     0
330
1EC
  0
MATERIAL
  5
3C1
102
{ACAD_XDICTIONARY
360
3C2
102
}
102
{ACAD_REACTORS
330
3B8
102
}
330
3B8
100
AcDbMaterial
  1
ByBlock
 72
     0
 43
0.0208333333333333
 43
0.0
 43
0.0
 43
0.0
 43
0.0
 43
0.0208333333333333
 43
0.0
 43
0.0
 43
0.0
 43
0.0
 43
1.0
 43
0.0
 43
0.0
 43
0.0
 43
0.0
 43
1.0
 77
     0
 47
0.0208333333333333
 47
0.0
 47
0.0
 47
0.0
 47
0.0
 47
0.0208333333333333
 47
0.0
 47
0.0
 47
0.0
 47
0.0
 47
1.0
 47
0.0
 47
0.0
 47
0.0
 47
0.0
 47
1.0
171
     0
 49
0.0208333333333333
 49
0.0
 49
0.0
 49
0.0
 49
0.0
 49
0.0208333333333333
 49
0.0
 49
0.0
 49
0.0
 49
0.0
 49
1.0
 49
0.0
 49
0.0
 49
0.0
 49
0.0
 49
1.0
175
     0
142
0.0208333333333333
142
0.0
142
0.0
142
0.0
142
0.0
142
0.0208333333333333
142
0.0
142
0.0
142
0.0
142
0.0
142
1.0
142
0.0
142
0.0
142
0.0
142
0.0
142
1.0
179
     0
144
0.0208333333333333
144
0.0
144
0.0
144
0.0
144
0.0
144
0.0208333333333333
144
0.0
144
0.0
144
0.0
144
0.0
144
1.0
144
0.0
144
0.0
144
0.0
144
0.0
144
1.0
147
0.0208333333333333
147
0.0
147
0.0
147
0.0
147
0.0
147
0.0208333333333333
147
0.0
147
0.0
147
0.0
147
0.0
147
1.0
147
0.0
147
0.0
147
0.0
147
0.0
147
1.0
  0
MATERIAL
  5
3B9
102
{ACAD_XDICTIONARY
360
3BA
102
}
102
{ACAD_REACTORS
330
3B8
102
}
330
3B8
100
AcDbMaterial
  1
ByLayer
 72
     0
 43
0.0208333333333333
 43
0.0
 43
0.0
 43
0.0
 43
0.0
 43
0.0208333333333333
 43
0.0
 43
0.0
 43
0.0
 43
0.0
 43
1.0
 43
0.0
 43
0.0
 43
0.0
 43
0.0
 43
1.0
 77
     0
 47
0.0208333333333333
 47
0.0
 47
0.0
 47
0.0
 47
0.0
 47
0.0208333333333333
 47
0.0
 47
0.0
 47
0.0
 47
0.0
 47
1.0
 47
0.0
 47
0.0
 47
0.0
 47
0.0
 47
1.0
171
     0
 49
0.0208333333333333
 49
0.0
 49
0.0
 49
0.0
 49
0.0
 49
0.0208333333333333
 49
0.0
 49
0.0
 49
0.0
 49
0.0
 49
1.0
 49
0.0
 49
0.0
 49
0.0
 49
0.0
 49
1.0
175
     0
142
0.0208333333333333
142
0.0
142
0.0
142
0.0
142
0.0
142
0.0208333333333333
142
0.0
142
0.0
142
0.0
142
0.0
142
1.0
142
0.0
142
0.0
142
0.0
142
0.0
142
1.0
179
     0
144
0.0208333333333333
144
0.0
144
0.0
144
0.0
144
0.0
144
0.0208333333333333
144
0.0
144
0.0
144
0.0
144
0.0
144
1.0
144
0.0
144
0.0
144
0.0
144
0.0
144
1.0
147
0.0208333333333333
147
0.0
147
0.0
147
0.0
147
0.0
147
0.0208333333333333
147
0.0
147
0.0
147
0.0
147
0.0
147
1.0
147
0.0
147
0.0
147
0.0
147
0.0
147
1.0
  0
MATERIAL
  5
3C9
102
{ACAD_XDICTIONARY
360
3CA
102
}
102
{ACAD_REACTORS
330
3B8
102
}
330
3B8
100
AcDbMaterial
  1
Global
 72
     0
 43
0.0208333333333333
 43
0.0
 43
0.0
 43
0.0
 43
0.0
 43
0.0208333333333333
 43
0.0
 43
0.0
 43
0.0
 43
0.0
 43
1.0
 43
0.0
 43
0.0
 43
0.0
 43
0.0
 43
1.0
 77
     0
 47
0.0208333333333333
 47
0.0
 47
0.0
 47
0.0
 47
0.0
 47
0.0208333333333333
 47
0.0
 47
0.0
 47
0.0
 47
0.0
 47
1.0
 47
0.0
 47
0.0
 47
0.0
 47
0.0
 47
1.0
171
     0
 49
0.0208333333333333
 49
0.0
 49
0.0
 49
0.0
 49
0.0
 49
0.0208333333333333
 49
0.0
 49
0.0
 49
0.0
 49
0.0
 49
1.0
 49
0.0
 49
0.0
 49
0.0
 49
0.0
 49
1.0
175
     0
142
0.0208333333333333
142
0.0
142
0.0
142
0.0
142
0.0
142
0.0208333333333333
142
0.0
142
0.0
142
0.0
142
0.0
142
1.0
142
0.0
142
0.0
142
0.0
142
0.0
142
1.0
179
     0
144
0.0208333333333333
144
0.0
144
0.0
144
0.0
144
0.0
144
0.0208333333333333
144
0.0
144
0.0
144
0.0
144
0.0
144
1.0
144
0.0
144
0.0
144
0.0
144
0.0
144
1.0
147
0.0208333333333333
147
0.0
147
0.0
147
0.0
147
0.0
147
0.0208333333333333
147
0.0
147
0.0
147
0.0
147
0.0
147
1.0
147
0.0
147
0.0
147
0.0
147
0.0
147
1.0
  0
MLEADERSTYLE
  5
400
102
{ACAD_REACTORS
330
3FF
102
}
330
3FF
100
AcDbMLeaderStyle
170
     2
171
     1
172
     0
 90
        2
 40
0.0
 41
0.0
173
     1
 91
-1056964608
340
1E5
 92
       -2
290
     1
 42
0.09
291
     1
 43
0.36
  3
Standard
 44
0.18
300

342
1E3
174
     1
178
     6
175
     1
176
     0
 93
-1056964608
 45
0.18
292
     0
297
     0
 46
0.18
 94
-1056964608
 47
1.0
 49
1.0
140
1.0
293
     1
141
0.0
294
     1
177
     0
142
1.0
295
     0
296
     0
143
0.125
1001
ACAD_MLEADERVER
1070
     2
  0
MLINESTYLE
  5
1E9
102
{ACAD_REACTORS
330
1E8
102
}
330
1E8
100
AcDbMlineStyle
  2
STANDARD
 70
     0
  3

 62
   256
 51
90.0
 52
90.0
 71
     2
 49
0.5
 62
   256
  6
BYLAYER
 49
-0.5
 62
   256
  6
BYLAYER
  0
ACDBPLACEHOLDER
  5
3B7
102
{ACAD_REACTORS
330
3B6
102
}
330
3B6
  0
SCALE
  5
3EE
102
{ACAD_REACTORS
330
3ED
102
}
330
3ED
100
AcDbScale
 70
     0
300
1:1
140
1.0
141
1.0
290
     1
  0
SCALE
  5
3EF
102
{ACAD_REACTORS
330
3ED
102
}
330
3ED
100
AcDbScale
 70
     0
300
1/128" = 1'-0"
140
0.0078125
141
12.0
290
     0
  0
SCALE
  5
3F0
102
{ACAD_REACTORS
330
3ED
102
}
330
3ED
100
AcDbScale
 70
     0
300
1/64" = 1'-0"
140
0.015625
141
12.0
290
     0
  0
SCALE
  5
3F1
102
{ACAD_REACTORS
330
3ED
102
}
330
3ED
100
AcDbScale
 70
     0
300
1/32" = 1'-0"
140
0.03125
141
12.0
290
     0
  0
SCALE
  5
3F2
102
{ACAD_REACTORS
330
3ED
102
}
330
3ED
100
AcDbScale
 70
     0
300
1/16" = 1'-0"
140
0.0625
141
12.0
290
     0
  0
SCALE
  5
3F3
102
{ACAD_REACTORS
330
3ED
102
}
330
3ED
100
AcDbScale
 70
     0
300
3/32" = 1'-0"
140
0.09375
141
12.0
290
     0
  0
SCALE
  5
3F4
102
{ACAD_REACTORS
330
3ED
102
}
330
3ED
100
AcDbScale
 70
     0
300
1/8" = 1'-0"
140
0.125
141
12.0
290
     0
  0
SCALE
  5
3F5
102
{ACAD_REACTORS
330
3ED
102
}
330
3ED
100
AcDbScale
 70
     0
300
3/16" = 1'-0"
140
0.1875
141
12.0
290
     0
  0
SCALE
  5
3F6
102
{ACAD_REACTORS
330
3ED
102
}
330
3ED
100
AcDbScale
 70
     0
300
1/4" = 1'-0"
140
0.25
141
12.0
290
     0
  0
SCALE
  5
3F7
102
{ACAD_REACTORS
330
3ED
102
}
330
3ED
100
AcDbScale
 70
     0
300
3/8" = 1'-0"
140
0.375
141
12.0
290
     0
  0
SCALE
  5
3F8
102
{ACAD_REACTORS
330
3ED
102
}
330
3ED
100
AcDbScale
 70
     0
300
1/2" = 1'-0"
140
0.5
141
12.0
290
     0
  0
SCALE
  5
3F9
102
{ACAD_REACTORS
330
3ED
102
}
330
3ED
100
AcDbScale
 70
     0
300
3/4" = 1'-0"
140
0.75
141
12.0
290
     0
  0
SCALE
  5
3FA
102
{ACAD_REACTORS
330
3ED
102
}
330
3ED
100
AcDbScale
 70
     0
300
1" = 1'-0"
140
1.0
141
12.0
290
     0
  0
SCALE
  5
3FB
102
{ACAD_REACTORS
330
3ED
102
}
330
3ED
100
AcDbScale
 70
     0
300
1-1/2" = 1'-0"
140
1.5
141
12.0
290
     0
  0
SCALE
  5
3FC
102
{ACAD_REACTORS
330
3ED
102
}
330
3ED
100
AcDbScale
 70
     0
300
3" = 1'-0"
140
3.0
141
12.0
290
     0
  0
SCALE
  5
3FD
102
{ACAD_REACTORS
330
3ED
102
}
330
3ED
100
AcDbScale
 70
     0
300
6" = 1'-0"
140
6.0
141
12.0
290
     0
  0
SCALE
  5
3FE
102
{ACAD_REACTORS
330
3ED
102
}
330
3ED
100
AcDbScale
 70
     0
300
1'-0" = 1'-0"
140
12.0
141
12.0
290
     0
  0
ACDBSECTIONVIEWSTYLE
  5
402
102
{ACAD_XDICTIONARY
360
45D
102
}
102
{ACAD_REACTORS
330
401
102
}
330
401
100
AcDbModelDocViewStyle
 70
     0
  3
Imperial24
290
     0
100
AcDbSectionViewStyle
 70
     0
 71
     0
 90
       78
 71
     1
340
1E3
 40
0.24
340
0
340
0
 40
0.24
300
I, O, Q, S, X, Z
 40
0.48
 90
        3
 40
0.18
 90
        1
 71
     2
340
1E7
 90
       25
340
1E7
 90
       50
 40
0.24
 40
0.0
 40
0.24
 71
     3
340
1E3
 40
0.24
 90
        1
 40
0.75
 90
        1
300
%<\AcVar ViewType \f "%tc1">% %<\AcVar ViewSectionStartId>%-%<\AcVar ViewSectionEndId>%\PSCALE %<\AcVar ViewScale \f "%sn">%
 71
     4
300
ANSI31
 40
1.0
 90
        0
290
     0
290
     0
 90
        6
 40
0.0
 40
1.570796326794896
 40
0.2617993877991494
 40
1.308996938995747
 40
-0.2617993877991494
 40
1.832595714594046
  0
TABLESTYLE
  5
3EC
102
{ACAD_XDICTIONARY
360
424
102
}
102
{ACAD_REACTORS
330
3EB
102
}
330
3EB
100
AcDbTableStyle
  3
Standard
 70
     0
 71
     0
 40
0.06
 41
0.06
280
     0
281
     0
  7
STANDARD
140
0.18
170
     2
 62
     0
 63
     7
283
     0
274
    -2
284
     1
 64
     0
275
    -2
285
     1
 65
     0
276
    -2
286
     1
 66
     0
277
    -2
287
     1
 67
     0
278
    -2
288
     1
 68
     0
279
    -2
289
     1
 69
     0
  7
STANDARD
140
0.25
170
     5
 62
     0
 63
     7
283
     0
274
    -2
284
     1
 64
     0
275
    -2
285
     1
 65
     0
276
    -2
286
     1
 66
     0
277
    -2
287
     1
 67
     0
278
    -2
288
     1
 68
     0
279
    -2
289
     1
 69
     0
  7
STANDARD
140
0.18
170
     5
 62
     0
 63
     7
283
     0
274
    -2
284
     1
 64
     0
275
    -2
285
     1
 65
     0
276
    -2
286
     1
 66
     0
277
    -2
287
     1
 67
     0
278
    -2
288
     1
 68
     0
279
    -2
289
     1
 69
     0
  0
VISUALSTYLE
  5
3D7
102
{ACAD_XDICTIONARY
360
435
102
}
102
{ACAD_REACTORS
330
3D1
102
}
330
3D1
100
AcDbVisualStyle
  2
2dWireframe
 70
     4
 71
     0
 72
     2
 73
     0
 90
        0
 40
-0.6
 41
-30.0
 62
     5
 63
     7
 74
     1
 91
        4
 64
     7
 65
   257
 75
     1
175
     1
 42
1.0
 92
        0
 66
   257
 43
1.0
 76
     1
 77
     6
 78
     2
 67
     7
 79
     5
170
     0
171
     0
290
     0
174
     0
 93
        1
 44
0.0
173
     0
291
     0
 45
0.0
1001
ACAD
1000
AcDbSavedByObjectVersion
1070
     0
  0
VISUALSTYLE
  5
3D6
102
{ACAD_XDICTIONARY
360
433
102
}
102
{ACAD_REACTORS
330
3D1
102
}
330
3D1
100
AcDbVisualStyle
  2
Basic
 70
     7
 71
     1
 72
     0
 73
     1
 90
        0
 40
-0.6
 41
-30.0
 62
     5
 63
     7
 74
     0
 91
        4
 64
     7
 65
   257
 75
     1
175
     1
 42
1.0
 92
        8
 66
     7
 43
1.0
 76
     1
 77
     6
 78
     2
 67
     7
 79
     5
170
     0
171
     0
290
     0
174
     0
 93
        1
 44
0.0
173
     0
291
     1
 45
0.0
1001
ACAD
1000
AcDbSavedByObjectVersion
1070
     0
  0
VISUALSTYLE
  5
3DD
102
{ACAD_XDICTIONARY
360
441
102
}
102
{ACAD_REACTORS
330
3D1
102
}
330
3D1
100
AcDbVisualStyle
  2
Brighten
 70
    12
 71
     2
 72
     2
 73
     0
 90
        0
 40
-0.6
 41
-30.0
 62
     5
 63
     7
 74
     1
 91
        4
 64
     7
 65
   257
 75
     1
175
     1
 42
1.0
 92
        8
 66
     7
 43
1.0
 76
     1
 77
     6
 78
     2
 67
     7
 79
     5
170
     0
171
     0
290
     0
174
     0
 93
        1
 44
50.0
173
     0
291
     1
 45
0.0
1001
ACAD
1000
AcDbSavedByObjectVersion
1070
     0
  0
VISUALSTYLE
  5
3E1
102
{ACAD_XDICTIONARY
360
449
102
}
102
{ACAD_REACTORS
330
3D1
102
}
330
3D1
100
AcDbVisualStyle
  2
ColorChange
 70
    16
 71
     2
 72
     2
 73
     3
 90
        0
 40
-0.6
 41
-30.0
 62
     5
 63
     8
 74
     1
 91
        4
 64
     7
 65
   257
 75
     1
175
     1
 42
1.0
 92
        8
 66
     8
 43
1.0
 76
     1
 77
     6
 78
     2
 67
     7
 79
     5
170
     0
171
     0
290
     0
174
     0
 93
        1
 44
0.0
173
     0
291
     1
 45
0.0
1001
ACAD
1000
AcDbSavedByObjectVersion
1070
     0
  0
VISUALSTYLE
  5
3DA
102
{ACAD_XDICTIONARY
360
43B
102
}
102
{ACAD_REACTORS
330
3D1
102
}
330
3D1
100
AcDbVisualStyle
  2
Conceptual
 70
     9
 71
     3
 72
     2
 73
     0
 90
        0
 40
-0.6
 41
-30.0
 62
     5
 63
     7
 74
     2
 91
        2
 64
     7
 65
   257
 75
     1
175
     1
 42
179.0
 92
        8
 66
     7
 43
1.0
 76
     1
 77
     6
 78
     2
 67
     7
 79
     3
170
     0
171
     0
290
     0
174
     0
 93
        1
 44
0.0
173
     0
291
     0
 45
0.0
1001
ACAD
1000
AcDbSavedByObjectVersion
1070
     0
  0
VISUALSTYLE
  5
3DC
102
{ACAD_XDICTIONARY
360
43F
102
}
102
{ACAD_REACTORS
330
3D1
102
}
330
3D1
100
AcDbVisualStyle
  2
Dim
 70
    11
 71
     2
 72
     2
 73
     0
 90
        0
 40
-0.6
 41
-30.0
 62
     5
 63
     7
 74
     1
 91
        4
 64
     7
 65
   257
 75
     1
175
     1
 42
1.0
 92
        8
 66
     7
 43
1.0
 76
     1
 77
     6
 78
     2
 67
     7
 79
     5
170
     0
171
     0
290
     0
174
     0
 93
        1
 44
-50.0
173
     0
291
     1
 45
0.0
1001
ACAD
1000
AcDbSavedByObjectVersion
1070
     0
  0
VISUALSTYLE
  5
3E9
102
{ACAD_XDICTIONARY
360
459
102
}
102
{ACAD_REACTORS
330
3D1
102
}
330
3D1
100
AcDbVisualStyle
  2
EdgeColorOff
 70
    22
 71
     2
 72
     2
 73
     0
 90
        0
 40
-0.6
 41
-30.0
 62
     5
 63
     7
 74
     1
 91
        4
 64
     7
 65
   257
 75
     1
175
     1
 42
1.0
 92
        8
 66
     7
 43
1.0
 76
     1
 77
     6
 78
     2
 67
     7
 79
     5
170
     0
171
     0
290
     0
174
     0
 93
        1
 44
0.0
173
     0
291
     1
 45
0.0
1001
ACAD
1000
AcDbSavedByObjectVersion
1070
     0
  0
VISUALSTYLE
  5
3E0
102
{ACAD_XDICTIONARY
360
447
102
}
102
{ACAD_REACTORS
330
3D1
102
}
330
3D1
100
AcDbVisualStyle
  2
Facepattern
 70
    15
 71
     2
 72
     2
 73
     0
 90
        0
 40
-0.6
 41
-30.0
 62
     5
 63
     7
 74
     1
 91
        4
 64
     7
 65
   257
 75
     1
175
     1
 42
1.0
 92
        8
 66
     7
 43
1.0
 76
     1
 77
     6
 78
     2
 67
     7
 79
     5
170
     0
171
     0
290
     0
174
     0
 93
        1
 44
0.0
173
     0
291
     1
 45
0.0
1001
ACAD
1000
AcDbSavedByObjectVersion
1070
     0
  0
VISUALSTYLE
  5
3D2
102
{ACAD_XDICTIONARY
360
42B
102
}
102
{ACAD_REACTORS
330
3D1
102
}
330
3D1
100
AcDbVisualStyle
  2
Flat
 70
     0
 71
     2
 72
     1
 73
     1
 90
        2
 40
-0.6
 41
30.0
 62
     5
 63
     7
 74
     0
 91
        0
 64
     7
 65
   257
 75
     1
175
     1
 42
1.0
 92
        8
 66
     7
 43
1.0
 76
     1
 77
     6
 78
     2
 67
     7
 79
     5
170
     0
171
     0
290
     0
174
     0
 93
       13
 44
0.0
173
     0
291
     1
 45
0.0
1001
ACAD
1000
AcDbSavedByObjectVersion
1070
     0
  0
VISUALSTYLE
  5
3D3
102
{ACAD_XDICTIONARY
360
42D
102
}
102
{ACAD_REACTORS
330
3D1
102
}
330
3D1
100
AcDbVisualStyle
  2
FlatWithEdges
 70
     1
 71
     2
 72
     1
 73
     1
 90
        2
 40
-0.6
 41
30.0
 62
     5
 63
     7
 74
     1
 91
        0
 64
     7
 65
   257
 75
     1
175
     1
 42
1.0
 92
        0
 66
   257
 43
1.0
 76
     1
 77
     6
 78
     2
 67
     7
 79
     5
170
     0
171
     0
290
     0
174
     0
 93
       13
 44
0.0
173
     0
291
     1
 45
0.0
1001
ACAD
1000
AcDbSavedByObjectVersion
1070
     0
  0
VISUALSTYLE
  5
3D4
102
{ACAD_XDICTIONARY
360
42F
102
}
102
{ACAD_REACTORS
330
3D1
102
}
330
3D1
100
AcDbVisualStyle
  2
Gouraud
 70
     2
 71
     2
 72
     2
 73
     1
 90
        2
 40
-0.6
 41
30.0
 62
     5
 63
     7
 74
     0
 91
        0
 64
     7
 65
   257
 75
     1
175
     1
 42
1.0
 92
        0
 66
     7
 43
1.0
 76
     1
 77
     6
 78
     2
 67
     7
 79
     5
170
     0
171
     0
290
     0
174
     0
 93
       13
 44
0.0
173
     0
291
     1
 45
0.0
1001
ACAD
1000
AcDbSavedByObjectVersion
1070
     0
  0
VISUALSTYLE
  5
3D5
102
{ACAD_XDICTIONARY
360
431
102
}
102
{ACAD_REACTORS
330
3D1
102
}
330
3D1
100
AcDbVisualStyle
  2
GouraudWithEdges
 70
     3
 71
     2
 72
     2
 73
     1
 90
        2
 40
-0.6
 41
30.0
 62
     5
 63
     7
 74
     1
 91
        0
 64
     7
 65
   257
 75
     1
175
     1
 42
1.0
 92
        0
 66
   257
 43
1.0
 76
     1
 77
     6
 78
     2
 67
     7
 79
     5
170
     0
171
     0
290
     0
174
     0
 93
       13
 44
0.0
173
     0
291
     1
 45
0.0
1001
ACAD
1000
AcDbSavedByObjectVersion
1070
     0
  0
VISUALSTYLE
  5
3D9
102
{ACAD_XDICTIONARY
360
439
102
}
102
{ACAD_REACTORS
330
3D1
102
}
330
3D1
100
AcDbVisualStyle
  2
Hidden
 70
     6
 71
     1
 72
     2
 73
     2
 90
        0
 40
-0.6
 41
-30.0
 62
     5
 63
     7
 74
     2
 91
        2
 64
     7
 65
   257
 75
     2
175
     1
 42
40.0
 92
        0
 66
   257
 43
1.0
 76
     1
 77
     6
 78
     2
 67
     7
 79
     3
170
     0
171
     0
290
     0
174
     0
 93
        1
 44
0.0
173
     0
291
     0
 45
0.0
1001
ACAD
1000
AcDbSavedByObjectVersion
1070
     0
  0
VISUALSTYLE
  5
3E7
102
{ACAD_XDICTIONARY
360
455
102
}
102
{ACAD_REACTORS
330
3D1
102
}
330
3D1
100
AcDbVisualStyle
  2
JitterOff
 70
    20
 71
     2
 72
     2
 73
     0
 90
        0
 40
-0.6
 41
-30.0
 62
     5
 63
     7
 74
     1
 91
        4
 64
     7
 65
   257
 75
     1
175
     1
 42
1.0
 92
       10
 66
     7
 43
1.0
 76
     1
 77
     6
 78
     2
 67
     7
 79
     5
170
     0
171
     0
290
     0
174
     0
 93
        1
 44
0.0
173
     0
291
     1
 45
0.0
1001
ACAD
1000
AcDbSavedByObjectVersion
1070
     0
  0
VISUALSTYLE
  5
3DF
102
{ACAD_XDICTIONARY
360
445
102
}
102
{ACAD_REACTORS
330
3D1
102
}
330
3D1
100
AcDbVisualStyle
  2
Linepattern
 70
    14
 71
     2
 72
     2
 73
     0
 90
        0
 40
-0.6
 41
-30.0
 62
     5
 63
     7
 74
     1
 91
        4
 64
     7
 65
   257
 75
     7
175
     7
 42
1.0
 92
        8
 66
     7
 43
1.0
 76
     1
 77
     6
 78
     2
 67
     7
 79
     5
170
     0
171
     0
290
     0
174
     0
 93
        1
 44
0.0
173
     0
291
     1
 45
0.0
1001
ACAD
1000
AcDbSavedByObjectVersion
1070
     0
  0
VISUALSTYLE
  5
3E8
102
{ACAD_XDICTIONARY
360
457
102
}
102
{ACAD_REACTORS
330
3D1
102
}
330
3D1
100
AcDbVisualStyle
  2
OverhangOff
 70
    21
 71
     2
 72
     2
 73
     0
 90
        0
 40
-0.6
 41
-30.0
 62
     5
 63
     7
 74
     1
 91
        4
 64
     7
 65
   257
 75
     1
175
     1
 42
1.0
 92
        9
 66
     7
 43
1.0
 76
     1
 77
     6
 78
     2
 67
     7
 79
     5
170
     0
171
     0
290
     0
174
     0
 93
        1
 44
0.0
173
     0
291
     1
 45
0.0
1001
ACAD
1000
AcDbSavedByObjectVersion
1070
     0
  0
VISUALSTYLE
  5
3DB
102
{ACAD_XDICTIONARY
360
43D
102
}
102
{ACAD_REACTORS
330
3D1
102
}
330
3D1
100
AcDbVisualStyle
  2
Realistic
 70
     8
 71
     2
 72
     3
 73
     0
 90
        2
 40
-0.6
 41
30.0
 62
     5
 63
     7
 74
     0
 91
        0
 64
     7
 65
   257
 75
     1
175
     1
 42
1.0
 92
        8
 66
   257
 43
1.0
 76
     1
 77
     6
 78
     2
 67
     7
 79
     3
170
     0
171
     0
290
     0
174
     0
 93
       13
 44
0.0
173
     0
291
     0
 45
0.0
1001
ACAD
1000
AcDbSavedByObjectVersion
1070
     0
  0
VISUALSTYLE
  5
3E6
102
{ACAD_XDICTIONARY
360
453
102
}
102
{ACAD_REACTORS
330
3D1
102
}
330
3D1
100
AcDbVisualStyle
  2
Shaded
 70
    27
 71
     2
 72
     2
 73
     1
 90
        2
 40
-0.6
 41
30.0
 62
     5
 63
     7
 74
     0
 91
        4
 64
     7
 65
   257
 75
     1
175
     1
 42
1.0
 92
        8
 66
   257
 43
1.0
 76
     1
 77
     6
 78
     2
 67
     8
 79
     3
170
     0
171
     0
290
     0
174
     0
 93
        5
 44
0.0
173
     0
291
     0
 45
0.0
1001
ACAD
1000
AcDbSavedByObjectVersion
1070
     0
  0
VISUALSTYLE
  5
3E5
102
{ACAD_XDICTIONARY
360
451
102
}
102
{ACAD_REACTORS
330
3D1
102
}
330
3D1
100
AcDbVisualStyle
  2
Shaded with edges
 70
    26
 71
     2
 72
     2
 73
     1
 90
        2
 40
-0.6
 41
30.0
 62
     5
 63
     7
 74
     1
 91
       10
 64
     7
 65
   257
 75
     2
175
     1
 42
1.0
 92
        8
 66
   257
 43
1.0
 76
     1
 77
     6
 78
     2
 67
     7
 79
     3
170
     0
171
     0
290
     0
174
     0
 93
        5
 44
0.0
173
     0
291
     0
 45
0.0
1001
ACAD
1000
AcDbSavedByObjectVersion
1070
     0
  0
VISUALSTYLE
  5
3E2
102
{ACAD_XDICTIONARY
360
44B
102
}
102
{ACAD_REACTORS
330
3D1
102
}
330
3D1
100
AcDbVisualStyle
  2
Shades of Gray
 70
    23
 71
     2
 72
     2
 73
     3
 90
        0
 40
-0.6
 41
-30.0
 62
     5
 63
     7
 74
     2
 91
        2
 64
     7
 65
     7
 75
     1
175
     1
 42
40.0
 92
        8
 66
     7
 43
1.0
 76
     1
 77
     6
 78
     2
 67
     7
 79
     3
170
     0
171
     0
290
     0
174
     0
 93
        1
 44
0.0
173
     0
291
     0
 45
0.0
1001
ACAD
1000
AcDbSavedByObjectVersion
1070
     0
  0
VISUALSTYLE
  5
3E3
102
{ACAD_XDICTIONARY
360
44D
102
}
102
{ACAD_REACTORS
330
3D1
102
}
330
3D1
100
AcDbVisualStyle
  2
Sketchy
 70
    24
 71
     1
 72
     2
 73
     2
 90
        0
 40
-0.6
 41
-30.0
 62
     5
 63
     7
 74
     2
 91
        2
 64
     7
 65
     7
 75
     1
175
     1
 42
40.0
 92
       11
 66
     7
 43
1.0
 76
     1
 77
     6
 78
     2
 67
     7
 79
     6
170
     0
171
     0
290
     0
174
     0
 93
        1
 44
0.0
173
     0
291
     0
 45
0.0
1001
ACAD
1000
AcDbSavedByObjectVersion
1070
     0
  0
VISUALSTYLE
  5
3DE
102
{ACAD_XDICTIONARY
360
443
102
}
102
{ACAD_REACTORS
330
3D1
102
}
330
3D1
100
AcDbVisualStyle
  2
Thicken
 70
    13
 71
     2
 72
     2
 73
     0
 90
        0
 40
-0.6
 41
-30.0
 62
     5
 63
     7
 74
     1
 91
        4
 64
     7
 65
   257
 75
     1
175
     1
 42
1.0
 92
       12
 66
     7
 43
1.0
 76
     1
 77
     6
 78
     2
 67
     7
 79
     5
170
     0
171
     0
290
     0
174
     0
 93
        1
 44
0.0
173
     0
291
     1
 45
0.0
1001
ACAD
1000
AcDbSavedByObjectVersion
1070
     0
  0
VISUALSTYLE
  5
3D8
102
{ACAD_XDICTIONARY
360
437
102
}
102
{ACAD_REACTORS
330
3D1
102
}
330
3D1
100
AcDbVisualStyle
  2
Wireframe
 70
     5
 71
     0
 72
     2
 73
     0
 90
        0
 40
-0.6
 41
-30.0
 62
     5
 63
     7
 74
     1
 91
        4
 64
     7
 65
   257
 75
     1
175
     1
 42
1.0
 92
        0
 66
   257
 43
1.0
 76
     1
 77
     6
 78
     2
 67
     7
 79
     3
170
     0
171
     0
290
     0
174
     0
 93
        1
 44
0.0
173
     0
291
     0
 45
0.0
1001
ACAD
1000
AcDbSavedByObjectVersion
1070
     0
  0
VISUALSTYLE
  5
3E4
102
{ACAD_XDICTIONARY
360
44F
102
}
102
{ACAD_REACTORS
330
3D1
102
}
330
3D1
100
AcDbVisualStyle
  2
X-Ray
 70
    25
 71
     2
 72
     2
 73
     1
 90
        1
 40
0.5
 41
-30.0
 62
     5
 63
     7
 74
     1
 91
        0
 64
     7
 65
   257
 75
     1
175
     1
 42
1.0
 92
        8
 66
     7
 43
1.0
 76
     1
 77
     6
 78
     2
 67
     7
 79
     3
170
     0
171
     0
290
     0
174
     0
 93
       13
 44
0.0
173
     0
291
     0
 45
0.0
1001
ACAD
1000
AcDbSavedByObjectVersion
1070
     0
  0
DICTIONARYVAR
  5
41E
102
{ACAD_REACTORS
330
419
102
}
330
419
100
DictionaryVariables
280
     0
  1
1:1
  0
DICTIONARYVAR
  5
41B
102
{ACAD_REACTORS
330
419
102
}
330
419
100
DictionaryVariables
280
     0
  1
STANDARD
  0
DICTIONARYVAR
  5
41A
102
{ACAD_REACTORS
330
419
102
}
330
419
100
DictionaryVariables
280
     0
  1
STANDARD
  0
DICTIONARYVAR
  5
41C
102
{ACAD_REACTORS
330
419
102
}
330
419
100
DictionaryVariables
280
     0
  1
Imperial24
  0
DICTIONARYVAR
  5
41D
102
{ACAD_REACTORS
330
419
102
}
330
419
100
DictionaryVariables
280
     0
  1
Imperial24
  0
DICTIONARYVAR
  5
421
102
{ACAD_REACTORS
330
419
102
}
330
419
100
DictionaryVariables
280
     0
  1
1
  0
DICTIONARYVAR
  5
420
102
{ACAD_REACTORS
330
419
102
}
330
419
100
DictionaryVariables
280
     0
  1
0
  0
DICTIONARYVAR
  5
41F
102
{ACAD_REACTORS
330
419
102
}
330
419
100
DictionaryVariables
280
     0
  1
127
  0
DICTIONARYVAR
  5
422
102
{ACAD_REACTORS
330
419
102
}
330
419
100
DictionaryVariables
280
     0
  1
2
  0
DICTIONARY
  5
45F
330
404
100
AcDbDictionary
280
     1
281
     1
  3
ACAD_XREC_ROUNDTRIP
360
460
  0
DICTIONARY
  5
461
330
405
100
AcDbDictionary
280
     1
281
     1
  3
ACAD_XREC_ROUNDTRIP
360
462
  0
DICTIONARY
  5
463
330
406
100
AcDbDictionary
280
     1
281
     1
  3
ACAD_XREC_ROUNDTRIP
360
464
  0
DICTIONARY
  5
3C2
330
3C1
100
AcDbDictionary
280
     1
281
     1
  3
ACAD_XREC_ROUNDTRIP
360
429
  3
BUMPTILE
360
3C4
  3
DIFFUSETILE
360
3C3
  3
OPACITYTILE
360
3C7
  3
REFLECTIONTILE
360
3C6
  3
REFRACTIONTILE
360
3C8
  3
SPECULARTILE
360
3C5
  0
DICTIONARY
  5
3BA
330
3B9
100
AcDbDictionary
280
     1
281
     1
  3
ACAD_XREC_ROUNDTRIP
360
428
  3
BUMPTILE
360
3BC
  3
DIFFUSETILE
360
3BB
  3
OPACITYTILE
360
3BF
  3
REFLECTIONTILE
360
3BE
  3
REFRACTIONTILE
360
3C0
  3
SPECULARTILE
360
3BD
  0
DICTIONARY
  5
3CA
330
3C9
100
AcDbDictionary
280
     1
281
     1
  3
ACAD_XREC_ROUNDTRIP
360
42A
  3
BUMPTILE
360
3CC
  3
DIFFUSETILE
360
3CB
  3
OPACITYTILE
360
3CF
  3
REFLECTIONTILE
360
3CE
  3
REFRACTIONTILE
360
3D0
  3
SPECULARTILE
360
3CD
  0
DICTIONARY
  5
45D
330
402
100
AcDbDictionary
280
     1
281
     1
  3
ACAD_XREC_ROUNDTRIP
360
45E
  0
DICTIONARY
  5
424
330
3EC
100
AcDbDictionary
280
     1
281
     1
  3
ACAD_ROUNDTRIP_2008_TABLESTYLE_CELLSTYLEMAP
360
425
  3
ACAD_XREC_ROUNDTRIP
360
45B
  0
DICTIONARY
  5
435
330
3D7
100
AcDbDictionary
280
     1
281
     1
  3
ACAD_XREC_ROUNDTRIP
360
436
  0
DICTIONARY
  5
433
330
3D6
100
AcDbDictionary
280
     1
281
     1
  3
ACAD_XREC_ROUNDTRIP
360
434
  0
DICTIONARY
  5
441
330
3DD
100
AcDbDictionary
280
     1
281
     1
  3
ACAD_XREC_ROUNDTRIP
360
442
  0
DICTIONARY
  5
449
330
3E1
100
AcDbDictionary
280
     1
281
     1
  3
ACAD_XREC_ROUNDTRIP
360
44A
  0
DICTIONARY
  5
43B
330
3DA
100
AcDbDictionary
280
     1
281
     1
  3
ACAD_XREC_ROUNDTRIP
360
43C
  0
DICTIONARY
  5
43F
330
3DC
100
AcDbDictionary
280
     1
281
     1
  3
ACAD_XREC_ROUNDTRIP
360
440
  0
DICTIONARY
  5
459
330
3E9
100
AcDbDictionary
280
     1
281
     1
  3
ACAD_XREC_ROUNDTRIP
360
45A
  0
DICTIONARY
  5
447
330
3E0
100
AcDbDictionary
280
     1
281
     1
  3
ACAD_XREC_ROUNDTRIP
360
448
  0
DICTIONARY
  5
42B
330
3D2
100
AcDbDictionary
280
     1
281
     1
  3
ACAD_XREC_ROUNDTRIP
360
42C
  0
DICTIONARY
  5
42D
330
3D3
100
AcDbDictionary
280
     1
281
     1
  3
ACAD_XREC_ROUNDTRIP
360
42E
  0
DICTIONARY
  5
42F
330
3D4
100
AcDbDictionary
280
     1
281
     1
  3
ACAD_XREC_ROUNDTRIP
360
430
  0
DICTIONARY
  5
431
330
3D5
100
AcDbDictionary
280
     1
281
     1
  3
ACAD_XREC_ROUNDTRIP
360
432
  0
DICTIONARY
  5
439
330
3D9
100
AcDbDictionary
280
     1
281
     1
  3
ACAD_XREC_ROUNDTRIP
360
43A
  0
DICTIONARY
  5
455
330
3E7
100
AcDbDictionary
280
     1
281
     1
  3
ACAD_XREC_ROUNDTRIP
360
456
  0
DICTIONARY
  5
445
330
3DF
100
AcDbDictionary
280
     1
281
     1
  3
ACAD_XREC_ROUNDTRIP
360
446
  0
DICTIONARY
  5
457
330
3E8
100
AcDbDictionary
280
     1
281
     1
  3
ACAD_XREC_ROUNDTRIP
360
458
  0
DICTIONARY
  5
43D
330
3DB
100
AcDbDictionary
280
     1
281
     1
  3
ACAD_XREC_ROUNDTRIP
360
43E
  0
DICTIONARY
  5
453
330
3E6
100
AcDbDictionary
280
     1
281
     1
  3
ACAD_XREC_ROUNDTRIP
360
454
  0
DICTIONARY
  5
451
330
3E5
100
AcDbDictionary
280
     1
281
     1
  3
ACAD_XREC_ROUNDTRIP
360
452
  0
DICTIONARY
  5
44B
330
3E2
100
AcDbDictionary
280
     1
281
     1
  3
ACAD_XREC_ROUNDTRIP
360
44C
  0
DICTIONARY
  5
44D
330
3E3
100
AcDbDictionary
280
     1
281
     1
  3
ACAD_XREC_ROUNDTRIP
360
44E
  0
DICTIONARY
  5
443
330
3DE
100
AcDbDictionary
280
     1
281
     1
  3
ACAD_XREC_ROUNDTRIP
360
444
  0
DICTIONARY
  5
437
330
3D8
100
AcDbDictionary
280
     1
281
     1
  3
ACAD_XREC_ROUNDTRIP
360
438
  0
DICTIONARY
  5
44F
330
3E4
100
AcDbDictionary
280
     1
281
     1
  3
ACAD_XREC_ROUNDTRIP
360
450
  0
XRECORD
  5
460
102
{ACAD_REACTORS
330
45F
102
}
330
45F
100
AcDbXrecord
280
     1
102
DISPLAYNAME
  1
Imperial24
102
FLAGS
 90
        0
  0
XRECORD
  5
462
102
{ACAD_REACTORS
330
461
102
}
330
461
100
AcDbXrecord
280
     1
102
SHADEPLOT
 70
     0
102
SHADEPLOTRESLEVEL
 70
     2
102
SHADEPLOTCUSTOMDPI
 70
   300
  0
XRECORD
  5
464
102
{ACAD_REACTORS
330
463
102
}
330
463
100
AcDbXrecord
280
     1
102
SHADEPLOT
 70
     0
102
SHADEPLOTRESLEVEL
 70
     2
102
SHADEPLOTCUSTOMDPI
 70
   300
  0
XRECORD
  5
429
102
{ACAD_REACTORS
330
3C2
102
}
330
3C2
100
AcDbXrecord
280
     1
102
MATERIAL
148
0.0
149
0.0
149
0.0
 93
        0
 94
      127
282
     0
 72
     0
 77
     0
171
     0
175
     0
179
     0
273
     0
  0
XRECORD
  5
3C4
102
{ACAD_REACTORS
330
3C2
102
}
330
3C2
100
AcDbXrecord
280
     1
270
     1
271
     1
  0
XRECORD
  5
3C3
102
{ACAD_REACTORS
330
3C2
102
}
330
3C2
100
AcDbXrecord
280
     1
270
     1
271
     1
  0
XRECORD
  5
3C7
102
{ACAD_REACTORS
330
3C2
102
}
330
3C2
100
AcDbXrecord
280
     1
270
     1
271
     1
  0
XRECORD
  5
3C6
102
{ACAD_REACTORS
330
3C2
102
}
330
3C2
100
AcDbXrecord
280
     1
270
     1
271
     1
  0
XRECORD
  5
3C8
102
{ACAD_REACTORS
330
3C2
102
}
330
3C2
100
AcDbXrecord
280
     1
270
     1
271
     1
  0
XRECORD
  5
3C5
102
{ACAD_REACTORS
330
3C2
102
}
330
3C2
100
AcDbXrecord
280
     1
270
     1
271
     1
  0
XRECORD
  5
428
102
{ACAD_REACTORS
330
3BA
102
}
330
3BA
100
AcDbXrecord
280
     1
102
MATERIAL
148
0.0
149
0.0
149
0.0
 93
        0
 94
      127
282
     0
 72
     0
 77
     0
171
     0
175
     0
179
     0
273
     0
  0
XRECORD
  5
3BC
102
{ACAD_REACTORS
330
3BA
102
}
330
3BA
100
AcDbXrecord
280
     1
270
     1
271
     1
  0
XRECORD
  5
3BB
102
{ACAD_REACTORS
330
3BA
102
}
330
3BA
100
AcDbXrecord
280
     1
270
     1
271
     1
  0
XRECORD
  5
3BF
102
{ACAD_REACTORS
330
3BA
102
}
330
3BA
100
AcDbXrecord
280
     1
270
     1
271
     1
  0
XRECORD
  5
3BE
102
{ACAD_REACTORS
330
3BA
102
}
330
3BA
100
AcDbXrecord
280
     1
270
     1
271
     1
  0
XRECORD
  5
3C0
102
{ACAD_REACTORS
330
3BA
102
}
330
3BA
100
AcDbXrecord
280
     1
270
     1
271
     1
  0
XRECORD
  5
3BD
102
{ACAD_REACTORS
330
3BA
102
}
330
3BA
100
AcDbXrecord
280
     1
270
     1
271
     1
  0
XRECORD
  5
42A
102
{ACAD_REACTORS
330
3CA
102
}
330
3CA
100
AcDbXrecord
280
     1
102
MATERIAL
148
0.0
149
0.0
149
0.0
 93
        0
 94
      127
282
     0
 72
     0
 77
     0
171
     0
175
     0
179
     0
273
     0
  0
XRECORD
  5
3CC
102
{ACAD_REACTORS
330
3CA
102
}
330
3CA
100
AcDbXrecord
280
     1
270
     1
271
     1
  0
XRECORD
  5
3CB
102
{ACAD_REACTORS
330
3CA
102
}
330
3CA
100
AcDbXrecord
280
     1
270
     1
271
     1
  0
XRECORD
  5
3CF
102
{ACAD_REACTORS
330
3CA
102
}
330
3CA
100
AcDbXrecord
280
     1
270
     1
271
     1
  0
XRECORD
  5
3CE
102
{ACAD_REACTORS
330
3CA
102
}
330
3CA
100
AcDbXrecord
280
     1
270
     1
271
     1
  0
XRECORD
  5
3D0
102
{ACAD_REACTORS
330
3CA
102
}
330
3CA
100
AcDbXrecord
280
     1
270
     1
271
     1
  0
XRECORD
  5
3CD
102
{ACAD_REACTORS
330
3CA
102
}
330
3CA
100
AcDbXrecord
280
     1
270
     1
271
     1
  0
XRECORD
  5
45E
102
{ACAD_REACTORS
330
45D
102
}
330
45D
100
AcDbXrecord
280
     1
102
DISPLAYNAME
  1
Imperial24
102
FLAGS
 90
        0
  0
CELLSTYLEMAP
  5
425
102
{ACAD_REACTORS
330
424
102
}
330
424
100
AcDbCellStyleMap
 90
        3
300
CELLSTYLE
  1
TABLEFORMAT_BEGIN
 90
        5
170
     1
 91
        0
 92
    32768
 62
   257
 93
        1
300
CONTENTFORMAT
  1
CONTENTFORMAT_BEGIN
 90
        0
 91
        0
 92
      512
 93
        0
300

 40
0.0
140
1.0
 94
        5
 62
     0
340
1E3
144
0.25
309
CONTENTFORMAT_END
171
     0
 94
        0
309
TABLEFORMAT_END
  1
CELLSTYLE_BEGIN
 90
        1
 91
        1
300
_TITLE
309
CELLSTYLE_END
300
CELLSTYLE
  1
TABLEFORMAT_BEGIN
 90
        5
170
     1
 91
        0
 92
        0
 62
   257
 93
        1
300
CONTENTFORMAT
  1
CONTENTFORMAT_BEGIN
 90
        0
 91
        0
 92
      512
 93
        0
300

 40
0.0
140
1.0
 94
        5
 62
     0
340
1E3
144
0.18
309
CONTENTFORMAT_END
171
     0
 94
        0
309
TABLEFORMAT_END
  1
CELLSTYLE_BEGIN
 90
        2
 91
        1
300
_HEADER
309
CELLSTYLE_END
300
CELLSTYLE
  1
TABLEFORMAT_BEGIN
 90
        5
170
     1
 91
        0
 92
        0
 62
   257
 93
        1
300
CONTENTFORMAT
  1
CONTENTFORMAT_BEGIN
 90
        0
 91
        0
 92
      512
 93
        0
300

 40
0.0
140
1.0
 94
        2
 62
     0
340
1E3
144
0.18
309
CONTENTFORMAT_END
171
     0
 94
        0
309
TABLEFORMAT_END
  1
CELLSTYLE_BEGIN
 90
        3
 91
        2
300
_DATA
309
CELLSTYLE_END
  0
XRECORD
  5
45B
102
{ACAD_REACTORS
330
424
102
}
330
424
100
AcDbXrecord
280
     1
102
ACAD_ROUNDTRIP_PRE2007_TABLESTYLE
 90
      512
 91
        0
  1

 92
      512
 93
        0
  2

 94
      512
 95
        0
  3

  0
XRECORD
  5
436
102
{ACAD_REACTORS
330
435
102
}
330
435
100
AcDbXrecord
280
     1
102
RTVSPost2010Prop28
280
     1
102
RTVSPost2010PropOp28
 70
     1
102
RTVSPost2010Prop29
280
     1
102
RTVSPost2010PropOp29
 70
     1
102
RTVSPost2010Prop30
280
     0
102
RTVSPost2010PropOp30
 70
     1
102
RTVSPost2010Prop31
280
     0
102
RTVSPost2010PropOp31
 70
     1
102
RTVSPost2010Prop32
280
     0
102
RTVSPost2010PropOp32
 70
     1
102
RTVSPost2010Prop33
280
     0
102
RTVSPost2010PropOp33
 70
     1
102
RTVSPost2010Prop34
280
     0
102
RTVSPost2010PropOp34
 70
     1
102
RTVSPost2010Prop35
280
     0
102
RTVSPost2010PropOp35
 70
     1
102
RTVSPost2010Prop36
280
     0
102
RTVSPost2010PropOp36
 70
     1
102
RTVSPost2010Prop37
 90
       50
102
RTVSPost2010PropOp37
 70
     1
102
RTVSPost2010Prop38
140
0.0
102
RTVSPost2010PropOp38
 70
     1
102
RTVSPost2010Prop39
140
1.0
102
RTVSPost2010PropOp39
 70
     1
102
RTVSPost2010Prop40
 90
        0
102
RTVSPost2010PropOp40
 70
     1
102
RTVSPost2010Prop41ColorIndex
 90
       18
102
RTVSPost2010Prop41ColorRGB
 90
        0
102
RTVSPost2010PropOp41
 70
     1
102
RTVSPost2010Prop42
 90
       50
102
RTVSPost2010PropOp42
 70
     1
102
RTVSPost2010Prop43
 90
        3
102
RTVSPost2010PropOp43
 70
     1
102
RTVSPost2010Prop44ColorIndex
 90
        5
102
RTVSPost2010Prop44ColorRGB
 90
      255
102
RTVSPost2010PropOp44
 70
     1
102
RTVSPost2010Prop45
280
     0
102
RTVSPost2010PropOp45
 70
     1
102
RTVSPost2010Prop46
 90
       50
102
RTVSPost2010PropOp46
 70
     1
102
RTVSPost2010Prop47
 90
       50
102
RTVSPost2010PropOp47
 70
     1
102
RTVSPost2010Prop48
 90
       50
102
RTVSPost2010PropOp48
 70
     1
102
RTVSPost2010Prop49
280
     0
102
RTVSPost2010PropOp49
 70
     1
102
RTVSPost2010Prop50
 90
       50
102
RTVSPost2010PropOp50
 70
     1
102
RTVSPost2010Prop51ColorIndex
 90
      256
102
RTVSPost2010Prop51ColorRGB
 90
-16777216
102
RTVSPost2010PropOp51
 70
     0
102
RTVSPost2010Prop52
140
1.0
102
RTVSPost2010PropOp52
 70
     0
102
RTVSPost2010Prop53
 90
        2
102
RTVSPost2010PropOp53
 70
     1
102
RTVSPost2010Prop54
  1
strokes_ogs.tif
102
RTVSPost2010PropOp54
 70
     1
102
RTVSPost2010Prop55
280
     0
102
RTVSPost2010PropOp55
 70
     1
102
RTVSPost2010Prop56
140
1.0
102
RTVSPost2010PropOp56
 70
     1
102
RTVSPost2010Prop57
140
1.0
102
RTVSPost2010PropOp57
 70
     1
102
RTVSPropertyOp0
 70
     1
102
RTVSPropertyOp1
 70
     1
102
RTVSPropertyOp2
 70
     1
102
RTVSPropertyOp3
 70
     1
102
RTVSPropertyOp4
 70
     1
102
RTVSPropertyOp5
 70
     1
102
RTVSPropertyOp6
 70
     1
102
RTVSPropertyOp7
 70
     1
102
RTVSPropertyOp8
 70
     1
102
RTVSPropertyOp9
 70
     1
102
RTVSPropertyOp10
 70
     1
102
RTVSPropertyOp11
 70
     1
102
RTVSPropertyOp12
 70
     1
102
RTVSPropertyOp13
 70
     1
102
RTVSPropertyOp14
 70
     1
102
RTVSPropertyOp15
 70
     1
102
RTVSPropertyOp16
 70
     1
102
RTVSPropertyOp17
 70
     1
102
RTVSPropertyOp18
 70
     1
102
RTVSPropertyOp19
 70
     1
102
RTVSPropertyOp20
 70
     1
102
RTVSPropertyOp21
 70
     1
102
RTVSPropertyOp22
 70
     1
102
RTVSPropertyOp23
 70
     1
102
RTVSPropertyOp24
 70
     1
102
RTVSPropertyOp25
 70
     1
102
RTVSPropertyOp26
 70
     1
102
RTVSPropertyOp27
 70
     1
102
RTVSPropertyOp28
 70
     1
102
RTVSPropertyOp29
 70
     1
102
RTVSPropertyOp30
 70
     1
102
RTVSPropertyOp31
 70
     1
102
RTVSPropertyOp32
 70
     1
102
RTVSPropertyOp33
 70
     1
102
RTVSPropertyOp34
 70
     1
102
RTVSPropertyOp35
 70
     1
102
RTVSPropertyOp36
 70
     1
102
RTVSPropertyOp37
 70
     1
102
RTVSPropertyOp38
 70
     1
102
RTVSPropertyOp39
 70
     1
102
RTVSPropertyOp40
 70
     1
102
RTVSPropertyOp41
 70
     1
102
RTVSPropertyOp42
 70
     1
102
RTVSPropertyOp43
 70
     1
102
RTVSPropertyOp44
 70
     1
102
RTVSPropertyOp45
 70
     1
102
RTVSPropertyOp46
 70
     1
102
RTVSPropertyOp47
 70
     1
102
RTVSPropertyOp48
 70
     1
102
RTVSPropertyOp49
 70
     1
102
RTVSPropertyOp50
 70
     1
102
RTVSPropertyOp51
 70
     0
102
RTVSPropertyOp52
 70
     0
102
RTVSPropertyOp53
 70
     1
102
RTVSPropertyOp54
 70
     1
102
RTVSPropertyOp55
 70
     1
102
RTVSPropertyOp56
 70
     1
102
RTVSPropertyOp57
 70
     1
102
RTVSPropertyOp58
 70
     1
102
RTVSPropertyOp59
 70
     1
102
RTVSPropertyOp60
 70
     1
102
RTVSPropertyOp61
 70
     1
102
RTVSPropertyOp62
 70
     1
  0
XRECORD
  5
434
102
{ACAD_REACTORS
330
433
102
}
330
433
100
AcDbXrecord
280
     1
102
RTVSPost2010Prop28
280
     0
102
RTVSPost2010PropOp28
 70
     1
102
RTVSPost2010Prop29
280
     1
102
RTVSPost2010PropOp29
 70
     1
102
RTVSPost2010Prop30
280
     1
102
RTVSPost2010PropOp30
 70
     1
102
RTVSPost2010Prop31
280
     0
102
RTVSPost2010PropOp31
 70
     1
102
RTVSPost2010Prop32
280
     0
102
RTVSPost2010PropOp32
 70
     1
102
RTVSPost2010Prop33
280
     0
102
RTVSPost2010PropOp33
 70
     1
102
RTVSPost2010Prop34
280
     0
102
RTVSPost2010PropOp34
 70
     1
102
RTVSPost2010Prop35
280
     0
102
RTVSPost2010PropOp35
 70
     1
102
RTVSPost2010Prop36
280
     0
102
RTVSPost2010PropOp36
 70
     1
102
RTVSPost2010Prop37
 90
       50
102
RTVSPost2010PropOp37
 70
     1
102
RTVSPost2010Prop38
140
0.0
102
RTVSPost2010PropOp38
 70
     1
102
RTVSPost2010Prop39
140
1.0
102
RTVSPost2010PropOp39
 70
     1
102
RTVSPost2010Prop40
 90
        0
102
RTVSPost2010PropOp40
 70
     1
102
RTVSPost2010Prop41ColorIndex
 90
       18
102
RTVSPost2010Prop41ColorRGB
 90
        0
102
RTVSPost2010PropOp41
 70
     1
102
RTVSPost2010Prop42
 90
       50
102
RTVSPost2010PropOp42
 70
     1
102
RTVSPost2010Prop43
 90
        3
102
RTVSPost2010PropOp43
 70
     1
102
RTVSPost2010Prop44ColorIndex
 90
        5
102
RTVSPost2010Prop44ColorRGB
 90
      255
102
RTVSPost2010PropOp44
 70
     1
102
RTVSPost2010Prop45
280
     0
102
RTVSPost2010PropOp45
 70
     1
102
RTVSPost2010Prop46
 90
       50
102
RTVSPost2010PropOp46
 70
     1
102
RTVSPost2010Prop47
 90
       50
102
RTVSPost2010PropOp47
 70
     1
102
RTVSPost2010Prop48
 90
       50
102
RTVSPost2010PropOp48
 70
     1
102
RTVSPost2010Prop49
280
     0
102
RTVSPost2010PropOp49
 70
     1
102
RTVSPost2010Prop50
 90
       50
102
RTVSPost2010PropOp50
 70
     1
102
RTVSPost2010Prop51ColorIndex
 90
      256
102
RTVSPost2010Prop51ColorRGB
 90
-16777216
102
RTVSPost2010PropOp51
 70
     0
102
RTVSPost2010Prop52
140
1.0
102
RTVSPost2010PropOp52
 70
     0
102
RTVSPost2010Prop53
 90
        2
102
RTVSPost2010PropOp53
 70
     1
102
RTVSPost2010Prop54
  1
strokes_ogs.tif
102
RTVSPost2010PropOp54
 70
     1
102
RTVSPost2010Prop55
280
     0
102
RTVSPost2010PropOp55
 70
     1
102
RTVSPost2010Prop56
140
1.0
102
RTVSPost2010PropOp56
 70
     1
102
RTVSPost2010Prop57
140
1.0
102
RTVSPost2010PropOp57
 70
     1
102
RTVSPropertyOp0
 70
     1
102
RTVSPropertyOp1
 70
     1
102
RTVSPropertyOp2
 70
     1
102
RTVSPropertyOp3
 70
     1
102
RTVSPropertyOp4
 70
     1
102
RTVSPropertyOp5
 70
     1
102
RTVSPropertyOp6
 70
     1
102
RTVSPropertyOp7
 70
     1
102
RTVSPropertyOp8
 70
     1
102
RTVSPropertyOp9
 70
     1
102
RTVSPropertyOp10
 70
     1
102
RTVSPropertyOp11
 70
     1
102
RTVSPropertyOp12
 70
     1
102
RTVSPropertyOp13
 70
     1
102
RTVSPropertyOp14
 70
     1
102
RTVSPropertyOp15
 70
     1
102
RTVSPropertyOp16
 70
     1
102
RTVSPropertyOp17
 70
     1
102
RTVSPropertyOp18
 70
     1
102
RTVSPropertyOp19
 70
     1
102
RTVSPropertyOp20
 70
     1
102
RTVSPropertyOp21
 70
     1
102
RTVSPropertyOp22
 70
     1
102
RTVSPropertyOp23
 70
     1
102
RTVSPropertyOp24
 70
     1
102
RTVSPropertyOp25
 70
     1
102
RTVSPropertyOp26
 70
     1
102
RTVSPropertyOp27
 70
     1
102
RTVSPropertyOp28
 70
     1
102
RTVSPropertyOp29
 70
     1
102
RTVSPropertyOp30
 70
     1
102
RTVSPropertyOp31
 70
     1
102
RTVSPropertyOp32
 70
     1
102
RTVSPropertyOp33
 70
     1
102
RTVSPropertyOp34
 70
     1
102
RTVSPropertyOp35
 70
     1
102
RTVSPropertyOp36
 70
     1
102
RTVSPropertyOp37
 70
     1
102
RTVSPropertyOp38
 70
     1
102
RTVSPropertyOp39
 70
     1
102
RTVSPropertyOp40
 70
     1
102
RTVSPropertyOp41
 70
     1
102
RTVSPropertyOp42
 70
     1
102
RTVSPropertyOp43
 70
     1
102
RTVSPropertyOp44
 70
     1
102
RTVSPropertyOp45
 70
     1
102
RTVSPropertyOp46
 70
     1
102
RTVSPropertyOp47
 70
     1
102
RTVSPropertyOp48
 70
     1
102
RTVSPropertyOp49
 70
     1
102
RTVSPropertyOp50
 70
     1
102
RTVSPropertyOp51
 70
     0
102
RTVSPropertyOp52
 70
     0
102
RTVSPropertyOp53
 70
     1
102
RTVSPropertyOp54
 70
     1
102
RTVSPropertyOp55
 70
     1
102
RTVSPropertyOp56
 70
     1
102
RTVSPropertyOp57
 70
     1
102
RTVSPropertyOp58
 70
     1
102
RTVSPropertyOp59
 70
     1
102
RTVSPropertyOp60
 70
     1
102
RTVSPropertyOp61
 70
     1
102
RTVSPropertyOp62
 70
     1
  0
XRECORD
  5
442
102
{ACAD_REACTORS
330
441
102
}
330
441
100
AcDbXrecord
280
     1
102
RTVSPost2010Prop28
280
     0
102
RTVSPost2010PropOp28
 70
     1
102
RTVSPost2010Prop29
280
     1
102
RTVSPost2010PropOp29
 70
     1
102
RTVSPost2010Prop30
280
     1
102
RTVSPost2010PropOp30
 70
     1
102
RTVSPost2010Prop31
280
     0
102
RTVSPost2010PropOp31
 70
     1
102
RTVSPost2010Prop32
280
     0
102
RTVSPost2010PropOp32
 70
     1
102
RTVSPost2010Prop33
280
     0
102
RTVSPost2010PropOp33
 70
     1
102
RTVSPost2010Prop34
280
     0
102
RTVSPost2010PropOp34
 70
     1
102
RTVSPost2010Prop35
280
     0
102
RTVSPost2010PropOp35
 70
     1
102
RTVSPost2010Prop36
280
     0
102
RTVSPost2010PropOp36
 70
     1
102
RTVSPost2010Prop37
 90
       50
102
RTVSPost2010PropOp37
 70
     1
102
RTVSPost2010Prop38
140
0.0
102
RTVSPost2010PropOp38
 70
     1
102
RTVSPost2010Prop39
140
1.0
102
RTVSPost2010PropOp39
 70
     1
102
RTVSPost2010Prop40
 90
        0
102
RTVSPost2010PropOp40
 70
     1
102
RTVSPost2010Prop41ColorIndex
 90
       18
102
RTVSPost2010Prop41ColorRGB
 90
        0
102
RTVSPost2010PropOp41
 70
     1
102
RTVSPost2010Prop42
 90
       50
102
RTVSPost2010PropOp42
 70
     1
102
RTVSPost2010Prop43
 90
        3
102
RTVSPost2010PropOp43
 70
     1
102
RTVSPost2010Prop44ColorIndex
 90
        5
102
RTVSPost2010Prop44ColorRGB
 90
      255
102
RTVSPost2010PropOp44
 70
     1
102
RTVSPost2010Prop45
280
     0
102
RTVSPost2010PropOp45
 70
     1
102
RTVSPost2010Prop46
 90
       50
102
RTVSPost2010PropOp46
 70
     1
102
RTVSPost2010Prop47
 90
       50
102
RTVSPost2010PropOp47
 70
     1
102
RTVSPost2010Prop48
 90
       50
102
RTVSPost2010PropOp48
 70
     1
102
RTVSPost2010Prop49
280
     0
102
RTVSPost2010PropOp49
 70
     1
102
RTVSPost2010Prop50
 90
       50
102
RTVSPost2010PropOp50
 70
     1
102
RTVSPost2010Prop51ColorIndex
 90
      256
102
RTVSPost2010Prop51ColorRGB
 90
-16777216
102
RTVSPost2010PropOp51
 70
     0
102
RTVSPost2010Prop52
140
1.0
102
RTVSPost2010PropOp52
 70
     0
102
RTVSPost2010Prop53
 90
        2
102
RTVSPost2010PropOp53
 70
     1
102
RTVSPost2010Prop54
  1
strokes_ogs.tif
102
RTVSPost2010PropOp54
 70
     1
102
RTVSPost2010Prop55
280
     0
102
RTVSPost2010PropOp55
 70
     1
102
RTVSPost2010Prop56
140
1.0
102
RTVSPost2010PropOp56
 70
     1
102
RTVSPost2010Prop57
140
1.0
102
RTVSPost2010PropOp57
 70
     1
102
RTVSPropertyOp0
 70
     1
102
RTVSPropertyOp1
 70
     1
102
RTVSPropertyOp2
 70
     1
102
RTVSPropertyOp3
 70
     1
102
RTVSPropertyOp4
 70
     1
102
RTVSPropertyOp5
 70
     1
102
RTVSPropertyOp6
 70
     1
102
RTVSPropertyOp7
 70
     1
102
RTVSPropertyOp8
 70
     1
102
RTVSPropertyOp9
 70
     1
102
RTVSPropertyOp10
 70
     1
102
RTVSPropertyOp11
 70
     1
102
RTVSPropertyOp12
 70
     1
102
RTVSPropertyOp13
 70
     1
102
RTVSPropertyOp14
 70
     1
102
RTVSPropertyOp15
 70
     1
102
RTVSPropertyOp16
 70
     1
102
RTVSPropertyOp17
 70
     1
102
RTVSPropertyOp18
 70
     1
102
RTVSPropertyOp19
 70
     1
102
RTVSPropertyOp20
 70
     1
102
RTVSPropertyOp21
 70
     1
102
RTVSPropertyOp22
 70
     1
102
RTVSPropertyOp23
 70
     1
102
RTVSPropertyOp24
 70
     1
102
RTVSPropertyOp25
 70
     1
102
RTVSPropertyOp26
 70
     1
102
RTVSPropertyOp27
 70
     1
102
RTVSPropertyOp28
 70
     1
102
RTVSPropertyOp29
 70
     1
102
RTVSPropertyOp30
 70
     1
102
RTVSPropertyOp31
 70
     1
102
RTVSPropertyOp32
 70
     1
102
RTVSPropertyOp33
 70
     1
102
RTVSPropertyOp34
 70
     1
102
RTVSPropertyOp35
 70
     1
102
RTVSPropertyOp36
 70
     1
102
RTVSPropertyOp37
 70
     1
102
RTVSPropertyOp38
 70
     1
102
RTVSPropertyOp39
 70
     1
102
RTVSPropertyOp40
 70
     1
102
RTVSPropertyOp41
 70
     1
102
RTVSPropertyOp42
 70
     1
102
RTVSPropertyOp43
 70
     1
102
RTVSPropertyOp44
 70
     1
102
RTVSPropertyOp45
 70
     1
102
RTVSPropertyOp46
 70
     1
102
RTVSPropertyOp47
 70
     1
102
RTVSPropertyOp48
 70
     1
102
RTVSPropertyOp49
 70
     1
102
RTVSPropertyOp50
 70
     1
102
RTVSPropertyOp51
 70
     0
102
RTVSPropertyOp52
 70
     0
102
RTVSPropertyOp53
 70
     1
102
RTVSPropertyOp54
 70
     1
102
RTVSPropertyOp55
 70
     1
102
RTVSPropertyOp56
 70
     1
102
RTVSPropertyOp57
 70
     1
102
RTVSPropertyOp58
 70
     1
102
RTVSPropertyOp59
 70
     1
102
RTVSPropertyOp60
 70
     1
102
RTVSPropertyOp61
 70
     1
102
RTVSPropertyOp62
 70
     1
  0
XRECORD
  5
44A
102
{ACAD_REACTORS
330
449
102
}
330
449
100
AcDbXrecord
280
     1
102
RTVSPost2010Prop28
280
     0
102
RTVSPost2010PropOp28
 70
     1
102
RTVSPost2010Prop29
280
     1
102
RTVSPost2010PropOp29
 70
     1
102
RTVSPost2010Prop30
280
     1
102
RTVSPost2010PropOp30
 70
     1
102
RTVSPost2010Prop31
280
     0
102
RTVSPost2010PropOp31
 70
     1
102
RTVSPost2010Prop32
280
     0
102
RTVSPost2010PropOp32
 70
     1
102
RTVSPost2010Prop33
280
     0
102
RTVSPost2010PropOp33
 70
     1
102
RTVSPost2010Prop34
280
     0
102
RTVSPost2010PropOp34
 70
     1
102
RTVSPost2010Prop35
280
     0
102
RTVSPost2010PropOp35
 70
     1
102
RTVSPost2010Prop36
280
     0
102
RTVSPost2010PropOp36
 70
     1
102
RTVSPost2010Prop37
 90
       50
102
RTVSPost2010PropOp37
 70
     1
102
RTVSPost2010Prop38
140
0.0
102
RTVSPost2010PropOp38
 70
     1
102
RTVSPost2010Prop39
140
1.0
102
RTVSPost2010PropOp39
 70
     1
102
RTVSPost2010Prop40
 90
        0
102
RTVSPost2010PropOp40
 70
     1
102
RTVSPost2010Prop41ColorIndex
 90
       18
102
RTVSPost2010Prop41ColorRGB
 90
        0
102
RTVSPost2010PropOp41
 70
     1
102
RTVSPost2010Prop42
 90
       50
102
RTVSPost2010PropOp42
 70
     1
102
RTVSPost2010Prop43
 90
        3
102
RTVSPost2010PropOp43
 70
     1
102
RTVSPost2010Prop44ColorIndex
 90
        5
102
RTVSPost2010Prop44ColorRGB
 90
      255
102
RTVSPost2010PropOp44
 70
     1
102
RTVSPost2010Prop45
280
     0
102
RTVSPost2010PropOp45
 70
     1
102
RTVSPost2010Prop46
 90
       50
102
RTVSPost2010PropOp46
 70
     1
102
RTVSPost2010Prop47
 90
       50
102
RTVSPost2010PropOp47
 70
     1
102
RTVSPost2010Prop48
 90
       50
102
RTVSPost2010PropOp48
 70
     1
102
RTVSPost2010Prop49
280
     0
102
RTVSPost2010PropOp49
 70
     1
102
RTVSPost2010Prop50
 90
       50
102
RTVSPost2010PropOp50
 70
     1
102
RTVSPost2010Prop51ColorIndex
 90
      256
102
RTVSPost2010Prop51ColorRGB
 90
-16777216
102
RTVSPost2010PropOp51
 70
     0
102
RTVSPost2010Prop52
140
1.0
102
RTVSPost2010PropOp52
 70
     0
102
RTVSPost2010Prop53
 90
        2
102
RTVSPost2010PropOp53
 70
     1
102
RTVSPost2010Prop54
  1
strokes_ogs.tif
102
RTVSPost2010PropOp54
 70
     1
102
RTVSPost2010Prop55
280
     0
102
RTVSPost2010PropOp55
 70
     1
102
RTVSPost2010Prop56
140
1.0
102
RTVSPost2010PropOp56
 70
     1
102
RTVSPost2010Prop57
140
1.0
102
RTVSPost2010PropOp57
 70
     1
102
RTVSPropertyOp0
 70
     1
102
RTVSPropertyOp1
 70
     1
102
RTVSPropertyOp2
 70
     1
102
RTVSPropertyOp3
 70
     1
102
RTVSPropertyOp4
 70
     1
102
RTVSPropertyOp5
 70
     1
102
RTVSPropertyOp6
 70
     1
102
RTVSPropertyOp7
 70
     1
102
RTVSPropertyOp8
 70
     1
102
RTVSPropertyOp9
 70
     1
102
RTVSPropertyOp10
 70
     1
102
RTVSPropertyOp11
 70
     1
102
RTVSPropertyOp12
 70
     1
102
RTVSPropertyOp13
 70
     1
102
RTVSPropertyOp14
 70
     1
102
RTVSPropertyOp15
 70
     1
102
RTVSPropertyOp16
 70
     1
102
RTVSPropertyOp17
 70
     1
102
RTVSPropertyOp18
 70
     1
102
RTVSPropertyOp19
 70
     1
102
RTVSPropertyOp20
 70
     1
102
RTVSPropertyOp21
 70
     1
102
RTVSPropertyOp22
 70
     1
102
RTVSPropertyOp23
 70
     1
102
RTVSPropertyOp24
 70
     1
102
RTVSPropertyOp25
 70
     1
102
RTVSPropertyOp26
 70
     1
102
RTVSPropertyOp27
 70
     1
102
RTVSPropertyOp28
 70
     1
102
RTVSPropertyOp29
 70
     1
102
RTVSPropertyOp30
 70
     1
102
RTVSPropertyOp31
 70
     1
102
RTVSPropertyOp32
 70
     1
102
RTVSPropertyOp33
 70
     1
102
RTVSPropertyOp34
 70
     1
102
RTVSPropertyOp35
 70
     1
102
RTVSPropertyOp36
 70
     1
102
RTVSPropertyOp37
 70
     1
102
RTVSPropertyOp38
 70
     1
102
RTVSPropertyOp39
 70
     1
102
RTVSPropertyOp40
 70
     1
102
RTVSPropertyOp41
 70
     1
102
RTVSPropertyOp42
 70
     1
102
RTVSPropertyOp43
 70
     1
102
RTVSPropertyOp44
 70
     1
102
RTVSPropertyOp45
 70
     1
102
RTVSPropertyOp46
 70
     1
102
RTVSPropertyOp47
 70
     1
102
RTVSPropertyOp48
 70
     1
102
RTVSPropertyOp49
 70
     1
102
RTVSPropertyOp50
 70
     1
102
RTVSPropertyOp51
 70
     0
102
RTVSPropertyOp52
 70
     0
102
RTVSPropertyOp53
 70
     1
102
RTVSPropertyOp54
 70
     1
102
RTVSPropertyOp55
 70
     1
102
RTVSPropertyOp56
 70
     1
102
RTVSPropertyOp57
 70
     1
102
RTVSPropertyOp58
 70
     1
102
RTVSPropertyOp59
 70
     1
102
RTVSPropertyOp60
 70
     1
102
RTVSPropertyOp61
 70
     1
102
RTVSPropertyOp62
 70
     1
  0
XRECORD
  5
43C
102
{ACAD_REACTORS
330
43B
102
}
330
43B
100
AcDbXrecord
280
     1
102
RTVSPost2010Prop28
280
     0
102
RTVSPost2010PropOp28
 70
     1
102
RTVSPost2010Prop29
280
     1
102
RTVSPost2010PropOp29
 70
     1
102
RTVSPost2010Prop30
280
     1
102
RTVSPost2010PropOp30
 70
     1
102
RTVSPost2010Prop31
280
     0
102
RTVSPost2010PropOp31
 70
     1
102
RTVSPost2010Prop32
280
     0
102
RTVSPost2010PropOp32
 70
     1
102
RTVSPost2010Prop33
280
     0
102
RTVSPost2010PropOp33
 70
     1
102
RTVSPost2010Prop34
280
     0
102
RTVSPost2010PropOp34
 70
     1
102
RTVSPost2010Prop35
280
     0
102
RTVSPost2010PropOp35
 70
     1
102
RTVSPost2010Prop36
280
     0
102
RTVSPost2010PropOp36
 70
     1
102
RTVSPost2010Prop37
 90
       50
102
RTVSPost2010PropOp37
 70
     1
102
RTVSPost2010Prop38
140
0.0
102
RTVSPost2010PropOp38
 70
     1
102
RTVSPost2010Prop39
140
1.0
102
RTVSPost2010PropOp39
 70
     1
102
RTVSPost2010Prop40
 90
        0
102
RTVSPost2010PropOp40
 70
     1
102
RTVSPost2010Prop41ColorIndex
 90
       18
102
RTVSPost2010Prop41ColorRGB
 90
        0
102
RTVSPost2010PropOp41
 70
     1
102
RTVSPost2010Prop42
 90
       50
102
RTVSPost2010PropOp42
 70
     1
102
RTVSPost2010Prop43
 90
        3
102
RTVSPost2010PropOp43
 70
     1
102
RTVSPost2010Prop44ColorIndex
 90
        5
102
RTVSPost2010Prop44ColorRGB
 90
      255
102
RTVSPost2010PropOp44
 70
     1
102
RTVSPost2010Prop45
280
     0
102
RTVSPost2010PropOp45
 70
     1
102
RTVSPost2010Prop46
 90
       50
102
RTVSPost2010PropOp46
 70
     1
102
RTVSPost2010Prop47
 90
       50
102
RTVSPost2010PropOp47
 70
     1
102
RTVSPost2010Prop48
 90
       50
102
RTVSPost2010PropOp48
 70
     1
102
RTVSPost2010Prop49
280
     0
102
RTVSPost2010PropOp49
 70
     1
102
RTVSPost2010Prop50
 90
       50
102
RTVSPost2010PropOp50
 70
     1
102
RTVSPost2010Prop51ColorIndex
 90
      256
102
RTVSPost2010Prop51ColorRGB
 90
-16777216
102
RTVSPost2010PropOp51
 70
     0
102
RTVSPost2010Prop52
140
1.0
102
RTVSPost2010PropOp52
 70
     0
102
RTVSPost2010Prop53
 90
        2
102
RTVSPost2010PropOp53
 70
     1
102
RTVSPost2010Prop54
  1
strokes_ogs.tif
102
RTVSPost2010PropOp54
 70
     1
102
RTVSPost2010Prop55
280
     0
102
RTVSPost2010PropOp55
 70
     1
102
RTVSPost2010Prop56
140
1.0
102
RTVSPost2010PropOp56
 70
     1
102
RTVSPost2010Prop57
140
1.0
102
RTVSPost2010PropOp57
 70
     1
102
RTVSPropertyOp0
 70
     1
102
RTVSPropertyOp1
 70
     1
102
RTVSPropertyOp2
 70
     1
102
RTVSPropertyOp3
 70
     1
102
RTVSPropertyOp4
 70
     1
102
RTVSPropertyOp5
 70
     1
102
RTVSPropertyOp6
 70
     1
102
RTVSPropertyOp7
 70
     1
102
RTVSPropertyOp8
 70
     1
102
RTVSPropertyOp9
 70
     1
102
RTVSPropertyOp10
 70
     1
102
RTVSPropertyOp11
 70
     1
102
RTVSPropertyOp12
 70
     1
102
RTVSPropertyOp13
 70
     1
102
RTVSPropertyOp14
 70
     1
102
RTVSPropertyOp15
 70
     1
102
RTVSPropertyOp16
 70
     1
102
RTVSPropertyOp17
 70
     1
102
RTVSPropertyOp18
 70
     1
102
RTVSPropertyOp19
 70
     1
102
RTVSPropertyOp20
 70
     1
102
RTVSPropertyOp21
 70
     1
102
RTVSPropertyOp22
 70
     1
102
RTVSPropertyOp23
 70
     1
102
RTVSPropertyOp24
 70
     1
102
RTVSPropertyOp25
 70
     1
102
RTVSPropertyOp26
 70
     1
102
RTVSPropertyOp27
 70
     1
102
RTVSPropertyOp28
 70
     1
102
RTVSPropertyOp29
 70
     1
102
RTVSPropertyOp30
 70
     1
102
RTVSPropertyOp31
 70
     1
102
RTVSPropertyOp32
 70
     1
102
RTVSPropertyOp33
 70
     1
102
RTVSPropertyOp34
 70
     1
102
RTVSPropertyOp35
 70
     1
102
RTVSPropertyOp36
 70
     1
102
RTVSPropertyOp37
 70
     1
102
RTVSPropertyOp38
 70
     1
102
RTVSPropertyOp39
 70
     1
102
RTVSPropertyOp40
 70
     1
102
RTVSPropertyOp41
 70
     1
102
RTVSPropertyOp42
 70
     1
102
RTVSPropertyOp43
 70
     1
102
RTVSPropertyOp44
 70
     1
102
RTVSPropertyOp45
 70
     1
102
RTVSPropertyOp46
 70
     1
102
RTVSPropertyOp47
 70
     1
102
RTVSPropertyOp48
 70
     1
102
RTVSPropertyOp49
 70
     1
102
RTVSPropertyOp50
 70
     1
102
RTVSPropertyOp51
 70
     0
102
RTVSPropertyOp52
 70
     0
102
RTVSPropertyOp53
 70
     1
102
RTVSPropertyOp54
 70
     1
102
RTVSPropertyOp55
 70
     1
102
RTVSPropertyOp56
 70
     1
102
RTVSPropertyOp57
 70
     1
102
RTVSPropertyOp58
 70
     1
102
RTVSPropertyOp59
 70
     1
102
RTVSPropertyOp60
 70
     1
102
RTVSPropertyOp61
 70
     1
102
RTVSPropertyOp62
 70
     1
  0
XRECORD
  5
440
102
{ACAD_REACTORS
330
43F
102
}
330
43F
100
AcDbXrecord
280
     1
102
RTVSPost2010Prop28
280
     0
102
RTVSPost2010PropOp28
 70
     1
102
RTVSPost2010Prop29
280
     1
102
RTVSPost2010PropOp29
 70
     1
102
RTVSPost2010Prop30
280
     1
102
RTVSPost2010PropOp30
 70
     1
102
RTVSPost2010Prop31
280
     0
102
RTVSPost2010PropOp31
 70
     1
102
RTVSPost2010Prop32
280
     0
102
RTVSPost2010PropOp32
 70
     1
102
RTVSPost2010Prop33
280
     0
102
RTVSPost2010PropOp33
 70
     1
102
RTVSPost2010Prop34
280
     0
102
RTVSPost2010PropOp34
 70
     1
102
RTVSPost2010Prop35
280
     0
102
RTVSPost2010PropOp35
 70
     1
102
RTVSPost2010Prop36
280
     0
102
RTVSPost2010PropOp36
 70
     1
102
RTVSPost2010Prop37
 90
       50
102
RTVSPost2010PropOp37
 70
     1
102
RTVSPost2010Prop38
140
0.0
102
RTVSPost2010PropOp38
 70
     1
102
RTVSPost2010Prop39
140
1.0
102
RTVSPost2010PropOp39
 70
     1
102
RTVSPost2010Prop40
 90
        0
102
RTVSPost2010PropOp40
 70
     1
102
RTVSPost2010Prop41ColorIndex
 90
       18
102
RTVSPost2010Prop41ColorRGB
 90
        0
102
RTVSPost2010PropOp41
 70
     1
102
RTVSPost2010Prop42
 90
       50
102
RTVSPost2010PropOp42
 70
     1
102
RTVSPost2010Prop43
 90
        3
102
RTVSPost2010PropOp43
 70
     1
102
RTVSPost2010Prop44ColorIndex
 90
        5
102
RTVSPost2010Prop44ColorRGB
 90
      255
102
RTVSPost2010PropOp44
 70
     1
102
RTVSPost2010Prop45
280
     0
102
RTVSPost2010PropOp45
 70
     1
102
RTVSPost2010Prop46
 90
       50
102
RTVSPost2010PropOp46
 70
     1
102
RTVSPost2010Prop47
 90
       50
102
RTVSPost2010PropOp47
 70
     1
102
RTVSPost2010Prop48
 90
       50
102
RTVSPost2010PropOp48
 70
     1
102
RTVSPost2010Prop49
280
     0
102
RTVSPost2010PropOp49
 70
     1
102
RTVSPost2010Prop50
 90
       50
102
RTVSPost2010PropOp50
 70
     1
102
RTVSPost2010Prop51ColorIndex
 90
      256
102
RTVSPost2010Prop51ColorRGB
 90
-16777216
102
RTVSPost2010PropOp51
 70
     0
102
RTVSPost2010Prop52
140
1.0
102
RTVSPost2010PropOp52
 70
     0
102
RTVSPost2010Prop53
 90
        2
102
RTVSPost2010PropOp53
 70
     1
102
RTVSPost2010Prop54
  1
strokes_ogs.tif
102
RTVSPost2010PropOp54
 70
     1
102
RTVSPost2010Prop55
280
     0
102
RTVSPost2010PropOp55
 70
     1
102
RTVSPost2010Prop56
140
1.0
102
RTVSPost2010PropOp56
 70
     1
102
RTVSPost2010Prop57
140
1.0
102
RTVSPost2010PropOp57
 70
     1
102
RTVSPropertyOp0
 70
     1
102
RTVSPropertyOp1
 70
     1
102
RTVSPropertyOp2
 70
     1
102
RTVSPropertyOp3
 70
     1
102
RTVSPropertyOp4
 70
     1
102
RTVSPropertyOp5
 70
     1
102
RTVSPropertyOp6
 70
     1
102
RTVSPropertyOp7
 70
     1
102
RTVSPropertyOp8
 70
     1
102
RTVSPropertyOp9
 70
     1
102
RTVSPropertyOp10
 70
     1
102
RTVSPropertyOp11
 70
     1
102
RTVSPropertyOp12
 70
     1
102
RTVSPropertyOp13
 70
     1
102
RTVSPropertyOp14
 70
     1
102
RTVSPropertyOp15
 70
     1
102
RTVSPropertyOp16
 70
     1
102
RTVSPropertyOp17
 70
     1
102
RTVSPropertyOp18
 70
     1
102
RTVSPropertyOp19
 70
     1
102
RTVSPropertyOp20
 70
     1
102
RTVSPropertyOp21
 70
     1
102
RTVSPropertyOp22
 70
     1
102
RTVSPropertyOp23
 70
     1
102
RTVSPropertyOp24
 70
     1
102
RTVSPropertyOp25
 70
     1
102
RTVSPropertyOp26
 70
     1
102
RTVSPropertyOp27
 70
     1
102
RTVSPropertyOp28
 70
     1
102
RTVSPropertyOp29
 70
     1
102
RTVSPropertyOp30
 70
     1
102
RTVSPropertyOp31
 70
     1
102
RTVSPropertyOp32
 70
     1
102
RTVSPropertyOp33
 70
     1
102
RTVSPropertyOp34
 70
     1
102
RTVSPropertyOp35
 70
     1
102
RTVSPropertyOp36
 70
     1
102
RTVSPropertyOp37
 70
     1
102
RTVSPropertyOp38
 70
     1
102
RTVSPropertyOp39
 70
     1
102
RTVSPropertyOp40
 70
     1
102
RTVSPropertyOp41
 70
     1
102
RTVSPropertyOp42
 70
     1
102
RTVSPropertyOp43
 70
     1
102
RTVSPropertyOp44
 70
     1
102
RTVSPropertyOp45
 70
     1
102
RTVSPropertyOp46
 70
     1
102
RTVSPropertyOp47
 70
     1
102
RTVSPropertyOp48
 70
     1
102
RTVSPropertyOp49
 70
     1
102
RTVSPropertyOp50
 70
     1
102
RTVSPropertyOp51
 70
     0
102
RTVSPropertyOp52
 70
     0
102
RTVSPropertyOp53
 70
     1
102
RTVSPropertyOp54
 70
     1
102
RTVSPropertyOp55
 70
     1
102
RTVSPropertyOp56
 70
     1
102
RTVSPropertyOp57
 70
     1
102
RTVSPropertyOp58
 70
     1
102
RTVSPropertyOp59
 70
     1
102
RTVSPropertyOp60
 70
     1
102
RTVSPropertyOp61
 70
     1
102
RTVSPropertyOp62
 70
     1
  0
XRECORD
  5
45A
102
{ACAD_REACTORS
330
459
102
}
330
459
100
AcDbXrecord
280
     1
102
RTVSPost2010Prop28
280
     0
102
RTVSPost2010PropOp28
 70
     1
102
RTVSPost2010Prop29
280
     1
102
RTVSPost2010PropOp29
 70
     1
102
RTVSPost2010Prop30
280
     1
102
RTVSPost2010PropOp30
 70
     1
102
RTVSPost2010Prop31
280
     0
102
RTVSPost2010PropOp31
 70
     1
102
RTVSPost2010Prop32
280
     0
102
RTVSPost2010PropOp32
 70
     1
102
RTVSPost2010Prop33
280
     0
102
RTVSPost2010PropOp33
 70
     1
102
RTVSPost2010Prop34
280
     0
102
RTVSPost2010PropOp34
 70
     1
102
RTVSPost2010Prop35
280
     0
102
RTVSPost2010PropOp35
 70
     1
102
RTVSPost2010Prop36
280
     0
102
RTVSPost2010PropOp36
 70
     1
102
RTVSPost2010Prop37
 90
       50
102
RTVSPost2010PropOp37
 70
     0
102
RTVSPost2010Prop38
140
0.0
102
RTVSPost2010PropOp38
 70
     0
102
RTVSPost2010Prop39
140
1.0
102
RTVSPost2010PropOp39
 70
     0
102
RTVSPost2010Prop40
 90
        0
102
RTVSPost2010PropOp40
 70
     0
102
RTVSPost2010Prop41ColorIndex
 90
       18
102
RTVSPost2010Prop41ColorRGB
 90
        0
102
RTVSPost2010PropOp41
 70
     0
102
RTVSPost2010Prop42
 90
       50
102
RTVSPost2010PropOp42
 70
     0
102
RTVSPost2010Prop43
 90
        3
102
RTVSPost2010PropOp43
 70
     0
102
RTVSPost2010Prop44ColorIndex
 90
        5
102
RTVSPost2010Prop44ColorRGB
 90
      255
102
RTVSPost2010PropOp44
 70
     0
102
RTVSPost2010Prop45
280
     0
102
RTVSPost2010PropOp45
 70
     1
102
RTVSPost2010Prop46
 90
       50
102
RTVSPost2010PropOp46
 70
     0
102
RTVSPost2010Prop47
 90
       50
102
RTVSPost2010PropOp47
 70
     0
102
RTVSPost2010Prop48
 90
       50
102
RTVSPost2010PropOp48
 70
     0
102
RTVSPost2010Prop49
280
     0
102
RTVSPost2010PropOp49
 70
     1
102
RTVSPost2010Prop50
 90
       50
102
RTVSPost2010PropOp50
 70
     0
102
RTVSPost2010Prop51ColorIndex
 90
      256
102
RTVSPost2010Prop51ColorRGB
 90
-16777216
102
RTVSPost2010PropOp51
 70
     0
102
RTVSPost2010Prop52
140
1.0
102
RTVSPost2010PropOp52
 70
     0
102
RTVSPost2010Prop53
 90
        2
102
RTVSPost2010PropOp53
 70
     0
102
RTVSPost2010Prop54
  1
strokes_ogs.tif
102
RTVSPost2010PropOp54
 70
     0
102
RTVSPost2010Prop55
280
     0
102
RTVSPost2010PropOp55
 70
     1
102
RTVSPost2010Prop56
140
1.0
102
RTVSPost2010PropOp56
 70
     0
102
RTVSPost2010Prop57
140
1.0
102
RTVSPost2010PropOp57
 70
     0
102
RTVSPropertyOp0
 70
     0
102
RTVSPropertyOp1
 70
     0
102
RTVSPropertyOp2
 70
     0
102
RTVSPropertyOp3
 70
     0
102
RTVSPropertyOp4
 70
     0
102
RTVSPropertyOp5
 70
     0
102
RTVSPropertyOp6
 70
     0
102
RTVSPropertyOp7
 70
     0
102
RTVSPropertyOp8
 70
     0
102
RTVSPropertyOp9
 70
     0
102
RTVSPropertyOp10
 70
     0
102
RTVSPropertyOp11
 70
     0
102
RTVSPropertyOp12
 70
     0
102
RTVSPropertyOp13
 70
     0
102
RTVSPropertyOp14
 70
     2
102
RTVSPropertyOp15
 70
     0
102
RTVSPropertyOp16
 70
     0
102
RTVSPropertyOp17
 70
     0
102
RTVSPropertyOp18
 70
     0
102
RTVSPropertyOp19
 70
     0
102
RTVSPropertyOp20
 70
     0
102
RTVSPropertyOp21
 70
     0
102
RTVSPropertyOp22
 70
     0
102
RTVSPropertyOp23
 70
     0
102
RTVSPropertyOp24
 70
     0
102
RTVSPropertyOp25
 70
     0
102
RTVSPropertyOp26
 70
     0
102
RTVSPropertyOp27
 70
     0
102
RTVSPropertyOp28
 70
     1
102
RTVSPropertyOp29
 70
     1
102
RTVSPropertyOp30
 70
     1
102
RTVSPropertyOp31
 70
     1
102
RTVSPropertyOp32
 70
     1
102
RTVSPropertyOp33
 70
     1
102
RTVSPropertyOp34
 70
     1
102
RTVSPropertyOp35
 70
     1
102
RTVSPropertyOp36
 70
     1
102
RTVSPropertyOp37
 70
     0
102
RTVSPropertyOp38
 70
     0
102
RTVSPropertyOp39
 70
     0
102
RTVSPropertyOp40
 70
     0
102
RTVSPropertyOp41
 70
     0
102
RTVSPropertyOp42
 70
     0
102
RTVSPropertyOp43
 70
     0
102
RTVSPropertyOp44
 70
     0
102
RTVSPropertyOp45
 70
     1
102
RTVSPropertyOp46
 70
     0
102
RTVSPropertyOp47
 70
     0
102
RTVSPropertyOp48
 70
     0
102
RTVSPropertyOp49
 70
     1
102
RTVSPropertyOp50
 70
     0
102
RTVSPropertyOp51
 70
     0
102
RTVSPropertyOp52
 70
     0
102
RTVSPropertyOp53
 70
     0
102
RTVSPropertyOp54
 70
     0
102
RTVSPropertyOp55
 70
     1
102
RTVSPropertyOp56
 70
     0
102
RTVSPropertyOp57
 70
     0
102
RTVSPropertyOp58
 70
     0
102
RTVSPropertyOp59
 70
     0
102
RTVSPropertyOp60
 70
     0
102
RTVSPropertyOp61
 70
     0
102
RTVSPropertyOp62
 70
     0
  0
XRECORD
  5
448
102
{ACAD_REACTORS
330
447
102
}
330
447
100
AcDbXrecord
280
     1
102
RTVSPost2010Prop28
280
     0
102
RTVSPost2010PropOp28
 70
     1
102
RTVSPost2010Prop29
280
     1
102
RTVSPost2010PropOp29
 70
     1
102
RTVSPost2010Prop30
280
     1
102
RTVSPost2010PropOp30
 70
     1
102
RTVSPost2010Prop31
280
     0
102
RTVSPost2010PropOp31
 70
     1
102
RTVSPost2010Prop32
280
     0
102
RTVSPost2010PropOp32
 70
     1
102
RTVSPost2010Prop33
280
     0
102
RTVSPost2010PropOp33
 70
     1
102
RTVSPost2010Prop34
280
     0
102
RTVSPost2010PropOp34
 70
     1
102
RTVSPost2010Prop35
280
     0
102
RTVSPost2010PropOp35
 70
     1
102
RTVSPost2010Prop36
280
     0
102
RTVSPost2010PropOp36
 70
     1
102
RTVSPost2010Prop37
 90
       50
102
RTVSPost2010PropOp37
 70
     1
102
RTVSPost2010Prop38
140
0.0
102
RTVSPost2010PropOp38
 70
     1
102
RTVSPost2010Prop39
140
1.0
102
RTVSPost2010PropOp39
 70
     1
102
RTVSPost2010Prop40
 90
        0
102
RTVSPost2010PropOp40
 70
     1
102
RTVSPost2010Prop41ColorIndex
 90
       18
102
RTVSPost2010Prop41ColorRGB
 90
        0
102
RTVSPost2010PropOp41
 70
     1
102
RTVSPost2010Prop42
 90
       50
102
RTVSPost2010PropOp42
 70
     1
102
RTVSPost2010Prop43
 90
        3
102
RTVSPost2010PropOp43
 70
     1
102
RTVSPost2010Prop44ColorIndex
 90
        5
102
RTVSPost2010Prop44ColorRGB
 90
      255
102
RTVSPost2010PropOp44
 70
     1
102
RTVSPost2010Prop45
280
     0
102
RTVSPost2010PropOp45
 70
     1
102
RTVSPost2010Prop46
 90
       50
102
RTVSPost2010PropOp46
 70
     1
102
RTVSPost2010Prop47
 90
       50
102
RTVSPost2010PropOp47
 70
     1
102
RTVSPost2010Prop48
 90
       50
102
RTVSPost2010PropOp48
 70
     1
102
RTVSPost2010Prop49
280
     0
102
RTVSPost2010PropOp49
 70
     1
102
RTVSPost2010Prop50
 90
       50
102
RTVSPost2010PropOp50
 70
     1
102
RTVSPost2010Prop51ColorIndex
 90
      256
102
RTVSPost2010Prop51ColorRGB
 90
-16777216
102
RTVSPost2010PropOp51
 70
     0
102
RTVSPost2010Prop52
140
1.0
102
RTVSPost2010PropOp52
 70
     0
102
RTVSPost2010Prop53
 90
        2
102
RTVSPost2010PropOp53
 70
     1
102
RTVSPost2010Prop54
  1
strokes_ogs.tif
102
RTVSPost2010PropOp54
 70
     1
102
RTVSPost2010Prop55
280
     0
102
RTVSPost2010PropOp55
 70
     1
102
RTVSPost2010Prop56
140
1.0
102
RTVSPost2010PropOp56
 70
     1
102
RTVSPost2010Prop57
140
1.0
102
RTVSPost2010PropOp57
 70
     1
102
RTVSPropertyOp0
 70
     1
102
RTVSPropertyOp1
 70
     1
102
RTVSPropertyOp2
 70
     1
102
RTVSPropertyOp3
 70
     1
102
RTVSPropertyOp4
 70
     1
102
RTVSPropertyOp5
 70
     1
102
RTVSPropertyOp6
 70
     1
102
RTVSPropertyOp7
 70
     1
102
RTVSPropertyOp8
 70
     1
102
RTVSPropertyOp9
 70
     1
102
RTVSPropertyOp10
 70
     1
102
RTVSPropertyOp11
 70
     1
102
RTVSPropertyOp12
 70
     1
102
RTVSPropertyOp13
 70
     1
102
RTVSPropertyOp14
 70
     1
102
RTVSPropertyOp15
 70
     1
102
RTVSPropertyOp16
 70
     1
102
RTVSPropertyOp17
 70
     1
102
RTVSPropertyOp18
 70
     1
102
RTVSPropertyOp19
 70
     1
102
RTVSPropertyOp20
 70
     1
102
RTVSPropertyOp21
 70
     1
102
RTVSPropertyOp22
 70
     1
102
RTVSPropertyOp23
 70
     1
102
RTVSPropertyOp24
 70
     1
102
RTVSPropertyOp25
 70
     1
102
RTVSPropertyOp26
 70
     1
102
RTVSPropertyOp27
 70
     1
102
RTVSPropertyOp28
 70
     1
102
RTVSPropertyOp29
 70
     1
102
RTVSPropertyOp30
 70
     1
102
RTVSPropertyOp31
 70
     1
102
RTVSPropertyOp32
 70
     1
102
RTVSPropertyOp33
 70
     1
102
RTVSPropertyOp34
 70
     1
102
RTVSPropertyOp35
 70
     1
102
RTVSPropertyOp36
 70
     1
102
RTVSPropertyOp37
 70
     1
102
RTVSPropertyOp38
 70
     1
102
RTVSPropertyOp39
 70
     1
102
RTVSPropertyOp40
 70
     1
102
RTVSPropertyOp41
 70
     1
102
RTVSPropertyOp42
 70
     1
102
RTVSPropertyOp43
 70
     1
102
RTVSPropertyOp44
 70
     1
102
RTVSPropertyOp45
 70
     1
102
RTVSPropertyOp46
 70
     1
102
RTVSPropertyOp47
 70
     1
102
RTVSPropertyOp48
 70
     1
102
RTVSPropertyOp49
 70
     1
102
RTVSPropertyOp50
 70
     1
102
RTVSPropertyOp51
 70
     0
102
RTVSPropertyOp52
 70
     0
102
RTVSPropertyOp53
 70
     1
102
RTVSPropertyOp54
 70
     1
102
RTVSPropertyOp55
 70
     1
102
RTVSPropertyOp56
 70
     1
102
RTVSPropertyOp57
 70
     1
102
RTVSPropertyOp58
 70
     1
102
RTVSPropertyOp59
 70
     1
102
RTVSPropertyOp60
 70
     1
102
RTVSPropertyOp61
 70
     1
102
RTVSPropertyOp62
 70
     1
  0
XRECORD
  5
42C
102
{ACAD_REACTORS
330
42B
102
}
330
42B
100
AcDbXrecord
280
     1
102
RTVSPost2010Prop28
280
     0
102
RTVSPost2010PropOp28
 70
     1
102
RTVSPost2010Prop29
280
     1
102
RTVSPost2010PropOp29
 70
     1
102
RTVSPost2010Prop30
280
     1
102
RTVSPost2010PropOp30
 70
     1
102
RTVSPost2010Prop31
280
     0
102
RTVSPost2010PropOp31
 70
     1
102
RTVSPost2010Prop32
280
     0
102
RTVSPost2010PropOp32
 70
     1
102
RTVSPost2010Prop33
280
     0
102
RTVSPost2010PropOp33
 70
     1
102
RTVSPost2010Prop34
280
     0
102
RTVSPost2010PropOp34
 70
     1
102
RTVSPost2010Prop35
280
     0
102
RTVSPost2010PropOp35
 70
     1
102
RTVSPost2010Prop36
280
     0
102
RTVSPost2010PropOp36
 70
     1
102
RTVSPost2010Prop37
 90
       50
102
RTVSPost2010PropOp37
 70
     1
102
RTVSPost2010Prop38
140
0.0
102
RTVSPost2010PropOp38
 70
     1
102
RTVSPost2010Prop39
140
1.0
102
RTVSPost2010PropOp39
 70
     1
102
RTVSPost2010Prop40
 90
        0
102
RTVSPost2010PropOp40
 70
     1
102
RTVSPost2010Prop41ColorIndex
 90
       18
102
RTVSPost2010Prop41ColorRGB
 90
        0
102
RTVSPost2010PropOp41
 70
     1
102
RTVSPost2010Prop42
 90
       50
102
RTVSPost2010PropOp42
 70
     1
102
RTVSPost2010Prop43
 90
        3
102
RTVSPost2010PropOp43
 70
     1
102
RTVSPost2010Prop44ColorIndex
 90
        5
102
RTVSPost2010Prop44ColorRGB
 90
      255
102
RTVSPost2010PropOp44
 70
     1
102
RTVSPost2010Prop45
280
     0
102
RTVSPost2010PropOp45
 70
     1
102
RTVSPost2010Prop46
 90
       50
102
RTVSPost2010PropOp46
 70
     1
102
RTVSPost2010Prop47
 90
       50
102
RTVSPost2010PropOp47
 70
     1
102
RTVSPost2010Prop48
 90
       50
102
RTVSPost2010PropOp48
 70
     1
102
RTVSPost2010Prop49
280
     0
102
RTVSPost2010PropOp49
 70
     1
102
RTVSPost2010Prop50
 90
       50
102
RTVSPost2010PropOp50
 70
     1
102
RTVSPost2010Prop51ColorIndex
 90
      256
102
RTVSPost2010Prop51ColorRGB
 90
-16777216
102
RTVSPost2010PropOp51
 70
     0
102
RTVSPost2010Prop52
140
1.0
102
RTVSPost2010PropOp52
 70
     0
102
RTVSPost2010Prop53
 90
        2
102
RTVSPost2010PropOp53
 70
     1
102
RTVSPost2010Prop54
  1
strokes_ogs.tif
102
RTVSPost2010PropOp54
 70
     1
102
RTVSPost2010Prop55
280
     0
102
RTVSPost2010PropOp55
 70
     1
102
RTVSPost2010Prop56
140
1.0
102
RTVSPost2010PropOp56
 70
     1
102
RTVSPost2010Prop57
140
1.0
102
RTVSPost2010PropOp57
 70
     1
102
RTVSPropertyOp0
 70
     1
102
RTVSPropertyOp1
 70
     1
102
RTVSPropertyOp2
 70
     1
102
RTVSPropertyOp3
 70
     1
102
RTVSPropertyOp4
 70
     1
102
RTVSPropertyOp5
 70
     1
102
RTVSPropertyOp6
 70
     1
102
RTVSPropertyOp7
 70
     1
102
RTVSPropertyOp8
 70
     1
102
RTVSPropertyOp9
 70
     1
102
RTVSPropertyOp10
 70
     1
102
RTVSPropertyOp11
 70
     1
102
RTVSPropertyOp12
 70
     1
102
RTVSPropertyOp13
 70
     1
102
RTVSPropertyOp14
 70
     1
102
RTVSPropertyOp15
 70
     1
102
RTVSPropertyOp16
 70
     1
102
RTVSPropertyOp17
 70
     1
102
RTVSPropertyOp18
 70
     1
102
RTVSPropertyOp19
 70
     1
102
RTVSPropertyOp20
 70
     1
102
RTVSPropertyOp21
 70
     1
102
RTVSPropertyOp22
 70
     1
102
RTVSPropertyOp23
 70
     1
102
RTVSPropertyOp24
 70
     1
102
RTVSPropertyOp25
 70
     1
102
RTVSPropertyOp26
 70
     1
102
RTVSPropertyOp27
 70
     1
102
RTVSPropertyOp28
 70
     1
102
RTVSPropertyOp29
 70
     1
102
RTVSPropertyOp30
 70
     1
102
RTVSPropertyOp31
 70
     1
102
RTVSPropertyOp32
 70
     1
102
RTVSPropertyOp33
 70
     1
102
RTVSPropertyOp34
 70
     1
102
RTVSPropertyOp35
 70
     1
102
RTVSPropertyOp36
 70
     1
102
RTVSPropertyOp37
 70
     1
102
RTVSPropertyOp38
 70
     1
102
RTVSPropertyOp39
 70
     1
102
RTVSPropertyOp40
 70
     1
102
RTVSPropertyOp41
 70
     1
102
RTVSPropertyOp42
 70
     1
102
RTVSPropertyOp43
 70
     1
102
RTVSPropertyOp44
 70
     1
102
RTVSPropertyOp45
 70
     1
102
RTVSPropertyOp46
 70
     1
102
RTVSPropertyOp47
 70
     1
102
RTVSPropertyOp48
 70
     1
102
RTVSPropertyOp49
 70
     1
102
RTVSPropertyOp50
 70
     1
102
RTVSPropertyOp51
 70
     0
102
RTVSPropertyOp52
 70
     0
102
RTVSPropertyOp53
 70
     1
102
RTVSPropertyOp54
 70
     1
102
RTVSPropertyOp55
 70
     1
102
RTVSPropertyOp56
 70
     1
102
RTVSPropertyOp57
 70
     1
102
RTVSPropertyOp58
 70
     1
102
RTVSPropertyOp59
 70
     1
102
RTVSPropertyOp60
 70
     1
102
RTVSPropertyOp61
 70
     1
102
RTVSPropertyOp62
 70
     1
  0
XRECORD
  5
42E
102
{ACAD_REACTORS
330
42D
102
}
330
42D
100
AcDbXrecord
280
     1
102
RTVSPost2010Prop28
280
     0
102
RTVSPost2010PropOp28
 70
     1
102
RTVSPost2010Prop29
280
     1
102
RTVSPost2010PropOp29
 70
     1
102
RTVSPost2010Prop30
280
     1
102
RTVSPost2010PropOp30
 70
     1
102
RTVSPost2010Prop31
280
     0
102
RTVSPost2010PropOp31
 70
     1
102
RTVSPost2010Prop32
280
     0
102
RTVSPost2010PropOp32
 70
     1
102
RTVSPost2010Prop33
280
     0
102
RTVSPost2010PropOp33
 70
     1
102
RTVSPost2010Prop34
280
     0
102
RTVSPost2010PropOp34
 70
     1
102
RTVSPost2010Prop35
280
     0
102
RTVSPost2010PropOp35
 70
     1
102
RTVSPost2010Prop36
280
     0
102
RTVSPost2010PropOp36
 70
     1
102
RTVSPost2010Prop37
 90
       50
102
RTVSPost2010PropOp37
 70
     1
102
RTVSPost2010Prop38
140
0.0
102
RTVSPost2010PropOp38
 70
     1
102
RTVSPost2010Prop39
140
1.0
102
RTVSPost2010PropOp39
 70
     1
102
RTVSPost2010Prop40
 90
        0
102
RTVSPost2010PropOp40
 70
     1
102
RTVSPost2010Prop41ColorIndex
 90
       18
102
RTVSPost2010Prop41ColorRGB
 90
        0
102
RTVSPost2010PropOp41
 70
     1
102
RTVSPost2010Prop42
 90
       50
102
RTVSPost2010PropOp42
 70
     1
102
RTVSPost2010Prop43
 90
        3
102
RTVSPost2010PropOp43
 70
     1
102
RTVSPost2010Prop44ColorIndex
 90
        5
102
RTVSPost2010Prop44ColorRGB
 90
      255
102
RTVSPost2010PropOp44
 70
     1
102
RTVSPost2010Prop45
280
     0
102
RTVSPost2010PropOp45
 70
     1
102
RTVSPost2010Prop46
 90
       50
102
RTVSPost2010PropOp46
 70
     1
102
RTVSPost2010Prop47
 90
       50
102
RTVSPost2010PropOp47
 70
     1
102
RTVSPost2010Prop48
 90
       50
102
RTVSPost2010PropOp48
 70
     1
102
RTVSPost2010Prop49
280
     0
102
RTVSPost2010PropOp49
 70
     1
102
RTVSPost2010Prop50
 90
       50
102
RTVSPost2010PropOp50
 70
     1
102
RTVSPost2010Prop51ColorIndex
 90
      256
102
RTVSPost2010Prop51ColorRGB
 90
-16777216
102
RTVSPost2010PropOp51
 70
     0
102
RTVSPost2010Prop52
140
1.0
102
RTVSPost2010PropOp52
 70
     0
102
RTVSPost2010Prop53
 90
        2
102
RTVSPost2010PropOp53
 70
     1
102
RTVSPost2010Prop54
  1
strokes_ogs.tif
102
RTVSPost2010PropOp54
 70
     1
102
RTVSPost2010Prop55
280
     0
102
RTVSPost2010PropOp55
 70
     1
102
RTVSPost2010Prop56
140
1.0
102
RTVSPost2010PropOp56
 70
     1
102
RTVSPost2010Prop57
140
1.0
102
RTVSPost2010PropOp57
 70
     1
102
RTVSPropertyOp0
 70
     1
102
RTVSPropertyOp1
 70
     1
102
RTVSPropertyOp2
 70
     1
102
RTVSPropertyOp3
 70
     1
102
RTVSPropertyOp4
 70
     1
102
RTVSPropertyOp5
 70
     1
102
RTVSPropertyOp6
 70
     1
102
RTVSPropertyOp7
 70
     1
102
RTVSPropertyOp8
 70
     1
102
RTVSPropertyOp9
 70
     1
102
RTVSPropertyOp10
 70
     1
102
RTVSPropertyOp11
 70
     1
102
RTVSPropertyOp12
 70
     1
102
RTVSPropertyOp13
 70
     1
102
RTVSPropertyOp14
 70
     1
102
RTVSPropertyOp15
 70
     1
102
RTVSPropertyOp16
 70
     1
102
RTVSPropertyOp17
 70
     1
102
RTVSPropertyOp18
 70
     1
102
RTVSPropertyOp19
 70
     1
102
RTVSPropertyOp20
 70
     1
102
RTVSPropertyOp21
 70
     1
102
RTVSPropertyOp22
 70
     1
102
RTVSPropertyOp23
 70
     1
102
RTVSPropertyOp24
 70
     1
102
RTVSPropertyOp25
 70
     1
102
RTVSPropertyOp26
 70
     1
102
RTVSPropertyOp27
 70
     1
102
RTVSPropertyOp28
 70
     1
102
RTVSPropertyOp29
 70
     1
102
RTVSPropertyOp30
 70
     1
102
RTVSPropertyOp31
 70
     1
102
RTVSPropertyOp32
 70
     1
102
RTVSPropertyOp33
 70
     1
102
RTVSPropertyOp34
 70
     1
102
RTVSPropertyOp35
 70
     1
102
RTVSPropertyOp36
 70
     1
102
RTVSPropertyOp37
 70
     1
102
RTVSPropertyOp38
 70
     1
102
RTVSPropertyOp39
 70
     1
102
RTVSPropertyOp40
 70
     1
102
RTVSPropertyOp41
 70
     1
102
RTVSPropertyOp42
 70
     1
102
RTVSPropertyOp43
 70
     1
102
RTVSPropertyOp44
 70
     1
102
RTVSPropertyOp45
 70
     1
102
RTVSPropertyOp46
 70
     1
102
RTVSPropertyOp47
 70
     1
102
RTVSPropertyOp48
 70
     1
102
RTVSPropertyOp49
 70
     1
102
RTVSPropertyOp50
 70
     1
102
RTVSPropertyOp51
 70
     0
102
RTVSPropertyOp52
 70
     0
102
RTVSPropertyOp53
 70
     1
102
RTVSPropertyOp54
 70
     1
102
RTVSPropertyOp55
 70
     1
102
RTVSPropertyOp56
 70
     1
102
RTVSPropertyOp57
 70
     1
102
RTVSPropertyOp58
 70
     1
102
RTVSPropertyOp59
 70
     1
102
RTVSPropertyOp60
 70
     1
102
RTVSPropertyOp61
 70
     1
102
RTVSPropertyOp62
 70
     1
  0
XRECORD
  5
430
102
{ACAD_REACTORS
330
42F
102
}
330
42F
100
AcDbXrecord
280
     1
102
RTVSPost2010Prop28
280
     0
102
RTVSPost2010PropOp28
 70
     1
102
RTVSPost2010Prop29
280
     1
102
RTVSPost2010PropOp29
 70
     1
102
RTVSPost2010Prop30
280
     1
102
RTVSPost2010PropOp30
 70
     1
102
RTVSPost2010Prop31
280
     0
102
RTVSPost2010PropOp31
 70
     1
102
RTVSPost2010Prop32
280
     0
102
RTVSPost2010PropOp32
 70
     1
102
RTVSPost2010Prop33
280
     0
102
RTVSPost2010PropOp33
 70
     1
102
RTVSPost2010Prop34
280
     0
102
RTVSPost2010PropOp34
 70
     1
102
RTVSPost2010Prop35
280
     0
102
RTVSPost2010PropOp35
 70
     1
102
RTVSPost2010Prop36
280
     0
102
RTVSPost2010PropOp36
 70
     1
102
RTVSPost2010Prop37
 90
       50
102
RTVSPost2010PropOp37
 70
     1
102
RTVSPost2010Prop38
140
0.0
102
RTVSPost2010PropOp38
 70
     1
102
RTVSPost2010Prop39
140
1.0
102
RTVSPost2010PropOp39
 70
     1
102
RTVSPost2010Prop40
 90
        0
102
RTVSPost2010PropOp40
 70
     1
102
RTVSPost2010Prop41ColorIndex
 90
       18
102
RTVSPost2010Prop41ColorRGB
 90
        0
102
RTVSPost2010PropOp41
 70
     1
102
RTVSPost2010Prop42
 90
       50
102
RTVSPost2010PropOp42
 70
     1
102
RTVSPost2010Prop43
 90
        3
102
RTVSPost2010PropOp43
 70
     1
102
RTVSPost2010Prop44ColorIndex
 90
        5
102
RTVSPost2010Prop44ColorRGB
 90
      255
102
RTVSPost2010PropOp44
 70
     1
102
RTVSPost2010Prop45
280
     0
102
RTVSPost2010PropOp45
 70
     1
102
RTVSPost2010Prop46
 90
       50
102
RTVSPost2010PropOp46
 70
     1
102
RTVSPost2010Prop47
 90
       50
102
RTVSPost2010PropOp47
 70
     1
102
RTVSPost2010Prop48
 90
       50
102
RTVSPost2010PropOp48
 70
     1
102
RTVSPost2010Prop49
280
     0
102
RTVSPost2010PropOp49
 70
     1
102
RTVSPost2010Prop50
 90
       50
102
RTVSPost2010PropOp50
 70
     1
102
RTVSPost2010Prop51ColorIndex
 90
      256
102
RTVSPost2010Prop51ColorRGB
 90
-16777216
102
RTVSPost2010PropOp51
 70
     0
102
RTVSPost2010Prop52
140
1.0
102
RTVSPost2010PropOp52
 70
     0
102
RTVSPost2010Prop53
 90
        2
102
RTVSPost2010PropOp53
 70
     1
102
RTVSPost2010Prop54
  1
strokes_ogs.tif
102
RTVSPost2010PropOp54
 70
     1
102
RTVSPost2010Prop55
280
     0
102
RTVSPost2010PropOp55
 70
     1
102
RTVSPost2010Prop56
140
1.0
102
RTVSPost2010PropOp56
 70
     1
102
RTVSPost2010Prop57
140
1.0
102
RTVSPost2010PropOp57
 70
     1
102
RTVSPropertyOp0
 70
     1
102
RTVSPropertyOp1
 70
     1
102
RTVSPropertyOp2
 70
     1
102
RTVSPropertyOp3
 70
     1
102
RTVSPropertyOp4
 70
     1
102
RTVSPropertyOp5
 70
     1
102
RTVSPropertyOp6
 70
     1
102
RTVSPropertyOp7
 70
     1
102
RTVSPropertyOp8
 70
     1
102
RTVSPropertyOp9
 70
     1
102
RTVSPropertyOp10
 70
     1
102
RTVSPropertyOp11
 70
     1
102
RTVSPropertyOp12
 70
     1
102
RTVSPropertyOp13
 70
     1
102
RTVSPropertyOp14
 70
     1
102
RTVSPropertyOp15
 70
     1
102
RTVSPropertyOp16
 70
     1
102
RTVSPropertyOp17
 70
     1
102
RTVSPropertyOp18
 70
     1
102
RTVSPropertyOp19
 70
     1
102
RTVSPropertyOp20
 70
     1
102
RTVSPropertyOp21
 70
     1
102
RTVSPropertyOp22
 70
     1
102
RTVSPropertyOp23
 70
     1
102
RTVSPropertyOp24
 70
     1
102
RTVSPropertyOp25
 70
     1
102
RTVSPropertyOp26
 70
     1
102
RTVSPropertyOp27
 70
     1
102
RTVSPropertyOp28
 70
     1
102
RTVSPropertyOp29
 70
     1
102
RTVSPropertyOp30
 70
     1
102
RTVSPropertyOp31
 70
     1
102
RTVSPropertyOp32
 70
     1
102
RTVSPropertyOp33
 70
     1
102
RTVSPropertyOp34
 70
     1
102
RTVSPropertyOp35
 70
     1
102
RTVSPropertyOp36
 70
     1
102
RTVSPropertyOp37
 70
     1
102
RTVSPropertyOp38
 70
     1
102
RTVSPropertyOp39
 70
     1
102
RTVSPropertyOp40
 70
     1
102
RTVSPropertyOp41
 70
     1
102
RTVSPropertyOp42
 70
     1
102
RTVSPropertyOp43
 70
     1
102
RTVSPropertyOp44
 70
     1
102
RTVSPropertyOp45
 70
     1
102
RTVSPropertyOp46
 70
     1
102
RTVSPropertyOp47
 70
     1
102
RTVSPropertyOp48
 70
     1
102
RTVSPropertyOp49
 70
     1
102
RTVSPropertyOp50
 70
     1
102
RTVSPropertyOp51
 70
     0
102
RTVSPropertyOp52
 70
     0
102
RTVSPropertyOp53
 70
     1
102
RTVSPropertyOp54
 70
     1
102
RTVSPropertyOp55
 70
     1
102
RTVSPropertyOp56
 70
     1
102
RTVSPropertyOp57
 70
     1
102
RTVSPropertyOp58
 70
     1
102
RTVSPropertyOp59
 70
     1
102
RTVSPropertyOp60
 70
     1
102
RTVSPropertyOp61
 70
     1
102
RTVSPropertyOp62
 70
     1
  0
XRECORD
  5
432
102
{ACAD_REACTORS
330
431
102
}
330
431
100
AcDbXrecord
280
     1
102
RTVSPost2010Prop28
280
     0
102
RTVSPost2010PropOp28
 70
     1
102
RTVSPost2010Prop29
280
     1
102
RTVSPost2010PropOp29
 70
     1
102
RTVSPost2010Prop30
280
     1
102
RTVSPost2010PropOp30
 70
     1
102
RTVSPost2010Prop31
280
     0
102
RTVSPost2010PropOp31
 70
     1
102
RTVSPost2010Prop32
280
     0
102
RTVSPost2010PropOp32
 70
     1
102
RTVSPost2010Prop33
280
     0
102
RTVSPost2010PropOp33
 70
     1
102
RTVSPost2010Prop34
280
     0
102
RTVSPost2010PropOp34
 70
     1
102
RTVSPost2010Prop35
280
     0
102
RTVSPost2010PropOp35
 70
     1
102
RTVSPost2010Prop36
280
     0
102
RTVSPost2010PropOp36
 70
     1
102
RTVSPost2010Prop37
 90
       50
102
RTVSPost2010PropOp37
 70
     1
102
RTVSPost2010Prop38
140
0.0
102
RTVSPost2010PropOp38
 70
     1
102
RTVSPost2010Prop39
140
1.0
102
RTVSPost2010PropOp39
 70
     1
102
RTVSPost2010Prop40
 90
        0
102
RTVSPost2010PropOp40
 70
     1
102
RTVSPost2010Prop41ColorIndex
 90
       18
102
RTVSPost2010Prop41ColorRGB
 90
        0
102
RTVSPost2010PropOp41
 70
     1
102
RTVSPost2010Prop42
 90
       50
102
RTVSPost2010PropOp42
 70
     1
102
RTVSPost2010Prop43
 90
        3
102
RTVSPost2010PropOp43
 70
     1
102
RTVSPost2010Prop44ColorIndex
 90
        5
102
RTVSPost2010Prop44ColorRGB
 90
      255
102
RTVSPost2010PropOp44
 70
     1
102
RTVSPost2010Prop45
280
     0
102
RTVSPost2010PropOp45
 70
     1
102
RTVSPost2010Prop46
 90
       50
102
RTVSPost2010PropOp46
 70
     1
102
RTVSPost2010Prop47
 90
       50
102
RTVSPost2010PropOp47
 70
     1
102
RTVSPost2010Prop48
 90
       50
102
RTVSPost2010PropOp48
 70
     1
102
RTVSPost2010Prop49
280
     0
102
RTVSPost2010PropOp49
 70
     1
102
RTVSPost2010Prop50
 90
       50
102
RTVSPost2010PropOp50
 70
     1
102
RTVSPost2010Prop51ColorIndex
 90
      256
102
RTVSPost2010Prop51ColorRGB
 90
-16777216
102
RTVSPost2010PropOp51
 70
     0
102
RTVSPost2010Prop52
140
1.0
102
RTVSPost2010PropOp52
 70
     0
102
RTVSPost2010Prop53
 90
        2
102
RTVSPost2010PropOp53
 70
     1
102
RTVSPost2010Prop54
  1
strokes_ogs.tif
102
RTVSPost2010PropOp54
 70
     1
102
RTVSPost2010Prop55
280
     0
102
RTVSPost2010PropOp55
 70
     1
102
RTVSPost2010Prop56
140
1.0
102
RTVSPost2010PropOp56
 70
     1
102
RTVSPost2010Prop57
140
1.0
102
RTVSPost2010PropOp57
 70
     1
102
RTVSPropertyOp0
 70
     1
102
RTVSPropertyOp1
 70
     1
102
RTVSPropertyOp2
 70
     1
102
RTVSPropertyOp3
 70
     1
102
RTVSPropertyOp4
 70
     1
102
RTVSPropertyOp5
 70
     1
102
RTVSPropertyOp6
 70
     1
102
RTVSPropertyOp7
 70
     1
102
RTVSPropertyOp8
 70
     1
102
RTVSPropertyOp9
 70
     1
102
RTVSPropertyOp10
 70
     1
102
RTVSPropertyOp11
 70
     1
102
RTVSPropertyOp12
 70
     1
102
RTVSPropertyOp13
 70
     1
102
RTVSPropertyOp14
 70
     1
102
RTVSPropertyOp15
 70
     1
102
RTVSPropertyOp16
 70
     1
102
RTVSPropertyOp17
 70
     1
102
RTVSPropertyOp18
 70
     1
102
RTVSPropertyOp19
 70
     1
102
RTVSPropertyOp20
 70
     1
102
RTVSPropertyOp21
 70
     1
102
RTVSPropertyOp22
 70
     1
102
RTVSPropertyOp23
 70
     1
102
RTVSPropertyOp24
 70
     1
102
RTVSPropertyOp25
 70
     1
102
RTVSPropertyOp26
 70
     1
102
RTVSPropertyOp27
 70
     1
102
RTVSPropertyOp28
 70
     1
102
RTVSPropertyOp29
 70
     1
102
RTVSPropertyOp30
 70
     1
102
RTVSPropertyOp31
 70
     1
102
RTVSPropertyOp32
 70
     1
102
RTVSPropertyOp33
 70
     1
102
RTVSPropertyOp34
 70
     1
102
RTVSPropertyOp35
 70
     1
102
RTVSPropertyOp36
 70
     1
102
RTVSPropertyOp37
 70
     1
102
RTVSPropertyOp38
 70
     1
102
RTVSPropertyOp39
 70
     1
102
RTVSPropertyOp40
 70
     1
102
RTVSPropertyOp41
 70
     1
102
RTVSPropertyOp42
 70
     1
102
RTVSPropertyOp43
 70
     1
102
RTVSPropertyOp44
 70
     1
102
RTVSPropertyOp45
 70
     1
102
RTVSPropertyOp46
 70
     1
102
RTVSPropertyOp47
 70
     1
102
RTVSPropertyOp48
 70
     1
102
RTVSPropertyOp49
 70
     1
102
RTVSPropertyOp50
 70
     1
102
RTVSPropertyOp51
 70
     0
102
RTVSPropertyOp52
 70
     0
102
RTVSPropertyOp53
 70
     1
102
RTVSPropertyOp54
 70
     1
102
RTVSPropertyOp55
 70
     1
102
RTVSPropertyOp56
 70
     1
102
RTVSPropertyOp57
 70
     1
102
RTVSPropertyOp58
 70
     1
102
RTVSPropertyOp59
 70
     1
102
RTVSPropertyOp60
 70
     1
102
RTVSPropertyOp61
 70
     1
102
RTVSPropertyOp62
 70
     1
  0
XRECORD
  5
43A
102
{ACAD_REACTORS
330
439
102
}
330
439
100
AcDbXrecord
280
     1
102
RTVSPost2010Prop28
280
     0
102
RTVSPost2010PropOp28
 70
     1
102
RTVSPost2010Prop29
280
     1
102
RTVSPost2010PropOp29
 70
     1
102
RTVSPost2010Prop30
280
     1
102
RTVSPost2010PropOp30
 70
     1
102
RTVSPost2010Prop31
280
     0
102
RTVSPost2010PropOp31
 70
     1
102
RTVSPost2010Prop32
280
     0
102
RTVSPost2010PropOp32
 70
     1
102
RTVSPost2010Prop33
280
     0
102
RTVSPost2010PropOp33
 70
     1
102
RTVSPost2010Prop34
280
     0
102
RTVSPost2010PropOp34
 70
     1
102
RTVSPost2010Prop35
280
     0
102
RTVSPost2010PropOp35
 70
     1
102
RTVSPost2010Prop36
280
     0
102
RTVSPost2010PropOp36
 70
     1
102
RTVSPost2010Prop37
 90
       50
102
RTVSPost2010PropOp37
 70
     1
102
RTVSPost2010Prop38
140
0.0
102
RTVSPost2010PropOp38
 70
     1
102
RTVSPost2010Prop39
140
1.0
102
RTVSPost2010PropOp39
 70
     1
102
RTVSPost2010Prop40
 90
        0
102
RTVSPost2010PropOp40
 70
     1
102
RTVSPost2010Prop41ColorIndex
 90
       18
102
RTVSPost2010Prop41ColorRGB
 90
        0
102
RTVSPost2010PropOp41
 70
     1
102
RTVSPost2010Prop42
 90
       50
102
RTVSPost2010PropOp42
 70
     1
102
RTVSPost2010Prop43
 90
        3
102
RTVSPost2010PropOp43
 70
     1
102
RTVSPost2010Prop44ColorIndex
 90
        5
102
RTVSPost2010Prop44ColorRGB
 90
      255
102
RTVSPost2010PropOp44
 70
     1
102
RTVSPost2010Prop45
280
     0
102
RTVSPost2010PropOp45
 70
     1
102
RTVSPost2010Prop46
 90
       50
102
RTVSPost2010PropOp46
 70
     1
102
RTVSPost2010Prop47
 90
       50
102
RTVSPost2010PropOp47
 70
     1
102
RTVSPost2010Prop48
 90
       50
102
RTVSPost2010PropOp48
 70
     1
102
RTVSPost2010Prop49
280
     0
102
RTVSPost2010PropOp49
 70
     1
102
RTVSPost2010Prop50
 90
       50
102
RTVSPost2010PropOp50
 70
     1
102
RTVSPost2010Prop51ColorIndex
 90
      256
102
RTVSPost2010Prop51ColorRGB
 90
-16777216
102
RTVSPost2010PropOp51
 70
     0
102
RTVSPost2010Prop52
140
1.0
102
RTVSPost2010PropOp52
 70
     0
102
RTVSPost2010Prop53
 90
        2
102
RTVSPost2010PropOp53
 70
     1
102
RTVSPost2010Prop54
  1
strokes_ogs.tif
102
RTVSPost2010PropOp54
 70
     1
102
RTVSPost2010Prop55
280
     0
102
RTVSPost2010PropOp55
 70
     1
102
RTVSPost2010Prop56
140
1.0
102
RTVSPost2010PropOp56
 70
     1
102
RTVSPost2010Prop57
140
1.0
102
RTVSPost2010PropOp57
 70
     1
102
RTVSPropertyOp0
 70
     1
102
RTVSPropertyOp1
 70
     1
102
RTVSPropertyOp2
 70
     1
102
RTVSPropertyOp3
 70
     1
102
RTVSPropertyOp4
 70
     1
102
RTVSPropertyOp5
 70
     1
102
RTVSPropertyOp6
 70
     1
102
RTVSPropertyOp7
 70
     1
102
RTVSPropertyOp8
 70
     1
102
RTVSPropertyOp9
 70
     1
102
RTVSPropertyOp10
 70
     1
102
RTVSPropertyOp11
 70
     1
102
RTVSPropertyOp12
 70
     1
102
RTVSPropertyOp13
 70
     1
102
RTVSPropertyOp14
 70
     1
102
RTVSPropertyOp15
 70
     1
102
RTVSPropertyOp16
 70
     1
102
RTVSPropertyOp17
 70
     1
102
RTVSPropertyOp18
 70
     1
102
RTVSPropertyOp19
 70
     1
102
RTVSPropertyOp20
 70
     1
102
RTVSPropertyOp21
 70
     1
102
RTVSPropertyOp22
 70
     1
102
RTVSPropertyOp23
 70
     1
102
RTVSPropertyOp24
 70
     1
102
RTVSPropertyOp25
 70
     1
102
RTVSPropertyOp26
 70
     1
102
RTVSPropertyOp27
 70
     1
102
RTVSPropertyOp28
 70
     1
102
RTVSPropertyOp29
 70
     1
102
RTVSPropertyOp30
 70
     1
102
RTVSPropertyOp31
 70
     1
102
RTVSPropertyOp32
 70
     1
102
RTVSPropertyOp33
 70
     1
102
RTVSPropertyOp34
 70
     1
102
RTVSPropertyOp35
 70
     1
102
RTVSPropertyOp36
 70
     1
102
RTVSPropertyOp37
 70
     1
102
RTVSPropertyOp38
 70
     1
102
RTVSPropertyOp39
 70
     1
102
RTVSPropertyOp40
 70
     1
102
RTVSPropertyOp41
 70
     1
102
RTVSPropertyOp42
 70
     1
102
RTVSPropertyOp43
 70
     1
102
RTVSPropertyOp44
 70
     1
102
RTVSPropertyOp45
 70
     1
102
RTVSPropertyOp46
 70
     1
102
RTVSPropertyOp47
 70
     1
102
RTVSPropertyOp48
 70
     1
102
RTVSPropertyOp49
 70
     1
102
RTVSPropertyOp50
 70
     1
102
RTVSPropertyOp51
 70
     0
102
RTVSPropertyOp52
 70
     0
102
RTVSPropertyOp53
 70
     1
102
RTVSPropertyOp54
 70
     1
102
RTVSPropertyOp55
 70
     1
102
RTVSPropertyOp56
 70
     1
102
RTVSPropertyOp57
 70
     1
102
RTVSPropertyOp58
 70
     1
102
RTVSPropertyOp59
 70
     1
102
RTVSPropertyOp60
 70
     1
102
RTVSPropertyOp61
 70
     1
102
RTVSPropertyOp62
 70
     1
  0
XRECORD
  5
456
102
{ACAD_REACTORS
330
455
102
}
330
455
100
AcDbXrecord
280
     1
102
RTVSPost2010Prop28
280
     0
102
RTVSPost2010PropOp28
 70
     1
102
RTVSPost2010Prop29
280
     1
102
RTVSPost2010PropOp29
 70
     1
102
RTVSPost2010Prop30
280
     1
102
RTVSPost2010PropOp30
 70
     1
102
RTVSPost2010Prop31
280
     0
102
RTVSPost2010PropOp31
 70
     1
102
RTVSPost2010Prop32
280
     0
102
RTVSPost2010PropOp32
 70
     1
102
RTVSPost2010Prop33
280
     0
102
RTVSPost2010PropOp33
 70
     1
102
RTVSPost2010Prop34
280
     0
102
RTVSPost2010PropOp34
 70
     1
102
RTVSPost2010Prop35
280
     0
102
RTVSPost2010PropOp35
 70
     1
102
RTVSPost2010Prop36
280
     0
102
RTVSPost2010PropOp36
 70
     1
102
RTVSPost2010Prop37
 90
       50
102
RTVSPost2010PropOp37
 70
     0
102
RTVSPost2010Prop38
140
0.0
102
RTVSPost2010PropOp38
 70
     0
102
RTVSPost2010Prop39
140
1.0
102
RTVSPost2010PropOp39
 70
     0
102
RTVSPost2010Prop40
 90
        0
102
RTVSPost2010PropOp40
 70
     0
102
RTVSPost2010Prop41ColorIndex
 90
       18
102
RTVSPost2010Prop41ColorRGB
 90
        0
102
RTVSPost2010PropOp41
 70
     0
102
RTVSPost2010Prop42
 90
       50
102
RTVSPost2010PropOp42
 70
     0
102
RTVSPost2010Prop43
 90
        3
102
RTVSPost2010PropOp43
 70
     0
102
RTVSPost2010Prop44ColorIndex
 90
        5
102
RTVSPost2010Prop44ColorRGB
 90
      255
102
RTVSPost2010PropOp44
 70
     0
102
RTVSPost2010Prop45
280
     0
102
RTVSPost2010PropOp45
 70
     1
102
RTVSPost2010Prop46
 90
       50
102
RTVSPost2010PropOp46
 70
     0
102
RTVSPost2010Prop47
 90
       50
102
RTVSPost2010PropOp47
 70
     0
102
RTVSPost2010Prop48
 90
       50
102
RTVSPost2010PropOp48
 70
     0
102
RTVSPost2010Prop49
280
     0
102
RTVSPost2010PropOp49
 70
     1
102
RTVSPost2010Prop50
 90
       50
102
RTVSPost2010PropOp50
 70
     0
102
RTVSPost2010Prop51ColorIndex
 90
      256
102
RTVSPost2010Prop51ColorRGB
 90
-16777216
102
RTVSPost2010PropOp51
 70
     0
102
RTVSPost2010Prop52
140
1.0
102
RTVSPost2010PropOp52
 70
     0
102
RTVSPost2010Prop53
 90
        2
102
RTVSPost2010PropOp53
 70
     0
102
RTVSPost2010Prop54
  1
strokes_ogs.tif
102
RTVSPost2010PropOp54
 70
     0
102
RTVSPost2010Prop55
280
     0
102
RTVSPost2010PropOp55
 70
     1
102
RTVSPost2010Prop56
140
1.0
102
RTVSPost2010PropOp56
 70
     0
102
RTVSPost2010Prop57
140
1.0
102
RTVSPost2010PropOp57
 70
     0
102
RTVSPropertyOp0
 70
     0
102
RTVSPropertyOp1
 70
     0
102
RTVSPropertyOp2
 70
     0
102
RTVSPropertyOp3
 70
     0
102
RTVSPropertyOp4
 70
     0
102
RTVSPropertyOp5
 70
     0
102
RTVSPropertyOp6
 70
     0
102
RTVSPropertyOp7
 70
     0
102
RTVSPropertyOp8
 70
     0
102
RTVSPropertyOp9
 70
     0
102
RTVSPropertyOp10
 70
     0
102
RTVSPropertyOp11
 70
     0
102
RTVSPropertyOp12
 70
     0
102
RTVSPropertyOp13
 70
     0
102
RTVSPropertyOp14
 70
     2
102
RTVSPropertyOp15
 70
     0
102
RTVSPropertyOp16
 70
     0
102
RTVSPropertyOp17
 70
     0
102
RTVSPropertyOp18
 70
     0
102
RTVSPropertyOp19
 70
     0
102
RTVSPropertyOp20
 70
     0
102
RTVSPropertyOp21
 70
     0
102
RTVSPropertyOp22
 70
     0
102
RTVSPropertyOp23
 70
     0
102
RTVSPropertyOp24
 70
     0
102
RTVSPropertyOp25
 70
     0
102
RTVSPropertyOp26
 70
     0
102
RTVSPropertyOp27
 70
     0
102
RTVSPropertyOp28
 70
     1
102
RTVSPropertyOp29
 70
     1
102
RTVSPropertyOp30
 70
     1
102
RTVSPropertyOp31
 70
     1
102
RTVSPropertyOp32
 70
     1
102
RTVSPropertyOp33
 70
     1
102
RTVSPropertyOp34
 70
     1
102
RTVSPropertyOp35
 70
     1
102
RTVSPropertyOp36
 70
     1
102
RTVSPropertyOp37
 70
     0
102
RTVSPropertyOp38
 70
     0
102
RTVSPropertyOp39
 70
     0
102
RTVSPropertyOp40
 70
     0
102
RTVSPropertyOp41
 70
     0
102
RTVSPropertyOp42
 70
     0
102
RTVSPropertyOp43
 70
     0
102
RTVSPropertyOp44
 70
     0
102
RTVSPropertyOp45
 70
     1
102
RTVSPropertyOp46
 70
     0
102
RTVSPropertyOp47
 70
     0
102
RTVSPropertyOp48
 70
     0
102
RTVSPropertyOp49
 70
     1
102
RTVSPropertyOp50
 70
     0
102
RTVSPropertyOp51
 70
     0
102
RTVSPropertyOp52
 70
     0
102
RTVSPropertyOp53
 70
     0
102
RTVSPropertyOp54
 70
     0
102
RTVSPropertyOp55
 70
     1
102
RTVSPropertyOp56
 70
     0
102
RTVSPropertyOp57
 70
     0
102
RTVSPropertyOp58
 70
     0
102
RTVSPropertyOp59
 70
     0
102
RTVSPropertyOp60
 70
     0
102
RTVSPropertyOp61
 70
     0
102
RTVSPropertyOp62
 70
     0
  0
XRECORD
  5
446
102
{ACAD_REACTORS
330
445
102
}
330
445
100
AcDbXrecord
280
     1
102
RTVSPost2010Prop28
280
     0
102
RTVSPost2010PropOp28
 70
     1
102
RTVSPost2010Prop29
280
     1
102
RTVSPost2010PropOp29
 70
     1
102
RTVSPost2010Prop30
280
     1
102
RTVSPost2010PropOp30
 70
     1
102
RTVSPost2010Prop31
280
     0
102
RTVSPost2010PropOp31
 70
     1
102
RTVSPost2010Prop32
280
     0
102
RTVSPost2010PropOp32
 70
     1
102
RTVSPost2010Prop33
280
     0
102
RTVSPost2010PropOp33
 70
     1
102
RTVSPost2010Prop34
280
     0
102
RTVSPost2010PropOp34
 70
     1
102
RTVSPost2010Prop35
280
     0
102
RTVSPost2010PropOp35
 70
     1
102
RTVSPost2010Prop36
280
     0
102
RTVSPost2010PropOp36
 70
     1
102
RTVSPost2010Prop37
 90
       50
102
RTVSPost2010PropOp37
 70
     1
102
RTVSPost2010Prop38
140
0.0
102
RTVSPost2010PropOp38
 70
     1
102
RTVSPost2010Prop39
140
1.0
102
RTVSPost2010PropOp39
 70
     1
102
RTVSPost2010Prop40
 90
        0
102
RTVSPost2010PropOp40
 70
     1
102
RTVSPost2010Prop41ColorIndex
 90
       18
102
RTVSPost2010Prop41ColorRGB
 90
        0
102
RTVSPost2010PropOp41
 70
     1
102
RTVSPost2010Prop42
 90
       50
102
RTVSPost2010PropOp42
 70
     1
102
RTVSPost2010Prop43
 90
        3
102
RTVSPost2010PropOp43
 70
     1
102
RTVSPost2010Prop44ColorIndex
 90
        5
102
RTVSPost2010Prop44ColorRGB
 90
      255
102
RTVSPost2010PropOp44
 70
     1
102
RTVSPost2010Prop45
280
     0
102
RTVSPost2010PropOp45
 70
     1
102
RTVSPost2010Prop46
 90
       50
102
RTVSPost2010PropOp46
 70
     1
102
RTVSPost2010Prop47
 90
       50
102
RTVSPost2010PropOp47
 70
     1
102
RTVSPost2010Prop48
 90
       50
102
RTVSPost2010PropOp48
 70
     1
102
RTVSPost2010Prop49
280
     0
102
RTVSPost2010PropOp49
 70
     1
102
RTVSPost2010Prop50
 90
       50
102
RTVSPost2010PropOp50
 70
     1
102
RTVSPost2010Prop51ColorIndex
 90
      256
102
RTVSPost2010Prop51ColorRGB
 90
-16777216
102
RTVSPost2010PropOp51
 70
     0
102
RTVSPost2010Prop52
140
1.0
102
RTVSPost2010PropOp52
 70
     0
102
RTVSPost2010Prop53
 90
        2
102
RTVSPost2010PropOp53
 70
     1
102
RTVSPost2010Prop54
  1
strokes_ogs.tif
102
RTVSPost2010PropOp54
 70
     1
102
RTVSPost2010Prop55
280
     0
102
RTVSPost2010PropOp55
 70
     1
102
RTVSPost2010Prop56
140
1.0
102
RTVSPost2010PropOp56
 70
     1
102
RTVSPost2010Prop57
140
1.0
102
RTVSPost2010PropOp57
 70
     1
102
RTVSPropertyOp0
 70
     1
102
RTVSPropertyOp1
 70
     1
102
RTVSPropertyOp2
 70
     1
102
RTVSPropertyOp3
 70
     1
102
RTVSPropertyOp4
 70
     1
102
RTVSPropertyOp5
 70
     1
102
RTVSPropertyOp6
 70
     1
102
RTVSPropertyOp7
 70
     1
102
RTVSPropertyOp8
 70
     1
102
RTVSPropertyOp9
 70
     1
102
RTVSPropertyOp10
 70
     1
102
RTVSPropertyOp11
 70
     1
102
RTVSPropertyOp12
 70
     1
102
RTVSPropertyOp13
 70
     1
102
RTVSPropertyOp14
 70
     1
102
RTVSPropertyOp15
 70
     1
102
RTVSPropertyOp16
 70
     1
102
RTVSPropertyOp17
 70
     1
102
RTVSPropertyOp18
 70
     1
102
RTVSPropertyOp19
 70
     1
102
RTVSPropertyOp20
 70
     1
102
RTVSPropertyOp21
 70
     1
102
RTVSPropertyOp22
 70
     1
102
RTVSPropertyOp23
 70
     1
102
RTVSPropertyOp24
 70
     1
102
RTVSPropertyOp25
 70
     1
102
RTVSPropertyOp26
 70
     1
102
RTVSPropertyOp27
 70
     1
102
RTVSPropertyOp28
 70
     1
102
RTVSPropertyOp29
 70
     1
102
RTVSPropertyOp30
 70
     1
102
RTVSPropertyOp31
 70
     1
102
RTVSPropertyOp32
 70
     1
102
RTVSPropertyOp33
 70
     1
102
RTVSPropertyOp34
 70
     1
102
RTVSPropertyOp35
 70
     1
102
RTVSPropertyOp36
 70
     1
102
RTVSPropertyOp37
 70
     1
102
RTVSPropertyOp38
 70
     1
102
RTVSPropertyOp39
 70
     1
102
RTVSPropertyOp40
 70
     1
102
RTVSPropertyOp41
 70
     1
102
RTVSPropertyOp42
 70
     1
102
RTVSPropertyOp43
 70
     1
102
RTVSPropertyOp44
 70
     1
102
RTVSPropertyOp45
 70
     1
102
RTVSPropertyOp46
 70
     1
102
RTVSPropertyOp47
 70
     1
102
RTVSPropertyOp48
 70
     1
102
RTVSPropertyOp49
 70
     1
102
RTVSPropertyOp50
 70
     1
102
RTVSPropertyOp51
 70
     0
102
RTVSPropertyOp52
 70
     0
102
RTVSPropertyOp53
 70
     1
102
RTVSPropertyOp54
 70
     1
102
RTVSPropertyOp55
 70
     1
102
RTVSPropertyOp56
 70
     1
102
RTVSPropertyOp57
 70
     1
102
RTVSPropertyOp58
 70
     1
102
RTVSPropertyOp59
 70
     1
102
RTVSPropertyOp60
 70
     1
102
RTVSPropertyOp61
 70
     1
102
RTVSPropertyOp62
 70
     1
  0
XRECORD
  5
458
102
{ACAD_REACTORS
330
457
102
}
330
457
100
AcDbXrecord
280
     1
102
RTVSPost2010Prop28
280
     0
102
RTVSPost2010PropOp28
 70
     1
102
RTVSPost2010Prop29
280
     1
102
RTVSPost2010PropOp29
 70
     1
102
RTVSPost2010Prop30
280
     1
102
RTVSPost2010PropOp30
 70
     1
102
RTVSPost2010Prop31
280
     0
102
RTVSPost2010PropOp31
 70
     1
102
RTVSPost2010Prop32
280
     0
102
RTVSPost2010PropOp32
 70
     1
102
RTVSPost2010Prop33
280
     0
102
RTVSPost2010PropOp33
 70
     1
102
RTVSPost2010Prop34
280
     0
102
RTVSPost2010PropOp34
 70
     1
102
RTVSPost2010Prop35
280
     0
102
RTVSPost2010PropOp35
 70
     1
102
RTVSPost2010Prop36
280
     0
102
RTVSPost2010PropOp36
 70
     1
102
RTVSPost2010Prop37
 90
       50
102
RTVSPost2010PropOp37
 70
     0
102
RTVSPost2010Prop38
140
0.0
102
RTVSPost2010PropOp38
 70
     0
102
RTVSPost2010Prop39
140
1.0
102
RTVSPost2010PropOp39
 70
     0
102
RTVSPost2010Prop40
 90
        0
102
RTVSPost2010PropOp40
 70
     0
102
RTVSPost2010Prop41ColorIndex
 90
       18
102
RTVSPost2010Prop41ColorRGB
 90
        0
102
RTVSPost2010PropOp41
 70
     0
102
RTVSPost2010Prop42
 90
       50
102
RTVSPost2010PropOp42
 70
     0
102
RTVSPost2010Prop43
 90
        3
102
RTVSPost2010PropOp43
 70
     0
102
RTVSPost2010Prop44ColorIndex
 90
        5
102
RTVSPost2010Prop44ColorRGB
 90
      255
102
RTVSPost2010PropOp44
 70
     0
102
RTVSPost2010Prop45
280
     0
102
RTVSPost2010PropOp45
 70
     1
102
RTVSPost2010Prop46
 90
       50
102
RTVSPost2010PropOp46
 70
     0
102
RTVSPost2010Prop47
 90
       50
102
RTVSPost2010PropOp47
 70
     0
102
RTVSPost2010Prop48
 90
       50
102
RTVSPost2010PropOp48
 70
     0
102
RTVSPost2010Prop49
280
     0
102
RTVSPost2010PropOp49
 70
     1
102
RTVSPost2010Prop50
 90
       50
102
RTVSPost2010PropOp50
 70
     0
102
RTVSPost2010Prop51ColorIndex
 90
      256
102
RTVSPost2010Prop51ColorRGB
 90
-16777216
102
RTVSPost2010PropOp51
 70
     0
102
RTVSPost2010Prop52
140
1.0
102
RTVSPost2010PropOp52
 70
     0
102
RTVSPost2010Prop53
 90
        2
102
RTVSPost2010PropOp53
 70
     0
102
RTVSPost2010Prop54
  1
strokes_ogs.tif
102
RTVSPost2010PropOp54
 70
     0
102
RTVSPost2010Prop55
280
     0
102
RTVSPost2010PropOp55
 70
     1
102
RTVSPost2010Prop56
140
1.0
102
RTVSPost2010PropOp56
 70
     0
102
RTVSPost2010Prop57
140
1.0
102
RTVSPost2010PropOp57
 70
     0
102
RTVSPropertyOp0
 70
     0
102
RTVSPropertyOp1
 70
     0
102
RTVSPropertyOp2
 70
     0
102
RTVSPropertyOp3
 70
     0
102
RTVSPropertyOp4
 70
     0
102
RTVSPropertyOp5
 70
     0
102
RTVSPropertyOp6
 70
     0
102
RTVSPropertyOp7
 70
     0
102
RTVSPropertyOp8
 70
     0
102
RTVSPropertyOp9
 70
     0
102
RTVSPropertyOp10
 70
     0
102
RTVSPropertyOp11
 70
     0
102
RTVSPropertyOp12
 70
     0
102
RTVSPropertyOp13
 70
     0
102
RTVSPropertyOp14
 70
     2
102
RTVSPropertyOp15
 70
     0
102
RTVSPropertyOp16
 70
     0
102
RTVSPropertyOp17
 70
     0
102
RTVSPropertyOp18
 70
     0
102
RTVSPropertyOp19
 70
     0
102
RTVSPropertyOp20
 70
     0
102
RTVSPropertyOp21
 70
     0
102
RTVSPropertyOp22
 70
     0
102
RTVSPropertyOp23
 70
     0
102
RTVSPropertyOp24
 70
     0
102
RTVSPropertyOp25
 70
     0
102
RTVSPropertyOp26
 70
     0
102
RTVSPropertyOp27
 70
     0
102
RTVSPropertyOp28
 70
     1
102
RTVSPropertyOp29
 70
     1
102
RTVSPropertyOp30
 70
     1
102
RTVSPropertyOp31
 70
     1
102
RTVSPropertyOp32
 70
     1
102
RTVSPropertyOp33
 70
     1
102
RTVSPropertyOp34
 70
     1
102
RTVSPropertyOp35
 70
     1
102
RTVSPropertyOp36
 70
     1
102
RTVSPropertyOp37
 70
     0
102
RTVSPropertyOp38
 70
     0
102
RTVSPropertyOp39
 70
     0
102
RTVSPropertyOp40
 70
     0
102
RTVSPropertyOp41
 70
     0
102
RTVSPropertyOp42
 70
     0
102
RTVSPropertyOp43
 70
     0
102
RTVSPropertyOp44
 70
     0
102
RTVSPropertyOp45
 70
     1
102
RTVSPropertyOp46
 70
     0
102
RTVSPropertyOp47
 70
     0
102
RTVSPropertyOp48
 70
     0
102
RTVSPropertyOp49
 70
     1
102
RTVSPropertyOp50
 70
     0
102
RTVSPropertyOp51
 70
     0
102
RTVSPropertyOp52
 70
     0
102
RTVSPropertyOp53
 70
     0
102
RTVSPropertyOp54
 70
     0
102
RTVSPropertyOp55
 70
     1
102
RTVSPropertyOp56
 70
     0
102
RTVSPropertyOp57
 70
     0
102
RTVSPropertyOp58
 70
     0
102
RTVSPropertyOp59
 70
     0
102
RTVSPropertyOp60
 70
     0
102
RTVSPropertyOp61
 70
     0
102
RTVSPropertyOp62
 70
     0
  0
XRECORD
  5
43E
102
{ACAD_REACTORS
330
43D
102
}
330
43D
100
AcDbXrecord
280
     1
102
RTVSPost2010Prop28
280
     0
102
RTVSPost2010PropOp28
 70
     1
102
RTVSPost2010Prop29
280
     1
102
RTVSPost2010PropOp29
 70
     1
102
RTVSPost2010Prop30
280
     1
102
RTVSPost2010PropOp30
 70
     1
102
RTVSPost2010Prop31
280
     0
102
RTVSPost2010PropOp31
 70
     1
102
RTVSPost2010Prop32
280
     0
102
RTVSPost2010PropOp32
 70
     1
102
RTVSPost2010Prop33
280
     0
102
RTVSPost2010PropOp33
 70
     1
102
RTVSPost2010Prop34
280
     0
102
RTVSPost2010PropOp34
 70
     1
102
RTVSPost2010Prop35
280
     0
102
RTVSPost2010PropOp35
 70
     1
102
RTVSPost2010Prop36
280
     0
102
RTVSPost2010PropOp36
 70
     1
102
RTVSPost2010Prop37
 90
       50
102
RTVSPost2010PropOp37
 70
     1
102
RTVSPost2010Prop38
140
0.0
102
RTVSPost2010PropOp38
 70
     1
102
RTVSPost2010Prop39
140
1.0
102
RTVSPost2010PropOp39
 70
     1
102
RTVSPost2010Prop40
 90
        0
102
RTVSPost2010PropOp40
 70
     1
102
RTVSPost2010Prop41ColorIndex
 90
       18
102
RTVSPost2010Prop41ColorRGB
 90
        0
102
RTVSPost2010PropOp41
 70
     1
102
RTVSPost2010Prop42
 90
       50
102
RTVSPost2010PropOp42
 70
     1
102
RTVSPost2010Prop43
 90
        3
102
RTVSPost2010PropOp43
 70
     1
102
RTVSPost2010Prop44ColorIndex
 90
        5
102
RTVSPost2010Prop44ColorRGB
 90
      255
102
RTVSPost2010PropOp44
 70
     1
102
RTVSPost2010Prop45
280
     0
102
RTVSPost2010PropOp45
 70
     1
102
RTVSPost2010Prop46
 90
       50
102
RTVSPost2010PropOp46
 70
     1
102
RTVSPost2010Prop47
 90
       50
102
RTVSPost2010PropOp47
 70
     1
102
RTVSPost2010Prop48
 90
       50
102
RTVSPost2010PropOp48
 70
     1
102
RTVSPost2010Prop49
280
     0
102
RTVSPost2010PropOp49
 70
     1
102
RTVSPost2010Prop50
 90
       50
102
RTVSPost2010PropOp50
 70
     1
102
RTVSPost2010Prop51ColorIndex
 90
      256
102
RTVSPost2010Prop51ColorRGB
 90
-16777216
102
RTVSPost2010PropOp51
 70
     0
102
RTVSPost2010Prop52
140
1.0
102
RTVSPost2010PropOp52
 70
     0
102
RTVSPost2010Prop53
 90
        2
102
RTVSPost2010PropOp53
 70
     1
102
RTVSPost2010Prop54
  1
strokes_ogs.tif
102
RTVSPost2010PropOp54
 70
     1
102
RTVSPost2010Prop55
280
     0
102
RTVSPost2010PropOp55
 70
     1
102
RTVSPost2010Prop56
140
1.0
102
RTVSPost2010PropOp56
 70
     1
102
RTVSPost2010Prop57
140
1.0
102
RTVSPost2010PropOp57
 70
     1
102
RTVSPropertyOp0
 70
     1
102
RTVSPropertyOp1
 70
     1
102
RTVSPropertyOp2
 70
     1
102
RTVSPropertyOp3
 70
     1
102
RTVSPropertyOp4
 70
     1
102
RTVSPropertyOp5
 70
     1
102
RTVSPropertyOp6
 70
     1
102
RTVSPropertyOp7
 70
     1
102
RTVSPropertyOp8
 70
     1
102
RTVSPropertyOp9
 70
     1
102
RTVSPropertyOp10
 70
     1
102
RTVSPropertyOp11
 70
     1
102
RTVSPropertyOp12
 70
     1
102
RTVSPropertyOp13
 70
     1
102
RTVSPropertyOp14
 70
     1
102
RTVSPropertyOp15
 70
     1
102
RTVSPropertyOp16
 70
     1
102
RTVSPropertyOp17
 70
     1
102
RTVSPropertyOp18
 70
     1
102
RTVSPropertyOp19
 70
     1
102
RTVSPropertyOp20
 70
     1
102
RTVSPropertyOp21
 70
     1
102
RTVSPropertyOp22
 70
     1
102
RTVSPropertyOp23
 70
     1
102
RTVSPropertyOp24
 70
     1
102
RTVSPropertyOp25
 70
     1
102
RTVSPropertyOp26
 70
     1
102
RTVSPropertyOp27
 70
     1
102
RTVSPropertyOp28
 70
     1
102
RTVSPropertyOp29
 70
     1
102
RTVSPropertyOp30
 70
     1
102
RTVSPropertyOp31
 70
     1
102
RTVSPropertyOp32
 70
     1
102
RTVSPropertyOp33
 70
     1
102
RTVSPropertyOp34
 70
     1
102
RTVSPropertyOp35
 70
     1
102
RTVSPropertyOp36
 70
     1
102
RTVSPropertyOp37
 70
     1
102
RTVSPropertyOp38
 70
     1
102
RTVSPropertyOp39
 70
     1
102
RTVSPropertyOp40
 70
     1
102
RTVSPropertyOp41
 70
     1
102
RTVSPropertyOp42
 70
     1
102
RTVSPropertyOp43
 70
     1
102
RTVSPropertyOp44
 70
     1
102
RTVSPropertyOp45
 70
     1
102
RTVSPropertyOp46
 70
     1
102
RTVSPropertyOp47
 70
     1
102
RTVSPropertyOp48
 70
     1
102
RTVSPropertyOp49
 70
     1
102
RTVSPropertyOp50
 70
     1
102
RTVSPropertyOp51
 70
     0
102
RTVSPropertyOp52
 70
     0
102
RTVSPropertyOp53
 70
     1
102
RTVSPropertyOp54
 70
     1
102
RTVSPropertyOp55
 70
     1
102
RTVSPropertyOp56
 70
     1
102
RTVSPropertyOp57
 70
     1
102
RTVSPropertyOp58
 70
     1
102
RTVSPropertyOp59
 70
     1
102
RTVSPropertyOp60
 70
     1
102
RTVSPropertyOp61
 70
     1
102
RTVSPropertyOp62
 70
     1
  0
XRECORD
  5
454
102
{ACAD_REACTORS
330
453
102
}
330
453
100
AcDbXrecord
280
     1
102
RTVSPost2010Prop28
280
     0
102
RTVSPost2010PropOp28
 70
     1
102
RTVSPost2010Prop29
280
     1
102
RTVSPost2010PropOp29
 70
     1
102
RTVSPost2010Prop30
280
     1
102
RTVSPost2010PropOp30
 70
     1
102
RTVSPost2010Prop31
280
     0
102
RTVSPost2010PropOp31
 70
     1
102
RTVSPost2010Prop32
280
     0
102
RTVSPost2010PropOp32
 70
     1
102
RTVSPost2010Prop33
280
     0
102
RTVSPost2010PropOp33
 70
     1
102
RTVSPost2010Prop34
280
     0
102
RTVSPost2010PropOp34
 70
     1
102
RTVSPost2010Prop35
280
     0
102
RTVSPost2010PropOp35
 70
     1
102
RTVSPost2010Prop36
280
     0
102
RTVSPost2010PropOp36
 70
     1
102
RTVSPost2010Prop37
 90
       50
102
RTVSPost2010PropOp37
 70
     1
102
RTVSPost2010Prop38
140
0.0
102
RTVSPost2010PropOp38
 70
     1
102
RTVSPost2010Prop39
140
1.0
102
RTVSPost2010PropOp39
 70
     1
102
RTVSPost2010Prop40
 90
        0
102
RTVSPost2010PropOp40
 70
     1
102
RTVSPost2010Prop41ColorIndex
 90
       18
102
RTVSPost2010Prop41ColorRGB
 90
        0
102
RTVSPost2010PropOp41
 70
     1
102
RTVSPost2010Prop42
 90
       50
102
RTVSPost2010PropOp42
 70
     1
102
RTVSPost2010Prop43
 90
        3
102
RTVSPost2010PropOp43
 70
     1
102
RTVSPost2010Prop44ColorIndex
 90
        5
102
RTVSPost2010Prop44ColorRGB
 90
      255
102
RTVSPost2010PropOp44
 70
     1
102
RTVSPost2010Prop45
280
     0
102
RTVSPost2010PropOp45
 70
     1
102
RTVSPost2010Prop46
 90
       50
102
RTVSPost2010PropOp46
 70
     1
102
RTVSPost2010Prop47
 90
       50
102
RTVSPost2010PropOp47
 70
     1
102
RTVSPost2010Prop48
 90
       50
102
RTVSPost2010PropOp48
 70
     1
102
RTVSPost2010Prop49
280
     0
102
RTVSPost2010PropOp49
 70
     1
102
RTVSPost2010Prop50
 90
       50
102
RTVSPost2010PropOp50
 70
     1
102
RTVSPost2010Prop51ColorIndex
 90
      256
102
RTVSPost2010Prop51ColorRGB
 90
-16777216
102
RTVSPost2010PropOp51
 70
     0
102
RTVSPost2010Prop52
140
1.0
102
RTVSPost2010PropOp52
 70
     0
102
RTVSPost2010Prop53
 90
        2
102
RTVSPost2010PropOp53
 70
     1
102
RTVSPost2010Prop54
  1
strokes_ogs.tif
102
RTVSPost2010PropOp54
 70
     1
102
RTVSPost2010Prop55
280
     0
102
RTVSPost2010PropOp55
 70
     1
102
RTVSPost2010Prop56
140
1.0
102
RTVSPost2010PropOp56
 70
     1
102
RTVSPost2010Prop57
140
1.0
102
RTVSPost2010PropOp57
 70
     1
102
RTVSPropertyOp0
 70
     1
102
RTVSPropertyOp1
 70
     1
102
RTVSPropertyOp2
 70
     1
102
RTVSPropertyOp3
 70
     1
102
RTVSPropertyOp4
 70
     1
102
RTVSPropertyOp5
 70
     1
102
RTVSPropertyOp6
 70
     1
102
RTVSPropertyOp7
 70
     1
102
RTVSPropertyOp8
 70
     1
102
RTVSPropertyOp9
 70
     1
102
RTVSPropertyOp10
 70
     1
102
RTVSPropertyOp11
 70
     1
102
RTVSPropertyOp12
 70
     1
102
RTVSPropertyOp13
 70
     1
102
RTVSPropertyOp14
 70
     1
102
RTVSPropertyOp15
 70
     1
102
RTVSPropertyOp16
 70
     1
102
RTVSPropertyOp17
 70
     1
102
RTVSPropertyOp18
 70
     1
102
RTVSPropertyOp19
 70
     1
102
RTVSPropertyOp20
 70
     1
102
RTVSPropertyOp21
 70
     1
102
RTVSPropertyOp22
 70
     1
102
RTVSPropertyOp23
 70
     1
102
RTVSPropertyOp24
 70
     1
102
RTVSPropertyOp25
 70
     1
102
RTVSPropertyOp26
 70
     1
102
RTVSPropertyOp27
 70
     1
102
RTVSPropertyOp28
 70
     1
102
RTVSPropertyOp29
 70
     1
102
RTVSPropertyOp30
 70
     1
102
RTVSPropertyOp31
 70
     1
102
RTVSPropertyOp32
 70
     1
102
RTVSPropertyOp33
 70
     1
102
RTVSPropertyOp34
 70
     1
102
RTVSPropertyOp35
 70
     1
102
RTVSPropertyOp36
 70
     1
102
RTVSPropertyOp37
 70
     1
102
RTVSPropertyOp38
 70
     1
102
RTVSPropertyOp39
 70
     1
102
RTVSPropertyOp40
 70
     1
102
RTVSPropertyOp41
 70
     1
102
RTVSPropertyOp42
 70
     1
102
RTVSPropertyOp43
 70
     1
102
RTVSPropertyOp44
 70
     1
102
RTVSPropertyOp45
 70
     1
102
RTVSPropertyOp46
 70
     1
102
RTVSPropertyOp47
 70
     1
102
RTVSPropertyOp48
 70
     1
102
RTVSPropertyOp49
 70
     1
102
RTVSPropertyOp50
 70
     1
102
RTVSPropertyOp51
 70
     0
102
RTVSPropertyOp52
 70
     0
102
RTVSPropertyOp53
 70
     1
102
RTVSPropertyOp54
 70
     1
102
RTVSPropertyOp55
 70
     1
102
RTVSPropertyOp56
 70
     1
102
RTVSPropertyOp57
 70
     1
102
RTVSPropertyOp58
 70
     1
102
RTVSPropertyOp59
 70
     1
102
RTVSPropertyOp60
 70
     1
102
RTVSPropertyOp61
 70
     1
102
RTVSPropertyOp62
 70
     1
  0
XRECORD
  5
452
102
{ACAD_REACTORS
330
451
102
}
330
451
100
AcDbXrecord
280
     1
102
RTVSPost2010Prop28
280
     0
102
RTVSPost2010PropOp28
 70
     1
102
RTVSPost2010Prop29
280
     1
102
RTVSPost2010PropOp29
 70
     1
102
RTVSPost2010Prop30
280
     1
102
RTVSPost2010PropOp30
 70
     1
102
RTVSPost2010Prop31
280
     0
102
RTVSPost2010PropOp31
 70
     1
102
RTVSPost2010Prop32
280
     0
102
RTVSPost2010PropOp32
 70
     1
102
RTVSPost2010Prop33
280
     0
102
RTVSPost2010PropOp33
 70
     1
102
RTVSPost2010Prop34
280
     0
102
RTVSPost2010PropOp34
 70
     1
102
RTVSPost2010Prop35
280
     0
102
RTVSPost2010PropOp35
 70
     1
102
RTVSPost2010Prop36
280
     0
102
RTVSPost2010PropOp36
 70
     1
102
RTVSPost2010Prop37
 90
       50
102
RTVSPost2010PropOp37
 70
     1
102
RTVSPost2010Prop38
140
0.0
102
RTVSPost2010PropOp38
 70
     1
102
RTVSPost2010Prop39
140
1.0
102
RTVSPost2010PropOp39
 70
     1
102
RTVSPost2010Prop40
 90
        0
102
RTVSPost2010PropOp40
 70
     1
102
RTVSPost2010Prop41ColorIndex
 90
       18
102
RTVSPost2010Prop41ColorRGB
 90
        0
102
RTVSPost2010PropOp41
 70
     1
102
RTVSPost2010Prop42
 90
       50
102
RTVSPost2010PropOp42
 70
     1
102
RTVSPost2010Prop43
 90
        3
102
RTVSPost2010PropOp43
 70
     1
102
RTVSPost2010Prop44ColorIndex
 90
        5
102
RTVSPost2010Prop44ColorRGB
 90
      255
102
RTVSPost2010PropOp44
 70
     1
102
RTVSPost2010Prop45
280
     0
102
RTVSPost2010PropOp45
 70
     1
102
RTVSPost2010Prop46
 90
       50
102
RTVSPost2010PropOp46
 70
     1
102
RTVSPost2010Prop47
 90
       50
102
RTVSPost2010PropOp47
 70
     1
102
RTVSPost2010Prop48
 90
       50
102
RTVSPost2010PropOp48
 70
     1
102
RTVSPost2010Prop49
280
     0
102
RTVSPost2010PropOp49
 70
     1
102
RTVSPost2010Prop50
 90
       50
102
RTVSPost2010PropOp50
 70
     1
102
RTVSPost2010Prop51ColorIndex
 90
      256
102
RTVSPost2010Prop51ColorRGB
 90
-16777216
102
RTVSPost2010PropOp51
 70
     0
102
RTVSPost2010Prop52
140
1.0
102
RTVSPost2010PropOp52
 70
     0
102
RTVSPost2010Prop53
 90
        2
102
RTVSPost2010PropOp53
 70
     1
102
RTVSPost2010Prop54
  1
strokes_ogs.tif
102
RTVSPost2010PropOp54
 70
     1
102
RTVSPost2010Prop55
280
     0
102
RTVSPost2010PropOp55
 70
     1
102
RTVSPost2010Prop56
140
1.0
102
RTVSPost2010PropOp56
 70
     1
102
RTVSPost2010Prop57
140
1.0
102
RTVSPost2010PropOp57
 70
     1
102
RTVSPropertyOp0
 70
     1
102
RTVSPropertyOp1
 70
     1
102
RTVSPropertyOp2
 70
     1
102
RTVSPropertyOp3
 70
     1
102
RTVSPropertyOp4
 70
     1
102
RTVSPropertyOp5
 70
     1
102
RTVSPropertyOp6
 70
     1
102
RTVSPropertyOp7
 70
     1
102
RTVSPropertyOp8
 70
     1
102
RTVSPropertyOp9
 70
     1
102
RTVSPropertyOp10
 70
     1
102
RTVSPropertyOp11
 70
     1
102
RTVSPropertyOp12
 70
     1
102
RTVSPropertyOp13
 70
     1
102
RTVSPropertyOp14
 70
     1
102
RTVSPropertyOp15
 70
     1
102
RTVSPropertyOp16
 70
     1
102
RTVSPropertyOp17
 70
     1
102
RTVSPropertyOp18
 70
     1
102
RTVSPropertyOp19
 70
     1
102
RTVSPropertyOp20
 70
     1
102
RTVSPropertyOp21
 70
     1
102
RTVSPropertyOp22
 70
     1
102
RTVSPropertyOp23
 70
     1
102
RTVSPropertyOp24
 70
     1
102
RTVSPropertyOp25
 70
     1
102
RTVSPropertyOp26
 70
     1
102
RTVSPropertyOp27
 70
     1
102
RTVSPropertyOp28
 70
     1
102
RTVSPropertyOp29
 70
     1
102
RTVSPropertyOp30
 70
     1
102
RTVSPropertyOp31
 70
     1
102
RTVSPropertyOp32
 70
     1
102
RTVSPropertyOp33
 70
     1
102
RTVSPropertyOp34
 70
     1
102
RTVSPropertyOp35
 70
     1
102
RTVSPropertyOp36
 70
     1
102
RTVSPropertyOp37
 70
     1
102
RTVSPropertyOp38
 70
     1
102
RTVSPropertyOp39
 70
     1
102
RTVSPropertyOp40
 70
     1
102
RTVSPropertyOp41
 70
     1
102
RTVSPropertyOp42
 70
     1
102
RTVSPropertyOp43
 70
     1
102
RTVSPropertyOp44
 70
     1
102
RTVSPropertyOp45
 70
     1
102
RTVSPropertyOp46
 70
     1
102
RTVSPropertyOp47
 70
     1
102
RTVSPropertyOp48
 70
     1
102
RTVSPropertyOp49
 70
     1
102
RTVSPropertyOp50
 70
     1
102
RTVSPropertyOp51
 70
     0
102
RTVSPropertyOp52
 70
     0
102
RTVSPropertyOp53
 70
     1
102
RTVSPropertyOp54
 70
     1
102
RTVSPropertyOp55
 70
     1
102
RTVSPropertyOp56
 70
     1
102
RTVSPropertyOp57
 70
     1
102
RTVSPropertyOp58
 70
     1
102
RTVSPropertyOp59
 70
     1
102
RTVSPropertyOp60
 70
     1
102
RTVSPropertyOp61
 70
     1
102
RTVSPropertyOp62
 70
     1
  0
XRECORD
  5
44C
102
{ACAD_REACTORS
330
44B
102
}
330
44B
100
AcDbXrecord
280
     1
102
RTVSPost2010Prop28
280
     0
102
RTVSPost2010PropOp28
 70
     1
102
RTVSPost2010Prop29
280
     1
102
RTVSPost2010PropOp29
 70
     1
102
RTVSPost2010Prop30
280
     1
102
RTVSPost2010PropOp30
 70
     1
102
RTVSPost2010Prop31
280
     0
102
RTVSPost2010PropOp31
 70
     1
102
RTVSPost2010Prop32
280
     0
102
RTVSPost2010PropOp32
 70
     1
102
RTVSPost2010Prop33
280
     0
102
RTVSPost2010PropOp33
 70
     1
102
RTVSPost2010Prop34
280
     0
102
RTVSPost2010PropOp34
 70
     1
102
RTVSPost2010Prop35
280
     0
102
RTVSPost2010PropOp35
 70
     1
102
RTVSPost2010Prop36
280
     0
102
RTVSPost2010PropOp36
 70
     1
102
RTVSPost2010Prop37
 90
       50
102
RTVSPost2010PropOp37
 70
     1
102
RTVSPost2010Prop38
140
0.0
102
RTVSPost2010PropOp38
 70
     1
102
RTVSPost2010Prop39
140
1.0
102
RTVSPost2010PropOp39
 70
     1
102
RTVSPost2010Prop40
 90
        0
102
RTVSPost2010PropOp40
 70
     1
102
RTVSPost2010Prop41ColorIndex
 90
       18
102
RTVSPost2010Prop41ColorRGB
 90
        0
102
RTVSPost2010PropOp41
 70
     1
102
RTVSPost2010Prop42
 90
       50
102
RTVSPost2010PropOp42
 70
     1
102
RTVSPost2010Prop43
 90
        3
102
RTVSPost2010PropOp43
 70
     1
102
RTVSPost2010Prop44ColorIndex
 90
        5
102
RTVSPost2010Prop44ColorRGB
 90
      255
102
RTVSPost2010PropOp44
 70
     1
102
RTVSPost2010Prop45
280
     0
102
RTVSPost2010PropOp45
 70
     1
102
RTVSPost2010Prop46
 90
       50
102
RTVSPost2010PropOp46
 70
     1
102
RTVSPost2010Prop47
 90
       50
102
RTVSPost2010PropOp47
 70
     1
102
RTVSPost2010Prop48
 90
       50
102
RTVSPost2010PropOp48
 70
     1
102
RTVSPost2010Prop49
280
     0
102
RTVSPost2010PropOp49
 70
     1
102
RTVSPost2010Prop50
 90
       50
102
RTVSPost2010PropOp50
 70
     1
102
RTVSPost2010Prop51ColorIndex
 90
      256
102
RTVSPost2010Prop51ColorRGB
 90
-16777216
102
RTVSPost2010PropOp51
 70
     0
102
RTVSPost2010Prop52
140
1.0
102
RTVSPost2010PropOp52
 70
     0
102
RTVSPost2010Prop53
 90
        2
102
RTVSPost2010PropOp53
 70
     1
102
RTVSPost2010Prop54
  1
strokes_ogs.tif
102
RTVSPost2010PropOp54
 70
     1
102
RTVSPost2010Prop55
280
     0
102
RTVSPost2010PropOp55
 70
     1
102
RTVSPost2010Prop56
140
1.0
102
RTVSPost2010PropOp56
 70
     1
102
RTVSPost2010Prop57
140
1.0
102
RTVSPost2010PropOp57
 70
     1
102
RTVSPropertyOp0
 70
     1
102
RTVSPropertyOp1
 70
     1
102
RTVSPropertyOp2
 70
     1
102
RTVSPropertyOp3
 70
     1
102
RTVSPropertyOp4
 70
     1
102
RTVSPropertyOp5
 70
     1
102
RTVSPropertyOp6
 70
     1
102
RTVSPropertyOp7
 70
     1
102
RTVSPropertyOp8
 70
     1
102
RTVSPropertyOp9
 70
     1
102
RTVSPropertyOp10
 70
     1
102
RTVSPropertyOp11
 70
     1
102
RTVSPropertyOp12
 70
     1
102
RTVSPropertyOp13
 70
     1
102
RTVSPropertyOp14
 70
     1
102
RTVSPropertyOp15
 70
     1
102
RTVSPropertyOp16
 70
     1
102
RTVSPropertyOp17
 70
     1
102
RTVSPropertyOp18
 70
     1
102
RTVSPropertyOp19
 70
     1
102
RTVSPropertyOp20
 70
     1
102
RTVSPropertyOp21
 70
     1
102
RTVSPropertyOp22
 70
     1
102
RTVSPropertyOp23
 70
     1
102
RTVSPropertyOp24
 70
     1
102
RTVSPropertyOp25
 70
     1
102
RTVSPropertyOp26
 70
     1
102
RTVSPropertyOp27
 70
     1
102
RTVSPropertyOp28
 70
     1
102
RTVSPropertyOp29
 70
     1
102
RTVSPropertyOp30
 70
     1
102
RTVSPropertyOp31
 70
     1
102
RTVSPropertyOp32
 70
     1
102
RTVSPropertyOp33
 70
     1
102
RTVSPropertyOp34
 70
     1
102
RTVSPropertyOp35
 70
     1
102
RTVSPropertyOp36
 70
     1
102
RTVSPropertyOp37
 70
     1
102
RTVSPropertyOp38
 70
     1
102
RTVSPropertyOp39
 70
     1
102
RTVSPropertyOp40
 70
     1
102
RTVSPropertyOp41
 70
     1
102
RTVSPropertyOp42
 70
     1
102
RTVSPropertyOp43
 70
     1
102
RTVSPropertyOp44
 70
     1
102
RTVSPropertyOp45
 70
     1
102
RTVSPropertyOp46
 70
     1
102
RTVSPropertyOp47
 70
     1
102
RTVSPropertyOp48
 70
     1
102
RTVSPropertyOp49
 70
     1
102
RTVSPropertyOp50
 70
     1
102
RTVSPropertyOp51
 70
     0
102
RTVSPropertyOp52
 70
     0
102
RTVSPropertyOp53
 70
     1
102
RTVSPropertyOp54
 70
     1
102
RTVSPropertyOp55
 70
     1
102
RTVSPropertyOp56
 70
     1
102
RTVSPropertyOp57
 70
     1
102
RTVSPropertyOp58
 70
     1
102
RTVSPropertyOp59
 70
     1
102
RTVSPropertyOp60
 70
     1
102
RTVSPropertyOp61
 70
     1
102
RTVSPropertyOp62
 70
     1
  0
XRECORD
  5
44E
102
{ACAD_REACTORS
330
44D
102
}
330
44D
100
AcDbXrecord
280
     1
102
RTVSPost2010Prop28
280
     0
102
RTVSPost2010PropOp28
 70
     1
102
RTVSPost2010Prop29
280
     1
102
RTVSPost2010PropOp29
 70
     1
102
RTVSPost2010Prop30
280
     1
102
RTVSPost2010PropOp30
 70
     1
102
RTVSPost2010Prop31
280
     0
102
RTVSPost2010PropOp31
 70
     1
102
RTVSPost2010Prop32
280
     0
102
RTVSPost2010PropOp32
 70
     1
102
RTVSPost2010Prop33
280
     0
102
RTVSPost2010PropOp33
 70
     1
102
RTVSPost2010Prop34
280
     0
102
RTVSPost2010PropOp34
 70
     1
102
RTVSPost2010Prop35
280
     0
102
RTVSPost2010PropOp35
 70
     1
102
RTVSPost2010Prop36
280
     0
102
RTVSPost2010PropOp36
 70
     1
102
RTVSPost2010Prop37
 90
       50
102
RTVSPost2010PropOp37
 70
     1
102
RTVSPost2010Prop38
140
0.0
102
RTVSPost2010PropOp38
 70
     1
102
RTVSPost2010Prop39
140
1.0
102
RTVSPost2010PropOp39
 70
     1
102
RTVSPost2010Prop40
 90
        0
102
RTVSPost2010PropOp40
 70
     1
102
RTVSPost2010Prop41ColorIndex
 90
       18
102
RTVSPost2010Prop41ColorRGB
 90
        0
102
RTVSPost2010PropOp41
 70
     1
102
RTVSPost2010Prop42
 90
       50
102
RTVSPost2010PropOp42
 70
     1
102
RTVSPost2010Prop43
 90
        3
102
RTVSPost2010PropOp43
 70
     1
102
RTVSPost2010Prop44ColorIndex
 90
        5
102
RTVSPost2010Prop44ColorRGB
 90
      255
102
RTVSPost2010PropOp44
 70
     1
102
RTVSPost2010Prop45
280
     0
102
RTVSPost2010PropOp45
 70
     1
102
RTVSPost2010Prop46
 90
       50
102
RTVSPost2010PropOp46
 70
     1
102
RTVSPost2010Prop47
 90
       50
102
RTVSPost2010PropOp47
 70
     1
102
RTVSPost2010Prop48
 90
       50
102
RTVSPost2010PropOp48
 70
     1
102
RTVSPost2010Prop49
280
     0
102
RTVSPost2010PropOp49
 70
     1
102
RTVSPost2010Prop50
 90
       50
102
RTVSPost2010PropOp50
 70
     1
102
RTVSPost2010Prop51ColorIndex
 90
      256
102
RTVSPost2010Prop51ColorRGB
 90
-16777216
102
RTVSPost2010PropOp51
 70
     0
102
RTVSPost2010Prop52
140
1.0
102
RTVSPost2010PropOp52
 70
     0
102
RTVSPost2010Prop53
 90
        2
102
RTVSPost2010PropOp53
 70
     1
102
RTVSPost2010Prop54
  1
strokes_ogs.tif
102
RTVSPost2010PropOp54
 70
     1
102
RTVSPost2010Prop55
280
     0
102
RTVSPost2010PropOp55
 70
     1
102
RTVSPost2010Prop56
140
1.0
102
RTVSPost2010PropOp56
 70
     1
102
RTVSPost2010Prop57
140
1.0
102
RTVSPost2010PropOp57
 70
     1
102
RTVSPropertyOp0
 70
     1
102
RTVSPropertyOp1
 70
     1
102
RTVSPropertyOp2
 70
     1
102
RTVSPropertyOp3
 70
     1
102
RTVSPropertyOp4
 70
     1
102
RTVSPropertyOp5
 70
     1
102
RTVSPropertyOp6
 70
     1
102
RTVSPropertyOp7
 70
     1
102
RTVSPropertyOp8
 70
     1
102
RTVSPropertyOp9
 70
     1
102
RTVSPropertyOp10
 70
     1
102
RTVSPropertyOp11
 70
     1
102
RTVSPropertyOp12
 70
     1
102
RTVSPropertyOp13
 70
     1
102
RTVSPropertyOp14
 70
     1
102
RTVSPropertyOp15
 70
     1
102
RTVSPropertyOp16
 70
     1
102
RTVSPropertyOp17
 70
     1
102
RTVSPropertyOp18
 70
     1
102
RTVSPropertyOp19
 70
     1
102
RTVSPropertyOp20
 70
     1
102
RTVSPropertyOp21
 70
     1
102
RTVSPropertyOp22
 70
     1
102
RTVSPropertyOp23
 70
     1
102
RTVSPropertyOp24
 70
     1
102
RTVSPropertyOp25
 70
     1
102
RTVSPropertyOp26
 70
     1
102
RTVSPropertyOp27
 70
     1
102
RTVSPropertyOp28
 70
     1
102
RTVSPropertyOp29
 70
     1
102
RTVSPropertyOp30
 70
     1
102
RTVSPropertyOp31
 70
     1
102
RTVSPropertyOp32
 70
     1
102
RTVSPropertyOp33
 70
     1
102
RTVSPropertyOp34
 70
     1
102
RTVSPropertyOp35
 70
     1
102
RTVSPropertyOp36
 70
     1
102
RTVSPropertyOp37
 70
     1
102
RTVSPropertyOp38
 70
     1
102
RTVSPropertyOp39
 70
     1
102
RTVSPropertyOp40
 70
     1
102
RTVSPropertyOp41
 70
     1
102
RTVSPropertyOp42
 70
     1
102
RTVSPropertyOp43
 70
     1
102
RTVSPropertyOp44
 70
     1
102
RTVSPropertyOp45
 70
     1
102
RTVSPropertyOp46
 70
     1
102
RTVSPropertyOp47
 70
     1
102
RTVSPropertyOp48
 70
     1
102
RTVSPropertyOp49
 70
     1
102
RTVSPropertyOp50
 70
     1
102
RTVSPropertyOp51
 70
     0
102
RTVSPropertyOp52
 70
     0
102
RTVSPropertyOp53
 70
     1
102
RTVSPropertyOp54
 70
     1
102
RTVSPropertyOp55
 70
     1
102
RTVSPropertyOp56
 70
     1
102
RTVSPropertyOp57
 70
     1
102
RTVSPropertyOp58
 70
     1
102
RTVSPropertyOp59
 70
     1
102
RTVSPropertyOp60
 70
     1
102
RTVSPropertyOp61
 70
     1
102
RTVSPropertyOp62
 70
     1
  0
XRECORD
  5
444
102
{ACAD_REACTORS
330
443
102
}
330
443
100
AcDbXrecord
280
     1
102
RTVSPost2010Prop28
280
     0
102
RTVSPost2010PropOp28
 70
     1
102
RTVSPost2010Prop29
280
     1
102
RTVSPost2010PropOp29
 70
     1
102
RTVSPost2010Prop30
280
     1
102
RTVSPost2010PropOp30
 70
     1
102
RTVSPost2010Prop31
280
     0
102
RTVSPost2010PropOp31
 70
     1
102
RTVSPost2010Prop32
280
     0
102
RTVSPost2010PropOp32
 70
     1
102
RTVSPost2010Prop33
280
     0
102
RTVSPost2010PropOp33
 70
     1
102
RTVSPost2010Prop34
280
     0
102
RTVSPost2010PropOp34
 70
     1
102
RTVSPost2010Prop35
280
     0
102
RTVSPost2010PropOp35
 70
     1
102
RTVSPost2010Prop36
280
     0
102
RTVSPost2010PropOp36
 70
     1
102
RTVSPost2010Prop37
 90
       50
102
RTVSPost2010PropOp37
 70
     1
102
RTVSPost2010Prop38
140
0.0
102
RTVSPost2010PropOp38
 70
     1
102
RTVSPost2010Prop39
140
1.0
102
RTVSPost2010PropOp39
 70
     1
102
RTVSPost2010Prop40
 90
        0
102
RTVSPost2010PropOp40
 70
     1
102
RTVSPost2010Prop41ColorIndex
 90
       18
102
RTVSPost2010Prop41ColorRGB
 90
        0
102
RTVSPost2010PropOp41
 70
     1
102
RTVSPost2010Prop42
 90
       50
102
RTVSPost2010PropOp42
 70
     1
102
RTVSPost2010Prop43
 90
        3
102
RTVSPost2010PropOp43
 70
     1
102
RTVSPost2010Prop44ColorIndex
 90
        5
102
RTVSPost2010Prop44ColorRGB
 90
      255
102
RTVSPost2010PropOp44
 70
     1
102
RTVSPost2010Prop45
280
     0
102
RTVSPost2010PropOp45
 70
     1
102
RTVSPost2010Prop46
 90
       50
102
RTVSPost2010PropOp46
 70
     1
102
RTVSPost2010Prop47
 90
       50
102
RTVSPost2010PropOp47
 70
     1
102
RTVSPost2010Prop48
 90
       50
102
RTVSPost2010PropOp48
 70
     1
102
RTVSPost2010Prop49
280
     0
102
RTVSPost2010PropOp49
 70
     1
102
RTVSPost2010Prop50
 90
       50
102
RTVSPost2010PropOp50
 70
     1
102
RTVSPost2010Prop51ColorIndex
 90
      256
102
RTVSPost2010Prop51ColorRGB
 90
-16777216
102
RTVSPost2010PropOp51
 70
     0
102
RTVSPost2010Prop52
140
1.0
102
RTVSPost2010PropOp52
 70
     0
102
RTVSPost2010Prop53
 90
        2
102
RTVSPost2010PropOp53
 70
     1
102
RTVSPost2010Prop54
  1
strokes_ogs.tif
102
RTVSPost2010PropOp54
 70
     1
102
RTVSPost2010Prop55
280
     0
102
RTVSPost2010PropOp55
 70
     1
102
RTVSPost2010Prop56
140
1.0
102
RTVSPost2010PropOp56
 70
     1
102
RTVSPost2010Prop57
140
1.0
102
RTVSPost2010PropOp57
 70
     1
102
RTVSPropertyOp0
 70
     1
102
RTVSPropertyOp1
 70
     1
102
RTVSPropertyOp2
 70
     1
102
RTVSPropertyOp3
 70
     1
102
RTVSPropertyOp4
 70
     1
102
RTVSPropertyOp5
 70
     1
102
RTVSPropertyOp6
 70
     1
102
RTVSPropertyOp7
 70
     1
102
RTVSPropertyOp8
 70
     1
102
RTVSPropertyOp9
 70
     1
102
RTVSPropertyOp10
 70
     1
102
RTVSPropertyOp11
 70
     1
102
RTVSPropertyOp12
 70
     1
102
RTVSPropertyOp13
 70
     1
102
RTVSPropertyOp14
 70
     1
102
RTVSPropertyOp15
 70
     1
102
RTVSPropertyOp16
 70
     1
102
RTVSPropertyOp17
 70
     1
102
RTVSPropertyOp18
 70
     1
102
RTVSPropertyOp19
 70
     1
102
RTVSPropertyOp20
 70
     1
102
RTVSPropertyOp21
 70
     1
102
RTVSPropertyOp22
 70
     1
102
RTVSPropertyOp23
 70
     1
102
RTVSPropertyOp24
 70
     1
102
RTVSPropertyOp25
 70
     1
102
RTVSPropertyOp26
 70
     1
102
RTVSPropertyOp27
 70
     1
102
RTVSPropertyOp28
 70
     1
102
RTVSPropertyOp29
 70
     1
102
RTVSPropertyOp30
 70
     1
102
RTVSPropertyOp31
 70
     1
102
RTVSPropertyOp32
 70
     1
102
RTVSPropertyOp33
 70
     1
102
RTVSPropertyOp34
 70
     1
102
RTVSPropertyOp35
 70
     1
102
RTVSPropertyOp36
 70
     1
102
RTVSPropertyOp37
 70
     1
102
RTVSPropertyOp38
 70
     1
102
RTVSPropertyOp39
 70
     1
102
RTVSPropertyOp40
 70
     1
102
RTVSPropertyOp41
 70
     1
102
RTVSPropertyOp42
 70
     1
102
RTVSPropertyOp43
 70
     1
102
RTVSPropertyOp44
 70
     1
102
RTVSPropertyOp45
 70
     1
102
RTVSPropertyOp46
 70
     1
102
RTVSPropertyOp47
 70
     1
102
RTVSPropertyOp48
 70
     1
102
RTVSPropertyOp49
 70
     1
102
RTVSPropertyOp50
 70
     1
102
RTVSPropertyOp51
 70
     0
102
RTVSPropertyOp52
 70
     0
102
RTVSPropertyOp53
 70
     1
102
RTVSPropertyOp54
 70
     1
102
RTVSPropertyOp55
 70
     1
102
RTVSPropertyOp56
 70
     1
102
RTVSPropertyOp57
 70
     1
102
RTVSPropertyOp58
 70
     1
102
RTVSPropertyOp59
 70
     1
102
RTVSPropertyOp60
 70
     1
102
RTVSPropertyOp61
 70
     1
102
RTVSPropertyOp62
 70
     1
  0
XRECORD
  5
438
102
{ACAD_REACTORS
330
437
102
}
330
437
100
AcDbXrecord
280
     1
102
RTVSPost2010Prop28
280
     0
102
RTVSPost2010PropOp28
 70
     1
102
RTVSPost2010Prop29
280
     1
102
RTVSPost2010PropOp29
 70
     1
102
RTVSPost2010Prop30
280
     1
102
RTVSPost2010PropOp30
 70
     1
102
RTVSPost2010Prop31
280
     0
102
RTVSPost2010PropOp31
 70
     1
102
RTVSPost2010Prop32
280
     0
102
RTVSPost2010PropOp32
 70
     1
102
RTVSPost2010Prop33
280
     0
102
RTVSPost2010PropOp33
 70
     1
102
RTVSPost2010Prop34
280
     0
102
RTVSPost2010PropOp34
 70
     1
102
RTVSPost2010Prop35
280
     0
102
RTVSPost2010PropOp35
 70
     1
102
RTVSPost2010Prop36
280
     0
102
RTVSPost2010PropOp36
 70
     1
102
RTVSPost2010Prop37
 90
       50
102
RTVSPost2010PropOp37
 70
     1
102
RTVSPost2010Prop38
140
0.0
102
RTVSPost2010PropOp38
 70
     1
102
RTVSPost2010Prop39
140
1.0
102
RTVSPost2010PropOp39
 70
     1
102
RTVSPost2010Prop40
 90
        0
102
RTVSPost2010PropOp40
 70
     1
102
RTVSPost2010Prop41ColorIndex
 90
       18
102
RTVSPost2010Prop41ColorRGB
 90
        0
102
RTVSPost2010PropOp41
 70
     1
102
RTVSPost2010Prop42
 90
       50
102
RTVSPost2010PropOp42
 70
     1
102
RTVSPost2010Prop43
 90
        3
102
RTVSPost2010PropOp43
 70
     1
102
RTVSPost2010Prop44ColorIndex
 90
        5
102
RTVSPost2010Prop44ColorRGB
 90
      255
102
RTVSPost2010PropOp44
 70
     1
102
RTVSPost2010Prop45
280
     0
102
RTVSPost2010PropOp45
 70
     1
102
RTVSPost2010Prop46
 90
       50
102
RTVSPost2010PropOp46
 70
     1
102
RTVSPost2010Prop47
 90
       50
102
RTVSPost2010PropOp47
 70
     1
102
RTVSPost2010Prop48
 90
       50
102
RTVSPost2010PropOp48
 70
     1
102
RTVSPost2010Prop49
280
     0
102
RTVSPost2010PropOp49
 70
     1
102
RTVSPost2010Prop50
 90
       50
102
RTVSPost2010PropOp50
 70
     1
102
RTVSPost2010Prop51ColorIndex
 90
      256
102
RTVSPost2010Prop51ColorRGB
 90
-16777216
102
RTVSPost2010PropOp51
 70
     0
102
RTVSPost2010Prop52
140
1.0
102
RTVSPost2010PropOp52
 70
     0
102
RTVSPost2010Prop53
 90
        2
102
RTVSPost2010PropOp53
 70
     1
102
RTVSPost2010Prop54
  1
strokes_ogs.tif
102
RTVSPost2010PropOp54
 70
     1
102
RTVSPost2010Prop55
280
     0
102
RTVSPost2010PropOp55
 70
     1
102
RTVSPost2010Prop56
140
1.0
102
RTVSPost2010PropOp56
 70
     1
102
RTVSPost2010Prop57
140
1.0
102
RTVSPost2010PropOp57
 70
     1
102
RTVSPropertyOp0
 70
     1
102
RTVSPropertyOp1
 70
     1
102
RTVSPropertyOp2
 70
     1
102
RTVSPropertyOp3
 70
     1
102
RTVSPropertyOp4
 70
     1
102
RTVSPropertyOp5
 70
     1
102
RTVSPropertyOp6
 70
     1
102
RTVSPropertyOp7
 70
     1
102
RTVSPropertyOp8
 70
     1
102
RTVSPropertyOp9
 70
     1
102
RTVSPropertyOp10
 70
     1
102
RTVSPropertyOp11
 70
     1
102
RTVSPropertyOp12
 70
     1
102
RTVSPropertyOp13
 70
     1
102
RTVSPropertyOp14
 70
     1
102
RTVSPropertyOp15
 70
     1
102
RTVSPropertyOp16
 70
     1
102
RTVSPropertyOp17
 70
     1
102
RTVSPropertyOp18
 70
     1
102
RTVSPropertyOp19
 70
     1
102
RTVSPropertyOp20
 70
     1
102
RTVSPropertyOp21
 70
     1
102
RTVSPropertyOp22
 70
     1
102
RTVSPropertyOp23
 70
     1
102
RTVSPropertyOp24
 70
     1
102
RTVSPropertyOp25
 70
     1
102
RTVSPropertyOp26
 70
     1
102
RTVSPropertyOp27
 70
     1
102
RTVSPropertyOp28
 70
     1
102
RTVSPropertyOp29
 70
     1
102
RTVSPropertyOp30
 70
     1
102
RTVSPropertyOp31
 70
     1
102
RTVSPropertyOp32
 70
     1
102
RTVSPropertyOp33
 70
     1
102
RTVSPropertyOp34
 70
     1
102
RTVSPropertyOp35
 70
     1
102
RTVSPropertyOp36
 70
     1
102
RTVSPropertyOp37
 70
     1
102
RTVSPropertyOp38
 70
     1
102
RTVSPropertyOp39
 70
     1
102
RTVSPropertyOp40
 70
     1
102
RTVSPropertyOp41
 70
     1
102
RTVSPropertyOp42
 70
     1
102
RTVSPropertyOp43
 70
     1
102
RTVSPropertyOp44
 70
     1
102
RTVSPropertyOp45
 70
     1
102
RTVSPropertyOp46
 70
     1
102
RTVSPropertyOp47
 70
     1
102
RTVSPropertyOp48
 70
     1
102
RTVSPropertyOp49
 70
     1
102
RTVSPropertyOp50
 70
     1
102
RTVSPropertyOp51
 70
     0
102
RTVSPropertyOp52
 70
     0
102
RTVSPropertyOp53
 70
     1
102
RTVSPropertyOp54
 70
     1
102
RTVSPropertyOp55
 70
     1
102
RTVSPropertyOp56
 70
     1
102
RTVSPropertyOp57
 70
     1
102
RTVSPropertyOp58
 70
     1
102
RTVSPropertyOp59
 70
     1
102
RTVSPropertyOp60
 70
     1
102
RTVSPropertyOp61
 70
     1
102
RTVSPropertyOp62
 70
     1
  0
XRECORD
  5
450
102
{ACAD_REACTORS
330
44F
102
}
330
44F
100
AcDbXrecord
280
     1
102
RTVSPost2010Prop28
280
     0
102
RTVSPost2010PropOp28
 70
     1
102
RTVSPost2010Prop29
280
     1
102
RTVSPost2010PropOp29
 70
     1
102
RTVSPost2010Prop30
280
     1
102
RTVSPost2010PropOp30
 70
     1
102
RTVSPost2010Prop31
280
     0
102
RTVSPost2010PropOp31
 70
     1
102
RTVSPost2010Prop32
280
     0
102
RTVSPost2010PropOp32
 70
     1
102
RTVSPost2010Prop33
280
     0
102
RTVSPost2010PropOp33
 70
     1
102
RTVSPost2010Prop34
280
     0
102
RTVSPost2010PropOp34
 70
     1
102
RTVSPost2010Prop35
280
     0
102
RTVSPost2010PropOp35
 70
     1
102
RTVSPost2010Prop36
280
     0
102
RTVSPost2010PropOp36
 70
     1
102
RTVSPost2010Prop37
 90
       50
102
RTVSPost2010PropOp37
 70
     1
102
RTVSPost2010Prop38
140
0.0
102
RTVSPost2010PropOp38
 70
     1
102
RTVSPost2010Prop39
140
1.0
102
RTVSPost2010PropOp39
 70
     1
102
RTVSPost2010Prop40
 90
        0
102
RTVSPost2010PropOp40
 70
     1
102
RTVSPost2010Prop41ColorIndex
 90
       18
102
RTVSPost2010Prop41ColorRGB
 90
        0
102
RTVSPost2010PropOp41
 70
     1
102
RTVSPost2010Prop42
 90
       50
102
RTVSPost2010PropOp42
 70
     1
102
RTVSPost2010Prop43
 90
        3
102
RTVSPost2010PropOp43
 70
     1
102
RTVSPost2010Prop44ColorIndex
 90
        5
102
RTVSPost2010Prop44ColorRGB
 90
      255
102
RTVSPost2010PropOp44
 70
     1
102
RTVSPost2010Prop45
280
     0
102
RTVSPost2010PropOp45
 70
     1
102
RTVSPost2010Prop46
 90
       50
102
RTVSPost2010PropOp46
 70
     1
102
RTVSPost2010Prop47
 90
       50
102
RTVSPost2010PropOp47
 70
     1
102
RTVSPost2010Prop48
 90
       50
102
RTVSPost2010PropOp48
 70
     1
102
RTVSPost2010Prop49
280
     0
102
RTVSPost2010PropOp49
 70
     1
102
RTVSPost2010Prop50
 90
       50
102
RTVSPost2010PropOp50
 70
     1
102
RTVSPost2010Prop51ColorIndex
 90
      256
102
RTVSPost2010Prop51ColorRGB
 90
-16777216
102
RTVSPost2010PropOp51
 70
     0
102
RTVSPost2010Prop52
140
1.0
102
RTVSPost2010PropOp52
 70
     0
102
RTVSPost2010Prop53
 90
        2
102
RTVSPost2010PropOp53
 70
     1
102
RTVSPost2010Prop54
  1
strokes_ogs.tif
102
RTVSPost2010PropOp54
 70
     1
102
RTVSPost2010Prop55
280
     0
102
RTVSPost2010PropOp55
 70
     1
102
RTVSPost2010Prop56
140
1.0
102
RTVSPost2010PropOp56
 70
     1
102
RTVSPost2010Prop57
140
1.0
102
RTVSPost2010PropOp57
 70
     1
102
RTVSPropertyOp0
 70
     1
102
RTVSPropertyOp1
 70
     1
102
RTVSPropertyOp2
 70
     1
102
RTVSPropertyOp3
 70
     1
102
RTVSPropertyOp4
 70
     1
102
RTVSPropertyOp5
 70
     1
102
RTVSPropertyOp6
 70
     1
102
RTVSPropertyOp7
 70
     1
102
RTVSPropertyOp8
 70
     1
102
RTVSPropertyOp9
 70
     1
102
RTVSPropertyOp10
 70
     1
102
RTVSPropertyOp11
 70
     1
102
RTVSPropertyOp12
 70
     1
102
RTVSPropertyOp13
 70
     1
102
RTVSPropertyOp14
 70
     1
102
RTVSPropertyOp15
 70
     1
102
RTVSPropertyOp16
 70
     1
102
RTVSPropertyOp17
 70
     1
102
RTVSPropertyOp18
 70
     1
102
RTVSPropertyOp19
 70
     1
102
RTVSPropertyOp20
 70
     1
102
RTVSPropertyOp21
 70
     1
102
RTVSPropertyOp22
 70
     1
102
RTVSPropertyOp23
 70
     1
102
RTVSPropertyOp24
 70
     1
102
RTVSPropertyOp25
 70
     1
102
RTVSPropertyOp26
 70
     1
102
RTVSPropertyOp27
 70
     1
102
RTVSPropertyOp28
 70
     1
102
RTVSPropertyOp29
 70
     1
102
RTVSPropertyOp30
 70
     1
102
RTVSPropertyOp31
 70
     1
102
RTVSPropertyOp32
 70
     1
102
RTVSPropertyOp33
 70
     1
102
RTVSPropertyOp34
 70
     1
102
RTVSPropertyOp35
 70
     1
102
RTVSPropertyOp36
 70
     1
102
RTVSPropertyOp37
 70
     1
102
RTVSPropertyOp38
 70
     1
102
RTVSPropertyOp39
 70
     1
102
RTVSPropertyOp40
 70
     1
102
RTVSPropertyOp41
 70
     1
102
RTVSPropertyOp42
 70
     1
102
RTVSPropertyOp43
 70
     1
102
RTVSPropertyOp44
 70
     1
102
RTVSPropertyOp45
 70
     1
102
RTVSPropertyOp46
 70
     1
102
RTVSPropertyOp47
 70
     1
102
RTVSPropertyOp48
 70
     1
102
RTVSPropertyOp49
 70
     1
102
RTVSPropertyOp50
 70
     1
102
RTVSPropertyOp51
 70
     0
102
RTVSPropertyOp52
 70
     0
102
RTVSPropertyOp53
 70
     1
102
RTVSPropertyOp54
 70
     1
102
RTVSPropertyOp55
 70
     1
102
RTVSPropertyOp56
 70
     1
102
RTVSPropertyOp57
 70
     1
102
RTVSPropertyOp58
 70
     1
102
RTVSPropertyOp59
 70
     1
102
RTVSPropertyOp60
 70
     1
102
RTVSPropertyOp61
 70
     1
102
RTVSPropertyOp62
 70
     1
  0
ENDSEC
  0
EOF
