  0
SECTION
  2
HEADER
  9
$ACADVER
  1
AC1015
  9
$ACADMAINTVER
 70
    20
  9
$DWGCODEPAGE
  3
ANSI_932
  9
$INSBASE
 10
0.0
 20
0.0
 30
0.0
  9
$EXTMIN
 10
10.0
 20
9.999999999999998
 30
0.0
  9
$EXTMAX
 10
382.5286619999998
 20
206.965227
 30
0.0
  9
$LIMMIN
 10
0.0
 20
0.0
  9
$LIMMAX
 10
396.0
 20
273.0
  9
$ORTHOMODE
 70
     1
  9
$REGENMODE
 70
     1
  9
$FILLMODE
 70
     1
  9
$QTEXTMODE
 70
     0
  9
$MIRRTEXT
 70
     1
  9
$LTSCALE
 40
20.0
  9
$ATTMODE
 70
     1
  9
$TEXTSIZE
 40
5.0
  9
$TRACEWID
 40
1.0
  9
$TEXTSTYLE
  7
STANDARD
  9
$CLAYER
  8
0
  9
$CELTYPE
  6
BYLAYER
  9
$CECOLOR
 62
   256
  9
$CELTSCALE
 40
1.0
  9
$DISPSILH
 70
     0
  9
$DIMSCALE
 40
1.0
  9
$DIMASZ
 40
3.0
  9
$DIMEXO
 40
1.0
  9
$DIMDLI
 40
10.0
  9
$DIMRND
 40
0.0
  9
$DIMDLE
 40
0.0
  9
$DIMEXE
 40
1.0
  9
$DIMTP
 40
0.0
  9
$DIMTM
 40
0.0
  9
$DIMTXT
 40
3.2
  9
$DIMCEN
 40
0.0
  9
$DIMTSZ
 40
0.0
  9
$DIMTOL
 70
     0
  9
$DIMLIM
 70
     0
  9
$DIMTIH
 70
     0
  9
$DIMTOH
 70
     0
  9
$DIMSE1
 70
     0
  9
$DIMSE2
 70
     0
  9
$DIMTAD
 70
     3
  9
$DIMZIN
 70
     8
  9
$DIMBLK
  1

  9
$DIMASO
 70
     1
  9
$DIMSHO
 70
     1
  9
$DIMPOST
  1

  9
$DIMAPOST
  1

  9
$DIMALT
 70
     0
  9
$DIMALTD
 70
     2
  9
$DIMALTF
 40
25.4
  9
$DIMLFAC
 40
1.0
  9
$DIMTOFL
 70
     1
  9
$DIMTVP
 40
0.0
  9
$DIMTIX
 70
     0
  9
$DIMSOXD
 70
     0
  9
$DIMSAH
 70
     1
  9
$DIMBLK1
  1

  9
$DIMBLK2
  1

  9
$DIMSTYLE
  2
STANDARD
  9
$DIMCLRD
 70
     0
  9
$DIMCLRE
 70
     0
  9
$DIMCLRT
 70
     0
  9
$DIMTFAC
 40
1.0
  9
$DIMGAP
 40
1.0
  9
$DIMJUST
 70
     0
  9
$DIMSD1
 70
     0
  9
$DIMSD2
 70
     0
  9
$DIMTOLJ
 70
     1
  9
$DIMTZIN
 70
     0
  9
$DIMALTZ
 70
     0
  9
$DIMALTTZ
 70
     0
  9
$DIMUPT
 70
     0
  9
$DIMDEC
 70
     4
  9
$DIMTDEC
 70
     4
  9
$DIMALTU
 70
     2
  9
$DIMALTTD
 70
     2
  9
$DIMTXSTY
  7
STANDARD
  9
$DIMAUNIT
 70
     0
  9
$DIMADEC
 70
     0
  9
$DIMALTRND
 40
0.0
  9
$DIMAZIN
 70
     0
  9
$DIMDSEP
 70
    46
  9
$DIMATFIT
 70
     3
  9
$DIMFRAC
 70
     0
  9
$DIMLDRBLK
  1

  9
$DIMLUNIT
 70
     2
  9
$DIMLWD
 70
    -2
  9
$DIMLWE
 70
    -2
  9
$DIMTMOVE
 70
     0
  9
$LUNITS
 70
     2
  9
$LUPREC
 70
     4
  9
$SKETCHINC
 40
1.0
  9
$FILLETRAD
 40
2.5
  9
$AUNITS
 70
     0
  9
$AUPREC
 70
     2
  9
$MENU
  1
.
  9
$ELEVATION
 40
0.0
  9
$PELEVATION
 40
0.0
  9
$THICKNESS
 40
0.0
  9
$LIMCHECK
 70
     0
  9
$CHAMFERA
 40
10.0
  9
$CHAMFERB
 40
10.0
  9
$CHAMFERC
 40
0.0
  9
$CHAMFERD
 40
0.0
  9
$SKPOLY
 70
     0
  9
$TDCREATE
 40
2451066.697211690
  9
$TDUCREATE
 40
2451066.322211690
  9
$TDUPDATE
 40
2457192.603475070
  9
$TDUUPDATE
 40
2457192.228475070
  9
$TDINDWG
 40
0.0000145023
  9
$TDUSRTIMER
 40
0.0000141898
  9
$USRTIMER
 70
     1
  9
$ANGBASE
 50
0.0
  9
$ANGDIR
 70
     0
  9
$PDMODE
 70
     0
  9
$PDSIZE
 40
0.0
  9
$PLINEWID
 40
0.0
  9
$SPLFRAME
 70
     0
  9
$SPLINETYPE
 70
     6
  9
$SPLINESEGS
 70
     8
  9
$HANDSEED
  5
994A
  9
$SURFTAB1
 70
     6
  9
$SURFTAB2
 70
     6
  9
$SURFTYPE
 70
     6
  9
$SURFU
 70
     6
  9
$SURFV
 70
     6
  9
$UCSBASE
  2

  9
$UCSNAME
  2

  9
$UCSORG
 10
0.0
 20
0.0
 30
0.0
  9
$UCSXDIR
 10
1.0
 20
0.0
 30
0.0
  9
$UCSYDIR
 10
0.0
 20
1.0
 30
0.0
  9
$UCSORTHOREF
  2

  9
$UCSORTHOVIEW
 70
     0
  9
$UCSORGTOP
 10
0.0
 20
0.0
 30
0.0
  9
$UCSORGBOTTOM
 10
0.0
 20
0.0
 30
0.0
  9
$UCSORGLEFT
 10
0.0
 20
0.0
 30
0.0
  9
$UCSORGRIGHT
 10
0.0
 20
0.0
 30
0.0
  9
$UCSORGFRONT
 10
0.0
 20
0.0
 30
0.0
  9
$UCSORGBACK
 10
0.0
 20
0.0
 30
0.0
  9
$PUCSBASE
  2

  9
$PUCSNAME
  2

  9
$PUCSORG
 10
0.0
 20
0.0
 30
0.0
  9
$PUCSXDIR
 10
1.0
 20
0.0
 30
0.0
  9
$PUCSYDIR
 10
0.0
 20
1.0
 30
0.0
  9
$PUCSORTHOREF
  2

  9
$PUCSORTHOVIEW
 70
     0
  9
$PUCSORGTOP
 10
0.0
 20
0.0
 30
0.0
  9
$PUCSORGBOTTOM
 10
0.0
 20
0.0
 30
0.0
  9
$PUCSORGLEFT
 10
0.0
 20
0.0
 30
0.0
  9
$PUCSORGRIGHT
 10
0.0
 20
0.0
 30
0.0
  9
$PUCSORGFRONT
 10
0.0
 20
0.0
 30
0.0
  9
$PUCSORGBACK
 10
0.0
 20
0.0
 30
0.0
  9
$USERI1
 70
     0
  9
$USERI2
 70
     0
  9
$USERI3
 70
     0
  9
$USERI4
 70
     0
  9
$USERI5
 70
     0
  9
$USERR1
 40
0.0
  9
$USERR2
 40
0.0
  9
$USERR3
 40
0.0
  9
$USERR4
 40
0.0
  9
$USERR5
 40
0.0
  9
$WORLDVIEW
 70
     1
  9
$SHADEDGE
 70
     3
  9
$SHADEDIF
 70
    70
  9
$TILEMODE
 70
     1
  9
$MAXACTVP
 70
    16
  9
$PINSBASE
 10
0.0
 20
0.0
 30
0.0
  9
$PLIMCHECK
 70
     0
  9
$PEXTMIN
 10
1.000000000000000E+20
 20
1.000000000000000E+20
 30
1.000000000000000E+20
  9
$PEXTMAX
 10
-1.000000000000000E+20
 20
-1.000000000000000E+20
 30
-1.000000000000000E+20
  9
$PLIMMIN
 10
0.0
 20
0.0
  9
$PLIMMAX
 10
420.0
 20
297.0
  9
$UNITMODE
 70
     0
  9
$VISRETAIN
 70
     0
  9
$PLINEGEN
 70
     0
  9
$PSLTSCALE
 70
     0
  9
$TREEDEPTH
 70
  3020
  9
$CMLSTYLE
  2
STANDARD
  9
$CMLJUST
 70
     0
  9
$CMLSCALE
 40
1.0
  9
$PROXYGRAPHICS
 70
     1
  9
$MEASUREMENT
 70
     0
  9
$CELWEIGHT
370
    -1
  9
$ENDCAPS
280
     0
  9
$JOINSTYLE
280
     0
  9
$LWDISPLAY
290
     0
  9
$INSUNITS
 70
     0
  9
$HYPERLINKBASE
  1

  9
$STYLESHEET
  1

  9
$XEDIT
290
     1
  9
$CEPSNTYPE
380
     0
  9
$PSTYLEMODE
290
     1
  9
$FINGERPRINTGUID
  2
{6B1A43EB-0964-49CA-9A0B-B2955D7B9FDD}
  9
$VERSIONGUID
  2
{AF4716D8-6C37-4721-85A0-98C0739B52BC}
  9
$EXTNAMES
290
     1
  9
$PSVPSCALE
 40
0.0
  9
$OLESTARTUP
290
     0
  0
ENDSEC
  0
SECTION
  2
CLASSES
  0
CLASS
  1
ACDBDICTIONARYWDFLT
  2
AcDbDictionaryWithDefault
  3
ObjectDBX Classes
 90
        0
280
     0
281
     0
  0
CLASS
  1
ACDBPLACEHOLDER
  2
AcDbPlaceHolder
  3
ObjectDBX Classes
 90
        0
280
     0
281
     0
  0
CLASS
  1
LAYOUT
  2
AcDbLayout
  3
ObjectDBX Classes
 90
        0
280
     0
281
     0
  0
CLASS
  1
DICTIONARYVAR
  2
AcDbDictionaryVar
  3
ObjectDBX Classes
 90
        0
280
     0
281
     0
  0
CLASS
  1
MATERIAL
  2
AcDbMaterial
  3
ObjectDBX Classes
 90
     1153
280
     0
281
     0
  0
CLASS
  1
VISUALSTYLE
  2
AcDbVisualStyle
  3
ObjectDBX Classes
 90
     4095
280
     0
281
     0
  0
CLASS
  1
TABLESTYLE
  2
AcDbTableStyle
  3
ObjectDBX Classes
 90
     4095
280
     0
281
     0
  0
CLASS
  1
SCALE
  2
AcDbScale
  3
ObjectDBX Classes
 90
     1153
280
     0
281
     0
  0
CLASS
  1
MLEADERSTYLE
  2
AcDbMLeaderStyle
  3
ACDB_MLEADERSTYLE_CLASS
 90
     4095
280
     0
281
     0
  0
CLASS
  1
ACDBSECTIONVIEWSTYLE
  2
AcDbSectionViewStyle
  3
ObjectDBX Classes
 90
     1025
280
     0
281
     0
  0
CLASS
  1
ACDBDETAILVIEWSTYLE
  2
AcDbDetailViewStyle
  3
ObjectDBX Classes
 90
     1025
280
     0
281
     0
  0
CLASS
  1
CELLSTYLEMAP
  2
AcDbCellStyleMap
  3
ObjectDBX Classes
 90
     1152
280
     0
281
     0
  0
ENDSEC
  0
SECTION
  2
TABLES
  0
TABLE
  2
VPORT
  5
9664
330
0
100
AcDbSymbolTable
 70
     1
  0
VPORT
  5
9893
330
9664
100
AcDbSymbolTableRecord
100
AcDbViewportTableRecord
  2
*ACTIVE
 70
     0
 10
0.0
 20
0.0
 11
1.0
 21
1.0
 12
260.4058444314874
 22
108.4860082934446
 13
0.0
 23
0.0
 14
10.0
 24
10.0
 15
10.0
 25
10.0
 16
0.0
 26
0.0
 36
1.0
 17
0.0
 27
0.0
 37
0.0
 40
214.1443494470379
 41
1.899603698811096
 42
50.0
 43
0.0
 44
0.0
 50
0.0
 51
0.0
 71
     0
 72
   100
 73
     1
 74
     0
 75
     0
 76
     0
 77
     0
 78
     0
281
     0
 65
     1
110
0.0
120
0.0
130
0.0
111
1.0
121
0.0
131
0.0
112
0.0
122
1.0
132
0.0
 79
     0
146
0.0
1001
ACAD_NAV_VCDISPLAY
1070
     3
  0
ENDTAB
  0
TABLE
  2
LTYPE
  5
9661
330
0
100
AcDbSymbolTable
 70
     4
  0
LTYPE
  5
966F
330
9661
100
AcDbSymbolTableRecord
100
AcDbLinetypeTableRecord
  2
BYBLOCK
 70
     0
  3

 72
    65
 73
     0
 40
0.0
  0
LTYPE
  5
9670
330
9661
100
AcDbSymbolTableRecord
100
AcDbLinetypeTableRecord
  2
BYLAYER
 70
     0
  3

 72
    65
 73
     0
 40
0.0
  0
LTYPE
  5
9671
330
9661
100
AcDbSymbolTableRecord
100
AcDbLinetypeTableRecord
  2
CONTINUOUS
 70
     0
  3
Solid line
 72
    65
 73
     0
 40
0.0
  0
LTYPE
  5
967F
330
9661
100
AcDbSymbolTableRecord
100
AcDbLinetypeTableRecord
  2
DASHED
 70
     0
  3
__ __ __ __ __ __ __ __ __ __ __ __ __ __ __ __
 72
    65
 73
     2
 40
0.75
 49
0.5
 74
     0
 49
-0.25
 74
     0
  0
LTYPE
  5
9680
330
9661
100
AcDbSymbolTableRecord
100
AcDbLinetypeTableRecord
  2
CENTER
 70
     0
  3
____ _ ____ _ ____ _ ____ _ ____ _ ____ _ ____ 
 72
    65
 73
     4
 40
2.0
 49
1.25
 74
     0
 49
-0.25
 74
     0
 49
0.25
 74
     0
 49
-0.25
 74
     0
  0
LTYPE
  5
9681
330
9661
100
AcDbSymbolTableRecord
100
AcDbLinetypeTableRecord
  2
PHANTOM
 70
     0
  3
______  __  __  ______  __  __  ______  __  __ 
 72
    65
 73
     6
 40
2.5
 49
1.25
 74
     0
 49
-0.25
 74
     0
 49
0.25
 74
     0
 49
-0.25
 74
     0
 49
0.25
 74
     0
 49
-0.25
 74
     0
  0
ENDTAB
  0
TABLE
  2
LAYER
  5
965E
330
0
100
AcDbSymbolTable
 70
     8
  0
LAYER
  5
966C
102
{ACAD_XDICTIONARY
360
98EE
102
}
330
965E
100
AcDbSymbolTableRecord
100
AcDbLayerTableRecord
  2
0
 70
     0
 62
     7
  6
CONTINUOUS
370
    -3
390
989C
  0
LAYER
  5
9682
102
{ACAD_XDICTIONARY
360
98F0
102
}
330
965E
100
AcDbSymbolTableRecord
100
AcDbLayerTableRecord
  2
4
 70
     0
 62
     1
  6
CENTER
370
    -3
390
989C
  0
LAYER
  5
9683
102
{ACAD_XDICTIONARY
360
98F2
102
}
330
965E
100
AcDbSymbolTableRecord
100
AcDbLayerTableRecord
  2
5
 70
     0
 62
     6
  6
PHANTOM
370
    -3
390
989C
  0
LAYER
  5
9684
102
{ACAD_XDICTIONARY
360
98F4
102
}
330
965E
100
AcDbSymbolTableRecord
100
AcDbLayerTableRecord
  2
1
 70
     0
 62
     7
  6
CONTINUOUS
370
    -3
390
989C
  0
LAYER
  5
9685
102
{ACAD_XDICTIONARY
360
98F6
102
}
330
965E
100
AcDbSymbolTableRecord
100
AcDbLayerTableRecord
  2
2
 70
     0
 62
     4
  6
CONTINUOUS
370
    -3
390
989C
  0
LAYER
  5
9686
102
{ACAD_XDICTIONARY
360
98F8
102
}
330
965E
100
AcDbSymbolTableRecord
100
AcDbLayerTableRecord
  2
3
 70
     0
 62
     2
  6
DASHED
370
    -3
390
989C
  0
LAYER
  5
9687
102
{ACAD_XDICTIONARY
360
98FA
102
}
330
965E
100
AcDbSymbolTableRecord
100
AcDbLayerTableRecord
  2
6
 70
     0
 62
     5
  6
CONTINUOUS
370
    -3
390
989C
  0
LAYER
  5
9688
102
{ACAD_XDICTIONARY
360
98FC
102
}
330
965E
100
AcDbSymbolTableRecord
100
AcDbLayerTableRecord
  2
7
 70
     0
 62
     3
  6
CONTINUOUS
370
    -3
390
989C
  0
ENDTAB
  0
TABLE
  2
STYLE
  5
965F
330
0
100
AcDbSymbolTable
 70
     1
  0
STYLE
  5
966D
330
965F
100
AcDbSymbolTableRecord
100
AcDbTextStyleTableRecord
  2
STANDARD
 70
     0
 40
0.0
 41
1.0
 50
0.0
 71
     0
 42
5.0
  3
txt
  4

  0
ENDTAB
  0
TABLE
  2
VIEW
  5
9662
330
0
100
AcDbSymbolTable
 70
     0
  0
ENDTAB
  0
TABLE
  2
UCS
  5
9663
330
0
100
AcDbSymbolTable
 70
     0
  0
ENDTAB
  0
TABLE
  2
APPID
  5
9665
330
0
100
AcDbSymbolTable
 70
     3
  0
APPID
  5
966E
330
9665
100
AcDbSymbolTableRecord
100
AcDbRegAppTableRecord
  2
ACAD
 70
     0
  0
APPID
  5
9908
330
9665
100
AcDbSymbolTableRecord
100
AcDbRegAppTableRecord
  2
ACAD_NAV_VCDISPLAY
 70
     0
  0
APPID
  5
9941
330
9665
100
AcDbSymbolTableRecord
100
AcDbRegAppTableRecord
  2
ACAD_MLEADERVER
 70
     0
  0
ENDTAB
  0
TABLE
  2
DIMSTYLE
  5
9666
330
0
100
AcDbSymbolTable
 70
     1
100
AcDbDimStyleTable
 71
     0
  0
DIMSTYLE
105
968A
330
9666
100
AcDbSymbolTableRecord
100
AcDbDimStyleTableRecord
  2
STANDARD
 70
     0
 41
3.0
 42
1.0
 43
10.0
 44
1.0
 73
     0
 74
     0
 77
     3
 78
     8
140
3.2
141
0.0
147
1.0
172
     1
173
     1
284
     8
285
     8
286
     8
340
966D
  0
ENDTAB
  0
TABLE
  2
BLOCK_RECORD
  5
965D
330
0
100
AcDbSymbolTable
 70
     0
  0
BLOCK_RECORD
  5
967A
102
{ACAD_XDICTIONARY
360
9896
102
}
330
965D
100
AcDbSymbolTableRecord
100
AcDbBlockTableRecord
  2
*MODEL_SPACE
340
98EA
  0
BLOCK_RECORD
  5
9676
102
{ACAD_XDICTIONARY
360
9894
102
}
330
965D
100
AcDbSymbolTableRecord
100
AcDbBlockTableRecord
  2
*PAPER_SPACE
340
98EB
  0
ENDTAB
  0
ENDSEC
  0
SECTION
  2
BLOCKS
  0
BLOCK
  5
967B
330
967A
100
AcDbEntity
  8
0
100
AcDbBlockBegin
  2
*MODEL_SPACE
 70
     0
 10
0.0
 20
0.0
 30
0.0
  3
*MODEL_SPACE
  1

  0
ENDBLK
  5
967C
330
967A
100
AcDbEntity
  8
0
100
AcDbBlockEnd
  0
BLOCK
  5
9677
330
9676
100
AcDbEntity
 67
     1
  8
0
100
AcDbBlockBegin
  2
*PAPER_SPACE
 70
     0
 10
0.0
 20
0.0
 30
0.0
  3
*PAPER_SPACE
  1

  0
ENDBLK
  5
9678
330
9676
100
AcDbEntity
 67
     1
  8
0
100
AcDbBlockEnd
  0
ENDSEC
  0
SECTION
  2
ENTITIES
  0
TEXT
  5
9692
330
967A
100
AcDbEntity
  8
7
  6
Continuous
100
AcDbText
 10
10.0
 20
18.0
 30
0.0
 40
3.0
  1
TYPE No.TL-86-4
100
AcDbText
  0
TEXT
  5
9693
330
967A
100
AcDbEntity
  8
7
  6
Continuous
100
AcDbText
 10
10.0
 20
26.0
 30
0.0
 40
3.0
  1
CODE No.1243
100
AcDbText
  0
TEXT
  5
9694
330
967A
100
AcDbEntity
  8
1
  6
Continuous
100
AcDbText
 10
10.0
 20
10.0
 30
0.0
 40
1.399999999999999
  1
LAYER
100
AcDbText
  0
TEXT
  5
9695
330
967A
100
AcDbEntity
  8
1
  6
Continuous
100
AcDbText
 10
17.97951099999998
 20
10.04873699999998
 30
0.0
 40
1.399999999999999
  1
1
100
AcDbText
  0
TEXT
  5
9696
330
967A
100
AcDbEntity
  8
7
  6
Continuous
100
AcDbText
 10
29.97951099999999
 20
10.04873699999998
 30
0.0
 40
1.399999999999999
  1
7
100
AcDbText
  0
TEXT
  5
9697
330
967A
100
AcDbEntity
  8
4
  6
CENTER
100
AcDbText
 10
23.97951099999999
 20
10.04873699999998
 30
0.0
 40
1.399999999999999
  1
4
100
AcDbText
  0
TEXT
  5
9698
330
967A
100
AcDbEntity
  8
3
  6
DASHED
100
AcDbText
 10
21.979511
 20
10.04873699999998
 30
0.0
 40
1.399999999999999
  1
3
100
AcDbText
  0
TEXT
  5
9699
330
967A
100
AcDbEntity
  8
2
  6
Continuous
100
AcDbText
 10
19.97951099999999
 20
10.04873699999998
 30
0.0
 40
1.399999999999999
  1
2
100
AcDbText
  0
TEXT
  5
969A
330
967A
100
AcDbEntity
  8
6
  6
Continuous
100
AcDbText
 10
27.979511
 20
10.04873699999998
 30
0.0
 40
1.399999999999999
  1
6
100
AcDbText
  0
TEXT
  5
969B
330
967A
100
AcDbEntity
  8
5
  6
PHANTOM
100
AcDbText
 10
25.97951099999999
 20
10.04873699999998
 30
0.0
 40
1.399999999999999
  1
5
100
AcDbText
  0
LINE
  5
969C
330
967A
100
AcDbEntity
  8
4
  6
CENTER
100
AcDbLine
 10
14.843462
 20
118.965227
 30
0.0
 11
53.263062
 21
118.965227
 31
0.0
  0
LINE
  5
969D
330
967A
100
AcDbEntity
  8
4
  6
CENTER
100
AcDbLine
 10
25.02496199999999
 20
136.526795
 30
0.0
 11
25.02496199999999
 21
101.936227
 31
0.0
  0
LINE
  5
969E
330
967A
100
AcDbEntity
  8
1
  6
Continuous
100
AcDbLine
 10
18.024962
 20
132.9652269999999
 30
0.0
 11
18.024962
 21
122.8382269999999
 31
0.0
  0
LINE
  5
969F
330
967A
100
AcDbEntity
  8
1
  6
Continuous
100
AcDbLine
 10
32.02496200000001
 20
132.9652269999999
 30
0.0
 11
32.02496200000001
 21
122.83821
 31
0.0
  0
LINE
  5
96A0
330
967A
100
AcDbEntity
  8
1
  6
Continuous
100
AcDbLine
 10
18.024962
 20
104.9652269999999
 30
0.0
 11
32.02496200000001
 21
104.9652269999999
 31
0.0
  0
LINE
  5
96A1
330
967A
100
AcDbEntity
  8
1
  6
Continuous
100
AcDbLine
 10
18.024962
 20
132.9652269999999
 30
0.0
 11
32.02496200000001
 21
132.9652269999999
 31
0.0
  0
LINE
  5
96A2
330
967A
100
AcDbEntity
  8
4
  6
CENTER
100
AcDbLine
 10
21.289662
 20
128.9652269999999
 30
0.0
 11
28.690762
 21
128.9652269999999
 31
0.0
  0
LINE
  5
96A3
330
967A
100
AcDbEntity
  8
4
  6
CENTER
100
AcDbLine
 10
21.210062
 20
108.9652269999999
 30
0.0
 11
29.009062
 21
108.9652269999999
 31
0.0
  0
LINE
  5
96A4
330
967A
100
AcDbEntity
  8
1
  6
Continuous
100
AcDbLine
 10
127.0246619999999
 20
204.965227
 30
0.0
 11
127.0246619999999
 21
192.965227
 31
0.0
  0
LINE
  5
96A5
330
967A
100
AcDbEntity
  8
1
  6
Continuous
100
AcDbLine
 10
130.024662
 20
205.9652269999999
 30
0.0
 11
130.024662
 21
204.965227
 31
0.0
  0
LINE
  5
96A6
330
967A
100
AcDbEntity
  8
1
  6
Continuous
100
AcDbLine
 10
145.024662
 20
204.965227
 30
0.0
 11
145.024662
 21
193.4652269999999
 31
0.0
  0
LINE
  5
96A7
330
967A
100
AcDbEntity
  8
1
  6
Continuous
100
AcDbLine
 10
149.024662
 20
200.565227
 30
0.0
 11
149.024662
 21
197.365227
 31
0.0
  0
LINE
  5
96A8
330
967A
100
AcDbEntity
  8
1
  6
Continuous
100
AcDbLine
 10
146.024662
 20
200.565227
 30
0.0
 11
146.024662
 21
198.645227
 31
0.0
  0
LINE
  5
96A9
330
967A
100
AcDbEntity
  8
1
  6
Continuous
100
AcDbLine
 10
147.824662
 20
203.265227
 30
0.0
 11
147.824662
 21
194.6652269999999
 31
0.0
  0
LINE
  5
96AA
330
967A
100
AcDbEntity
  8
1
  6
Continuous
100
AcDbLine
 10
147.824662
 20
200.565227
 30
0.0
 11
149.024662
 21
200.565227
 31
0.0
  0
LINE
  5
96AB
330
967A
100
AcDbEntity
  8
1
  6
Continuous
100
AcDbLine
 10
147.824662
 20
197.365227
 30
0.0
 11
149.024662
 21
197.365227
 31
0.0
  0
LINE
  5
96AC
330
967A
100
AcDbEntity
  8
1
  6
Continuous
100
AcDbLine
 10
146.134662
 20
197.815227
 30
0.0
 11
146.3246619999999
 21
197.815227
 31
0.0
  0
LINE
  5
96AD
330
967A
100
AcDbEntity
  8
1
  6
Continuous
100
AcDbLine
 10
146.024662
 20
200.1152269999999
 30
0.0
 11
146.3246619999999
 21
200.1152269999999
 31
0.0
  0
LINE
  5
96AE
330
967A
100
AcDbEntity
  8
1
  6
Continuous
100
AcDbLine
 10
133.524662
 20
121.4652269999999
 30
0.0
 11
133.524662
 21
116.4652269999999
 31
0.0
  0
LINE
  5
96AF
330
967A
100
AcDbEntity
  8
1
  6
Continuous
100
AcDbLine
 10
145.024662
 20
197.365227
 30
0.0
 11
145.7906619999999
 21
197.365227
 31
0.0
  0
LINE
  5
96B0
330
967A
100
AcDbEntity
  8
1
  6
Continuous
100
AcDbLine
 10
145.024662
 20
200.565227
 30
0.0
 11
145.367662
 21
200.565227
 31
0.0
  0
LINE
  5
96B1
330
967A
100
AcDbEntity
  8
1
  6
Continuous
100
AcDbLine
 10
133.524662
 20
121.4652269999999
 30
0.0
 11
134.459662
 21
121.4652269999999
 31
0.0
  0
LINE
  5
96B2
330
967A
100
AcDbEntity
  8
1
  6
Continuous
100
AcDbLine
 10
133.524662
 20
116.4652269999999
 30
0.0
 11
133.5826619999999
 21
116.4652269999999
 31
0.0
  0
LINE
  5
96B3
330
967A
100
AcDbEntity
  8
2
  6
Continuous
100
AcDbLine
 10
133.524662
 20
121.032227
 30
0.0
 11
134.3836619999999
 21
121.032227
 31
0.0
  0
LINE
  5
96B4
330
967A
100
AcDbEntity
  8
2
  6
Continuous
100
AcDbLine
 10
133.524662
 20
116.898227
 30
0.0
 11
133.658662
 21
116.898227
 31
0.0
  0
LINE
  5
96B5
330
967A
100
AcDbEntity
  8
1
  6
Continuous
100
AcDbLine
 10
132.024662
 20
120.965227
 30
0.0
 11
132.3716619999999
 21
120.965227
 31
0.0
  0
LINE
  5
96B6
330
967A
100
AcDbEntity
  8
1
  6
Continuous
100
AcDbLine
 10
132.177662
 20
116.965227
 30
0.0
 11
133.524662
 21
116.965227
 31
0.0
  0
LINE
  5
96B7
330
967A
100
AcDbEntity
  8
1
  6
Continuous
100
AcDbLine
 10
132.024662
 20
121.4652269999999
 30
0.0
 11
132.024662
 21
118.987227
 31
0.0
  0
LINE
  5
96B8
330
967A
100
AcDbEntity
  8
1
  6
Continuous
100
AcDbLine
 10
129.024662
 20
201.465227
 30
0.0
 11
130.459662
 21
201.465227
 31
0.0
  0
LINE
  5
96B9
330
967A
100
AcDbEntity
  8
4
  6
CENTER
100
AcDbLine
 10
268.206662
 20
118.965227
 30
0.0
 11
229.5666619999999
 21
118.965227
 31
0.0
  0
LINE
  5
96BA
330
967A
100
AcDbEntity
  8
4
  6
CENTER
100
AcDbLine
 10
258.024662
 20
135.8382269999999
 30
0.0
 11
258.024662
 21
101.936227
 31
0.0
  0
LINE
  5
96BB
330
967A
100
AcDbEntity
  8
1
  6
Continuous
100
AcDbLine
 10
265.0246619999999
 20
132.9652269999999
 30
0.0
 11
265.0246619999999
 21
104.9652269999999
 31
0.0
  0
LINE
  5
96BC
330
967A
100
AcDbEntity
  8
1
  6
Continuous
100
AcDbLine
 10
265.0246619999999
 20
104.9652269999999
 30
0.0
 11
251.024662
 21
104.9652269999999
 31
0.0
  0
LINE
  5
96BD
330
967A
100
AcDbEntity
  8
1
  6
Continuous
100
AcDbLine
 10
265.0246619999999
 20
132.9652269999999
 30
0.0
 11
251.024662
 21
132.9652269999999
 31
0.0
  0
LINE
  5
96BE
330
967A
100
AcDbEntity
  8
4
  6
CENTER
100
AcDbLine
 10
261.760662
 20
128.9652269999999
 30
0.0
 11
254.3596619999999
 21
128.9652269999999
 31
0.0
  0
LINE
  5
96BF
330
967A
100
AcDbEntity
  8
4
  6
CENTER
100
AcDbLine
 10
261.8396619999999
 20
108.9652269999999
 30
0.0
 11
254.040662
 21
108.9652269999999
 31
0.0
  0
LINE
  5
96C0
330
967A
100
AcDbEntity
  8
1
  6
Continuous
100
AcDbLine
 10
264.0246619999999
 20
132.9652269999999
 30
0.0
 11
264.0246619999999
 21
124.465227
 31
0.0
  0
LINE
  5
96C1
330
967A
100
AcDbEntity
  8
1
  6
Continuous
100
AcDbLine
 10
265.0246619999999
 20
124.465227
 30
0.0
 11
261.9236619999999
 21
124.465227
 31
0.0
  0
LINE
  5
96C2
330
967A
100
AcDbEntity
  8
1
  6
Continuous
100
AcDbLine
 10
265.0246619999999
 20
113.4652269999999
 30
0.0
 11
263.5246619999999
 21
113.4652269999999
 31
0.0
  0
LINE
  5
96C3
330
967A
100
AcDbEntity
  8
1
  6
Continuous
100
AcDbLine
 10
263.5246619999999
 20
111.965227
 30
0.0
 11
252.524662
 21
111.965227
 31
0.0
  0
LINE
  5
96C4
330
967A
100
AcDbEntity
  8
1
  6
Continuous
100
AcDbLine
 10
264.0246619999999
 20
113.4652269999999
 30
0.0
 11
264.0246619999999
 21
104.9652269999999
 31
0.0
  0
LINE
  5
96C5
330
967A
100
AcDbEntity
  8
1
  6
Continuous
100
AcDbLine
 10
257.0246619999999
 20
122.4232269999999
 30
0.0
 11
256.1106619999999
 21
124.316227
 31
0.0
  0
LINE
  5
96C6
330
967A
100
AcDbEntity
  8
1
  6
Continuous
100
AcDbLine
 10
259.0246619999999
 20
122.4232269999999
 30
0.0
 11
259.9396619999998
 21
124.316227
 31
0.0
  0
LINE
  5
96C7
330
967A
100
AcDbEntity
  8
1
  6
Continuous
100
AcDbLine
 10
260.933662
 20
121.087227
 30
0.0
 11
262.010662
 21
123.3152269999999
 31
0.0
  0
LINE
  5
96C8
330
967A
100
AcDbEntity
  8
1
  6
Continuous
100
AcDbLine
 10
255.116662
 20
121.087227
 30
0.0
 11
254.039662
 21
123.3152269999999
 31
0.0
  0
LINE
  5
96C9
330
967A
100
AcDbEntity
  8
1
  6
Continuous
100
AcDbLine
 10
259.1006619999999
 20
117.7812269999999
 30
0.0
 11
260.0506619999998
 21
113.373227
 31
0.0
  0
LINE
  5
96CA
330
967A
100
AcDbEntity
  8
1
  6
Continuous
100
AcDbLine
 10
256.948662
 20
117.7812269999999
 30
0.0
 11
255.999662
 21
113.373227
 31
0.0
  0
LINE
  5
96CB
330
967A
100
AcDbEntity
  8
1
  6
Continuous
100
AcDbLine
 10
254.607662
 20
117.8342269999999
 30
0.0
 11
253.750662
 21
113.857227
 31
0.0
  0
LINE
  5
96CC
330
967A
100
AcDbEntity
  8
1
  6
Continuous
100
AcDbLine
 10
261.4426619999999
 20
117.8342269999999
 30
0.0
 11
262.299662
 21
113.857227
 31
0.0
  0
LINE
  5
96CD
330
967A
100
AcDbEntity
  8
1
  6
Continuous
100
AcDbLine
 10
260.0266619999998
 20
124.465227
 30
0.0
 11
257.5246619999999
 21
124.465227
 31
0.0
  0
LINE
  5
96CE
330
967A
100
AcDbEntity
  8
1
  6
Continuous
100
AcDbLine
 10
146.3246619999999
 20
203.265227
 30
0.0
 11
146.3246619999999
 21
194.6652269999999
 31
0.0
  0
LINE
  5
96CF
330
967A
100
AcDbEntity
  8
1
  6
Continuous
100
AcDbLine
 10
127.0246619999999
 20
132.9652269999999
 30
0.0
 11
130.024662
 21
132.9652269999999
 31
0.0
  0
LINE
  5
96D0
330
967A
100
AcDbEntity
  8
1
  6
Continuous
100
AcDbLine
 10
127.0246619999999
 20
104.9652269999999
 30
0.0
 11
130.024662
 21
104.9652269999999
 31
0.0
  0
LINE
  5
96D1
330
967A
100
AcDbEntity
  8
1
  6
Continuous
100
AcDbLine
 10
127.0246619999999
 20
132.9652269999999
 30
0.0
 11
127.0246619999999
 21
104.9652269999999
 31
0.0
  0
LINE
  5
96D2
330
967A
100
AcDbEntity
  8
1
  6
Continuous
100
AcDbLine
 10
130.024662
 20
132.9652269999999
 30
0.0
 11
130.024662
 21
104.9652269999999
 31
0.0
  0
LINE
  5
96D3
330
967A
100
AcDbEntity
  8
4
  6
CENTER
100
AcDbLine
 10
106.651662
 20
38.965227
 30
0.0
 11
151.920662
 21
38.965227
 31
0.0
  0
LINE
  5
96D4
330
967A
100
AcDbEntity
  8
1
  6
Continuous
100
AcDbLine
 10
130.024662
 20
124.465227
 30
0.0
 11
145.024662
 21
124.465227
 31
0.0
  0
LINE
  5
96D5
330
967A
100
AcDbEntity
  8
1
  6
Continuous
100
AcDbLine
 10
130.024662
 20
111.965227
 30
0.0
 11
144.024662
 21
111.965227
 31
0.0
  0
LINE
  5
96D6
330
967A
100
AcDbEntity
  8
1
  6
Continuous
100
AcDbLine
 10
130.024662
 20
113.4652269999999
 30
0.0
 11
144.024662
 21
113.4652269999999
 31
0.0
  0
LINE
  5
96D7
330
967A
100
AcDbEntity
  8
1
  6
Continuous
100
AcDbLine
 10
130.024662
 20
112.965227
 30
0.0
 11
144.024662
 21
112.965227
 31
0.0
  0
LINE
  5
96D8
330
967A
100
AcDbEntity
  8
1
  6
Continuous
100
AcDbLine
 10
145.024662
 20
124.465227
 30
0.0
 11
145.024662
 21
112.965227
 31
0.0
  0
LINE
  5
96D9
330
967A
100
AcDbEntity
  8
1
  6
Continuous
100
AcDbLine
 10
144.024662
 20
124.465227
 30
0.0
 11
144.024662
 21
112.965227
 31
0.0
  0
LINE
  5
96DA
330
967A
100
AcDbEntity
  8
1
  6
Continuous
100
AcDbLine
 10
149.024662
 20
120.5652269999999
 30
0.0
 11
149.024662
 21
117.365227
 31
0.0
  0
LINE
  5
96DB
330
967A
100
AcDbEntity
  8
1
  6
Continuous
100
AcDbLine
 10
146.024662
 20
120.5652269999999
 30
0.0
 11
146.024662
 21
118.6452269999999
 31
0.0
  0
LINE
  5
96DC
330
967A
100
AcDbEntity
  8
1
  6
Continuous
100
AcDbLine
 10
147.824662
 20
124.965227
 30
0.0
 11
147.824662
 21
112.465227
 31
0.0
  0
LINE
  5
96DD
330
967A
100
AcDbEntity
  8
1
  6
Continuous
100
AcDbLine
 10
147.824662
 20
120.5652269999999
 30
0.0
 11
149.024662
 21
120.5652269999999
 31
0.0
  0
LINE
  5
96DE
330
967A
100
AcDbEntity
  8
1
  6
Continuous
100
AcDbLine
 10
147.824662
 20
117.365227
 30
0.0
 11
149.024662
 21
117.365227
 31
0.0
  0
LINE
  5
96DF
330
967A
100
AcDbEntity
  8
1
  6
Continuous
100
AcDbLine
 10
146.134662
 20
117.815227
 30
0.0
 11
146.3246619999999
 21
117.815227
 31
0.0
  0
LINE
  5
96E0
330
967A
100
AcDbEntity
  8
1
  6
Continuous
100
AcDbLine
 10
146.024662
 20
120.115227
 30
0.0
 11
146.3246619999999
 21
120.115227
 31
0.0
  0
LINE
  5
96E1
330
967A
100
AcDbEntity
  8
1
  6
Continuous
100
AcDbLine
 10
145.024662
 20
117.365227
 30
0.0
 11
145.7906619999999
 21
117.365227
 31
0.0
  0
LINE
  5
96E2
330
967A
100
AcDbEntity
  8
1
  6
Continuous
100
AcDbLine
 10
145.024662
 20
120.5652269999999
 30
0.0
 11
145.367662
 21
120.5652269999999
 31
0.0
  0
LINE
  5
96E3
330
967A
100
AcDbEntity
  8
1
  6
Continuous
100
AcDbLine
 10
146.3246619999999
 20
112.465227
 30
0.0
 11
147.824662
 21
112.465227
 31
0.0
  0
LINE
  5
96E4
330
967A
100
AcDbEntity
  8
1
  6
Continuous
100
AcDbLine
 10
146.3246619999999
 20
124.965227
 30
0.0
 11
147.824662
 21
124.965227
 31
0.0
  0
LINE
  5
96E5
330
967A
100
AcDbEntity
  8
1
  6
Continuous
100
AcDbLine
 10
146.3246619999999
 20
121.087227
 30
0.0
 11
147.824662
 21
121.087227
 31
0.0
  0
LINE
  5
96E6
330
967A
100
AcDbEntity
  8
1
  6
Continuous
100
AcDbLine
 10
146.3246619999999
 20
124.965227
 30
0.0
 11
146.3246619999999
 21
112.465227
 31
0.0
  0
LINE
  5
96E7
330
967A
100
AcDbEntity
  8
1
  6
Continuous
100
AcDbLine
 10
146.3246619999999
 20
117.8342269999999
 30
0.0
 11
147.824662
 21
117.8342269999999
 31
0.0
  0
LINE
  5
96E8
330
967A
100
AcDbEntity
  8
1
  6
Continuous
100
AcDbLine
 10
128.0246619999998
 20
191.965227
 30
0.0
 11
130.024662
 21
191.965227
 31
0.0
  0
LINE
  5
96E9
330
967A
100
AcDbEntity
  8
1
  6
Continuous
100
AcDbLine
 10
128.0246619999998
 20
204.965227
 30
0.0
 11
128.0246619999998
 21
192.965227
 31
0.0
  0
LINE
  5
96EA
330
967A
100
AcDbEntity
  8
1
  6
Continuous
100
AcDbLine
 10
128.0246619999998
 20
192.965227
 30
0.0
 11
130.024662
 21
192.965227
 31
0.0
  0
LINE
  5
96EB
330
967A
100
AcDbEntity
  8
1
  6
Continuous
100
AcDbLine
 10
130.024662
 20
192.965227
 30
0.0
 11
130.024662
 21
191.965227
 31
0.0
  0
LINE
  5
96EC
330
967A
100
AcDbEntity
  8
1
  6
Continuous
100
AcDbLine
 10
128.0246619999998
 20
204.4652269999999
 30
0.0
 11
144.024662
 21
204.4652269999999
 31
0.0
  0
LINE
  5
96ED
330
967A
100
AcDbEntity
  8
1
  6
Continuous
100
AcDbLine
 10
128.0246619999998
 20
205.9652269999999
 30
0.0
 11
144.024662
 21
205.9652269999999
 31
0.0
  0
LINE
  5
96EE
330
967A
100
AcDbEntity
  8
1
  6
Continuous
100
AcDbLine
 10
128.0246619999998
 20
204.965227
 30
0.0
 11
144.024662
 21
204.965227
 31
0.0
  0
LINE
  5
96EF
330
967A
100
AcDbEntity
  8
1
  6
Continuous
100
AcDbLine
 10
128.524662
 20
202.2152269999998
 30
0.0
 11
128.524662
 21
195.715227
 31
0.0
  0
LINE
  5
96F0
330
967A
100
AcDbEntity
  8
1
  6
Continuous
100
AcDbLine
 10
128.0246619999998
 20
195.715227
 30
0.0
 11
128.524662
 21
195.715227
 31
0.0
  0
LINE
  5
96F1
330
967A
100
AcDbEntity
  8
1
  6
Continuous
100
AcDbLine
 10
128.0246619999998
 20
202.2152269999998
 30
0.0
 11
128.524662
 21
202.2152269999998
 31
0.0
  0
LINE
  5
96F2
330
967A
100
AcDbEntity
  8
1
  6
Continuous
100
AcDbLine
 10
146.3246619999999
 20
203.065227
 30
0.0
 11
147.824662
 21
203.065227
 31
0.0
  0
LINE
  5
96F3
330
967A
100
AcDbEntity
  8
1
  6
Continuous
100
AcDbLine
 10
146.3246619999999
 20
194.865227
 30
0.0
 11
147.824662
 21
194.865227
 31
0.0
  0
LINE
  5
96F4
330
967A
100
AcDbEntity
  8
1
  6
Continuous
100
AcDbLine
 10
146.3246619999999
 20
199.965227
 30
0.0
 11
147.824662
 21
199.965227
 31
0.0
  0
LINE
  5
96F5
330
967A
100
AcDbEntity
  8
1
  6
Continuous
100
AcDbLine
 10
146.3246619999999
 20
197.965227
 30
0.0
 11
147.824662
 21
197.965227
 31
0.0
  0
LINE
  5
96F6
330
967A
100
AcDbEntity
  8
1
  6
Continuous
100
AcDbLine
 10
146.3246619999999
 20
203.265227
 30
0.0
 11
147.824662
 21
203.265227
 31
0.0
  0
LINE
  5
96F7
330
967A
100
AcDbEntity
  8
1
  6
Continuous
100
AcDbLine
 10
146.3246619999999
 20
194.6652269999999
 30
0.0
 11
147.824662
 21
194.6652269999999
 31
0.0
  0
LINE
  5
96F8
330
967A
100
AcDbEntity
  8
1
  6
Continuous
100
AcDbLine
 10
145.7706619999999
 20
120.5652269999999
 30
0.0
 11
146.024662
 21
120.5652269999999
 31
0.0
  0
LINE
  5
96F9
330
967A
100
AcDbEntity
  8
1
  6
Continuous
100
AcDbLine
 10
145.924662
 20
201.5652269999999
 30
0.0
 11
145.924662
 21
200.565227
 31
0.0
  0
LINE
  5
96FA
330
967A
100
AcDbEntity
  8
1
  6
Continuous
100
AcDbLine
 10
146.323662
 20
196.3912269999999
 30
0.0
 11
145.423662
 21
203.1912269999998
 31
0.0
  0
LINE
  5
96FB
330
967A
100
AcDbEntity
  8
1
  6
Continuous
100
AcDbLine
 10
145.0266619999999
 20
203.1392269999999
 30
0.0
 11
145.926662
 21
196.3392269999999
 31
0.0
  0
LINE
  5
96FC
330
967A
100
AcDbEntity
  8
1
  6
Continuous
100
AcDbLine
 10
145.424662
 20
197.365227
 30
0.0
 11
145.424662
 21
194.765227
 31
0.0
  0
LINE
  5
96FD
330
967A
100
AcDbEntity
  8
1
  6
Continuous
100
AcDbLine
 10
145.424662
 20
117.365227
 30
0.0
 11
145.424662
 21
114.765227
 31
0.0
  0
LINE
  5
96FE
330
967A
100
AcDbEntity
  8
1
  6
Continuous
100
AcDbLine
 10
145.0266619999999
 20
123.139227
 30
0.0
 11
145.926662
 21
116.3392269999999
 31
0.0
  0
LINE
  5
96FF
330
967A
100
AcDbEntity
  8
1
  6
Continuous
100
AcDbLine
 10
146.323662
 20
116.3912269999999
 30
0.0
 11
145.423662
 21
123.191227
 31
0.0
  0
LINE
  5
9700
330
967A
100
AcDbEntity
  8
1
  6
Continuous
100
AcDbLine
 10
145.924662
 20
121.5652269999999
 30
0.0
 11
145.924662
 21
120.5652269999999
 31
0.0
  0
LINE
  5
9701
330
967A
100
AcDbEntity
  8
1
  6
Continuous
100
AcDbLine
 10
145.7706619999999
 20
200.565227
 30
0.0
 11
146.024662
 21
200.565227
 31
0.0
  0
LINE
  5
9702
330
967A
100
AcDbEntity
  8
1
  6
Continuous
100
AcDbLine
 10
251.024662
 20
132.9652269999999
 30
0.0
 11
251.024662
 21
122.6853199999998
 31
0.0
  0
LINE
  5
9703
330
967A
100
AcDbEntity
  8
1
  6
Continuous
100
AcDbLine
 10
252.0246619999999
 20
132.9652269999999
 30
0.0
 11
252.0246619999999
 21
122.7253069999999
 31
0.0
  0
LINE
  5
9704
330
967A
100
AcDbEntity
  8
1
  6
Continuous
100
AcDbLine
 10
140.024662
 20
122.965227
 30
0.0
 11
143.024662
 21
122.965227
 31
0.0
  0
LINE
  5
9705
330
967A
100
AcDbEntity
  8
1
  6
Continuous
100
AcDbLine
 10
140.024662
 20
114.965227
 30
0.0
 11
143.024662
 21
114.965227
 31
0.0
  0
LINE
  5
9706
330
967A
100
AcDbEntity
  8
1
  6
Continuous
100
AcDbLine
 10
135.024662
 20
115.965227
 30
0.0
 11
138.024662
 21
115.965227
 31
0.0
  0
LINE
  5
9707
330
967A
100
AcDbEntity
  8
1
  6
Continuous
100
AcDbLine
 10
135.024662
 20
121.965227
 30
0.0
 11
138.024662
 21
121.965227
 31
0.0
  0
LINE
  5
9708
330
967A
100
AcDbEntity
  8
1
  6
Continuous
100
AcDbLine
 10
144.024662
 20
204.965227
 30
0.0
 11
144.024662
 21
193.4652269999999
 31
0.0
  0
LINE
  5
9709
330
967A
100
AcDbEntity
  8
1
  6
Continuous
100
AcDbLine
 10
129.024662
 20
201.8152269999999
 30
0.0
 11
129.024662
 21
196.115227
 31
0.0
  0
LINE
  5
970A
330
967A
100
AcDbEntity
  8
1
  6
Continuous
100
AcDbLine
 10
129.024662
 20
196.465227
 30
0.0
 11
129.5826619999999
 21
196.465227
 31
0.0
  0
LINE
  5
970B
330
967A
100
AcDbEntity
  8
1
  6
Continuous
100
AcDbLine
 10
364.0246619999999
 20
132.9652269999999
 30
0.0
 11
361.0246619999998
 21
132.9652269999999
 31
0.0
  0
LINE
  5
970C
330
967A
100
AcDbEntity
  8
1
  6
Continuous
100
AcDbLine
 10
364.0246619999999
 20
104.9652269999999
 30
0.0
 11
361.0246619999998
 21
104.9652269999999
 31
0.0
  0
LINE
  5
970D
330
967A
100
AcDbEntity
  8
1
  6
Continuous
100
AcDbLine
 10
364.0246619999999
 20
132.9652269999999
 30
0.0
 11
364.0246619999999
 21
104.9652269999999
 31
0.0
  0
LINE
  5
970E
330
967A
100
AcDbEntity
  8
1
  6
Continuous
100
AcDbLine
 10
361.0246619999998
 20
132.9652269999999
 30
0.0
 11
361.0246619999998
 21
124.465227
 31
0.0
  0
LINE
  5
970F
330
967A
100
AcDbEntity
  8
1
  6
Continuous
100
AcDbLine
 10
361.0246619999998
 20
124.465227
 30
0.0
 11
346.0246619999999
 21
124.465227
 31
0.0
  0
LINE
  5
9710
330
967A
100
AcDbEntity
  8
1
  6
Continuous
100
AcDbLine
 10
361.0246619999998
 20
111.965227
 30
0.0
 11
347.0246619999999
 21
111.965227
 31
0.0
  0
LINE
  5
9711
330
967A
100
AcDbEntity
  8
1
  6
Continuous
100
AcDbLine
 10
361.0246619999998
 20
113.4652269999999
 30
0.0
 11
346.0246619999999
 21
113.4652269999999
 31
0.0
  0
LINE
  5
9712
330
967A
100
AcDbEntity
  8
1
  6
Continuous
100
AcDbLine
 10
361.0246619999998
 20
112.965227
 30
0.0
 11
347.0246619999999
 21
112.965227
 31
0.0
  0
LINE
  5
9713
330
967A
100
AcDbEntity
  8
1
  6
Continuous
100
AcDbLine
 10
346.0246619999999
 20
124.465227
 30
0.0
 11
346.0246619999999
 21
112.965227
 31
0.0
  0
LINE
  5
9714
330
967A
100
AcDbEntity
  8
1
  6
Continuous
100
AcDbLine
 10
347.0246619999999
 20
113.4652269999999
 30
0.0
 11
347.0246619999999
 21
112.965227
 31
0.0
  0
LINE
  5
9715
330
967A
100
AcDbEntity
  8
1
  6
Continuous
100
AcDbLine
 10
342.0246619999999
 20
120.5652269999999
 30
0.0
 11
342.0246619999999
 21
117.365227
 31
0.0
  0
LINE
  5
9716
330
967A
100
AcDbEntity
  8
1
  6
Continuous
100
AcDbLine
 10
345.0246619999999
 20
120.5652269999999
 30
0.0
 11
345.0246619999999
 21
118.6452269999999
 31
0.0
  0
LINE
  5
9717
330
967A
100
AcDbEntity
  8
1
  6
Continuous
100
AcDbLine
 10
343.224662
 20
124.965227
 30
0.0
 11
343.224662
 21
112.465227
 31
0.0
  0
LINE
  5
9718
330
967A
100
AcDbEntity
  8
1
  6
Continuous
100
AcDbLine
 10
343.224662
 20
120.5652269999999
 30
0.0
 11
342.0246619999999
 21
120.5652269999999
 31
0.0
  0
LINE
  5
9719
330
967A
100
AcDbEntity
  8
1
  6
Continuous
100
AcDbLine
 10
343.224662
 20
117.365227
 30
0.0
 11
342.0246619999999
 21
117.365227
 31
0.0
  0
LINE
  5
971A
330
967A
100
AcDbEntity
  8
1
  6
Continuous
100
AcDbLine
 10
344.914662
 20
117.815227
 30
0.0
 11
344.724662
 21
117.815227
 31
0.0
  0
LINE
  5
971B
330
967A
100
AcDbEntity
  8
1
  6
Continuous
100
AcDbLine
 10
345.0246619999999
 20
120.115227
 30
0.0
 11
344.724662
 21
120.115227
 31
0.0
  0
LINE
  5
971C
330
967A
100
AcDbEntity
  8
1
  6
Continuous
100
AcDbLine
 10
346.0246619999999
 20
117.365227
 30
0.0
 11
345.258662
 21
117.365227
 31
0.0
  0
LINE
  5
971D
330
967A
100
AcDbEntity
  8
1
  6
Continuous
100
AcDbLine
 10
346.0246619999999
 20
120.5652269999999
 30
0.0
 11
345.682662
 21
120.5652269999999
 31
0.0
  0
LINE
  5
971E
330
967A
100
AcDbEntity
  8
1
  6
Continuous
100
AcDbLine
 10
344.724662
 20
112.465227
 30
0.0
 11
343.224662
 21
112.465227
 31
0.0
  0
LINE
  5
971F
330
967A
100
AcDbEntity
  8
1
  6
Continuous
100
AcDbLine
 10
344.724662
 20
124.965227
 30
0.0
 11
343.224662
 21
124.965227
 31
0.0
  0
LINE
  5
9720
330
967A
100
AcDbEntity
  8
1
  6
Continuous
100
AcDbLine
 10
344.724662
 20
121.087227
 30
0.0
 11
343.224662
 21
121.087227
 31
0.0
  0
LINE
  5
9721
330
967A
100
AcDbEntity
  8
1
  6
Continuous
100
AcDbLine
 10
344.724662
 20
124.965227
 30
0.0
 11
344.724662
 21
112.465227
 31
0.0
  0
LINE
  5
9722
330
967A
100
AcDbEntity
  8
1
  6
Continuous
100
AcDbLine
 10
344.724662
 20
117.8342269999999
 30
0.0
 11
343.224662
 21
117.8342269999999
 31
0.0
  0
LINE
  5
9723
330
967A
100
AcDbEntity
  8
1
  6
Continuous
100
AcDbLine
 10
345.2786619999998
 20
120.5652269999999
 30
0.0
 11
345.0246619999999
 21
120.5652269999999
 31
0.0
  0
LINE
  5
9724
330
967A
100
AcDbEntity
  8
1
  6
Continuous
100
AcDbLine
 10
345.6246619999998
 20
117.365227
 30
0.0
 11
345.6246619999998
 21
114.765227
 31
0.0
  0
LINE
  5
9725
330
967A
100
AcDbEntity
  8
1
  6
Continuous
100
AcDbLine
 10
346.0236619999998
 20
123.139227
 30
0.0
 11
345.123662
 21
116.3392269999999
 31
0.0
  0
LINE
  5
9726
330
967A
100
AcDbEntity
  8
1
  6
Continuous
100
AcDbLine
 10
344.7266619999999
 20
116.3912269999999
 30
0.0
 11
345.626662
 21
123.191227
 31
0.0
  0
LINE
  5
9727
330
967A
100
AcDbEntity
  8
1
  6
Continuous
100
AcDbLine
 10
345.124662
 20
121.5652269999999
 30
0.0
 11
345.124662
 21
120.5652269999999
 31
0.0
  0
LINE
  5
9728
330
967A
100
AcDbEntity
  8
1
  6
Continuous
100
AcDbLine
 10
127.0246619999999
 20
32.965227
 30
0.0
 11
127.0246619999999
 21
44.96522699999998
 31
0.0
  0
LINE
  5
9729
330
967A
100
AcDbEntity
  8
1
  6
Continuous
100
AcDbLine
 10
130.024662
 20
31.965227
 30
0.0
 11
130.024662
 21
32.965227
 31
0.0
  0
LINE
  5
972A
330
967A
100
AcDbEntity
  8
1
  6
Continuous
100
AcDbLine
 10
145.024662
 20
32.965227
 30
0.0
 11
145.024662
 21
44.465227
 31
0.0
  0
LINE
  5
972B
330
967A
100
AcDbEntity
  8
1
  6
Continuous
100
AcDbLine
 10
149.024662
 20
37.365227
 30
0.0
 11
149.024662
 21
40.565227
 31
0.0
  0
LINE
  5
972C
330
967A
100
AcDbEntity
  8
1
  6
Continuous
100
AcDbLine
 10
146.024662
 20
37.365227
 30
0.0
 11
146.024662
 21
39.28542699999999
 31
0.0
  0
LINE
  5
972D
330
967A
100
AcDbEntity
  8
1
  6
Continuous
100
AcDbLine
 10
147.824662
 20
34.665227
 30
0.0
 11
147.824662
 21
43.265227
 31
0.0
  0
LINE
  5
972E
330
967A
100
AcDbEntity
  8
1
  6
Continuous
100
AcDbLine
 10
147.824662
 20
37.365227
 30
0.0
 11
149.024662
 21
37.365227
 31
0.0
  0
LINE
  5
972F
330
967A
100
AcDbEntity
  8
1
  6
Continuous
100
AcDbLine
 10
147.824662
 20
40.565227
 30
0.0
 11
149.024662
 21
40.565227
 31
0.0
  0
LINE
  5
9730
330
967A
100
AcDbEntity
  8
1
  6
Continuous
100
AcDbLine
 10
146.134662
 20
40.11522699999999
 30
0.0
 11
146.3246619999999
 21
40.11522699999999
 31
0.0
  0
LINE
  5
9731
330
967A
100
AcDbEntity
  8
1
  6
Continuous
100
AcDbLine
 10
146.024662
 20
37.815227
 30
0.0
 11
146.3246619999999
 21
37.815227
 31
0.0
  0
LINE
  5
9732
330
967A
100
AcDbEntity
  8
1
  6
Continuous
100
AcDbLine
 10
145.024662
 20
40.565227
 30
0.0
 11
145.7906619999999
 21
40.565227
 31
0.0
  0
LINE
  5
9733
330
967A
100
AcDbEntity
  8
1
  6
Continuous
100
AcDbLine
 10
145.024662
 20
37.365227
 30
0.0
 11
145.367662
 21
37.365227
 31
0.0
  0
LINE
  5
9734
330
967A
100
AcDbEntity
  8
1
  6
Continuous
100
AcDbLine
 10
146.3246619999999
 20
34.665227
 30
0.0
 11
146.3246619999999
 21
43.265227
 31
0.0
  0
LINE
  5
9735
330
967A
100
AcDbEntity
  8
1
  6
Continuous
100
AcDbLine
 10
128.0246619999998
 20
45.965227
 30
0.0
 11
130.024662
 21
45.965227
 31
0.0
  0
LINE
  5
9736
330
967A
100
AcDbEntity
  8
1
  6
Continuous
100
AcDbLine
 10
128.0246619999998
 20
32.965227
 30
0.0
 11
128.0246619999998
 21
44.96522699999998
 31
0.0
  0
LINE
  5
9737
330
967A
100
AcDbEntity
  8
1
  6
Continuous
100
AcDbLine
 10
128.0246619999998
 20
44.96522699999998
 30
0.0
 11
130.024662
 21
44.96522699999998
 31
0.0
  0
LINE
  5
9738
330
967A
100
AcDbEntity
  8
1
  6
Continuous
100
AcDbLine
 10
130.024662
 20
44.96522699999998
 30
0.0
 11
130.024662
 21
45.965227
 31
0.0
  0
LINE
  5
9739
330
967A
100
AcDbEntity
  8
1
  6
Continuous
100
AcDbLine
 10
128.0246619999998
 20
44.465227
 30
0.0
 11
145.024662
 21
44.465227
 31
0.0
  0
LINE
  5
973A
330
967A
100
AcDbEntity
  8
1
  6
Continuous
100
AcDbLine
 10
128.0246619999998
 20
33.46522699999999
 30
0.0
 11
145.024662
 21
33.46522699999999
 31
0.0
  0
LINE
  5
973B
330
967A
100
AcDbEntity
  8
1
  6
Continuous
100
AcDbLine
 10
128.0246619999998
 20
31.965227
 30
0.0
 11
144.024662
 21
31.965227
 31
0.0
  0
LINE
  5
973C
330
967A
100
AcDbEntity
  8
1
  6
Continuous
100
AcDbLine
 10
128.0246619999998
 20
32.965227
 30
0.0
 11
144.024662
 21
32.965227
 31
0.0
  0
LINE
  5
973D
330
967A
100
AcDbEntity
  8
1
  6
Continuous
100
AcDbLine
 10
146.3246619999999
 20
37.965227
 30
0.0
 11
147.824662
 21
37.965227
 31
0.0
  0
LINE
  5
973E
330
967A
100
AcDbEntity
  8
1
  6
Continuous
100
AcDbLine
 10
146.3246619999999
 20
39.96522699999999
 30
0.0
 11
147.824662
 21
39.96522699999999
 31
0.0
  0
LINE
  5
973F
330
967A
100
AcDbEntity
  8
1
  6
Continuous
100
AcDbLine
 10
146.3246619999999
 20
34.665227
 30
0.0
 11
147.824662
 21
34.665227
 31
0.0
  0
LINE
  5
9740
330
967A
100
AcDbEntity
  8
1
  6
Continuous
100
AcDbLine
 10
146.3246619999999
 20
43.265227
 30
0.0
 11
147.824662
 21
43.265227
 31
0.0
  0
LINE
  5
9741
330
967A
100
AcDbEntity
  8
1
  6
Continuous
100
AcDbLine
 10
145.924662
 20
36.36522699999999
 30
0.0
 11
145.924662
 21
37.365227
 31
0.0
  0
LINE
  5
9742
330
967A
100
AcDbEntity
  8
1
  6
Continuous
100
AcDbLine
 10
146.323662
 20
41.53902699999998
 30
0.0
 11
145.423662
 21
34.739027
 31
0.0
  0
LINE
  5
9743
330
967A
100
AcDbEntity
  8
1
  6
Continuous
100
AcDbLine
 10
145.0266619999999
 20
34.791527
 30
0.0
 11
145.926662
 21
41.59152699999999
 31
0.0
  0
LINE
  5
9744
330
967A
100
AcDbEntity
  8
1
  6
Continuous
100
AcDbLine
 10
145.424662
 20
40.565227
 30
0.0
 11
145.424662
 21
43.165227
 31
0.0
  0
LINE
  5
9745
330
967A
100
AcDbEntity
  8
1
  6
Continuous
100
AcDbLine
 10
145.7706619999999
 20
37.365227
 30
0.0
 11
146.024662
 21
37.365227
 31
0.0
  0
LINE
  5
9746
330
967A
100
AcDbEntity
  8
1
  6
Continuous
100
AcDbLine
 10
144.024662
 20
32.965227
 30
0.0
 11
144.024662
 21
33.46522699999999
 31
0.0
  0
LINE
  5
9747
330
967A
100
AcDbEntity
  8
1
  6
Continuous
100
AcDbLine
 10
361.0246619999998
 20
113.4652269999999
 30
0.0
 11
361.0246619999998
 21
104.9652269999999
 31
0.0
  0
LINE
  5
9748
330
967A
100
AcDbEntity
  8
4
  6
CENTER
100
AcDbLine
 10
123.568662
 20
108.9652269999999
 30
0.0
 11
133.236662
 21
108.9652269999999
 31
0.0
  0
LINE
  5
9749
330
967A
100
AcDbEntity
  8
4
  6
CENTER
100
AcDbLine
 10
123.844662
 20
128.9652269999999
 30
0.0
 11
133.236662
 21
128.9652269999999
 31
0.0
  0
LINE
  5
974A
330
967A
100
AcDbEntity
  8
4
  6
CENTER
100
AcDbLine
 10
367.205662
 20
128.9652269999999
 30
0.0
 11
357.813662
 21
128.9652269999999
 31
0.0
  0
LINE
  5
974B
330
967A
100
AcDbEntity
  8
4
  6
CENTER
100
AcDbLine
 10
367.4816619999999
 20
108.9652269999999
 30
0.0
 11
357.813662
 21
108.9652269999999
 31
0.0
  0
LINE
  5
974C
330
967A
100
AcDbEntity
  8
1
  6
Continuous
100
AcDbLine
 10
129.024662
 20
33.46522699999999
 30
0.0
 11
129.024662
 21
44.465227
 31
0.0
  0
LINE
  5
974D
330
967A
100
AcDbEntity
  8
1
  6
Continuous
100
AcDbLine
 10
263.5246619999999
 20
113.4652269999999
 30
0.0
 11
263.5246619999999
 21
104.9652269999999
 31
0.0
  0
LINE
  5
974E
330
967A
100
AcDbEntity
  8
1
  6
Continuous
100
AcDbLine
 10
252.524662
 20
119.4652269999999
 30
0.0
 11
252.524662
 21
104.9652269999999
 31
0.0
  0
LINE
  5
974F
330
967A
100
AcDbEntity
  8
1
  6
Continuous
100
AcDbLine
 10
143.024662
 20
193.4652269999999
 30
0.0
 11
145.024662
 21
193.4652269999999
 31
0.0
  0
LINE
  5
9750
330
967A
100
AcDbEntity
  8
1
  6
Continuous
100
AcDbLine
 10
128.0246619999998
 20
193.4652269999999
 30
0.0
 11
140.024662
 21
193.4652269999999
 31
0.0
  0
LINE
  5
9751
330
967A
100
AcDbEntity
  8
1
  6
Continuous
100
AcDbLine
 10
18.024962
 20
115.0922269999999
 30
0.0
 11
18.024962
 21
104.9652269999999
 31
0.0
  0
LINE
  5
9752
330
967A
100
AcDbEntity
  8
1
  6
Continuous
100
AcDbLine
 10
32.02496200000001
 20
115.092243
 30
0.0
 11
32.02496200000001
 21
104.9652269999999
 31
0.0
  0
LINE
  5
9753
330
967A
100
AcDbEntity
  8
1
  6
Continuous
100
AcDbLine
 10
111.024662
 20
45.965227
 30
0.0
 11
111.024662
 21
31.965227
 31
0.0
  0
LINE
  5
9754
330
967A
100
AcDbEntity
  8
1
  6
Continuous
100
AcDbLine
 10
119.024662
 20
46.965227
 30
0.0
 11
119.024662
 21
30.96522699999999
 31
0.0
  0
LINE
  5
9755
330
967A
100
AcDbEntity
  8
1
  6
Continuous
100
AcDbLine
 10
119.024662
 20
42.96522699999999
 30
0.0
 11
127.0246619999999
 21
42.96522699999999
 31
0.0
  0
LINE
  5
9756
330
967A
100
AcDbEntity
  8
1
  6
Continuous
100
AcDbLine
 10
119.024662
 20
34.96522699999999
 30
0.0
 11
127.0246619999999
 21
34.96522699999999
 31
0.0
  0
LINE
  5
9757
330
967A
100
AcDbEntity
  8
1
  6
Continuous
100
AcDbLine
 10
112.024662
 20
46.965227
 30
0.0
 11
119.024662
 21
46.965227
 31
0.0
  0
LINE
  5
9758
330
967A
100
AcDbEntity
  8
1
  6
Continuous
100
AcDbLine
 10
112.024662
 20
30.96522699999999
 30
0.0
 11
119.024662
 21
30.96522699999999
 31
0.0
  0
LINE
  5
9759
330
967A
100
AcDbEntity
  8
1
  6
Continuous
100
AcDbLine
 10
112.024662
 20
46.965227
 30
0.0
 11
111.024662
 21
45.965227
 31
0.0
  0
LINE
  5
975A
330
967A
100
AcDbEntity
  8
1
  6
Continuous
100
AcDbLine
 10
111.024662
 20
31.965227
 30
0.0
 11
112.024662
 21
30.96522699999999
 31
0.0
  0
LINE
  5
975B
330
967A
100
AcDbEntity
  8
1
  6
Continuous
100
AcDbLine
 10
112.024662
 20
46.965227
 30
0.0
 11
112.024662
 21
30.96522699999999
 31
0.0
  0
LINE
  5
975C
330
967A
100
AcDbEntity
  8
1
  6
Continuous
100
AcDbLine
 10
112.024662
 20
45.965227
 30
0.0
 11
119.024662
 21
45.965227
 31
0.0
  0
LINE
  5
975D
330
967A
100
AcDbEntity
  8
1
  6
Continuous
100
AcDbLine
 10
113.024662
 20
44.96522699999998
 30
0.0
 11
119.024662
 21
44.96522699999998
 31
0.0
  0
LINE
  5
975E
330
967A
100
AcDbEntity
  8
1
  6
Continuous
100
AcDbLine
 10
114.024662
 20
43.965227
 30
0.0
 11
119.024662
 21
43.965227
 31
0.0
  0
LINE
  5
975F
330
967A
100
AcDbEntity
  8
1
  6
Continuous
100
AcDbLine
 10
115.024662
 20
42.96522699999999
 30
0.0
 11
119.024662
 21
42.96522699999999
 31
0.0
  0
LINE
  5
9760
330
967A
100
AcDbEntity
  8
1
  6
Continuous
100
AcDbLine
 10
116.024662
 20
41.965227
 30
0.0
 11
119.024662
 21
41.965227
 31
0.0
  0
LINE
  5
9761
330
967A
100
AcDbEntity
  8
4
  6
CENTER
100
AcDbLine
 10
108.521662
 20
118.965227
 30
0.0
 11
151.920662
 21
118.965227
 31
0.0
  0
LINE
  5
9762
330
967A
100
AcDbEntity
  8
1
  6
Continuous
100
AcDbLine
 10
111.024662
 20
125.9652269999999
 30
0.0
 11
111.024662
 21
111.965227
 31
0.0
  0
LINE
  5
9763
330
967A
100
AcDbEntity
  8
1
  6
Continuous
100
AcDbLine
 10
119.024662
 20
126.9652269999999
 30
0.0
 11
119.024662
 21
110.9652269999999
 31
0.0
  0
LINE
  5
9764
330
967A
100
AcDbEntity
  8
1
  6
Continuous
100
AcDbLine
 10
119.024662
 20
122.965227
 30
0.0
 11
127.0246619999999
 21
122.965227
 31
0.0
  0
LINE
  5
9765
330
967A
100
AcDbEntity
  8
1
  6
Continuous
100
AcDbLine
 10
119.024662
 20
114.965227
 30
0.0
 11
127.0246619999999
 21
114.965227
 31
0.0
  0
LINE
  5
9766
330
967A
100
AcDbEntity
  8
1
  6
Continuous
100
AcDbLine
 10
112.024662
 20
126.9652269999999
 30
0.0
 11
119.024662
 21
126.9652269999999
 31
0.0
  0
LINE
  5
9767
330
967A
100
AcDbEntity
  8
1
  6
Continuous
100
AcDbLine
 10
112.024662
 20
110.9652269999999
 30
0.0
 11
119.024662
 21
110.9652269999999
 31
0.0
  0
LINE
  5
9768
330
967A
100
AcDbEntity
  8
1
  6
Continuous
100
AcDbLine
 10
112.024662
 20
126.9652269999999
 30
0.0
 11
111.024662
 21
125.9652269999999
 31
0.0
  0
LINE
  5
9769
330
967A
100
AcDbEntity
  8
1
  6
Continuous
100
AcDbLine
 10
111.024662
 20
111.965227
 30
0.0
 11
112.024662
 21
110.9652269999999
 31
0.0
  0
LINE
  5
976A
330
967A
100
AcDbEntity
  8
1
  6
Continuous
100
AcDbLine
 10
112.024662
 20
126.9652269999999
 30
0.0
 11
112.024662
 21
110.9652269999999
 31
0.0
  0
LINE
  5
976B
330
967A
100
AcDbEntity
  8
1
  6
Continuous
100
AcDbLine
 10
112.024662
 20
125.9652269999999
 30
0.0
 11
119.024662
 21
125.9652269999999
 31
0.0
  0
LINE
  5
976C
330
967A
100
AcDbEntity
  8
1
  6
Continuous
100
AcDbLine
 10
113.024662
 20
124.965227
 30
0.0
 11
119.024662
 21
124.965227
 31
0.0
  0
LINE
  5
976D
330
967A
100
AcDbEntity
  8
1
  6
Continuous
100
AcDbLine
 10
114.024662
 20
123.965227
 30
0.0
 11
119.024662
 21
123.965227
 31
0.0
  0
LINE
  5
976E
330
967A
100
AcDbEntity
  8
1
  6
Continuous
100
AcDbLine
 10
115.024662
 20
122.965227
 30
0.0
 11
119.024662
 21
122.965227
 31
0.0
  0
LINE
  5
976F
330
967A
100
AcDbEntity
  8
1
  6
Continuous
100
AcDbLine
 10
116.024662
 20
121.965227
 30
0.0
 11
119.024662
 21
121.965227
 31
0.0
  0
LINE
  5
9770
330
967A
100
AcDbEntity
  8
1
  6
Continuous
100
AcDbLine
 10
111.024662
 20
205.9652269999999
 30
0.0
 11
111.024662
 21
191.965227
 31
0.0
  0
LINE
  5
9771
330
967A
100
AcDbEntity
  8
1
  6
Continuous
100
AcDbLine
 10
119.024662
 20
206.965227
 30
0.0
 11
119.024662
 21
190.965227
 31
0.0
  0
LINE
  5
9772
330
967A
100
AcDbEntity
  8
1
  6
Continuous
100
AcDbLine
 10
119.024662
 20
202.965227
 30
0.0
 11
127.0246619999999
 21
202.965227
 31
0.0
  0
LINE
  5
9773
330
967A
100
AcDbEntity
  8
1
  6
Continuous
100
AcDbLine
 10
119.024662
 20
194.9652269999999
 30
0.0
 11
127.0246619999999
 21
194.9652269999999
 31
0.0
  0
LINE
  5
9774
330
967A
100
AcDbEntity
  8
1
  6
Continuous
100
AcDbLine
 10
112.024662
 20
206.965227
 30
0.0
 11
119.024662
 21
206.965227
 31
0.0
  0
LINE
  5
9775
330
967A
100
AcDbEntity
  8
1
  6
Continuous
100
AcDbLine
 10
112.024662
 20
190.965227
 30
0.0
 11
119.024662
 21
190.965227
 31
0.0
  0
LINE
  5
9776
330
967A
100
AcDbEntity
  8
1
  6
Continuous
100
AcDbLine
 10
112.024662
 20
206.965227
 30
0.0
 11
111.024662
 21
205.9652269999999
 31
0.0
  0
LINE
  5
9777
330
967A
100
AcDbEntity
  8
1
  6
Continuous
100
AcDbLine
 10
111.024662
 20
191.965227
 30
0.0
 11
112.024662
 21
190.965227
 31
0.0
  0
LINE
  5
9778
330
967A
100
AcDbEntity
  8
1
  6
Continuous
100
AcDbLine
 10
112.024662
 20
206.965227
 30
0.0
 11
112.024662
 21
190.965227
 31
0.0
  0
LINE
  5
9779
330
967A
100
AcDbEntity
  8
1
  6
Continuous
100
AcDbLine
 10
112.024662
 20
205.9652269999999
 30
0.0
 11
119.024662
 21
205.9652269999999
 31
0.0
  0
LINE
  5
977A
330
967A
100
AcDbEntity
  8
1
  6
Continuous
100
AcDbLine
 10
113.024662
 20
204.965227
 30
0.0
 11
119.024662
 21
204.965227
 31
0.0
  0
LINE
  5
977B
330
967A
100
AcDbEntity
  8
1
  6
Continuous
100
AcDbLine
 10
114.024662
 20
203.9652269999999
 30
0.0
 11
119.024662
 21
203.9652269999999
 31
0.0
  0
LINE
  5
977C
330
967A
100
AcDbEntity
  8
1
  6
Continuous
100
AcDbLine
 10
115.024662
 20
202.965227
 30
0.0
 11
119.024662
 21
202.965227
 31
0.0
  0
LINE
  5
977D
330
967A
100
AcDbEntity
  8
1
  6
Continuous
100
AcDbLine
 10
116.024662
 20
201.9652269999999
 30
0.0
 11
119.024662
 21
201.9652269999999
 31
0.0
  0
LINE
  5
977E
330
967A
100
AcDbEntity
  8
5
  6
PHANTOM
100
AcDbLine
 10
127.0246619999999
 20
181.9652269999999
 30
0.0
 11
127.0246619999999
 21
173.965227
 31
0.0
  0
LINE
  5
977F
330
967A
100
AcDbEntity
  8
5
  6
PHANTOM
100
AcDbLine
 10
135.024662
 20
202.965227
 30
0.0
 11
135.024662
 21
190.965227
 31
0.0
  0
LINE
  5
9780
330
967A
100
AcDbEntity
  8
5
  6
PHANTOM
100
AcDbLine
 10
132.024662
 20
202.965227
 30
0.0
 11
132.024662
 21
190.965227
 31
0.0
  0
LINE
  5
9781
330
967A
100
AcDbEntity
  8
5
  6
PHANTOM
100
AcDbLine
 10
130.024662
 20
181.9652269999999
 30
0.0
 11
130.024662
 21
173.965227
 31
0.0
  0
LINE
  5
9782
330
967A
100
AcDbEntity
  8
5
  6
PHANTOM
100
AcDbLine
 10
127.0246619999999
 20
173.965227
 30
0.0
 11
130.024662
 21
173.965227
 31
0.0
  0
LINE
  5
9783
330
967A
100
AcDbEntity
  8
5
  6
PHANTOM
100
AcDbLine
 10
132.024662
 20
202.965227
 30
0.0
 11
135.024662
 21
202.965227
 31
0.0
  0
LINE
  5
9784
330
967A
100
AcDbEntity
  8
5
  6
PHANTOM
100
AcDbLine
 10
132.024662
 20
190.965227
 30
0.0
 11
127.467662
 21
183.533227
 31
0.0
  0
LINE
  5
9785
330
967A
100
AcDbEntity
  8
5
  6
PHANTOM
100
AcDbLine
 10
130.024662
 20
181.9652269999999
 30
0.0
 11
134.5826619999999
 21
189.3972269999999
 31
0.0
  0
LINE
  5
9786
330
967A
100
AcDbEntity
  8
1
  6
Continuous
100
AcDbLine
 10
143.024662
 20
201.9652269999999
 30
0.0
 11
144.024662
 21
201.9652269999999
 31
0.0
  0
LINE
  5
9787
330
967A
100
AcDbEntity
  8
1
  6
Continuous
100
AcDbLine
 10
143.024662
 20
195.965227
 30
0.0
 11
144.024662
 21
195.965227
 31
0.0
  0
LINE
  5
9788
330
967A
100
AcDbEntity
  8
1
  6
Continuous
100
AcDbLine
 10
139.5246619999998
 20
201.8152269999999
 30
0.0
 11
139.5246619999998
 21
196.115227
 31
0.0
  0
LINE
  5
9789
330
967A
100
AcDbEntity
  8
1
  6
Continuous
100
AcDbLine
 10
129.021662
 20
201.858227
 30
0.0
 11
129.090662
 21
201.465227
 31
0.0
  0
LINE
  5
978A
330
967A
100
AcDbEntity
  8
1
  6
Continuous
100
AcDbLine
 10
129.459662
 20
196.465227
 30
0.0
 11
129.5286619999999
 21
196.0722269999999
 31
0.0
  0
LINE
  5
978B
330
967A
100
AcDbEntity
  8
1
  6
Continuous
100
AcDbLine
 10
131.459662
 20
116.4652269999999
 30
0.0
 11
131.5286619999999
 21
116.0722269999999
 31
0.0
  0
LINE
  5
978C
330
967A
100
AcDbEntity
  8
1
  6
Continuous
100
AcDbLine
 10
131.090662
 20
121.4652269999999
 30
0.0
 11
131.021662
 21
121.8582269999999
 31
0.0
  0
LINE
  5
978D
330
967A
100
AcDbEntity
  8
1
  6
Continuous
100
AcDbLine
 10
131.021662
 20
121.772227
 30
0.0
 11
130.024662
 21
116.0932269999999
 31
0.0
  0
LINE
  5
978E
330
967A
100
AcDbEntity
  8
1
  6
Continuous
100
AcDbLine
 10
129.5286619999999
 20
196.158227
 30
0.0
 11
130.5286619999999
 21
201.858227
 31
0.0
  0
LINE
  5
978F
330
967A
100
AcDbEntity
  8
1
  6
Continuous
100
AcDbLine
 10
132.5286619999999
 20
121.8582269999999
 30
0.0
 11
131.5286619999999
 21
116.158227
 31
0.0
  0
LINE
  5
9790
330
967A
100
AcDbEntity
  8
1
  6
Continuous
100
AcDbLine
 10
132.0216619999999
 20
116.0722269999999
 30
0.0
 11
133.0216619999999
 21
121.772227
 31
0.0
  0
LINE
  5
9791
330
967A
100
AcDbEntity
  8
1
  6
Continuous
100
AcDbLine
 10
134.5286619999999
 20
121.8582269999999
 30
0.0
 11
133.5286619999999
 21
116.158227
 31
0.0
  0
LINE
  5
9792
330
967A
100
AcDbEntity
  8
1
  6
Continuous
100
AcDbLine
 10
134.0216619999999
 20
116.0722269999999
 30
0.0
 11
135.0216619999999
 21
121.772227
 31
0.0
  0
LINE
  5
9793
330
967A
100
AcDbEntity
  8
1
  6
Continuous
100
AcDbLine
 10
133.177662
 20
120.965227
 30
0.0
 11
133.0216619999999
 21
121.8582269999999
 31
0.0
  0
LINE
  5
9794
330
967A
100
AcDbEntity
  8
1
  6
Continuous
100
AcDbLine
 10
133.3716619999999
 20
116.965227
 30
0.0
 11
133.5286619999999
 21
116.0722269999999
 31
0.0
  0
LINE
  5
9795
330
967A
100
AcDbEntity
  8
1
  6
Continuous
100
AcDbLine
 10
139.0216619999999
 20
201.858227
 30
0.0
 11
139.090662
 21
201.465227
 31
0.0
  0
LINE
  5
9796
330
967A
100
AcDbEntity
  8
1
  6
Continuous
100
AcDbLine
 10
139.528662
 20
196.0722269999999
 30
0.0
 11
139.459662
 21
196.465227
 31
0.0
  0
LINE
  5
9797
330
967A
100
AcDbEntity
  8
1
  6
Continuous
100
AcDbLine
 10
130.024662
 20
121.4652269999999
 30
0.0
 11
130.459662
 21
121.4652269999999
 31
0.0
  0
LINE
  5
9798
330
967A
100
AcDbEntity
  8
1
  6
Continuous
100
AcDbLine
 10
130.090662
 20
116.4652269999999
 30
0.0
 11
131.5826619999999
 21
116.4652269999999
 31
0.0
  0
LINE
  5
9799
330
967A
100
AcDbEntity
  8
1
  6
Continuous
100
AcDbLine
 10
132.879662
 20
120.965227
 30
0.0
 11
133.524662
 21
120.965227
 31
0.0
  0
LINE
  5
979A
330
967A
100
AcDbEntity
  8
1
  6
Continuous
100
AcDbLine
 10
134.090662
 20
116.4652269999999
 30
0.0
 11
135.024662
 21
116.4652269999999
 31
0.0
  0
LINE
  5
979B
330
967A
100
AcDbEntity
  8
1
  6
Continuous
100
AcDbLine
 10
138.9676619999999
 20
201.465227
 30
0.0
 11
139.5246619999998
 21
201.465227
 31
0.0
  0
LINE
  5
979C
330
967A
100
AcDbEntity
  8
2
  6
Continuous
100
AcDbLine
 10
134.891662
 20
121.032227
 30
0.0
 11
135.024662
 21
121.032227
 31
0.0
  0
LINE
  5
979D
330
967A
100
AcDbEntity
  8
2
  6
Continuous
100
AcDbLine
 10
138.891662
 20
201.032227
 30
0.0
 11
139.5246619999998
 21
201.032227
 31
0.0
  0
LINE
  5
979E
330
967A
100
AcDbEntity
  8
2
  6
Continuous
100
AcDbLine
 10
134.166662
 20
116.898227
 30
0.0
 11
135.024662
 21
116.898227
 31
0.0
  0
LINE
  5
979F
330
967A
100
AcDbEntity
  8
1
  6
Continuous
100
AcDbLine
 10
143.024662
 20
122.965227
 30
0.0
 11
143.024662
 21
114.965227
 31
0.0
  0
LINE
  5
97A0
330
967A
100
AcDbEntity
  8
1
  6
Continuous
100
AcDbLine
 10
138.024662
 20
121.965227
 30
0.0
 11
138.024662
 21
115.965227
 31
0.0
  0
LINE
  5
97A1
330
967A
100
AcDbEntity
  8
1
  6
Continuous
100
AcDbLine
 10
135.024662
 20
121.965227
 30
0.0
 11
135.024662
 21
115.965227
 31
0.0
  0
LINE
  5
97A2
330
967A
100
AcDbEntity
  8
1
  6
Continuous
100
AcDbLine
 10
143.024662
 20
121.965227
 30
0.0
 11
144.024662
 21
121.965227
 31
0.0
  0
LINE
  5
97A3
330
967A
100
AcDbEntity
  8
1
  6
Continuous
100
AcDbLine
 10
143.024662
 20
115.965227
 30
0.0
 11
144.024662
 21
115.965227
 31
0.0
  0
LINE
  5
97A4
330
967A
100
AcDbEntity
  8
1
  6
Continuous
100
AcDbLine
 10
138.024662
 20
115.965227
 30
0.0
 11
143.024662
 21
114.965227
 31
0.0
  0
LINE
  5
97A5
330
967A
100
AcDbEntity
  8
1
  6
Continuous
100
AcDbLine
 10
140.024662
 20
114.965227
 30
0.0
 11
135.024662
 21
115.965227
 31
0.0
  0
LINE
  5
97A6
330
967A
100
AcDbEntity
  8
1
  6
Continuous
100
AcDbLine
 10
138.024662
 20
121.965227
 30
0.0
 11
143.024662
 21
122.965227
 31
0.0
  0
LINE
  5
97A7
330
967A
100
AcDbEntity
  8
1
  6
Continuous
100
AcDbLine
 10
140.024662
 20
122.965227
 30
0.0
 11
135.024662
 21
121.965227
 31
0.0
  0
LINE
  5
97A8
330
967A
100
AcDbEntity
  8
1
  6
Continuous
100
AcDbLine
 10
133.524662
 20
201.465227
 30
0.0
 11
133.524662
 21
196.465227
 31
0.0
  0
LINE
  5
97A9
330
967A
100
AcDbEntity
  8
1
  6
Continuous
100
AcDbLine
 10
133.524662
 20
201.465227
 30
0.0
 11
134.459662
 21
201.465227
 31
0.0
  0
LINE
  5
97AA
330
967A
100
AcDbEntity
  8
1
  6
Continuous
100
AcDbLine
 10
133.524662
 20
196.465227
 30
0.0
 11
133.5826619999999
 21
196.465227
 31
0.0
  0
LINE
  5
97AB
330
967A
100
AcDbEntity
  8
2
  6
Continuous
100
AcDbLine
 10
133.524662
 20
201.032227
 30
0.0
 11
134.3836619999999
 21
201.032227
 31
0.0
  0
LINE
  5
97AC
330
967A
100
AcDbEntity
  8
2
  6
Continuous
100
AcDbLine
 10
133.524662
 20
196.8982269999999
 30
0.0
 11
133.658662
 21
196.8982269999999
 31
0.0
  0
LINE
  5
97AD
330
967A
100
AcDbEntity
  8
1
  6
Continuous
100
AcDbLine
 10
132.024662
 20
200.965227
 30
0.0
 11
132.3716619999999
 21
200.965227
 31
0.0
  0
LINE
  5
97AE
330
967A
100
AcDbEntity
  8
1
  6
Continuous
100
AcDbLine
 10
132.177662
 20
196.965227
 30
0.0
 11
133.524662
 21
196.965227
 31
0.0
  0
LINE
  5
97AF
330
967A
100
AcDbEntity
  8
1
  6
Continuous
100
AcDbLine
 10
132.024662
 20
201.465227
 30
0.0
 11
132.024662
 21
198.987227
 31
0.0
  0
LINE
  5
97B0
330
967A
100
AcDbEntity
  8
4
  6
CENTER
100
AcDbLine
 10
108.521662
 20
198.965227
 30
0.0
 11
151.920662
 21
198.965227
 31
0.0
  0
LINE
  5
97B1
330
967A
100
AcDbEntity
  8
1
  6
Continuous
100
AcDbLine
 10
131.459662
 20
196.465227
 30
0.0
 11
131.5286619999999
 21
196.0722269999999
 31
0.0
  0
LINE
  5
97B2
330
967A
100
AcDbEntity
  8
1
  6
Continuous
100
AcDbLine
 10
131.090662
 20
201.465227
 30
0.0
 11
131.021662
 21
201.858227
 31
0.0
  0
LINE
  5
97B3
330
967A
100
AcDbEntity
  8
1
  6
Continuous
100
AcDbLine
 10
131.021662
 20
201.7722269999999
 30
0.0
 11
130.021662
 21
196.0722269999999
 31
0.0
  0
LINE
  5
97B4
330
967A
100
AcDbEntity
  8
1
  6
Continuous
100
AcDbLine
 10
132.5286619999999
 20
201.858227
 30
0.0
 11
131.5286619999999
 21
196.158227
 31
0.0
  0
LINE
  5
97B5
330
967A
100
AcDbEntity
  8
1
  6
Continuous
100
AcDbLine
 10
132.0216619999999
 20
196.0722269999999
 30
0.0
 11
133.0216619999999
 21
201.7722269999999
 31
0.0
  0
LINE
  5
97B6
330
967A
100
AcDbEntity
  8
1
  6
Continuous
100
AcDbLine
 10
134.5286619999999
 20
201.858227
 30
0.0
 11
133.5286619999999
 21
196.158227
 31
0.0
  0
LINE
  5
97B7
330
967A
100
AcDbEntity
  8
1
  6
Continuous
100
AcDbLine
 10
134.0216619999999
 20
196.0722269999999
 30
0.0
 11
135.0216619999999
 21
201.7722269999999
 31
0.0
  0
LINE
  5
97B8
330
967A
100
AcDbEntity
  8
1
  6
Continuous
100
AcDbLine
 10
133.177662
 20
200.965227
 30
0.0
 11
133.0216619999999
 21
201.858227
 31
0.0
  0
LINE
  5
97B9
330
967A
100
AcDbEntity
  8
1
  6
Continuous
100
AcDbLine
 10
133.3716619999999
 20
196.965227
 30
0.0
 11
133.5286619999999
 21
196.0722269999999
 31
0.0
  0
LINE
  5
97BA
330
967A
100
AcDbEntity
  8
1
  6
Continuous
100
AcDbLine
 10
135.5286619999999
 20
196.0722269999999
 30
0.0
 11
135.459662
 21
196.465227
 31
0.0
  0
LINE
  5
97BB
330
967A
100
AcDbEntity
  8
1
  6
Continuous
100
AcDbLine
 10
135.0216619999999
 20
201.858227
 30
0.0
 11
135.090662
 21
201.465227
 31
0.0
  0
LINE
  5
97BC
330
967A
100
AcDbEntity
  8
1
  6
Continuous
100
AcDbLine
 10
136.0216619999999
 20
196.0722269999999
 30
0.0
 11
137.0216619999999
 21
201.7722269999999
 31
0.0
  0
LINE
  5
97BD
330
967A
100
AcDbEntity
  8
1
  6
Continuous
100
AcDbLine
 10
136.528662
 20
201.858227
 30
0.0
 11
135.5286619999999
 21
196.158227
 31
0.0
  0
LINE
  5
97BE
330
967A
100
AcDbEntity
  8
1
  6
Continuous
100
AcDbLine
 10
137.090662
 20
201.465227
 30
0.0
 11
137.0216619999999
 21
201.858227
 31
0.0
  0
LINE
  5
97BF
330
967A
100
AcDbEntity
  8
1
  6
Continuous
100
AcDbLine
 10
137.459662
 20
196.465227
 30
0.0
 11
137.528662
 21
196.0722269999999
 31
0.0
  0
LINE
  5
97C0
330
967A
100
AcDbEntity
  8
1
  6
Continuous
100
AcDbLine
 10
138.0216619999999
 20
196.0722269999999
 30
0.0
 11
139.0216619999999
 21
201.7722269999999
 31
0.0
  0
LINE
  5
97C1
330
967A
100
AcDbEntity
  8
1
  6
Continuous
100
AcDbLine
 10
138.528662
 20
201.858227
 30
0.0
 11
137.528662
 21
196.158227
 31
0.0
  0
LINE
  5
97C2
330
967A
100
AcDbEntity
  8
1
  6
Continuous
100
AcDbLine
 10
130.9676619999999
 20
201.465227
 30
0.0
 11
132.024662
 21
201.465227
 31
0.0
  0
LINE
  5
97C3
330
967A
100
AcDbEntity
  8
1
  6
Continuous
100
AcDbLine
 10
130.090662
 20
196.465227
 30
0.0
 11
131.5826619999999
 21
196.465227
 31
0.0
  0
LINE
  5
97C4
330
967A
100
AcDbEntity
  8
1
  6
Continuous
100
AcDbLine
 10
132.879662
 20
200.965227
 30
0.0
 11
133.524662
 21
200.965227
 31
0.0
  0
LINE
  5
97C5
330
967A
100
AcDbEntity
  8
1
  6
Continuous
100
AcDbLine
 10
134.090662
 20
196.465227
 30
0.0
 11
135.5826619999999
 21
196.465227
 31
0.0
  0
LINE
  5
97C6
330
967A
100
AcDbEntity
  8
1
  6
Continuous
100
AcDbLine
 10
136.090662
 20
196.465227
 30
0.0
 11
137.582662
 21
196.465227
 31
0.0
  0
LINE
  5
97C7
330
967A
100
AcDbEntity
  8
1
  6
Continuous
100
AcDbLine
 10
138.090662
 20
196.465227
 30
0.0
 11
139.5246619999998
 21
196.465227
 31
0.0
  0
LINE
  5
97C8
330
967A
100
AcDbEntity
  8
1
  6
Continuous
100
AcDbLine
 10
136.9676619999999
 20
201.465227
 30
0.0
 11
138.459662
 21
201.465227
 31
0.0
  0
LINE
  5
97C9
330
967A
100
AcDbEntity
  8
1
  6
Continuous
100
AcDbLine
 10
134.9676619999999
 20
201.465227
 30
0.0
 11
136.459662
 21
201.465227
 31
0.0
  0
LINE
  5
97CA
330
967A
100
AcDbEntity
  8
2
  6
Continuous
100
AcDbLine
 10
134.891662
 20
201.032227
 30
0.0
 11
136.3836619999999
 21
201.032227
 31
0.0
  0
LINE
  5
97CB
330
967A
100
AcDbEntity
  8
2
  6
Continuous
100
AcDbLine
 10
136.891662
 20
201.032227
 30
0.0
 11
138.3836619999999
 21
201.032227
 31
0.0
  0
LINE
  5
97CC
330
967A
100
AcDbEntity
  8
2
  6
Continuous
100
AcDbLine
 10
138.166662
 20
196.8982269999999
 30
0.0
 11
139.5246619999998
 21
196.8982269999999
 31
0.0
  0
LINE
  5
97CD
330
967A
100
AcDbEntity
  8
2
  6
Continuous
100
AcDbLine
 10
136.166662
 20
196.8982269999999
 30
0.0
 11
137.6586619999999
 21
196.8982269999999
 31
0.0
  0
LINE
  5
97CE
330
967A
100
AcDbEntity
  8
2
  6
Continuous
100
AcDbLine
 10
134.166662
 20
196.8982269999999
 30
0.0
 11
135.6586619999999
 21
196.8982269999999
 31
0.0
  0
LINE
  5
97CF
330
967A
100
AcDbEntity
  8
1
  6
Continuous
100
AcDbLine
 10
130.5286619999999
 20
121.8582269999999
 30
0.0
 11
130.024662
 21
118.987227
 31
0.0
  0
LINE
  5
97D0
330
967A
100
AcDbEntity
  8
1
  6
Continuous
100
AcDbLine
 10
130.9676619999999
 20
121.4652269999999
 30
0.0
 11
132.024662
 21
121.4652269999999
 31
0.0
  0
LINE
  5
97D1
330
967A
100
AcDbEntity
  8
1
  6
Continuous
100
AcDbLine
 10
134.9676619999999
 20
121.4652269999999
 30
0.0
 11
135.024662
 21
121.4652269999999
 31
0.0
  0
LINE
  5
97D2
330
967A
100
AcDbEntity
  8
1
  6
Continuous
100
AcDbLine
 10
135.024662
 20
55.965227
 30
0.0
 11
135.024662
 21
63.965227
 31
0.0
  0
LINE
  5
97D3
330
967A
100
AcDbEntity
  8
1
  6
Continuous
100
AcDbLine
 10
138.024662
 20
55.965227
 30
0.0
 11
138.024662
 21
63.965227
 31
0.0
  0
LINE
  5
97D4
330
967A
100
AcDbEntity
  8
1
  6
Continuous
100
AcDbLine
 10
135.024662
 20
63.965227
 30
0.0
 11
138.024662
 21
63.965227
 31
0.0
  0
LINE
  5
97D5
330
967A
100
AcDbEntity
  8
1
  6
Continuous
100
AcDbLine
 10
140.024662
 20
46.965227
 30
0.0
 11
135.4676619999999
 21
54.39692700000001
 31
0.0
  0
LINE
  5
97D6
330
967A
100
AcDbEntity
  8
1
  6
Continuous
100
AcDbLine
 10
138.024662
 20
55.965227
 30
0.0
 11
142.582662
 21
48.533627
 31
0.0
  0
LINE
  5
97D7
330
967A
100
AcDbEntity
  8
1
  6
Continuous
100
AcDbLine
 10
143.024662
 20
44.465227
 30
0.0
 11
143.024662
 21
46.965227
 31
0.0
  0
LINE
  5
97D8
330
967A
100
AcDbEntity
  8
1
  6
Continuous
100
AcDbLine
 10
140.024662
 20
44.465227
 30
0.0
 11
140.024662
 21
46.965227
 31
0.0
  0
LINE
  5
97D9
330
967A
100
AcDbEntity
  8
4
  6
CENTER
100
AcDbLine
 10
115.024662
 20
201.6272269999999
 30
0.0
 11
115.024662
 21
196.3082269999999
 31
0.0
  0
LINE
  5
97DA
330
967A
100
AcDbEntity
  8
4
  6
CENTER
100
AcDbLine
 10
382.5286619999998
 20
118.965227
 30
0.0
 11
339.1296619999998
 21
118.965227
 31
0.0
  0
LINE
  5
97DB
330
967A
100
AcDbEntity
  8
1
  6
Continuous
100
AcDbLine
 10
380.0246619999999
 20
125.9652269999999
 30
0.0
 11
380.0246619999999
 21
111.965227
 31
0.0
  0
LINE
  5
97DC
330
967A
100
AcDbEntity
  8
1
  6
Continuous
100
AcDbLine
 10
372.0246619999999
 20
126.9652269999999
 30
0.0
 11
372.0246619999999
 21
110.9652269999999
 31
0.0
  0
LINE
  5
97DD
330
967A
100
AcDbEntity
  8
1
  6
Continuous
100
AcDbLine
 10
372.0246619999999
 20
122.965227
 30
0.0
 11
364.0246619999999
 21
122.965227
 31
0.0
  0
LINE
  5
97DE
330
967A
100
AcDbEntity
  8
1
  6
Continuous
100
AcDbLine
 10
372.0246619999999
 20
114.965227
 30
0.0
 11
364.0246619999999
 21
114.965227
 31
0.0
  0
LINE
  5
97DF
330
967A
100
AcDbEntity
  8
1
  6
Continuous
100
AcDbLine
 10
379.024662
 20
126.9652269999999
 30
0.0
 11
372.0246619999999
 21
126.9652269999999
 31
0.0
  0
LINE
  5
97E0
330
967A
100
AcDbEntity
  8
1
  6
Continuous
100
AcDbLine
 10
379.024662
 20
110.9652269999999
 30
0.0
 11
372.0246619999999
 21
110.9652269999999
 31
0.0
  0
LINE
  5
97E1
330
967A
100
AcDbEntity
  8
1
  6
Continuous
100
AcDbLine
 10
379.024662
 20
126.9652269999999
 30
0.0
 11
380.0246619999999
 21
125.9652269999999
 31
0.0
  0
LINE
  5
97E2
330
967A
100
AcDbEntity
  8
1
  6
Continuous
100
AcDbLine
 10
380.0246619999999
 20
111.965227
 30
0.0
 11
379.024662
 21
110.9652269999999
 31
0.0
  0
LINE
  5
97E3
330
967A
100
AcDbEntity
  8
1
  6
Continuous
100
AcDbLine
 10
379.024662
 20
126.9652269999999
 30
0.0
 11
379.024662
 21
110.9652269999999
 31
0.0
  0
LINE
  5
97E4
330
967A
100
AcDbEntity
  8
1
  6
Continuous
100
AcDbLine
 10
379.024662
 20
125.9652269999999
 30
0.0
 11
372.0246619999999
 21
125.9652269999999
 31
0.0
  0
LINE
  5
97E5
330
967A
100
AcDbEntity
  8
1
  6
Continuous
100
AcDbLine
 10
378.0246619999999
 20
124.965227
 30
0.0
 11
372.0246619999999
 21
124.965227
 31
0.0
  0
LINE
  5
97E6
330
967A
100
AcDbEntity
  8
1
  6
Continuous
100
AcDbLine
 10
377.0246619999999
 20
123.965227
 30
0.0
 11
372.0246619999999
 21
123.965227
 31
0.0
  0
LINE
  5
97E7
330
967A
100
AcDbEntity
  8
1
  6
Continuous
100
AcDbLine
 10
376.0246619999999
 20
122.965227
 30
0.0
 11
372.0246619999999
 21
122.965227
 31
0.0
  0
LINE
  5
97E8
330
967A
100
AcDbEntity
  8
1
  6
Continuous
100
AcDbLine
 10
375.0246619999999
 20
121.965227
 30
0.0
 11
372.0246619999999
 21
121.965227
 31
0.0
  0
LINE
  5
97E9
330
967A
100
AcDbEntity
  8
1
  6
Continuous
100
AcDbLine
 10
140.024662
 20
202.965227
 30
0.0
 11
143.024662
 21
202.965227
 31
0.0
  0
LINE
  5
97EA
330
967A
100
AcDbEntity
  8
1
  6
Continuous
100
AcDbLine
 10
143.024662
 20
202.965227
 30
0.0
 11
143.024662
 21
190.965227
 31
0.0
  0
LINE
  5
97EB
330
967A
100
AcDbEntity
  8
1
  6
Continuous
100
AcDbLine
 10
140.024662
 20
202.965227
 30
0.0
 11
140.024662
 21
190.965227
 31
0.0
  0
LINE
  5
97EC
330
967A
100
AcDbEntity
  8
1
  6
Continuous
100
AcDbLine
 10
140.024662
 20
190.965227
 30
0.0
 11
135.4676619999999
 21
183.533227
 31
0.0
  0
LINE
  5
97ED
330
967A
100
AcDbEntity
  8
1
  6
Continuous
100
AcDbLine
 10
138.024662
 20
181.9652269999999
 30
0.0
 11
142.582662
 21
189.3972269999999
 31
0.0
  0
LINE
  5
97EE
330
967A
100
AcDbEntity
  8
1
  6
Continuous
100
AcDbLine
 10
138.024662
 20
181.9652269999999
 30
0.0
 11
138.024662
 21
173.965227
 31
0.0
  0
LINE
  5
97EF
330
967A
100
AcDbEntity
  8
1
  6
Continuous
100
AcDbLine
 10
135.024662
 20
181.9652269999999
 30
0.0
 11
135.024662
 21
173.965227
 31
0.0
  0
LINE
  5
97F0
330
967A
100
AcDbEntity
  8
1
  6
Continuous
100
AcDbLine
 10
135.024662
 20
173.965227
 30
0.0
 11
138.024662
 21
173.965227
 31
0.0
  0
LINE
  5
97F1
330
967A
100
AcDbEntity
  8
1
  6
Continuous
100
AcDbLine
 10
234.0666619999999
 20
115.9232269999999
 30
0.0
 11
252.524662
 21
115.185153
 31
0.0
  0
LINE
  5
97F2
330
967A
100
AcDbEntity
  8
1
  6
Continuous
100
AcDbLine
 10
234.0666619999999
 20
122.0072269999999
 30
0.0
 11
253.795706
 21
122.796125
 31
0.0
  0
LINE
  5
97F3
330
967A
100
AcDbEntity
  8
1
  6
Continuous
100
AcDbLine
 10
135.024662
 20
116.965227
 30
0.0
 11
138.024662
 21
116.965227
 31
0.0
  0
LINE
  5
97F4
330
967A
100
AcDbEntity
  8
1
  6
Continuous
100
AcDbLine
 10
135.024662
 20
120.965227
 30
0.0
 11
138.024662
 21
120.965227
 31
0.0
  0
LINE
  5
97F5
330
967A
100
AcDbEntity
  8
1
  6
Continuous
100
AcDbLine
 10
135.024662
 20
62.92342699999998
 30
0.0
 11
138.024662
 21
62.92342699999998
 31
0.0
  0
LINE
  5
97F6
330
967A
100
AcDbEntity
  8
1
  6
Continuous
100
AcDbLine
 10
233.024662
 20
116.965227
 30
0.0
 11
234.0666619999999
 21
115.9232269999999
 31
0.0
  0
LINE
  5
97F7
330
967A
100
AcDbEntity
  8
1
  6
Continuous
100
AcDbLine
 10
233.024662
 20
120.965227
 30
0.0
 11
233.024662
 21
116.965227
 31
0.0
  0
LINE
  5
97F8
330
967A
100
AcDbEntity
  8
1
  6
Continuous
100
AcDbLine
 10
233.024662
 20
120.965227
 30
0.0
 11
234.0666619999999
 21
122.0072269999999
 31
0.0
  0
LINE
  5
97F9
330
967A
100
AcDbEntity
  8
5
  6
PHANTOM
100
AcDbLine
 10
127.0246619999999
 20
175.0072269999998
 30
0.0
 11
130.024662
 21
175.0072269999998
 31
0.0
  0
LINE
  5
97FA
330
967A
100
AcDbEntity
  8
1
  6
Continuous
100
AcDbLine
 10
135.024662
 20
175.0072269999998
 30
0.0
 11
138.024662
 21
175.0072269999998
 31
0.0
  0
LINE
  5
97FB
330
967A
100
AcDbEntity
  8
1
  6
Continuous
100
AcDbLine
 10
241.024662
 20
122.286227
 30
0.0
 11
241.024662
 21
115.644227
 31
0.0
  0
LINE
  5
97FC
330
967A
100
AcDbEntity
  8
1
  6
Continuous
100
AcDbLine
 10
249.178662
 20
121.6172269999999
 30
0.0
 11
249.178662
 21
116.748227
 31
0.0
  0
LINE
  5
97FD
330
967A
100
AcDbEntity
  8
1
  6
Continuous
100
AcDbLine
 10
33.024962
 20
122.647227
 30
0.0
 11
33.024962
 21
115.2832269999999
 31
0.0
  0
LINE
  5
97FE
330
967A
100
AcDbEntity
  8
1
  6
Continuous
100
AcDbLine
 10
50.024962
 20
120.965227
 30
0.0
 11
50.024962
 21
116.965227
 31
0.0
  0
LINE
  5
97FF
330
967A
100
AcDbEntity
  8
1
  6
Continuous
100
AcDbLine
 10
48.983162
 20
122.0072269999999
 30
0.0
 11
32.10916499999999
 21
122.681956
 31
0.0
  0
LINE
  5
9800
330
967A
100
AcDbEntity
  8
1
  6
Continuous
100
AcDbLine
 10
48.983162
 20
115.9232269999999
 30
0.0
 11
32.10916499999999
 21
115.248498
 31
0.0
  0
LINE
  5
9801
330
967A
100
AcDbEntity
  8
1
  6
Continuous
100
AcDbLine
 10
50.024962
 20
120.965227
 30
0.0
 11
48.983162
 21
122.0072269999999
 31
0.0
  0
LINE
  5
9802
330
967A
100
AcDbEntity
  8
1
  6
Continuous
100
AcDbLine
 10
50.024962
 20
116.965227
 30
0.0
 11
48.983162
 21
115.9232269999999
 31
0.0
  0
LINE
  5
9803
330
967A
100
AcDbEntity
  8
1
  6
Continuous
100
AcDbLine
 10
41.178362
 20
121.8332269999999
 30
0.0
 11
41.178362
 21
116.3182269999999
 31
0.0
  0
CIRCLE
  5
9804
330
967A
100
AcDbEntity
  8
1
  6
Continuous
100
AcDbCircle
 10
25.02496199999999
 20
128.9652269999999
 30
0.0
 40
1.6
  0
CIRCLE
  5
9805
330
967A
100
AcDbEntity
  8
1
  6
Continuous
100
AcDbCircle
 10
25.02496199999999
 20
108.9652269999999
 30
0.0
 40
1.6
  0
CIRCLE
  5
9806
330
967A
100
AcDbEntity
  8
1
  6
Continuous
100
AcDbCircle
 10
25.02496199999999
 20
118.965227
 30
0.0
 40
4.0
  0
CIRCLE
  5
9807
330
967A
100
AcDbEntity
  8
1
  6
Continuous
100
AcDbCircle
 10
258.024662
 20
128.9652269999999
 30
0.0
 40
1.6
  0
CIRCLE
  5
9808
330
967A
100
AcDbEntity
  8
1
  6
Continuous
100
AcDbCircle
 10
258.024662
 20
108.9652269999999
 30
0.0
 40
1.6
  0
CIRCLE
  5
9809
330
967A
100
AcDbEntity
  8
1
  6
Continuous
100
AcDbCircle
 10
258.024662
 20
108.9652269999999
 30
0.0
 40
1.75
  0
CIRCLE
  5
980A
330
967A
100
AcDbEntity
  8
1
  6
Continuous
100
AcDbCircle
 10
258.024662
 20
118.965227
 30
0.0
 40
1.6
  0
ARC
  5
980B
330
967A
100
AcDbEntity
  8
1
  6
Continuous
100
AcDbCircle
 10
258.024662
 20
118.965227
 30
0.0
 40
3.6
100
AcDbArc
 50
341.6819999999999
 51
36.1087
  0
ARC
  5
980C
330
967A
100
AcDbEntity
  8
1
  6
Continuous
100
AcDbCircle
 10
258.024662
 20
118.965227
 30
0.0
 40
3.6
100
AcDbArc
 50
73.8724
 51
106.128
  0
ARC
  5
980D
330
967A
100
AcDbEntity
  8
1
  6
Continuous
100
AcDbCircle
 10
258.024662
 20
118.965227
 30
0.0
 40
3.6
100
AcDbArc
 50
143.8909999999999
 51
198.3179999999999
  0
ARC
  5
980E
330
967A
100
AcDbEntity
  8
1
  6
Continuous
100
AcDbCircle
 10
260.974662
 20
123.815227
 30
0.0
 40
1.149999999999999
100
AcDbArc
 50
334.202
 51
154.2019999999999
  0
ARC
  5
980F
330
967A
100
AcDbEntity
  8
1
  6
Continuous
100
AcDbCircle
 10
255.0746619999999
 20
123.815227
 30
0.0
 40
1.149999999999999
100
AcDbArc
 50
25.79779999999999
 51
205.798
  0
ARC
  5
9810
330
967A
100
AcDbEntity
  8
1
  6
Continuous
100
AcDbCircle
 10
261.174662
 20
113.6152269999999
 30
0.0
 40
1.149999999999999
100
AcDbArc
 50
192.1579999999999
 51
12.1576
  0
ARC
  5
9811
330
967A
100
AcDbEntity
  8
1
  6
Continuous
100
AcDbCircle
 10
254.874662
 20
113.6152269999999
 30
0.0
 40
1.149999999999999
100
AcDbArc
 50
167.842
 51
347.8419999999999
  0
ARC
  5
9812
330
967A
100
AcDbEntity
  8
1
  6
Continuous
100
AcDbCircle
 10
144.024662
 20
112.965227
 30
0.0
 40
1.0
100
AcDbArc
 50
270.0
 51
0.0
  0
ARC
  5
9813
330
967A
100
AcDbEntity
  8
1
  6
Continuous
100
AcDbCircle
 10
128.0246619999998
 20
192.965227
 30
0.0
 40
1.0
100
AcDbArc
 50
180.0
 51
270.0
  0
ARC
  5
9814
330
967A
100
AcDbEntity
  8
1
  6
Continuous
100
AcDbCircle
 10
128.0246619999998
 20
204.965227
 30
0.0
 40
1.0
100
AcDbArc
 50
90.0
 51
180.0
  0
ARC
  5
9815
330
967A
100
AcDbEntity
  8
1
  6
Continuous
100
AcDbCircle
 10
144.024662
 20
204.965227
 30
0.0
 40
1.0
100
AcDbArc
 50
0.0
 51
90.0
  0
CIRCLE
  5
9816
330
967A
100
AcDbEntity
  8
1
  6
Continuous
100
AcDbCircle
 10
146.124662
 20
201.5652269999999
 30
0.0
 40
0.2
  0
ARC
  5
9817
330
967A
100
AcDbEntity
  8
1
  6
Continuous
100
AcDbCircle
 10
145.224662
 20
203.1652269999999
 30
0.0
 40
0.2
100
AcDbArc
 50
0.0
 51
180.0
  0
CIRCLE
  5
9818
330
967A
100
AcDbEntity
  8
1
  6
Continuous
100
AcDbCircle
 10
145.224662
 20
194.765227
 30
0.0
 40
0.2
  0
ARC
  5
9819
330
967A
100
AcDbEntity
  8
1
  6
Continuous
100
AcDbCircle
 10
146.124662
 20
196.365227
 30
0.0
 40
0.2
100
AcDbArc
 50
180.0
 51
0.00001
  0
CIRCLE
  5
981A
330
967A
100
AcDbEntity
  8
1
  6
Continuous
100
AcDbCircle
 10
145.224662
 20
114.765227
 30
0.0
 40
0.2
  0
ARC
  5
981B
330
967A
100
AcDbEntity
  8
1
  6
Continuous
100
AcDbCircle
 10
146.124662
 20
116.365227
 30
0.0
 40
0.2
100
AcDbArc
 50
180.0
 51
0.00001
  0
CIRCLE
  5
981C
330
967A
100
AcDbEntity
  8
1
  6
Continuous
100
AcDbCircle
 10
146.124662
 20
121.5652269999999
 30
0.0
 40
0.2
  0
ARC
  5
981D
330
967A
100
AcDbEntity
  8
1
  6
Continuous
100
AcDbCircle
 10
145.224662
 20
123.165227
 30
0.0
 40
0.2
100
AcDbArc
 50
0.0
 51
180.0
  0
ARC
  5
981E
330
967A
100
AcDbEntity
  8
1
  6
Continuous
100
AcDbCircle
 10
258.024662
 20
118.965227
 30
0.0
 40
4.4
100
AcDbArc
 50
72.10179999999998
 51
107.899
  0
ARC
  5
981F
330
967A
100
AcDbEntity
  8
1
  6
Continuous
100
AcDbCircle
 10
258.024662
 20
118.965227
 30
0.0
 40
4.4
100
AcDbArc
 50
326.9979999999998
 51
41.5404
  0
ARC
  5
9820
330
967A
100
AcDbEntity
  8
1
  6
Continuous
100
AcDbCircle
 10
258.024662
 20
118.965227
 30
0.0
 40
4.4
100
AcDbArc
 50
138.46
 51
213.0009999999999
  0
ARC
  5
9821
330
967A
100
AcDbEntity
  8
1
  6
Continuous
100
AcDbCircle
 10
128.774662
 20
196.115227
 30
0.0
 40
0.25
100
AcDbArc
 50
180.0
 51
0.00001
  0
ARC
  5
9822
330
967A
100
AcDbEntity
  8
1
  6
Continuous
100
AcDbCircle
 10
128.774662
 20
201.8152269999999
 30
0.0
 40
0.25
100
AcDbArc
 50
0.0
 51
180.0
  0
ARC
  5
9823
330
967A
100
AcDbEntity
  8
1
  6
Continuous
100
AcDbCircle
 10
347.0246619999999
 20
112.965227
 30
0.0
 40
1.0
100
AcDbArc
 50
180.0
 51
270.0
  0
CIRCLE
  5
9824
330
967A
100
AcDbEntity
  8
1
  6
Continuous
100
AcDbCircle
 10
345.824662
 20
114.765227
 30
0.0
 40
0.2
  0
ARC
  5
9825
330
967A
100
AcDbEntity
  8
1
  6
Continuous
100
AcDbCircle
 10
344.924662
 20
116.365227
 30
0.0
 40
0.2
100
AcDbArc
 50
180.0
 51
0.0
  0
CIRCLE
  5
9826
330
967A
100
AcDbEntity
  8
1
  6
Continuous
100
AcDbCircle
 10
344.924662
 20
121.5652269999999
 30
0.0
 40
0.2
  0
ARC
  5
9827
330
967A
100
AcDbEntity
  8
1
  6
Continuous
100
AcDbCircle
 10
345.824662
 20
123.165227
 30
0.0
 40
0.2
100
AcDbArc
 50
0.0
 51
180.0
  0
ARC
  5
9828
330
967A
100
AcDbEntity
  8
1
  6
Continuous
100
AcDbCircle
 10
128.0246619999998
 20
44.96522699999998
 30
0.0
 40
1.0
100
AcDbArc
 50
90.0
 51
180.0
  0
ARC
  5
9829
330
967A
100
AcDbEntity
  8
1
  6
Continuous
100
AcDbCircle
 10
144.024662
 20
32.965227
 30
0.0
 40
1.0
100
AcDbArc
 50
270.0
 51
0.0
  0
CIRCLE
  5
982A
330
967A
100
AcDbEntity
  8
1
  6
Continuous
100
AcDbCircle
 10
146.124662
 20
36.36522699999999
 30
0.0
 40
0.2
  0
ARC
  5
982B
330
967A
100
AcDbEntity
  8
1
  6
Continuous
100
AcDbCircle
 10
145.224662
 20
34.765227
 30
0.0
 40
0.2
100
AcDbArc
 50
180.0
 51
0.00001
  0
CIRCLE
  5
982C
330
967A
100
AcDbEntity
  8
1
  6
Continuous
100
AcDbCircle
 10
145.224662
 20
43.165227
 30
0.0
 40
0.2
  0
ARC
  5
982D
330
967A
100
AcDbEntity
  8
1
  6
Continuous
100
AcDbCircle
 10
146.124662
 20
41.565227
 30
0.0
 40
0.2
100
AcDbArc
 50
0.0
 51
180.0
  0
ARC
  5
982E
330
967A
100
AcDbEntity
  8
1
  6
Continuous
100
AcDbCircle
 10
257.5246619999999
 20
119.4652269999999
 30
0.0
 40
5.0
100
AcDbArc
 50
90.0
 51
106.1579999999999
  0
ARC
  5
982F
330
967A
100
AcDbEntity
  8
1
  6
Continuous
100
AcDbCircle
 10
257.5246619999999
 20
119.4652269999999
 30
0.0
 40
5.0
100
AcDbArc
 50
132.8079999999999
 51
180.0
  0
ARC
  5
9830
330
967A
100
AcDbEntity
  8
1
  6
Continuous
100
AcDbCircle
 10
128.0246619999998
 20
32.965227
 30
0.0
 40
1.0
100
AcDbArc
 50
180.0
 51
270.0
  0
CIRCLE
  5
9831
330
967A
100
AcDbEntity
  8
1
  6
Continuous
100
AcDbCircle
 10
25.02496199999999
 20
118.965227
 30
0.0
 40
8.0
  0
CIRCLE
  5
9832
330
967A
100
AcDbEntity
  8
1
  6
Continuous
100
AcDbCircle
 10
25.02496199999999
 20
118.965227
 30
0.0
 40
7.0
  0
ARC
  5
9833
330
967A
100
AcDbEntity
  8
5
  6
PHANTOM
100
AcDbCircle
 10
132.024662
 20
190.965227
 30
0.0
 40
3.0
100
AcDbArc
 50
328.4819999999998
 51
0.0
  0
ARC
  5
9834
330
967A
100
AcDbEntity
  8
5
  6
PHANTOM
100
AcDbCircle
 10
130.024662
 20
181.9652269999999
 30
0.0
 40
3.0
100
AcDbArc
 50
148.482
 51
180.0
  0
ARC
  5
9835
330
967A
100
AcDbEntity
  8
1
  6
Continuous
100
AcDbCircle
 10
129.774662
 20
196.115227
 30
0.0
 40
0.25
100
AcDbArc
 50
189.914
 51
350.0489999999999
  0
ARC
  5
9836
330
967A
100
AcDbEntity
  8
1
  6
Continuous
100
AcDbCircle
 10
130.774662
 20
121.815227
 30
0.0
 40
0.25
100
AcDbArc
 50
9.950609999999999
 51
170.049
  0
ARC
  5
9837
330
967A
100
AcDbEntity
  8
1
  6
Continuous
100
AcDbCircle
 10
131.774662
 20
116.115227
 30
0.0
 40
0.25
100
AcDbArc
 50
189.951
 51
350.0489999999999
  0
ARC
  5
9838
330
967A
100
AcDbEntity
  8
1
  6
Continuous
100
AcDbCircle
 10
133.774662
 20
116.115227
 30
0.0
 40
0.25
100
AcDbArc
 50
189.951
 51
350.0489999999999
  0
ARC
  5
9839
330
967A
100
AcDbEntity
  8
1
  6
Continuous
100
AcDbCircle
 10
139.774662
 20
201.8152269999999
 30
0.0
 40
0.25
100
AcDbArc
 50
0.0
 51
180.0
  0
ARC
  5
983A
330
967A
100
AcDbEntity
  8
1
  6
Continuous
100
AcDbCircle
 10
139.774662
 20
196.115227
 30
0.0
 40
0.25
100
AcDbArc
 50
180.0
 51
0.00001
  0
ARC
  5
983B
330
967A
100
AcDbEntity
  8
1
  6
Continuous
100
AcDbCircle
 10
134.774662
 20
121.815227
 30
0.0
 40
0.25
100
AcDbArc
 50
350.0489999999999
 51
170.049
  0
ARC
  5
983C
330
967A
100
AcDbEntity
  8
1
  6
Continuous
100
AcDbCircle
 10
132.774662
 20
121.815227
 30
0.0
 40
0.25
100
AcDbArc
 50
9.950609999999999
 51
170.049
  0
ARC
  5
983D
330
967A
100
AcDbEntity
  8
1
  6
Continuous
100
AcDbCircle
 10
130.774662
 20
201.8152269999999
 30
0.0
 40
0.25
100
AcDbArc
 50
9.950609999999999
 51
170.049
  0
ARC
  5
983E
330
967A
100
AcDbEntity
  8
1
  6
Continuous
100
AcDbCircle
 10
131.774662
 20
196.115227
 30
0.0
 40
0.25
100
AcDbArc
 50
189.951
 51
350.0489999999999
  0
ARC
  5
983F
330
967A
100
AcDbEntity
  8
1
  6
Continuous
100
AcDbCircle
 10
133.774662
 20
196.115227
 30
0.0
 40
0.25
100
AcDbArc
 50
189.951
 51
350.0489999999999
  0
ARC
  5
9840
330
967A
100
AcDbEntity
  8
1
  6
Continuous
100
AcDbCircle
 10
135.774662
 20
196.115227
 30
0.0
 40
0.25
100
AcDbArc
 50
189.951
 51
350.0489999999999
  0
ARC
  5
9841
330
967A
100
AcDbEntity
  8
1
  6
Continuous
100
AcDbCircle
 10
137.774662
 20
196.115227
 30
0.0
 40
0.25
100
AcDbArc
 50
189.951
 51
0.0
  0
ARC
  5
9842
330
967A
100
AcDbEntity
  8
1
  6
Continuous
100
AcDbCircle
 10
138.774662
 20
201.8152269999999
 30
0.0
 40
0.25
100
AcDbArc
 50
9.950609999999999
 51
170.049
  0
ARC
  5
9843
330
967A
100
AcDbEntity
  8
1
  6
Continuous
100
AcDbCircle
 10
136.774662
 20
201.8152269999999
 30
0.0
 40
0.25
100
AcDbArc
 50
9.950609999999999
 51
170.049
  0
ARC
  5
9844
330
967A
100
AcDbEntity
  8
1
  6
Continuous
100
AcDbCircle
 10
134.774662
 20
201.8152269999999
 30
0.0
 40
0.25
100
AcDbArc
 50
9.950609999999999
 51
170.049
  0
ARC
  5
9845
330
967A
100
AcDbEntity
  8
1
  6
Continuous
100
AcDbCircle
 10
132.774662
 20
201.8152269999999
 30
0.0
 40
0.25
100
AcDbArc
 50
9.950609999999999
 51
170.049
  0
ARC
  5
9846
330
967A
100
AcDbEntity
  8
1
  6
Continuous
100
AcDbCircle
 10
138.024662
 20
55.965227
 30
0.0
 40
3.0
100
AcDbArc
 50
180.0
 51
211.518
  0
ARC
  5
9847
330
967A
100
AcDbEntity
  8
1
  6
Continuous
100
AcDbCircle
 10
140.024662
 20
46.965227
 30
0.0
 40
3.0
100
AcDbArc
 50
0.0
 51
31.51839999999999
  0
CIRCLE
  5
9848
330
967A
100
AcDbEntity
  8
2
  6
Continuous
100
AcDbCircle
 10
115.024662
 20
198.965227
 30
0.0
 40
1.5
  0
CIRCLE
  5
9849
330
967A
100
AcDbEntity
  8
1
  6
Continuous
100
AcDbCircle
 10
115.024662
 20
198.965227
 30
0.0
 40
1.2295
  0
ARC
  5
984A
330
967A
100
AcDbEntity
  8
1
  6
Continuous
100
AcDbCircle
 10
140.024662
 20
190.965227
 30
0.0
 40
3.0
100
AcDbArc
 50
328.4819999999998
 51
0.0
  0
ARC
  5
984B
330
967A
100
AcDbEntity
  8
1
  6
Continuous
100
AcDbCircle
 10
138.024662
 20
181.9652269999999
 30
0.0
 40
3.0
100
AcDbArc
 50
148.482
 51
180.0
  0
ARC
  5
984C
330
967A
100
AcDbEntity
  8
1
  6
Continuous
100
AcDbCircle
 10
258.024662
 20
118.965227
 30
0.0
 40
8.0
100
AcDbArc
 50
331.045
 51
28.955
  0
LINE
  5
984D
330
967A
100
AcDbEntity
  8
4
  6
CENTER
100
AcDbLine
 10
15.178437
 20
122.621288
 30
0.0
 11
50.812698
 21
109.3901199999999
 31
0.0
  0
LINE
  5
984E
330
967A
100
AcDbEntity
  8
5
  6
PHANTOM
100
AcDbLine
 10
48.54357799999998
 20
113.477582
 30
0.0
 11
26.4173
 21
122.715079
 31
0.0
  0
LINE
  5
984F
330
967A
100
AcDbEntity
  8
5
  6
PHANTOM
100
AcDbLine
 10
46.42583199999999
 20
107.774056
 30
0.0
 11
23.63262399999999
 21
115.2153739999999
 31
0.0
  0
LINE
  5
9850
330
967A
100
AcDbEntity
  8
5
  6
PHANTOM
100
AcDbLine
 10
49.157711
 20
112.1380419999999
 30
0.0
 11
48.54357799999998
 21
113.477582
 31
0.0
  0
LINE
  5
9851
330
967A
100
AcDbEntity
  8
5
  6
PHANTOM
100
AcDbLine
 10
49.157711
 20
112.1380419999999
 30
0.0
 11
47.765373
 21
108.3881889999998
 31
0.0
  0
LINE
  5
9852
330
967A
100
AcDbEntity
  8
5
  6
PHANTOM
100
AcDbLine
 10
47.765373
 20
108.3881889999998
 30
0.0
 11
46.42583199999999
 21
107.774056
 31
0.0
  0
LINE
  5
9853
330
967A
100
AcDbEntity
  8
5
  6
PHANTOM
100
AcDbLine
 10
19.53731799999999
 20
142.4838419999999
 30
0.0
 11
28.774815
 21
120.3575639999999
 31
0.0
  0
LINE
  5
9854
330
967A
100
AcDbEntity
  8
5
  6
PHANTOM
100
AcDbLine
 10
13.833792
 20
140.3660969999999
 30
0.0
 11
21.275109
 21
117.572889
 31
0.0
  0
LINE
  5
9855
330
967A
100
AcDbEntity
  8
4
  6
CENTER
100
AcDbLine
 10
28.522993
 20
109.544308
 30
0.0
 11
15.449856
 21
144.752963
 31
0.0
  0
LINE
  5
9856
330
967A
100
AcDbEntity
  8
5
  6
PHANTOM
100
AcDbLine
 10
18.19777699999999
 20
143.0979749999998
 30
0.0
 11
19.53731799999999
 21
142.4838419999999
 31
0.0
  0
LINE
  5
9857
330
967A
100
AcDbEntity
  8
5
  6
PHANTOM
100
AcDbLine
 10
14.447925
 20
141.705637
 30
0.0
 11
18.19777699999999
 21
143.0979749999998
 31
0.0
  0
LINE
  5
9858
330
967A
100
AcDbEntity
  8
5
  6
PHANTOM
100
AcDbLine
 10
14.447925
 20
141.705637
 30
0.0
 11
13.833792
 21
140.3660969999999
 31
0.0
  0
LINE
  5
9859
330
967A
100
AcDbEntity
  8
1
  6
Continuous
100
AcDbLine
 10
252.0246619999999
 20
115.2051469999999
 30
0.0
 11
252.0246619999999
 21
104.9652269999999
 31
0.0
  0
LINE
  5
985A
330
967A
100
AcDbEntity
  8
1
  6
Continuous
100
AcDbLine
 10
251.024662
 20
115.245133
 30
0.0
 11
251.024662
 21
104.9652269999999
 31
0.0
  0
LINE
  5
985B
330
967A
100
AcDbEntity
  8
1
  6
Continuous
100
AcDbLine
 10
352.1366659999998
 20
121.784073
 30
0.0
 11
352.1366659999998
 21
119.8677639999998
 31
0.0
  0
LINE
  5
985C
330
967A
100
AcDbEntity
  8
1
  6
Continuous
100
AcDbLine
 10
352.580556
 20
119.7450629999998
 30
0.0
 11
352.580556
 21
121.384391
 31
0.0
  0
LINE
  5
985D
330
967A
100
AcDbEntity
  8
1
  6
Continuous
100
AcDbLine
 10
353.025349
 20
121.661371
 30
0.0
 11
353.025349
 21
119.468984
 31
0.0
  0
LINE
  5
985E
330
967A
100
AcDbEntity
  8
1
  6
Continuous
100
AcDbLine
 10
353.914033
 20
121.0983879999999
 30
0.0
 11
353.914033
 21
121.9464719999999
 31
0.0
  0
LINE
  5
985F
330
967A
100
AcDbEntity
  8
1
  6
Continuous
100
AcDbLine
 10
354.8027169999999
 20
120.5651779999999
 30
0.0
 11
354.3588259999999
 21
120.5651779999999
 31
0.0
  0
ARC
  5
9860
330
967A
100
AcDbEntity
  8
1
  6
Continuous
100
AcDbCircle
 10
352.358611
 20
120.5651779999999
 30
0.0
 40
1.145318999999998
100
AcDbArc
 50
125.5376999999999
 51
166.5373999999999
  0
ARC
  5
9861
330
967A
100
AcDbEntity
  8
1
  6
Continuous
100
AcDbCircle
 10
352.358611
 20
120.5651779999999
 30
0.0
 40
1.145318999999998
100
AcDbArc
 50
180.0
 51
234.4619999999999
  0
ARC
  5
9862
330
967A
100
AcDbEntity
  8
1
  6
Continuous
100
AcDbCircle
 10
352.803404
 20
121.384391
 30
0.0
 40
0.222261
100
AcDbArc
 50
116.0144
 51
180.0
  0
ARC
  5
9863
330
967A
100
AcDbEntity
  8
1
  6
Continuous
100
AcDbCircle
 10
355.0246619999999
 20
116.831804
 30
0.0
 40
5.288524999999999
100
AcDbArc
 50
112.9439999999999
 51
116.0144
  0
ARC
  5
9864
330
967A
100
AcDbEntity
  8
1
  6
Continuous
100
AcDbCircle
 10
352.9811409999999
 20
121.661371
 30
0.0
 40
0.044452
100
AcDbArc
 50
0.0
 51
112.9439999999999
  0
ARC
  5
9865
330
967A
100
AcDbEntity
  8
1
  6
Continuous
100
AcDbCircle
 10
352.803404
 20
119.7450629999998
 30
0.0
 40
0.222261
100
AcDbArc
 50
180.0
 51
243.9859999999999
  0
ARC
  5
9866
330
967A
100
AcDbEntity
  8
1
  6
Continuous
100
AcDbCircle
 10
353.8698239999998
 20
121.9464719999999
 30
0.0
 40
0.044452
100
AcDbArc
 50
0.0
 51
102.7288999999999
  0
ARC
  5
9867
330
967A
100
AcDbEntity
  8
1
  6
Continuous
100
AcDbCircle
 10
355.0246619999999
 20
116.831804
 30
0.0
 40
5.288524999999999
100
AcDbArc
 50
102.7288999999999
 51
103.2680999999999
  0
ARC
  5
9868
330
967A
100
AcDbEntity
  8
1
  6
Continuous
100
AcDbCircle
 10
355.0246619999999
 20
116.831804
 30
0.0
 40
5.288524999999999
100
AcDbArc
 50
103.2680999999999
 51
105.2575
  0
ARC
  5
9869
330
967A
100
AcDbEntity
  8
1
  6
Continuous
100
AcDbCircle
 10
353.692088
 20
121.719113
 30
0.0
 40
0.222261
100
AcDbArc
 50
105.2575
 51
180.0
  0
ARC
  5
986A
330
967A
100
AcDbEntity
  8
1
  6
Continuous
100
AcDbCircle
 10
353.692088
 20
119.4103399999999
 30
0.0
 40
0.222261
100
AcDbArc
 50
180.0
 51
254.742
  0
ARC
  5
986B
330
967A
100
AcDbEntity
  8
1
  6
Continuous
100
AcDbCircle
 10
355.0246619999999
 20
124.29765
 30
0.0
 40
5.288524999999999
100
AcDbArc
 50
254.742
 51
254.794
  0
ARC
  5
986C
330
967A
100
AcDbEntity
  8
1
  6
Continuous
100
AcDbCircle
 10
355.0246619999999
 20
124.29765
 30
0.0
 40
5.288524999999999
100
AcDbArc
 50
254.794
 51
257.2709999999998
  0
ARC
  5
986D
330
967A
100
AcDbEntity
  8
1
  6
Continuous
100
AcDbCircle
 10
353.8698239999998
 20
119.182981
 30
0.0
 40
0.044452
100
AcDbArc
 50
257.2709999999998
 51
0.0
  0
LINE
  5
986E
330
967A
100
AcDbEntity
  8
1
  6
Continuous
100
AcDbLine
 10
353.46924
 20
121.719113
 30
0.0
 11
353.46924
 21
119.4103399999999
 31
0.0
  0
LINE
  5
986F
330
967A
100
AcDbEntity
  8
1
  6
Continuous
100
AcDbLine
 10
353.914033
 20
119.182981
 30
0.0
 11
353.914033
 21
120.0319679999999
 31
0.0
  0
LINE
  5
9870
330
967A
100
AcDbEntity
  8
1
  6
Continuous
100
AcDbLine
 10
354.3588259999999
 20
122.0781959999999
 30
0.0
 11
354.3588259999999
 21
119.051258
 31
0.0
  0
LINE
  5
9871
330
967A
100
AcDbEntity
  8
1
  6
Continuous
100
AcDbLine
 10
354.8027169999999
 20
122.115187
 30
0.0
 11
354.8027169999999
 21
119.0142669999999
 31
0.0
  0
ARC
  5
9872
330
967A
100
AcDbEntity
  8
1
  6
Continuous
100
AcDbCircle
 10
352.9811409999999
 20
119.468984
 30
0.0
 40
0.044452
100
AcDbArc
 50
247.0559999999999
 51
0.0
  0
ARC
  5
9873
330
967A
100
AcDbEntity
  8
1
  6
Continuous
100
AcDbCircle
 10
355.0246619999999
 20
124.29765
 30
0.0
 40
5.288524999999999
100
AcDbArc
 50
243.9859999999999
 51
247.0559999999999
  0
LINE
  5
9874
330
967A
100
AcDbEntity
  8
1
  6
Continuous
100
AcDbLine
 10
356.1361939999999
 20
120.5651779999999
 30
0.0
 11
355.9142479999999
 21
120.5651779999999
 31
0.0
  0
ARC
  5
9875
330
967A
100
AcDbEntity
  8
1
  6
Continuous
100
AcDbCircle
 10
355.9142479999999
 20
121.819259
 30
0.0
 40
0.222261
100
AcDbArc
 50
0.0
 51
79.896
  0
ARC
  5
9876
330
967A
100
AcDbEntity
  8
1
  6
Continuous
100
AcDbCircle
 10
355.9142479999999
 20
119.310194
 30
0.0
 40
0.222261
100
AcDbArc
 50
280.104
 51
0.0
  0
ARC
  5
9877
330
967A
100
AcDbEntity
  8
1
  6
Continuous
100
AcDbCircle
 10
355.0246619999999
 20
116.831804
 30
0.0
 40
5.288524999999999
100
AcDbArc
 50
79.896
 51
82.20699999999999
  0
ARC
  5
9878
330
967A
100
AcDbEntity
  8
1
  6
Continuous
100
AcDbCircle
 10
355.736511
 20
122.0276719999999
 30
0.0
 40
0.044452
100
AcDbArc
 50
82.20699999999999
 51
180.0
  0
ARC
  5
9879
330
967A
100
AcDbEntity
  8
1
  6
Continuous
100
AcDbCircle
 10
355.736511
 20
119.101782
 30
0.0
 40
0.044452
100
AcDbArc
 50
180.0
 51
277.793
  0
ARC
  5
987A
330
967A
100
AcDbEntity
  8
1
  6
Continuous
100
AcDbCircle
 10
355.0246619999999
 20
124.29765
 30
0.0
 40
5.288524999999999
100
AcDbArc
 50
277.793
 51
280.104
  0
LINE
  5
987B
330
967A
100
AcDbEntity
  8
1
  6
Continuous
100
AcDbLine
 10
355.2475099999999
 20
122.115187
 30
0.0
 11
355.2475099999999
 21
119.0142669999999
 31
0.0
  0
LINE
  5
987C
330
967A
100
AcDbEntity
  8
1
  6
Continuous
100
AcDbLine
 10
355.6914009999999
 20
122.0276719999999
 30
0.0
 11
355.6914009999999
 21
119.101782
 31
0.0
  0
LINE
  5
987D
330
967A
100
AcDbEntity
  8
1
  6
Continuous
100
AcDbLine
 10
356.1361939999999
 20
121.0983879999999
 30
0.0
 11
356.1361939999999
 21
121.819259
 31
0.0
  0
LINE
  5
987E
330
967A
100
AcDbEntity
  8
1
  6
Continuous
100
AcDbLine
 10
357.024877
 20
121.816553
 30
0.0
 11
357.024877
 21
120.787123
 31
0.0
  0
LINE
  5
987F
330
967A
100
AcDbEntity
  8
1
  6
Continuous
100
AcDbLine
 10
357.46967
 20
120.787123
 30
0.0
 11
357.46967
 21
121.736255
 31
0.0
  0
LINE
  5
9880
330
967A
100
AcDbEntity
  8
1
  6
Continuous
100
AcDbLine
 10
357.246823
 20
120.5651779999999
 30
0.0
 11
357.246823
 21
119.498757
 31
0.0
  0
LINE
  5
9881
330
967A
100
AcDbEntity
  8
1
  6
Continuous
100
AcDbLine
 10
357.695225
 20
119.733334
 30
0.0
 11
358.1977589999998
 21
121.606336
 31
0.0
  0
LINE
  5
9882
330
967A
100
AcDbEntity
  8
1
  6
Continuous
100
AcDbLine
 10
358.836529
 20
120.5651779999999
 30
0.0
 11
357.918072
 21
120.5651779999999
 31
0.0
  0
ARC
  5
9883
330
967A
100
AcDbEntity
  8
1
  6
Continuous
100
AcDbCircle
 10
357.246823
 20
120.787123
 30
0.0
 40
0.222261
100
AcDbArc
 50
180.0
 51
0.0
  0
ARC
  5
9884
330
967A
100
AcDbEntity
  8
1
  6
Continuous
100
AcDbCircle
 10
357.691616
 20
120.5651779999999
 30
0.0
 40
1.145318999999998
100
AcDbArc
 50
332.25
 51
54.46200000000001
  0
ARC
  5
9885
330
967A
100
AcDbEntity
  8
1
  6
Continuous
100
AcDbCircle
 10
357.691616
 20
120.5651779999999
 30
0.0
 40
1.145318999999998
100
AcDbArc
 50
305.5379999999999
 51
315.699
  0
LINE
  5
9886
330
967A
100
AcDbEntity
  8
1
  6
Continuous
100
AcDbLine
 10
356.1361939999999
 20
119.310194
 30
0.0
 11
356.1361939999999
 21
120.5651779999999
 31
0.0
  0
LINE
  5
9887
330
967A
100
AcDbEntity
  8
1
  6
Continuous
100
AcDbLine
 10
356.580084
 20
122.0258669999999
 30
0.0
 11
356.580084
 21
119.24343
 31
0.0
  0
ARC
  5
9888
330
967A
100
AcDbEntity
  8
1
  6
Continuous
100
AcDbCircle
 10
355.0246619999999
 20
124.29765
 30
0.0
 40
5.732929999999998
100
AcDbArc
 50
234.4619999999999
 51
305.5379999999999
  0
ARC
  5
9889
330
967A
100
AcDbEntity
  8
1
  6
Continuous
100
AcDbCircle
 10
355.0246619999999
 20
116.831804
 30
0.0
 40
5.732929999999998
100
AcDbArc
 50
54.46200000000001
 51
125.5376999999999
  0
ENDSEC
  0
SECTION
  2
OBJECTS
  0
DICTIONARY
  5
9668
330
0
100
AcDbDictionary
281
     1
  3
ACAD_CIP_PREVIOUS_PRODUCT_INFO
350
98ED
  3
ACAD_COLOR
350
98CF
  3
ACAD_DETAILVIEWSTYLE
350
98E8
  3
ACAD_GROUP
350
9669
  3
ACAD_LAYOUT
350
9675
  3
ACAD_MATERIAL
350
989D
  3
ACAD_MLEADERSTYLE
350
98E4
  3
ACAD_MLINESTYLE
350
9672
  3
ACAD_PLOTSETTINGS
350
9674
  3
ACAD_PLOTSTYLENAME
350
989B
  3
ACAD_SCALELIST
350
98D2
  3
ACAD_SECTIONVIEWSTYLE
350
98E6
  3
ACAD_TABLESTYLE
350
98D0
  3
ACAD_VISUALSTYLE
350
98B6
  3
ACDB_RECOMPOSE_DATA
350
990B
  3
AcDbVariableDictionary
350
98FE
  3
DWGPROPS
350
990C
  0
DICTIONARY
  5
98EE
330
966C
100
AcDbDictionary
280
     1
281
     1
  3
ADSK_XREC_LAYER_RECONCILED
360
98EF
  0
DICTIONARY
  5
98F0
330
9682
100
AcDbDictionary
280
     1
281
     1
  3
ADSK_XREC_LAYER_RECONCILED
360
98F1
  0
DICTIONARY
  5
98F2
330
9683
100
AcDbDictionary
280
     1
281
     1
  3
ADSK_XREC_LAYER_RECONCILED
360
98F3
  0
DICTIONARY
  5
98F4
330
9684
100
AcDbDictionary
280
     1
281
     1
  3
ADSK_XREC_LAYER_RECONCILED
360
98F5
  0
DICTIONARY
  5
98F6
330
9685
100
AcDbDictionary
280
     1
281
     1
  3
ADSK_XREC_LAYER_RECONCILED
360
98F7
  0
DICTIONARY
  5
98F8
330
9686
100
AcDbDictionary
280
     1
281
     1
  3
ADSK_XREC_LAYER_RECONCILED
360
98F9
  0
DICTIONARY
  5
98FA
330
9687
100
AcDbDictionary
280
     1
281
     1
  3
ADSK_XREC_LAYER_RECONCILED
360
98FB
  0
DICTIONARY
  5
98FC
330
9688
100
AcDbDictionary
280
     1
281
     1
  3
ADSK_XREC_LAYER_RECONCILED
360
98FD
  0
DICTIONARY
  5
9896
330
967A
100
AcDbDictionary
281
     1
  3
ACAD_LAYOUTSELFREF
350
9897
  0
DICTIONARY
  5
9894
330
9676
100
AcDbDictionary
281
     1
  3
ACAD_LAYOUTSELFREF
350
9895
  0
XRECORD
  5
98ED
102
{ACAD_REACTORS
330
9668
102
}
330
9668
100
AcDbXrecord
280
     1
300
ACDLT
300
2014
300
ACDLT_F_S
  0
DICTIONARY
  5
98CF
102
{ACAD_REACTORS
330
9668
102
}
330
9668
100
AcDbDictionary
281
     1
  0
DICTIONARY
  5
98E8
102
{ACAD_REACTORS
330
9668
102
}
330
9668
100
AcDbDictionary
281
     1
  3
Imperial24
350
98E9
  0
DICTIONARY
  5
9669
102
{ACAD_REACTORS
330
9668
102
}
330
9668
100
AcDbDictionary
281
     1
  0
DICTIONARY
  5
9675
102
{ACAD_REACTORS
330
9668
102
}
330
9668
100
AcDbDictionary
281
     1
  3
Model
350
98EA
  3
レイアウト1
350
98EB
  0
DICTIONARY
  5
989D
102
{ACAD_REACTORS
330
9668
102
}
330
9668
100
AcDbDictionary
281
     1
  3
ByBlock
350
98A6
  3
ByLayer
350
989E
  3
Global
350
98AE
  0
DICTIONARY
  5
98E4
102
{ACAD_REACTORS
330
9668
102
}
330
9668
100
AcDbDictionary
281
     1
  3
Standard
350
98E5
  0
DICTIONARY
  5
9672
102
{ACAD_REACTORS
330
9668
102
}
330
9668
100
AcDbDictionary
281
     1
  3
STANDARD
350
9673
  0
DICTIONARY
  5
9674
102
{ACAD_REACTORS
330
9668
102
}
330
9668
100
AcDbDictionary
281
     1
  0
ACDBDICTIONARYWDFLT
  5
989B
102
{ACAD_REACTORS
330
9668
102
}
330
9668
100
AcDbDictionary
281
     1
  3
Normal
350
989C
100
AcDbDictionaryWithDefault
340
989C
  0
DICTIONARY
  5
98D2
102
{ACAD_REACTORS
330
9668
102
}
330
9668
100
AcDbDictionary
281
     1
  3
A0
350
98D3
  3
A1
350
98D4
  3
A2
350
98D5
  3
A3
350
98D6
  3
A4
350
98D7
  3
A5
350
98D8
  3
A6
350
98D9
  3
A7
350
98DA
  3
A8
350
98DB
  3
A9
350
98DC
  3
B0
350
98DD
  3
B1
350
98DE
  3
B2
350
98DF
  3
B3
350
98E0
  3
B4
350
98E1
  3
B5
350
98E2
  3
B6
350
98E3
  0
DICTIONARY
  5
98E6
102
{ACAD_REACTORS
330
9668
102
}
330
9668
100
AcDbDictionary
281
     1
  3
Imperial24
350
98E7
  0
DICTIONARY
  5
98D0
102
{ACAD_REACTORS
330
9668
102
}
330
9668
100
AcDbDictionary
281
     1
  3
Standard
350
98D1
  0
DICTIONARY
  5
98B6
102
{ACAD_REACTORS
330
9668
102
}
330
9668
100
AcDbDictionary
281
     1
  3
2dWireframe
350
98BC
  3
Basic
350
98BB
  3
Brighten
350
98C2
  3
ColorChange
350
98C6
  3
Conceptual
350
98BF
  3
Dim
350
98C1
  3
EdgeColorOff
350
98CE
  3
Facepattern
350
98C5
  3
Flat
350
98B7
  3
FlatWithEdges
350
98B8
  3
Gouraud
350
98B9
  3
GouraudWithEdges
350
98BA
  3
Hidden
350
98BE
  3
JitterOff
350
98CC
  3
Linepattern
350
98C4
  3
OverhangOff
350
98CD
  3
Realistic
350
98C0
  3
Shaded
350
98CB
  3
Shaded with edges
350
98CA
  3
Shades of Gray
350
98C7
  3
Sketchy
350
98C8
  3
Thicken
350
98C3
  3
Wireframe
350
98BD
  3
X-Ray
350
98C9
  0
XRECORD
  5
990B
102
{ACAD_REACTORS
330
9668
102
}
330
9668
100
AcDbXrecord
280
     1
 90
        1
330
98D1
  0
DICTIONARY
  5
98FE
102
{ACAD_REACTORS
330
9668
102
}
330
9668
100
AcDbDictionary
281
     1
  3
CANNOSCALE
350
9903
  3
CMLEADERSTYLE
350
9900
  3
CTABLESTYLE
350
98FF
  3
CVIEWDETAILSTYLE
350
9901
  3
CVIEWSECTIONSTYLE
350
9902
  3
DIMASSOC
350
9906
  3
INDEXCTL
350
9905
  3
SORTENTS
350
9904
  3
XCLIPFRAME
350
9907
  0
XRECORD
  5
990C
102
{ACAD_REACTORS
330
9668
102
}
330
9668
100
AcDbXrecord
280
     1
  1
DWGPROPS COOKIE
  2

  3

  4

  6

  7

  8
Yoshitsune
  9

300
=
301
=
302
=
303
=
304
=
305
=
306
=
307
=
308
=
309
=
 40
0.0000138425925926
 41
2451066.69721169
 42
2457192.60347507
  1

 90
        0
  0
XRECORD
  5
98EF
102
{ACAD_REACTORS
330
98EE
102
}
330
98EE
100
AcDbXrecord
280
     1
290
     1
  0
XRECORD
  5
98F1
102
{ACAD_REACTORS
330
98F0
102
}
330
98F0
100
AcDbXrecord
280
     1
290
     1
  0
XRECORD
  5
98F3
102
{ACAD_REACTORS
330
98F2
102
}
330
98F2
100
AcDbXrecord
280
     1
290
     1
  0
XRECORD
  5
98F5
102
{ACAD_REACTORS
330
98F4
102
}
330
98F4
100
AcDbXrecord
280
     1
290
     1
  0
XRECORD
  5
98F7
102
{ACAD_REACTORS
330
98F6
102
}
330
98F6
100
AcDbXrecord
280
     1
290
     1
  0
XRECORD
  5
98F9
102
{ACAD_REACTORS
330
98F8
102
}
330
98F8
100
AcDbXrecord
280
     1
290
     1
  0
XRECORD
  5
98FB
102
{ACAD_REACTORS
330
98FA
102
}
330
98FA
100
AcDbXrecord
280
     1
290
     1
  0
XRECORD
  5
98FD
102
{ACAD_REACTORS
330
98FC
102
}
330
98FC
100
AcDbXrecord
280
     1
290
     1
  0
XRECORD
  5
9897
102
{ACAD_REACTORS
330
9896
102
}
330
9896
100
AcDbXrecord
280
     1
340
967A
  0
XRECORD
  5
9895
102
{ACAD_REACTORS
330
9894
102
}
330
9894
100
AcDbXrecord
280
     1
340
9676
  0
ACDBDETAILVIEWSTYLE
  5
98E9
102
{ACAD_XDICTIONARY
360
9944
102
}
102
{ACAD_REACTORS
330
98E8
102
}
330
98E8
100
AcDbModelDocViewStyle
 70
     0
  3
Imperial24
290
     0
100
AcDbDetailViewStyle
 70
     0
 71
     0
 90
        3
 71
     1
340
966D
 40
0.24
340
0
 40
0.24
300

 40
0.36
280
     3
 71
     2
340
9671
 90
       25
 71
     3
340
966D
 40
0.24
 90
        1
 40
0.75
 90
        1
300
%<\AcVar ViewType \f "%tc1">% %<\AcVar ViewDetailId>%\PSCALE %<\AcVar ViewScale \f "%sn">%
 71
     4
340
9671
 90
       25
340
9671
 90
       25
280
     0
  0
LAYOUT
  5
98EA
102
{ACAD_XDICTIONARY
360
9946
102
}
102
{ACAD_REACTORS
330
9675
102
}
330
9675
100
AcDbPlotSettings
  1

  2
Canon LBP9100C
  4

  6

 40
0.0
 41
0.0
 42
0.0
 43
0.0
 44
0.0
 45
0.0
 46
0.0
 47
0.0
 48
0.0
 49
0.0
140
0.0
141
0.0
142
1.0
143
1.0
 70
  1712
 72
     0
 73
     0
 74
     0
  7

 75
     0
147
1.0
148
0.0
149
0.0
100
AcDbLayout
  1
Model
 70
     1
 71
     0
 10
0.0
 20
0.0
 11
12.0
 21
9.0
 12
0.0
 22
0.0
 32
0.0
 14
0.0
 24
0.0
 34
0.0
 15
0.0
 25
0.0
 35
0.0
146
0.0
 13
0.0
 23
0.0
 33
0.0
 16
1.0
 26
0.0
 36
0.0
 17
0.0
 27
1.0
 37
0.0
 76
     0
330
967A
331
9893
  0
LAYOUT
  5
98EB
102
{ACAD_XDICTIONARY
360
9948
102
}
102
{ACAD_REACTORS
330
9675
102
}
330
9675
100
AcDbPlotSettings
  1

  2
Canon LBP9100C
  4

  6

 40
0.0
 41
0.0
 42
0.0
 43
0.0
 44
0.0
 45
0.0
 46
0.0
 47
0.0
 48
0.0
 49
0.0
140
0.0
141
0.0
142
1.0
143
1.0
 70
   688
 72
     0
 73
     0
 74
     5
  7

 75
    16
147
1.0
148
0.0
149
0.0
100
AcDbLayout
  1
レイアウト1
 70
     0
 71
     1
 10
0.0
 20
0.0
 11
420.0
 21
297.0
 12
0.0
 22
0.0
 32
0.0
 14
1.000000000000000E+20
 24
1.000000000000000E+20
 34
1.000000000000000E+20
 15
-1.000000000000000E+20
 25
-1.000000000000000E+20
 35
-1.000000000000000E+20
146
0.0
 13
0.0
 23
0.0
 33
0.0
 16
1.0
 26
0.0
 36
0.0
 17
0.0
 27
1.0
 37
0.0
 76
     0
330
9676
  0
MATERIAL
  5
98A6
102
{ACAD_XDICTIONARY
360
98A7
102
}
102
{ACAD_REACTORS
330
989D
102
}
330
989D
100
AcDbMaterial
  1
ByBlock
 72
     0
 43
0.0208333333333333
 43
0.0
 43
0.0
 43
0.0
 43
0.0
 43
0.0208333333333333
 43
0.0
 43
0.0
 43
0.0
 43
0.0
 43
1.0
 43
0.0
 43
0.0
 43
0.0
 43
0.0
 43
1.0
 77
     0
 47
0.0208333333333333
 47
0.0
 47
0.0
 47
0.0
 47
0.0
 47
0.0208333333333333
 47
0.0
 47
0.0
 47
0.0
 47
0.0
 47
1.0
 47
0.0
 47
0.0
 47
0.0
 47
0.0
 47
1.0
171
     0
 49
0.0208333333333333
 49
0.0
 49
0.0
 49
0.0
 49
0.0
 49
0.0208333333333333
 49
0.0
 49
0.0
 49
0.0
 49
0.0
 49
1.0
 49
0.0
 49
0.0
 49
0.0
 49
0.0
 49
1.0
175
     0
142
0.0208333333333333
142
0.0
142
0.0
142
0.0
142
0.0
142
0.0208333333333333
142
0.0
142
0.0
142
0.0
142
0.0
142
1.0
142
0.0
142
0.0
142
0.0
142
0.0
142
1.0
179
     0
144
0.0208333333333333
144
0.0
144
0.0
144
0.0
144
0.0
144
0.0208333333333333
144
0.0
144
0.0
144
0.0
144
0.0
144
1.0
144
0.0
144
0.0
144
0.0
144
0.0
144
1.0
147
0.0208333333333333
147
0.0
147
0.0
147
0.0
147
0.0
147
0.0208333333333333
147
0.0
147
0.0
147
0.0
147
0.0
147
1.0
147
0.0
147
0.0
147
0.0
147
0.0
147
1.0
  0
MATERIAL
  5
989E
102
{ACAD_XDICTIONARY
360
989F
102
}
102
{ACAD_REACTORS
330
989D
102
}
330
989D
100
AcDbMaterial
  1
ByLayer
 72
     0
 43
0.0208333333333333
 43
0.0
 43
0.0
 43
0.0
 43
0.0
 43
0.0208333333333333
 43
0.0
 43
0.0
 43
0.0
 43
0.0
 43
1.0
 43
0.0
 43
0.0
 43
0.0
 43
0.0
 43
1.0
 77
     0
 47
0.0208333333333333
 47
0.0
 47
0.0
 47
0.0
 47
0.0
 47
0.0208333333333333
 47
0.0
 47
0.0
 47
0.0
 47
0.0
 47
1.0
 47
0.0
 47
0.0
 47
0.0
 47
0.0
 47
1.0
171
     0
 49
0.0208333333333333
 49
0.0
 49
0.0
 49
0.0
 49
0.0
 49
0.0208333333333333
 49
0.0
 49
0.0
 49
0.0
 49
0.0
 49
1.0
 49
0.0
 49
0.0
 49
0.0
 49
0.0
 49
1.0
175
     0
142
0.0208333333333333
142
0.0
142
0.0
142
0.0
142
0.0
142
0.0208333333333333
142
0.0
142
0.0
142
0.0
142
0.0
142
1.0
142
0.0
142
0.0
142
0.0
142
0.0
142
1.0
179
     0
144
0.0208333333333333
144
0.0
144
0.0
144
0.0
144
0.0
144
0.0208333333333333
144
0.0
144
0.0
144
0.0
144
0.0
144
1.0
144
0.0
144
0.0
144
0.0
144
0.0
144
1.0
147
0.0208333333333333
147
0.0
147
0.0
147
0.0
147
0.0
147
0.0208333333333333
147
0.0
147
0.0
147
0.0
147
0.0
147
1.0
147
0.0
147
0.0
147
0.0
147
0.0
147
1.0
  0
MATERIAL
  5
98AE
102
{ACAD_XDICTIONARY
360
98AF
102
}
102
{ACAD_REACTORS
330
989D
102
}
330
989D
100
AcDbMaterial
  1
Global
 72
     0
 43
0.0208333333333333
 43
0.0
 43
0.0
 43
0.0
 43
0.0
 43
0.0208333333333333
 43
0.0
 43
0.0
 43
0.0
 43
0.0
 43
1.0
 43
0.0
 43
0.0
 43
0.0
 43
0.0
 43
1.0
 77
     0
 47
0.0208333333333333
 47
0.0
 47
0.0
 47
0.0
 47
0.0
 47
0.0208333333333333
 47
0.0
 47
0.0
 47
0.0
 47
0.0
 47
1.0
 47
0.0
 47
0.0
 47
0.0
 47
0.0
 47
1.0
171
     0
 49
0.0208333333333333
 49
0.0
 49
0.0
 49
0.0
 49
0.0
 49
0.0208333333333333
 49
0.0
 49
0.0
 49
0.0
 49
0.0
 49
1.0
 49
0.0
 49
0.0
 49
0.0
 49
0.0
 49
1.0
175
     0
142
0.0208333333333333
142
0.0
142
0.0
142
0.0
142
0.0
142
0.0208333333333333
142
0.0
142
0.0
142
0.0
142
0.0
142
1.0
142
0.0
142
0.0
142
0.0
142
0.0
142
1.0
179
     0
144
0.0208333333333333
144
0.0
144
0.0
144
0.0
144
0.0
144
0.0208333333333333
144
0.0
144
0.0
144
0.0
144
0.0
144
1.0
144
0.0
144
0.0
144
0.0
144
0.0
144
1.0
147
0.0208333333333333
147
0.0
147
0.0
147
0.0
147
0.0
147
0.0208333333333333
147
0.0
147
0.0
147
0.0
147
0.0
147
1.0
147
0.0
147
0.0
147
0.0
147
0.0
147
1.0
  0
MLEADERSTYLE
  5
98E5
102
{ACAD_REACTORS
330
98E4
102
}
330
98E4
100
AcDbMLeaderStyle
170
     2
171
     1
172
     0
 90
        2
 40
0.0
 41
0.0
173
     1
 91
-1056964608
340
966F
 92
       -2
290
     1
 42
0.09
291
     1
 43
0.36
  3
Standard
 44
0.18
300

342
966D
174
     1
178
     6
175
     1
176
     0
 93
-1056964608
 45
0.18
292
     0
297
     0
 46
0.18
 94
-1056964608
 47
1.0
 49
1.0
140
1.0
293
     1
141
0.0
294
     1
177
     0
142
1.0
295
     0
296
     0
143
0.125
1001
ACAD_MLEADERVER
1070
     2
  0
MLINESTYLE
  5
9673
102
{ACAD_REACTORS
330
9672
102
}
330
9672
100
AcDbMlineStyle
  2
STANDARD
 70
     0
  3

 62
   256
 51
90.0
 52
90.0
 71
     2
 49
0.5
 62
   256
  6
BYLAYER
 49
-0.5
 62
   256
  6
BYLAYER
  0
ACDBPLACEHOLDER
  5
989C
102
{ACAD_REACTORS
330
989B
102
}
330
989B
  0
SCALE
  5
98D3
102
{ACAD_REACTORS
330
98D2
102
}
330
98D2
100
AcDbScale
 70
     0
300
1:1
140
1.0
141
1.0
290
     1
  0
SCALE
  5
98D4
102
{ACAD_REACTORS
330
98D2
102
}
330
98D2
100
AcDbScale
 70
     0
300
1/128" = 1'-0"
140
0.0078125
141
12.0
290
     0
  0
SCALE
  5
98D5
102
{ACAD_REACTORS
330
98D2
102
}
330
98D2
100
AcDbScale
 70
     0
300
1/64" = 1'-0"
140
0.015625
141
12.0
290
     0
  0
SCALE
  5
98D6
102
{ACAD_REACTORS
330
98D2
102
}
330
98D2
100
AcDbScale
 70
     0
300
1/32" = 1'-0"
140
0.03125
141
12.0
290
     0
  0
SCALE
  5
98D7
102
{ACAD_REACTORS
330
98D2
102
}
330
98D2
100
AcDbScale
 70
     0
300
1/16" = 1'-0"
140
0.0625
141
12.0
290
     0
  0
SCALE
  5
98D8
102
{ACAD_REACTORS
330
98D2
102
}
330
98D2
100
AcDbScale
 70
     0
300
3/32" = 1'-0"
140
0.09375
141
12.0
290
     0
  0
SCALE
  5
98D9
102
{ACAD_REACTORS
330
98D2
102
}
330
98D2
100
AcDbScale
 70
     0
300
1/8" = 1'-0"
140
0.125
141
12.0
290
     0
  0
SCALE
  5
98DA
102
{ACAD_REACTORS
330
98D2
102
}
330
98D2
100
AcDbScale
 70
     0
300
3/16" = 1'-0"
140
0.1875
141
12.0
290
     0
  0
SCALE
  5
98DB
102
{ACAD_REACTORS
330
98D2
102
}
330
98D2
100
AcDbScale
 70
     0
300
1/4" = 1'-0"
140
0.25
141
12.0
290
     0
  0
SCALE
  5
98DC
102
{ACAD_REACTORS
330
98D2
102
}
330
98D2
100
AcDbScale
 70
     0
300
3/8" = 1'-0"
140
0.375
141
12.0
290
     0
  0
SCALE
  5
98DD
102
{ACAD_REACTORS
330
98D2
102
}
330
98D2
100
AcDbScale
 70
     0
300
1/2" = 1'-0"
140
0.5
141
12.0
290
     0
  0
SCALE
  5
98DE
102
{ACAD_REACTORS
330
98D2
102
}
330
98D2
100
AcDbScale
 70
     0
300
3/4" = 1'-0"
140
0.75
141
12.0
290
     0
  0
SCALE
  5
98DF
102
{ACAD_REACTORS
330
98D2
102
}
330
98D2
100
AcDbScale
 70
     0
300
1" = 1'-0"
140
1.0
141
12.0
290
     0
  0
SCALE
  5
98E0
102
{ACAD_REACTORS
330
98D2
102
}
330
98D2
100
AcDbScale
 70
     0
300
1-1/2" = 1'-0"
140
1.5
141
12.0
290
     0
  0
SCALE
  5
98E1
102
{ACAD_REACTORS
330
98D2
102
}
330
98D2
100
AcDbScale
 70
     0
300
3" = 1'-0"
140
3.0
141
12.0
290
     0
  0
SCALE
  5
98E2
102
{ACAD_REACTORS
330
98D2
102
}
330
98D2
100
AcDbScale
 70
     0
300
6" = 1'-0"
140
6.0
141
12.0
290
     0
  0
SCALE
  5
98E3
102
{ACAD_REACTORS
330
98D2
102
}
330
98D2
100
AcDbScale
 70
     0
300
1'-0" = 1'-0"
140
12.0
141
12.0
290
     0
  0
ACDBSECTIONVIEWSTYLE
  5
98E7
102
{ACAD_XDICTIONARY
360
9942
102
}
102
{ACAD_REACTORS
330
98E6
102
}
330
98E6
100
AcDbModelDocViewStyle
 70
     0
  3
Imperial24
290
     0
100
AcDbSectionViewStyle
 70
     0
 71
     0
 90
       78
 71
     1
340
966D
 40
0.24
340
0
340
0
 40
0.24
300
I, O, Q, S, X, Z
 40
0.48
 90
        3
 40
0.18
 90
        1
 71
     2
340
9671
 90
       25
340
9671
 90
       50
 40
0.24
 40
0.0
 40
0.24
 71
     3
340
966D
 40
0.24
 90
        1
 40
0.75
 90
        1
300
%<\AcVar ViewType \f "%tc1">% %<\AcVar ViewSectionStartId>%-%<\AcVar ViewSectionEndId>%\PSCALE %<\AcVar ViewScale \f "%sn">%
 71
     4
300
ANSI31
 40
1.0
 90
        0
290
     0
290
     0
 90
        6
 40
0.0
 40
1.570796326794896
 40
0.2617993877991494
 40
1.308996938995747
 40
-0.2617993877991494
 40
1.832595714594046
  0
TABLESTYLE
  5
98D1
102
{ACAD_XDICTIONARY
360
9909
102
}
102
{ACAD_REACTORS
330
98D0
102
}
330
98D0
100
AcDbTableStyle
  3
Standard
 70
     0
 71
     0
 40
0.06
 41
0.06
280
     0
281
     0
  7
STANDARD
140
0.18
170
     2
 62
     0
 63
     7
283
     0
274
    -2
284
     1
 64
     0
275
    -2
285
     1
 65
     0
276
    -2
286
     1
 66
     0
277
    -2
287
     1
 67
     0
278
    -2
288
     1
 68
     0
279
    -2
289
     1
 69
     0
  7
STANDARD
140
0.25
170
     5
 62
     0
 63
     7
283
     0
274
    -2
284
     1
 64
     0
275
    -2
285
     1
 65
     0
276
    -2
286
     1
 66
     0
277
    -2
287
     1
 67
     0
278
    -2
288
     1
 68
     0
279
    -2
289
     1
 69
     0
  7
STANDARD
140
0.18
170
     5
 62
     0
 63
     7
283
     0
274
    -2
284
     1
 64
     0
275
    -2
285
     1
 65
     0
276
    -2
286
     1
 66
     0
277
    -2
287
     1
 67
     0
278
    -2
288
     1
 68
     0
279
    -2
289
     1
 69
     0
  0
VISUALSTYLE
  5
98BC
102
{ACAD_XDICTIONARY
360
991A
102
}
102
{ACAD_REACTORS
330
98B6
102
}
330
98B6
100
AcDbVisualStyle
  2
2dWireframe
 70
     4
 71
     0
 72
     2
 73
     0
 90
        0
 40
-0.6
 41
-30.0
 62
     5
 63
     7
 74
     1
 91
        4
 64
     7
 65
   257
 75
     1
175
     1
 42
1.0
 92
        0
 66
   257
 43
1.0
 76
     1
 77
     6
 78
     2
 67
     7
 79
     5
170
     0
171
     0
290
     0
174
     0
 93
        1
 44
0.0
173
     0
291
     0
 45
0.0
1001
ACAD
1000
AcDbSavedByObjectVersion
1070
     0
  0
VISUALSTYLE
  5
98BB
102
{ACAD_XDICTIONARY
360
9918
102
}
102
{ACAD_REACTORS
330
98B6
102
}
330
98B6
100
AcDbVisualStyle
  2
Basic
 70
     7
 71
     1
 72
     0
 73
     1
 90
        0
 40
-0.6
 41
-30.0
 62
     5
 63
     7
 74
     0
 91
        4
 64
     7
 65
   257
 75
     1
175
     1
 42
1.0
 92
        8
 66
     7
 43
1.0
 76
     1
 77
     6
 78
     2
 67
     7
 79
     5
170
     0
171
     0
290
     0
174
     0
 93
        1
 44
0.0
173
     0
291
     1
 45
0.0
1001
ACAD
1000
AcDbSavedByObjectVersion
1070
     0
  0
VISUALSTYLE
  5
98C2
102
{ACAD_XDICTIONARY
360
9926
102
}
102
{ACAD_REACTORS
330
98B6
102
}
330
98B6
100
AcDbVisualStyle
  2
Brighten
 70
    12
 71
     2
 72
     2
 73
     0
 90
        0
 40
-0.6
 41
-30.0
 62
     5
 63
     7
 74
     1
 91
        4
 64
     7
 65
   257
 75
     1
175
     1
 42
1.0
 92
        8
 66
     7
 43
1.0
 76
     1
 77
     6
 78
     2
 67
     7
 79
     5
170
     0
171
     0
290
     0
174
     0
 93
        1
 44
50.0
173
     0
291
     1
 45
0.0
1001
ACAD
1000
AcDbSavedByObjectVersion
1070
     0
  0
VISUALSTYLE
  5
98C6
102
{ACAD_XDICTIONARY
360
992E
102
}
102
{ACAD_REACTORS
330
98B6
102
}
330
98B6
100
AcDbVisualStyle
  2
ColorChange
 70
    16
 71
     2
 72
     2
 73
     3
 90
        0
 40
-0.6
 41
-30.0
 62
     5
 63
     8
 74
     1
 91
        4
 64
     7
 65
   257
 75
     1
175
     1
 42
1.0
 92
        8
 66
     8
 43
1.0
 76
     1
 77
     6
 78
     2
 67
     7
 79
     5
170
     0
171
     0
290
     0
174
     0
 93
        1
 44
0.0
173
     0
291
     1
 45
0.0
1001
ACAD
1000
AcDbSavedByObjectVersion
1070
     0
  0
VISUALSTYLE
  5
98BF
102
{ACAD_XDICTIONARY
360
9920
102
}
102
{ACAD_REACTORS
330
98B6
102
}
330
98B6
100
AcDbVisualStyle
  2
Conceptual
 70
     9
 71
     3
 72
     2
 73
     0
 90
        0
 40
-0.6
 41
-30.0
 62
     5
 63
     7
 74
     2
 91
        2
 64
     7
 65
   257
 75
     1
175
     1
 42
179.0
 92
        8
 66
     7
 43
1.0
 76
     1
 77
     6
 78
     2
 67
     7
 79
     3
170
     0
171
     0
290
     0
174
     0
 93
        1
 44
0.0
173
     0
291
     0
 45
0.0
1001
ACAD
1000
AcDbSavedByObjectVersion
1070
     0
  0
VISUALSTYLE
  5
98C1
102
{ACAD_XDICTIONARY
360
9924
102
}
102
{ACAD_REACTORS
330
98B6
102
}
330
98B6
100
AcDbVisualStyle
  2
Dim
 70
    11
 71
     2
 72
     2
 73
     0
 90
        0
 40
-0.6
 41
-30.0
 62
     5
 63
     7
 74
     1
 91
        4
 64
     7
 65
   257
 75
     1
175
     1
 42
1.0
 92
        8
 66
     7
 43
1.0
 76
     1
 77
     6
 78
     2
 67
     7
 79
     5
170
     0
171
     0
290
     0
174
     0
 93
        1
 44
-50.0
173
     0
291
     1
 45
0.0
1001
ACAD
1000
AcDbSavedByObjectVersion
1070
     0
  0
VISUALSTYLE
  5
98CE
102
{ACAD_XDICTIONARY
360
993E
102
}
102
{ACAD_REACTORS
330
98B6
102
}
330
98B6
100
AcDbVisualStyle
  2
EdgeColorOff
 70
    22
 71
     2
 72
     2
 73
     0
 90
        0
 40
-0.6
 41
-30.0
 62
     5
 63
     7
 74
     1
 91
        4
 64
     7
 65
   257
 75
     1
175
     1
 42
1.0
 92
        8
 66
     7
 43
1.0
 76
     1
 77
     6
 78
     2
 67
     7
 79
     5
170
     0
171
     0
290
     0
174
     0
 93
        1
 44
0.0
173
     0
291
     1
 45
0.0
1001
ACAD
1000
AcDbSavedByObjectVersion
1070
     0
  0
VISUALSTYLE
  5
98C5
102
{ACAD_XDICTIONARY
360
992C
102
}
102
{ACAD_REACTORS
330
98B6
102
}
330
98B6
100
AcDbVisualStyle
  2
Facepattern
 70
    15
 71
     2
 72
     2
 73
     0
 90
        0
 40
-0.6
 41
-30.0
 62
     5
 63
     7
 74
     1
 91
        4
 64
     7
 65
   257
 75
     1
175
     1
 42
1.0
 92
        8
 66
     7
 43
1.0
 76
     1
 77
     6
 78
     2
 67
     7
 79
     5
170
     0
171
     0
290
     0
174
     0
 93
        1
 44
0.0
173
     0
291
     1
 45
0.0
1001
ACAD
1000
AcDbSavedByObjectVersion
1070
     0
  0
VISUALSTYLE
  5
98B7
102
{ACAD_XDICTIONARY
360
9910
102
}
102
{ACAD_REACTORS
330
98B6
102
}
330
98B6
100
AcDbVisualStyle
  2
Flat
 70
     0
 71
     2
 72
     1
 73
     1
 90
        2
 40
-0.6
 41
30.0
 62
     5
 63
     7
 74
     0
 91
        0
 64
     7
 65
   257
 75
     1
175
     1
 42
1.0
 92
        8
 66
     7
 43
1.0
 76
     1
 77
     6
 78
     2
 67
     7
 79
     5
170
     0
171
     0
290
     0
174
     0
 93
       13
 44
0.0
173
     0
291
     1
 45
0.0
1001
ACAD
1000
AcDbSavedByObjectVersion
1070
     0
  0
VISUALSTYLE
  5
98B8
102
{ACAD_XDICTIONARY
360
9912
102
}
102
{ACAD_REACTORS
330
98B6
102
}
330
98B6
100
AcDbVisualStyle
  2
FlatWithEdges
 70
     1
 71
     2
 72
     1
 73
     1
 90
        2
 40
-0.6
 41
30.0
 62
     5
 63
     7
 74
     1
 91
        0
 64
     7
 65
   257
 75
     1
175
     1
 42
1.0
 92
        0
 66
   257
 43
1.0
 76
     1
 77
     6
 78
     2
 67
     7
 79
     5
170
     0
171
     0
290
     0
174
     0
 93
       13
 44
0.0
173
     0
291
     1
 45
0.0
1001
ACAD
1000
AcDbSavedByObjectVersion
1070
     0
  0
VISUALSTYLE
  5
98B9
102
{ACAD_XDICTIONARY
360
9914
102
}
102
{ACAD_REACTORS
330
98B6
102
}
330
98B6
100
AcDbVisualStyle
  2
Gouraud
 70
     2
 71
     2
 72
     2
 73
     1
 90
        2
 40
-0.6
 41
30.0
 62
     5
 63
     7
 74
     0
 91
        0
 64
     7
 65
   257
 75
     1
175
     1
 42
1.0
 92
        0
 66
     7
 43
1.0
 76
     1
 77
     6
 78
     2
 67
     7
 79
     5
170
     0
171
     0
290
     0
174
     0
 93
       13
 44
0.0
173
     0
291
     1
 45
0.0
1001
ACAD
1000
AcDbSavedByObjectVersion
1070
     0
  0
VISUALSTYLE
  5
98BA
102
{ACAD_XDICTIONARY
360
9916
102
}
102
{ACAD_REACTORS
330
98B6
102
}
330
98B6
100
AcDbVisualStyle
  2
GouraudWithEdges
 70
     3
 71
     2
 72
     2
 73
     1
 90
        2
 40
-0.6
 41
30.0
 62
     5
 63
     7
 74
     1
 91
        0
 64
     7
 65
   257
 75
     1
175
     1
 42
1.0
 92
        0
 66
   257
 43
1.0
 76
     1
 77
     6
 78
     2
 67
     7
 79
     5
170
     0
171
     0
290
     0
174
     0
 93
       13
 44
0.0
173
     0
291
     1
 45
0.0
1001
ACAD
1000
AcDbSavedByObjectVersion
1070
     0
  0
VISUALSTYLE
  5
98BE
102
{ACAD_XDICTIONARY
360
991E
102
}
102
{ACAD_REACTORS
330
98B6
102
}
330
98B6
100
AcDbVisualStyle
  2
Hidden
 70
     6
 71
     1
 72
     2
 73
     2
 90
        0
 40
-0.6
 41
-30.0
 62
     5
 63
     7
 74
     2
 91
        2
 64
     7
 65
   257
 75
     2
175
     1
 42
40.0
 92
        0
 66
   257
 43
1.0
 76
     1
 77
     6
 78
     2
 67
     7
 79
     3
170
     0
171
     0
290
     0
174
     0
 93
        1
 44
0.0
173
     0
291
     0
 45
0.0
1001
ACAD
1000
AcDbSavedByObjectVersion
1070
     0
  0
VISUALSTYLE
  5
98CC
102
{ACAD_XDICTIONARY
360
993A
102
}
102
{ACAD_REACTORS
330
98B6
102
}
330
98B6
100
AcDbVisualStyle
  2
JitterOff
 70
    20
 71
     2
 72
     2
 73
     0
 90
        0
 40
-0.6
 41
-30.0
 62
     5
 63
     7
 74
     1
 91
        4
 64
     7
 65
   257
 75
     1
175
     1
 42
1.0
 92
       10
 66
     7
 43
1.0
 76
     1
 77
     6
 78
     2
 67
     7
 79
     5
170
     0
171
     0
290
     0
174
     0
 93
        1
 44
0.0
173
     0
291
     1
 45
0.0
1001
ACAD
1000
AcDbSavedByObjectVersion
1070
     0
  0
VISUALSTYLE
  5
98C4
102
{ACAD_XDICTIONARY
360
992A
102
}
102
{ACAD_REACTORS
330
98B6
102
}
330
98B6
100
AcDbVisualStyle
  2
Linepattern
 70
    14
 71
     2
 72
     2
 73
     0
 90
        0
 40
-0.6
 41
-30.0
 62
     5
 63
     7
 74
     1
 91
        4
 64
     7
 65
   257
 75
     7
175
     7
 42
1.0
 92
        8
 66
     7
 43
1.0
 76
     1
 77
     6
 78
     2
 67
     7
 79
     5
170
     0
171
     0
290
     0
174
     0
 93
        1
 44
0.0
173
     0
291
     1
 45
0.0
1001
ACAD
1000
AcDbSavedByObjectVersion
1070
     0
  0
VISUALSTYLE
  5
98CD
102
{ACAD_XDICTIONARY
360
993C
102
}
102
{ACAD_REACTORS
330
98B6
102
}
330
98B6
100
AcDbVisualStyle
  2
OverhangOff
 70
    21
 71
     2
 72
     2
 73
     0
 90
        0
 40
-0.6
 41
-30.0
 62
     5
 63
     7
 74
     1
 91
        4
 64
     7
 65
   257
 75
     1
175
     1
 42
1.0
 92
        9
 66
     7
 43
1.0
 76
     1
 77
     6
 78
     2
 67
     7
 79
     5
170
     0
171
     0
290
     0
174
     0
 93
        1
 44
0.0
173
     0
291
     1
 45
0.0
1001
ACAD
1000
AcDbSavedByObjectVersion
1070
     0
  0
VISUALSTYLE
  5
98C0
102
{ACAD_XDICTIONARY
360
9922
102
}
102
{ACAD_REACTORS
330
98B6
102
}
330
98B6
100
AcDbVisualStyle
  2
Realistic
 70
     8
 71
     2
 72
     3
 73
     0
 90
        2
 40
-0.6
 41
30.0
 62
     5
 63
     7
 74
     0
 91
        0
 64
     7
 65
   257
 75
     1
175
     1
 42
1.0
 92
        8
 66
   257
 43
1.0
 76
     1
 77
     6
 78
     2
 67
     7
 79
     3
170
     0
171
     0
290
     0
174
     0
 93
       13
 44
0.0
173
     0
291
     0
 45
0.0
1001
ACAD
1000
AcDbSavedByObjectVersion
1070
     0
  0
VISUALSTYLE
  5
98CB
102
{ACAD_XDICTIONARY
360
9938
102
}
102
{ACAD_REACTORS
330
98B6
102
}
330
98B6
100
AcDbVisualStyle
  2
Shaded
 70
    27
 71
     2
 72
     2
 73
     1
 90
        2
 40
-0.6
 41
30.0
 62
     5
 63
     7
 74
     0
 91
        4
 64
     7
 65
   257
 75
     1
175
     1
 42
1.0
 92
        8
 66
   257
 43
1.0
 76
     1
 77
     6
 78
     2
 67
     8
 79
     3
170
     0
171
     0
290
     0
174
     0
 93
        5
 44
0.0
173
     0
291
     0
 45
0.0
1001
ACAD
1000
AcDbSavedByObjectVersion
1070
     0
  0
VISUALSTYLE
  5
98CA
102
{ACAD_XDICTIONARY
360
9936
102
}
102
{ACAD_REACTORS
330
98B6
102
}
330
98B6
100
AcDbVisualStyle
  2
Shaded with edges
 70
    26
 71
     2
 72
     2
 73
     1
 90
        2
 40
-0.6
 41
30.0
 62
     5
 63
     7
 74
     1
 91
       10
 64
     7
 65
   257
 75
     2
175
     1
 42
1.0
 92
        8
 66
   257
 43
1.0
 76
     1
 77
     6
 78
     2
 67
     7
 79
     3
170
     0
171
     0
290
     0
174
     0
 93
        5
 44
0.0
173
     0
291
     0
 45
0.0
1001
ACAD
1000
AcDbSavedByObjectVersion
1070
     0
  0
VISUALSTYLE
  5
98C7
102
{ACAD_XDICTIONARY
360
9930
102
}
102
{ACAD_REACTORS
330
98B6
102
}
330
98B6
100
AcDbVisualStyle
  2
Shades of Gray
 70
    23
 71
     2
 72
     2
 73
     3
 90
        0
 40
-0.6
 41
-30.0
 62
     5
 63
     7
 74
     2
 91
        2
 64
     7
 65
     7
 75
     1
175
     1
 42
40.0
 92
        8
 66
     7
 43
1.0
 76
     1
 77
     6
 78
     2
 67
     7
 79
     3
170
     0
171
     0
290
     0
174
     0
 93
        1
 44
0.0
173
     0
291
     0
 45
0.0
1001
ACAD
1000
AcDbSavedByObjectVersion
1070
     0
  0
VISUALSTYLE
  5
98C8
102
{ACAD_XDICTIONARY
360
9932
102
}
102
{ACAD_REACTORS
330
98B6
102
}
330
98B6
100
AcDbVisualStyle
  2
Sketchy
 70
    24
 71
     1
 72
     2
 73
     2
 90
        0
 40
-0.6
 41
-30.0
 62
     5
 63
     7
 74
     2
 91
        2
 64
     7
 65
     7
 75
     1
175
     1
 42
40.0
 92
       11
 66
     7
 43
1.0
 76
     1
 77
     6
 78
     2
 67
     7
 79
     6
170
     0
171
     0
290
     0
174
     0
 93
        1
 44
0.0
173
     0
291
     0
 45
0.0
1001
ACAD
1000
AcDbSavedByObjectVersion
1070
     0
  0
VISUALSTYLE
  5
98C3
102
{ACAD_XDICTIONARY
360
9928
102
}
102
{ACAD_REACTORS
330
98B6
102
}
330
98B6
100
AcDbVisualStyle
  2
Thicken
 70
    13
 71
     2
 72
     2
 73
     0
 90
        0
 40
-0.6
 41
-30.0
 62
     5
 63
     7
 74
     1
 91
        4
 64
     7
 65
   257
 75
     1
175
     1
 42
1.0
 92
       12
 66
     7
 43
1.0
 76
     1
 77
     6
 78
     2
 67
     7
 79
     5
170
     0
171
     0
290
     0
174
     0
 93
        1
 44
0.0
173
     0
291
     1
 45
0.0
1001
ACAD
1000
AcDbSavedByObjectVersion
1070
     0
  0
VISUALSTYLE
  5
98BD
102
{ACAD_XDICTIONARY
360
991C
102
}
102
{ACAD_REACTORS
330
98B6
102
}
330
98B6
100
AcDbVisualStyle
  2
Wireframe
 70
     5
 71
     0
 72
     2
 73
     0
 90
        0
 40
-0.6
 41
-30.0
 62
     5
 63
     7
 74
     1
 91
        4
 64
     7
 65
   257
 75
     1
175
     1
 42
1.0
 92
        0
 66
   257
 43
1.0
 76
     1
 77
     6
 78
     2
 67
     7
 79
     3
170
     0
171
     0
290
     0
174
     0
 93
        1
 44
0.0
173
     0
291
     0
 45
0.0
1001
ACAD
1000
AcDbSavedByObjectVersion
1070
     0
  0
VISUALSTYLE
  5
98C9
102
{ACAD_XDICTIONARY
360
9934
102
}
102
{ACAD_REACTORS
330
98B6
102
}
330
98B6
100
AcDbVisualStyle
  2
X-Ray
 70
    25
 71
     2
 72
     2
 73
     1
 90
        1
 40
0.5
 41
-30.0
 62
     5
 63
     7
 74
     1
 91
        0
 64
     7
 65
   257
 75
     1
175
     1
 42
1.0
 92
        8
 66
     7
 43
1.0
 76
     1
 77
     6
 78
     2
 67
     7
 79
     3
170
     0
171
     0
290
     0
174
     0
 93
       13
 44
0.0
173
     0
291
     0
 45
0.0
1001
ACAD
1000
AcDbSavedByObjectVersion
1070
     0
  0
DICTIONARYVAR
  5
9903
102
{ACAD_REACTORS
330
98FE
102
}
330
98FE
100
DictionaryVariables
280
     0
  1
1:1
  0
DICTIONARYVAR
  5
9900
102
{ACAD_REACTORS
330
98FE
102
}
330
98FE
100
DictionaryVariables
280
     0
  1
STANDARD
  0
DICTIONARYVAR
  5
98FF
102
{ACAD_REACTORS
330
98FE
102
}
330
98FE
100
DictionaryVariables
280
     0
  1
STANDARD
  0
DICTIONARYVAR
  5
9901
102
{ACAD_REACTORS
330
98FE
102
}
330
98FE
100
DictionaryVariables
280
     0
  1
Imperial24
  0
DICTIONARYVAR
  5
9902
102
{ACAD_REACTORS
330
98FE
102
}
330
98FE
100
DictionaryVariables
280
     0
  1
Imperial24
  0
DICTIONARYVAR
  5
9906
102
{ACAD_REACTORS
330
98FE
102
}
330
98FE
100
DictionaryVariables
280
     0
  1
1
  0
DICTIONARYVAR
  5
9905
102
{ACAD_REACTORS
330
98FE
102
}
330
98FE
100
DictionaryVariables
280
     0
  1
0
  0
DICTIONARYVAR
  5
9904
102
{ACAD_REACTORS
330
98FE
102
}
330
98FE
100
DictionaryVariables
280
     0
  1
127
  0
DICTIONARYVAR
  5
9907
102
{ACAD_REACTORS
330
98FE
102
}
330
98FE
100
DictionaryVariables
280
     0
  1
2
  0
DICTIONARY
  5
9944
330
98E9
100
AcDbDictionary
280
     1
281
     1
  3
ACAD_XREC_ROUNDTRIP
360
9945
  0
DICTIONARY
  5
9946
330
98EA
100
AcDbDictionary
280
     1
281
     1
  3
ACAD_XREC_ROUNDTRIP
360
9947
  0
DICTIONARY
  5
9948
330
98EB
100
AcDbDictionary
280
     1
281
     1
  3
ACAD_XREC_ROUNDTRIP
360
9949
  0
DICTIONARY
  5
98A7
330
98A6
100
AcDbDictionary
280
     1
281
     1
  3
ACAD_XREC_ROUNDTRIP
360
990E
  3
BUMPTILE
360
98A9
  3
DIFFUSETILE
360
98A8
  3
OPACITYTILE
360
98AC
  3
REFLECTIONTILE
360
98AB
  3
REFRACTIONTILE
360
98AD
  3
SPECULARTILE
360
98AA
  0
DICTIONARY
  5
989F
330
989E
100
AcDbDictionary
280
     1
281
     1
  3
ACAD_XREC_ROUNDTRIP
360
990D
  3
BUMPTILE
360
98A1
  3
DIFFUSETILE
360
98A0
  3
OPACITYTILE
360
98A4
  3
REFLECTIONTILE
360
98A3
  3
REFRACTIONTILE
360
98A5
  3
SPECULARTILE
360
98A2
  0
DICTIONARY
  5
98AF
330
98AE
100
AcDbDictionary
280
     1
281
     1
  3
ACAD_XREC_ROUNDTRIP
360
990F
  3
BUMPTILE
360
98B1
  3
DIFFUSETILE
360
98B0
  3
OPACITYTILE
360
98B4
  3
REFLECTIONTILE
360
98B3
  3
REFRACTIONTILE
360
98B5
  3
SPECULARTILE
360
98B2
  0
DICTIONARY
  5
9942
330
98E7
100
AcDbDictionary
280
     1
281
     1
  3
ACAD_XREC_ROUNDTRIP
360
9943
  0
DICTIONARY
  5
9909
330
98D1
100
AcDbDictionary
280
     1
281
     1
  3
ACAD_ROUNDTRIP_2008_TABLESTYLE_CELLSTYLEMAP
360
990A
  3
ACAD_XREC_ROUNDTRIP
360
9940
  0
DICTIONARY
  5
991A
330
98BC
100
AcDbDictionary
280
     1
281
     1
  3
ACAD_XREC_ROUNDTRIP
360
991B
  0
DICTIONARY
  5
9918
330
98BB
100
AcDbDictionary
280
     1
281
     1
  3
ACAD_XREC_ROUNDTRIP
360
9919
  0
DICTIONARY
  5
9926
330
98C2
100
AcDbDictionary
280
     1
281
     1
  3
ACAD_XREC_ROUNDTRIP
360
9927
  0
DICTIONARY
  5
992E
330
98C6
100
AcDbDictionary
280
     1
281
     1
  3
ACAD_XREC_ROUNDTRIP
360
992F
  0
DICTIONARY
  5
9920
330
98BF
100
AcDbDictionary
280
     1
281
     1
  3
ACAD_XREC_ROUNDTRIP
360
9921
  0
DICTIONARY
  5
9924
330
98C1
100
AcDbDictionary
280
     1
281
     1
  3
ACAD_XREC_ROUNDTRIP
360
9925
  0
DICTIONARY
  5
993E
330
98CE
100
AcDbDictionary
280
     1
281
     1
  3
ACAD_XREC_ROUNDTRIP
360
993F
  0
DICTIONARY
  5
992C
330
98C5
100
AcDbDictionary
280
     1
281
     1
  3
ACAD_XREC_ROUNDTRIP
360
992D
  0
DICTIONARY
  5
9910
330
98B7
100
AcDbDictionary
280
     1
281
     1
  3
ACAD_XREC_ROUNDTRIP
360
9911
  0
DICTIONARY
  5
9912
330
98B8
100
AcDbDictionary
280
     1
281
     1
  3
ACAD_XREC_ROUNDTRIP
360
9913
  0
DICTIONARY
  5
9914
330
98B9
100
AcDbDictionary
280
     1
281
     1
  3
ACAD_XREC_ROUNDTRIP
360
9915
  0
DICTIONARY
  5
9916
330
98BA
100
AcDbDictionary
280
     1
281
     1
  3
ACAD_XREC_ROUNDTRIP
360
9917
  0
DICTIONARY
  5
991E
330
98BE
100
AcDbDictionary
280
     1
281
     1
  3
ACAD_XREC_ROUNDTRIP
360
991F
  0
DICTIONARY
  5
993A
330
98CC
100
AcDbDictionary
280
     1
281
     1
  3
ACAD_XREC_ROUNDTRIP
360
993B
  0
DICTIONARY
  5
992A
330
98C4
100
AcDbDictionary
280
     1
281
     1
  3
ACAD_XREC_ROUNDTRIP
360
992B
  0
DICTIONARY
  5
993C
330
98CD
100
AcDbDictionary
280
     1
281
     1
  3
ACAD_XREC_ROUNDTRIP
360
993D
  0
DICTIONARY
  5
9922
330
98C0
100
AcDbDictionary
280
     1
281
     1
  3
ACAD_XREC_ROUNDTRIP
360
9923
  0
DICTIONARY
  5
9938
330
98CB
100
AcDbDictionary
280
     1
281
     1
  3
ACAD_XREC_ROUNDTRIP
360
9939
  0
DICTIONARY
  5
9936
330
98CA
100
AcDbDictionary
280
     1
281
     1
  3
ACAD_XREC_ROUNDTRIP
360
9937
  0
DICTIONARY
  5
9930
330
98C7
100
AcDbDictionary
280
     1
281
     1
  3
ACAD_XREC_ROUNDTRIP
360
9931
  0
DICTIONARY
  5
9932
330
98C8
100
AcDbDictionary
280
     1
281
     1
  3
ACAD_XREC_ROUNDTRIP
360
9933
  0
DICTIONARY
  5
9928
330
98C3
100
AcDbDictionary
280
     1
281
     1
  3
ACAD_XREC_ROUNDTRIP
360
9929
  0
DICTIONARY
  5
991C
330
98BD
100
AcDbDictionary
280
     1
281
     1
  3
ACAD_XREC_ROUNDTRIP
360
991D
  0
DICTIONARY
  5
9934
330
98C9
100
AcDbDictionary
280
     1
281
     1
  3
ACAD_XREC_ROUNDTRIP
360
9935
  0
XRECORD
  5
9945
102
{ACAD_REACTORS
330
9944
102
}
330
9944
100
AcDbXrecord
280
     1
102
DISPLAYNAME
  1
Imperial24
102
FLAGS
 90
        0
  0
XRECORD
  5
9947
102
{ACAD_REACTORS
330
9946
102
}
330
9946
100
AcDbXrecord
280
     1
102
SHADEPLOT
 70
     0
102
SHADEPLOTRESLEVEL
 70
     2
102
SHADEPLOTCUSTOMDPI
 70
   300
  0
XRECORD
  5
9949
102
{ACAD_REACTORS
330
9948
102
}
330
9948
100
AcDbXrecord
280
     1
102
SHADEPLOT
 70
     0
102
SHADEPLOTRESLEVEL
 70
     2
102
SHADEPLOTCUSTOMDPI
 70
   300
  0
XRECORD
  5
990E
102
{ACAD_REACTORS
330
98A7
102
}
330
98A7
100
AcDbXrecord
280
     1
102
MATERIAL
148
0.0
149
0.0
149
0.0
 93
        0
 94
      127
282
     0
 72
     0
 77
     0
171
     0
175
     0
179
     0
273
     0
  0
XRECORD
  5
98A9
102
{ACAD_REACTORS
330
98A7
102
}
330
98A7
100
AcDbXrecord
280
     1
270
     1
271
     1
  0
XRECORD
  5
98A8
102
{ACAD_REACTORS
330
98A7
102
}
330
98A7
100
AcDbXrecord
280
     1
270
     1
271
     1
  0
XRECORD
  5
98AC
102
{ACAD_REACTORS
330
98A7
102
}
330
98A7
100
AcDbXrecord
280
     1
270
     1
271
     1
  0
XRECORD
  5
98AB
102
{ACAD_REACTORS
330
98A7
102
}
330
98A7
100
AcDbXrecord
280
     1
270
     1
271
     1
  0
XRECORD
  5
98AD
102
{ACAD_REACTORS
330
98A7
102
}
330
98A7
100
AcDbXrecord
280
     1
270
     1
271
     1
  0
XRECORD
  5
98AA
102
{ACAD_REACTORS
330
98A7
102
}
330
98A7
100
AcDbXrecord
280
     1
270
     1
271
     1
  0
XRECORD
  5
990D
102
{ACAD_REACTORS
330
989F
102
}
330
989F
100
AcDbXrecord
280
     1
102
MATERIAL
148
0.0
149
0.0
149
0.0
 93
        0
 94
      127
282
     0
 72
     0
 77
     0
171
     0
175
     0
179
     0
273
     0
  0
XRECORD
  5
98A1
102
{ACAD_REACTORS
330
989F
102
}
330
989F
100
AcDbXrecord
280
     1
270
     1
271
     1
  0
XRECORD
  5
98A0
102
{ACAD_REACTORS
330
989F
102
}
330
989F
100
AcDbXrecord
280
     1
270
     1
271
     1
  0
XRECORD
  5
98A4
102
{ACAD_REACTORS
330
989F
102
}
330
989F
100
AcDbXrecord
280
     1
270
     1
271
     1
  0
XRECORD
  5
98A3
102
{ACAD_REACTORS
330
989F
102
}
330
989F
100
AcDbXrecord
280
     1
270
     1
271
     1
  0
XRECORD
  5
98A5
102
{ACAD_REACTORS
330
989F
102
}
330
989F
100
AcDbXrecord
280
     1
270
     1
271
     1
  0
XRECORD
  5
98A2
102
{ACAD_REACTORS
330
989F
102
}
330
989F
100
AcDbXrecord
280
     1
270
     1
271
     1
  0
XRECORD
  5
990F
102
{ACAD_REACTORS
330
98AF
102
}
330
98AF
100
AcDbXrecord
280
     1
102
MATERIAL
148
0.0
149
0.0
149
0.0
 93
        0
 94
      127
282
     0
 72
     0
 77
     0
171
     0
175
     0
179
     0
273
     0
  0
XRECORD
  5
98B1
102
{ACAD_REACTORS
330
98AF
102
}
330
98AF
100
AcDbXrecord
280
     1
270
     1
271
     1
  0
XRECORD
  5
98B0
102
{ACAD_REACTORS
330
98AF
102
}
330
98AF
100
AcDbXrecord
280
     1
270
     1
271
     1
  0
XRECORD
  5
98B4
102
{ACAD_REACTORS
330
98AF
102
}
330
98AF
100
AcDbXrecord
280
     1
270
     1
271
     1
  0
XRECORD
  5
98B3
102
{ACAD_REACTORS
330
98AF
102
}
330
98AF
100
AcDbXrecord
280
     1
270
     1
271
     1
  0
XRECORD
  5
98B5
102
{ACAD_REACTORS
330
98AF
102
}
330
98AF
100
AcDbXrecord
280
     1
270
     1
271
     1
  0
XRECORD
  5
98B2
102
{ACAD_REACTORS
330
98AF
102
}
330
98AF
100
AcDbXrecord
280
     1
270
     1
271
     1
  0
XRECORD
  5
9943
102
{ACAD_REACTORS
330
9942
102
}
330
9942
100
AcDbXrecord
280
     1
102
DISPLAYNAME
  1
Imperial24
102
FLAGS
 90
        0
  0
CELLSTYLEMAP
  5
990A
102
{ACAD_REACTORS
330
9909
102
}
330
9909
100
AcDbCellStyleMap
 90
        3
300
CELLSTYLE
  1
TABLEFORMAT_BEGIN
 90
        5
170
     1
 91
        0
 92
    32768
 62
   257
 93
        1
300
CONTENTFORMAT
  1
CONTENTFORMAT_BEGIN
 90
        0
 91
        0
 92
      512
 93
        0
300

 40
0.0
140
1.0
 94
        5
 62
     0
340
966D
144
0.25
309
CONTENTFORMAT_END
171
     0
 94
        0
309
TABLEFORMAT_END
  1
CELLSTYLE_BEGIN
 90
        1
 91
        1
300
_TITLE
309
CELLSTYLE_END
300
CELLSTYLE
  1
TABLEFORMAT_BEGIN
 90
        5
170
     1
 91
        0
 92
        0
 62
   257
 93
        1
300
CONTENTFORMAT
  1
CONTENTFORMAT_BEGIN
 90
        0
 91
        0
 92
      512
 93
        0
300

 40
0.0
140
1.0
 94
        5
 62
     0
340
966D
144
0.18
309
CONTENTFORMAT_END
171
     0
 94
        0
309
TABLEFORMAT_END
  1
CELLSTYLE_BEGIN
 90
        2
 91
        1
300
_HEADER
309
CELLSTYLE_END
300
CELLSTYLE
  1
TABLEFORMAT_BEGIN
 90
        5
170
     1
 91
        0
 92
        0
 62
   257
 93
        1
300
CONTENTFORMAT
  1
CONTENTFORMAT_BEGIN
 90
        0
 91
        0
 92
      512
 93
        0
300

 40
0.0
140
1.0
 94
        2
 62
     0
340
966D
144
0.18
309
CONTENTFORMAT_END
171
     0
 94
        0
309
TABLEFORMAT_END
  1
CELLSTYLE_BEGIN
 90
        3
 91
        2
300
_DATA
309
CELLSTYLE_END
  0
XRECORD
  5
9940
102
{ACAD_REACTORS
330
9909
102
}
330
9909
100
AcDbXrecord
280
     1
102
ACAD_ROUNDTRIP_PRE2007_TABLESTYLE
 90
      512
 91
        0
  1

 92
      512
 93
        0
  2

 94
      512
 95
        0
  3

  0
XRECORD
  5
991B
102
{ACAD_REACTORS
330
991A
102
}
330
991A
100
AcDbXrecord
280
     1
102
RTVSPost2010Prop28
280
     1
102
RTVSPost2010PropOp28
 70
     1
102
RTVSPost2010Prop29
280
     1
102
RTVSPost2010PropOp29
 70
     1
102
RTVSPost2010Prop30
280
     0
102
RTVSPost2010PropOp30
 70
     1
102
RTVSPost2010Prop31
280
     0
102
RTVSPost2010PropOp31
 70
     1
102
RTVSPost2010Prop32
280
     0
102
RTVSPost2010PropOp32
 70
     1
102
RTVSPost2010Prop33
280
     0
102
RTVSPost2010PropOp33
 70
     1
102
RTVSPost2010Prop34
280
     0
102
RTVSPost2010PropOp34
 70
     1
102
RTVSPost2010Prop35
280
     0
102
RTVSPost2010PropOp35
 70
     1
102
RTVSPost2010Prop36
280
     0
102
RTVSPost2010PropOp36
 70
     1
102
RTVSPost2010Prop37
 90
       50
102
RTVSPost2010PropOp37
 70
     1
102
RTVSPost2010Prop38
140
0.0
102
RTVSPost2010PropOp38
 70
     1
102
RTVSPost2010Prop39
140
1.0
102
RTVSPost2010PropOp39
 70
     1
102
RTVSPost2010Prop40
 90
        0
102
RTVSPost2010PropOp40
 70
     1
102
RTVSPost2010Prop41ColorIndex
 90
       18
102
RTVSPost2010Prop41ColorRGB
 90
        0
102
RTVSPost2010PropOp41
 70
     1
102
RTVSPost2010Prop42
 90
       50
102
RTVSPost2010PropOp42
 70
     1
102
RTVSPost2010Prop43
 90
        3
102
RTVSPost2010PropOp43
 70
     1
102
RTVSPost2010Prop44ColorIndex
 90
        5
102
RTVSPost2010Prop44ColorRGB
 90
      255
102
RTVSPost2010PropOp44
 70
     1
102
RTVSPost2010Prop45
280
     0
102
RTVSPost2010PropOp45
 70
     1
102
RTVSPost2010Prop46
 90
       50
102
RTVSPost2010PropOp46
 70
     1
102
RTVSPost2010Prop47
 90
       50
102
RTVSPost2010PropOp47
 70
     1
102
RTVSPost2010Prop48
 90
       50
102
RTVSPost2010PropOp48
 70
     1
102
RTVSPost2010Prop49
280
     0
102
RTVSPost2010PropOp49
 70
     1
102
RTVSPost2010Prop50
 90
       50
102
RTVSPost2010PropOp50
 70
     1
102
RTVSPost2010Prop51ColorIndex
 90
      256
102
RTVSPost2010Prop51ColorRGB
 90
-16777216
102
RTVSPost2010PropOp51
 70
     0
102
RTVSPost2010Prop52
140
1.0
102
RTVSPost2010PropOp52
 70
     0
102
RTVSPost2010Prop53
 90
        2
102
RTVSPost2010PropOp53
 70
     1
102
RTVSPost2010Prop54
  1
strokes_ogs.tif
102
RTVSPost2010PropOp54
 70
     1
102
RTVSPost2010Prop55
280
     0
102
RTVSPost2010PropOp55
 70
     1
102
RTVSPost2010Prop56
140
1.0
102
RTVSPost2010PropOp56
 70
     1
102
RTVSPost2010Prop57
140
1.0
102
RTVSPost2010PropOp57
 70
     1
102
RTVSPropertyOp0
 70
     1
102
RTVSPropertyOp1
 70
     1
102
RTVSPropertyOp2
 70
     1
102
RTVSPropertyOp3
 70
     1
102
RTVSPropertyOp4
 70
     1
102
RTVSPropertyOp5
 70
     1
102
RTVSPropertyOp6
 70
     1
102
RTVSPropertyOp7
 70
     1
102
RTVSPropertyOp8
 70
     1
102
RTVSPropertyOp9
 70
     1
102
RTVSPropertyOp10
 70
     1
102
RTVSPropertyOp11
 70
     1
102
RTVSPropertyOp12
 70
     1
102
RTVSPropertyOp13
 70
     1
102
RTVSPropertyOp14
 70
     1
102
RTVSPropertyOp15
 70
     1
102
RTVSPropertyOp16
 70
     1
102
RTVSPropertyOp17
 70
     1
102
RTVSPropertyOp18
 70
     1
102
RTVSPropertyOp19
 70
     1
102
RTVSPropertyOp20
 70
     1
102
RTVSPropertyOp21
 70
     1
102
RTVSPropertyOp22
 70
     1
102
RTVSPropertyOp23
 70
     1
102
RTVSPropertyOp24
 70
     1
102
RTVSPropertyOp25
 70
     1
102
RTVSPropertyOp26
 70
     1
102
RTVSPropertyOp27
 70
     1
102
RTVSPropertyOp28
 70
     1
102
RTVSPropertyOp29
 70
     1
102
RTVSPropertyOp30
 70
     1
102
RTVSPropertyOp31
 70
     1
102
RTVSPropertyOp32
 70
     1
102
RTVSPropertyOp33
 70
     1
102
RTVSPropertyOp34
 70
     1
102
RTVSPropertyOp35
 70
     1
102
RTVSPropertyOp36
 70
     1
102
RTVSPropertyOp37
 70
     1
102
RTVSPropertyOp38
 70
     1
102
RTVSPropertyOp39
 70
     1
102
RTVSPropertyOp40
 70
     1
102
RTVSPropertyOp41
 70
     1
102
RTVSPropertyOp42
 70
     1
102
RTVSPropertyOp43
 70
     1
102
RTVSPropertyOp44
 70
     1
102
RTVSPropertyOp45
 70
     1
102
RTVSPropertyOp46
 70
     1
102
RTVSPropertyOp47
 70
     1
102
RTVSPropertyOp48
 70
     1
102
RTVSPropertyOp49
 70
     1
102
RTVSPropertyOp50
 70
     1
102
RTVSPropertyOp51
 70
     0
102
RTVSPropertyOp52
 70
     0
102
RTVSPropertyOp53
 70
     1
102
RTVSPropertyOp54
 70
     1
102
RTVSPropertyOp55
 70
     1
102
RTVSPropertyOp56
 70
     1
102
RTVSPropertyOp57
 70
     1
102
RTVSPropertyOp58
 70
     1
102
RTVSPropertyOp59
 70
     1
102
RTVSPropertyOp60
 70
     1
102
RTVSPropertyOp61
 70
     1
102
RTVSPropertyOp62
 70
     1
  0
XRECORD
  5
9919
102
{ACAD_REACTORS
330
9918
102
}
330
9918
100
AcDbXrecord
280
     1
102
RTVSPost2010Prop28
280
     0
102
RTVSPost2010PropOp28
 70
     1
102
RTVSPost2010Prop29
280
     1
102
RTVSPost2010PropOp29
 70
     1
102
RTVSPost2010Prop30
280
     1
102
RTVSPost2010PropOp30
 70
     1
102
RTVSPost2010Prop31
280
     0
102
RTVSPost2010PropOp31
 70
     1
102
RTVSPost2010Prop32
280
     0
102
RTVSPost2010PropOp32
 70
     1
102
RTVSPost2010Prop33
280
     0
102
RTVSPost2010PropOp33
 70
     1
102
RTVSPost2010Prop34
280
     0
102
RTVSPost2010PropOp34
 70
     1
102
RTVSPost2010Prop35
280
     0
102
RTVSPost2010PropOp35
 70
     1
102
RTVSPost2010Prop36
280
     0
102
RTVSPost2010PropOp36
 70
     1
102
RTVSPost2010Prop37
 90
       50
102
RTVSPost2010PropOp37
 70
     1
102
RTVSPost2010Prop38
140
0.0
102
RTVSPost2010PropOp38
 70
     1
102
RTVSPost2010Prop39
140
1.0
102
RTVSPost2010PropOp39
 70
     1
102
RTVSPost2010Prop40
 90
        0
102
RTVSPost2010PropOp40
 70
     1
102
RTVSPost2010Prop41ColorIndex
 90
       18
102
RTVSPost2010Prop41ColorRGB
 90
        0
102
RTVSPost2010PropOp41
 70
     1
102
RTVSPost2010Prop42
 90
       50
102
RTVSPost2010PropOp42
 70
     1
102
RTVSPost2010Prop43
 90
        3
102
RTVSPost2010PropOp43
 70
     1
102
RTVSPost2010Prop44ColorIndex
 90
        5
102
RTVSPost2010Prop44ColorRGB
 90
      255
102
RTVSPost2010PropOp44
 70
     1
102
RTVSPost2010Prop45
280
     0
102
RTVSPost2010PropOp45
 70
     1
102
RTVSPost2010Prop46
 90
       50
102
RTVSPost2010PropOp46
 70
     1
102
RTVSPost2010Prop47
 90
       50
102
RTVSPost2010PropOp47
 70
     1
102
RTVSPost2010Prop48
 90
       50
102
RTVSPost2010PropOp48
 70
     1
102
RTVSPost2010Prop49
280
     0
102
RTVSPost2010PropOp49
 70
     1
102
RTVSPost2010Prop50
 90
       50
102
RTVSPost2010PropOp50
 70
     1
102
RTVSPost2010Prop51ColorIndex
 90
      256
102
RTVSPost2010Prop51ColorRGB
 90
-16777216
102
RTVSPost2010PropOp51
 70
     0
102
RTVSPost2010Prop52
140
1.0
102
RTVSPost2010PropOp52
 70
     0
102
RTVSPost2010Prop53
 90
        2
102
RTVSPost2010PropOp53
 70
     1
102
RTVSPost2010Prop54
  1
strokes_ogs.tif
102
RTVSPost2010PropOp54
 70
     1
102
RTVSPost2010Prop55
280
     0
102
RTVSPost2010PropOp55
 70
     1
102
RTVSPost2010Prop56
140
1.0
102
RTVSPost2010PropOp56
 70
     1
102
RTVSPost2010Prop57
140
1.0
102
RTVSPost2010PropOp57
 70
     1
102
RTVSPropertyOp0
 70
     1
102
RTVSPropertyOp1
 70
     1
102
RTVSPropertyOp2
 70
     1
102
RTVSPropertyOp3
 70
     1
102
RTVSPropertyOp4
 70
     1
102
RTVSPropertyOp5
 70
     1
102
RTVSPropertyOp6
 70
     1
102
RTVSPropertyOp7
 70
     1
102
RTVSPropertyOp8
 70
     1
102
RTVSPropertyOp9
 70
     1
102
RTVSPropertyOp10
 70
     1
102
RTVSPropertyOp11
 70
     1
102
RTVSPropertyOp12
 70
     1
102
RTVSPropertyOp13
 70
     1
102
RTVSPropertyOp14
 70
     1
102
RTVSPropertyOp15
 70
     1
102
RTVSPropertyOp16
 70
     1
102
RTVSPropertyOp17
 70
     1
102
RTVSPropertyOp18
 70
     1
102
RTVSPropertyOp19
 70
     1
102
RTVSPropertyOp20
 70
     1
102
RTVSPropertyOp21
 70
     1
102
RTVSPropertyOp22
 70
     1
102
RTVSPropertyOp23
 70
     1
102
RTVSPropertyOp24
 70
     1
102
RTVSPropertyOp25
 70
     1
102
RTVSPropertyOp26
 70
     1
102
RTVSPropertyOp27
 70
     1
102
RTVSPropertyOp28
 70
     1
102
RTVSPropertyOp29
 70
     1
102
RTVSPropertyOp30
 70
     1
102
RTVSPropertyOp31
 70
     1
102
RTVSPropertyOp32
 70
     1
102
RTVSPropertyOp33
 70
     1
102
RTVSPropertyOp34
 70
     1
102
RTVSPropertyOp35
 70
     1
102
RTVSPropertyOp36
 70
     1
102
RTVSPropertyOp37
 70
     1
102
RTVSPropertyOp38
 70
     1
102
RTVSPropertyOp39
 70
     1
102
RTVSPropertyOp40
 70
     1
102
RTVSPropertyOp41
 70
     1
102
RTVSPropertyOp42
 70
     1
102
RTVSPropertyOp43
 70
     1
102
RTVSPropertyOp44
 70
     1
102
RTVSPropertyOp45
 70
     1
102
RTVSPropertyOp46
 70
     1
102
RTVSPropertyOp47
 70
     1
102
RTVSPropertyOp48
 70
     1
102
RTVSPropertyOp49
 70
     1
102
RTVSPropertyOp50
 70
     1
102
RTVSPropertyOp51
 70
     0
102
RTVSPropertyOp52
 70
     0
102
RTVSPropertyOp53
 70
     1
102
RTVSPropertyOp54
 70
     1
102
RTVSPropertyOp55
 70
     1
102
RTVSPropertyOp56
 70
     1
102
RTVSPropertyOp57
 70
     1
102
RTVSPropertyOp58
 70
     1
102
RTVSPropertyOp59
 70
     1
102
RTVSPropertyOp60
 70
     1
102
RTVSPropertyOp61
 70
     1
102
RTVSPropertyOp62
 70
     1
  0
XRECORD
  5
9927
102
{ACAD_REACTORS
330
9926
102
}
330
9926
100
AcDbXrecord
280
     1
102
RTVSPost2010Prop28
280
     0
102
RTVSPost2010PropOp28
 70
     1
102
RTVSPost2010Prop29
280
     1
102
RTVSPost2010PropOp29
 70
     1
102
RTVSPost2010Prop30
280
     1
102
RTVSPost2010PropOp30
 70
     1
102
RTVSPost2010Prop31
280
     0
102
RTVSPost2010PropOp31
 70
     1
102
RTVSPost2010Prop32
280
     0
102
RTVSPost2010PropOp32
 70
     1
102
RTVSPost2010Prop33
280
     0
102
RTVSPost2010PropOp33
 70
     1
102
RTVSPost2010Prop34
280
     0
102
RTVSPost2010PropOp34
 70
     1
102
RTVSPost2010Prop35
280
     0
102
RTVSPost2010PropOp35
 70
     1
102
RTVSPost2010Prop36
280
     0
102
RTVSPost2010PropOp36
 70
     1
102
RTVSPost2010Prop37
 90
       50
102
RTVSPost2010PropOp37
 70
     1
102
RTVSPost2010Prop38
140
0.0
102
RTVSPost2010PropOp38
 70
     1
102
RTVSPost2010Prop39
140
1.0
102
RTVSPost2010PropOp39
 70
     1
102
RTVSPost2010Prop40
 90
        0
102
RTVSPost2010PropOp40
 70
     1
102
RTVSPost2010Prop41ColorIndex
 90
       18
102
RTVSPost2010Prop41ColorRGB
 90
        0
102
RTVSPost2010PropOp41
 70
     1
102
RTVSPost2010Prop42
 90
       50
102
RTVSPost2010PropOp42
 70
     1
102
RTVSPost2010Prop43
 90
        3
102
RTVSPost2010PropOp43
 70
     1
102
RTVSPost2010Prop44ColorIndex
 90
        5
102
RTVSPost2010Prop44ColorRGB
 90
      255
102
RTVSPost2010PropOp44
 70
     1
102
RTVSPost2010Prop45
280
     0
102
RTVSPost2010PropOp45
 70
     1
102
RTVSPost2010Prop46
 90
       50
102
RTVSPost2010PropOp46
 70
     1
102
RTVSPost2010Prop47
 90
       50
102
RTVSPost2010PropOp47
 70
     1
102
RTVSPost2010Prop48
 90
       50
102
RTVSPost2010PropOp48
 70
     1
102
RTVSPost2010Prop49
280
     0
102
RTVSPost2010PropOp49
 70
     1
102
RTVSPost2010Prop50
 90
       50
102
RTVSPost2010PropOp50
 70
     1
102
RTVSPost2010Prop51ColorIndex
 90
      256
102
RTVSPost2010Prop51ColorRGB
 90
-16777216
102
RTVSPost2010PropOp51
 70
     0
102
RTVSPost2010Prop52
140
1.0
102
RTVSPost2010PropOp52
 70
     0
102
RTVSPost2010Prop53
 90
        2
102
RTVSPost2010PropOp53
 70
     1
102
RTVSPost2010Prop54
  1
strokes_ogs.tif
102
RTVSPost2010PropOp54
 70
     1
102
RTVSPost2010Prop55
280
     0
102
RTVSPost2010PropOp55
 70
     1
102
RTVSPost2010Prop56
140
1.0
102
RTVSPost2010PropOp56
 70
     1
102
RTVSPost2010Prop57
140
1.0
102
RTVSPost2010PropOp57
 70
     1
102
RTVSPropertyOp0
 70
     1
102
RTVSPropertyOp1
 70
     1
102
RTVSPropertyOp2
 70
     1
102
RTVSPropertyOp3
 70
     1
102
RTVSPropertyOp4
 70
     1
102
RTVSPropertyOp5
 70
     1
102
RTVSPropertyOp6
 70
     1
102
RTVSPropertyOp7
 70
     1
102
RTVSPropertyOp8
 70
     1
102
RTVSPropertyOp9
 70
     1
102
RTVSPropertyOp10
 70
     1
102
RTVSPropertyOp11
 70
     1
102
RTVSPropertyOp12
 70
     1
102
RTVSPropertyOp13
 70
     1
102
RTVSPropertyOp14
 70
     1
102
RTVSPropertyOp15
 70
     1
102
RTVSPropertyOp16
 70
     1
102
RTVSPropertyOp17
 70
     1
102
RTVSPropertyOp18
 70
     1
102
RTVSPropertyOp19
 70
     1
102
RTVSPropertyOp20
 70
     1
102
RTVSPropertyOp21
 70
     1
102
RTVSPropertyOp22
 70
     1
102
RTVSPropertyOp23
 70
     1
102
RTVSPropertyOp24
 70
     1
102
RTVSPropertyOp25
 70
     1
102
RTVSPropertyOp26
 70
     1
102
RTVSPropertyOp27
 70
     1
102
RTVSPropertyOp28
 70
     1
102
RTVSPropertyOp29
 70
     1
102
RTVSPropertyOp30
 70
     1
102
RTVSPropertyOp31
 70
     1
102
RTVSPropertyOp32
 70
     1
102
RTVSPropertyOp33
 70
     1
102
RTVSPropertyOp34
 70
     1
102
RTVSPropertyOp35
 70
     1
102
RTVSPropertyOp36
 70
     1
102
RTVSPropertyOp37
 70
     1
102
RTVSPropertyOp38
 70
     1
102
RTVSPropertyOp39
 70
     1
102
RTVSPropertyOp40
 70
     1
102
RTVSPropertyOp41
 70
     1
102
RTVSPropertyOp42
 70
     1
102
RTVSPropertyOp43
 70
     1
102
RTVSPropertyOp44
 70
     1
102
RTVSPropertyOp45
 70
     1
102
RTVSPropertyOp46
 70
     1
102
RTVSPropertyOp47
 70
     1
102
RTVSPropertyOp48
 70
     1
102
RTVSPropertyOp49
 70
     1
102
RTVSPropertyOp50
 70
     1
102
RTVSPropertyOp51
 70
     0
102
RTVSPropertyOp52
 70
     0
102
RTVSPropertyOp53
 70
     1
102
RTVSPropertyOp54
 70
     1
102
RTVSPropertyOp55
 70
     1
102
RTVSPropertyOp56
 70
     1
102
RTVSPropertyOp57
 70
     1
102
RTVSPropertyOp58
 70
     1
102
RTVSPropertyOp59
 70
     1
102
RTVSPropertyOp60
 70
     1
102
RTVSPropertyOp61
 70
     1
102
RTVSPropertyOp62
 70
     1
  0
XRECORD
  5
992F
102
{ACAD_REACTORS
330
992E
102
}
330
992E
100
AcDbXrecord
280
     1
102
RTVSPost2010Prop28
280
     0
102
RTVSPost2010PropOp28
 70
     1
102
RTVSPost2010Prop29
280
     1
102
RTVSPost2010PropOp29
 70
     1
102
RTVSPost2010Prop30
280
     1
102
RTVSPost2010PropOp30
 70
     1
102
RTVSPost2010Prop31
280
     0
102
RTVSPost2010PropOp31
 70
     1
102
RTVSPost2010Prop32
280
     0
102
RTVSPost2010PropOp32
 70
     1
102
RTVSPost2010Prop33
280
     0
102
RTVSPost2010PropOp33
 70
     1
102
RTVSPost2010Prop34
280
     0
102
RTVSPost2010PropOp34
 70
     1
102
RTVSPost2010Prop35
280
     0
102
RTVSPost2010PropOp35
 70
     1
102
RTVSPost2010Prop36
280
     0
102
RTVSPost2010PropOp36
 70
     1
102
RTVSPost2010Prop37
 90
       50
102
RTVSPost2010PropOp37
 70
     1
102
RTVSPost2010Prop38
140
0.0
102
RTVSPost2010PropOp38
 70
     1
102
RTVSPost2010Prop39
140
1.0
102
RTVSPost2010PropOp39
 70
     1
102
RTVSPost2010Prop40
 90
        0
102
RTVSPost2010PropOp40
 70
     1
102
RTVSPost2010Prop41ColorIndex
 90
       18
102
RTVSPost2010Prop41ColorRGB
 90
        0
102
RTVSPost2010PropOp41
 70
     1
102
RTVSPost2010Prop42
 90
       50
102
RTVSPost2010PropOp42
 70
     1
102
RTVSPost2010Prop43
 90
        3
102
RTVSPost2010PropOp43
 70
     1
102
RTVSPost2010Prop44ColorIndex
 90
        5
102
RTVSPost2010Prop44ColorRGB
 90
      255
102
RTVSPost2010PropOp44
 70
     1
102
RTVSPost2010Prop45
280
     0
102
RTVSPost2010PropOp45
 70
     1
102
RTVSPost2010Prop46
 90
       50
102
RTVSPost2010PropOp46
 70
     1
102
RTVSPost2010Prop47
 90
       50
102
RTVSPost2010PropOp47
 70
     1
102
RTVSPost2010Prop48
 90
       50
102
RTVSPost2010PropOp48
 70
     1
102
RTVSPost2010Prop49
280
     0
102
RTVSPost2010PropOp49
 70
     1
102
RTVSPost2010Prop50
 90
       50
102
RTVSPost2010PropOp50
 70
     1
102
RTVSPost2010Prop51ColorIndex
 90
      256
102
RTVSPost2010Prop51ColorRGB
 90
-16777216
102
RTVSPost2010PropOp51
 70
     0
102
RTVSPost2010Prop52
140
1.0
102
RTVSPost2010PropOp52
 70
     0
102
RTVSPost2010Prop53
 90
        2
102
RTVSPost2010PropOp53
 70
     1
102
RTVSPost2010Prop54
  1
strokes_ogs.tif
102
RTVSPost2010PropOp54
 70
     1
102
RTVSPost2010Prop55
280
     0
102
RTVSPost2010PropOp55
 70
     1
102
RTVSPost2010Prop56
140
1.0
102
RTVSPost2010PropOp56
 70
     1
102
RTVSPost2010Prop57
140
1.0
102
RTVSPost2010PropOp57
 70
     1
102
RTVSPropertyOp0
 70
     1
102
RTVSPropertyOp1
 70
     1
102
RTVSPropertyOp2
 70
     1
102
RTVSPropertyOp3
 70
     1
102
RTVSPropertyOp4
 70
     1
102
RTVSPropertyOp5
 70
     1
102
RTVSPropertyOp6
 70
     1
102
RTVSPropertyOp7
 70
     1
102
RTVSPropertyOp8
 70
     1
102
RTVSPropertyOp9
 70
     1
102
RTVSPropertyOp10
 70
     1
102
RTVSPropertyOp11
 70
     1
102
RTVSPropertyOp12
 70
     1
102
RTVSPropertyOp13
 70
     1
102
RTVSPropertyOp14
 70
     1
102
RTVSPropertyOp15
 70
     1
102
RTVSPropertyOp16
 70
     1
102
RTVSPropertyOp17
 70
     1
102
RTVSPropertyOp18
 70
     1
102
RTVSPropertyOp19
 70
     1
102
RTVSPropertyOp20
 70
     1
102
RTVSPropertyOp21
 70
     1
102
RTVSPropertyOp22
 70
     1
102
RTVSPropertyOp23
 70
     1
102
RTVSPropertyOp24
 70
     1
102
RTVSPropertyOp25
 70
     1
102
RTVSPropertyOp26
 70
     1
102
RTVSPropertyOp27
 70
     1
102
RTVSPropertyOp28
 70
     1
102
RTVSPropertyOp29
 70
     1
102
RTVSPropertyOp30
 70
     1
102
RTVSPropertyOp31
 70
     1
102
RTVSPropertyOp32
 70
     1
102
RTVSPropertyOp33
 70
     1
102
RTVSPropertyOp34
 70
     1
102
RTVSPropertyOp35
 70
     1
102
RTVSPropertyOp36
 70
     1
102
RTVSPropertyOp37
 70
     1
102
RTVSPropertyOp38
 70
     1
102
RTVSPropertyOp39
 70
     1
102
RTVSPropertyOp40
 70
     1
102
RTVSPropertyOp41
 70
     1
102
RTVSPropertyOp42
 70
     1
102
RTVSPropertyOp43
 70
     1
102
RTVSPropertyOp44
 70
     1
102
RTVSPropertyOp45
 70
     1
102
RTVSPropertyOp46
 70
     1
102
RTVSPropertyOp47
 70
     1
102
RTVSPropertyOp48
 70
     1
102
RTVSPropertyOp49
 70
     1
102
RTVSPropertyOp50
 70
     1
102
RTVSPropertyOp51
 70
     0
102
RTVSPropertyOp52
 70
     0
102
RTVSPropertyOp53
 70
     1
102
RTVSPropertyOp54
 70
     1
102
RTVSPropertyOp55
 70
     1
102
RTVSPropertyOp56
 70
     1
102
RTVSPropertyOp57
 70
     1
102
RTVSPropertyOp58
 70
     1
102
RTVSPropertyOp59
 70
     1
102
RTVSPropertyOp60
 70
     1
102
RTVSPropertyOp61
 70
     1
102
RTVSPropertyOp62
 70
     1
  0
XRECORD
  5
9921
102
{ACAD_REACTORS
330
9920
102
}
330
9920
100
AcDbXrecord
280
     1
102
RTVSPost2010Prop28
280
     0
102
RTVSPost2010PropOp28
 70
     1
102
RTVSPost2010Prop29
280
     1
102
RTVSPost2010PropOp29
 70
     1
102
RTVSPost2010Prop30
280
     1
102
RTVSPost2010PropOp30
 70
     1
102
RTVSPost2010Prop31
280
     0
102
RTVSPost2010PropOp31
 70
     1
102
RTVSPost2010Prop32
280
     0
102
RTVSPost2010PropOp32
 70
     1
102
RTVSPost2010Prop33
280
     0
102
RTVSPost2010PropOp33
 70
     1
102
RTVSPost2010Prop34
280
     0
102
RTVSPost2010PropOp34
 70
     1
102
RTVSPost2010Prop35
280
     0
102
RTVSPost2010PropOp35
 70
     1
102
RTVSPost2010Prop36
280
     0
102
RTVSPost2010PropOp36
 70
     1
102
RTVSPost2010Prop37
 90
       50
102
RTVSPost2010PropOp37
 70
     1
102
RTVSPost2010Prop38
140
0.0
102
RTVSPost2010PropOp38
 70
     1
102
RTVSPost2010Prop39
140
1.0
102
RTVSPost2010PropOp39
 70
     1
102
RTVSPost2010Prop40
 90
        0
102
RTVSPost2010PropOp40
 70
     1
102
RTVSPost2010Prop41ColorIndex
 90
       18
102
RTVSPost2010Prop41ColorRGB
 90
        0
102
RTVSPost2010PropOp41
 70
     1
102
RTVSPost2010Prop42
 90
       50
102
RTVSPost2010PropOp42
 70
     1
102
RTVSPost2010Prop43
 90
        3
102
RTVSPost2010PropOp43
 70
     1
102
RTVSPost2010Prop44ColorIndex
 90
        5
102
RTVSPost2010Prop44ColorRGB
 90
      255
102
RTVSPost2010PropOp44
 70
     1
102
RTVSPost2010Prop45
280
     0
102
RTVSPost2010PropOp45
 70
     1
102
RTVSPost2010Prop46
 90
       50
102
RTVSPost2010PropOp46
 70
     1
102
RTVSPost2010Prop47
 90
       50
102
RTVSPost2010PropOp47
 70
     1
102
RTVSPost2010Prop48
 90
       50
102
RTVSPost2010PropOp48
 70
     1
102
RTVSPost2010Prop49
280
     0
102
RTVSPost2010PropOp49
 70
     1
102
RTVSPost2010Prop50
 90
       50
102
RTVSPost2010PropOp50
 70
     1
102
RTVSPost2010Prop51ColorIndex
 90
      256
102
RTVSPost2010Prop51ColorRGB
 90
-16777216
102
RTVSPost2010PropOp51
 70
     0
102
RTVSPost2010Prop52
140
1.0
102
RTVSPost2010PropOp52
 70
     0
102
RTVSPost2010Prop53
 90
        2
102
RTVSPost2010PropOp53
 70
     1
102
RTVSPost2010Prop54
  1
strokes_ogs.tif
102
RTVSPost2010PropOp54
 70
     1
102
RTVSPost2010Prop55
280
     0
102
RTVSPost2010PropOp55
 70
     1
102
RTVSPost2010Prop56
140
1.0
102
RTVSPost2010PropOp56
 70
     1
102
RTVSPost2010Prop57
140
1.0
102
RTVSPost2010PropOp57
 70
     1
102
RTVSPropertyOp0
 70
     1
102
RTVSPropertyOp1
 70
     1
102
RTVSPropertyOp2
 70
     1
102
RTVSPropertyOp3
 70
     1
102
RTVSPropertyOp4
 70
     1
102
RTVSPropertyOp5
 70
     1
102
RTVSPropertyOp6
 70
     1
102
RTVSPropertyOp7
 70
     1
102
RTVSPropertyOp8
 70
     1
102
RTVSPropertyOp9
 70
     1
102
RTVSPropertyOp10
 70
     1
102
RTVSPropertyOp11
 70
     1
102
RTVSPropertyOp12
 70
     1
102
RTVSPropertyOp13
 70
     1
102
RTVSPropertyOp14
 70
     1
102
RTVSPropertyOp15
 70
     1
102
RTVSPropertyOp16
 70
     1
102
RTVSPropertyOp17
 70
     1
102
RTVSPropertyOp18
 70
     1
102
RTVSPropertyOp19
 70
     1
102
RTVSPropertyOp20
 70
     1
102
RTVSPropertyOp21
 70
     1
102
RTVSPropertyOp22
 70
     1
102
RTVSPropertyOp23
 70
     1
102
RTVSPropertyOp24
 70
     1
102
RTVSPropertyOp25
 70
     1
102
RTVSPropertyOp26
 70
     1
102
RTVSPropertyOp27
 70
     1
102
RTVSPropertyOp28
 70
     1
102
RTVSPropertyOp29
 70
     1
102
RTVSPropertyOp30
 70
     1
102
RTVSPropertyOp31
 70
     1
102
RTVSPropertyOp32
 70
     1
102
RTVSPropertyOp33
 70
     1
102
RTVSPropertyOp34
 70
     1
102
RTVSPropertyOp35
 70
     1
102
RTVSPropertyOp36
 70
     1
102
RTVSPropertyOp37
 70
     1
102
RTVSPropertyOp38
 70
     1
102
RTVSPropertyOp39
 70
     1
102
RTVSPropertyOp40
 70
     1
102
RTVSPropertyOp41
 70
     1
102
RTVSPropertyOp42
 70
     1
102
RTVSPropertyOp43
 70
     1
102
RTVSPropertyOp44
 70
     1
102
RTVSPropertyOp45
 70
     1
102
RTVSPropertyOp46
 70
     1
102
RTVSPropertyOp47
 70
     1
102
RTVSPropertyOp48
 70
     1
102
RTVSPropertyOp49
 70
     1
102
RTVSPropertyOp50
 70
     1
102
RTVSPropertyOp51
 70
     0
102
RTVSPropertyOp52
 70
     0
102
RTVSPropertyOp53
 70
     1
102
RTVSPropertyOp54
 70
     1
102
RTVSPropertyOp55
 70
     1
102
RTVSPropertyOp56
 70
     1
102
RTVSPropertyOp57
 70
     1
102
RTVSPropertyOp58
 70
     1
102
RTVSPropertyOp59
 70
     1
102
RTVSPropertyOp60
 70
     1
102
RTVSPropertyOp61
 70
     1
102
RTVSPropertyOp62
 70
     1
  0
XRECORD
  5
9925
102
{ACAD_REACTORS
330
9924
102
}
330
9924
100
AcDbXrecord
280
     1
102
RTVSPost2010Prop28
280
     0
102
RTVSPost2010PropOp28
 70
     1
102
RTVSPost2010Prop29
280
     1
102
RTVSPost2010PropOp29
 70
     1
102
RTVSPost2010Prop30
280
     1
102
RTVSPost2010PropOp30
 70
     1
102
RTVSPost2010Prop31
280
     0
102
RTVSPost2010PropOp31
 70
     1
102
RTVSPost2010Prop32
280
     0
102
RTVSPost2010PropOp32
 70
     1
102
RTVSPost2010Prop33
280
     0
102
RTVSPost2010PropOp33
 70
     1
102
RTVSPost2010Prop34
280
     0
102
RTVSPost2010PropOp34
 70
     1
102
RTVSPost2010Prop35
280
     0
102
RTVSPost2010PropOp35
 70
     1
102
RTVSPost2010Prop36
280
     0
102
RTVSPost2010PropOp36
 70
     1
102
RTVSPost2010Prop37
 90
       50
102
RTVSPost2010PropOp37
 70
     1
102
RTVSPost2010Prop38
140
0.0
102
RTVSPost2010PropOp38
 70
     1
102
RTVSPost2010Prop39
140
1.0
102
RTVSPost2010PropOp39
 70
     1
102
RTVSPost2010Prop40
 90
        0
102
RTVSPost2010PropOp40
 70
     1
102
RTVSPost2010Prop41ColorIndex
 90
       18
102
RTVSPost2010Prop41ColorRGB
 90
        0
102
RTVSPost2010PropOp41
 70
     1
102
RTVSPost2010Prop42
 90
       50
102
RTVSPost2010PropOp42
 70
     1
102
RTVSPost2010Prop43
 90
        3
102
RTVSPost2010PropOp43
 70
     1
102
RTVSPost2010Prop44ColorIndex
 90
        5
102
RTVSPost2010Prop44ColorRGB
 90
      255
102
RTVSPost2010PropOp44
 70
     1
102
RTVSPost2010Prop45
280
     0
102
RTVSPost2010PropOp45
 70
     1
102
RTVSPost2010Prop46
 90
       50
102
RTVSPost2010PropOp46
 70
     1
102
RTVSPost2010Prop47
 90
       50
102
RTVSPost2010PropOp47
 70
     1
102
RTVSPost2010Prop48
 90
       50
102
RTVSPost2010PropOp48
 70
     1
102
RTVSPost2010Prop49
280
     0
102
RTVSPost2010PropOp49
 70
     1
102
RTVSPost2010Prop50
 90
       50
102
RTVSPost2010PropOp50
 70
     1
102
RTVSPost2010Prop51ColorIndex
 90
      256
102
RTVSPost2010Prop51ColorRGB
 90
-16777216
102
RTVSPost2010PropOp51
 70
     0
102
RTVSPost2010Prop52
140
1.0
102
RTVSPost2010PropOp52
 70
     0
102
RTVSPost2010Prop53
 90
        2
102
RTVSPost2010PropOp53
 70
     1
102
RTVSPost2010Prop54
  1
strokes_ogs.tif
102
RTVSPost2010PropOp54
 70
     1
102
RTVSPost2010Prop55
280
     0
102
RTVSPost2010PropOp55
 70
     1
102
RTVSPost2010Prop56
140
1.0
102
RTVSPost2010PropOp56
 70
     1
102
RTVSPost2010Prop57
140
1.0
102
RTVSPost2010PropOp57
 70
     1
102
RTVSPropertyOp0
 70
     1
102
RTVSPropertyOp1
 70
     1
102
RTVSPropertyOp2
 70
     1
102
RTVSPropertyOp3
 70
     1
102
RTVSPropertyOp4
 70
     1
102
RTVSPropertyOp5
 70
     1
102
RTVSPropertyOp6
 70
     1
102
RTVSPropertyOp7
 70
     1
102
RTVSPropertyOp8
 70
     1
102
RTVSPropertyOp9
 70
     1
102
RTVSPropertyOp10
 70
     1
102
RTVSPropertyOp11
 70
     1
102
RTVSPropertyOp12
 70
     1
102
RTVSPropertyOp13
 70
     1
102
RTVSPropertyOp14
 70
     1
102
RTVSPropertyOp15
 70
     1
102
RTVSPropertyOp16
 70
     1
102
RTVSPropertyOp17
 70
     1
102
RTVSPropertyOp18
 70
     1
102
RTVSPropertyOp19
 70
     1
102
RTVSPropertyOp20
 70
     1
102
RTVSPropertyOp21
 70
     1
102
RTVSPropertyOp22
 70
     1
102
RTVSPropertyOp23
 70
     1
102
RTVSPropertyOp24
 70
     1
102
RTVSPropertyOp25
 70
     1
102
RTVSPropertyOp26
 70
     1
102
RTVSPropertyOp27
 70
     1
102
RTVSPropertyOp28
 70
     1
102
RTVSPropertyOp29
 70
     1
102
RTVSPropertyOp30
 70
     1
102
RTVSPropertyOp31
 70
     1
102
RTVSPropertyOp32
 70
     1
102
RTVSPropertyOp33
 70
     1
102
RTVSPropertyOp34
 70
     1
102
RTVSPropertyOp35
 70
     1
102
RTVSPropertyOp36
 70
     1
102
RTVSPropertyOp37
 70
     1
102
RTVSPropertyOp38
 70
     1
102
RTVSPropertyOp39
 70
     1
102
RTVSPropertyOp40
 70
     1
102
RTVSPropertyOp41
 70
     1
102
RTVSPropertyOp42
 70
     1
102
RTVSPropertyOp43
 70
     1
102
RTVSPropertyOp44
 70
     1
102
RTVSPropertyOp45
 70
     1
102
RTVSPropertyOp46
 70
     1
102
RTVSPropertyOp47
 70
     1
102
RTVSPropertyOp48
 70
     1
102
RTVSPropertyOp49
 70
     1
102
RTVSPropertyOp50
 70
     1
102
RTVSPropertyOp51
 70
     0
102
RTVSPropertyOp52
 70
     0
102
RTVSPropertyOp53
 70
     1
102
RTVSPropertyOp54
 70
     1
102
RTVSPropertyOp55
 70
     1
102
RTVSPropertyOp56
 70
     1
102
RTVSPropertyOp57
 70
     1
102
RTVSPropertyOp58
 70
     1
102
RTVSPropertyOp59
 70
     1
102
RTVSPropertyOp60
 70
     1
102
RTVSPropertyOp61
 70
     1
102
RTVSPropertyOp62
 70
     1
  0
XRECORD
  5
993F
102
{ACAD_REACTORS
330
993E
102
}
330
993E
100
AcDbXrecord
280
     1
102
RTVSPost2010Prop28
280
     0
102
RTVSPost2010PropOp28
 70
     1
102
RTVSPost2010Prop29
280
     1
102
RTVSPost2010PropOp29
 70
     1
102
RTVSPost2010Prop30
280
     1
102
RTVSPost2010PropOp30
 70
     1
102
RTVSPost2010Prop31
280
     0
102
RTVSPost2010PropOp31
 70
     1
102
RTVSPost2010Prop32
280
     0
102
RTVSPost2010PropOp32
 70
     1
102
RTVSPost2010Prop33
280
     0
102
RTVSPost2010PropOp33
 70
     1
102
RTVSPost2010Prop34
280
     0
102
RTVSPost2010PropOp34
 70
     1
102
RTVSPost2010Prop35
280
     0
102
RTVSPost2010PropOp35
 70
     1
102
RTVSPost2010Prop36
280
     0
102
RTVSPost2010PropOp36
 70
     1
102
RTVSPost2010Prop37
 90
       50
102
RTVSPost2010PropOp37
 70
     0
102
RTVSPost2010Prop38
140
0.0
102
RTVSPost2010PropOp38
 70
     0
102
RTVSPost2010Prop39
140
1.0
102
RTVSPost2010PropOp39
 70
     0
102
RTVSPost2010Prop40
 90
        0
102
RTVSPost2010PropOp40
 70
     0
102
RTVSPost2010Prop41ColorIndex
 90
       18
102
RTVSPost2010Prop41ColorRGB
 90
        0
102
RTVSPost2010PropOp41
 70
     0
102
RTVSPost2010Prop42
 90
       50
102
RTVSPost2010PropOp42
 70
     0
102
RTVSPost2010Prop43
 90
        3
102
RTVSPost2010PropOp43
 70
     0
102
RTVSPost2010Prop44ColorIndex
 90
        5
102
RTVSPost2010Prop44ColorRGB
 90
      255
102
RTVSPost2010PropOp44
 70
     0
102
RTVSPost2010Prop45
280
     0
102
RTVSPost2010PropOp45
 70
     1
102
RTVSPost2010Prop46
 90
       50
102
RTVSPost2010PropOp46
 70
     0
102
RTVSPost2010Prop47
 90
       50
102
RTVSPost2010PropOp47
 70
     0
102
RTVSPost2010Prop48
 90
       50
102
RTVSPost2010PropOp48
 70
     0
102
RTVSPost2010Prop49
280
     0
102
RTVSPost2010PropOp49
 70
     1
102
RTVSPost2010Prop50
 90
       50
102
RTVSPost2010PropOp50
 70
     0
102
RTVSPost2010Prop51ColorIndex
 90
      256
102
RTVSPost2010Prop51ColorRGB
 90
-16777216
102
RTVSPost2010PropOp51
 70
     0
102
RTVSPost2010Prop52
140
1.0
102
RTVSPost2010PropOp52
 70
     0
102
RTVSPost2010Prop53
 90
        2
102
RTVSPost2010PropOp53
 70
     0
102
RTVSPost2010Prop54
  1
strokes_ogs.tif
102
RTVSPost2010PropOp54
 70
     0
102
RTVSPost2010Prop55
280
     0
102
RTVSPost2010PropOp55
 70
     1
102
RTVSPost2010Prop56
140
1.0
102
RTVSPost2010PropOp56
 70
     0
102
RTVSPost2010Prop57
140
1.0
102
RTVSPost2010PropOp57
 70
     0
102
RTVSPropertyOp0
 70
     0
102
RTVSPropertyOp1
 70
     0
102
RTVSPropertyOp2
 70
     0
102
RTVSPropertyOp3
 70
     0
102
RTVSPropertyOp4
 70
     0
102
RTVSPropertyOp5
 70
     0
102
RTVSPropertyOp6
 70
     0
102
RTVSPropertyOp7
 70
     0
102
RTVSPropertyOp8
 70
     0
102
RTVSPropertyOp9
 70
     0
102
RTVSPropertyOp10
 70
     0
102
RTVSPropertyOp11
 70
     0
102
RTVSPropertyOp12
 70
     0
102
RTVSPropertyOp13
 70
     0
102
RTVSPropertyOp14
 70
     2
102
RTVSPropertyOp15
 70
     0
102
RTVSPropertyOp16
 70
     0
102
RTVSPropertyOp17
 70
     0
102
RTVSPropertyOp18
 70
     0
102
RTVSPropertyOp19
 70
     0
102
RTVSPropertyOp20
 70
     0
102
RTVSPropertyOp21
 70
     0
102
RTVSPropertyOp22
 70
     0
102
RTVSPropertyOp23
 70
     0
102
RTVSPropertyOp24
 70
     0
102
RTVSPropertyOp25
 70
     0
102
RTVSPropertyOp26
 70
     0
102
RTVSPropertyOp27
 70
     0
102
RTVSPropertyOp28
 70
     1
102
RTVSPropertyOp29
 70
     1
102
RTVSPropertyOp30
 70
     1
102
RTVSPropertyOp31
 70
     1
102
RTVSPropertyOp32
 70
     1
102
RTVSPropertyOp33
 70
     1
102
RTVSPropertyOp34
 70
     1
102
RTVSPropertyOp35
 70
     1
102
RTVSPropertyOp36
 70
     1
102
RTVSPropertyOp37
 70
     0
102
RTVSPropertyOp38
 70
     0
102
RTVSPropertyOp39
 70
     0
102
RTVSPropertyOp40
 70
     0
102
RTVSPropertyOp41
 70
     0
102
RTVSPropertyOp42
 70
     0
102
RTVSPropertyOp43
 70
     0
102
RTVSPropertyOp44
 70
     0
102
RTVSPropertyOp45
 70
     1
102
RTVSPropertyOp46
 70
     0
102
RTVSPropertyOp47
 70
     0
102
RTVSPropertyOp48
 70
     0
102
RTVSPropertyOp49
 70
     1
102
RTVSPropertyOp50
 70
     0
102
RTVSPropertyOp51
 70
     0
102
RTVSPropertyOp52
 70
     0
102
RTVSPropertyOp53
 70
     0
102
RTVSPropertyOp54
 70
     0
102
RTVSPropertyOp55
 70
     1
102
RTVSPropertyOp56
 70
     0
102
RTVSPropertyOp57
 70
     0
102
RTVSPropertyOp58
 70
     0
102
RTVSPropertyOp59
 70
     0
102
RTVSPropertyOp60
 70
     0
102
RTVSPropertyOp61
 70
     0
102
RTVSPropertyOp62
 70
     0
  0
XRECORD
  5
992D
102
{ACAD_REACTORS
330
992C
102
}
330
992C
100
AcDbXrecord
280
     1
102
RTVSPost2010Prop28
280
     0
102
RTVSPost2010PropOp28
 70
     1
102
RTVSPost2010Prop29
280
     1
102
RTVSPost2010PropOp29
 70
     1
102
RTVSPost2010Prop30
280
     1
102
RTVSPost2010PropOp30
 70
     1
102
RTVSPost2010Prop31
280
     0
102
RTVSPost2010PropOp31
 70
     1
102
RTVSPost2010Prop32
280
     0
102
RTVSPost2010PropOp32
 70
     1
102
RTVSPost2010Prop33
280
     0
102
RTVSPost2010PropOp33
 70
     1
102
RTVSPost2010Prop34
280
     0
102
RTVSPost2010PropOp34
 70
     1
102
RTVSPost2010Prop35
280
     0
102
RTVSPost2010PropOp35
 70
     1
102
RTVSPost2010Prop36
280
     0
102
RTVSPost2010PropOp36
 70
     1
102
RTVSPost2010Prop37
 90
       50
102
RTVSPost2010PropOp37
 70
     1
102
RTVSPost2010Prop38
140
0.0
102
RTVSPost2010PropOp38
 70
     1
102
RTVSPost2010Prop39
140
1.0
102
RTVSPost2010PropOp39
 70
     1
102
RTVSPost2010Prop40
 90
        0
102
RTVSPost2010PropOp40
 70
     1
102
RTVSPost2010Prop41ColorIndex
 90
       18
102
RTVSPost2010Prop41ColorRGB
 90
        0
102
RTVSPost2010PropOp41
 70
     1
102
RTVSPost2010Prop42
 90
       50
102
RTVSPost2010PropOp42
 70
     1
102
RTVSPost2010Prop43
 90
        3
102
RTVSPost2010PropOp43
 70
     1
102
RTVSPost2010Prop44ColorIndex
 90
        5
102
RTVSPost2010Prop44ColorRGB
 90
      255
102
RTVSPost2010PropOp44
 70
     1
102
RTVSPost2010Prop45
280
     0
102
RTVSPost2010PropOp45
 70
     1
102
RTVSPost2010Prop46
 90
       50
102
RTVSPost2010PropOp46
 70
     1
102
RTVSPost2010Prop47
 90
       50
102
RTVSPost2010PropOp47
 70
     1
102
RTVSPost2010Prop48
 90
       50
102
RTVSPost2010PropOp48
 70
     1
102
RTVSPost2010Prop49
280
     0
102
RTVSPost2010PropOp49
 70
     1
102
RTVSPost2010Prop50
 90
       50
102
RTVSPost2010PropOp50
 70
     1
102
RTVSPost2010Prop51ColorIndex
 90
      256
102
RTVSPost2010Prop51ColorRGB
 90
-16777216
102
RTVSPost2010PropOp51
 70
     0
102
RTVSPost2010Prop52
140
1.0
102
RTVSPost2010PropOp52
 70
     0
102
RTVSPost2010Prop53
 90
        2
102
RTVSPost2010PropOp53
 70
     1
102
RTVSPost2010Prop54
  1
strokes_ogs.tif
102
RTVSPost2010PropOp54
 70
     1
102
RTVSPost2010Prop55
280
     0
102
RTVSPost2010PropOp55
 70
     1
102
RTVSPost2010Prop56
140
1.0
102
RTVSPost2010PropOp56
 70
     1
102
RTVSPost2010Prop57
140
1.0
102
RTVSPost2010PropOp57
 70
     1
102
RTVSPropertyOp0
 70
     1
102
RTVSPropertyOp1
 70
     1
102
RTVSPropertyOp2
 70
     1
102
RTVSPropertyOp3
 70
     1
102
RTVSPropertyOp4
 70
     1
102
RTVSPropertyOp5
 70
     1
102
RTVSPropertyOp6
 70
     1
102
RTVSPropertyOp7
 70
     1
102
RTVSPropertyOp8
 70
     1
102
RTVSPropertyOp9
 70
     1
102
RTVSPropertyOp10
 70
     1
102
RTVSPropertyOp11
 70
     1
102
RTVSPropertyOp12
 70
     1
102
RTVSPropertyOp13
 70
     1
102
RTVSPropertyOp14
 70
     1
102
RTVSPropertyOp15
 70
     1
102
RTVSPropertyOp16
 70
     1
102
RTVSPropertyOp17
 70
     1
102
RTVSPropertyOp18
 70
     1
102
RTVSPropertyOp19
 70
     1
102
RTVSPropertyOp20
 70
     1
102
RTVSPropertyOp21
 70
     1
102
RTVSPropertyOp22
 70
     1
102
RTVSPropertyOp23
 70
     1
102
RTVSPropertyOp24
 70
     1
102
RTVSPropertyOp25
 70
     1
102
RTVSPropertyOp26
 70
     1
102
RTVSPropertyOp27
 70
     1
102
RTVSPropertyOp28
 70
     1
102
RTVSPropertyOp29
 70
     1
102
RTVSPropertyOp30
 70
     1
102
RTVSPropertyOp31
 70
     1
102
RTVSPropertyOp32
 70
     1
102
RTVSPropertyOp33
 70
     1
102
RTVSPropertyOp34
 70
     1
102
RTVSPropertyOp35
 70
     1
102
RTVSPropertyOp36
 70
     1
102
RTVSPropertyOp37
 70
     1
102
RTVSPropertyOp38
 70
     1
102
RTVSPropertyOp39
 70
     1
102
RTVSPropertyOp40
 70
     1
102
RTVSPropertyOp41
 70
     1
102
RTVSPropertyOp42
 70
     1
102
RTVSPropertyOp43
 70
     1
102
RTVSPropertyOp44
 70
     1
102
RTVSPropertyOp45
 70
     1
102
RTVSPropertyOp46
 70
     1
102
RTVSPropertyOp47
 70
     1
102
RTVSPropertyOp48
 70
     1
102
RTVSPropertyOp49
 70
     1
102
RTVSPropertyOp50
 70
     1
102
RTVSPropertyOp51
 70
     0
102
RTVSPropertyOp52
 70
     0
102
RTVSPropertyOp53
 70
     1
102
RTVSPropertyOp54
 70
     1
102
RTVSPropertyOp55
 70
     1
102
RTVSPropertyOp56
 70
     1
102
RTVSPropertyOp57
 70
     1
102
RTVSPropertyOp58
 70
     1
102
RTVSPropertyOp59
 70
     1
102
RTVSPropertyOp60
 70
     1
102
RTVSPropertyOp61
 70
     1
102
RTVSPropertyOp62
 70
     1
  0
XRECORD
  5
9911
102
{ACAD_REACTORS
330
9910
102
}
330
9910
100
AcDbXrecord
280
     1
102
RTVSPost2010Prop28
280
     0
102
RTVSPost2010PropOp28
 70
     1
102
RTVSPost2010Prop29
280
     1
102
RTVSPost2010PropOp29
 70
     1
102
RTVSPost2010Prop30
280
     1
102
RTVSPost2010PropOp30
 70
     1
102
RTVSPost2010Prop31
280
     0
102
RTVSPost2010PropOp31
 70
     1
102
RTVSPost2010Prop32
280
     0
102
RTVSPost2010PropOp32
 70
     1
102
RTVSPost2010Prop33
280
     0
102
RTVSPost2010PropOp33
 70
     1
102
RTVSPost2010Prop34
280
     0
102
RTVSPost2010PropOp34
 70
     1
102
RTVSPost2010Prop35
280
     0
102
RTVSPost2010PropOp35
 70
     1
102
RTVSPost2010Prop36
280
     0
102
RTVSPost2010PropOp36
 70
     1
102
RTVSPost2010Prop37
 90
       50
102
RTVSPost2010PropOp37
 70
     1
102
RTVSPost2010Prop38
140
0.0
102
RTVSPost2010PropOp38
 70
     1
102
RTVSPost2010Prop39
140
1.0
102
RTVSPost2010PropOp39
 70
     1
102
RTVSPost2010Prop40
 90
        0
102
RTVSPost2010PropOp40
 70
     1
102
RTVSPost2010Prop41ColorIndex
 90
       18
102
RTVSPost2010Prop41ColorRGB
 90
        0
102
RTVSPost2010PropOp41
 70
     1
102
RTVSPost2010Prop42
 90
       50
102
RTVSPost2010PropOp42
 70
     1
102
RTVSPost2010Prop43
 90
        3
102
RTVSPost2010PropOp43
 70
     1
102
RTVSPost2010Prop44ColorIndex
 90
        5
102
RTVSPost2010Prop44ColorRGB
 90
      255
102
RTVSPost2010PropOp44
 70
     1
102
RTVSPost2010Prop45
280
     0
102
RTVSPost2010PropOp45
 70
     1
102
RTVSPost2010Prop46
 90
       50
102
RTVSPost2010PropOp46
 70
     1
102
RTVSPost2010Prop47
 90
       50
102
RTVSPost2010PropOp47
 70
     1
102
RTVSPost2010Prop48
 90
       50
102
RTVSPost2010PropOp48
 70
     1
102
RTVSPost2010Prop49
280
     0
102
RTVSPost2010PropOp49
 70
     1
102
RTVSPost2010Prop50
 90
       50
102
RTVSPost2010PropOp50
 70
     1
102
RTVSPost2010Prop51ColorIndex
 90
      256
102
RTVSPost2010Prop51ColorRGB
 90
-16777216
102
RTVSPost2010PropOp51
 70
     0
102
RTVSPost2010Prop52
140
1.0
102
RTVSPost2010PropOp52
 70
     0
102
RTVSPost2010Prop53
 90
        2
102
RTVSPost2010PropOp53
 70
     1
102
RTVSPost2010Prop54
  1
strokes_ogs.tif
102
RTVSPost2010PropOp54
 70
     1
102
RTVSPost2010Prop55
280
     0
102
RTVSPost2010PropOp55
 70
     1
102
RTVSPost2010Prop56
140
1.0
102
RTVSPost2010PropOp56
 70
     1
102
RTVSPost2010Prop57
140
1.0
102
RTVSPost2010PropOp57
 70
     1
102
RTVSPropertyOp0
 70
     1
102
RTVSPropertyOp1
 70
     1
102
RTVSPropertyOp2
 70
     1
102
RTVSPropertyOp3
 70
     1
102
RTVSPropertyOp4
 70
     1
102
RTVSPropertyOp5
 70
     1
102
RTVSPropertyOp6
 70
     1
102
RTVSPropertyOp7
 70
     1
102
RTVSPropertyOp8
 70
     1
102
RTVSPropertyOp9
 70
     1
102
RTVSPropertyOp10
 70
     1
102
RTVSPropertyOp11
 70
     1
102
RTVSPropertyOp12
 70
     1
102
RTVSPropertyOp13
 70
     1
102
RTVSPropertyOp14
 70
     1
102
RTVSPropertyOp15
 70
     1
102
RTVSPropertyOp16
 70
     1
102
RTVSPropertyOp17
 70
     1
102
RTVSPropertyOp18
 70
     1
102
RTVSPropertyOp19
 70
     1
102
RTVSPropertyOp20
 70
     1
102
RTVSPropertyOp21
 70
     1
102
RTVSPropertyOp22
 70
     1
102
RTVSPropertyOp23
 70
     1
102
RTVSPropertyOp24
 70
     1
102
RTVSPropertyOp25
 70
     1
102
RTVSPropertyOp26
 70
     1
102
RTVSPropertyOp27
 70
     1
102
RTVSPropertyOp28
 70
     1
102
RTVSPropertyOp29
 70
     1
102
RTVSPropertyOp30
 70
     1
102
RTVSPropertyOp31
 70
     1
102
RTVSPropertyOp32
 70
     1
102
RTVSPropertyOp33
 70
     1
102
RTVSPropertyOp34
 70
     1
102
RTVSPropertyOp35
 70
     1
102
RTVSPropertyOp36
 70
     1
102
RTVSPropertyOp37
 70
     1
102
RTVSPropertyOp38
 70
     1
102
RTVSPropertyOp39
 70
     1
102
RTVSPropertyOp40
 70
     1
102
RTVSPropertyOp41
 70
     1
102
RTVSPropertyOp42
 70
     1
102
RTVSPropertyOp43
 70
     1
102
RTVSPropertyOp44
 70
     1
102
RTVSPropertyOp45
 70
     1
102
RTVSPropertyOp46
 70
     1
102
RTVSPropertyOp47
 70
     1
102
RTVSPropertyOp48
 70
     1
102
RTVSPropertyOp49
 70
     1
102
RTVSPropertyOp50
 70
     1
102
RTVSPropertyOp51
 70
     0
102
RTVSPropertyOp52
 70
     0
102
RTVSPropertyOp53
 70
     1
102
RTVSPropertyOp54
 70
     1
102
RTVSPropertyOp55
 70
     1
102
RTVSPropertyOp56
 70
     1
102
RTVSPropertyOp57
 70
     1
102
RTVSPropertyOp58
 70
     1
102
RTVSPropertyOp59
 70
     1
102
RTVSPropertyOp60
 70
     1
102
RTVSPropertyOp61
 70
     1
102
RTVSPropertyOp62
 70
     1
  0
XRECORD
  5
9913
102
{ACAD_REACTORS
330
9912
102
}
330
9912
100
AcDbXrecord
280
     1
102
RTVSPost2010Prop28
280
     0
102
RTVSPost2010PropOp28
 70
     1
102
RTVSPost2010Prop29
280
     1
102
RTVSPost2010PropOp29
 70
     1
102
RTVSPost2010Prop30
280
     1
102
RTVSPost2010PropOp30
 70
     1
102
RTVSPost2010Prop31
280
     0
102
RTVSPost2010PropOp31
 70
     1
102
RTVSPost2010Prop32
280
     0
102
RTVSPost2010PropOp32
 70
     1
102
RTVSPost2010Prop33
280
     0
102
RTVSPost2010PropOp33
 70
     1
102
RTVSPost2010Prop34
280
     0
102
RTVSPost2010PropOp34
 70
     1
102
RTVSPost2010Prop35
280
     0
102
RTVSPost2010PropOp35
 70
     1
102
RTVSPost2010Prop36
280
     0
102
RTVSPost2010PropOp36
 70
     1
102
RTVSPost2010Prop37
 90
       50
102
RTVSPost2010PropOp37
 70
     1
102
RTVSPost2010Prop38
140
0.0
102
RTVSPost2010PropOp38
 70
     1
102
RTVSPost2010Prop39
140
1.0
102
RTVSPost2010PropOp39
 70
     1
102
RTVSPost2010Prop40
 90
        0
102
RTVSPost2010PropOp40
 70
     1
102
RTVSPost2010Prop41ColorIndex
 90
       18
102
RTVSPost2010Prop41ColorRGB
 90
        0
102
RTVSPost2010PropOp41
 70
     1
102
RTVSPost2010Prop42
 90
       50
102
RTVSPost2010PropOp42
 70
     1
102
RTVSPost2010Prop43
 90
        3
102
RTVSPost2010PropOp43
 70
     1
102
RTVSPost2010Prop44ColorIndex
 90
        5
102
RTVSPost2010Prop44ColorRGB
 90
      255
102
RTVSPost2010PropOp44
 70
     1
102
RTVSPost2010Prop45
280
     0
102
RTVSPost2010PropOp45
 70
     1
102
RTVSPost2010Prop46
 90
       50
102
RTVSPost2010PropOp46
 70
     1
102
RTVSPost2010Prop47
 90
       50
102
RTVSPost2010PropOp47
 70
     1
102
RTVSPost2010Prop48
 90
       50
102
RTVSPost2010PropOp48
 70
     1
102
RTVSPost2010Prop49
280
     0
102
RTVSPost2010PropOp49
 70
     1
102
RTVSPost2010Prop50
 90
       50
102
RTVSPost2010PropOp50
 70
     1
102
RTVSPost2010Prop51ColorIndex
 90
      256
102
RTVSPost2010Prop51ColorRGB
 90
-16777216
102
RTVSPost2010PropOp51
 70
     0
102
RTVSPost2010Prop52
140
1.0
102
RTVSPost2010PropOp52
 70
     0
102
RTVSPost2010Prop53
 90
        2
102
RTVSPost2010PropOp53
 70
     1
102
RTVSPost2010Prop54
  1
strokes_ogs.tif
102
RTVSPost2010PropOp54
 70
     1
102
RTVSPost2010Prop55
280
     0
102
RTVSPost2010PropOp55
 70
     1
102
RTVSPost2010Prop56
140
1.0
102
RTVSPost2010PropOp56
 70
     1
102
RTVSPost2010Prop57
140
1.0
102
RTVSPost2010PropOp57
 70
     1
102
RTVSPropertyOp0
 70
     1
102
RTVSPropertyOp1
 70
     1
102
RTVSPropertyOp2
 70
     1
102
RTVSPropertyOp3
 70
     1
102
RTVSPropertyOp4
 70
     1
102
RTVSPropertyOp5
 70
     1
102
RTVSPropertyOp6
 70
     1
102
RTVSPropertyOp7
 70
     1
102
RTVSPropertyOp8
 70
     1
102
RTVSPropertyOp9
 70
     1
102
RTVSPropertyOp10
 70
     1
102
RTVSPropertyOp11
 70
     1
102
RTVSPropertyOp12
 70
     1
102
RTVSPropertyOp13
 70
     1
102
RTVSPropertyOp14
 70
     1
102
RTVSPropertyOp15
 70
     1
102
RTVSPropertyOp16
 70
     1
102
RTVSPropertyOp17
 70
     1
102
RTVSPropertyOp18
 70
     1
102
RTVSPropertyOp19
 70
     1
102
RTVSPropertyOp20
 70
     1
102
RTVSPropertyOp21
 70
     1
102
RTVSPropertyOp22
 70
     1
102
RTVSPropertyOp23
 70
     1
102
RTVSPropertyOp24
 70
     1
102
RTVSPropertyOp25
 70
     1
102
RTVSPropertyOp26
 70
     1
102
RTVSPropertyOp27
 70
     1
102
RTVSPropertyOp28
 70
     1
102
RTVSPropertyOp29
 70
     1
102
RTVSPropertyOp30
 70
     1
102
RTVSPropertyOp31
 70
     1
102
RTVSPropertyOp32
 70
     1
102
RTVSPropertyOp33
 70
     1
102
RTVSPropertyOp34
 70
     1
102
RTVSPropertyOp35
 70
     1
102
RTVSPropertyOp36
 70
     1
102
RTVSPropertyOp37
 70
     1
102
RTVSPropertyOp38
 70
     1
102
RTVSPropertyOp39
 70
     1
102
RTVSPropertyOp40
 70
     1
102
RTVSPropertyOp41
 70
     1
102
RTVSPropertyOp42
 70
     1
102
RTVSPropertyOp43
 70
     1
102
RTVSPropertyOp44
 70
     1
102
RTVSPropertyOp45
 70
     1
102
RTVSPropertyOp46
 70
     1
102
RTVSPropertyOp47
 70
     1
102
RTVSPropertyOp48
 70
     1
102
RTVSPropertyOp49
 70
     1
102
RTVSPropertyOp50
 70
     1
102
RTVSPropertyOp51
 70
     0
102
RTVSPropertyOp52
 70
     0
102
RTVSPropertyOp53
 70
     1
102
RTVSPropertyOp54
 70
     1
102
RTVSPropertyOp55
 70
     1
102
RTVSPropertyOp56
 70
     1
102
RTVSPropertyOp57
 70
     1
102
RTVSPropertyOp58
 70
     1
102
RTVSPropertyOp59
 70
     1
102
RTVSPropertyOp60
 70
     1
102
RTVSPropertyOp61
 70
     1
102
RTVSPropertyOp62
 70
     1
  0
XRECORD
  5
9915
102
{ACAD_REACTORS
330
9914
102
}
330
9914
100
AcDbXrecord
280
     1
102
RTVSPost2010Prop28
280
     0
102
RTVSPost2010PropOp28
 70
     1
102
RTVSPost2010Prop29
280
     1
102
RTVSPost2010PropOp29
 70
     1
102
RTVSPost2010Prop30
280
     1
102
RTVSPost2010PropOp30
 70
     1
102
RTVSPost2010Prop31
280
     0
102
RTVSPost2010PropOp31
 70
     1
102
RTVSPost2010Prop32
280
     0
102
RTVSPost2010PropOp32
 70
     1
102
RTVSPost2010Prop33
280
     0
102
RTVSPost2010PropOp33
 70
     1
102
RTVSPost2010Prop34
280
     0
102
RTVSPost2010PropOp34
 70
     1
102
RTVSPost2010Prop35
280
     0
102
RTVSPost2010PropOp35
 70
     1
102
RTVSPost2010Prop36
280
     0
102
RTVSPost2010PropOp36
 70
     1
102
RTVSPost2010Prop37
 90
       50
102
RTVSPost2010PropOp37
 70
     1
102
RTVSPost2010Prop38
140
0.0
102
RTVSPost2010PropOp38
 70
     1
102
RTVSPost2010Prop39
140
1.0
102
RTVSPost2010PropOp39
 70
     1
102
RTVSPost2010Prop40
 90
        0
102
RTVSPost2010PropOp40
 70
     1
102
RTVSPost2010Prop41ColorIndex
 90
       18
102
RTVSPost2010Prop41ColorRGB
 90
        0
102
RTVSPost2010PropOp41
 70
     1
102
RTVSPost2010Prop42
 90
       50
102
RTVSPost2010PropOp42
 70
     1
102
RTVSPost2010Prop43
 90
        3
102
RTVSPost2010PropOp43
 70
     1
102
RTVSPost2010Prop44ColorIndex
 90
        5
102
RTVSPost2010Prop44ColorRGB
 90
      255
102
RTVSPost2010PropOp44
 70
     1
102
RTVSPost2010Prop45
280
     0
102
RTVSPost2010PropOp45
 70
     1
102
RTVSPost2010Prop46
 90
       50
102
RTVSPost2010PropOp46
 70
     1
102
RTVSPost2010Prop47
 90
       50
102
RTVSPost2010PropOp47
 70
     1
102
RTVSPost2010Prop48
 90
       50
102
RTVSPost2010PropOp48
 70
     1
102
RTVSPost2010Prop49
280
     0
102
RTVSPost2010PropOp49
 70
     1
102
RTVSPost2010Prop50
 90
       50
102
RTVSPost2010PropOp50
 70
     1
102
RTVSPost2010Prop51ColorIndex
 90
      256
102
RTVSPost2010Prop51ColorRGB
 90
-16777216
102
RTVSPost2010PropOp51
 70
     0
102
RTVSPost2010Prop52
140
1.0
102
RTVSPost2010PropOp52
 70
     0
102
RTVSPost2010Prop53
 90
        2
102
RTVSPost2010PropOp53
 70
     1
102
RTVSPost2010Prop54
  1
strokes_ogs.tif
102
RTVSPost2010PropOp54
 70
     1
102
RTVSPost2010Prop55
280
     0
102
RTVSPost2010PropOp55
 70
     1
102
RTVSPost2010Prop56
140
1.0
102
RTVSPost2010PropOp56
 70
     1
102
RTVSPost2010Prop57
140
1.0
102
RTVSPost2010PropOp57
 70
     1
102
RTVSPropertyOp0
 70
     1
102
RTVSPropertyOp1
 70
     1
102
RTVSPropertyOp2
 70
     1
102
RTVSPropertyOp3
 70
     1
102
RTVSPropertyOp4
 70
     1
102
RTVSPropertyOp5
 70
     1
102
RTVSPropertyOp6
 70
     1
102
RTVSPropertyOp7
 70
     1
102
RTVSPropertyOp8
 70
     1
102
RTVSPropertyOp9
 70
     1
102
RTVSPropertyOp10
 70
     1
102
RTVSPropertyOp11
 70
     1
102
RTVSPropertyOp12
 70
     1
102
RTVSPropertyOp13
 70
     1
102
RTVSPropertyOp14
 70
     1
102
RTVSPropertyOp15
 70
     1
102
RTVSPropertyOp16
 70
     1
102
RTVSPropertyOp17
 70
     1
102
RTVSPropertyOp18
 70
     1
102
RTVSPropertyOp19
 70
     1
102
RTVSPropertyOp20
 70
     1
102
RTVSPropertyOp21
 70
     1
102
RTVSPropertyOp22
 70
     1
102
RTVSPropertyOp23
 70
     1
102
RTVSPropertyOp24
 70
     1
102
RTVSPropertyOp25
 70
     1
102
RTVSPropertyOp26
 70
     1
102
RTVSPropertyOp27
 70
     1
102
RTVSPropertyOp28
 70
     1
102
RTVSPropertyOp29
 70
     1
102
RTVSPropertyOp30
 70
     1
102
RTVSPropertyOp31
 70
     1
102
RTVSPropertyOp32
 70
     1
102
RTVSPropertyOp33
 70
     1
102
RTVSPropertyOp34
 70
     1
102
RTVSPropertyOp35
 70
     1
102
RTVSPropertyOp36
 70
     1
102
RTVSPropertyOp37
 70
     1
102
RTVSPropertyOp38
 70
     1
102
RTVSPropertyOp39
 70
     1
102
RTVSPropertyOp40
 70
     1
102
RTVSPropertyOp41
 70
     1
102
RTVSPropertyOp42
 70
     1
102
RTVSPropertyOp43
 70
     1
102
RTVSPropertyOp44
 70
     1
102
RTVSPropertyOp45
 70
     1
102
RTVSPropertyOp46
 70
     1
102
RTVSPropertyOp47
 70
     1
102
RTVSPropertyOp48
 70
     1
102
RTVSPropertyOp49
 70
     1
102
RTVSPropertyOp50
 70
     1
102
RTVSPropertyOp51
 70
     0
102
RTVSPropertyOp52
 70
     0
102
RTVSPropertyOp53
 70
     1
102
RTVSPropertyOp54
 70
     1
102
RTVSPropertyOp55
 70
     1
102
RTVSPropertyOp56
 70
     1
102
RTVSPropertyOp57
 70
     1
102
RTVSPropertyOp58
 70
     1
102
RTVSPropertyOp59
 70
     1
102
RTVSPropertyOp60
 70
     1
102
RTVSPropertyOp61
 70
     1
102
RTVSPropertyOp62
 70
     1
  0
XRECORD
  5
9917
102
{ACAD_REACTORS
330
9916
102
}
330
9916
100
AcDbXrecord
280
     1
102
RTVSPost2010Prop28
280
     0
102
RTVSPost2010PropOp28
 70
     1
102
RTVSPost2010Prop29
280
     1
102
RTVSPost2010PropOp29
 70
     1
102
RTVSPost2010Prop30
280
     1
102
RTVSPost2010PropOp30
 70
     1
102
RTVSPost2010Prop31
280
     0
102
RTVSPost2010PropOp31
 70
     1
102
RTVSPost2010Prop32
280
     0
102
RTVSPost2010PropOp32
 70
     1
102
RTVSPost2010Prop33
280
     0
102
RTVSPost2010PropOp33
 70
     1
102
RTVSPost2010Prop34
280
     0
102
RTVSPost2010PropOp34
 70
     1
102
RTVSPost2010Prop35
280
     0
102
RTVSPost2010PropOp35
 70
     1
102
RTVSPost2010Prop36
280
     0
102
RTVSPost2010PropOp36
 70
     1
102
RTVSPost2010Prop37
 90
       50
102
RTVSPost2010PropOp37
 70
     1
102
RTVSPost2010Prop38
140
0.0
102
RTVSPost2010PropOp38
 70
     1
102
RTVSPost2010Prop39
140
1.0
102
RTVSPost2010PropOp39
 70
     1
102
RTVSPost2010Prop40
 90
        0
102
RTVSPost2010PropOp40
 70
     1
102
RTVSPost2010Prop41ColorIndex
 90
       18
102
RTVSPost2010Prop41ColorRGB
 90
        0
102
RTVSPost2010PropOp41
 70
     1
102
RTVSPost2010Prop42
 90
       50
102
RTVSPost2010PropOp42
 70
     1
102
RTVSPost2010Prop43
 90
        3
102
RTVSPost2010PropOp43
 70
     1
102
RTVSPost2010Prop44ColorIndex
 90
        5
102
RTVSPost2010Prop44ColorRGB
 90
      255
102
RTVSPost2010PropOp44
 70
     1
102
RTVSPost2010Prop45
280
     0
102
RTVSPost2010PropOp45
 70
     1
102
RTVSPost2010Prop46
 90
       50
102
RTVSPost2010PropOp46
 70
     1
102
RTVSPost2010Prop47
 90
       50
102
RTVSPost2010PropOp47
 70
     1
102
RTVSPost2010Prop48
 90
       50
102
RTVSPost2010PropOp48
 70
     1
102
RTVSPost2010Prop49
280
     0
102
RTVSPost2010PropOp49
 70
     1
102
RTVSPost2010Prop50
 90
       50
102
RTVSPost2010PropOp50
 70
     1
102
RTVSPost2010Prop51ColorIndex
 90
      256
102
RTVSPost2010Prop51ColorRGB
 90
-16777216
102
RTVSPost2010PropOp51
 70
     0
102
RTVSPost2010Prop52
140
1.0
102
RTVSPost2010PropOp52
 70
     0
102
RTVSPost2010Prop53
 90
        2
102
RTVSPost2010PropOp53
 70
     1
102
RTVSPost2010Prop54
  1
strokes_ogs.tif
102
RTVSPost2010PropOp54
 70
     1
102
RTVSPost2010Prop55
280
     0
102
RTVSPost2010PropOp55
 70
     1
102
RTVSPost2010Prop56
140
1.0
102
RTVSPost2010PropOp56
 70
     1
102
RTVSPost2010Prop57
140
1.0
102
RTVSPost2010PropOp57
 70
     1
102
RTVSPropertyOp0
 70
     1
102
RTVSPropertyOp1
 70
     1
102
RTVSPropertyOp2
 70
     1
102
RTVSPropertyOp3
 70
     1
102
RTVSPropertyOp4
 70
     1
102
RTVSPropertyOp5
 70
     1
102
RTVSPropertyOp6
 70
     1
102
RTVSPropertyOp7
 70
     1
102
RTVSPropertyOp8
 70
     1
102
RTVSPropertyOp9
 70
     1
102
RTVSPropertyOp10
 70
     1
102
RTVSPropertyOp11
 70
     1
102
RTVSPropertyOp12
 70
     1
102
RTVSPropertyOp13
 70
     1
102
RTVSPropertyOp14
 70
     1
102
RTVSPropertyOp15
 70
     1
102
RTVSPropertyOp16
 70
     1
102
RTVSPropertyOp17
 70
     1
102
RTVSPropertyOp18
 70
     1
102
RTVSPropertyOp19
 70
     1
102
RTVSPropertyOp20
 70
     1
102
RTVSPropertyOp21
 70
     1
102
RTVSPropertyOp22
 70
     1
102
RTVSPropertyOp23
 70
     1
102
RTVSPropertyOp24
 70
     1
102
RTVSPropertyOp25
 70
     1
102
RTVSPropertyOp26
 70
     1
102
RTVSPropertyOp27
 70
     1
102
RTVSPropertyOp28
 70
     1
102
RTVSPropertyOp29
 70
     1
102
RTVSPropertyOp30
 70
     1
102
RTVSPropertyOp31
 70
     1
102
RTVSPropertyOp32
 70
     1
102
RTVSPropertyOp33
 70
     1
102
RTVSPropertyOp34
 70
     1
102
RTVSPropertyOp35
 70
     1
102
RTVSPropertyOp36
 70
     1
102
RTVSPropertyOp37
 70
     1
102
RTVSPropertyOp38
 70
     1
102
RTVSPropertyOp39
 70
     1
102
RTVSPropertyOp40
 70
     1
102
RTVSPropertyOp41
 70
     1
102
RTVSPropertyOp42
 70
     1
102
RTVSPropertyOp43
 70
     1
102
RTVSPropertyOp44
 70
     1
102
RTVSPropertyOp45
 70
     1
102
RTVSPropertyOp46
 70
     1
102
RTVSPropertyOp47
 70
     1
102
RTVSPropertyOp48
 70
     1
102
RTVSPropertyOp49
 70
     1
102
RTVSPropertyOp50
 70
     1
102
RTVSPropertyOp51
 70
     0
102
RTVSPropertyOp52
 70
     0
102
RTVSPropertyOp53
 70
     1
102
RTVSPropertyOp54
 70
     1
102
RTVSPropertyOp55
 70
     1
102
RTVSPropertyOp56
 70
     1
102
RTVSPropertyOp57
 70
     1
102
RTVSPropertyOp58
 70
     1
102
RTVSPropertyOp59
 70
     1
102
RTVSPropertyOp60
 70
     1
102
RTVSPropertyOp61
 70
     1
102
RTVSPropertyOp62
 70
     1
  0
XRECORD
  5
991F
102
{ACAD_REACTORS
330
991E
102
}
330
991E
100
AcDbXrecord
280
     1
102
RTVSPost2010Prop28
280
     0
102
RTVSPost2010PropOp28
 70
     1
102
RTVSPost2010Prop29
280
     1
102
RTVSPost2010PropOp29
 70
     1
102
RTVSPost2010Prop30
280
     1
102
RTVSPost2010PropOp30
 70
     1
102
RTVSPost2010Prop31
280
     0
102
RTVSPost2010PropOp31
 70
     1
102
RTVSPost2010Prop32
280
     0
102
RTVSPost2010PropOp32
 70
     1
102
RTVSPost2010Prop33
280
     0
102
RTVSPost2010PropOp33
 70
     1
102
RTVSPost2010Prop34
280
     0
102
RTVSPost2010PropOp34
 70
     1
102
RTVSPost2010Prop35
280
     0
102
RTVSPost2010PropOp35
 70
     1
102
RTVSPost2010Prop36
280
     0
102
RTVSPost2010PropOp36
 70
     1
102
RTVSPost2010Prop37
 90
       50
102
RTVSPost2010PropOp37
 70
     1
102
RTVSPost2010Prop38
140
0.0
102
RTVSPost2010PropOp38
 70
     1
102
RTVSPost2010Prop39
140
1.0
102
RTVSPost2010PropOp39
 70
     1
102
RTVSPost2010Prop40
 90
        0
102
RTVSPost2010PropOp40
 70
     1
102
RTVSPost2010Prop41ColorIndex
 90
       18
102
RTVSPost2010Prop41ColorRGB
 90
        0
102
RTVSPost2010PropOp41
 70
     1
102
RTVSPost2010Prop42
 90
       50
102
RTVSPost2010PropOp42
 70
     1
102
RTVSPost2010Prop43
 90
        3
102
RTVSPost2010PropOp43
 70
     1
102
RTVSPost2010Prop44ColorIndex
 90
        5
102
RTVSPost2010Prop44ColorRGB
 90
      255
102
RTVSPost2010PropOp44
 70
     1
102
RTVSPost2010Prop45
280
     0
102
RTVSPost2010PropOp45
 70
     1
102
RTVSPost2010Prop46
 90
       50
102
RTVSPost2010PropOp46
 70
     1
102
RTVSPost2010Prop47
 90
       50
102
RTVSPost2010PropOp47
 70
     1
102
RTVSPost2010Prop48
 90
       50
102
RTVSPost2010PropOp48
 70
     1
102
RTVSPost2010Prop49
280
     0
102
RTVSPost2010PropOp49
 70
     1
102
RTVSPost2010Prop50
 90
       50
102
RTVSPost2010PropOp50
 70
     1
102
RTVSPost2010Prop51ColorIndex
 90
      256
102
RTVSPost2010Prop51ColorRGB
 90
-16777216
102
RTVSPost2010PropOp51
 70
     0
102
RTVSPost2010Prop52
140
1.0
102
RTVSPost2010PropOp52
 70
     0
102
RTVSPost2010Prop53
 90
        2
102
RTVSPost2010PropOp53
 70
     1
102
RTVSPost2010Prop54
  1
strokes_ogs.tif
102
RTVSPost2010PropOp54
 70
     1
102
RTVSPost2010Prop55
280
     0
102
RTVSPost2010PropOp55
 70
     1
102
RTVSPost2010Prop56
140
1.0
102
RTVSPost2010PropOp56
 70
     1
102
RTVSPost2010Prop57
140
1.0
102
RTVSPost2010PropOp57
 70
     1
102
RTVSPropertyOp0
 70
     1
102
RTVSPropertyOp1
 70
     1
102
RTVSPropertyOp2
 70
     1
102
RTVSPropertyOp3
 70
     1
102
RTVSPropertyOp4
 70
     1
102
RTVSPropertyOp5
 70
     1
102
RTVSPropertyOp6
 70
     1
102
RTVSPropertyOp7
 70
     1
102
RTVSPropertyOp8
 70
     1
102
RTVSPropertyOp9
 70
     1
102
RTVSPropertyOp10
 70
     1
102
RTVSPropertyOp11
 70
     1
102
RTVSPropertyOp12
 70
     1
102
RTVSPropertyOp13
 70
     1
102
RTVSPropertyOp14
 70
     1
102
RTVSPropertyOp15
 70
     1
102
RTVSPropertyOp16
 70
     1
102
RTVSPropertyOp17
 70
     1
102
RTVSPropertyOp18
 70
     1
102
RTVSPropertyOp19
 70
     1
102
RTVSPropertyOp20
 70
     1
102
RTVSPropertyOp21
 70
     1
102
RTVSPropertyOp22
 70
     1
102
RTVSPropertyOp23
 70
     1
102
RTVSPropertyOp24
 70
     1
102
RTVSPropertyOp25
 70
     1
102
RTVSPropertyOp26
 70
     1
102
RTVSPropertyOp27
 70
     1
102
RTVSPropertyOp28
 70
     1
102
RTVSPropertyOp29
 70
     1
102
RTVSPropertyOp30
 70
     1
102
RTVSPropertyOp31
 70
     1
102
RTVSPropertyOp32
 70
     1
102
RTVSPropertyOp33
 70
     1
102
RTVSPropertyOp34
 70
     1
102
RTVSPropertyOp35
 70
     1
102
RTVSPropertyOp36
 70
     1
102
RTVSPropertyOp37
 70
     1
102
RTVSPropertyOp38
 70
     1
102
RTVSPropertyOp39
 70
     1
102
RTVSPropertyOp40
 70
     1
102
RTVSPropertyOp41
 70
     1
102
RTVSPropertyOp42
 70
     1
102
RTVSPropertyOp43
 70
     1
102
RTVSPropertyOp44
 70
     1
102
RTVSPropertyOp45
 70
     1
102
RTVSPropertyOp46
 70
     1
102
RTVSPropertyOp47
 70
     1
102
RTVSPropertyOp48
 70
     1
102
RTVSPropertyOp49
 70
     1
102
RTVSPropertyOp50
 70
     1
102
RTVSPropertyOp51
 70
     0
102
RTVSPropertyOp52
 70
     0
102
RTVSPropertyOp53
 70
     1
102
RTVSPropertyOp54
 70
     1
102
RTVSPropertyOp55
 70
     1
102
RTVSPropertyOp56
 70
     1
102
RTVSPropertyOp57
 70
     1
102
RTVSPropertyOp58
 70
     1
102
RTVSPropertyOp59
 70
     1
102
RTVSPropertyOp60
 70
     1
102
RTVSPropertyOp61
 70
     1
102
RTVSPropertyOp62
 70
     1
  0
XRECORD
  5
993B
102
{ACAD_REACTORS
330
993A
102
}
330
993A
100
AcDbXrecord
280
     1
102
RTVSPost2010Prop28
280
     0
102
RTVSPost2010PropOp28
 70
     1
102
RTVSPost2010Prop29
280
     1
102
RTVSPost2010PropOp29
 70
     1
102
RTVSPost2010Prop30
280
     1
102
RTVSPost2010PropOp30
 70
     1
102
RTVSPost2010Prop31
280
     0
102
RTVSPost2010PropOp31
 70
     1
102
RTVSPost2010Prop32
280
     0
102
RTVSPost2010PropOp32
 70
     1
102
RTVSPost2010Prop33
280
     0
102
RTVSPost2010PropOp33
 70
     1
102
RTVSPost2010Prop34
280
     0
102
RTVSPost2010PropOp34
 70
     1
102
RTVSPost2010Prop35
280
     0
102
RTVSPost2010PropOp35
 70
     1
102
RTVSPost2010Prop36
280
     0
102
RTVSPost2010PropOp36
 70
     1
102
RTVSPost2010Prop37
 90
       50
102
RTVSPost2010PropOp37
 70
     0
102
RTVSPost2010Prop38
140
0.0
102
RTVSPost2010PropOp38
 70
     0
102
RTVSPost2010Prop39
140
1.0
102
RTVSPost2010PropOp39
 70
     0
102
RTVSPost2010Prop40
 90
        0
102
RTVSPost2010PropOp40
 70
     0
102
RTVSPost2010Prop41ColorIndex
 90
       18
102
RTVSPost2010Prop41ColorRGB
 90
        0
102
RTVSPost2010PropOp41
 70
     0
102
RTVSPost2010Prop42
 90
       50
102
RTVSPost2010PropOp42
 70
     0
102
RTVSPost2010Prop43
 90
        3
102
RTVSPost2010PropOp43
 70
     0
102
RTVSPost2010Prop44ColorIndex
 90
        5
102
RTVSPost2010Prop44ColorRGB
 90
      255
102
RTVSPost2010PropOp44
 70
     0
102
RTVSPost2010Prop45
280
     0
102
RTVSPost2010PropOp45
 70
     1
102
RTVSPost2010Prop46
 90
       50
102
RTVSPost2010PropOp46
 70
     0
102
RTVSPost2010Prop47
 90
       50
102
RTVSPost2010PropOp47
 70
     0
102
RTVSPost2010Prop48
 90
       50
102
RTVSPost2010PropOp48
 70
     0
102
RTVSPost2010Prop49
280
     0
102
RTVSPost2010PropOp49
 70
     1
102
RTVSPost2010Prop50
 90
       50
102
RTVSPost2010PropOp50
 70
     0
102
RTVSPost2010Prop51ColorIndex
 90
      256
102
RTVSPost2010Prop51ColorRGB
 90
-16777216
102
RTVSPost2010PropOp51
 70
     0
102
RTVSPost2010Prop52
140
1.0
102
RTVSPost2010PropOp52
 70
     0
102
RTVSPost2010Prop53
 90
        2
102
RTVSPost2010PropOp53
 70
     0
102
RTVSPost2010Prop54
  1
strokes_ogs.tif
102
RTVSPost2010PropOp54
 70
     0
102
RTVSPost2010Prop55
280
     0
102
RTVSPost2010PropOp55
 70
     1
102
RTVSPost2010Prop56
140
1.0
102
RTVSPost2010PropOp56
 70
     0
102
RTVSPost2010Prop57
140
1.0
102
RTVSPost2010PropOp57
 70
     0
102
RTVSPropertyOp0
 70
     0
102
RTVSPropertyOp1
 70
     0
102
RTVSPropertyOp2
 70
     0
102
RTVSPropertyOp3
 70
     0
102
RTVSPropertyOp4
 70
     0
102
RTVSPropertyOp5
 70
     0
102
RTVSPropertyOp6
 70
     0
102
RTVSPropertyOp7
 70
     0
102
RTVSPropertyOp8
 70
     0
102
RTVSPropertyOp9
 70
     0
102
RTVSPropertyOp10
 70
     0
102
RTVSPropertyOp11
 70
     0
102
RTVSPropertyOp12
 70
     0
102
RTVSPropertyOp13
 70
     0
102
RTVSPropertyOp14
 70
     2
102
RTVSPropertyOp15
 70
     0
102
RTVSPropertyOp16
 70
     0
102
RTVSPropertyOp17
 70
     0
102
RTVSPropertyOp18
 70
     0
102
RTVSPropertyOp19
 70
     0
102
RTVSPropertyOp20
 70
     0
102
RTVSPropertyOp21
 70
     0
102
RTVSPropertyOp22
 70
     0
102
RTVSPropertyOp23
 70
     0
102
RTVSPropertyOp24
 70
     0
102
RTVSPropertyOp25
 70
     0
102
RTVSPropertyOp26
 70
     0
102
RTVSPropertyOp27
 70
     0
102
RTVSPropertyOp28
 70
     1
102
RTVSPropertyOp29
 70
     1
102
RTVSPropertyOp30
 70
     1
102
RTVSPropertyOp31
 70
     1
102
RTVSPropertyOp32
 70
     1
102
RTVSPropertyOp33
 70
     1
102
RTVSPropertyOp34
 70
     1
102
RTVSPropertyOp35
 70
     1
102
RTVSPropertyOp36
 70
     1
102
RTVSPropertyOp37
 70
     0
102
RTVSPropertyOp38
 70
     0
102
RTVSPropertyOp39
 70
     0
102
RTVSPropertyOp40
 70
     0
102
RTVSPropertyOp41
 70
     0
102
RTVSPropertyOp42
 70
     0
102
RTVSPropertyOp43
 70
     0
102
RTVSPropertyOp44
 70
     0
102
RTVSPropertyOp45
 70
     1
102
RTVSPropertyOp46
 70
     0
102
RTVSPropertyOp47
 70
     0
102
RTVSPropertyOp48
 70
     0
102
RTVSPropertyOp49
 70
     1
102
RTVSPropertyOp50
 70
     0
102
RTVSPropertyOp51
 70
     0
102
RTVSPropertyOp52
 70
     0
102
RTVSPropertyOp53
 70
     0
102
RTVSPropertyOp54
 70
     0
102
RTVSPropertyOp55
 70
     1
102
RTVSPropertyOp56
 70
     0
102
RTVSPropertyOp57
 70
     0
102
RTVSPropertyOp58
 70
     0
102
RTVSPropertyOp59
 70
     0
102
RTVSPropertyOp60
 70
     0
102
RTVSPropertyOp61
 70
     0
102
RTVSPropertyOp62
 70
     0
  0
XRECORD
  5
992B
102
{ACAD_REACTORS
330
992A
102
}
330
992A
100
AcDbXrecord
280
     1
102
RTVSPost2010Prop28
280
     0
102
RTVSPost2010PropOp28
 70
     1
102
RTVSPost2010Prop29
280
     1
102
RTVSPost2010PropOp29
 70
     1
102
RTVSPost2010Prop30
280
     1
102
RTVSPost2010PropOp30
 70
     1
102
RTVSPost2010Prop31
280
     0
102
RTVSPost2010PropOp31
 70
     1
102
RTVSPost2010Prop32
280
     0
102
RTVSPost2010PropOp32
 70
     1
102
RTVSPost2010Prop33
280
     0
102
RTVSPost2010PropOp33
 70
     1
102
RTVSPost2010Prop34
280
     0
102
RTVSPost2010PropOp34
 70
     1
102
RTVSPost2010Prop35
280
     0
102
RTVSPost2010PropOp35
 70
     1
102
RTVSPost2010Prop36
280
     0
102
RTVSPost2010PropOp36
 70
     1
102
RTVSPost2010Prop37
 90
       50
102
RTVSPost2010PropOp37
 70
     1
102
RTVSPost2010Prop38
140
0.0
102
RTVSPost2010PropOp38
 70
     1
102
RTVSPost2010Prop39
140
1.0
102
RTVSPost2010PropOp39
 70
     1
102
RTVSPost2010Prop40
 90
        0
102
RTVSPost2010PropOp40
 70
     1
102
RTVSPost2010Prop41ColorIndex
 90
       18
102
RTVSPost2010Prop41ColorRGB
 90
        0
102
RTVSPost2010PropOp41
 70
     1
102
RTVSPost2010Prop42
 90
       50
102
RTVSPost2010PropOp42
 70
     1
102
RTVSPost2010Prop43
 90
        3
102
RTVSPost2010PropOp43
 70
     1
102
RTVSPost2010Prop44ColorIndex
 90
        5
102
RTVSPost2010Prop44ColorRGB
 90
      255
102
RTVSPost2010PropOp44
 70
     1
102
RTVSPost2010Prop45
280
     0
102
RTVSPost2010PropOp45
 70
     1
102
RTVSPost2010Prop46
 90
       50
102
RTVSPost2010PropOp46
 70
     1
102
RTVSPost2010Prop47
 90
       50
102
RTVSPost2010PropOp47
 70
     1
102
RTVSPost2010Prop48
 90
       50
102
RTVSPost2010PropOp48
 70
     1
102
RTVSPost2010Prop49
280
     0
102
RTVSPost2010PropOp49
 70
     1
102
RTVSPost2010Prop50
 90
       50
102
RTVSPost2010PropOp50
 70
     1
102
RTVSPost2010Prop51ColorIndex
 90
      256
102
RTVSPost2010Prop51ColorRGB
 90
-16777216
102
RTVSPost2010PropOp51
 70
     0
102
RTVSPost2010Prop52
140
1.0
102
RTVSPost2010PropOp52
 70
     0
102
RTVSPost2010Prop53
 90
        2
102
RTVSPost2010PropOp53
 70
     1
102
RTVSPost2010Prop54
  1
strokes_ogs.tif
102
RTVSPost2010PropOp54
 70
     1
102
RTVSPost2010Prop55
280
     0
102
RTVSPost2010PropOp55
 70
     1
102
RTVSPost2010Prop56
140
1.0
102
RTVSPost2010PropOp56
 70
     1
102
RTVSPost2010Prop57
140
1.0
102
RTVSPost2010PropOp57
 70
     1
102
RTVSPropertyOp0
 70
     1
102
RTVSPropertyOp1
 70
     1
102
RTVSPropertyOp2
 70
     1
102
RTVSPropertyOp3
 70
     1
102
RTVSPropertyOp4
 70
     1
102
RTVSPropertyOp5
 70
     1
102
RTVSPropertyOp6
 70
     1
102
RTVSPropertyOp7
 70
     1
102
RTVSPropertyOp8
 70
     1
102
RTVSPropertyOp9
 70
     1
102
RTVSPropertyOp10
 70
     1
102
RTVSPropertyOp11
 70
     1
102
RTVSPropertyOp12
 70
     1
102
RTVSPropertyOp13
 70
     1
102
RTVSPropertyOp14
 70
     1
102
RTVSPropertyOp15
 70
     1
102
RTVSPropertyOp16
 70
     1
102
RTVSPropertyOp17
 70
     1
102
RTVSPropertyOp18
 70
     1
102
RTVSPropertyOp19
 70
     1
102
RTVSPropertyOp20
 70
     1
102
RTVSPropertyOp21
 70
     1
102
RTVSPropertyOp22
 70
     1
102
RTVSPropertyOp23
 70
     1
102
RTVSPropertyOp24
 70
     1
102
RTVSPropertyOp25
 70
     1
102
RTVSPropertyOp26
 70
     1
102
RTVSPropertyOp27
 70
     1
102
RTVSPropertyOp28
 70
     1
102
RTVSPropertyOp29
 70
     1
102
RTVSPropertyOp30
 70
     1
102
RTVSPropertyOp31
 70
     1
102
RTVSPropertyOp32
 70
     1
102
RTVSPropertyOp33
 70
     1
102
RTVSPropertyOp34
 70
     1
102
RTVSPropertyOp35
 70
     1
102
RTVSPropertyOp36
 70
     1
102
RTVSPropertyOp37
 70
     1
102
RTVSPropertyOp38
 70
     1
102
RTVSPropertyOp39
 70
     1
102
RTVSPropertyOp40
 70
     1
102
RTVSPropertyOp41
 70
     1
102
RTVSPropertyOp42
 70
     1
102
RTVSPropertyOp43
 70
     1
102
RTVSPropertyOp44
 70
     1
102
RTVSPropertyOp45
 70
     1
102
RTVSPropertyOp46
 70
     1
102
RTVSPropertyOp47
 70
     1
102
RTVSPropertyOp48
 70
     1
102
RTVSPropertyOp49
 70
     1
102
RTVSPropertyOp50
 70
     1
102
RTVSPropertyOp51
 70
     0
102
RTVSPropertyOp52
 70
     0
102
RTVSPropertyOp53
 70
     1
102
RTVSPropertyOp54
 70
     1
102
RTVSPropertyOp55
 70
     1
102
RTVSPropertyOp56
 70
     1
102
RTVSPropertyOp57
 70
     1
102
RTVSPropertyOp58
 70
     1
102
RTVSPropertyOp59
 70
     1
102
RTVSPropertyOp60
 70
     1
102
RTVSPropertyOp61
 70
     1
102
RTVSPropertyOp62
 70
     1
  0
XRECORD
  5
993D
102
{ACAD_REACTORS
330
993C
102
}
330
993C
100
AcDbXrecord
280
     1
102
RTVSPost2010Prop28
280
     0
102
RTVSPost2010PropOp28
 70
     1
102
RTVSPost2010Prop29
280
     1
102
RTVSPost2010PropOp29
 70
     1
102
RTVSPost2010Prop30
280
     1
102
RTVSPost2010PropOp30
 70
     1
102
RTVSPost2010Prop31
280
     0
102
RTVSPost2010PropOp31
 70
     1
102
RTVSPost2010Prop32
280
     0
102
RTVSPost2010PropOp32
 70
     1
102
RTVSPost2010Prop33
280
     0
102
RTVSPost2010PropOp33
 70
     1
102
RTVSPost2010Prop34
280
     0
102
RTVSPost2010PropOp34
 70
     1
102
RTVSPost2010Prop35
280
     0
102
RTVSPost2010PropOp35
 70
     1
102
RTVSPost2010Prop36
280
     0
102
RTVSPost2010PropOp36
 70
     1
102
RTVSPost2010Prop37
 90
       50
102
RTVSPost2010PropOp37
 70
     0
102
RTVSPost2010Prop38
140
0.0
102
RTVSPost2010PropOp38
 70
     0
102
RTVSPost2010Prop39
140
1.0
102
RTVSPost2010PropOp39
 70
     0
102
RTVSPost2010Prop40
 90
        0
102
RTVSPost2010PropOp40
 70
     0
102
RTVSPost2010Prop41ColorIndex
 90
       18
102
RTVSPost2010Prop41ColorRGB
 90
        0
102
RTVSPost2010PropOp41
 70
     0
102
RTVSPost2010Prop42
 90
       50
102
RTVSPost2010PropOp42
 70
     0
102
RTVSPost2010Prop43
 90
        3
102
RTVSPost2010PropOp43
 70
     0
102
RTVSPost2010Prop44ColorIndex
 90
        5
102
RTVSPost2010Prop44ColorRGB
 90
      255
102
RTVSPost2010PropOp44
 70
     0
102
RTVSPost2010Prop45
280
     0
102
RTVSPost2010PropOp45
 70
     1
102
RTVSPost2010Prop46
 90
       50
102
RTVSPost2010PropOp46
 70
     0
102
RTVSPost2010Prop47
 90
       50
102
RTVSPost2010PropOp47
 70
     0
102
RTVSPost2010Prop48
 90
       50
102
RTVSPost2010PropOp48
 70
     0
102
RTVSPost2010Prop49
280
     0
102
RTVSPost2010PropOp49
 70
     1
102
RTVSPost2010Prop50
 90
       50
102
RTVSPost2010PropOp50
 70
     0
102
RTVSPost2010Prop51ColorIndex
 90
      256
102
RTVSPost2010Prop51ColorRGB
 90
-16777216
102
RTVSPost2010PropOp51
 70
     0
102
RTVSPost2010Prop52
140
1.0
102
RTVSPost2010PropOp52
 70
     0
102
RTVSPost2010Prop53
 90
        2
102
RTVSPost2010PropOp53
 70
     0
102
RTVSPost2010Prop54
  1
strokes_ogs.tif
102
RTVSPost2010PropOp54
 70
     0
102
RTVSPost2010Prop55
280
     0
102
RTVSPost2010PropOp55
 70
     1
102
RTVSPost2010Prop56
140
1.0
102
RTVSPost2010PropOp56
 70
     0
102
RTVSPost2010Prop57
140
1.0
102
RTVSPost2010PropOp57
 70
     0
102
RTVSPropertyOp0
 70
     0
102
RTVSPropertyOp1
 70
     0
102
RTVSPropertyOp2
 70
     0
102
RTVSPropertyOp3
 70
     0
102
RTVSPropertyOp4
 70
     0
102
RTVSPropertyOp5
 70
     0
102
RTVSPropertyOp6
 70
     0
102
RTVSPropertyOp7
 70
     0
102
RTVSPropertyOp8
 70
     0
102
RTVSPropertyOp9
 70
     0
102
RTVSPropertyOp10
 70
     0
102
RTVSPropertyOp11
 70
     0
102
RTVSPropertyOp12
 70
     0
102
RTVSPropertyOp13
 70
     0
102
RTVSPropertyOp14
 70
     2
102
RTVSPropertyOp15
 70
     0
102
RTVSPropertyOp16
 70
     0
102
RTVSPropertyOp17
 70
     0
102
RTVSPropertyOp18
 70
     0
102
RTVSPropertyOp19
 70
     0
102
RTVSPropertyOp20
 70
     0
102
RTVSPropertyOp21
 70
     0
102
RTVSPropertyOp22
 70
     0
102
RTVSPropertyOp23
 70
     0
102
RTVSPropertyOp24
 70
     0
102
RTVSPropertyOp25
 70
     0
102
RTVSPropertyOp26
 70
     0
102
RTVSPropertyOp27
 70
     0
102
RTVSPropertyOp28
 70
     1
102
RTVSPropertyOp29
 70
     1
102
RTVSPropertyOp30
 70
     1
102
RTVSPropertyOp31
 70
     1
102
RTVSPropertyOp32
 70
     1
102
RTVSPropertyOp33
 70
     1
102
RTVSPropertyOp34
 70
     1
102
RTVSPropertyOp35
 70
     1
102
RTVSPropertyOp36
 70
     1
102
RTVSPropertyOp37
 70
     0
102
RTVSPropertyOp38
 70
     0
102
RTVSPropertyOp39
 70
     0
102
RTVSPropertyOp40
 70
     0
102
RTVSPropertyOp41
 70
     0
102
RTVSPropertyOp42
 70
     0
102
RTVSPropertyOp43
 70
     0
102
RTVSPropertyOp44
 70
     0
102
RTVSPropertyOp45
 70
     1
102
RTVSPropertyOp46
 70
     0
102
RTVSPropertyOp47
 70
     0
102
RTVSPropertyOp48
 70
     0
102
RTVSPropertyOp49
 70
     1
102
RTVSPropertyOp50
 70
     0
102
RTVSPropertyOp51
 70
     0
102
RTVSPropertyOp52
 70
     0
102
RTVSPropertyOp53
 70
     0
102
RTVSPropertyOp54
 70
     0
102
RTVSPropertyOp55
 70
     1
102
RTVSPropertyOp56
 70
     0
102
RTVSPropertyOp57
 70
     0
102
RTVSPropertyOp58
 70
     0
102
RTVSPropertyOp59
 70
     0
102
RTVSPropertyOp60
 70
     0
102
RTVSPropertyOp61
 70
     0
102
RTVSPropertyOp62
 70
     0
  0
XRECORD
  5
9923
102
{ACAD_REACTORS
330
9922
102
}
330
9922
100
AcDbXrecord
280
     1
102
RTVSPost2010Prop28
280
     0
102
RTVSPost2010PropOp28
 70
     1
102
RTVSPost2010Prop29
280
     1
102
RTVSPost2010PropOp29
 70
     1
102
RTVSPost2010Prop30
280
     1
102
RTVSPost2010PropOp30
 70
     1
102
RTVSPost2010Prop31
280
     0
102
RTVSPost2010PropOp31
 70
     1
102
RTVSPost2010Prop32
280
     0
102
RTVSPost2010PropOp32
 70
     1
102
RTVSPost2010Prop33
280
     0
102
RTVSPost2010PropOp33
 70
     1
102
RTVSPost2010Prop34
280
     0
102
RTVSPost2010PropOp34
 70
     1
102
RTVSPost2010Prop35
280
     0
102
RTVSPost2010PropOp35
 70
     1
102
RTVSPost2010Prop36
280
     0
102
RTVSPost2010PropOp36
 70
     1
102
RTVSPost2010Prop37
 90
       50
102
RTVSPost2010PropOp37
 70
     1
102
RTVSPost2010Prop38
140
0.0
102
RTVSPost2010PropOp38
 70
     1
102
RTVSPost2010Prop39
140
1.0
102
RTVSPost2010PropOp39
 70
     1
102
RTVSPost2010Prop40
 90
        0
102
RTVSPost2010PropOp40
 70
     1
102
RTVSPost2010Prop41ColorIndex
 90
       18
102
RTVSPost2010Prop41ColorRGB
 90
        0
102
RTVSPost2010PropOp41
 70
     1
102
RTVSPost2010Prop42
 90
       50
102
RTVSPost2010PropOp42
 70
     1
102
RTVSPost2010Prop43
 90
        3
102
RTVSPost2010PropOp43
 70
     1
102
RTVSPost2010Prop44ColorIndex
 90
        5
102
RTVSPost2010Prop44ColorRGB
 90
      255
102
RTVSPost2010PropOp44
 70
     1
102
RTVSPost2010Prop45
280
     0
102
RTVSPost2010PropOp45
 70
     1
102
RTVSPost2010Prop46
 90
       50
102
RTVSPost2010PropOp46
 70
     1
102
RTVSPost2010Prop47
 90
       50
102
RTVSPost2010PropOp47
 70
     1
102
RTVSPost2010Prop48
 90
       50
102
RTVSPost2010PropOp48
 70
     1
102
RTVSPost2010Prop49
280
     0
102
RTVSPost2010PropOp49
 70
     1
102
RTVSPost2010Prop50
 90
       50
102
RTVSPost2010PropOp50
 70
     1
102
RTVSPost2010Prop51ColorIndex
 90
      256
102
RTVSPost2010Prop51ColorRGB
 90
-16777216
102
RTVSPost2010PropOp51
 70
     0
102
RTVSPost2010Prop52
140
1.0
102
RTVSPost2010PropOp52
 70
     0
102
RTVSPost2010Prop53
 90
        2
102
RTVSPost2010PropOp53
 70
     1
102
RTVSPost2010Prop54
  1
strokes_ogs.tif
102
RTVSPost2010PropOp54
 70
     1
102
RTVSPost2010Prop55
280
     0
102
RTVSPost2010PropOp55
 70
     1
102
RTVSPost2010Prop56
140
1.0
102
RTVSPost2010PropOp56
 70
     1
102
RTVSPost2010Prop57
140
1.0
102
RTVSPost2010PropOp57
 70
     1
102
RTVSPropertyOp0
 70
     1
102
RTVSPropertyOp1
 70
     1
102
RTVSPropertyOp2
 70
     1
102
RTVSPropertyOp3
 70
     1
102
RTVSPropertyOp4
 70
     1
102
RTVSPropertyOp5
 70
     1
102
RTVSPropertyOp6
 70
     1
102
RTVSPropertyOp7
 70
     1
102
RTVSPropertyOp8
 70
     1
102
RTVSPropertyOp9
 70
     1
102
RTVSPropertyOp10
 70
     1
102
RTVSPropertyOp11
 70
     1
102
RTVSPropertyOp12
 70
     1
102
RTVSPropertyOp13
 70
     1
102
RTVSPropertyOp14
 70
     1
102
RTVSPropertyOp15
 70
     1
102
RTVSPropertyOp16
 70
     1
102
RTVSPropertyOp17
 70
     1
102
RTVSPropertyOp18
 70
     1
102
RTVSPropertyOp19
 70
     1
102
RTVSPropertyOp20
 70
     1
102
RTVSPropertyOp21
 70
     1
102
RTVSPropertyOp22
 70
     1
102
RTVSPropertyOp23
 70
     1
102
RTVSPropertyOp24
 70
     1
102
RTVSPropertyOp25
 70
     1
102
RTVSPropertyOp26
 70
     1
102
RTVSPropertyOp27
 70
     1
102
RTVSPropertyOp28
 70
     1
102
RTVSPropertyOp29
 70
     1
102
RTVSPropertyOp30
 70
     1
102
RTVSPropertyOp31
 70
     1
102
RTVSPropertyOp32
 70
     1
102
RTVSPropertyOp33
 70
     1
102
RTVSPropertyOp34
 70
     1
102
RTVSPropertyOp35
 70
     1
102
RTVSPropertyOp36
 70
     1
102
RTVSPropertyOp37
 70
     1
102
RTVSPropertyOp38
 70
     1
102
RTVSPropertyOp39
 70
     1
102
RTVSPropertyOp40
 70
     1
102
RTVSPropertyOp41
 70
     1
102
RTVSPropertyOp42
 70
     1
102
RTVSPropertyOp43
 70
     1
102
RTVSPropertyOp44
 70
     1
102
RTVSPropertyOp45
 70
     1
102
RTVSPropertyOp46
 70
     1
102
RTVSPropertyOp47
 70
     1
102
RTVSPropertyOp48
 70
     1
102
RTVSPropertyOp49
 70
     1
102
RTVSPropertyOp50
 70
     1
102
RTVSPropertyOp51
 70
     0
102
RTVSPropertyOp52
 70
     0
102
RTVSPropertyOp53
 70
     1
102
RTVSPropertyOp54
 70
     1
102
RTVSPropertyOp55
 70
     1
102
RTVSPropertyOp56
 70
     1
102
RTVSPropertyOp57
 70
     1
102
RTVSPropertyOp58
 70
     1
102
RTVSPropertyOp59
 70
     1
102
RTVSPropertyOp60
 70
     1
102
RTVSPropertyOp61
 70
     1
102
RTVSPropertyOp62
 70
     1
  0
XRECORD
  5
9939
102
{ACAD_REACTORS
330
9938
102
}
330
9938
100
AcDbXrecord
280
     1
102
RTVSPost2010Prop28
280
     0
102
RTVSPost2010PropOp28
 70
     1
102
RTVSPost2010Prop29
280
     1
102
RTVSPost2010PropOp29
 70
     1
102
RTVSPost2010Prop30
280
     1
102
RTVSPost2010PropOp30
 70
     1
102
RTVSPost2010Prop31
280
     0
102
RTVSPost2010PropOp31
 70
     1
102
RTVSPost2010Prop32
280
     0
102
RTVSPost2010PropOp32
 70
     1
102
RTVSPost2010Prop33
280
     0
102
RTVSPost2010PropOp33
 70
     1
102
RTVSPost2010Prop34
280
     0
102
RTVSPost2010PropOp34
 70
     1
102
RTVSPost2010Prop35
280
     0
102
RTVSPost2010PropOp35
 70
     1
102
RTVSPost2010Prop36
280
     0
102
RTVSPost2010PropOp36
 70
     1
102
RTVSPost2010Prop37
 90
       50
102
RTVSPost2010PropOp37
 70
     1
102
RTVSPost2010Prop38
140
0.0
102
RTVSPost2010PropOp38
 70
     1
102
RTVSPost2010Prop39
140
1.0
102
RTVSPost2010PropOp39
 70
     1
102
RTVSPost2010Prop40
 90
        0
102
RTVSPost2010PropOp40
 70
     1
102
RTVSPost2010Prop41ColorIndex
 90
       18
102
RTVSPost2010Prop41ColorRGB
 90
        0
102
RTVSPost2010PropOp41
 70
     1
102
RTVSPost2010Prop42
 90
       50
102
RTVSPost2010PropOp42
 70
     1
102
RTVSPost2010Prop43
 90
        3
102
RTVSPost2010PropOp43
 70
     1
102
RTVSPost2010Prop44ColorIndex
 90
        5
102
RTVSPost2010Prop44ColorRGB
 90
      255
102
RTVSPost2010PropOp44
 70
     1
102
RTVSPost2010Prop45
280
     0
102
RTVSPost2010PropOp45
 70
     1
102
RTVSPost2010Prop46
 90
       50
102
RTVSPost2010PropOp46
 70
     1
102
RTVSPost2010Prop47
 90
       50
102
RTVSPost2010PropOp47
 70
     1
102
RTVSPost2010Prop48
 90
       50
102
RTVSPost2010PropOp48
 70
     1
102
RTVSPost2010Prop49
280
     0
102
RTVSPost2010PropOp49
 70
     1
102
RTVSPost2010Prop50
 90
       50
102
RTVSPost2010PropOp50
 70
     1
102
RTVSPost2010Prop51ColorIndex
 90
      256
102
RTVSPost2010Prop51ColorRGB
 90
-16777216
102
RTVSPost2010PropOp51
 70
     0
102
RTVSPost2010Prop52
140
1.0
102
RTVSPost2010PropOp52
 70
     0
102
RTVSPost2010Prop53
 90
        2
102
RTVSPost2010PropOp53
 70
     1
102
RTVSPost2010Prop54
  1
strokes_ogs.tif
102
RTVSPost2010PropOp54
 70
     1
102
RTVSPost2010Prop55
280
     0
102
RTVSPost2010PropOp55
 70
     1
102
RTVSPost2010Prop56
140
1.0
102
RTVSPost2010PropOp56
 70
     1
102
RTVSPost2010Prop57
140
1.0
102
RTVSPost2010PropOp57
 70
     1
102
RTVSPropertyOp0
 70
     1
102
RTVSPropertyOp1
 70
     1
102
RTVSPropertyOp2
 70
     1
102
RTVSPropertyOp3
 70
     1
102
RTVSPropertyOp4
 70
     1
102
RTVSPropertyOp5
 70
     1
102
RTVSPropertyOp6
 70
     1
102
RTVSPropertyOp7
 70
     1
102
RTVSPropertyOp8
 70
     1
102
RTVSPropertyOp9
 70
     1
102
RTVSPropertyOp10
 70
     1
102
RTVSPropertyOp11
 70
     1
102
RTVSPropertyOp12
 70
     1
102
RTVSPropertyOp13
 70
     1
102
RTVSPropertyOp14
 70
     1
102
RTVSPropertyOp15
 70
     1
102
RTVSPropertyOp16
 70
     1
102
RTVSPropertyOp17
 70
     1
102
RTVSPropertyOp18
 70
     1
102
RTVSPropertyOp19
 70
     1
102
RTVSPropertyOp20
 70
     1
102
RTVSPropertyOp21
 70
     1
102
RTVSPropertyOp22
 70
     1
102
RTVSPropertyOp23
 70
     1
102
RTVSPropertyOp24
 70
     1
102
RTVSPropertyOp25
 70
     1
102
RTVSPropertyOp26
 70
     1
102
RTVSPropertyOp27
 70
     1
102
RTVSPropertyOp28
 70
     1
102
RTVSPropertyOp29
 70
     1
102
RTVSPropertyOp30
 70
     1
102
RTVSPropertyOp31
 70
     1
102
RTVSPropertyOp32
 70
     1
102
RTVSPropertyOp33
 70
     1
102
RTVSPropertyOp34
 70
     1
102
RTVSPropertyOp35
 70
     1
102
RTVSPropertyOp36
 70
     1
102
RTVSPropertyOp37
 70
     1
102
RTVSPropertyOp38
 70
     1
102
RTVSPropertyOp39
 70
     1
102
RTVSPropertyOp40
 70
     1
102
RTVSPropertyOp41
 70
     1
102
RTVSPropertyOp42
 70
     1
102
RTVSPropertyOp43
 70
     1
102
RTVSPropertyOp44
 70
     1
102
RTVSPropertyOp45
 70
     1
102
RTVSPropertyOp46
 70
     1
102
RTVSPropertyOp47
 70
     1
102
RTVSPropertyOp48
 70
     1
102
RTVSPropertyOp49
 70
     1
102
RTVSPropertyOp50
 70
     1
102
RTVSPropertyOp51
 70
     0
102
RTVSPropertyOp52
 70
     0
102
RTVSPropertyOp53
 70
     1
102
RTVSPropertyOp54
 70
     1
102
RTVSPropertyOp55
 70
     1
102
RTVSPropertyOp56
 70
     1
102
RTVSPropertyOp57
 70
     1
102
RTVSPropertyOp58
 70
     1
102
RTVSPropertyOp59
 70
     1
102
RTVSPropertyOp60
 70
     1
102
RTVSPropertyOp61
 70
     1
102
RTVSPropertyOp62
 70
     1
  0
XRECORD
  5
9937
102
{ACAD_REACTORS
330
9936
102
}
330
9936
100
AcDbXrecord
280
     1
102
RTVSPost2010Prop28
280
     0
102
RTVSPost2010PropOp28
 70
     1
102
RTVSPost2010Prop29
280
     1
102
RTVSPost2010PropOp29
 70
     1
102
RTVSPost2010Prop30
280
     1
102
RTVSPost2010PropOp30
 70
     1
102
RTVSPost2010Prop31
280
     0
102
RTVSPost2010PropOp31
 70
     1
102
RTVSPost2010Prop32
280
     0
102
RTVSPost2010PropOp32
 70
     1
102
RTVSPost2010Prop33
280
     0
102
RTVSPost2010PropOp33
 70
     1
102
RTVSPost2010Prop34
280
     0
102
RTVSPost2010PropOp34
 70
     1
102
RTVSPost2010Prop35
280
     0
102
RTVSPost2010PropOp35
 70
     1
102
RTVSPost2010Prop36
280
     0
102
RTVSPost2010PropOp36
 70
     1
102
RTVSPost2010Prop37
 90
       50
102
RTVSPost2010PropOp37
 70
     1
102
RTVSPost2010Prop38
140
0.0
102
RTVSPost2010PropOp38
 70
     1
102
RTVSPost2010Prop39
140
1.0
102
RTVSPost2010PropOp39
 70
     1
102
RTVSPost2010Prop40
 90
        0
102
RTVSPost2010PropOp40
 70
     1
102
RTVSPost2010Prop41ColorIndex
 90
       18
102
RTVSPost2010Prop41ColorRGB
 90
        0
102
RTVSPost2010PropOp41
 70
     1
102
RTVSPost2010Prop42
 90
       50
102
RTVSPost2010PropOp42
 70
     1
102
RTVSPost2010Prop43
 90
        3
102
RTVSPost2010PropOp43
 70
     1
102
RTVSPost2010Prop44ColorIndex
 90
        5
102
RTVSPost2010Prop44ColorRGB
 90
      255
102
RTVSPost2010PropOp44
 70
     1
102
RTVSPost2010Prop45
280
     0
102
RTVSPost2010PropOp45
 70
     1
102
RTVSPost2010Prop46
 90
       50
102
RTVSPost2010PropOp46
 70
     1
102
RTVSPost2010Prop47
 90
       50
102
RTVSPost2010PropOp47
 70
     1
102
RTVSPost2010Prop48
 90
       50
102
RTVSPost2010PropOp48
 70
     1
102
RTVSPost2010Prop49
280
     0
102
RTVSPost2010PropOp49
 70
     1
102
RTVSPost2010Prop50
 90
       50
102
RTVSPost2010PropOp50
 70
     1
102
RTVSPost2010Prop51ColorIndex
 90
      256
102
RTVSPost2010Prop51ColorRGB
 90
-16777216
102
RTVSPost2010PropOp51
 70
     0
102
RTVSPost2010Prop52
140
1.0
102
RTVSPost2010PropOp52
 70
     0
102
RTVSPost2010Prop53
 90
        2
102
RTVSPost2010PropOp53
 70
     1
102
RTVSPost2010Prop54
  1
strokes_ogs.tif
102
RTVSPost2010PropOp54
 70
     1
102
RTVSPost2010Prop55
280
     0
102
RTVSPost2010PropOp55
 70
     1
102
RTVSPost2010Prop56
140
1.0
102
RTVSPost2010PropOp56
 70
     1
102
RTVSPost2010Prop57
140
1.0
102
RTVSPost2010PropOp57
 70
     1
102
RTVSPropertyOp0
 70
     1
102
RTVSPropertyOp1
 70
     1
102
RTVSPropertyOp2
 70
     1
102
RTVSPropertyOp3
 70
     1
102
RTVSPropertyOp4
 70
     1
102
RTVSPropertyOp5
 70
     1
102
RTVSPropertyOp6
 70
     1
102
RTVSPropertyOp7
 70
     1
102
RTVSPropertyOp8
 70
     1
102
RTVSPropertyOp9
 70
     1
102
RTVSPropertyOp10
 70
     1
102
RTVSPropertyOp11
 70
     1
102
RTVSPropertyOp12
 70
     1
102
RTVSPropertyOp13
 70
     1
102
RTVSPropertyOp14
 70
     1
102
RTVSPropertyOp15
 70
     1
102
RTVSPropertyOp16
 70
     1
102
RTVSPropertyOp17
 70
     1
102
RTVSPropertyOp18
 70
     1
102
RTVSPropertyOp19
 70
     1
102
RTVSPropertyOp20
 70
     1
102
RTVSPropertyOp21
 70
     1
102
RTVSPropertyOp22
 70
     1
102
RTVSPropertyOp23
 70
     1
102
RTVSPropertyOp24
 70
     1
102
RTVSPropertyOp25
 70
     1
102
RTVSPropertyOp26
 70
     1
102
RTVSPropertyOp27
 70
     1
102
RTVSPropertyOp28
 70
     1
102
RTVSPropertyOp29
 70
     1
102
RTVSPropertyOp30
 70
     1
102
RTVSPropertyOp31
 70
     1
102
RTVSPropertyOp32
 70
     1
102
RTVSPropertyOp33
 70
     1
102
RTVSPropertyOp34
 70
     1
102
RTVSPropertyOp35
 70
     1
102
RTVSPropertyOp36
 70
     1
102
RTVSPropertyOp37
 70
     1
102
RTVSPropertyOp38
 70
     1
102
RTVSPropertyOp39
 70
     1
102
RTVSPropertyOp40
 70
     1
102
RTVSPropertyOp41
 70
     1
102
RTVSPropertyOp42
 70
     1
102
RTVSPropertyOp43
 70
     1
102
RTVSPropertyOp44
 70
     1
102
RTVSPropertyOp45
 70
     1
102
RTVSPropertyOp46
 70
     1
102
RTVSPropertyOp47
 70
     1
102
RTVSPropertyOp48
 70
     1
102
RTVSPropertyOp49
 70
     1
102
RTVSPropertyOp50
 70
     1
102
RTVSPropertyOp51
 70
     0
102
RTVSPropertyOp52
 70
     0
102
RTVSPropertyOp53
 70
     1
102
RTVSPropertyOp54
 70
     1
102
RTVSPropertyOp55
 70
     1
102
RTVSPropertyOp56
 70
     1
102
RTVSPropertyOp57
 70
     1
102
RTVSPropertyOp58
 70
     1
102
RTVSPropertyOp59
 70
     1
102
RTVSPropertyOp60
 70
     1
102
RTVSPropertyOp61
 70
     1
102
RTVSPropertyOp62
 70
     1
  0
XRECORD
  5
9931
102
{ACAD_REACTORS
330
9930
102
}
330
9930
100
AcDbXrecord
280
     1
102
RTVSPost2010Prop28
280
     0
102
RTVSPost2010PropOp28
 70
     1
102
RTVSPost2010Prop29
280
     1
102
RTVSPost2010PropOp29
 70
     1
102
RTVSPost2010Prop30
280
     1
102
RTVSPost2010PropOp30
 70
     1
102
RTVSPost2010Prop31
280
     0
102
RTVSPost2010PropOp31
 70
     1
102
RTVSPost2010Prop32
280
     0
102
RTVSPost2010PropOp32
 70
     1
102
RTVSPost2010Prop33
280
     0
102
RTVSPost2010PropOp33
 70
     1
102
RTVSPost2010Prop34
280
     0
102
RTVSPost2010PropOp34
 70
     1
102
RTVSPost2010Prop35
280
     0
102
RTVSPost2010PropOp35
 70
     1
102
RTVSPost2010Prop36
280
     0
102
RTVSPost2010PropOp36
 70
     1
102
RTVSPost2010Prop37
 90
       50
102
RTVSPost2010PropOp37
 70
     1
102
RTVSPost2010Prop38
140
0.0
102
RTVSPost2010PropOp38
 70
     1
102
RTVSPost2010Prop39
140
1.0
102
RTVSPost2010PropOp39
 70
     1
102
RTVSPost2010Prop40
 90
        0
102
RTVSPost2010PropOp40
 70
     1
102
RTVSPost2010Prop41ColorIndex
 90
       18
102
RTVSPost2010Prop41ColorRGB
 90
        0
102
RTVSPost2010PropOp41
 70
     1
102
RTVSPost2010Prop42
 90
       50
102
RTVSPost2010PropOp42
 70
     1
102
RTVSPost2010Prop43
 90
        3
102
RTVSPost2010PropOp43
 70
     1
102
RTVSPost2010Prop44ColorIndex
 90
        5
102
RTVSPost2010Prop44ColorRGB
 90
      255
102
RTVSPost2010PropOp44
 70
     1
102
RTVSPost2010Prop45
280
     0
102
RTVSPost2010PropOp45
 70
     1
102
RTVSPost2010Prop46
 90
       50
102
RTVSPost2010PropOp46
 70
     1
102
RTVSPost2010Prop47
 90
       50
102
RTVSPost2010PropOp47
 70
     1
102
RTVSPost2010Prop48
 90
       50
102
RTVSPost2010PropOp48
 70
     1
102
RTVSPost2010Prop49
280
     0
102
RTVSPost2010PropOp49
 70
     1
102
RTVSPost2010Prop50
 90
       50
102
RTVSPost2010PropOp50
 70
     1
102
RTVSPost2010Prop51ColorIndex
 90
      256
102
RTVSPost2010Prop51ColorRGB
 90
-16777216
102
RTVSPost2010PropOp51
 70
     0
102
RTVSPost2010Prop52
140
1.0
102
RTVSPost2010PropOp52
 70
     0
102
RTVSPost2010Prop53
 90
        2
102
RTVSPost2010PropOp53
 70
     1
102
RTVSPost2010Prop54
  1
strokes_ogs.tif
102
RTVSPost2010PropOp54
 70
     1
102
RTVSPost2010Prop55
280
     0
102
RTVSPost2010PropOp55
 70
     1
102
RTVSPost2010Prop56
140
1.0
102
RTVSPost2010PropOp56
 70
     1
102
RTVSPost2010Prop57
140
1.0
102
RTVSPost2010PropOp57
 70
     1
102
RTVSPropertyOp0
 70
     1
102
RTVSPropertyOp1
 70
     1
102
RTVSPropertyOp2
 70
     1
102
RTVSPropertyOp3
 70
     1
102
RTVSPropertyOp4
 70
     1
102
RTVSPropertyOp5
 70
     1
102
RTVSPropertyOp6
 70
     1
102
RTVSPropertyOp7
 70
     1
102
RTVSPropertyOp8
 70
     1
102
RTVSPropertyOp9
 70
     1
102
RTVSPropertyOp10
 70
     1
102
RTVSPropertyOp11
 70
     1
102
RTVSPropertyOp12
 70
     1
102
RTVSPropertyOp13
 70
     1
102
RTVSPropertyOp14
 70
     1
102
RTVSPropertyOp15
 70
     1
102
RTVSPropertyOp16
 70
     1
102
RTVSPropertyOp17
 70
     1
102
RTVSPropertyOp18
 70
     1
102
RTVSPropertyOp19
 70
     1
102
RTVSPropertyOp20
 70
     1
102
RTVSPropertyOp21
 70
     1
102
RTVSPropertyOp22
 70
     1
102
RTVSPropertyOp23
 70
     1
102
RTVSPropertyOp24
 70
     1
102
RTVSPropertyOp25
 70
     1
102
RTVSPropertyOp26
 70
     1
102
RTVSPropertyOp27
 70
     1
102
RTVSPropertyOp28
 70
     1
102
RTVSPropertyOp29
 70
     1
102
RTVSPropertyOp30
 70
     1
102
RTVSPropertyOp31
 70
     1
102
RTVSPropertyOp32
 70
     1
102
RTVSPropertyOp33
 70
     1
102
RTVSPropertyOp34
 70
     1
102
RTVSPropertyOp35
 70
     1
102
RTVSPropertyOp36
 70
     1
102
RTVSPropertyOp37
 70
     1
102
RTVSPropertyOp38
 70
     1
102
RTVSPropertyOp39
 70
     1
102
RTVSPropertyOp40
 70
     1
102
RTVSPropertyOp41
 70
     1
102
RTVSPropertyOp42
 70
     1
102
RTVSPropertyOp43
 70
     1
102
RTVSPropertyOp44
 70
     1
102
RTVSPropertyOp45
 70
     1
102
RTVSPropertyOp46
 70
     1
102
RTVSPropertyOp47
 70
     1
102
RTVSPropertyOp48
 70
     1
102
RTVSPropertyOp49
 70
     1
102
RTVSPropertyOp50
 70
     1
102
RTVSPropertyOp51
 70
     0
102
RTVSPropertyOp52
 70
     0
102
RTVSPropertyOp53
 70
     1
102
RTVSPropertyOp54
 70
     1
102
RTVSPropertyOp55
 70
     1
102
RTVSPropertyOp56
 70
     1
102
RTVSPropertyOp57
 70
     1
102
RTVSPropertyOp58
 70
     1
102
RTVSPropertyOp59
 70
     1
102
RTVSPropertyOp60
 70
     1
102
RTVSPropertyOp61
 70
     1
102
RTVSPropertyOp62
 70
     1
  0
XRECORD
  5
9933
102
{ACAD_REACTORS
330
9932
102
}
330
9932
100
AcDbXrecord
280
     1
102
RTVSPost2010Prop28
280
     0
102
RTVSPost2010PropOp28
 70
     1
102
RTVSPost2010Prop29
280
     1
102
RTVSPost2010PropOp29
 70
     1
102
RTVSPost2010Prop30
280
     1
102
RTVSPost2010PropOp30
 70
     1
102
RTVSPost2010Prop31
280
     0
102
RTVSPost2010PropOp31
 70
     1
102
RTVSPost2010Prop32
280
     0
102
RTVSPost2010PropOp32
 70
     1
102
RTVSPost2010Prop33
280
     0
102
RTVSPost2010PropOp33
 70
     1
102
RTVSPost2010Prop34
280
     0
102
RTVSPost2010PropOp34
 70
     1
102
RTVSPost2010Prop35
280
     0
102
RTVSPost2010PropOp35
 70
     1
102
RTVSPost2010Prop36
280
     0
102
RTVSPost2010PropOp36
 70
     1
102
RTVSPost2010Prop37
 90
       50
102
RTVSPost2010PropOp37
 70
     1
102
RTVSPost2010Prop38
140
0.0
102
RTVSPost2010PropOp38
 70
     1
102
RTVSPost2010Prop39
140
1.0
102
RTVSPost2010PropOp39
 70
     1
102
RTVSPost2010Prop40
 90
        0
102
RTVSPost2010PropOp40
 70
     1
102
RTVSPost2010Prop41ColorIndex
 90
       18
102
RTVSPost2010Prop41ColorRGB
 90
        0
102
RTVSPost2010PropOp41
 70
     1
102
RTVSPost2010Prop42
 90
       50
102
RTVSPost2010PropOp42
 70
     1
102
RTVSPost2010Prop43
 90
        3
102
RTVSPost2010PropOp43
 70
     1
102
RTVSPost2010Prop44ColorIndex
 90
        5
102
RTVSPost2010Prop44ColorRGB
 90
      255
102
RTVSPost2010PropOp44
 70
     1
102
RTVSPost2010Prop45
280
     0
102
RTVSPost2010PropOp45
 70
     1
102
RTVSPost2010Prop46
 90
       50
102
RTVSPost2010PropOp46
 70
     1
102
RTVSPost2010Prop47
 90
       50
102
RTVSPost2010PropOp47
 70
     1
102
RTVSPost2010Prop48
 90
       50
102
RTVSPost2010PropOp48
 70
     1
102
RTVSPost2010Prop49
280
     0
102
RTVSPost2010PropOp49
 70
     1
102
RTVSPost2010Prop50
 90
       50
102
RTVSPost2010PropOp50
 70
     1
102
RTVSPost2010Prop51ColorIndex
 90
      256
102
RTVSPost2010Prop51ColorRGB
 90
-16777216
102
RTVSPost2010PropOp51
 70
     0
102
RTVSPost2010Prop52
140
1.0
102
RTVSPost2010PropOp52
 70
     0
102
RTVSPost2010Prop53
 90
        2
102
RTVSPost2010PropOp53
 70
     1
102
RTVSPost2010Prop54
  1
strokes_ogs.tif
102
RTVSPost2010PropOp54
 70
     1
102
RTVSPost2010Prop55
280
     0
102
RTVSPost2010PropOp55
 70
     1
102
RTVSPost2010Prop56
140
1.0
102
RTVSPost2010PropOp56
 70
     1
102
RTVSPost2010Prop57
140
1.0
102
RTVSPost2010PropOp57
 70
     1
102
RTVSPropertyOp0
 70
     1
102
RTVSPropertyOp1
 70
     1
102
RTVSPropertyOp2
 70
     1
102
RTVSPropertyOp3
 70
     1
102
RTVSPropertyOp4
 70
     1
102
RTVSPropertyOp5
 70
     1
102
RTVSPropertyOp6
 70
     1
102
RTVSPropertyOp7
 70
     1
102
RTVSPropertyOp8
 70
     1
102
RTVSPropertyOp9
 70
     1
102
RTVSPropertyOp10
 70
     1
102
RTVSPropertyOp11
 70
     1
102
RTVSPropertyOp12
 70
     1
102
RTVSPropertyOp13
 70
     1
102
RTVSPropertyOp14
 70
     1
102
RTVSPropertyOp15
 70
     1
102
RTVSPropertyOp16
 70
     1
102
RTVSPropertyOp17
 70
     1
102
RTVSPropertyOp18
 70
     1
102
RTVSPropertyOp19
 70
     1
102
RTVSPropertyOp20
 70
     1
102
RTVSPropertyOp21
 70
     1
102
RTVSPropertyOp22
 70
     1
102
RTVSPropertyOp23
 70
     1
102
RTVSPropertyOp24
 70
     1
102
RTVSPropertyOp25
 70
     1
102
RTVSPropertyOp26
 70
     1
102
RTVSPropertyOp27
 70
     1
102
RTVSPropertyOp28
 70
     1
102
RTVSPropertyOp29
 70
     1
102
RTVSPropertyOp30
 70
     1
102
RTVSPropertyOp31
 70
     1
102
RTVSPropertyOp32
 70
     1
102
RTVSPropertyOp33
 70
     1
102
RTVSPropertyOp34
 70
     1
102
RTVSPropertyOp35
 70
     1
102
RTVSPropertyOp36
 70
     1
102
RTVSPropertyOp37
 70
     1
102
RTVSPropertyOp38
 70
     1
102
RTVSPropertyOp39
 70
     1
102
RTVSPropertyOp40
 70
     1
102
RTVSPropertyOp41
 70
     1
102
RTVSPropertyOp42
 70
     1
102
RTVSPropertyOp43
 70
     1
102
RTVSPropertyOp44
 70
     1
102
RTVSPropertyOp45
 70
     1
102
RTVSPropertyOp46
 70
     1
102
RTVSPropertyOp47
 70
     1
102
RTVSPropertyOp48
 70
     1
102
RTVSPropertyOp49
 70
     1
102
RTVSPropertyOp50
 70
     1
102
RTVSPropertyOp51
 70
     0
102
RTVSPropertyOp52
 70
     0
102
RTVSPropertyOp53
 70
     1
102
RTVSPropertyOp54
 70
     1
102
RTVSPropertyOp55
 70
     1
102
RTVSPropertyOp56
 70
     1
102
RTVSPropertyOp57
 70
     1
102
RTVSPropertyOp58
 70
     1
102
RTVSPropertyOp59
 70
     1
102
RTVSPropertyOp60
 70
     1
102
RTVSPropertyOp61
 70
     1
102
RTVSPropertyOp62
 70
     1
  0
XRECORD
  5
9929
102
{ACAD_REACTORS
330
9928
102
}
330
9928
100
AcDbXrecord
280
     1
102
RTVSPost2010Prop28
280
     0
102
RTVSPost2010PropOp28
 70
     1
102
RTVSPost2010Prop29
280
     1
102
RTVSPost2010PropOp29
 70
     1
102
RTVSPost2010Prop30
280
     1
102
RTVSPost2010PropOp30
 70
     1
102
RTVSPost2010Prop31
280
     0
102
RTVSPost2010PropOp31
 70
     1
102
RTVSPost2010Prop32
280
     0
102
RTVSPost2010PropOp32
 70
     1
102
RTVSPost2010Prop33
280
     0
102
RTVSPost2010PropOp33
 70
     1
102
RTVSPost2010Prop34
280
     0
102
RTVSPost2010PropOp34
 70
     1
102
RTVSPost2010Prop35
280
     0
102
RTVSPost2010PropOp35
 70
     1
102
RTVSPost2010Prop36
280
     0
102
RTVSPost2010PropOp36
 70
     1
102
RTVSPost2010Prop37
 90
       50
102
RTVSPost2010PropOp37
 70
     1
102
RTVSPost2010Prop38
140
0.0
102
RTVSPost2010PropOp38
 70
     1
102
RTVSPost2010Prop39
140
1.0
102
RTVSPost2010PropOp39
 70
     1
102
RTVSPost2010Prop40
 90
        0
102
RTVSPost2010PropOp40
 70
     1
102
RTVSPost2010Prop41ColorIndex
 90
       18
102
RTVSPost2010Prop41ColorRGB
 90
        0
102
RTVSPost2010PropOp41
 70
     1
102
RTVSPost2010Prop42
 90
       50
102
RTVSPost2010PropOp42
 70
     1
102
RTVSPost2010Prop43
 90
        3
102
RTVSPost2010PropOp43
 70
     1
102
RTVSPost2010Prop44ColorIndex
 90
        5
102
RTVSPost2010Prop44ColorRGB
 90
      255
102
RTVSPost2010PropOp44
 70
     1
102
RTVSPost2010Prop45
280
     0
102
RTVSPost2010PropOp45
 70
     1
102
RTVSPost2010Prop46
 90
       50
102
RTVSPost2010PropOp46
 70
     1
102
RTVSPost2010Prop47
 90
       50
102
RTVSPost2010PropOp47
 70
     1
102
RTVSPost2010Prop48
 90
       50
102
RTVSPost2010PropOp48
 70
     1
102
RTVSPost2010Prop49
280
     0
102
RTVSPost2010PropOp49
 70
     1
102
RTVSPost2010Prop50
 90
       50
102
RTVSPost2010PropOp50
 70
     1
102
RTVSPost2010Prop51ColorIndex
 90
      256
102
RTVSPost2010Prop51ColorRGB
 90
-16777216
102
RTVSPost2010PropOp51
 70
     0
102
RTVSPost2010Prop52
140
1.0
102
RTVSPost2010PropOp52
 70
     0
102
RTVSPost2010Prop53
 90
        2
102
RTVSPost2010PropOp53
 70
     1
102
RTVSPost2010Prop54
  1
strokes_ogs.tif
102
RTVSPost2010PropOp54
 70
     1
102
RTVSPost2010Prop55
280
     0
102
RTVSPost2010PropOp55
 70
     1
102
RTVSPost2010Prop56
140
1.0
102
RTVSPost2010PropOp56
 70
     1
102
RTVSPost2010Prop57
140
1.0
102
RTVSPost2010PropOp57
 70
     1
102
RTVSPropertyOp0
 70
     1
102
RTVSPropertyOp1
 70
     1
102
RTVSPropertyOp2
 70
     1
102
RTVSPropertyOp3
 70
     1
102
RTVSPropertyOp4
 70
     1
102
RTVSPropertyOp5
 70
     1
102
RTVSPropertyOp6
 70
     1
102
RTVSPropertyOp7
 70
     1
102
RTVSPropertyOp8
 70
     1
102
RTVSPropertyOp9
 70
     1
102
RTVSPropertyOp10
 70
     1
102
RTVSPropertyOp11
 70
     1
102
RTVSPropertyOp12
 70
     1
102
RTVSPropertyOp13
 70
     1
102
RTVSPropertyOp14
 70
     1
102
RTVSPropertyOp15
 70
     1
102
RTVSPropertyOp16
 70
     1
102
RTVSPropertyOp17
 70
     1
102
RTVSPropertyOp18
 70
     1
102
RTVSPropertyOp19
 70
     1
102
RTVSPropertyOp20
 70
     1
102
RTVSPropertyOp21
 70
     1
102
RTVSPropertyOp22
 70
     1
102
RTVSPropertyOp23
 70
     1
102
RTVSPropertyOp24
 70
     1
102
RTVSPropertyOp25
 70
     1
102
RTVSPropertyOp26
 70
     1
102
RTVSPropertyOp27
 70
     1
102
RTVSPropertyOp28
 70
     1
102
RTVSPropertyOp29
 70
     1
102
RTVSPropertyOp30
 70
     1
102
RTVSPropertyOp31
 70
     1
102
RTVSPropertyOp32
 70
     1
102
RTVSPropertyOp33
 70
     1
102
RTVSPropertyOp34
 70
     1
102
RTVSPropertyOp35
 70
     1
102
RTVSPropertyOp36
 70
     1
102
RTVSPropertyOp37
 70
     1
102
RTVSPropertyOp38
 70
     1
102
RTVSPropertyOp39
 70
     1
102
RTVSPropertyOp40
 70
     1
102
RTVSPropertyOp41
 70
     1
102
RTVSPropertyOp42
 70
     1
102
RTVSPropertyOp43
 70
     1
102
RTVSPropertyOp44
 70
     1
102
RTVSPropertyOp45
 70
     1
102
RTVSPropertyOp46
 70
     1
102
RTVSPropertyOp47
 70
     1
102
RTVSPropertyOp48
 70
     1
102
RTVSPropertyOp49
 70
     1
102
RTVSPropertyOp50
 70
     1
102
RTVSPropertyOp51
 70
     0
102
RTVSPropertyOp52
 70
     0
102
RTVSPropertyOp53
 70
     1
102
RTVSPropertyOp54
 70
     1
102
RTVSPropertyOp55
 70
     1
102
RTVSPropertyOp56
 70
     1
102
RTVSPropertyOp57
 70
     1
102
RTVSPropertyOp58
 70
     1
102
RTVSPropertyOp59
 70
     1
102
RTVSPropertyOp60
 70
     1
102
RTVSPropertyOp61
 70
     1
102
RTVSPropertyOp62
 70
     1
  0
XRECORD
  5
991D
102
{ACAD_REACTORS
330
991C
102
}
330
991C
100
AcDbXrecord
280
     1
102
RTVSPost2010Prop28
280
     0
102
RTVSPost2010PropOp28
 70
     1
102
RTVSPost2010Prop29
280
     1
102
RTVSPost2010PropOp29
 70
     1
102
RTVSPost2010Prop30
280
     1
102
RTVSPost2010PropOp30
 70
     1
102
RTVSPost2010Prop31
280
     0
102
RTVSPost2010PropOp31
 70
     1
102
RTVSPost2010Prop32
280
     0
102
RTVSPost2010PropOp32
 70
     1
102
RTVSPost2010Prop33
280
     0
102
RTVSPost2010PropOp33
 70
     1
102
RTVSPost2010Prop34
280
     0
102
RTVSPost2010PropOp34
 70
     1
102
RTVSPost2010Prop35
280
     0
102
RTVSPost2010PropOp35
 70
     1
102
RTVSPost2010Prop36
280
     0
102
RTVSPost2010PropOp36
 70
     1
102
RTVSPost2010Prop37
 90
       50
102
RTVSPost2010PropOp37
 70
     1
102
RTVSPost2010Prop38
140
0.0
102
RTVSPost2010PropOp38
 70
     1
102
RTVSPost2010Prop39
140
1.0
102
RTVSPost2010PropOp39
 70
     1
102
RTVSPost2010Prop40
 90
        0
102
RTVSPost2010PropOp40
 70
     1
102
RTVSPost2010Prop41ColorIndex
 90
       18
102
RTVSPost2010Prop41ColorRGB
 90
        0
102
RTVSPost2010PropOp41
 70
     1
102
RTVSPost2010Prop42
 90
       50
102
RTVSPost2010PropOp42
 70
     1
102
RTVSPost2010Prop43
 90
        3
102
RTVSPost2010PropOp43
 70
     1
102
RTVSPost2010Prop44ColorIndex
 90
        5
102
RTVSPost2010Prop44ColorRGB
 90
      255
102
RTVSPost2010PropOp44
 70
     1
102
RTVSPost2010Prop45
280
     0
102
RTVSPost2010PropOp45
 70
     1
102
RTVSPost2010Prop46
 90
       50
102
RTVSPost2010PropOp46
 70
     1
102
RTVSPost2010Prop47
 90
       50
102
RTVSPost2010PropOp47
 70
     1
102
RTVSPost2010Prop48
 90
       50
102
RTVSPost2010PropOp48
 70
     1
102
RTVSPost2010Prop49
280
     0
102
RTVSPost2010PropOp49
 70
     1
102
RTVSPost2010Prop50
 90
       50
102
RTVSPost2010PropOp50
 70
     1
102
RTVSPost2010Prop51ColorIndex
 90
      256
102
RTVSPost2010Prop51ColorRGB
 90
-16777216
102
RTVSPost2010PropOp51
 70
     0
102
RTVSPost2010Prop52
140
1.0
102
RTVSPost2010PropOp52
 70
     0
102
RTVSPost2010Prop53
 90
        2
102
RTVSPost2010PropOp53
 70
     1
102
RTVSPost2010Prop54
  1
strokes_ogs.tif
102
RTVSPost2010PropOp54
 70
     1
102
RTVSPost2010Prop55
280
     0
102
RTVSPost2010PropOp55
 70
     1
102
RTVSPost2010Prop56
140
1.0
102
RTVSPost2010PropOp56
 70
     1
102
RTVSPost2010Prop57
140
1.0
102
RTVSPost2010PropOp57
 70
     1
102
RTVSPropertyOp0
 70
     1
102
RTVSPropertyOp1
 70
     1
102
RTVSPropertyOp2
 70
     1
102
RTVSPropertyOp3
 70
     1
102
RTVSPropertyOp4
 70
     1
102
RTVSPropertyOp5
 70
     1
102
RTVSPropertyOp6
 70
     1
102
RTVSPropertyOp7
 70
     1
102
RTVSPropertyOp8
 70
     1
102
RTVSPropertyOp9
 70
     1
102
RTVSPropertyOp10
 70
     1
102
RTVSPropertyOp11
 70
     1
102
RTVSPropertyOp12
 70
     1
102
RTVSPropertyOp13
 70
     1
102
RTVSPropertyOp14
 70
     1
102
RTVSPropertyOp15
 70
     1
102
RTVSPropertyOp16
 70
     1
102
RTVSPropertyOp17
 70
     1
102
RTVSPropertyOp18
 70
     1
102
RTVSPropertyOp19
 70
     1
102
RTVSPropertyOp20
 70
     1
102
RTVSPropertyOp21
 70
     1
102
RTVSPropertyOp22
 70
     1
102
RTVSPropertyOp23
 70
     1
102
RTVSPropertyOp24
 70
     1
102
RTVSPropertyOp25
 70
     1
102
RTVSPropertyOp26
 70
     1
102
RTVSPropertyOp27
 70
     1
102
RTVSPropertyOp28
 70
     1
102
RTVSPropertyOp29
 70
     1
102
RTVSPropertyOp30
 70
     1
102
RTVSPropertyOp31
 70
     1
102
RTVSPropertyOp32
 70
     1
102
RTVSPropertyOp33
 70
     1
102
RTVSPropertyOp34
 70
     1
102
RTVSPropertyOp35
 70
     1
102
RTVSPropertyOp36
 70
     1
102
RTVSPropertyOp37
 70
     1
102
RTVSPropertyOp38
 70
     1
102
RTVSPropertyOp39
 70
     1
102
RTVSPropertyOp40
 70
     1
102
RTVSPropertyOp41
 70
     1
102
RTVSPropertyOp42
 70
     1
102
RTVSPropertyOp43
 70
     1
102
RTVSPropertyOp44
 70
     1
102
RTVSPropertyOp45
 70
     1
102
RTVSPropertyOp46
 70
     1
102
RTVSPropertyOp47
 70
     1
102
RTVSPropertyOp48
 70
     1
102
RTVSPropertyOp49
 70
     1
102
RTVSPropertyOp50
 70
     1
102
RTVSPropertyOp51
 70
     0
102
RTVSPropertyOp52
 70
     0
102
RTVSPropertyOp53
 70
     1
102
RTVSPropertyOp54
 70
     1
102
RTVSPropertyOp55
 70
     1
102
RTVSPropertyOp56
 70
     1
102
RTVSPropertyOp57
 70
     1
102
RTVSPropertyOp58
 70
     1
102
RTVSPropertyOp59
 70
     1
102
RTVSPropertyOp60
 70
     1
102
RTVSPropertyOp61
 70
     1
102
RTVSPropertyOp62
 70
     1
  0
XRECORD
  5
9935
102
{ACAD_REACTORS
330
9934
102
}
330
9934
100
AcDbXrecord
280
     1
102
RTVSPost2010Prop28
280
     0
102
RTVSPost2010PropOp28
 70
     1
102
RTVSPost2010Prop29
280
     1
102
RTVSPost2010PropOp29
 70
     1
102
RTVSPost2010Prop30
280
     1
102
RTVSPost2010PropOp30
 70
     1
102
RTVSPost2010Prop31
280
     0
102
RTVSPost2010PropOp31
 70
     1
102
RTVSPost2010Prop32
280
     0
102
RTVSPost2010PropOp32
 70
     1
102
RTVSPost2010Prop33
280
     0
102
RTVSPost2010PropOp33
 70
     1
102
RTVSPost2010Prop34
280
     0
102
RTVSPost2010PropOp34
 70
     1
102
RTVSPost2010Prop35
280
     0
102
RTVSPost2010PropOp35
 70
     1
102
RTVSPost2010Prop36
280
     0
102
RTVSPost2010PropOp36
 70
     1
102
RTVSPost2010Prop37
 90
       50
102
RTVSPost2010PropOp37
 70
     1
102
RTVSPost2010Prop38
140
0.0
102
RTVSPost2010PropOp38
 70
     1
102
RTVSPost2010Prop39
140
1.0
102
RTVSPost2010PropOp39
 70
     1
102
RTVSPost2010Prop40
 90
        0
102
RTVSPost2010PropOp40
 70
     1
102
RTVSPost2010Prop41ColorIndex
 90
       18
102
RTVSPost2010Prop41ColorRGB
 90
        0
102
RTVSPost2010PropOp41
 70
     1
102
RTVSPost2010Prop42
 90
       50
102
RTVSPost2010PropOp42
 70
     1
102
RTVSPost2010Prop43
 90
        3
102
RTVSPost2010PropOp43
 70
     1
102
RTVSPost2010Prop44ColorIndex
 90
        5
102
RTVSPost2010Prop44ColorRGB
 90
      255
102
RTVSPost2010PropOp44
 70
     1
102
RTVSPost2010Prop45
280
     0
102
RTVSPost2010PropOp45
 70
     1
102
RTVSPost2010Prop46
 90
       50
102
RTVSPost2010PropOp46
 70
     1
102
RTVSPost2010Prop47
 90
       50
102
RTVSPost2010PropOp47
 70
     1
102
RTVSPost2010Prop48
 90
       50
102
RTVSPost2010PropOp48
 70
     1
102
RTVSPost2010Prop49
280
     0
102
RTVSPost2010PropOp49
 70
     1
102
RTVSPost2010Prop50
 90
       50
102
RTVSPost2010PropOp50
 70
     1
102
RTVSPost2010Prop51ColorIndex
 90
      256
102
RTVSPost2010Prop51ColorRGB
 90
-16777216
102
RTVSPost2010PropOp51
 70
     0
102
RTVSPost2010Prop52
140
1.0
102
RTVSPost2010PropOp52
 70
     0
102
RTVSPost2010Prop53
 90
        2
102
RTVSPost2010PropOp53
 70
     1
102
RTVSPost2010Prop54
  1
strokes_ogs.tif
102
RTVSPost2010PropOp54
 70
     1
102
RTVSPost2010Prop55
280
     0
102
RTVSPost2010PropOp55
 70
     1
102
RTVSPost2010Prop56
140
1.0
102
RTVSPost2010PropOp56
 70
     1
102
RTVSPost2010Prop57
140
1.0
102
RTVSPost2010PropOp57
 70
     1
102
RTVSPropertyOp0
 70
     1
102
RTVSPropertyOp1
 70
     1
102
RTVSPropertyOp2
 70
     1
102
RTVSPropertyOp3
 70
     1
102
RTVSPropertyOp4
 70
     1
102
RTVSPropertyOp5
 70
     1
102
RTVSPropertyOp6
 70
     1
102
RTVSPropertyOp7
 70
     1
102
RTVSPropertyOp8
 70
     1
102
RTVSPropertyOp9
 70
     1
102
RTVSPropertyOp10
 70
     1
102
RTVSPropertyOp11
 70
     1
102
RTVSPropertyOp12
 70
     1
102
RTVSPropertyOp13
 70
     1
102
RTVSPropertyOp14
 70
     1
102
RTVSPropertyOp15
 70
     1
102
RTVSPropertyOp16
 70
     1
102
RTVSPropertyOp17
 70
     1
102
RTVSPropertyOp18
 70
     1
102
RTVSPropertyOp19
 70
     1
102
RTVSPropertyOp20
 70
     1
102
RTVSPropertyOp21
 70
     1
102
RTVSPropertyOp22
 70
     1
102
RTVSPropertyOp23
 70
     1
102
RTVSPropertyOp24
 70
     1
102
RTVSPropertyOp25
 70
     1
102
RTVSPropertyOp26
 70
     1
102
RTVSPropertyOp27
 70
     1
102
RTVSPropertyOp28
 70
     1
102
RTVSPropertyOp29
 70
     1
102
RTVSPropertyOp30
 70
     1
102
RTVSPropertyOp31
 70
     1
102
RTVSPropertyOp32
 70
     1
102
RTVSPropertyOp33
 70
     1
102
RTVSPropertyOp34
 70
     1
102
RTVSPropertyOp35
 70
     1
102
RTVSPropertyOp36
 70
     1
102
RTVSPropertyOp37
 70
     1
102
RTVSPropertyOp38
 70
     1
102
RTVSPropertyOp39
 70
     1
102
RTVSPropertyOp40
 70
     1
102
RTVSPropertyOp41
 70
     1
102
RTVSPropertyOp42
 70
     1
102
RTVSPropertyOp43
 70
     1
102
RTVSPropertyOp44
 70
     1
102
RTVSPropertyOp45
 70
     1
102
RTVSPropertyOp46
 70
     1
102
RTVSPropertyOp47
 70
     1
102
RTVSPropertyOp48
 70
     1
102
RTVSPropertyOp49
 70
     1
102
RTVSPropertyOp50
 70
     1
102
RTVSPropertyOp51
 70
     0
102
RTVSPropertyOp52
 70
     0
102
RTVSPropertyOp53
 70
     1
102
RTVSPropertyOp54
 70
     1
102
RTVSPropertyOp55
 70
     1
102
RTVSPropertyOp56
 70
     1
102
RTVSPropertyOp57
 70
     1
102
RTVSPropertyOp58
 70
     1
102
RTVSPropertyOp59
 70
     1
102
RTVSPropertyOp60
 70
     1
102
RTVSPropertyOp61
 70
     1
102
RTVSPropertyOp62
 70
     1
  0
ENDSEC
  0
EOF
