  0
SECTION
  2
HEADER
  9
$ACADVER
  1
AC1015
  9
$ACADMAINTVER
 70
    20
  9
$DWGCODEPAGE
  3
ANSI_932
  9
$INSBASE
 10
0.0
 20
0.0
 30
0.0
  9
$EXTMIN
 10
10.0
 20
9.999999999999998
 30
0.0
  9
$EXTMAX
 10
359.9356589999999
 20
209.08146
 30
0.0
  9
$LIMMIN
 10
0.0
 20
0.0
  9
$LIMMAX
 10
396.0
 20
273.0
  9
$ORTHOMODE
 70
     1
  9
$REGENMODE
 70
     1
  9
$FILLMODE
 70
     1
  9
$QTEXTMODE
 70
     0
  9
$MIRRTEXT
 70
     1
  9
$LTSCALE
 40
20.0
  9
$ATTMODE
 70
     1
  9
$TEXTSIZE
 40
5.0
  9
$TRACEWID
 40
1.0
  9
$TEXTSTYLE
  7
STANDARD
  9
$CLAYER
  8
0
  9
$CELTYPE
  6
BYLAYER
  9
$CECOLOR
 62
   256
  9
$CELTSCALE
 40
1.0
  9
$DISPSILH
 70
     0
  9
$DIMSCALE
 40
1.0
  9
$DIMASZ
 40
3.0
  9
$DIMEXO
 40
1.0
  9
$DIMDLI
 40
10.0
  9
$DIMRND
 40
0.0
  9
$DIMDLE
 40
0.0
  9
$DIMEXE
 40
1.0
  9
$DIMTP
 40
0.0
  9
$DIMTM
 40
0.0
  9
$DIMTXT
 40
3.2
  9
$DIMCEN
 40
0.0
  9
$DIMTSZ
 40
0.0
  9
$DIMTOL
 70
     0
  9
$DIMLIM
 70
     0
  9
$DIMTIH
 70
     0
  9
$DIMTOH
 70
     0
  9
$DIMSE1
 70
     0
  9
$DIMSE2
 70
     0
  9
$DIMTAD
 70
     3
  9
$DIMZIN
 70
     8
  9
$DIMBLK
  1

  9
$DIMASO
 70
     1
  9
$DIMSHO
 70
     1
  9
$DIMPOST
  1

  9
$DIMAPOST
  1

  9
$DIMALT
 70
     0
  9
$DIMALTD
 70
     2
  9
$DIMALTF
 40
25.4
  9
$DIMLFAC
 40
1.0
  9
$DIMTOFL
 70
     1
  9
$DIMTVP
 40
0.0
  9
$DIMTIX
 70
     0
  9
$DIMSOXD
 70
     0
  9
$DIMSAH
 70
     1
  9
$DIMBLK1
  1

  9
$DIMBLK2
  1

  9
$DIMSTYLE
  2
STANDARD
  9
$DIMCLRD
 70
     0
  9
$DIMCLRE
 70
     0
  9
$DIMCLRT
 70
     0
  9
$DIMTFAC
 40
1.0
  9
$DIMGAP
 40
1.0
  9
$DIMJUST
 70
     0
  9
$DIMSD1
 70
     0
  9
$DIMSD2
 70
     0
  9
$DIMTOLJ
 70
     1
  9
$DIMTZIN
 70
     0
  9
$DIMALTZ
 70
     0
  9
$DIMALTTZ
 70
     0
  9
$DIMUPT
 70
     0
  9
$DIMDEC
 70
     4
  9
$DIMTDEC
 70
     4
  9
$DIMALTU
 70
     2
  9
$DIMALTTD
 70
     2
  9
$DIMTXSTY
  7
STANDARD
  9
$DIMAUNIT
 70
     0
  9
$DIMADEC
 70
     0
  9
$DIMALTRND
 40
0.0
  9
$DIMAZIN
 70
     0
  9
$DIMDSEP
 70
    46
  9
$DIMATFIT
 70
     3
  9
$DIMFRAC
 70
     0
  9
$DIMLDRBLK
  1

  9
$DIMLUNIT
 70
     2
  9
$DIMLWD
 70
    -2
  9
$DIMLWE
 70
    -2
  9
$DIMTMOVE
 70
     0
  9
$LUNITS
 70
     2
  9
$LUPREC
 70
     4
  9
$SKETCHINC
 40
1.0
  9
$FILLETRAD
 40
2.5
  9
$AUNITS
 70
     0
  9
$AUPREC
 70
     2
  9
$MENU
  1
.
  9
$ELEVATION
 40
0.0
  9
$PELEVATION
 40
0.0
  9
$THICKNESS
 40
0.0
  9
$LIMCHECK
 70
     0
  9
$CHAMFERA
 40
10.0
  9
$CHAMFERB
 40
10.0
  9
$CHAMFERC
 40
0.0
  9
$CHAMFERD
 40
0.0
  9
$SKPOLY
 70
     0
  9
$TDCREATE
 40
2451066.698689120
  9
$TDUCREATE
 40
2451066.323689120
  9
$TDUPDATE
 40
2457192.603484514
  9
$TDUUPDATE
 40
2457192.228484514
  9
$TDINDWG
 40
0.0000138657
  9
$TDUSRTIMER
 40
0.0000135532
  9
$USRTIMER
 70
     1
  9
$ANGBASE
 50
0.0
  9
$ANGDIR
 70
     0
  9
$PDMODE
 70
     0
  9
$PDSIZE
 40
0.0
  9
$PLINEWID
 40
0.0
  9
$SPLFRAME
 70
     0
  9
$SPLINETYPE
 70
     6
  9
$SPLINESEGS
 70
     8
  9
$HANDSEED
  5
9910
  9
$SURFTAB1
 70
     6
  9
$SURFTAB2
 70
     6
  9
$SURFTYPE
 70
     6
  9
$SURFU
 70
     6
  9
$SURFV
 70
     6
  9
$UCSBASE
  2

  9
$UCSNAME
  2

  9
$UCSORG
 10
0.0
 20
0.0
 30
0.0
  9
$UCSXDIR
 10
1.0
 20
0.0
 30
0.0
  9
$UCSYDIR
 10
0.0
 20
1.0
 30
0.0
  9
$UCSORTHOREF
  2

  9
$UCSORTHOVIEW
 70
     0
  9
$UCSORGTOP
 10
0.0
 20
0.0
 30
0.0
  9
$UCSORGBOTTOM
 10
0.0
 20
0.0
 30
0.0
  9
$UCSORGLEFT
 10
0.0
 20
0.0
 30
0.0
  9
$UCSORGRIGHT
 10
0.0
 20
0.0
 30
0.0
  9
$UCSORGFRONT
 10
0.0
 20
0.0
 30
0.0
  9
$UCSORGBACK
 10
0.0
 20
0.0
 30
0.0
  9
$PUCSBASE
  2

  9
$PUCSNAME
  2

  9
$PUCSORG
 10
0.0
 20
0.0
 30
0.0
  9
$PUCSXDIR
 10
1.0
 20
0.0
 30
0.0
  9
$PUCSYDIR
 10
0.0
 20
1.0
 30
0.0
  9
$PUCSORTHOREF
  2

  9
$PUCSORTHOVIEW
 70
     0
  9
$PUCSORGTOP
 10
0.0
 20
0.0
 30
0.0
  9
$PUCSORGBOTTOM
 10
0.0
 20
0.0
 30
0.0
  9
$PUCSORGLEFT
 10
0.0
 20
0.0
 30
0.0
  9
$PUCSORGRIGHT
 10
0.0
 20
0.0
 30
0.0
  9
$PUCSORGFRONT
 10
0.0
 20
0.0
 30
0.0
  9
$PUCSORGBACK
 10
0.0
 20
0.0
 30
0.0
  9
$USERI1
 70
     0
  9
$USERI2
 70
     0
  9
$USERI3
 70
     0
  9
$USERI4
 70
     0
  9
$USERI5
 70
     0
  9
$USERR1
 40
0.0
  9
$USERR2
 40
0.0
  9
$USERR3
 40
0.0
  9
$USERR4
 40
0.0
  9
$USERR5
 40
0.0
  9
$WORLDVIEW
 70
     1
  9
$SHADEDGE
 70
     3
  9
$SHADEDIF
 70
    70
  9
$TILEMODE
 70
     1
  9
$MAXACTVP
 70
    16
  9
$PINSBASE
 10
0.0
 20
0.0
 30
0.0
  9
$PLIMCHECK
 70
     0
  9
$PEXTMIN
 10
1.000000000000000E+20
 20
1.000000000000000E+20
 30
1.000000000000000E+20
  9
$PEXTMAX
 10
-1.000000000000000E+20
 20
-1.000000000000000E+20
 30
-1.000000000000000E+20
  9
$PLIMMIN
 10
0.0
 20
0.0
  9
$PLIMMAX
 10
420.0
 20
297.0
  9
$UNITMODE
 70
     0
  9
$VISRETAIN
 70
     0
  9
$PLINEGEN
 70
     0
  9
$PSLTSCALE
 70
     0
  9
$TREEDEPTH
 70
  3020
  9
$CMLSTYLE
  2
STANDARD
  9
$CMLJUST
 70
     0
  9
$CMLSCALE
 40
1.0
  9
$PROXYGRAPHICS
 70
     1
  9
$MEASUREMENT
 70
     0
  9
$CELWEIGHT
370
    -1
  9
$ENDCAPS
280
     0
  9
$JOINSTYLE
280
     0
  9
$LWDISPLAY
290
     0
  9
$INSUNITS
 70
     0
  9
$HYPERLINKBASE
  1

  9
$STYLESHEET
  1

  9
$XEDIT
290
     1
  9
$CEPSNTYPE
380
     0
  9
$PSTYLEMODE
290
     1
  9
$FINGERPRINTGUID
  2
{888DA4F4-FD69-4D31-AA52-2AD5019BEA0F}
  9
$VERSIONGUID
  2
{A71F6D8B-A43C-486F-8201-61F0312C8328}
  9
$EXTNAMES
290
     1
  9
$PSVPSCALE
 40
0.0
  9
$OLESTARTUP
290
     0
  0
ENDSEC
  0
SECTION
  2
CLASSES
  0
CLASS
  1
ACDBDICTIONARYWDFLT
  2
AcDbDictionaryWithDefault
  3
ObjectDBX Classes
 90
        0
280
     0
281
     0
  0
CLASS
  1
ACDBPLACEHOLDER
  2
AcDbPlaceHolder
  3
ObjectDBX Classes
 90
        0
280
     0
281
     0
  0
CLASS
  1
LAYOUT
  2
AcDbLayout
  3
ObjectDBX Classes
 90
        0
280
     0
281
     0
  0
CLASS
  1
DICTIONARYVAR
  2
AcDbDictionaryVar
  3
ObjectDBX Classes
 90
        0
280
     0
281
     0
  0
CLASS
  1
MATERIAL
  2
AcDbMaterial
  3
ObjectDBX Classes
 90
     1153
280
     0
281
     0
  0
CLASS
  1
VISUALSTYLE
  2
AcDbVisualStyle
  3
ObjectDBX Classes
 90
     4095
280
     0
281
     0
  0
CLASS
  1
TABLESTYLE
  2
AcDbTableStyle
  3
ObjectDBX Classes
 90
     4095
280
     0
281
     0
  0
CLASS
  1
SCALE
  2
AcDbScale
  3
ObjectDBX Classes
 90
     1153
280
     0
281
     0
  0
CLASS
  1
MLEADERSTYLE
  2
AcDbMLeaderStyle
  3
ACDB_MLEADERSTYLE_CLASS
 90
     4095
280
     0
281
     0
  0
CLASS
  1
ACDBSECTIONVIEWSTYLE
  2
AcDbSectionViewStyle
  3
ObjectDBX Classes
 90
     1025
280
     0
281
     0
  0
CLASS
  1
ACDBDETAILVIEWSTYLE
  2
AcDbDetailViewStyle
  3
ObjectDBX Classes
 90
     1025
280
     0
281
     0
  0
CLASS
  1
CELLSTYLEMAP
  2
AcDbCellStyleMap
  3
ObjectDBX Classes
 90
     1152
280
     0
281
     0
  0
ENDSEC
  0
SECTION
  2
TABLES
  0
TABLE
  2
VPORT
  5
963D
330
0
100
AcDbSymbolTable
 70
     1
  0
VPORT
  5
9859
330
963D
100
AcDbSymbolTableRecord
100
AcDbViewportTableRecord
  2
*ACTIVE
 70
     0
 10
0.0
 20
0.0
 11
1.0
 21
1.0
 12
245.2688483020549
 22
109.5378347717199
 13
0.0
 23
0.0
 14
10.0
 24
10.0
 15
10.0
 25
10.0
 16
0.0
 26
0.0
 36
1.0
 17
0.0
 27
0.0
 37
0.0
 40
201.3324984503753
 41
1.899603698811096
 42
50.0
 43
0.0
 44
0.0
 50
0.0
 51
0.0
 71
     0
 72
   100
 73
     1
 74
     0
 75
     0
 76
     0
 77
     0
 78
     0
281
     0
 65
     1
110
0.0
120
0.0
130
0.0
111
1.0
121
0.0
131
0.0
112
0.0
122
1.0
132
0.0
 79
     0
146
0.0
1001
ACAD_NAV_VCDISPLAY
1070
     3
  0
ENDTAB
  0
TABLE
  2
LTYPE
  5
963A
330
0
100
AcDbSymbolTable
 70
     4
  0
LTYPE
  5
9648
330
963A
100
AcDbSymbolTableRecord
100
AcDbLinetypeTableRecord
  2
BYBLOCK
 70
     0
  3

 72
    65
 73
     0
 40
0.0
  0
LTYPE
  5
9649
330
963A
100
AcDbSymbolTableRecord
100
AcDbLinetypeTableRecord
  2
BYLAYER
 70
     0
  3

 72
    65
 73
     0
 40
0.0
  0
LTYPE
  5
964A
330
963A
100
AcDbSymbolTableRecord
100
AcDbLinetypeTableRecord
  2
CONTINUOUS
 70
     0
  3
Solid line
 72
    65
 73
     0
 40
0.0
  0
LTYPE
  5
9658
330
963A
100
AcDbSymbolTableRecord
100
AcDbLinetypeTableRecord
  2
DASHED
 70
     0
  3
__ __ __ __ __ __ __ __ __ __ __ __ __ __ __ __
 72
    65
 73
     2
 40
0.75
 49
0.5
 74
     0
 49
-0.25
 74
     0
  0
LTYPE
  5
9659
330
963A
100
AcDbSymbolTableRecord
100
AcDbLinetypeTableRecord
  2
CENTER
 70
     0
  3
____ _ ____ _ ____ _ ____ _ ____ _ ____ _ ____ 
 72
    65
 73
     4
 40
2.0
 49
1.25
 74
     0
 49
-0.25
 74
     0
 49
0.25
 74
     0
 49
-0.25
 74
     0
  0
LTYPE
  5
965A
330
963A
100
AcDbSymbolTableRecord
100
AcDbLinetypeTableRecord
  2
PHANTOM
 70
     0
  3
______  __  __  ______  __  __  ______  __  __ 
 72
    65
 73
     6
 40
2.5
 49
1.25
 74
     0
 49
-0.25
 74
     0
 49
0.25
 74
     0
 49
-0.25
 74
     0
 49
0.25
 74
     0
 49
-0.25
 74
     0
  0
ENDTAB
  0
TABLE
  2
LAYER
  5
9637
330
0
100
AcDbSymbolTable
 70
     8
  0
LAYER
  5
9645
102
{ACAD_XDICTIONARY
360
98B4
102
}
330
9637
100
AcDbSymbolTableRecord
100
AcDbLayerTableRecord
  2
0
 70
     0
 62
     7
  6
CONTINUOUS
370
    -3
390
9862
  0
LAYER
  5
965B
102
{ACAD_XDICTIONARY
360
98B6
102
}
330
9637
100
AcDbSymbolTableRecord
100
AcDbLayerTableRecord
  2
4
 70
     0
 62
     1
  6
CENTER
370
    -3
390
9862
  0
LAYER
  5
965C
102
{ACAD_XDICTIONARY
360
98B8
102
}
330
9637
100
AcDbSymbolTableRecord
100
AcDbLayerTableRecord
  2
5
 70
     0
 62
     6
  6
PHANTOM
370
    -3
390
9862
  0
LAYER
  5
965D
102
{ACAD_XDICTIONARY
360
98BA
102
}
330
9637
100
AcDbSymbolTableRecord
100
AcDbLayerTableRecord
  2
1
 70
     0
 62
     7
  6
CONTINUOUS
370
    -3
390
9862
  0
LAYER
  5
965E
102
{ACAD_XDICTIONARY
360
98BC
102
}
330
9637
100
AcDbSymbolTableRecord
100
AcDbLayerTableRecord
  2
2
 70
     0
 62
     4
  6
CONTINUOUS
370
    -3
390
9862
  0
LAYER
  5
965F
102
{ACAD_XDICTIONARY
360
98BE
102
}
330
9637
100
AcDbSymbolTableRecord
100
AcDbLayerTableRecord
  2
3
 70
     0
 62
     2
  6
DASHED
370
    -3
390
9862
  0
LAYER
  5
9660
102
{ACAD_XDICTIONARY
360
98C0
102
}
330
9637
100
AcDbSymbolTableRecord
100
AcDbLayerTableRecord
  2
6
 70
     0
 62
     5
  6
CONTINUOUS
370
    -3
390
9862
  0
LAYER
  5
9661
102
{ACAD_XDICTIONARY
360
98C2
102
}
330
9637
100
AcDbSymbolTableRecord
100
AcDbLayerTableRecord
  2
7
 70
     0
 62
     3
  6
CONTINUOUS
370
    -3
390
9862
  0
ENDTAB
  0
TABLE
  2
STYLE
  5
9638
330
0
100
AcDbSymbolTable
 70
     1
  0
STYLE
  5
9646
330
9638
100
AcDbSymbolTableRecord
100
AcDbTextStyleTableRecord
  2
STANDARD
 70
     0
 40
0.0
 41
1.0
 50
0.0
 71
     0
 42
5.0
  3
txt
  4

  0
ENDTAB
  0
TABLE
  2
VIEW
  5
963B
330
0
100
AcDbSymbolTable
 70
     0
  0
ENDTAB
  0
TABLE
  2
UCS
  5
963C
330
0
100
AcDbSymbolTable
 70
     0
  0
ENDTAB
  0
TABLE
  2
APPID
  5
963E
330
0
100
AcDbSymbolTable
 70
     3
  0
APPID
  5
9647
330
963E
100
AcDbSymbolTableRecord
100
AcDbRegAppTableRecord
  2
ACAD
 70
     0
  0
APPID
  5
98CE
330
963E
100
AcDbSymbolTableRecord
100
AcDbRegAppTableRecord
  2
ACAD_NAV_VCDISPLAY
 70
     0
  0
APPID
  5
9907
330
963E
100
AcDbSymbolTableRecord
100
AcDbRegAppTableRecord
  2
ACAD_MLEADERVER
 70
     0
  0
ENDTAB
  0
TABLE
  2
DIMSTYLE
  5
963F
330
0
100
AcDbSymbolTable
 70
     1
100
AcDbDimStyleTable
 71
     0
  0
DIMSTYLE
105
9663
330
963F
100
AcDbSymbolTableRecord
100
AcDbDimStyleTableRecord
  2
STANDARD
 70
     0
 41
3.0
 42
1.0
 43
10.0
 44
1.0
 73
     0
 74
     0
 77
     3
 78
     8
140
3.2
141
0.0
147
1.0
172
     1
173
     1
284
     8
285
     8
286
     8
340
9646
  0
ENDTAB
  0
TABLE
  2
BLOCK_RECORD
  5
9636
330
0
100
AcDbSymbolTable
 70
     0
  0
BLOCK_RECORD
  5
9653
102
{ACAD_XDICTIONARY
360
985C
102
}
330
9636
100
AcDbSymbolTableRecord
100
AcDbBlockTableRecord
  2
*MODEL_SPACE
340
98B0
  0
BLOCK_RECORD
  5
964F
102
{ACAD_XDICTIONARY
360
985A
102
}
330
9636
100
AcDbSymbolTableRecord
100
AcDbBlockTableRecord
  2
*PAPER_SPACE
340
98B1
  0
ENDTAB
  0
ENDSEC
  0
SECTION
  2
BLOCKS
  0
BLOCK
  5
9654
330
9653
100
AcDbEntity
  8
0
100
AcDbBlockBegin
  2
*MODEL_SPACE
 70
     0
 10
0.0
 20
0.0
 30
0.0
  3
*MODEL_SPACE
  1

  0
ENDBLK
  5
9655
330
9653
100
AcDbEntity
  8
0
100
AcDbBlockEnd
  0
BLOCK
  5
9650
330
964F
100
AcDbEntity
 67
     1
  8
0
100
AcDbBlockBegin
  2
*PAPER_SPACE
 70
     0
 10
0.0
 20
0.0
 30
0.0
  3
*PAPER_SPACE
  1

  0
ENDBLK
  5
9651
330
964F
100
AcDbEntity
 67
     1
  8
0
100
AcDbBlockEnd
  0
ENDSEC
  0
SECTION
  2
ENTITIES
  0
TEXT
  5
966B
330
9653
100
AcDbEntity
  8
7
  6
Continuous
100
AcDbText
 10
10.0
 20
18.0
 30
0.0
 40
3.0
  1
TYPE No.TL-86-5
100
AcDbText
  0
TEXT
  5
966C
330
9653
100
AcDbEntity
  8
7
  6
Continuous
100
AcDbText
 10
10.0
 20
26.0
 30
0.0
 40
3.0
  1
CODE No.1244
100
AcDbText
  0
TEXT
  5
966D
330
9653
100
AcDbEntity
  8
1
  6
Continuous
100
AcDbText
 10
10.0
 20
10.0
 30
0.0
 40
1.399999999999999
  1
LAYER
100
AcDbText
  0
TEXT
  5
966E
330
9653
100
AcDbEntity
  8
1
  6
Continuous
100
AcDbText
 10
17.97951099999998
 20
10.04873699999998
 30
0.0
 40
1.399999999999999
  1
1
100
AcDbText
  0
TEXT
  5
966F
330
9653
100
AcDbEntity
  8
7
  6
Continuous
100
AcDbText
 10
29.97951099999999
 20
10.04873699999998
 30
0.0
 40
1.399999999999999
  1
7
100
AcDbText
  0
TEXT
  5
9670
330
9653
100
AcDbEntity
  8
4
  6
CENTER
100
AcDbText
 10
23.97951099999999
 20
10.04873699999998
 30
0.0
 40
1.399999999999999
  1
4
100
AcDbText
  0
TEXT
  5
9671
330
9653
100
AcDbEntity
  8
3
  6
DASHED
100
AcDbText
 10
21.979511
 20
10.04873699999998
 30
0.0
 40
1.399999999999999
  1
3
100
AcDbText
  0
TEXT
  5
9672
330
9653
100
AcDbEntity
  8
2
  6
Continuous
100
AcDbText
 10
19.97951099999999
 20
10.04873699999998
 30
0.0
 40
1.399999999999999
  1
2
100
AcDbText
  0
TEXT
  5
9673
330
9653
100
AcDbEntity
  8
6
  6
Continuous
100
AcDbText
 10
27.979511
 20
10.04873699999998
 30
0.0
 40
1.399999999999999
  1
6
100
AcDbText
  0
TEXT
  5
9674
330
9653
100
AcDbEntity
  8
5
  6
PHANTOM
100
AcDbText
 10
25.97951099999999
 20
10.04873699999998
 30
0.0
 40
1.399999999999999
  1
5
100
AcDbText
  0
LINE
  5
9675
330
9653
100
AcDbEntity
  8
4
  6
CENTER
100
AcDbLine
 10
13.469459
 20
122.08146
 30
0.0
 11
38.32725899999999
 21
122.08146
 31
0.0
  0
LINE
  5
9676
330
9653
100
AcDbEntity
  8
1
  6
Continuous
100
AcDbLine
 10
16.650959
 20
136.0814599999999
 30
0.0
 11
16.650959
 21
108.08146
 31
0.0
  0
LINE
  5
9677
330
9653
100
AcDbEntity
  8
1
  6
Continuous
100
AcDbLine
 10
30.65095900000001
 20
136.0814599999999
 30
0.0
 11
30.65095900000001
 21
108.08146
 31
0.0
  0
LINE
  5
9678
330
9653
100
AcDbEntity
  8
1
  6
Continuous
100
AcDbLine
 10
16.650959
 20
108.08146
 30
0.0
 11
30.65095900000001
 21
108.08146
 31
0.0
  0
LINE
  5
9679
330
9653
100
AcDbEntity
  8
1
  6
Continuous
100
AcDbLine
 10
16.650959
 20
136.0814599999999
 30
0.0
 11
30.65095900000001
 21
136.0814599999999
 31
0.0
  0
LINE
  5
967A
330
9653
100
AcDbEntity
  8
4
  6
CENTER
100
AcDbLine
 10
19.83605899999998
 20
112.08146
 30
0.0
 11
27.635059
 21
112.08146
 31
0.0
  0
LINE
  5
967B
330
9653
100
AcDbEntity
  8
1
  6
Continuous
100
AcDbLine
 10
125.650659
 20
208.08146
 30
0.0
 11
125.650659
 21
196.0814599999999
 31
0.0
  0
LINE
  5
967C
330
9653
100
AcDbEntity
  8
1
  6
Continuous
100
AcDbLine
 10
128.6506589999999
 20
209.0814599999999
 30
0.0
 11
128.6506589999999
 21
208.08146
 31
0.0
  0
LINE
  5
967D
330
9653
100
AcDbEntity
  8
4
  6
CENTER
100
AcDbLine
 10
103.3656589999998
 20
202.08146
 30
0.0
 11
150.546659
 21
202.08146
 31
0.0
  0
LINE
  5
967E
330
9653
100
AcDbEntity
  8
1
  6
Continuous
100
AcDbLine
 10
143.650659
 20
208.08146
 30
0.0
 11
143.650659
 21
196.58146
 31
0.0
  0
LINE
  5
967F
330
9653
100
AcDbEntity
  8
1
  6
Continuous
100
AcDbLine
 10
147.6506589999999
 20
203.68146
 30
0.0
 11
147.6506589999999
 21
200.48146
 31
0.0
  0
LINE
  5
9680
330
9653
100
AcDbEntity
  8
1
  6
Continuous
100
AcDbLine
 10
144.650659
 20
203.68146
 30
0.0
 11
144.650659
 21
201.7614599999999
 31
0.0
  0
LINE
  5
9681
330
9653
100
AcDbEntity
  8
1
  6
Continuous
100
AcDbLine
 10
146.450659
 20
206.38146
 30
0.0
 11
146.450659
 21
197.78146
 31
0.0
  0
LINE
  5
9682
330
9653
100
AcDbEntity
  8
1
  6
Continuous
100
AcDbLine
 10
146.450659
 20
203.68146
 30
0.0
 11
147.6506589999999
 21
203.68146
 31
0.0
  0
LINE
  5
9683
330
9653
100
AcDbEntity
  8
1
  6
Continuous
100
AcDbLine
 10
146.450659
 20
200.48146
 30
0.0
 11
147.6506589999999
 21
200.48146
 31
0.0
  0
LINE
  5
9684
330
9653
100
AcDbEntity
  8
1
  6
Continuous
100
AcDbLine
 10
144.760659
 20
200.9314599999999
 30
0.0
 11
144.950659
 21
200.9314599999999
 31
0.0
  0
LINE
  5
9685
330
9653
100
AcDbEntity
  8
1
  6
Continuous
100
AcDbLine
 10
144.650659
 20
203.2314599999998
 30
0.0
 11
144.950659
 21
203.2314599999998
 31
0.0
  0
LINE
  5
9686
330
9653
100
AcDbEntity
  8
1
  6
Continuous
100
AcDbLine
 10
132.150659
 20
124.58146
 30
0.0
 11
132.150659
 21
120.60946
 31
0.0
  0
LINE
  5
9687
330
9653
100
AcDbEntity
  8
1
  6
Continuous
100
AcDbLine
 10
143.650659
 20
200.48146
 30
0.0
 11
144.416659
 21
200.48146
 31
0.0
  0
LINE
  5
9688
330
9653
100
AcDbEntity
  8
1
  6
Continuous
100
AcDbLine
 10
143.650659
 20
203.68146
 30
0.0
 11
143.993659
 21
203.68146
 31
0.0
  0
LINE
  5
9689
330
9653
100
AcDbEntity
  8
1
  6
Continuous
100
AcDbLine
 10
132.150659
 20
124.58146
 30
0.0
 11
132.815659
 21
124.58146
 31
0.0
  0
LINE
  5
968A
330
9653
100
AcDbEntity
  8
2
  6
Continuous
100
AcDbLine
 10
132.150659
 20
124.14846
 30
0.0
 11
132.743659
 21
124.14846
 31
0.0
  0
LINE
  5
968B
330
9653
100
AcDbEntity
  8
1
  6
Continuous
100
AcDbLine
 10
130.6506589999999
 20
204.08146
 30
0.0
 11
130.8236589999999
 21
204.08146
 31
0.0
  0
LINE
  5
968C
330
9653
100
AcDbEntity
  8
1
  6
Continuous
100
AcDbLine
 10
130.660659
 20
120.08146
 30
0.0
 11
132.062659
 21
120.08146
 31
0.0
  0
LINE
  5
968D
330
9653
100
AcDbEntity
  8
1
  6
Continuous
100
AcDbLine
 10
130.6506589999999
 20
124.58146
 30
0.0
 11
130.6506589999999
 21
123.05246
 31
0.0
  0
LINE
  5
968E
330
9653
100
AcDbEntity
  8
4
  6
CENTER
100
AcDbLine
 10
241.8326589999999
 20
122.08146
 30
0.0
 11
219.043659
 21
122.08146
 31
0.0
  0
LINE
  5
968F
330
9653
100
AcDbEntity
  8
4
  6
CENTER
100
AcDbLine
 10
231.6506589999999
 20
138.95446
 30
0.0
 11
231.6506589999999
 21
105.05246
 31
0.0
  0
LINE
  5
9690
330
9653
100
AcDbEntity
  8
1
  6
Continuous
100
AcDbLine
 10
238.6506589999999
 20
136.0814599999999
 30
0.0
 11
238.6506589999999
 21
108.08146
 31
0.0
  0
LINE
  5
9691
330
9653
100
AcDbEntity
  8
1
  6
Continuous
100
AcDbLine
 10
224.650659
 20
136.0814599999999
 30
0.0
 11
224.650659
 21
125.52146
 31
0.0
  0
LINE
  5
9692
330
9653
100
AcDbEntity
  8
1
  6
Continuous
100
AcDbLine
 10
238.6506589999999
 20
108.08146
 30
0.0
 11
224.650659
 21
108.08146
 31
0.0
  0
LINE
  5
9693
330
9653
100
AcDbEntity
  8
1
  6
Continuous
100
AcDbLine
 10
238.6506589999999
 20
136.0814599999999
 30
0.0
 11
224.650659
 21
136.0814599999999
 31
0.0
  0
LINE
  5
9694
330
9653
100
AcDbEntity
  8
4
  6
CENTER
100
AcDbLine
 10
235.3866589999999
 20
132.08146
 30
0.0
 11
227.985659
 21
132.08146
 31
0.0
  0
LINE
  5
9695
330
9653
100
AcDbEntity
  8
4
  6
CENTER
100
AcDbLine
 10
235.4656589999999
 20
112.08146
 30
0.0
 11
227.666659
 21
112.08146
 31
0.0
  0
LINE
  5
9696
330
9653
100
AcDbEntity
  8
1
  6
Continuous
100
AcDbLine
 10
237.6506589999999
 20
136.0814599999999
 30
0.0
 11
237.6506589999999
 21
127.58146
 31
0.0
  0
LINE
  5
9697
330
9653
100
AcDbEntity
  8
1
  6
Continuous
100
AcDbLine
 10
225.6506589999999
 20
136.0814599999999
 30
0.0
 11
225.6506589999999
 21
125.60146
 31
0.0
  0
LINE
  5
9698
330
9653
100
AcDbEntity
  8
1
  6
Continuous
100
AcDbLine
 10
238.6506589999999
 20
127.58146
 30
0.0
 11
235.549659
 21
127.58146
 31
0.0
  0
LINE
  5
9699
330
9653
100
AcDbEntity
  8
1
  6
Continuous
100
AcDbLine
 10
238.6506589999999
 20
116.58146
 30
0.0
 11
237.150659
 21
116.58146
 31
0.0
  0
LINE
  5
969A
330
9653
100
AcDbEntity
  8
1
  6
Continuous
100
AcDbLine
 10
237.150659
 20
115.08146
 30
0.0
 11
226.1506589999999
 21
115.08146
 31
0.0
  0
LINE
  5
969B
330
9653
100
AcDbEntity
  8
1
  6
Continuous
100
AcDbLine
 10
237.6506589999999
 20
116.58146
 30
0.0
 11
237.6506589999999
 21
108.08146
 31
0.0
  0
LINE
  5
969C
330
9653
100
AcDbEntity
  8
1
  6
Continuous
100
AcDbLine
 10
230.650659
 20
125.53946
 30
0.0
 11
229.7366589999998
 21
127.43246
 31
0.0
  0
LINE
  5
969D
330
9653
100
AcDbEntity
  8
1
  6
Continuous
100
AcDbLine
 10
232.650659
 20
125.53946
 30
0.0
 11
233.5656589999999
 21
127.43246
 31
0.0
  0
LINE
  5
969E
330
9653
100
AcDbEntity
  8
1
  6
Continuous
100
AcDbLine
 10
234.5596589999999
 20
124.2034599999998
 30
0.0
 11
235.6366589999999
 21
126.43146
 31
0.0
  0
LINE
  5
969F
330
9653
100
AcDbEntity
  8
1
  6
Continuous
100
AcDbLine
 10
228.7426589999999
 20
124.2034599999998
 30
0.0
 11
227.6656589999999
 21
126.43146
 31
0.0
  0
LINE
  5
96A0
330
9653
100
AcDbEntity
  8
1
  6
Continuous
100
AcDbLine
 10
232.7266589999999
 20
120.89746
 30
0.0
 11
233.6766589999998
 21
116.48946
 31
0.0
  0
LINE
  5
96A1
330
9653
100
AcDbEntity
  8
1
  6
Continuous
100
AcDbLine
 10
230.574659
 20
120.89746
 30
0.0
 11
229.625659
 21
116.48946
 31
0.0
  0
LINE
  5
96A2
330
9653
100
AcDbEntity
  8
1
  6
Continuous
100
AcDbLine
 10
228.2336589999999
 20
120.95046
 30
0.0
 11
227.376659
 21
116.9734599999999
 31
0.0
  0
LINE
  5
96A3
330
9653
100
AcDbEntity
  8
1
  6
Continuous
100
AcDbLine
 10
235.068659
 20
120.95046
 30
0.0
 11
235.925659
 21
116.9734599999999
 31
0.0
  0
LINE
  5
96A4
330
9653
100
AcDbEntity
  8
1
  6
Continuous
100
AcDbLine
 10
233.6526589999998
 20
127.58146
 30
0.0
 11
231.150659
 21
127.58146
 31
0.0
  0
LINE
  5
96A5
330
9653
100
AcDbEntity
  8
1
  6
Continuous
100
AcDbLine
 10
144.950659
 20
206.38146
 30
0.0
 11
144.950659
 21
197.78146
 31
0.0
  0
LINE
  5
96A6
330
9653
100
AcDbEntity
  8
1
  6
Continuous
100
AcDbLine
 10
125.650659
 20
136.0814599999999
 30
0.0
 11
128.6506589999999
 21
136.0814599999999
 31
0.0
  0
LINE
  5
96A7
330
9653
100
AcDbEntity
  8
1
  6
Continuous
100
AcDbLine
 10
125.650659
 20
108.08146
 30
0.0
 11
128.6506589999999
 21
108.08146
 31
0.0
  0
LINE
  5
96A8
330
9653
100
AcDbEntity
  8
1
  6
Continuous
100
AcDbLine
 10
125.650659
 20
136.0814599999999
 30
0.0
 11
125.650659
 21
108.08146
 31
0.0
  0
LINE
  5
96A9
330
9653
100
AcDbEntity
  8
1
  6
Continuous
100
AcDbLine
 10
128.6506589999999
 20
136.0814599999999
 30
0.0
 11
128.6506589999999
 21
108.08146
 31
0.0
  0
LINE
  5
96AA
330
9653
100
AcDbEntity
  8
4
  6
CENTER
100
AcDbLine
 10
103.3656589999998
 20
122.08146
 30
0.0
 11
150.546659
 21
122.08146
 31
0.0
  0
LINE
  5
96AB
330
9653
100
AcDbEntity
  8
1
  6
Continuous
100
AcDbLine
 10
128.6506589999999
 20
127.58146
 30
0.0
 11
143.650659
 21
127.58146
 31
0.0
  0
LINE
  5
96AC
330
9653
100
AcDbEntity
  8
1
  6
Continuous
100
AcDbLine
 10
128.6506589999999
 20
115.08146
 30
0.0
 11
142.6506589999999
 21
115.08146
 31
0.0
  0
LINE
  5
96AD
330
9653
100
AcDbEntity
  8
1
  6
Continuous
100
AcDbLine
 10
128.6506589999999
 20
116.58146
 30
0.0
 11
142.6506589999999
 21
116.58146
 31
0.0
  0
LINE
  5
96AE
330
9653
100
AcDbEntity
  8
1
  6
Continuous
100
AcDbLine
 10
128.6506589999999
 20
116.08146
 30
0.0
 11
142.6506589999999
 21
116.08146
 31
0.0
  0
LINE
  5
96AF
330
9653
100
AcDbEntity
  8
1
  6
Continuous
100
AcDbLine
 10
143.650659
 20
127.58146
 30
0.0
 11
143.650659
 21
116.08146
 31
0.0
  0
LINE
  5
96B0
330
9653
100
AcDbEntity
  8
1
  6
Continuous
100
AcDbLine
 10
142.6506589999999
 20
127.58146
 30
0.0
 11
142.6506589999999
 21
116.08146
 31
0.0
  0
LINE
  5
96B1
330
9653
100
AcDbEntity
  8
1
  6
Continuous
100
AcDbLine
 10
147.6506589999999
 20
123.68146
 30
0.0
 11
147.6506589999999
 21
120.48146
 31
0.0
  0
LINE
  5
96B2
330
9653
100
AcDbEntity
  8
1
  6
Continuous
100
AcDbLine
 10
144.650659
 20
123.68146
 30
0.0
 11
144.650659
 21
121.76146
 31
0.0
  0
LINE
  5
96B3
330
9653
100
AcDbEntity
  8
1
  6
Continuous
100
AcDbLine
 10
146.450659
 20
128.08146
 30
0.0
 11
146.450659
 21
115.58146
 31
0.0
  0
LINE
  5
96B4
330
9653
100
AcDbEntity
  8
1
  6
Continuous
100
AcDbLine
 10
146.450659
 20
123.68146
 30
0.0
 11
147.6506589999999
 21
123.68146
 31
0.0
  0
LINE
  5
96B5
330
9653
100
AcDbEntity
  8
1
  6
Continuous
100
AcDbLine
 10
146.450659
 20
120.48146
 30
0.0
 11
147.6506589999999
 21
120.48146
 31
0.0
  0
LINE
  5
96B6
330
9653
100
AcDbEntity
  8
1
  6
Continuous
100
AcDbLine
 10
144.760659
 20
120.93146
 30
0.0
 11
144.950659
 21
120.93146
 31
0.0
  0
LINE
  5
96B7
330
9653
100
AcDbEntity
  8
1
  6
Continuous
100
AcDbLine
 10
144.650659
 20
123.23146
 30
0.0
 11
144.950659
 21
123.23146
 31
0.0
  0
LINE
  5
96B8
330
9653
100
AcDbEntity
  8
1
  6
Continuous
100
AcDbLine
 10
143.650659
 20
120.48146
 30
0.0
 11
144.416659
 21
120.48146
 31
0.0
  0
LINE
  5
96B9
330
9653
100
AcDbEntity
  8
1
  6
Continuous
100
AcDbLine
 10
143.650659
 20
123.68146
 30
0.0
 11
143.993659
 21
123.68146
 31
0.0
  0
LINE
  5
96BA
330
9653
100
AcDbEntity
  8
1
  6
Continuous
100
AcDbLine
 10
144.950659
 20
115.58146
 30
0.0
 11
146.450659
 21
115.58146
 31
0.0
  0
LINE
  5
96BB
330
9653
100
AcDbEntity
  8
1
  6
Continuous
100
AcDbLine
 10
144.950659
 20
128.08146
 30
0.0
 11
146.450659
 21
128.08146
 31
0.0
  0
LINE
  5
96BC
330
9653
100
AcDbEntity
  8
1
  6
Continuous
100
AcDbLine
 10
144.950659
 20
124.2034599999998
 30
0.0
 11
146.450659
 21
124.2034599999998
 31
0.0
  0
LINE
  5
96BD
330
9653
100
AcDbEntity
  8
1
  6
Continuous
100
AcDbLine
 10
144.950659
 20
128.08146
 30
0.0
 11
144.950659
 21
115.58146
 31
0.0
  0
LINE
  5
96BE
330
9653
100
AcDbEntity
  8
1
  6
Continuous
100
AcDbLine
 10
144.950659
 20
120.95046
 30
0.0
 11
146.450659
 21
120.95046
 31
0.0
  0
LINE
  5
96BF
330
9653
100
AcDbEntity
  8
1
  6
Continuous
100
AcDbLine
 10
126.650659
 20
195.0814599999999
 30
0.0
 11
128.6506589999999
 21
195.0814599999999
 31
0.0
  0
LINE
  5
96C0
330
9653
100
AcDbEntity
  8
1
  6
Continuous
100
AcDbLine
 10
126.650659
 20
208.08146
 30
0.0
 11
126.650659
 21
196.0814599999999
 31
0.0
  0
LINE
  5
96C1
330
9653
100
AcDbEntity
  8
1
  6
Continuous
100
AcDbLine
 10
126.650659
 20
196.0814599999999
 30
0.0
 11
128.6506589999999
 21
196.0814599999999
 31
0.0
  0
LINE
  5
96C2
330
9653
100
AcDbEntity
  8
1
  6
Continuous
100
AcDbLine
 10
128.6506589999999
 20
196.0814599999999
 30
0.0
 11
128.6506589999999
 21
195.0814599999999
 31
0.0
  0
LINE
  5
96C3
330
9653
100
AcDbEntity
  8
1
  6
Continuous
100
AcDbLine
 10
126.650659
 20
207.58146
 30
0.0
 11
142.6506589999999
 21
207.58146
 31
0.0
  0
LINE
  5
96C4
330
9653
100
AcDbEntity
  8
1
  6
Continuous
100
AcDbLine
 10
126.650659
 20
209.0814599999999
 30
0.0
 11
142.6506589999999
 21
209.0814599999999
 31
0.0
  0
LINE
  5
96C5
330
9653
100
AcDbEntity
  8
1
  6
Continuous
100
AcDbLine
 10
126.650659
 20
208.08146
 30
0.0
 11
142.6506589999999
 21
208.08146
 31
0.0
  0
LINE
  5
96C6
330
9653
100
AcDbEntity
  8
1
  6
Continuous
100
AcDbLine
 10
127.1506589999999
 20
205.3314599999999
 30
0.0
 11
127.1506589999999
 21
198.8314599999999
 31
0.0
  0
LINE
  5
96C7
330
9653
100
AcDbEntity
  8
1
  6
Continuous
100
AcDbLine
 10
126.650659
 20
198.8314599999999
 30
0.0
 11
127.1506589999999
 21
198.8314599999999
 31
0.0
  0
LINE
  5
96C8
330
9653
100
AcDbEntity
  8
1
  6
Continuous
100
AcDbLine
 10
126.650659
 20
205.3314599999999
 30
0.0
 11
127.1506589999999
 21
205.3314599999999
 31
0.0
  0
LINE
  5
96C9
330
9653
100
AcDbEntity
  8
1
  6
Continuous
100
AcDbLine
 10
144.950659
 20
206.1814599999999
 30
0.0
 11
146.450659
 21
206.1814599999999
 31
0.0
  0
LINE
  5
96CA
330
9653
100
AcDbEntity
  8
1
  6
Continuous
100
AcDbLine
 10
144.950659
 20
197.98146
 30
0.0
 11
146.450659
 21
197.98146
 31
0.0
  0
LINE
  5
96CB
330
9653
100
AcDbEntity
  8
1
  6
Continuous
100
AcDbLine
 10
144.950659
 20
203.0814599999999
 30
0.0
 11
146.450659
 21
203.0814599999999
 31
0.0
  0
LINE
  5
96CC
330
9653
100
AcDbEntity
  8
1
  6
Continuous
100
AcDbLine
 10
144.950659
 20
201.0814599999999
 30
0.0
 11
146.450659
 21
201.0814599999999
 31
0.0
  0
LINE
  5
96CD
330
9653
100
AcDbEntity
  8
1
  6
Continuous
100
AcDbLine
 10
144.950659
 20
206.38146
 30
0.0
 11
146.450659
 21
206.38146
 31
0.0
  0
LINE
  5
96CE
330
9653
100
AcDbEntity
  8
1
  6
Continuous
100
AcDbLine
 10
144.950659
 20
197.78146
 30
0.0
 11
146.450659
 21
197.78146
 31
0.0
  0
LINE
  5
96CF
330
9653
100
AcDbEntity
  8
1
  6
Continuous
100
AcDbLine
 10
144.396659
 20
123.68146
 30
0.0
 11
144.650659
 21
123.68146
 31
0.0
  0
LINE
  5
96D0
330
9653
100
AcDbEntity
  8
1
  6
Continuous
100
AcDbLine
 10
144.5506589999999
 20
204.6814599999999
 30
0.0
 11
144.5506589999999
 21
203.68146
 31
0.0
  0
LINE
  5
96D1
330
9653
100
AcDbEntity
  8
1
  6
Continuous
100
AcDbLine
 10
144.949659
 20
199.50746
 30
0.0
 11
144.0496589999999
 21
206.3074599999999
 31
0.0
  0
LINE
  5
96D2
330
9653
100
AcDbEntity
  8
1
  6
Continuous
100
AcDbLine
 10
143.6526589999998
 20
206.2554599999999
 30
0.0
 11
144.552659
 21
199.4554599999999
 31
0.0
  0
LINE
  5
96D3
330
9653
100
AcDbEntity
  8
1
  6
Continuous
100
AcDbLine
 10
144.050659
 20
200.48146
 30
0.0
 11
144.050659
 21
197.8814599999998
 31
0.0
  0
LINE
  5
96D4
330
9653
100
AcDbEntity
  8
1
  6
Continuous
100
AcDbLine
 10
144.050659
 20
120.48146
 30
0.0
 11
144.050659
 21
117.88146
 31
0.0
  0
LINE
  5
96D5
330
9653
100
AcDbEntity
  8
1
  6
Continuous
100
AcDbLine
 10
143.6526589999998
 20
126.25546
 30
0.0
 11
144.552659
 21
119.45546
 31
0.0
  0
LINE
  5
96D6
330
9653
100
AcDbEntity
  8
1
  6
Continuous
100
AcDbLine
 10
144.949659
 20
119.5074599999999
 30
0.0
 11
144.0496589999999
 21
126.30746
 31
0.0
  0
LINE
  5
96D7
330
9653
100
AcDbEntity
  8
1
  6
Continuous
100
AcDbLine
 10
144.5506589999999
 20
124.68146
 30
0.0
 11
144.5506589999999
 21
123.68146
 31
0.0
  0
LINE
  5
96D8
330
9653
100
AcDbEntity
  8
1
  6
Continuous
100
AcDbLine
 10
144.396659
 20
203.68146
 30
0.0
 11
144.650659
 21
203.68146
 31
0.0
  0
LINE
  5
96D9
330
9653
100
AcDbEntity
  8
1
  6
Continuous
100
AcDbLine
 10
224.650659
 20
118.64146
 30
0.0
 11
224.650659
 21
108.08146
 31
0.0
  0
LINE
  5
96DA
330
9653
100
AcDbEntity
  8
1
  6
Continuous
100
AcDbLine
 10
225.6506589999999
 20
118.56146
 30
0.0
 11
225.6506589999999
 21
108.08146
 31
0.0
  0
LINE
  5
96DB
330
9653
100
AcDbEntity
  8
1
  6
Continuous
100
AcDbLine
 10
138.1506589999999
 20
126.08146
 30
0.0
 11
141.1506589999999
 21
126.08146
 31
0.0
  0
LINE
  5
96DC
330
9653
100
AcDbEntity
  8
1
  6
Continuous
100
AcDbLine
 10
138.1506589999999
 20
118.08146
 30
0.0
 11
141.1506589999999
 21
118.08146
 31
0.0
  0
LINE
  5
96DD
330
9653
100
AcDbEntity
  8
1
  6
Continuous
100
AcDbLine
 10
133.1506589999999
 20
119.08146
 30
0.0
 11
136.1506589999999
 21
119.08146
 31
0.0
  0
LINE
  5
96DE
330
9653
100
AcDbEntity
  8
1
  6
Continuous
100
AcDbLine
 10
133.1506589999999
 20
125.0814599999998
 30
0.0
 11
136.1506589999999
 21
125.0814599999998
 31
0.0
  0
LINE
  5
96DF
330
9653
100
AcDbEntity
  8
1
  6
Continuous
100
AcDbLine
 10
142.6506589999999
 20
208.08146
 30
0.0
 11
142.6506589999999
 21
196.58146
 31
0.0
  0
LINE
  5
96E0
330
9653
100
AcDbEntity
  8
1
  6
Continuous
100
AcDbLine
 10
127.650659
 20
199.5814599999999
 30
0.0
 11
128.160659
 21
199.5814599999999
 31
0.0
  0
LINE
  5
96E1
330
9653
100
AcDbEntity
  8
1
  6
Continuous
100
AcDbLine
 10
127.650659
 20
204.5814599999999
 30
0.0
 11
128.9976589999999
 21
204.5814599999999
 31
0.0
  0
LINE
  5
96E2
330
9653
100
AcDbEntity
  8
2
  6
Continuous
100
AcDbLine
 10
132.558659
 20
120.01446
 30
0.0
 11
133.1506589999999
 21
120.01446
 31
0.0
  0
LINE
  5
96E3
330
9653
100
AcDbEntity
  8
1
  6
Continuous
100
AcDbLine
 10
132.485659
 20
119.58146
 30
0.0
 11
133.1506589999999
 21
119.58146
 31
0.0
  0
LINE
  5
96E4
330
9653
100
AcDbEntity
  8
1
  6
Continuous
100
AcDbLine
 10
337.6506589999999
 20
136.0814599999999
 30
0.0
 11
334.6506589999999
 21
136.0814599999999
 31
0.0
  0
LINE
  5
96E5
330
9653
100
AcDbEntity
  8
1
  6
Continuous
100
AcDbLine
 10
337.6506589999999
 20
108.08146
 30
0.0
 11
334.6506589999999
 21
108.08146
 31
0.0
  0
LINE
  5
96E6
330
9653
100
AcDbEntity
  8
1
  6
Continuous
100
AcDbLine
 10
337.6506589999999
 20
136.0814599999999
 30
0.0
 11
337.6506589999999
 21
108.08146
 31
0.0
  0
LINE
  5
96E7
330
9653
100
AcDbEntity
  8
1
  6
Continuous
100
AcDbLine
 10
334.6506589999999
 20
136.0814599999999
 30
0.0
 11
334.6506589999999
 21
127.58146
 31
0.0
  0
LINE
  5
96E8
330
9653
100
AcDbEntity
  8
1
  6
Continuous
100
AcDbLine
 10
334.6506589999999
 20
127.58146
 30
0.0
 11
319.6506589999998
 21
127.58146
 31
0.0
  0
LINE
  5
96E9
330
9653
100
AcDbEntity
  8
1
  6
Continuous
100
AcDbLine
 10
334.6506589999999
 20
115.08146
 30
0.0
 11
320.6506589999999
 21
115.08146
 31
0.0
  0
LINE
  5
96EA
330
9653
100
AcDbEntity
  8
1
  6
Continuous
100
AcDbLine
 10
334.6506589999999
 20
116.58146
 30
0.0
 11
319.6506589999998
 21
116.58146
 31
0.0
  0
LINE
  5
96EB
330
9653
100
AcDbEntity
  8
1
  6
Continuous
100
AcDbLine
 10
334.6506589999999
 20
116.08146
 30
0.0
 11
320.6506589999999
 21
116.08146
 31
0.0
  0
LINE
  5
96EC
330
9653
100
AcDbEntity
  8
1
  6
Continuous
100
AcDbLine
 10
319.6506589999998
 20
127.58146
 30
0.0
 11
319.6506589999998
 21
116.08146
 31
0.0
  0
LINE
  5
96ED
330
9653
100
AcDbEntity
  8
1
  6
Continuous
100
AcDbLine
 10
320.6506589999999
 20
116.58146
 30
0.0
 11
320.6506589999999
 21
116.08146
 31
0.0
  0
LINE
  5
96EE
330
9653
100
AcDbEntity
  8
1
  6
Continuous
100
AcDbLine
 10
315.6506589999999
 20
123.68146
 30
0.0
 11
315.6506589999999
 21
120.48146
 31
0.0
  0
LINE
  5
96EF
330
9653
100
AcDbEntity
  8
1
  6
Continuous
100
AcDbLine
 10
318.6506589999999
 20
123.68146
 30
0.0
 11
318.6506589999999
 21
121.76146
 31
0.0
  0
LINE
  5
96F0
330
9653
100
AcDbEntity
  8
1
  6
Continuous
100
AcDbLine
 10
316.850659
 20
128.08146
 30
0.0
 11
316.850659
 21
115.58146
 31
0.0
  0
LINE
  5
96F1
330
9653
100
AcDbEntity
  8
1
  6
Continuous
100
AcDbLine
 10
316.850659
 20
123.68146
 30
0.0
 11
315.6506589999999
 21
123.68146
 31
0.0
  0
LINE
  5
96F2
330
9653
100
AcDbEntity
  8
1
  6
Continuous
100
AcDbLine
 10
316.850659
 20
120.48146
 30
0.0
 11
315.6506589999999
 21
120.48146
 31
0.0
  0
LINE
  5
96F3
330
9653
100
AcDbEntity
  8
1
  6
Continuous
100
AcDbLine
 10
318.5406589999999
 20
120.93146
 30
0.0
 11
318.350659
 21
120.93146
 31
0.0
  0
LINE
  5
96F4
330
9653
100
AcDbEntity
  8
1
  6
Continuous
100
AcDbLine
 10
318.6506589999999
 20
123.23146
 30
0.0
 11
318.350659
 21
123.23146
 31
0.0
  0
LINE
  5
96F5
330
9653
100
AcDbEntity
  8
1
  6
Continuous
100
AcDbLine
 10
319.6506589999998
 20
120.48146
 30
0.0
 11
318.884659
 21
120.48146
 31
0.0
  0
LINE
  5
96F6
330
9653
100
AcDbEntity
  8
1
  6
Continuous
100
AcDbLine
 10
319.6506589999998
 20
123.68146
 30
0.0
 11
319.308659
 21
123.68146
 31
0.0
  0
LINE
  5
96F7
330
9653
100
AcDbEntity
  8
1
  6
Continuous
100
AcDbLine
 10
318.350659
 20
115.58146
 30
0.0
 11
316.850659
 21
115.58146
 31
0.0
  0
LINE
  5
96F8
330
9653
100
AcDbEntity
  8
1
  6
Continuous
100
AcDbLine
 10
318.350659
 20
128.08146
 30
0.0
 11
316.850659
 21
128.08146
 31
0.0
  0
LINE
  5
96F9
330
9653
100
AcDbEntity
  8
1
  6
Continuous
100
AcDbLine
 10
318.350659
 20
124.2034599999998
 30
0.0
 11
316.850659
 21
124.2034599999998
 31
0.0
  0
LINE
  5
96FA
330
9653
100
AcDbEntity
  8
1
  6
Continuous
100
AcDbLine
 10
318.350659
 20
128.08146
 30
0.0
 11
318.350659
 21
115.58146
 31
0.0
  0
LINE
  5
96FB
330
9653
100
AcDbEntity
  8
1
  6
Continuous
100
AcDbLine
 10
318.350659
 20
120.95046
 30
0.0
 11
316.850659
 21
120.95046
 31
0.0
  0
LINE
  5
96FC
330
9653
100
AcDbEntity
  8
1
  6
Continuous
100
AcDbLine
 10
318.9046589999999
 20
123.68146
 30
0.0
 11
318.6506589999999
 21
123.68146
 31
0.0
  0
LINE
  5
96FD
330
9653
100
AcDbEntity
  8
1
  6
Continuous
100
AcDbLine
 10
319.2506589999999
 20
120.48146
 30
0.0
 11
319.2506589999999
 21
117.88146
 31
0.0
  0
LINE
  5
96FE
330
9653
100
AcDbEntity
  8
1
  6
Continuous
100
AcDbLine
 10
319.6496589999998
 20
126.25546
 30
0.0
 11
318.749659
 21
119.45546
 31
0.0
  0
LINE
  5
96FF
330
9653
100
AcDbEntity
  8
1
  6
Continuous
100
AcDbLine
 10
318.3526589999999
 20
119.5074599999999
 30
0.0
 11
319.2526589999999
 21
126.30746
 31
0.0
  0
LINE
  5
9700
330
9653
100
AcDbEntity
  8
1
  6
Continuous
100
AcDbLine
 10
318.7506589999999
 20
124.68146
 30
0.0
 11
318.7506589999999
 21
123.68146
 31
0.0
  0
LINE
  5
9701
330
9653
100
AcDbEntity
  8
1
  6
Continuous
100
AcDbLine
 10
125.650659
 20
36.08146
 30
0.0
 11
125.650659
 21
48.08146
 31
0.0
  0
LINE
  5
9702
330
9653
100
AcDbEntity
  8
1
  6
Continuous
100
AcDbLine
 10
128.6506589999999
 20
35.08145999999999
 30
0.0
 11
128.6506589999999
 21
36.08146
 31
0.0
  0
LINE
  5
9703
330
9653
100
AcDbEntity
  8
1
  6
Continuous
100
AcDbLine
 10
143.650659
 20
36.08146
 30
0.0
 11
143.650659
 21
47.58145999999999
 31
0.0
  0
LINE
  5
9704
330
9653
100
AcDbEntity
  8
1
  6
Continuous
100
AcDbLine
 10
147.6506589999999
 20
40.48146
 30
0.0
 11
147.6506589999999
 21
43.68145999999998
 31
0.0
  0
LINE
  5
9705
330
9653
100
AcDbEntity
  8
1
  6
Continuous
100
AcDbLine
 10
144.650659
 20
40.48146
 30
0.0
 11
144.650659
 21
42.40166
 31
0.0
  0
LINE
  5
9706
330
9653
100
AcDbEntity
  8
1
  6
Continuous
100
AcDbLine
 10
146.450659
 20
37.78145999999999
 30
0.0
 11
146.450659
 21
46.38145999999998
 31
0.0
  0
LINE
  5
9707
330
9653
100
AcDbEntity
  8
1
  6
Continuous
100
AcDbLine
 10
146.450659
 20
40.48146
 30
0.0
 11
147.6506589999999
 21
40.48146
 31
0.0
  0
LINE
  5
9708
330
9653
100
AcDbEntity
  8
1
  6
Continuous
100
AcDbLine
 10
146.450659
 20
43.68145999999998
 30
0.0
 11
147.6506589999999
 21
43.68145999999998
 31
0.0
  0
LINE
  5
9709
330
9653
100
AcDbEntity
  8
1
  6
Continuous
100
AcDbLine
 10
144.760659
 20
43.23146
 30
0.0
 11
144.950659
 21
43.23146
 31
0.0
  0
LINE
  5
970A
330
9653
100
AcDbEntity
  8
1
  6
Continuous
100
AcDbLine
 10
144.650659
 20
40.93145999999999
 30
0.0
 11
144.950659
 21
40.93145999999999
 31
0.0
  0
LINE
  5
970B
330
9653
100
AcDbEntity
  8
1
  6
Continuous
100
AcDbLine
 10
143.650659
 20
43.68145999999998
 30
0.0
 11
144.416659
 21
43.68145999999998
 31
0.0
  0
LINE
  5
970C
330
9653
100
AcDbEntity
  8
1
  6
Continuous
100
AcDbLine
 10
143.650659
 20
40.48146
 30
0.0
 11
143.993659
 21
40.48146
 31
0.0
  0
LINE
  5
970D
330
9653
100
AcDbEntity
  8
1
  6
Continuous
100
AcDbLine
 10
144.950659
 20
37.78145999999999
 30
0.0
 11
144.950659
 21
46.38145999999998
 31
0.0
  0
LINE
  5
970E
330
9653
100
AcDbEntity
  8
1
  6
Continuous
100
AcDbLine
 10
126.650659
 20
49.08146
 30
0.0
 11
128.6506589999999
 21
49.08146
 31
0.0
  0
LINE
  5
970F
330
9653
100
AcDbEntity
  8
1
  6
Continuous
100
AcDbLine
 10
126.650659
 20
36.08146
 30
0.0
 11
126.650659
 21
48.08146
 31
0.0
  0
LINE
  5
9710
330
9653
100
AcDbEntity
  8
1
  6
Continuous
100
AcDbLine
 10
126.650659
 20
48.08146
 30
0.0
 11
128.6506589999999
 21
48.08146
 31
0.0
  0
LINE
  5
9711
330
9653
100
AcDbEntity
  8
1
  6
Continuous
100
AcDbLine
 10
128.6506589999999
 20
48.08146
 30
0.0
 11
128.6506589999999
 21
49.08146
 31
0.0
  0
LINE
  5
9712
330
9653
100
AcDbEntity
  8
1
  6
Continuous
100
AcDbLine
 10
126.650659
 20
47.58145999999999
 30
0.0
 11
143.650659
 21
47.58145999999999
 31
0.0
  0
LINE
  5
9713
330
9653
100
AcDbEntity
  8
1
  6
Continuous
100
AcDbLine
 10
126.650659
 20
36.58146
 30
0.0
 11
143.650659
 21
36.58146
 31
0.0
  0
LINE
  5
9714
330
9653
100
AcDbEntity
  8
1
  6
Continuous
100
AcDbLine
 10
126.650659
 20
35.08145999999999
 30
0.0
 11
142.6506589999999
 21
35.08145999999999
 31
0.0
  0
LINE
  5
9715
330
9653
100
AcDbEntity
  8
1
  6
Continuous
100
AcDbLine
 10
126.650659
 20
36.08146
 30
0.0
 11
142.6506589999999
 21
36.08146
 31
0.0
  0
LINE
  5
9716
330
9653
100
AcDbEntity
  8
1
  6
Continuous
100
AcDbLine
 10
144.950659
 20
41.08146
 30
0.0
 11
146.450659
 21
41.08146
 31
0.0
  0
LINE
  5
9717
330
9653
100
AcDbEntity
  8
1
  6
Continuous
100
AcDbLine
 10
144.950659
 20
43.08145999999999
 30
0.0
 11
146.450659
 21
43.08145999999999
 31
0.0
  0
LINE
  5
9718
330
9653
100
AcDbEntity
  8
1
  6
Continuous
100
AcDbLine
 10
144.950659
 20
37.78145999999999
 30
0.0
 11
146.450659
 21
37.78145999999999
 31
0.0
  0
LINE
  5
9719
330
9653
100
AcDbEntity
  8
1
  6
Continuous
100
AcDbLine
 10
144.950659
 20
46.38145999999998
 30
0.0
 11
146.450659
 21
46.38145999999998
 31
0.0
  0
LINE
  5
971A
330
9653
100
AcDbEntity
  8
1
  6
Continuous
100
AcDbLine
 10
144.5506589999999
 20
39.48145999999999
 30
0.0
 11
144.5506589999999
 21
40.48146
 31
0.0
  0
LINE
  5
971B
330
9653
100
AcDbEntity
  8
1
  6
Continuous
100
AcDbLine
 10
144.949659
 20
44.65525999999999
 30
0.0
 11
144.0496589999999
 21
37.85525999999999
 31
0.0
  0
LINE
  5
971C
330
9653
100
AcDbEntity
  8
1
  6
Continuous
100
AcDbLine
 10
143.6526589999998
 20
37.90775999999999
 30
0.0
 11
144.552659
 21
44.70775999999999
 31
0.0
  0
LINE
  5
971D
330
9653
100
AcDbEntity
  8
1
  6
Continuous
100
AcDbLine
 10
144.050659
 20
43.68145999999998
 30
0.0
 11
144.050659
 21
46.28146
 31
0.0
  0
LINE
  5
971E
330
9653
100
AcDbEntity
  8
1
  6
Continuous
100
AcDbLine
 10
144.396659
 20
40.48146
 30
0.0
 11
144.650659
 21
40.48146
 31
0.0
  0
LINE
  5
971F
330
9653
100
AcDbEntity
  8
1
  6
Continuous
100
AcDbLine
 10
142.6506589999999
 20
36.08146
 30
0.0
 11
142.6506589999999
 21
36.58146
 31
0.0
  0
LINE
  5
9720
330
9653
100
AcDbEntity
  8
1
  6
Continuous
100
AcDbLine
 10
334.6506589999999
 20
116.58146
 30
0.0
 11
334.6506589999999
 21
108.08146
 31
0.0
  0
LINE
  5
9721
330
9653
100
AcDbEntity
  8
4
  6
CENTER
100
AcDbLine
 10
122.1946589999999
 20
112.08146
 30
0.0
 11
131.862659
 21
112.08146
 31
0.0
  0
LINE
  5
9722
330
9653
100
AcDbEntity
  8
4
  6
CENTER
100
AcDbLine
 10
122.470659
 20
132.08146
 30
0.0
 11
131.862659
 21
132.08146
 31
0.0
  0
LINE
  5
9723
330
9653
100
AcDbEntity
  8
4
  6
CENTER
100
AcDbLine
 10
340.831659
 20
132.08146
 30
0.0
 11
331.439659
 21
132.08146
 31
0.0
  0
LINE
  5
9724
330
9653
100
AcDbEntity
  8
4
  6
CENTER
100
AcDbLine
 10
341.107659
 20
112.08146
 30
0.0
 11
331.439659
 21
112.08146
 31
0.0
  0
LINE
  5
9725
330
9653
100
AcDbEntity
  8
1
  6
Continuous
100
AcDbLine
 10
127.650659
 20
36.58146
 30
0.0
 11
127.650659
 21
47.58145999999999
 31
0.0
  0
LINE
  5
9726
330
9653
100
AcDbEntity
  8
1
  6
Continuous
100
AcDbLine
 10
237.150659
 20
116.58146
 30
0.0
 11
237.150659
 21
108.08146
 31
0.0
  0
LINE
  5
9727
330
9653
100
AcDbEntity
  8
1
  6
Continuous
100
AcDbLine
 10
226.1506589999999
 20
122.58146
 30
0.0
 11
226.1506589999999
 21
108.08146
 31
0.0
  0
LINE
  5
9728
330
9653
100
AcDbEntity
  8
1
  6
Continuous
100
AcDbLine
 10
140.979659
 20
196.58146
 30
0.0
 11
143.650659
 21
196.58146
 31
0.0
  0
LINE
  5
9729
330
9653
100
AcDbEntity
  8
1
  6
Continuous
100
AcDbLine
 10
126.650659
 20
196.58146
 30
0.0
 11
134.492659
 21
196.58146
 31
0.0
  0
LINE
  5
972A
330
9653
100
AcDbEntity
  8
1
  6
Continuous
100
AcDbLine
 10
219.1506589999999
 20
119.08146
 30
0.0
 11
226.1506589999999
 21
118.52146
 31
0.0
  0
LINE
  5
972B
330
9653
100
AcDbEntity
  8
1
  6
Continuous
100
AcDbLine
 10
219.1506589999999
 20
125.0814599999998
 30
0.0
 11
219.1506589999999
 21
119.08146
 31
0.0
  0
LINE
  5
972C
330
9653
100
AcDbEntity
  8
1
  6
Continuous
100
AcDbLine
 10
219.1506589999999
 20
125.0814599999998
 30
0.0
 11
227.2671299999999
 21
125.730778
 31
0.0
  0
LINE
  5
972D
330
9653
100
AcDbEntity
  8
1
  6
Continuous
100
AcDbLine
 10
223.6506589999999
 20
125.0814599999998
 30
0.0
 11
223.6506589999999
 21
119.08146
 31
0.0
  0
LINE
  5
972E
330
9653
100
AcDbEntity
  8
1
  6
Continuous
100
AcDbLine
 10
36.150959
 20
125.0814599999998
 30
0.0
 11
30.65095900000001
 21
125.52146
 31
0.0
  0
LINE
  5
972F
330
9653
100
AcDbEntity
  8
1
  6
Continuous
100
AcDbLine
 10
36.150959
 20
125.0814599999998
 30
0.0
 11
36.150959
 21
119.08146
 31
0.0
  0
LINE
  5
9730
330
9653
100
AcDbEntity
  8
1
  6
Continuous
100
AcDbLine
 10
36.150959
 20
119.08146
 30
0.0
 11
30.65095900000001
 21
118.64146
 31
0.0
  0
LINE
  5
9731
330
9653
100
AcDbEntity
  8
4
  6
CENTER
100
AcDbLine
 10
23.650959
 20
138.95446
 30
0.0
 11
23.650959
 21
105.05246
 31
0.0
  0
LINE
  5
9732
330
9653
100
AcDbEntity
  8
5
  6
PHANTOM
100
AcDbLine
 10
128.6506589999999
 20
194.0814599999999
 30
0.0
 11
128.6506589999999
 21
189.5814599999999
 31
0.0
  0
LINE
  5
9733
330
9653
100
AcDbEntity
  8
5
  6
PHANTOM
100
AcDbLine
 10
136.6506589999999
 20
206.08146
 30
0.0
 11
136.6506589999999
 21
197.5814599999999
 31
0.0
  0
LINE
  5
9734
330
9653
100
AcDbEntity
  8
1
  6
Continuous
100
AcDbLine
 10
141.1506589999999
 20
205.0814599999999
 30
0.0
 11
142.6506589999999
 21
205.0814599999999
 31
0.0
  0
LINE
  5
9735
330
9653
100
AcDbEntity
  8
1
  6
Continuous
100
AcDbLine
 10
141.1506589999999
 20
199.08146
 30
0.0
 11
142.6506589999999
 21
199.08146
 31
0.0
  0
LINE
  5
9736
330
9653
100
AcDbEntity
  8
5
  6
PHANTOM
100
AcDbLine
 10
133.6506589999999
 20
206.08146
 30
0.0
 11
133.6506589999999
 21
197.5814599999999
 31
0.0
  0
LINE
  5
9737
330
9653
100
AcDbEntity
  8
5
  6
PHANTOM
100
AcDbLine
 10
133.6506589999999
 20
206.08146
 30
0.0
 11
136.6506589999999
 21
206.08146
 31
0.0
  0
LINE
  5
9738
330
9653
100
AcDbEntity
  8
5
  6
PHANTOM
100
AcDbLine
 10
128.6506589999999
 20
189.5814599999999
 30
0.0
 11
131.6506589999999
 21
189.5814599999999
 31
0.0
  0
LINE
  5
9739
330
9653
100
AcDbEntity
  8
5
  6
PHANTOM
100
AcDbLine
 10
131.6506589999999
 20
194.0814599999999
 30
0.0
 11
131.6506589999999
 21
189.5814599999999
 31
0.0
  0
LINE
  5
973A
330
9653
100
AcDbEntity
  8
5
  6
PHANTOM
100
AcDbLine
 10
131.6506589999999
 20
194.0814599999999
 30
0.0
 11
134.282659
 21
194.6484599999998
 31
0.0
  0
LINE
  5
973B
330
9653
100
AcDbEntity
  8
5
  6
PHANTOM
100
AcDbLine
 10
133.6506589999999
 20
197.5814599999999
 30
0.0
 11
131.018659
 21
197.01446
 31
0.0
  0
LINE
  5
973C
330
9653
100
AcDbEntity
  8
1
  6
Continuous
100
AcDbLine
 10
115.650659
 20
127.08146
 30
0.0
 11
115.650659
 21
117.08146
 31
0.0
  0
LINE
  5
973D
330
9653
100
AcDbEntity
  8
1
  6
Continuous
100
AcDbLine
 10
105.650659
 20
127.08146
 30
0.0
 11
105.650659
 21
117.08146
 31
0.0
  0
LINE
  5
973E
330
9653
100
AcDbEntity
  8
1
  6
Continuous
100
AcDbLine
 10
115.650659
 20
127.08146
 30
0.0
 11
125.650659
 21
127.08146
 31
0.0
  0
LINE
  5
973F
330
9653
100
AcDbEntity
  8
1
  6
Continuous
100
AcDbLine
 10
115.650659
 20
117.08146
 30
0.0
 11
125.650659
 21
117.08146
 31
0.0
  0
LINE
  5
9740
330
9653
100
AcDbEntity
  8
1
  6
Continuous
100
AcDbLine
 10
106.650659
 20
128.08146
 30
0.0
 11
115.073659
 21
128.08146
 31
0.0
  0
LINE
  5
9741
330
9653
100
AcDbEntity
  8
1
  6
Continuous
100
AcDbLine
 10
106.650659
 20
116.08146
 30
0.0
 11
115.073659
 21
116.08146
 31
0.0
  0
LINE
  5
9742
330
9653
100
AcDbEntity
  8
1
  6
Continuous
100
AcDbLine
 10
106.650659
 20
128.08146
 30
0.0
 11
105.650659
 21
127.08146
 31
0.0
  0
LINE
  5
9743
330
9653
100
AcDbEntity
  8
1
  6
Continuous
100
AcDbLine
 10
105.650659
 20
117.08146
 30
0.0
 11
106.650659
 21
116.08146
 31
0.0
  0
LINE
  5
9744
330
9653
100
AcDbEntity
  8
1
  6
Continuous
100
AcDbLine
 10
106.650659
 20
128.08146
 30
0.0
 11
106.650659
 21
116.08146
 31
0.0
  0
LINE
  5
9745
330
9653
100
AcDbEntity
  8
1
  6
Continuous
100
AcDbLine
 10
115.073659
 20
116.08146
 30
0.0
 11
115.650659
 21
117.08146
 31
0.0
  0
LINE
  5
9746
330
9653
100
AcDbEntity
  8
1
  6
Continuous
100
AcDbLine
 10
115.073659
 20
128.08146
 30
0.0
 11
115.650659
 21
127.08146
 31
0.0
  0
LINE
  5
9747
330
9653
100
AcDbEntity
  8
1
  6
Continuous
100
AcDbLine
 10
115.073659
 20
128.08146
 30
0.0
 11
115.073659
 21
116.08146
 31
0.0
  0
LINE
  5
9748
330
9653
100
AcDbEntity
  8
1
  6
Continuous
100
AcDbLine
 10
106.650659
 20
127.08146
 30
0.0
 11
115.073659
 21
127.08146
 31
0.0
  0
LINE
  5
9749
330
9653
100
AcDbEntity
  8
1
  6
Continuous
100
AcDbLine
 10
107.650659
 20
126.08146
 30
0.0
 11
115.073659
 21
126.08146
 31
0.0
  0
LINE
  5
974A
330
9653
100
AcDbEntity
  8
1
  6
Continuous
100
AcDbLine
 10
108.650659
 20
125.0814599999998
 30
0.0
 11
115.073659
 21
125.0814599999998
 31
0.0
  0
LINE
  5
974B
330
9653
100
AcDbEntity
  8
1
  6
Continuous
100
AcDbLine
 10
109.650659
 20
124.0814599999998
 30
0.0
 11
115.073659
 21
124.0814599999998
 31
0.0
  0
LINE
  5
974C
330
9653
100
AcDbEntity
  8
1
  6
Continuous
100
AcDbLine
 10
110.650659
 20
123.08146
 30
0.0
 11
115.073659
 21
123.08146
 31
0.0
  0
LINE
  5
974D
330
9653
100
AcDbEntity
  8
1
  6
Continuous
100
AcDbLine
 10
141.1506589999999
 20
126.08146
 30
0.0
 11
141.1506589999999
 21
118.08146
 31
0.0
  0
LINE
  5
974E
330
9653
100
AcDbEntity
  8
1
  6
Continuous
100
AcDbLine
 10
136.1506589999999
 20
125.0814599999998
 30
0.0
 11
136.1506589999999
 21
119.08146
 31
0.0
  0
LINE
  5
974F
330
9653
100
AcDbEntity
  8
1
  6
Continuous
100
AcDbLine
 10
133.1506589999999
 20
125.0814599999998
 30
0.0
 11
133.1506589999999
 21
119.08146
 31
0.0
  0
LINE
  5
9750
330
9653
100
AcDbEntity
  8
1
  6
Continuous
100
AcDbLine
 10
138.1506589999999
 20
126.08146
 30
0.0
 11
133.1506589999999
 21
125.0814599999998
 31
0.0
  0
LINE
  5
9751
330
9653
100
AcDbEntity
  8
1
  6
Continuous
100
AcDbLine
 10
141.1506589999999
 20
126.08146
 30
0.0
 11
136.1506589999999
 21
125.0814599999998
 31
0.0
  0
LINE
  5
9752
330
9653
100
AcDbEntity
  8
1
  6
Continuous
100
AcDbLine
 10
136.1506589999999
 20
119.08146
 30
0.0
 11
141.1506589999999
 21
118.08146
 31
0.0
  0
LINE
  5
9753
330
9653
100
AcDbEntity
  8
1
  6
Continuous
100
AcDbLine
 10
138.1506589999999
 20
118.08146
 30
0.0
 11
133.1506589999999
 21
119.08146
 31
0.0
  0
LINE
  5
9754
330
9653
100
AcDbEntity
  8
1
  6
Continuous
100
AcDbLine
 10
141.1506589999999
 20
119.08146
 30
0.0
 11
142.6506589999999
 21
119.08146
 31
0.0
  0
LINE
  5
9755
330
9653
100
AcDbEntity
  8
1
  6
Continuous
100
AcDbLine
 10
141.1506589999999
 20
125.0814599999998
 30
0.0
 11
142.6506589999999
 21
125.0814599999998
 31
0.0
  0
LINE
  5
9756
330
9653
100
AcDbEntity
  8
1
  6
Continuous
100
AcDbLine
 10
137.6506589999999
 20
204.9314599999999
 30
0.0
 11
137.6506589999999
 21
199.23146
 31
0.0
  0
LINE
  5
9757
330
9653
100
AcDbEntity
  8
1
  6
Continuous
100
AcDbLine
 10
127.647659
 20
204.97246
 30
0.0
 11
127.7126589999999
 21
204.5814599999999
 31
0.0
  0
LINE
  5
9758
330
9653
100
AcDbEntity
  8
1
  6
Continuous
100
AcDbLine
 10
129.063659
 20
124.97246
 30
0.0
 11
128.6506589999999
 21
122.50946
 31
0.0
  0
LINE
  5
9759
330
9653
100
AcDbEntity
  8
1
  6
Continuous
100
AcDbLine
 10
129.5566589999999
 20
124.89046
 30
0.0
 11
128.6506589999999
 21
119.48246
 31
0.0
  0
LINE
  5
975A
330
9653
100
AcDbEntity
  8
1
  6
Continuous
100
AcDbLine
 10
130.017659
 20
119.27246
 30
0.0
 11
130.9726589999999
 21
124.97246
 31
0.0
  0
LINE
  5
975B
330
9653
100
AcDbEntity
  8
1
  6
Continuous
100
AcDbLine
 10
131.465659
 20
124.89046
 30
0.0
 11
130.511659
 21
119.19046
 31
0.0
  0
LINE
  5
975C
330
9653
100
AcDbEntity
  8
1
  6
Continuous
100
AcDbLine
 10
129.621659
 20
124.58146
 30
0.0
 11
129.5566589999999
 21
124.97246
 31
0.0
  0
LINE
  5
975D
330
9653
100
AcDbEntity
  8
1
  6
Continuous
100
AcDbLine
 10
129.952659
 20
119.58146
 30
0.0
 11
130.017659
 21
119.19046
 31
0.0
  0
LINE
  5
975E
330
9653
100
AcDbEntity
  8
1
  6
Continuous
100
AcDbLine
 10
131.926659
 20
119.19046
 30
0.0
 11
131.777659
 21
120.08146
 31
0.0
  0
LINE
  5
975F
330
9653
100
AcDbEntity
  8
1
  6
Continuous
100
AcDbLine
 10
131.465659
 20
124.97246
 30
0.0
 11
131.614659
 21
124.0814599999998
 31
0.0
  0
LINE
  5
9760
330
9653
100
AcDbEntity
  8
1
  6
Continuous
100
AcDbLine
 10
132.4206589999998
 20
119.19046
 30
0.0
 11
133.1506589999999
 21
123.55346
 31
0.0
  0
LINE
  5
9761
330
9653
100
AcDbEntity
  8
1
  6
Continuous
100
AcDbLine
 10
132.881659
 20
124.97246
 30
0.0
 11
131.926659
 21
119.27246
 31
0.0
  0
LINE
  5
9762
330
9653
100
AcDbEntity
  8
1
  6
Continuous
100
AcDbLine
 10
137.654659
 20
199.1904599999998
 30
0.0
 11
137.588659
 21
199.5814599999999
 31
0.0
  0
LINE
  5
9763
330
9653
100
AcDbEntity
  8
1
  6
Continuous
100
AcDbLine
 10
127.650659
 20
204.9314599999999
 30
0.0
 11
127.650659
 21
199.23146
 31
0.0
  0
LINE
  5
9764
330
9653
100
AcDbEntity
  8
1
  6
Continuous
100
AcDbLine
 10
128.6676589999999
 20
119.58146
 30
0.0
 11
130.069659
 21
119.58146
 31
0.0
  0
LINE
  5
9765
330
9653
100
AcDbEntity
  8
1
  6
Continuous
100
AcDbLine
 10
130.576659
 20
199.5814599999999
 30
0.0
 11
130.6506589999999
 21
199.5814599999999
 31
0.0
  0
LINE
  5
9766
330
9653
100
AcDbEntity
  8
1
  6
Continuous
100
AcDbLine
 10
128.6506589999999
 20
124.58146
 30
0.0
 11
128.9976589999999
 21
124.58146
 31
0.0
  0
LINE
  5
9767
330
9653
100
AcDbEntity
  8
1
  6
Continuous
100
AcDbLine
 10
130.6506589999999
 20
200.02546
 30
0.0
 11
130.6506589999999
 21
199.5814599999999
 31
0.0
  0
LINE
  5
9768
330
9653
100
AcDbEntity
  8
1
  6
Continuous
100
AcDbLine
 10
131.330659
 20
124.0814599999998
 30
0.0
 11
132.150659
 21
124.0814599999998
 31
0.0
  0
LINE
  5
9769
330
9653
100
AcDbEntity
  8
1
  6
Continuous
100
AcDbLine
 10
133.3226589999999
 20
204.5814599999999
 30
0.0
 11
134.725659
 21
204.5814599999999
 31
0.0
  0
LINE
  5
976A
330
9653
100
AcDbEntity
  8
2
  6
Continuous
100
AcDbLine
 10
133.250659
 20
204.1484599999999
 30
0.0
 11
134.652659
 21
204.1484599999999
 31
0.0
  0
LINE
  5
976B
330
9653
100
AcDbEntity
  8
2
  6
Continuous
100
AcDbLine
 10
134.4676589999999
 20
200.01446
 30
0.0
 11
135.869659
 21
200.01446
 31
0.0
  0
LINE
  5
976C
330
9653
100
AcDbEntity
  8
1
  6
Continuous
100
AcDbLine
 10
134.3946589999999
 20
199.5814599999999
 30
0.0
 11
135.7966589999997
 21
199.5814599999999
 31
0.0
  0
LINE
  5
976D
330
9653
100
AcDbEntity
  8
2
  6
Continuous
100
AcDbLine
 10
136.376659
 20
200.01446
 30
0.0
 11
137.6506589999999
 21
200.01446
 31
0.0
  0
LINE
  5
976E
330
9653
100
AcDbEntity
  8
1
  6
Continuous
100
AcDbLine
 10
136.303659
 20
199.5814599999999
 30
0.0
 11
137.6506589999999
 21
199.5814599999999
 31
0.0
  0
LINE
  5
976F
330
9653
100
AcDbEntity
  8
1
  6
Continuous
100
AcDbLine
 10
137.141659
 20
204.5814599999999
 30
0.0
 11
137.6506589999999
 21
204.5814599999999
 31
0.0
  0
LINE
  5
9770
330
9653
100
AcDbEntity
  8
2
  6
Continuous
100
AcDbLine
 10
137.068659
 20
204.1484599999999
 30
0.0
 11
137.6506589999999
 21
204.1484599999999
 31
0.0
  0
LINE
  5
9771
330
9653
100
AcDbEntity
  8
1
  6
Continuous
100
AcDbLine
 10
135.232659
 20
204.5814599999999
 30
0.0
 11
136.634659
 21
204.5814599999999
 31
0.0
  0
LINE
  5
9772
330
9653
100
AcDbEntity
  8
2
  6
Continuous
100
AcDbLine
 10
135.1596589999997
 20
204.1484599999999
 30
0.0
 11
136.5616589999999
 21
204.1484599999999
 31
0.0
  0
LINE
  5
9773
330
9653
100
AcDbEntity
  8
1
  6
Continuous
100
AcDbLine
 10
129.5566589999999
 20
204.8904599999999
 30
0.0
 11
128.601659
 21
199.1904599999998
 31
0.0
  0
LINE
  5
9774
330
9653
100
AcDbEntity
  8
1
  6
Continuous
100
AcDbLine
 10
129.063659
 20
204.97246
 30
0.0
 11
128.1086589999999
 21
199.27246
 31
0.0
  0
LINE
  5
9775
330
9653
100
AcDbEntity
  8
1
  6
Continuous
100
AcDbLine
 10
128.0436589999999
 20
199.5814599999999
 30
0.0
 11
128.1086589999999
 21
199.1904599999998
 31
0.0
  0
LINE
  5
9776
330
9653
100
AcDbEntity
  8
1
  6
Continuous
100
AcDbLine
 10
129.622659
 20
204.5814599999999
 30
0.0
 11
129.5566589999999
 21
204.97246
 31
0.0
  0
LINE
  5
9777
330
9653
100
AcDbEntity
  8
1
  6
Continuous
100
AcDbLine
 10
130.017659
 20
199.27246
 30
0.0
 11
130.9726589999999
 21
204.97246
 31
0.0
  0
LINE
  5
9778
330
9653
100
AcDbEntity
  8
1
  6
Continuous
100
AcDbLine
 10
131.465659
 20
204.97246
 30
0.0
 11
131.614659
 21
204.08146
 31
0.0
  0
LINE
  5
9779
330
9653
100
AcDbEntity
  8
1
  6
Continuous
100
AcDbLine
 10
131.465659
 20
204.8904599999999
 30
0.0
 11
130.511659
 21
199.1904599999998
 31
0.0
  0
LINE
  5
977A
330
9653
100
AcDbEntity
  8
1
  6
Continuous
100
AcDbLine
 10
129.952659
 20
199.5814599999999
 30
0.0
 11
130.017659
 21
199.1904599999998
 31
0.0
  0
LINE
  5
977B
330
9653
100
AcDbEntity
  8
1
  6
Continuous
100
AcDbLine
 10
131.926659
 20
199.1904599999998
 30
0.0
 11
131.777659
 21
200.0814599999999
 31
0.0
  0
LINE
  5
977C
330
9653
100
AcDbEntity
  8
1
  6
Continuous
100
AcDbLine
 10
132.881659
 20
204.97246
 30
0.0
 11
131.926659
 21
199.27246
 31
0.0
  0
LINE
  5
977D
330
9653
100
AcDbEntity
  8
1
  6
Continuous
100
AcDbLine
 10
132.4206589999998
 20
199.1904599999998
 30
0.0
 11
133.374659
 21
204.8904599999999
 31
0.0
  0
LINE
  5
977E
330
9653
100
AcDbEntity
  8
1
  6
Continuous
100
AcDbLine
 10
133.374659
 20
204.97246
 30
0.0
 11
133.440659
 21
204.5814599999999
 31
0.0
  0
LINE
  5
977F
330
9653
100
AcDbEntity
  8
1
  6
Continuous
100
AcDbLine
 10
135.283659
 20
204.97246
 30
0.0
 11
135.3496589999998
 21
204.5814599999999
 31
0.0
  0
LINE
  5
9780
330
9653
100
AcDbEntity
  8
1
  6
Continuous
100
AcDbLine
 10
134.329659
 20
199.1904599999998
 30
0.0
 11
135.283659
 21
204.8904599999999
 31
0.0
  0
LINE
  5
9781
330
9653
100
AcDbEntity
  8
1
  6
Continuous
100
AcDbLine
 10
134.790659
 20
204.97246
 30
0.0
 11
133.8366589999999
 21
199.27246
 31
0.0
  0
LINE
  5
9782
330
9653
100
AcDbEntity
  8
1
  6
Continuous
100
AcDbLine
 10
136.699659
 20
204.97246
 30
0.0
 11
135.7456589999999
 21
199.27246
 31
0.0
  0
LINE
  5
9783
330
9653
100
AcDbEntity
  8
1
  6
Continuous
100
AcDbLine
 10
136.238659
 20
199.1904599999998
 30
0.0
 11
137.1926589999999
 21
204.8904599999999
 31
0.0
  0
LINE
  5
9784
330
9653
100
AcDbEntity
  8
1
  6
Continuous
100
AcDbLine
 10
137.1926589999999
 20
204.97246
 30
0.0
 11
137.258659
 21
204.5814599999999
 31
0.0
  0
LINE
  5
9785
330
9653
100
AcDbEntity
  8
1
  6
Continuous
100
AcDbLine
 10
135.7456589999999
 20
199.1904599999998
 30
0.0
 11
135.6796589999999
 21
199.5814599999999
 31
0.0
  0
LINE
  5
9786
330
9653
100
AcDbEntity
  8
1
  6
Continuous
100
AcDbLine
 10
133.8366589999999
 20
199.1904599999998
 30
0.0
 11
133.770659
 21
199.5814599999999
 31
0.0
  0
LINE
  5
9787
330
9653
100
AcDbEntity
  8
1
  6
Continuous
100
AcDbLine
 10
115.650659
 20
197.0814599999999
 30
0.0
 11
125.650659
 21
197.0814599999999
 31
0.0
  0
LINE
  5
9788
330
9653
100
AcDbEntity
  8
1
  6
Continuous
100
AcDbLine
 10
115.650659
 20
207.0814599999999
 30
0.0
 11
125.650659
 21
207.0814599999999
 31
0.0
  0
LINE
  5
9789
330
9653
100
AcDbEntity
  8
1
  6
Continuous
100
AcDbLine
 10
115.650659
 20
207.0814599999999
 30
0.0
 11
115.650659
 21
197.0814599999999
 31
0.0
  0
LINE
  5
978A
330
9653
100
AcDbEntity
  8
1
  6
Continuous
100
AcDbLine
 10
115.073659
 20
208.08146
 30
0.0
 11
115.073659
 21
196.0814599999999
 31
0.0
  0
LINE
  5
978B
330
9653
100
AcDbEntity
  8
1
  6
Continuous
100
AcDbLine
 10
115.073659
 20
196.0814599999999
 30
0.0
 11
115.650659
 21
197.0814599999999
 31
0.0
  0
LINE
  5
978C
330
9653
100
AcDbEntity
  8
1
  6
Continuous
100
AcDbLine
 10
106.650659
 20
196.0814599999999
 30
0.0
 11
115.073659
 21
196.0814599999999
 31
0.0
  0
LINE
  5
978D
330
9653
100
AcDbEntity
  8
1
  6
Continuous
100
AcDbLine
 10
106.650659
 20
208.08146
 30
0.0
 11
106.650659
 21
196.0814599999999
 31
0.0
  0
LINE
  5
978E
330
9653
100
AcDbEntity
  8
1
  6
Continuous
100
AcDbLine
 10
105.650659
 20
197.0814599999999
 30
0.0
 11
106.650659
 21
196.0814599999999
 31
0.0
  0
LINE
  5
978F
330
9653
100
AcDbEntity
  8
1
  6
Continuous
100
AcDbLine
 10
105.650659
 20
207.0814599999999
 30
0.0
 11
105.650659
 21
197.0814599999999
 31
0.0
  0
LINE
  5
9790
330
9653
100
AcDbEntity
  8
1
  6
Continuous
100
AcDbLine
 10
106.650659
 20
208.08146
 30
0.0
 11
105.650659
 21
207.0814599999999
 31
0.0
  0
LINE
  5
9791
330
9653
100
AcDbEntity
  8
1
  6
Continuous
100
AcDbLine
 10
106.650659
 20
208.08146
 30
0.0
 11
115.073659
 21
208.08146
 31
0.0
  0
LINE
  5
9792
330
9653
100
AcDbEntity
  8
1
  6
Continuous
100
AcDbLine
 10
106.650659
 20
207.0814599999999
 30
0.0
 11
115.073659
 21
207.0814599999999
 31
0.0
  0
LINE
  5
9793
330
9653
100
AcDbEntity
  8
1
  6
Continuous
100
AcDbLine
 10
107.650659
 20
206.08146
 30
0.0
 11
115.073659
 21
206.08146
 31
0.0
  0
LINE
  5
9794
330
9653
100
AcDbEntity
  8
1
  6
Continuous
100
AcDbLine
 10
108.650659
 20
205.0814599999999
 30
0.0
 11
115.073659
 21
205.0814599999999
 31
0.0
  0
LINE
  5
9795
330
9653
100
AcDbEntity
  8
1
  6
Continuous
100
AcDbLine
 10
109.650659
 20
204.08146
 30
0.0
 11
115.073659
 21
204.08146
 31
0.0
  0
LINE
  5
9796
330
9653
100
AcDbEntity
  8
1
  6
Continuous
100
AcDbLine
 10
110.650659
 20
203.0814599999999
 30
0.0
 11
115.073659
 21
203.0814599999999
 31
0.0
  0
LINE
  5
9797
330
9653
100
AcDbEntity
  8
1
  6
Continuous
100
AcDbLine
 10
115.073659
 20
208.08146
 30
0.0
 11
115.650659
 21
207.0814599999999
 31
0.0
  0
LINE
  5
9798
330
9653
100
AcDbEntity
  8
1
  6
Continuous
100
AcDbLine
 10
129.504659
 20
204.5814599999999
 30
0.0
 11
130.6506589999999
 21
204.5814599999999
 31
0.0
  0
LINE
  5
9799
330
9653
100
AcDbEntity
  8
1
  6
Continuous
100
AcDbLine
 10
131.330659
 20
204.08146
 30
0.0
 11
132.150659
 21
204.08146
 31
0.0
  0
LINE
  5
979A
330
9653
100
AcDbEntity
  8
1
  6
Continuous
100
AcDbLine
 10
130.6506589999999
 20
204.5814599999999
 30
0.0
 11
130.6506589999999
 21
203.05246
 31
0.0
  0
LINE
  5
979B
330
9653
100
AcDbEntity
  8
1
  6
Continuous
100
AcDbLine
 10
130.660659
 20
200.0814599999999
 30
0.0
 11
132.062659
 21
200.0814599999999
 31
0.0
  0
LINE
  5
979C
330
9653
100
AcDbEntity
  8
1
  6
Continuous
100
AcDbLine
 10
128.6676589999999
 20
199.5814599999999
 30
0.0
 11
130.069659
 21
199.5814599999999
 31
0.0
  0
LINE
  5
979D
330
9653
100
AcDbEntity
  8
1
  6
Continuous
100
AcDbLine
 10
132.150659
 20
204.5814599999999
 30
0.0
 11
132.150659
 21
200.6094599999999
 31
0.0
  0
LINE
  5
979E
330
9653
100
AcDbEntity
  8
1
  6
Continuous
100
AcDbLine
 10
132.150659
 20
204.5814599999999
 30
0.0
 11
132.815659
 21
204.5814599999999
 31
0.0
  0
LINE
  5
979F
330
9653
100
AcDbEntity
  8
2
  6
Continuous
100
AcDbLine
 10
132.150659
 20
204.1484599999999
 30
0.0
 11
132.743659
 21
204.1484599999999
 31
0.0
  0
LINE
  5
97A0
330
9653
100
AcDbEntity
  8
2
  6
Continuous
100
AcDbLine
 10
132.558659
 20
200.01446
 30
0.0
 11
133.960659
 21
200.01446
 31
0.0
  0
LINE
  5
97A1
330
9653
100
AcDbEntity
  8
1
  6
Continuous
100
AcDbLine
 10
132.485659
 20
199.5814599999999
 30
0.0
 11
133.887659
 21
199.5814599999999
 31
0.0
  0
LINE
  5
97A2
330
9653
100
AcDbEntity
  8
1
  6
Continuous
100
AcDbLine
 10
129.504659
 20
124.58146
 30
0.0
 11
130.6506589999999
 21
124.58146
 31
0.0
  0
LINE
  5
97A3
330
9653
100
AcDbEntity
  8
1
  6
Continuous
100
AcDbLine
 10
115.650659
 20
47.08146
 30
0.0
 11
125.650659
 21
47.08146
 31
0.0
  0
LINE
  5
97A4
330
9653
100
AcDbEntity
  8
1
  6
Continuous
100
AcDbLine
 10
115.650659
 20
37.08146
 30
0.0
 11
115.650659
 21
47.08146
 31
0.0
  0
LINE
  5
97A5
330
9653
100
AcDbEntity
  8
1
  6
Continuous
100
AcDbLine
 10
115.073659
 20
36.08146
 30
0.0
 11
115.073659
 21
48.08146
 31
0.0
  0
LINE
  5
97A6
330
9653
100
AcDbEntity
  8
1
  6
Continuous
100
AcDbLine
 10
115.073659
 20
48.08146
 30
0.0
 11
115.650659
 21
47.08146
 31
0.0
  0
LINE
  5
97A7
330
9653
100
AcDbEntity
  8
1
  6
Continuous
100
AcDbLine
 10
106.650659
 20
48.08146
 30
0.0
 11
115.073659
 21
48.08146
 31
0.0
  0
LINE
  5
97A8
330
9653
100
AcDbEntity
  8
1
  6
Continuous
100
AcDbLine
 10
106.650659
 20
36.08146
 30
0.0
 11
106.650659
 21
48.08146
 31
0.0
  0
LINE
  5
97A9
330
9653
100
AcDbEntity
  8
1
  6
Continuous
100
AcDbLine
 10
105.650659
 20
47.08146
 30
0.0
 11
106.650659
 21
48.08146
 31
0.0
  0
LINE
  5
97AA
330
9653
100
AcDbEntity
  8
1
  6
Continuous
100
AcDbLine
 10
105.650659
 20
37.08146
 30
0.0
 11
105.650659
 21
47.08146
 31
0.0
  0
LINE
  5
97AB
330
9653
100
AcDbEntity
  8
1
  6
Continuous
100
AcDbLine
 10
115.650659
 20
37.08146
 30
0.0
 11
125.650659
 21
37.08146
 31
0.0
  0
LINE
  5
97AC
330
9653
100
AcDbEntity
  8
1
  6
Continuous
100
AcDbLine
 10
106.650659
 20
36.08146
 30
0.0
 11
105.650659
 21
37.08146
 31
0.0
  0
LINE
  5
97AD
330
9653
100
AcDbEntity
  8
1
  6
Continuous
100
AcDbLine
 10
106.650659
 20
36.08146
 30
0.0
 11
115.073659
 21
36.08146
 31
0.0
  0
LINE
  5
97AE
330
9653
100
AcDbEntity
  8
1
  6
Continuous
100
AcDbLine
 10
106.650659
 20
47.08146
 30
0.0
 11
115.073659
 21
47.08146
 31
0.0
  0
LINE
  5
97AF
330
9653
100
AcDbEntity
  8
1
  6
Continuous
100
AcDbLine
 10
107.650659
 20
46.08146
 30
0.0
 11
115.073659
 21
46.08146
 31
0.0
  0
LINE
  5
97B0
330
9653
100
AcDbEntity
  8
1
  6
Continuous
100
AcDbLine
 10
108.650659
 20
45.08145999999999
 30
0.0
 11
115.073659
 21
45.08145999999999
 31
0.0
  0
LINE
  5
97B1
330
9653
100
AcDbEntity
  8
1
  6
Continuous
100
AcDbLine
 10
115.073659
 20
36.08146
 30
0.0
 11
115.650659
 21
37.08146
 31
0.0
  0
LINE
  5
97B2
330
9653
100
AcDbEntity
  8
1
  6
Continuous
100
AcDbLine
 10
110.650659
 20
43.08145999999999
 30
0.0
 11
115.073659
 21
43.08145999999999
 31
0.0
  0
LINE
  5
97B3
330
9653
100
AcDbEntity
  8
1
  6
Continuous
100
AcDbLine
 10
109.650659
 20
44.08146
 30
0.0
 11
115.073659
 21
44.08146
 31
0.0
  0
LINE
  5
97B4
330
9653
100
AcDbEntity
  8
4
  6
CENTER
100
AcDbLine
 10
103.3656589999998
 20
42.08146
 30
0.0
 11
150.546659
 21
42.08146
 31
0.0
  0
LINE
  5
97B5
330
9653
100
AcDbEntity
  8
1
  6
Continuous
100
AcDbLine
 10
133.1506589999999
 20
54.58146
 30
0.0
 11
136.1506589999999
 21
54.58146
 31
0.0
  0
LINE
  5
97B6
330
9653
100
AcDbEntity
  8
1
  6
Continuous
100
AcDbLine
 10
136.1506589999999
 20
50.08145999999999
 30
0.0
 11
136.1506589999999
 21
54.58146
 31
0.0
  0
LINE
  5
97B7
330
9653
100
AcDbEntity
  8
1
  6
Continuous
100
AcDbLine
 10
133.1506589999999
 20
50.08145999999999
 30
0.0
 11
133.1506589999999
 21
54.58146
 31
0.0
  0
LINE
  5
97B8
330
9653
100
AcDbEntity
  8
1
  6
Continuous
100
AcDbLine
 10
136.1506589999999
 20
50.08145999999999
 30
0.0
 11
138.7826589999999
 21
49.51416
 31
0.0
  0
LINE
  5
97B9
330
9653
100
AcDbEntity
  8
4
  6
CENTER
100
AcDbLine
 10
359.9356589999999
 20
122.08146
 30
0.0
 11
312.7556589999999
 21
122.08146
 31
0.0
  0
LINE
  5
97BA
330
9653
100
AcDbEntity
  8
1
  6
Continuous
100
AcDbLine
 10
347.6506589999999
 20
127.08146
 30
0.0
 11
347.6506589999999
 21
117.08146
 31
0.0
  0
LINE
  5
97BB
330
9653
100
AcDbEntity
  8
1
  6
Continuous
100
AcDbLine
 10
357.6506589999998
 20
127.08146
 30
0.0
 11
357.6506589999998
 21
117.08146
 31
0.0
  0
LINE
  5
97BC
330
9653
100
AcDbEntity
  8
1
  6
Continuous
100
AcDbLine
 10
347.6506589999999
 20
127.08146
 30
0.0
 11
337.6506589999999
 21
127.08146
 31
0.0
  0
LINE
  5
97BD
330
9653
100
AcDbEntity
  8
1
  6
Continuous
100
AcDbLine
 10
347.6506589999999
 20
117.08146
 30
0.0
 11
337.6506589999999
 21
117.08146
 31
0.0
  0
LINE
  5
97BE
330
9653
100
AcDbEntity
  8
1
  6
Continuous
100
AcDbLine
 10
356.6506589999999
 20
128.08146
 30
0.0
 11
348.228659
 21
128.08146
 31
0.0
  0
LINE
  5
97BF
330
9653
100
AcDbEntity
  8
1
  6
Continuous
100
AcDbLine
 10
356.6506589999999
 20
116.08146
 30
0.0
 11
348.228659
 21
116.08146
 31
0.0
  0
LINE
  5
97C0
330
9653
100
AcDbEntity
  8
1
  6
Continuous
100
AcDbLine
 10
356.6506589999999
 20
128.08146
 30
0.0
 11
357.6506589999998
 21
127.08146
 31
0.0
  0
LINE
  5
97C1
330
9653
100
AcDbEntity
  8
1
  6
Continuous
100
AcDbLine
 10
357.6506589999998
 20
117.08146
 30
0.0
 11
356.6506589999999
 21
116.08146
 31
0.0
  0
LINE
  5
97C2
330
9653
100
AcDbEntity
  8
1
  6
Continuous
100
AcDbLine
 10
356.6506589999999
 20
128.08146
 30
0.0
 11
356.6506589999999
 21
116.08146
 31
0.0
  0
LINE
  5
97C3
330
9653
100
AcDbEntity
  8
1
  6
Continuous
100
AcDbLine
 10
348.228659
 20
116.08146
 30
0.0
 11
347.6506589999999
 21
117.08146
 31
0.0
  0
LINE
  5
97C4
330
9653
100
AcDbEntity
  8
1
  6
Continuous
100
AcDbLine
 10
348.228659
 20
128.08146
 30
0.0
 11
347.6506589999999
 21
127.08146
 31
0.0
  0
LINE
  5
97C5
330
9653
100
AcDbEntity
  8
1
  6
Continuous
100
AcDbLine
 10
348.228659
 20
128.08146
 30
0.0
 11
348.228659
 21
116.08146
 31
0.0
  0
LINE
  5
97C6
330
9653
100
AcDbEntity
  8
1
  6
Continuous
100
AcDbLine
 10
356.6506589999999
 20
127.08146
 30
0.0
 11
348.228659
 21
127.08146
 31
0.0
  0
LINE
  5
97C7
330
9653
100
AcDbEntity
  8
1
  6
Continuous
100
AcDbLine
 10
355.6506589999998
 20
126.08146
 30
0.0
 11
348.228659
 21
126.08146
 31
0.0
  0
LINE
  5
97C8
330
9653
100
AcDbEntity
  8
1
  6
Continuous
100
AcDbLine
 10
354.6506589999999
 20
125.0814599999998
 30
0.0
 11
348.228659
 21
125.0814599999998
 31
0.0
  0
LINE
  5
97C9
330
9653
100
AcDbEntity
  8
1
  6
Continuous
100
AcDbLine
 10
353.6506589999998
 20
124.0814599999998
 30
0.0
 11
348.228659
 21
124.0814599999998
 31
0.0
  0
LINE
  5
97CA
330
9653
100
AcDbEntity
  8
1
  6
Continuous
100
AcDbLine
 10
352.6506589999998
 20
123.08146
 30
0.0
 11
348.228659
 21
123.08146
 31
0.0
  0
LINE
  5
97CB
330
9653
100
AcDbEntity
  8
1
  6
Continuous
100
AcDbLine
 10
138.1506589999999
 20
206.08146
 30
0.0
 11
141.1506589999999
 21
206.08146
 31
0.0
  0
LINE
  5
97CC
330
9653
100
AcDbEntity
  8
1
  6
Continuous
100
AcDbLine
 10
141.1506589999999
 20
206.08146
 30
0.0
 11
141.1506589999999
 21
197.5814599999999
 31
0.0
  0
LINE
  5
97CD
330
9653
100
AcDbEntity
  8
1
  6
Continuous
100
AcDbLine
 10
138.1506589999999
 20
206.08146
 30
0.0
 11
138.1506589999999
 21
197.5814599999999
 31
0.0
  0
LINE
  5
97CE
330
9653
100
AcDbEntity
  8
1
  6
Continuous
100
AcDbLine
 10
138.1506589999999
 20
197.5814599999999
 30
0.0
 11
135.518659
 21
197.01446
 31
0.0
  0
LINE
  5
97CF
330
9653
100
AcDbEntity
  8
1
  6
Continuous
100
AcDbLine
 10
136.1506589999999
 20
194.0814599999999
 30
0.0
 11
136.1506589999999
 21
189.5814599999999
 31
0.0
  0
LINE
  5
97D0
330
9653
100
AcDbEntity
  8
1
  6
Continuous
100
AcDbLine
 10
136.1506589999999
 20
194.0814599999999
 30
0.0
 11
138.7826589999999
 21
194.6484599999998
 31
0.0
  0
LINE
  5
97D1
330
9653
100
AcDbEntity
  8
1
  6
Continuous
100
AcDbLine
 10
133.1506589999999
 20
194.0814599999999
 30
0.0
 11
133.1506589999999
 21
189.5814599999999
 31
0.0
  0
LINE
  5
97D2
330
9653
100
AcDbEntity
  8
1
  6
Continuous
100
AcDbLine
 10
133.1506589999999
 20
189.5814599999999
 30
0.0
 11
136.1506589999999
 21
189.5814599999999
 31
0.0
  0
CIRCLE
  5
97D3
330
9653
100
AcDbEntity
  8
1
  6
Continuous
100
AcDbCircle
 10
23.650959
 20
132.08146
 30
0.0
 40
1.6
  0
CIRCLE
  5
97D4
330
9653
100
AcDbEntity
  8
1
  6
Continuous
100
AcDbCircle
 10
23.650959
 20
112.08146
 30
0.0
 40
1.6
  0
CIRCLE
  5
97D5
330
9653
100
AcDbEntity
  8
1
  6
Continuous
100
AcDbCircle
 10
23.650959
 20
122.08146
 30
0.0
 40
4.5
  0
CIRCLE
  5
97D6
330
9653
100
AcDbEntity
  8
1
  6
Continuous
100
AcDbCircle
 10
23.650959
 20
122.08146
 30
0.0
 40
4.0
  0
CIRCLE
  5
97D7
330
9653
100
AcDbEntity
  8
1
  6
Continuous
100
AcDbCircle
 10
231.6506589999999
 20
132.08146
 30
0.0
 40
1.6
  0
CIRCLE
  5
97D8
330
9653
100
AcDbEntity
  8
1
  6
Continuous
100
AcDbCircle
 10
231.6506589999999
 20
112.08146
 30
0.0
 40
1.6
  0
CIRCLE
  5
97D9
330
9653
100
AcDbEntity
  8
1
  6
Continuous
100
AcDbCircle
 10
231.6506589999999
 20
112.08146
 30
0.0
 40
1.75
  0
CIRCLE
  5
97DA
330
9653
100
AcDbEntity
  8
1
  6
Continuous
100
AcDbCircle
 10
231.6506589999999
 20
122.08146
 30
0.0
 40
1.6
  0
ARC
  5
97DB
330
9653
100
AcDbEntity
  8
1
  6
Continuous
100
AcDbCircle
 10
231.6506589999999
 20
122.08146
 30
0.0
 40
3.6
100
AcDbArc
 50
341.6819999999999
 51
36.1087
  0
ARC
  5
97DC
330
9653
100
AcDbEntity
  8
1
  6
Continuous
100
AcDbCircle
 10
231.6506589999999
 20
122.08146
 30
0.0
 40
3.6
100
AcDbArc
 50
73.8724
 51
106.128
  0
ARC
  5
97DD
330
9653
100
AcDbEntity
  8
1
  6
Continuous
100
AcDbCircle
 10
231.6506589999999
 20
122.08146
 30
0.0
 40
3.6
100
AcDbArc
 50
143.8909999999999
 51
198.3179999999999
  0
ARC
  5
97DE
330
9653
100
AcDbEntity
  8
1
  6
Continuous
100
AcDbCircle
 10
234.600659
 20
126.93146
 30
0.0
 40
1.149999999999999
100
AcDbArc
 50
334.202
 51
154.2019999999999
  0
ARC
  5
97DF
330
9653
100
AcDbEntity
  8
1
  6
Continuous
100
AcDbCircle
 10
228.7006589999998
 20
126.93146
 30
0.0
 40
1.149999999999999
100
AcDbArc
 50
25.79779999999999
 51
205.798
  0
ARC
  5
97E0
330
9653
100
AcDbEntity
  8
1
  6
Continuous
100
AcDbCircle
 10
234.800659
 20
116.73146
 30
0.0
 40
1.149999999999999
100
AcDbArc
 50
192.1579999999999
 51
12.1576
  0
ARC
  5
97E1
330
9653
100
AcDbEntity
  8
1
  6
Continuous
100
AcDbCircle
 10
228.500659
 20
116.73146
 30
0.0
 40
1.149999999999999
100
AcDbArc
 50
167.842
 51
347.8419999999999
  0
ARC
  5
97E2
330
9653
100
AcDbEntity
  8
1
  6
Continuous
100
AcDbCircle
 10
142.6506589999999
 20
116.08146
 30
0.0
 40
1.0
100
AcDbArc
 50
270.0
 51
0.0
  0
ARC
  5
97E3
330
9653
100
AcDbEntity
  8
1
  6
Continuous
100
AcDbCircle
 10
126.650659
 20
196.0814599999999
 30
0.0
 40
1.0
100
AcDbArc
 50
180.0
 51
270.0
  0
ARC
  5
97E4
330
9653
100
AcDbEntity
  8
1
  6
Continuous
100
AcDbCircle
 10
126.650659
 20
208.08146
 30
0.0
 40
1.0
100
AcDbArc
 50
90.0
 51
180.0
  0
ARC
  5
97E5
330
9653
100
AcDbEntity
  8
1
  6
Continuous
100
AcDbCircle
 10
142.6506589999999
 20
208.08146
 30
0.0
 40
1.0
100
AcDbArc
 50
0.0
 51
90.0
  0
CIRCLE
  5
97E6
330
9653
100
AcDbEntity
  8
1
  6
Continuous
100
AcDbCircle
 10
144.750659
 20
204.6814599999999
 30
0.0
 40
0.2
  0
ARC
  5
97E7
330
9653
100
AcDbEntity
  8
1
  6
Continuous
100
AcDbCircle
 10
143.850659
 20
206.28146
 30
0.0
 40
0.2
100
AcDbArc
 50
0.0
 51
180.0
  0
CIRCLE
  5
97E8
330
9653
100
AcDbEntity
  8
1
  6
Continuous
100
AcDbCircle
 10
143.850659
 20
197.8814599999998
 30
0.0
 40
0.2
  0
ARC
  5
97E9
330
9653
100
AcDbEntity
  8
1
  6
Continuous
100
AcDbCircle
 10
144.750659
 20
199.4814599999999
 30
0.0
 40
0.2
100
AcDbArc
 50
180.0
 51
0.00001
  0
CIRCLE
  5
97EA
330
9653
100
AcDbEntity
  8
1
  6
Continuous
100
AcDbCircle
 10
143.850659
 20
117.88146
 30
0.0
 40
0.2
  0
ARC
  5
97EB
330
9653
100
AcDbEntity
  8
1
  6
Continuous
100
AcDbCircle
 10
144.750659
 20
119.48146
 30
0.0
 40
0.2
100
AcDbArc
 50
180.0
 51
0.00001
  0
CIRCLE
  5
97EC
330
9653
100
AcDbEntity
  8
1
  6
Continuous
100
AcDbCircle
 10
144.750659
 20
124.68146
 30
0.0
 40
0.2
  0
ARC
  5
97ED
330
9653
100
AcDbEntity
  8
1
  6
Continuous
100
AcDbCircle
 10
143.850659
 20
126.28146
 30
0.0
 40
0.2
100
AcDbArc
 50
0.0
 51
180.0
  0
ARC
  5
97EE
330
9653
100
AcDbEntity
  8
1
  6
Continuous
100
AcDbCircle
 10
231.6506589999999
 20
122.08146
 30
0.0
 40
4.4
100
AcDbArc
 50
72.10179999999998
 51
107.899
  0
ARC
  5
97EF
330
9653
100
AcDbEntity
  8
1
  6
Continuous
100
AcDbCircle
 10
231.6506589999999
 20
122.08146
 30
0.0
 40
4.4
100
AcDbArc
 50
326.9979999999998
 51
41.5404
  0
ARC
  5
97F0
330
9653
100
AcDbEntity
  8
1
  6
Continuous
100
AcDbCircle
 10
231.6506589999999
 20
122.08146
 30
0.0
 40
4.4
100
AcDbArc
 50
138.46
 51
213.0009999999999
  0
ARC
  5
97F1
330
9653
100
AcDbEntity
  8
1
  6
Continuous
100
AcDbCircle
 10
320.6506589999999
 20
116.08146
 30
0.0
 40
1.0
100
AcDbArc
 50
180.0
 51
270.0
  0
CIRCLE
  5
97F2
330
9653
100
AcDbEntity
  8
1
  6
Continuous
100
AcDbCircle
 10
319.4506589999999
 20
117.88146
 30
0.0
 40
0.2
  0
ARC
  5
97F3
330
9653
100
AcDbEntity
  8
1
  6
Continuous
100
AcDbCircle
 10
318.550659
 20
119.48146
 30
0.0
 40
0.2
100
AcDbArc
 50
180.0
 51
0.0
  0
CIRCLE
  5
97F4
330
9653
100
AcDbEntity
  8
1
  6
Continuous
100
AcDbCircle
 10
318.550659
 20
124.68146
 30
0.0
 40
0.2
  0
ARC
  5
97F5
330
9653
100
AcDbEntity
  8
1
  6
Continuous
100
AcDbCircle
 10
319.4506589999999
 20
126.28146
 30
0.0
 40
0.2
100
AcDbArc
 50
0.0
 51
180.0
  0
ARC
  5
97F6
330
9653
100
AcDbEntity
  8
1
  6
Continuous
100
AcDbCircle
 10
126.650659
 20
48.08146
 30
0.0
 40
1.0
100
AcDbArc
 50
90.0
 51
180.0
  0
ARC
  5
97F7
330
9653
100
AcDbEntity
  8
1
  6
Continuous
100
AcDbCircle
 10
142.6506589999999
 20
36.08146
 30
0.0
 40
1.0
100
AcDbArc
 50
270.0
 51
0.0
  0
CIRCLE
  5
97F8
330
9653
100
AcDbEntity
  8
1
  6
Continuous
100
AcDbCircle
 10
144.750659
 20
39.48145999999999
 30
0.0
 40
0.2
  0
ARC
  5
97F9
330
9653
100
AcDbEntity
  8
1
  6
Continuous
100
AcDbCircle
 10
143.850659
 20
37.88145999999999
 30
0.0
 40
0.2
100
AcDbArc
 50
180.0
 51
0.00001
  0
CIRCLE
  5
97FA
330
9653
100
AcDbEntity
  8
1
  6
Continuous
100
AcDbCircle
 10
143.850659
 20
46.28146
 30
0.0
 40
0.2
  0
ARC
  5
97FB
330
9653
100
AcDbEntity
  8
1
  6
Continuous
100
AcDbCircle
 10
144.750659
 20
44.68145999999999
 30
0.0
 40
0.2
100
AcDbArc
 50
0.0
 51
180.0
  0
ARC
  5
97FC
330
9653
100
AcDbEntity
  8
1
  6
Continuous
100
AcDbCircle
 10
231.150659
 20
122.58146
 30
0.0
 40
5.0
100
AcDbArc
 50
90.0
 51
106.1579999999999
  0
ARC
  5
97FD
330
9653
100
AcDbEntity
  8
1
  6
Continuous
100
AcDbCircle
 10
231.150659
 20
122.58146
 30
0.0
 40
5.0
100
AcDbArc
 50
132.8079999999999
 51
180.0
  0
ARC
  5
97FE
330
9653
100
AcDbEntity
  8
1
  6
Continuous
100
AcDbCircle
 10
126.650659
 20
36.08146
 30
0.0
 40
1.0
100
AcDbArc
 50
180.0
 51
270.0
  0
ARC
  5
97FF
330
9653
100
AcDbEntity
  8
5
  6
PHANTOM
100
AcDbCircle
 10
131.6506589999999
 20
194.0814599999999
 30
0.0
 40
3.0
100
AcDbArc
 50
102.164
 51
180.0
  0
ARC
  5
9800
330
9653
100
AcDbEntity
  8
5
  6
PHANTOM
100
AcDbCircle
 10
133.6506589999999
 20
197.5814599999999
 30
0.0
 40
3.0
100
AcDbArc
 50
282.164
 51
0.0
  0
ARC
  5
9801
330
9653
100
AcDbEntity
  8
1
  6
Continuous
100
AcDbCircle
 10
127.400659
 20
204.9314599999999
 30
0.0
 40
0.25
100
AcDbArc
 50
9.506769999999999
 51
180.0
  0
ARC
  5
9802
330
9653
100
AcDbEntity
  8
1
  6
Continuous
100
AcDbCircle
 10
127.400659
 20
199.23146
 30
0.0
 40
0.25
100
AcDbArc
 50
180.0
 51
0.00001
  0
ARC
  5
9803
330
9653
100
AcDbEntity
  8
1
  6
Continuous
100
AcDbCircle
 10
130.2646589999999
 20
119.23146
 30
0.0
 40
0.25
100
AcDbArc
 50
189.507
 51
350.4929999999998
  0
ARC
  5
9804
330
9653
100
AcDbEntity
  8
1
  6
Continuous
100
AcDbCircle
 10
132.1736589999999
 20
119.23146
 30
0.0
 40
0.25
100
AcDbArc
 50
189.507
 51
350.4929999999998
  0
ARC
  5
9805
330
9653
100
AcDbEntity
  8
1
  6
Continuous
100
AcDbCircle
 10
137.9006589999999
 20
199.23146
 30
0.0
 40
0.25
100
AcDbArc
 50
180.0
 51
0.00001
  0
ARC
  5
9806
330
9653
100
AcDbEntity
  8
1
  6
Continuous
100
AcDbCircle
 10
137.9006589999999
 20
204.9314599999999
 30
0.0
 40
0.25
100
AcDbArc
 50
0.0
 51
180.0
  0
ARC
  5
9807
330
9653
100
AcDbEntity
  8
1
  6
Continuous
100
AcDbCircle
 10
133.1286589999999
 20
124.93146
 30
0.0
 40
0.25
100
AcDbArc
 50
46.09639999999997
 51
170.493
  0
ARC
  5
9808
330
9653
100
AcDbEntity
  8
1
  6
Continuous
100
AcDbCircle
 10
131.218659
 20
124.93146
 30
0.0
 40
0.25
100
AcDbArc
 50
9.506769999999999
 51
170.493
  0
ARC
  5
9809
330
9653
100
AcDbEntity
  8
1
  6
Continuous
100
AcDbCircle
 10
129.309659
 20
124.93146
 30
0.0
 40
0.25
100
AcDbArc
 50
9.506769999999999
 51
170.493
  0
ARC
  5
980A
330
9653
100
AcDbEntity
  8
1
  6
Continuous
100
AcDbCircle
 10
129.309659
 20
204.9314599999999
 30
0.0
 40
0.25
100
AcDbArc
 50
9.506769999999999
 51
170.493
  0
ARC
  5
980B
330
9653
100
AcDbEntity
  8
1
  6
Continuous
100
AcDbCircle
 10
128.355659
 20
199.23146
 30
0.0
 40
0.25
100
AcDbArc
 50
189.507
 51
350.4929999999998
  0
ARC
  5
980C
330
9653
100
AcDbEntity
  8
1
  6
Continuous
100
AcDbCircle
 10
131.218659
 20
204.9314599999999
 30
0.0
 40
0.25
100
AcDbArc
 50
9.506769999999999
 51
170.493
  0
ARC
  5
980D
330
9653
100
AcDbEntity
  8
1
  6
Continuous
100
AcDbCircle
 10
130.2646589999999
 20
199.23146
 30
0.0
 40
0.25
100
AcDbArc
 50
189.507
 51
350.4929999999998
  0
ARC
  5
980E
330
9653
100
AcDbEntity
  8
1
  6
Continuous
100
AcDbCircle
 10
132.1736589999999
 20
199.23146
 30
0.0
 40
0.25
100
AcDbArc
 50
189.507
 51
350.4929999999998
  0
ARC
  5
980F
330
9653
100
AcDbEntity
  8
1
  6
Continuous
100
AcDbCircle
 10
133.1286589999999
 20
204.9314599999999
 30
0.0
 40
0.25
100
AcDbArc
 50
9.506769999999999
 51
170.493
  0
ARC
  5
9810
330
9653
100
AcDbEntity
  8
1
  6
Continuous
100
AcDbCircle
 10
135.0376589999999
 20
204.9314599999999
 30
0.0
 40
0.25
100
AcDbArc
 50
9.506769999999999
 51
170.493
  0
ARC
  5
9811
330
9653
100
AcDbEntity
  8
1
  6
Continuous
100
AcDbCircle
 10
136.946659
 20
204.9314599999999
 30
0.0
 40
0.25
100
AcDbArc
 50
9.506769999999999
 51
170.493
  0
ARC
  5
9812
330
9653
100
AcDbEntity
  8
1
  6
Continuous
100
AcDbCircle
 10
135.991659
 20
199.23146
 30
0.0
 40
0.25
100
AcDbArc
 50
189.507
 51
350.4929999999998
  0
ARC
  5
9813
330
9653
100
AcDbEntity
  8
1
  6
Continuous
100
AcDbCircle
 10
134.082659
 20
199.23146
 30
0.0
 40
0.25
100
AcDbArc
 50
189.507
 51
350.4929999999998
  0
ARC
  5
9814
330
9653
100
AcDbEntity
  8
1
  6
Continuous
100
AcDbCircle
 10
136.1506589999999
 20
50.08145999999999
 30
0.0
 40
3.0
100
AcDbArc
 50
180.0
 51
236.443
  0
ARC
  5
9815
330
9653
100
AcDbEntity
  8
1
  6
Continuous
100
AcDbCircle
 10
138.1506589999999
 20
46.58146
 30
0.0
 40
3.0
100
AcDbArc
 50
19.47119999999999
 51
77.83599999999998
  0
ARC
  5
9816
330
9653
100
AcDbEntity
  8
1
  6
Continuous
100
AcDbCircle
 10
138.1506589999999
 20
197.5814599999999
 30
0.0
 40
3.0
100
AcDbArc
 50
282.164
 51
0.0
  0
ARC
  5
9817
330
9653
100
AcDbEntity
  8
1
  6
Continuous
100
AcDbCircle
 10
136.1506589999999
 20
194.0814599999999
 30
0.0
 40
3.0
100
AcDbArc
 50
102.164
 51
180.0
  0
LINE
  5
9818
330
9653
100
AcDbEntity
  8
5
  6
PHANTOM
100
AcDbLine
 10
36.33927599999999
 20
120.018302
 30
0.0
 11
25.196604
 21
125.770767
 31
0.0
  0
LINE
  5
9819
330
9653
100
AcDbEntity
  8
5
  6
PHANTOM
100
AcDbLine
 10
34.020809
 20
114.4843419999999
 30
0.0
 11
22.105315
 21
118.392154
 31
0.0
  0
LINE
  5
981A
330
9653
100
AcDbEntity
  8
4
  6
CENTER
100
AcDbLine
 10
15.044766
 20
125.6870469999998
 30
0.0
 11
37.222555
 21
116.395606
 31
0.0
  0
LINE
  5
981B
330
9653
100
AcDbEntity
  8
5
  6
PHANTOM
100
AcDbLine
 10
36.33927599999999
 20
120.018302
 30
0.0
 11
34.020809
 21
114.4843419999999
 31
0.0
  0
LINE
  5
981C
330
9653
100
AcDbEntity
  8
4
  6
CENTER
100
AcDbLine
 10
27.29494000000001
 20
113.3836239999999
 30
0.0
 11
18.041894
 21
135.4697689999998
 31
0.0
  0
LINE
  5
981D
330
9653
100
AcDbEntity
  8
5
  6
PHANTOM
100
AcDbLine
 10
21.58780099999999
 20
134.769777
 30
0.0
 11
27.34026599999999
 21
123.627105
 31
0.0
  0
LINE
  5
981E
330
9653
100
AcDbEntity
  8
5
  6
PHANTOM
100
AcDbLine
 10
16.053841
 20
132.45131
 30
0.0
 11
19.96165299999999
 21
120.535816
 31
0.0
  0
LINE
  5
981F
330
9653
100
AcDbEntity
  8
5
  6
PHANTOM
100
AcDbLine
 10
16.053841
 20
132.45131
 30
0.0
 11
21.58780099999999
 21
134.769777
 31
0.0
  0
LINE
  5
9820
330
9653
100
AcDbEntity
  8
1
  6
Continuous
100
AcDbLine
 10
325.7626629999998
 20
124.9003059999999
 30
0.0
 11
325.7626629999998
 21
122.9839979999999
 31
0.0
  0
LINE
  5
9821
330
9653
100
AcDbEntity
  8
1
  6
Continuous
100
AcDbLine
 10
326.206553
 20
122.8612959999999
 30
0.0
 11
326.206553
 21
124.500624
 31
0.0
  0
LINE
  5
9822
330
9653
100
AcDbEntity
  8
1
  6
Continuous
100
AcDbLine
 10
326.651346
 20
124.7776049999999
 30
0.0
 11
326.651346
 21
122.5852179999999
 31
0.0
  0
LINE
  5
9823
330
9653
100
AcDbEntity
  8
1
  6
Continuous
100
AcDbLine
 10
327.54003
 20
124.2146219999999
 30
0.0
 11
327.54003
 21
125.062706
 31
0.0
  0
LINE
  5
9824
330
9653
100
AcDbEntity
  8
1
  6
Continuous
100
AcDbLine
 10
328.4287139999999
 20
123.681411
 30
0.0
 11
327.984823
 21
123.681411
 31
0.0
  0
ARC
  5
9825
330
9653
100
AcDbEntity
  8
1
  6
Continuous
100
AcDbCircle
 10
325.9846079999999
 20
123.681411
 30
0.0
 40
1.145318999999998
100
AcDbArc
 50
125.5376999999999
 51
166.5373999999999
  0
ARC
  5
9826
330
9653
100
AcDbEntity
  8
1
  6
Continuous
100
AcDbCircle
 10
325.9846079999999
 20
123.681411
 30
0.0
 40
1.145318999999998
100
AcDbArc
 50
180.0
 51
234.4619999999999
  0
ARC
  5
9827
330
9653
100
AcDbEntity
  8
1
  6
Continuous
100
AcDbCircle
 10
326.4294009999999
 20
124.500624
 30
0.0
 40
0.222261
100
AcDbArc
 50
116.0144
 51
180.0
  0
ARC
  5
9828
330
9653
100
AcDbEntity
  8
1
  6
Continuous
100
AcDbCircle
 10
328.6506589999999
 20
119.948037
 30
0.0
 40
5.288524999999999
100
AcDbArc
 50
112.9439999999999
 51
116.0144
  0
ARC
  5
9829
330
9653
100
AcDbEntity
  8
1
  6
Continuous
100
AcDbCircle
 10
326.6071379999999
 20
124.7776049999999
 30
0.0
 40
0.044452
100
AcDbArc
 50
0.0
 51
112.9439999999999
  0
ARC
  5
982A
330
9653
100
AcDbEntity
  8
1
  6
Continuous
100
AcDbCircle
 10
326.4294009999999
 20
122.8612959999999
 30
0.0
 40
0.222261
100
AcDbArc
 50
180.0
 51
243.9859999999999
  0
ARC
  5
982B
330
9653
100
AcDbEntity
  8
1
  6
Continuous
100
AcDbCircle
 10
327.4958219999998
 20
125.062706
 30
0.0
 40
0.044452
100
AcDbArc
 50
0.0
 51
102.7288999999999
  0
ARC
  5
982C
330
9653
100
AcDbEntity
  8
1
  6
Continuous
100
AcDbCircle
 10
328.6506589999999
 20
119.948037
 30
0.0
 40
5.288524999999999
100
AcDbArc
 50
102.7288999999999
 51
103.2680999999999
  0
ARC
  5
982D
330
9653
100
AcDbEntity
  8
1
  6
Continuous
100
AcDbCircle
 10
328.6506589999999
 20
119.948037
 30
0.0
 40
5.288524999999999
100
AcDbArc
 50
103.2680999999999
 51
105.2575
  0
ARC
  5
982E
330
9653
100
AcDbEntity
  8
1
  6
Continuous
100
AcDbCircle
 10
327.318085
 20
124.835347
 30
0.0
 40
0.222261
100
AcDbArc
 50
105.2575
 51
180.0
  0
ARC
  5
982F
330
9653
100
AcDbEntity
  8
1
  6
Continuous
100
AcDbCircle
 10
327.318085
 20
122.5265739999999
 30
0.0
 40
0.222261
100
AcDbArc
 50
180.0
 51
254.742
  0
ARC
  5
9830
330
9653
100
AcDbEntity
  8
1
  6
Continuous
100
AcDbCircle
 10
328.6506589999999
 20
127.413883
 30
0.0
 40
5.288524999999999
100
AcDbArc
 50
254.742
 51
254.794
  0
ARC
  5
9831
330
9653
100
AcDbEntity
  8
1
  6
Continuous
100
AcDbCircle
 10
328.6506589999999
 20
127.413883
 30
0.0
 40
5.288524999999999
100
AcDbArc
 50
254.794
 51
257.2709999999998
  0
ARC
  5
9832
330
9653
100
AcDbEntity
  8
1
  6
Continuous
100
AcDbCircle
 10
327.4958219999998
 20
122.2992149999999
 30
0.0
 40
0.044452
100
AcDbArc
 50
257.2709999999998
 51
0.0
  0
LINE
  5
9833
330
9653
100
AcDbEntity
  8
1
  6
Continuous
100
AcDbLine
 10
327.0952369999998
 20
124.835347
 30
0.0
 11
327.0952369999998
 21
122.5265739999999
 31
0.0
  0
LINE
  5
9834
330
9653
100
AcDbEntity
  8
1
  6
Continuous
100
AcDbLine
 10
327.54003
 20
122.2992149999999
 30
0.0
 11
327.54003
 21
123.148201
 31
0.0
  0
LINE
  5
9835
330
9653
100
AcDbEntity
  8
1
  6
Continuous
100
AcDbLine
 10
327.984823
 20
125.1944289999999
 30
0.0
 11
327.984823
 21
122.1674909999999
 31
0.0
  0
LINE
  5
9836
330
9653
100
AcDbEntity
  8
1
  6
Continuous
100
AcDbLine
 10
328.4287139999999
 20
125.23142
 30
0.0
 11
328.4287139999999
 21
122.1305
 31
0.0
  0
ARC
  5
9837
330
9653
100
AcDbEntity
  8
1
  6
Continuous
100
AcDbCircle
 10
326.6071379999999
 20
122.5852179999999
 30
0.0
 40
0.044452
100
AcDbArc
 50
247.0559999999999
 51
0.0
  0
ARC
  5
9838
330
9653
100
AcDbEntity
  8
1
  6
Continuous
100
AcDbCircle
 10
328.6506589999999
 20
127.413883
 30
0.0
 40
5.288524999999999
100
AcDbArc
 50
243.9859999999999
 51
247.0559999999999
  0
LINE
  5
9839
330
9653
100
AcDbEntity
  8
1
  6
Continuous
100
AcDbLine
 10
329.7621909999999
 20
123.681411
 30
0.0
 11
329.540245
 21
123.681411
 31
0.0
  0
ARC
  5
983A
330
9653
100
AcDbEntity
  8
1
  6
Continuous
100
AcDbCircle
 10
329.540245
 20
124.9354929999998
 30
0.0
 40
0.222261
100
AcDbArc
 50
0.0
 51
79.896
  0
ARC
  5
983B
330
9653
100
AcDbEntity
  8
1
  6
Continuous
100
AcDbCircle
 10
329.540245
 20
122.426427
 30
0.0
 40
0.222261
100
AcDbArc
 50
280.104
 51
0.0
  0
ARC
  5
983C
330
9653
100
AcDbEntity
  8
1
  6
Continuous
100
AcDbCircle
 10
328.6506589999999
 20
119.948037
 30
0.0
 40
5.288524999999999
100
AcDbArc
 50
79.896
 51
82.20699999999999
  0
ARC
  5
983D
330
9653
100
AcDbEntity
  8
1
  6
Continuous
100
AcDbCircle
 10
329.3625089999999
 20
125.143905
 30
0.0
 40
0.044452
100
AcDbArc
 50
82.20699999999999
 51
180.0
  0
ARC
  5
983E
330
9653
100
AcDbEntity
  8
1
  6
Continuous
100
AcDbCircle
 10
329.3625089999999
 20
122.218015
 30
0.0
 40
0.044452
100
AcDbArc
 50
180.0
 51
277.793
  0
ARC
  5
983F
330
9653
100
AcDbEntity
  8
1
  6
Continuous
100
AcDbCircle
 10
328.6506589999999
 20
127.413883
 30
0.0
 40
5.288524999999999
100
AcDbArc
 50
277.793
 51
280.104
  0
LINE
  5
9840
330
9653
100
AcDbEntity
  8
1
  6
Continuous
100
AcDbLine
 10
328.8735069999999
 20
125.23142
 30
0.0
 11
328.8735069999999
 21
122.1305
 31
0.0
  0
LINE
  5
9841
330
9653
100
AcDbEntity
  8
1
  6
Continuous
100
AcDbLine
 10
329.3173980000001
 20
125.143905
 30
0.0
 11
329.3173980000001
 21
122.218015
 31
0.0
  0
LINE
  5
9842
330
9653
100
AcDbEntity
  8
1
  6
Continuous
100
AcDbLine
 10
329.7621909999999
 20
124.2146219999999
 30
0.0
 11
329.7621909999999
 21
124.9354929999998
 31
0.0
  0
LINE
  5
9843
330
9653
100
AcDbEntity
  8
1
  6
Continuous
100
AcDbLine
 10
330.6508739999999
 20
124.9327859999999
 30
0.0
 11
330.6508739999999
 21
123.9033569999999
 31
0.0
  0
LINE
  5
9844
330
9653
100
AcDbEntity
  8
1
  6
Continuous
100
AcDbLine
 10
331.0956669999999
 20
123.9033569999999
 30
0.0
 11
331.0956669999999
 21
124.8524889999999
 31
0.0
  0
LINE
  5
9845
330
9653
100
AcDbEntity
  8
1
  6
Continuous
100
AcDbLine
 10
330.87282
 20
123.681411
 30
0.0
 11
330.87282
 21
122.6149909999999
 31
0.0
  0
LINE
  5
9846
330
9653
100
AcDbEntity
  8
1
  6
Continuous
100
AcDbLine
 10
331.321222
 20
122.849567
 30
0.0
 11
331.8237569999999
 21
124.7225699999999
 31
0.0
  0
LINE
  5
9847
330
9653
100
AcDbEntity
  8
1
  6
Continuous
100
AcDbLine
 10
332.4625259999999
 20
123.681411
 30
0.0
 11
331.5440689999999
 21
123.681411
 31
0.0
  0
ARC
  5
9848
330
9653
100
AcDbEntity
  8
1
  6
Continuous
100
AcDbCircle
 10
330.87282
 20
123.9033569999999
 30
0.0
 40
0.222261
100
AcDbArc
 50
180.0
 51
0.0
  0
ARC
  5
9849
330
9653
100
AcDbEntity
  8
1
  6
Continuous
100
AcDbCircle
 10
331.3176129999998
 20
123.681411
 30
0.0
 40
1.145318999999998
100
AcDbArc
 50
332.25
 51
54.46200000000001
  0
ARC
  5
984A
330
9653
100
AcDbEntity
  8
1
  6
Continuous
100
AcDbCircle
 10
331.3176129999998
 20
123.681411
 30
0.0
 40
1.145318999999998
100
AcDbArc
 50
305.5379999999999
 51
315.699
  0
LINE
  5
984B
330
9653
100
AcDbEntity
  8
1
  6
Continuous
100
AcDbLine
 10
329.7621909999999
 20
122.426427
 30
0.0
 11
329.7621909999999
 21
123.681411
 31
0.0
  0
LINE
  5
984C
330
9653
100
AcDbEntity
  8
1
  6
Continuous
100
AcDbLine
 10
330.2060809999999
 20
125.142101
 30
0.0
 11
330.2060809999999
 21
122.3596629999998
 31
0.0
  0
ARC
  5
984D
330
9653
100
AcDbEntity
  8
1
  6
Continuous
100
AcDbCircle
 10
328.6506589999999
 20
127.413883
 30
0.0
 40
5.732929999999998
100
AcDbArc
 50
234.4619999999999
 51
305.5379999999999
  0
ARC
  5
984E
330
9653
100
AcDbEntity
  8
1
  6
Continuous
100
AcDbCircle
 10
328.6506589999999
 20
119.948037
 30
0.0
 40
5.732929999999998
100
AcDbArc
 50
54.46200000000001
 51
125.5376999999999
  0
LINE
  5
984F
330
9653
100
AcDbEntity
  8
4
  6
CENTER
100
AcDbLine
 10
27.386959
 20
132.08146
 30
0.0
 11
19.985959
 21
132.08146
 31
0.0
  0
ENDSEC
  0
SECTION
  2
OBJECTS
  0
DICTIONARY
  5
9641
330
0
100
AcDbDictionary
281
     1
  3
ACAD_CIP_PREVIOUS_PRODUCT_INFO
350
98B3
  3
ACAD_COLOR
350
9895
  3
ACAD_DETAILVIEWSTYLE
350
98AE
  3
ACAD_GROUP
350
9642
  3
ACAD_LAYOUT
350
964E
  3
ACAD_MATERIAL
350
9863
  3
ACAD_MLEADERSTYLE
350
98AA
  3
ACAD_MLINESTYLE
350
964B
  3
ACAD_PLOTSETTINGS
350
964D
  3
ACAD_PLOTSTYLENAME
350
9861
  3
ACAD_SCALELIST
350
9898
  3
ACAD_SECTIONVIEWSTYLE
350
98AC
  3
ACAD_TABLESTYLE
350
9896
  3
ACAD_VISUALSTYLE
350
987C
  3
ACDB_RECOMPOSE_DATA
350
98D1
  3
AcDbVariableDictionary
350
98C4
  3
DWGPROPS
350
98D2
  0
DICTIONARY
  5
98B4
330
9645
100
AcDbDictionary
280
     1
281
     1
  3
ADSK_XREC_LAYER_RECONCILED
360
98B5
  0
DICTIONARY
  5
98B6
330
965B
100
AcDbDictionary
280
     1
281
     1
  3
ADSK_XREC_LAYER_RECONCILED
360
98B7
  0
DICTIONARY
  5
98B8
330
965C
100
AcDbDictionary
280
     1
281
     1
  3
ADSK_XREC_LAYER_RECONCILED
360
98B9
  0
DICTIONARY
  5
98BA
330
965D
100
AcDbDictionary
280
     1
281
     1
  3
ADSK_XREC_LAYER_RECONCILED
360
98BB
  0
DICTIONARY
  5
98BC
330
965E
100
AcDbDictionary
280
     1
281
     1
  3
ADSK_XREC_LAYER_RECONCILED
360
98BD
  0
DICTIONARY
  5
98BE
330
965F
100
AcDbDictionary
280
     1
281
     1
  3
ADSK_XREC_LAYER_RECONCILED
360
98BF
  0
DICTIONARY
  5
98C0
330
9660
100
AcDbDictionary
280
     1
281
     1
  3
ADSK_XREC_LAYER_RECONCILED
360
98C1
  0
DICTIONARY
  5
98C2
330
9661
100
AcDbDictionary
280
     1
281
     1
  3
ADSK_XREC_LAYER_RECONCILED
360
98C3
  0
DICTIONARY
  5
985C
330
9653
100
AcDbDictionary
281
     1
  3
ACAD_LAYOUTSELFREF
350
985D
  0
DICTIONARY
  5
985A
330
964F
100
AcDbDictionary
281
     1
  3
ACAD_LAYOUTSELFREF
350
985B
  0
XRECORD
  5
98B3
102
{ACAD_REACTORS
330
9641
102
}
330
9641
100
AcDbXrecord
280
     1
300
ACDLT
300
2014
300
ACDLT_F_S
  0
DICTIONARY
  5
9895
102
{ACAD_REACTORS
330
9641
102
}
330
9641
100
AcDbDictionary
281
     1
  0
DICTIONARY
  5
98AE
102
{ACAD_REACTORS
330
9641
102
}
330
9641
100
AcDbDictionary
281
     1
  3
Imperial24
350
98AF
  0
DICTIONARY
  5
9642
102
{ACAD_REACTORS
330
9641
102
}
330
9641
100
AcDbDictionary
281
     1
  0
DICTIONARY
  5
964E
102
{ACAD_REACTORS
330
9641
102
}
330
9641
100
AcDbDictionary
281
     1
  3
Model
350
98B0
  3
レイアウト1
350
98B1
  0
DICTIONARY
  5
9863
102
{ACAD_REACTORS
330
9641
102
}
330
9641
100
AcDbDictionary
281
     1
  3
ByBlock
350
986C
  3
ByLayer
350
9864
  3
Global
350
9874
  0
DICTIONARY
  5
98AA
102
{ACAD_REACTORS
330
9641
102
}
330
9641
100
AcDbDictionary
281
     1
  3
Standard
350
98AB
  0
DICTIONARY
  5
964B
102
{ACAD_REACTORS
330
9641
102
}
330
9641
100
AcDbDictionary
281
     1
  3
STANDARD
350
964C
  0
DICTIONARY
  5
964D
102
{ACAD_REACTORS
330
9641
102
}
330
9641
100
AcDbDictionary
281
     1
  0
ACDBDICTIONARYWDFLT
  5
9861
102
{ACAD_REACTORS
330
9641
102
}
330
9641
100
AcDbDictionary
281
     1
  3
Normal
350
9862
100
AcDbDictionaryWithDefault
340
9862
  0
DICTIONARY
  5
9898
102
{ACAD_REACTORS
330
9641
102
}
330
9641
100
AcDbDictionary
281
     1
  3
A0
350
9899
  3
A1
350
989A
  3
A2
350
989B
  3
A3
350
989C
  3
A4
350
989D
  3
A5
350
989E
  3
A6
350
989F
  3
A7
350
98A0
  3
A8
350
98A1
  3
A9
350
98A2
  3
B0
350
98A3
  3
B1
350
98A4
  3
B2
350
98A5
  3
B3
350
98A6
  3
B4
350
98A7
  3
B5
350
98A8
  3
B6
350
98A9
  0
DICTIONARY
  5
98AC
102
{ACAD_REACTORS
330
9641
102
}
330
9641
100
AcDbDictionary
281
     1
  3
Imperial24
350
98AD
  0
DICTIONARY
  5
9896
102
{ACAD_REACTORS
330
9641
102
}
330
9641
100
AcDbDictionary
281
     1
  3
Standard
350
9897
  0
DICTIONARY
  5
987C
102
{ACAD_REACTORS
330
9641
102
}
330
9641
100
AcDbDictionary
281
     1
  3
2dWireframe
350
9882
  3
Basic
350
9881
  3
Brighten
350
9888
  3
ColorChange
350
988C
  3
Conceptual
350
9885
  3
Dim
350
9887
  3
EdgeColorOff
350
9894
  3
Facepattern
350
988B
  3
Flat
350
987D
  3
FlatWithEdges
350
987E
  3
Gouraud
350
987F
  3
GouraudWithEdges
350
9880
  3
Hidden
350
9884
  3
JitterOff
350
9892
  3
Linepattern
350
988A
  3
OverhangOff
350
9893
  3
Realistic
350
9886
  3
Shaded
350
9891
  3
Shaded with edges
350
9890
  3
Shades of Gray
350
988D
  3
Sketchy
350
988E
  3
Thicken
350
9889
  3
Wireframe
350
9883
  3
X-Ray
350
988F
  0
XRECORD
  5
98D1
102
{ACAD_REACTORS
330
9641
102
}
330
9641
100
AcDbXrecord
280
     1
 90
        1
330
9897
  0
DICTIONARY
  5
98C4
102
{ACAD_REACTORS
330
9641
102
}
330
9641
100
AcDbDictionary
281
     1
  3
CANNOSCALE
350
98C9
  3
CMLEADERSTYLE
350
98C6
  3
CTABLESTYLE
350
98C5
  3
CVIEWDETAILSTYLE
350
98C7
  3
CVIEWSECTIONSTYLE
350
98C8
  3
DIMASSOC
350
98CC
  3
INDEXCTL
350
98CB
  3
SORTENTS
350
98CA
  3
XCLIPFRAME
350
98CD
  0
XRECORD
  5
98D2
102
{ACAD_REACTORS
330
9641
102
}
330
9641
100
AcDbXrecord
280
     1
  1
DWGPROPS COOKIE
  2

  3

  4

  6

  7

  8
Yoshitsune
  9

300
=
301
=
302
=
303
=
304
=
305
=
306
=
307
=
308
=
309
=
 40
0.0000131944444444
 41
2451066.69868912
 42
2457192.603484514
  1

 90
        0
  0
XRECORD
  5
98B5
102
{ACAD_REACTORS
330
98B4
102
}
330
98B4
100
AcDbXrecord
280
     1
290
     1
  0
XRECORD
  5
98B7
102
{ACAD_REACTORS
330
98B6
102
}
330
98B6
100
AcDbXrecord
280
     1
290
     1
  0
XRECORD
  5
98B9
102
{ACAD_REACTORS
330
98B8
102
}
330
98B8
100
AcDbXrecord
280
     1
290
     1
  0
XRECORD
  5
98BB
102
{ACAD_REACTORS
330
98BA
102
}
330
98BA
100
AcDbXrecord
280
     1
290
     1
  0
XRECORD
  5
98BD
102
{ACAD_REACTORS
330
98BC
102
}
330
98BC
100
AcDbXrecord
280
     1
290
     1
  0
XRECORD
  5
98BF
102
{ACAD_REACTORS
330
98BE
102
}
330
98BE
100
AcDbXrecord
280
     1
290
     1
  0
XRECORD
  5
98C1
102
{ACAD_REACTORS
330
98C0
102
}
330
98C0
100
AcDbXrecord
280
     1
290
     1
  0
XRECORD
  5
98C3
102
{ACAD_REACTORS
330
98C2
102
}
330
98C2
100
AcDbXrecord
280
     1
290
     1
  0
XRECORD
  5
985D
102
{ACAD_REACTORS
330
985C
102
}
330
985C
100
AcDbXrecord
280
     1
340
9653
  0
XRECORD
  5
985B
102
{ACAD_REACTORS
330
985A
102
}
330
985A
100
AcDbXrecord
280
     1
340
964F
  0
ACDBDETAILVIEWSTYLE
  5
98AF
102
{ACAD_XDICTIONARY
360
990A
102
}
102
{ACAD_REACTORS
330
98AE
102
}
330
98AE
100
AcDbModelDocViewStyle
 70
     0
  3
Imperial24
290
     0
100
AcDbDetailViewStyle
 70
     0
 71
     0
 90
        3
 71
     1
340
9646
 40
0.24
340
0
 40
0.24
300

 40
0.36
280
     3
 71
     2
340
964A
 90
       25
 71
     3
340
9646
 40
0.24
 90
        1
 40
0.75
 90
        1
300
%<\AcVar ViewType \f "%tc1">% %<\AcVar ViewDetailId>%\PSCALE %<\AcVar ViewScale \f "%sn">%
 71
     4
340
964A
 90
       25
340
964A
 90
       25
280
     0
  0
LAYOUT
  5
98B0
102
{ACAD_XDICTIONARY
360
990C
102
}
102
{ACAD_REACTORS
330
964E
102
}
330
964E
100
AcDbPlotSettings
  1

  2
Canon LBP9100C
  4

  6

 40
0.0
 41
0.0
 42
0.0
 43
0.0
 44
0.0
 45
0.0
 46
0.0
 47
0.0
 48
0.0
 49
0.0
140
0.0
141
0.0
142
1.0
143
1.0
 70
  1712
 72
     0
 73
     0
 74
     0
  7

 75
     0
147
1.0
148
0.0
149
0.0
100
AcDbLayout
  1
Model
 70
     1
 71
     0
 10
0.0
 20
0.0
 11
12.0
 21
9.0
 12
0.0
 22
0.0
 32
0.0
 14
0.0
 24
0.0
 34
0.0
 15
0.0
 25
0.0
 35
0.0
146
0.0
 13
0.0
 23
0.0
 33
0.0
 16
1.0
 26
0.0
 36
0.0
 17
0.0
 27
1.0
 37
0.0
 76
     0
330
9653
331
9859
  0
LAYOUT
  5
98B1
102
{ACAD_XDICTIONARY
360
990E
102
}
102
{ACAD_REACTORS
330
964E
102
}
330
964E
100
AcDbPlotSettings
  1

  2
Canon LBP9100C
  4

  6

 40
0.0
 41
0.0
 42
0.0
 43
0.0
 44
0.0
 45
0.0
 46
0.0
 47
0.0
 48
0.0
 49
0.0
140
0.0
141
0.0
142
1.0
143
1.0
 70
   688
 72
     0
 73
     0
 74
     5
  7

 75
    16
147
1.0
148
0.0
149
0.0
100
AcDbLayout
  1
レイアウト1
 70
     0
 71
     1
 10
0.0
 20
0.0
 11
420.0
 21
297.0
 12
0.0
 22
0.0
 32
0.0
 14
1.000000000000000E+20
 24
1.000000000000000E+20
 34
1.000000000000000E+20
 15
-1.000000000000000E+20
 25
-1.000000000000000E+20
 35
-1.000000000000000E+20
146
0.0
 13
0.0
 23
0.0
 33
0.0
 16
1.0
 26
0.0
 36
0.0
 17
0.0
 27
1.0
 37
0.0
 76
     0
330
964F
  0
MATERIAL
  5
986C
102
{ACAD_XDICTIONARY
360
986D
102
}
102
{ACAD_REACTORS
330
9863
102
}
330
9863
100
AcDbMaterial
  1
ByBlock
 72
     0
 43
0.0208333333333333
 43
0.0
 43
0.0
 43
0.0
 43
0.0
 43
0.0208333333333333
 43
0.0
 43
0.0
 43
0.0
 43
0.0
 43
1.0
 43
0.0
 43
0.0
 43
0.0
 43
0.0
 43
1.0
 77
     0
 47
0.0208333333333333
 47
0.0
 47
0.0
 47
0.0
 47
0.0
 47
0.0208333333333333
 47
0.0
 47
0.0
 47
0.0
 47
0.0
 47
1.0
 47
0.0
 47
0.0
 47
0.0
 47
0.0
 47
1.0
171
     0
 49
0.0208333333333333
 49
0.0
 49
0.0
 49
0.0
 49
0.0
 49
0.0208333333333333
 49
0.0
 49
0.0
 49
0.0
 49
0.0
 49
1.0
 49
0.0
 49
0.0
 49
0.0
 49
0.0
 49
1.0
175
     0
142
0.0208333333333333
142
0.0
142
0.0
142
0.0
142
0.0
142
0.0208333333333333
142
0.0
142
0.0
142
0.0
142
0.0
142
1.0
142
0.0
142
0.0
142
0.0
142
0.0
142
1.0
179
     0
144
0.0208333333333333
144
0.0
144
0.0
144
0.0
144
0.0
144
0.0208333333333333
144
0.0
144
0.0
144
0.0
144
0.0
144
1.0
144
0.0
144
0.0
144
0.0
144
0.0
144
1.0
147
0.0208333333333333
147
0.0
147
0.0
147
0.0
147
0.0
147
0.0208333333333333
147
0.0
147
0.0
147
0.0
147
0.0
147
1.0
147
0.0
147
0.0
147
0.0
147
0.0
147
1.0
  0
MATERIAL
  5
9864
102
{ACAD_XDICTIONARY
360
9865
102
}
102
{ACAD_REACTORS
330
9863
102
}
330
9863
100
AcDbMaterial
  1
ByLayer
 72
     0
 43
0.0208333333333333
 43
0.0
 43
0.0
 43
0.0
 43
0.0
 43
0.0208333333333333
 43
0.0
 43
0.0
 43
0.0
 43
0.0
 43
1.0
 43
0.0
 43
0.0
 43
0.0
 43
0.0
 43
1.0
 77
     0
 47
0.0208333333333333
 47
0.0
 47
0.0
 47
0.0
 47
0.0
 47
0.0208333333333333
 47
0.0
 47
0.0
 47
0.0
 47
0.0
 47
1.0
 47
0.0
 47
0.0
 47
0.0
 47
0.0
 47
1.0
171
     0
 49
0.0208333333333333
 49
0.0
 49
0.0
 49
0.0
 49
0.0
 49
0.0208333333333333
 49
0.0
 49
0.0
 49
0.0
 49
0.0
 49
1.0
 49
0.0
 49
0.0
 49
0.0
 49
0.0
 49
1.0
175
     0
142
0.0208333333333333
142
0.0
142
0.0
142
0.0
142
0.0
142
0.0208333333333333
142
0.0
142
0.0
142
0.0
142
0.0
142
1.0
142
0.0
142
0.0
142
0.0
142
0.0
142
1.0
179
     0
144
0.0208333333333333
144
0.0
144
0.0
144
0.0
144
0.0
144
0.0208333333333333
144
0.0
144
0.0
144
0.0
144
0.0
144
1.0
144
0.0
144
0.0
144
0.0
144
0.0
144
1.0
147
0.0208333333333333
147
0.0
147
0.0
147
0.0
147
0.0
147
0.0208333333333333
147
0.0
147
0.0
147
0.0
147
0.0
147
1.0
147
0.0
147
0.0
147
0.0
147
0.0
147
1.0
  0
MATERIAL
  5
9874
102
{ACAD_XDICTIONARY
360
9875
102
}
102
{ACAD_REACTORS
330
9863
102
}
330
9863
100
AcDbMaterial
  1
Global
 72
     0
 43
0.0208333333333333
 43
0.0
 43
0.0
 43
0.0
 43
0.0
 43
0.0208333333333333
 43
0.0
 43
0.0
 43
0.0
 43
0.0
 43
1.0
 43
0.0
 43
0.0
 43
0.0
 43
0.0
 43
1.0
 77
     0
 47
0.0208333333333333
 47
0.0
 47
0.0
 47
0.0
 47
0.0
 47
0.0208333333333333
 47
0.0
 47
0.0
 47
0.0
 47
0.0
 47
1.0
 47
0.0
 47
0.0
 47
0.0
 47
0.0
 47
1.0
171
     0
 49
0.0208333333333333
 49
0.0
 49
0.0
 49
0.0
 49
0.0
 49
0.0208333333333333
 49
0.0
 49
0.0
 49
0.0
 49
0.0
 49
1.0
 49
0.0
 49
0.0
 49
0.0
 49
0.0
 49
1.0
175
     0
142
0.0208333333333333
142
0.0
142
0.0
142
0.0
142
0.0
142
0.0208333333333333
142
0.0
142
0.0
142
0.0
142
0.0
142
1.0
142
0.0
142
0.0
142
0.0
142
0.0
142
1.0
179
     0
144
0.0208333333333333
144
0.0
144
0.0
144
0.0
144
0.0
144
0.0208333333333333
144
0.0
144
0.0
144
0.0
144
0.0
144
1.0
144
0.0
144
0.0
144
0.0
144
0.0
144
1.0
147
0.0208333333333333
147
0.0
147
0.0
147
0.0
147
0.0
147
0.0208333333333333
147
0.0
147
0.0
147
0.0
147
0.0
147
1.0
147
0.0
147
0.0
147
0.0
147
0.0
147
1.0
  0
MLEADERSTYLE
  5
98AB
102
{ACAD_REACTORS
330
98AA
102
}
330
98AA
100
AcDbMLeaderStyle
170
     2
171
     1
172
     0
 90
        2
 40
0.0
 41
0.0
173
     1
 91
-1056964608
340
9648
 92
       -2
290
     1
 42
0.09
291
     1
 43
0.36
  3
Standard
 44
0.18
300

342
9646
174
     1
178
     6
175
     1
176
     0
 93
-1056964608
 45
0.18
292
     0
297
     0
 46
0.18
 94
-1056964608
 47
1.0
 49
1.0
140
1.0
293
     1
141
0.0
294
     1
177
     0
142
1.0
295
     0
296
     0
143
0.125
1001
ACAD_MLEADERVER
1070
     2
  0
MLINESTYLE
  5
964C
102
{ACAD_REACTORS
330
964B
102
}
330
964B
100
AcDbMlineStyle
  2
STANDARD
 70
     0
  3

 62
   256
 51
90.0
 52
90.0
 71
     2
 49
0.5
 62
   256
  6
BYLAYER
 49
-0.5
 62
   256
  6
BYLAYER
  0
ACDBPLACEHOLDER
  5
9862
102
{ACAD_REACTORS
330
9861
102
}
330
9861
  0
SCALE
  5
9899
102
{ACAD_REACTORS
330
9898
102
}
330
9898
100
AcDbScale
 70
     0
300
1:1
140
1.0
141
1.0
290
     1
  0
SCALE
  5
989A
102
{ACAD_REACTORS
330
9898
102
}
330
9898
100
AcDbScale
 70
     0
300
1/128" = 1'-0"
140
0.0078125
141
12.0
290
     0
  0
SCALE
  5
989B
102
{ACAD_REACTORS
330
9898
102
}
330
9898
100
AcDbScale
 70
     0
300
1/64" = 1'-0"
140
0.015625
141
12.0
290
     0
  0
SCALE
  5
989C
102
{ACAD_REACTORS
330
9898
102
}
330
9898
100
AcDbScale
 70
     0
300
1/32" = 1'-0"
140
0.03125
141
12.0
290
     0
  0
SCALE
  5
989D
102
{ACAD_REACTORS
330
9898
102
}
330
9898
100
AcDbScale
 70
     0
300
1/16" = 1'-0"
140
0.0625
141
12.0
290
     0
  0
SCALE
  5
989E
102
{ACAD_REACTORS
330
9898
102
}
330
9898
100
AcDbScale
 70
     0
300
3/32" = 1'-0"
140
0.09375
141
12.0
290
     0
  0
SCALE
  5
989F
102
{ACAD_REACTORS
330
9898
102
}
330
9898
100
AcDbScale
 70
     0
300
1/8" = 1'-0"
140
0.125
141
12.0
290
     0
  0
SCALE
  5
98A0
102
{ACAD_REACTORS
330
9898
102
}
330
9898
100
AcDbScale
 70
     0
300
3/16" = 1'-0"
140
0.1875
141
12.0
290
     0
  0
SCALE
  5
98A1
102
{ACAD_REACTORS
330
9898
102
}
330
9898
100
AcDbScale
 70
     0
300
1/4" = 1'-0"
140
0.25
141
12.0
290
     0
  0
SCALE
  5
98A2
102
{ACAD_REACTORS
330
9898
102
}
330
9898
100
AcDbScale
 70
     0
300
3/8" = 1'-0"
140
0.375
141
12.0
290
     0
  0
SCALE
  5
98A3
102
{ACAD_REACTORS
330
9898
102
}
330
9898
100
AcDbScale
 70
     0
300
1/2" = 1'-0"
140
0.5
141
12.0
290
     0
  0
SCALE
  5
98A4
102
{ACAD_REACTORS
330
9898
102
}
330
9898
100
AcDbScale
 70
     0
300
3/4" = 1'-0"
140
0.75
141
12.0
290
     0
  0
SCALE
  5
98A5
102
{ACAD_REACTORS
330
9898
102
}
330
9898
100
AcDbScale
 70
     0
300
1" = 1'-0"
140
1.0
141
12.0
290
     0
  0
SCALE
  5
98A6
102
{ACAD_REACTORS
330
9898
102
}
330
9898
100
AcDbScale
 70
     0
300
1-1/2" = 1'-0"
140
1.5
141
12.0
290
     0
  0
SCALE
  5
98A7
102
{ACAD_REACTORS
330
9898
102
}
330
9898
100
AcDbScale
 70
     0
300
3" = 1'-0"
140
3.0
141
12.0
290
     0
  0
SCALE
  5
98A8
102
{ACAD_REACTORS
330
9898
102
}
330
9898
100
AcDbScale
 70
     0
300
6" = 1'-0"
140
6.0
141
12.0
290
     0
  0
SCALE
  5
98A9
102
{ACAD_REACTORS
330
9898
102
}
330
9898
100
AcDbScale
 70
     0
300
1'-0" = 1'-0"
140
12.0
141
12.0
290
     0
  0
ACDBSECTIONVIEWSTYLE
  5
98AD
102
{ACAD_XDICTIONARY
360
9908
102
}
102
{ACAD_REACTORS
330
98AC
102
}
330
98AC
100
AcDbModelDocViewStyle
 70
     0
  3
Imperial24
290
     0
100
AcDbSectionViewStyle
 70
     0
 71
     0
 90
       78
 71
     1
340
9646
 40
0.24
340
0
340
0
 40
0.24
300
I, O, Q, S, X, Z
 40
0.48
 90
        3
 40
0.18
 90
        1
 71
     2
340
964A
 90
       25
340
964A
 90
       50
 40
0.24
 40
0.0
 40
0.24
 71
     3
340
9646
 40
0.24
 90
        1
 40
0.75
 90
        1
300
%<\AcVar ViewType \f "%tc1">% %<\AcVar ViewSectionStartId>%-%<\AcVar ViewSectionEndId>%\PSCALE %<\AcVar ViewScale \f "%sn">%
 71
     4
300
ANSI31
 40
1.0
 90
        0
290
     0
290
     0
 90
        6
 40
0.0
 40
1.570796326794896
 40
0.2617993877991494
 40
1.308996938995747
 40
-0.2617993877991494
 40
1.832595714594046
  0
TABLESTYLE
  5
9897
102
{ACAD_XDICTIONARY
360
98CF
102
}
102
{ACAD_REACTORS
330
9896
102
}
330
9896
100
AcDbTableStyle
  3
Standard
 70
     0
 71
     0
 40
0.06
 41
0.06
280
     0
281
     0
  7
STANDARD
140
0.18
170
     2
 62
     0
 63
     7
283
     0
274
    -2
284
     1
 64
     0
275
    -2
285
     1
 65
     0
276
    -2
286
     1
 66
     0
277
    -2
287
     1
 67
     0
278
    -2
288
     1
 68
     0
279
    -2
289
     1
 69
     0
  7
STANDARD
140
0.25
170
     5
 62
     0
 63
     7
283
     0
274
    -2
284
     1
 64
     0
275
    -2
285
     1
 65
     0
276
    -2
286
     1
 66
     0
277
    -2
287
     1
 67
     0
278
    -2
288
     1
 68
     0
279
    -2
289
     1
 69
     0
  7
STANDARD
140
0.18
170
     5
 62
     0
 63
     7
283
     0
274
    -2
284
     1
 64
     0
275
    -2
285
     1
 65
     0
276
    -2
286
     1
 66
     0
277
    -2
287
     1
 67
     0
278
    -2
288
     1
 68
     0
279
    -2
289
     1
 69
     0
  0
VISUALSTYLE
  5
9882
102
{ACAD_XDICTIONARY
360
98E0
102
}
102
{ACAD_REACTORS
330
987C
102
}
330
987C
100
AcDbVisualStyle
  2
2dWireframe
 70
     4
 71
     0
 72
     2
 73
     0
 90
        0
 40
-0.6
 41
-30.0
 62
     5
 63
     7
 74
     1
 91
        4
 64
     7
 65
   257
 75
     1
175
     1
 42
1.0
 92
        0
 66
   257
 43
1.0
 76
     1
 77
     6
 78
     2
 67
     7
 79
     5
170
     0
171
     0
290
     0
174
     0
 93
        1
 44
0.0
173
     0
291
     0
 45
0.0
1001
ACAD
1000
AcDbSavedByObjectVersion
1070
     0
  0
VISUALSTYLE
  5
9881
102
{ACAD_XDICTIONARY
360
98DE
102
}
102
{ACAD_REACTORS
330
987C
102
}
330
987C
100
AcDbVisualStyle
  2
Basic
 70
     7
 71
     1
 72
     0
 73
     1
 90
        0
 40
-0.6
 41
-30.0
 62
     5
 63
     7
 74
     0
 91
        4
 64
     7
 65
   257
 75
     1
175
     1
 42
1.0
 92
        8
 66
     7
 43
1.0
 76
     1
 77
     6
 78
     2
 67
     7
 79
     5
170
     0
171
     0
290
     0
174
     0
 93
        1
 44
0.0
173
     0
291
     1
 45
0.0
1001
ACAD
1000
AcDbSavedByObjectVersion
1070
     0
  0
VISUALSTYLE
  5
9888
102
{ACAD_XDICTIONARY
360
98EC
102
}
102
{ACAD_REACTORS
330
987C
102
}
330
987C
100
AcDbVisualStyle
  2
Brighten
 70
    12
 71
     2
 72
     2
 73
     0
 90
        0
 40
-0.6
 41
-30.0
 62
     5
 63
     7
 74
     1
 91
        4
 64
     7
 65
   257
 75
     1
175
     1
 42
1.0
 92
        8
 66
     7
 43
1.0
 76
     1
 77
     6
 78
     2
 67
     7
 79
     5
170
     0
171
     0
290
     0
174
     0
 93
        1
 44
50.0
173
     0
291
     1
 45
0.0
1001
ACAD
1000
AcDbSavedByObjectVersion
1070
     0
  0
VISUALSTYLE
  5
988C
102
{ACAD_XDICTIONARY
360
98F4
102
}
102
{ACAD_REACTORS
330
987C
102
}
330
987C
100
AcDbVisualStyle
  2
ColorChange
 70
    16
 71
     2
 72
     2
 73
     3
 90
        0
 40
-0.6
 41
-30.0
 62
     5
 63
     8
 74
     1
 91
        4
 64
     7
 65
   257
 75
     1
175
     1
 42
1.0
 92
        8
 66
     8
 43
1.0
 76
     1
 77
     6
 78
     2
 67
     7
 79
     5
170
     0
171
     0
290
     0
174
     0
 93
        1
 44
0.0
173
     0
291
     1
 45
0.0
1001
ACAD
1000
AcDbSavedByObjectVersion
1070
     0
  0
VISUALSTYLE
  5
9885
102
{ACAD_XDICTIONARY
360
98E6
102
}
102
{ACAD_REACTORS
330
987C
102
}
330
987C
100
AcDbVisualStyle
  2
Conceptual
 70
     9
 71
     3
 72
     2
 73
     0
 90
        0
 40
-0.6
 41
-30.0
 62
     5
 63
     7
 74
     2
 91
        2
 64
     7
 65
   257
 75
     1
175
     1
 42
179.0
 92
        8
 66
     7
 43
1.0
 76
     1
 77
     6
 78
     2
 67
     7
 79
     3
170
     0
171
     0
290
     0
174
     0
 93
        1
 44
0.0
173
     0
291
     0
 45
0.0
1001
ACAD
1000
AcDbSavedByObjectVersion
1070
     0
  0
VISUALSTYLE
  5
9887
102
{ACAD_XDICTIONARY
360
98EA
102
}
102
{ACAD_REACTORS
330
987C
102
}
330
987C
100
AcDbVisualStyle
  2
Dim
 70
    11
 71
     2
 72
     2
 73
     0
 90
        0
 40
-0.6
 41
-30.0
 62
     5
 63
     7
 74
     1
 91
        4
 64
     7
 65
   257
 75
     1
175
     1
 42
1.0
 92
        8
 66
     7
 43
1.0
 76
     1
 77
     6
 78
     2
 67
     7
 79
     5
170
     0
171
     0
290
     0
174
     0
 93
        1
 44
-50.0
173
     0
291
     1
 45
0.0
1001
ACAD
1000
AcDbSavedByObjectVersion
1070
     0
  0
VISUALSTYLE
  5
9894
102
{ACAD_XDICTIONARY
360
9904
102
}
102
{ACAD_REACTORS
330
987C
102
}
330
987C
100
AcDbVisualStyle
  2
EdgeColorOff
 70
    22
 71
     2
 72
     2
 73
     0
 90
        0
 40
-0.6
 41
-30.0
 62
     5
 63
     7
 74
     1
 91
        4
 64
     7
 65
   257
 75
     1
175
     1
 42
1.0
 92
        8
 66
     7
 43
1.0
 76
     1
 77
     6
 78
     2
 67
     7
 79
     5
170
     0
171
     0
290
     0
174
     0
 93
        1
 44
0.0
173
     0
291
     1
 45
0.0
1001
ACAD
1000
AcDbSavedByObjectVersion
1070
     0
  0
VISUALSTYLE
  5
988B
102
{ACAD_XDICTIONARY
360
98F2
102
}
102
{ACAD_REACTORS
330
987C
102
}
330
987C
100
AcDbVisualStyle
  2
Facepattern
 70
    15
 71
     2
 72
     2
 73
     0
 90
        0
 40
-0.6
 41
-30.0
 62
     5
 63
     7
 74
     1
 91
        4
 64
     7
 65
   257
 75
     1
175
     1
 42
1.0
 92
        8
 66
     7
 43
1.0
 76
     1
 77
     6
 78
     2
 67
     7
 79
     5
170
     0
171
     0
290
     0
174
     0
 93
        1
 44
0.0
173
     0
291
     1
 45
0.0
1001
ACAD
1000
AcDbSavedByObjectVersion
1070
     0
  0
VISUALSTYLE
  5
987D
102
{ACAD_XDICTIONARY
360
98D6
102
}
102
{ACAD_REACTORS
330
987C
102
}
330
987C
100
AcDbVisualStyle
  2
Flat
 70
     0
 71
     2
 72
     1
 73
     1
 90
        2
 40
-0.6
 41
30.0
 62
     5
 63
     7
 74
     0
 91
        0
 64
     7
 65
   257
 75
     1
175
     1
 42
1.0
 92
        8
 66
     7
 43
1.0
 76
     1
 77
     6
 78
     2
 67
     7
 79
     5
170
     0
171
     0
290
     0
174
     0
 93
       13
 44
0.0
173
     0
291
     1
 45
0.0
1001
ACAD
1000
AcDbSavedByObjectVersion
1070
     0
  0
VISUALSTYLE
  5
987E
102
{ACAD_XDICTIONARY
360
98D8
102
}
102
{ACAD_REACTORS
330
987C
102
}
330
987C
100
AcDbVisualStyle
  2
FlatWithEdges
 70
     1
 71
     2
 72
     1
 73
     1
 90
        2
 40
-0.6
 41
30.0
 62
     5
 63
     7
 74
     1
 91
        0
 64
     7
 65
   257
 75
     1
175
     1
 42
1.0
 92
        0
 66
   257
 43
1.0
 76
     1
 77
     6
 78
     2
 67
     7
 79
     5
170
     0
171
     0
290
     0
174
     0
 93
       13
 44
0.0
173
     0
291
     1
 45
0.0
1001
ACAD
1000
AcDbSavedByObjectVersion
1070
     0
  0
VISUALSTYLE
  5
987F
102
{ACAD_XDICTIONARY
360
98DA
102
}
102
{ACAD_REACTORS
330
987C
102
}
330
987C
100
AcDbVisualStyle
  2
Gouraud
 70
     2
 71
     2
 72
     2
 73
     1
 90
        2
 40
-0.6
 41
30.0
 62
     5
 63
     7
 74
     0
 91
        0
 64
     7
 65
   257
 75
     1
175
     1
 42
1.0
 92
        0
 66
     7
 43
1.0
 76
     1
 77
     6
 78
     2
 67
     7
 79
     5
170
     0
171
     0
290
     0
174
     0
 93
       13
 44
0.0
173
     0
291
     1
 45
0.0
1001
ACAD
1000
AcDbSavedByObjectVersion
1070
     0
  0
VISUALSTYLE
  5
9880
102
{ACAD_XDICTIONARY
360
98DC
102
}
102
{ACAD_REACTORS
330
987C
102
}
330
987C
100
AcDbVisualStyle
  2
GouraudWithEdges
 70
     3
 71
     2
 72
     2
 73
     1
 90
        2
 40
-0.6
 41
30.0
 62
     5
 63
     7
 74
     1
 91
        0
 64
     7
 65
   257
 75
     1
175
     1
 42
1.0
 92
        0
 66
   257
 43
1.0
 76
     1
 77
     6
 78
     2
 67
     7
 79
     5
170
     0
171
     0
290
     0
174
     0
 93
       13
 44
0.0
173
     0
291
     1
 45
0.0
1001
ACAD
1000
AcDbSavedByObjectVersion
1070
     0
  0
VISUALSTYLE
  5
9884
102
{ACAD_XDICTIONARY
360
98E4
102
}
102
{ACAD_REACTORS
330
987C
102
}
330
987C
100
AcDbVisualStyle
  2
Hidden
 70
     6
 71
     1
 72
     2
 73
     2
 90
        0
 40
-0.6
 41
-30.0
 62
     5
 63
     7
 74
     2
 91
        2
 64
     7
 65
   257
 75
     2
175
     1
 42
40.0
 92
        0
 66
   257
 43
1.0
 76
     1
 77
     6
 78
     2
 67
     7
 79
     3
170
     0
171
     0
290
     0
174
     0
 93
        1
 44
0.0
173
     0
291
     0
 45
0.0
1001
ACAD
1000
AcDbSavedByObjectVersion
1070
     0
  0
VISUALSTYLE
  5
9892
102
{ACAD_XDICTIONARY
360
9900
102
}
102
{ACAD_REACTORS
330
987C
102
}
330
987C
100
AcDbVisualStyle
  2
JitterOff
 70
    20
 71
     2
 72
     2
 73
     0
 90
        0
 40
-0.6
 41
-30.0
 62
     5
 63
     7
 74
     1
 91
        4
 64
     7
 65
   257
 75
     1
175
     1
 42
1.0
 92
       10
 66
     7
 43
1.0
 76
     1
 77
     6
 78
     2
 67
     7
 79
     5
170
     0
171
     0
290
     0
174
     0
 93
        1
 44
0.0
173
     0
291
     1
 45
0.0
1001
ACAD
1000
AcDbSavedByObjectVersion
1070
     0
  0
VISUALSTYLE
  5
988A
102
{ACAD_XDICTIONARY
360
98F0
102
}
102
{ACAD_REACTORS
330
987C
102
}
330
987C
100
AcDbVisualStyle
  2
Linepattern
 70
    14
 71
     2
 72
     2
 73
     0
 90
        0
 40
-0.6
 41
-30.0
 62
     5
 63
     7
 74
     1
 91
        4
 64
     7
 65
   257
 75
     7
175
     7
 42
1.0
 92
        8
 66
     7
 43
1.0
 76
     1
 77
     6
 78
     2
 67
     7
 79
     5
170
     0
171
     0
290
     0
174
     0
 93
        1
 44
0.0
173
     0
291
     1
 45
0.0
1001
ACAD
1000
AcDbSavedByObjectVersion
1070
     0
  0
VISUALSTYLE
  5
9893
102
{ACAD_XDICTIONARY
360
9902
102
}
102
{ACAD_REACTORS
330
987C
102
}
330
987C
100
AcDbVisualStyle
  2
OverhangOff
 70
    21
 71
     2
 72
     2
 73
     0
 90
        0
 40
-0.6
 41
-30.0
 62
     5
 63
     7
 74
     1
 91
        4
 64
     7
 65
   257
 75
     1
175
     1
 42
1.0
 92
        9
 66
     7
 43
1.0
 76
     1
 77
     6
 78
     2
 67
     7
 79
     5
170
     0
171
     0
290
     0
174
     0
 93
        1
 44
0.0
173
     0
291
     1
 45
0.0
1001
ACAD
1000
AcDbSavedByObjectVersion
1070
     0
  0
VISUALSTYLE
  5
9886
102
{ACAD_XDICTIONARY
360
98E8
102
}
102
{ACAD_REACTORS
330
987C
102
}
330
987C
100
AcDbVisualStyle
  2
Realistic
 70
     8
 71
     2
 72
     3
 73
     0
 90
        2
 40
-0.6
 41
30.0
 62
     5
 63
     7
 74
     0
 91
        0
 64
     7
 65
   257
 75
     1
175
     1
 42
1.0
 92
        8
 66
   257
 43
1.0
 76
     1
 77
     6
 78
     2
 67
     7
 79
     3
170
     0
171
     0
290
     0
174
     0
 93
       13
 44
0.0
173
     0
291
     0
 45
0.0
1001
ACAD
1000
AcDbSavedByObjectVersion
1070
     0
  0
VISUALSTYLE
  5
9891
102
{ACAD_XDICTIONARY
360
98FE
102
}
102
{ACAD_REACTORS
330
987C
102
}
330
987C
100
AcDbVisualStyle
  2
Shaded
 70
    27
 71
     2
 72
     2
 73
     1
 90
        2
 40
-0.6
 41
30.0
 62
     5
 63
     7
 74
     0
 91
        4
 64
     7
 65
   257
 75
     1
175
     1
 42
1.0
 92
        8
 66
   257
 43
1.0
 76
     1
 77
     6
 78
     2
 67
     8
 79
     3
170
     0
171
     0
290
     0
174
     0
 93
        5
 44
0.0
173
     0
291
     0
 45
0.0
1001
ACAD
1000
AcDbSavedByObjectVersion
1070
     0
  0
VISUALSTYLE
  5
9890
102
{ACAD_XDICTIONARY
360
98FC
102
}
102
{ACAD_REACTORS
330
987C
102
}
330
987C
100
AcDbVisualStyle
  2
Shaded with edges
 70
    26
 71
     2
 72
     2
 73
     1
 90
        2
 40
-0.6
 41
30.0
 62
     5
 63
     7
 74
     1
 91
       10
 64
     7
 65
   257
 75
     2
175
     1
 42
1.0
 92
        8
 66
   257
 43
1.0
 76
     1
 77
     6
 78
     2
 67
     7
 79
     3
170
     0
171
     0
290
     0
174
     0
 93
        5
 44
0.0
173
     0
291
     0
 45
0.0
1001
ACAD
1000
AcDbSavedByObjectVersion
1070
     0
  0
VISUALSTYLE
  5
988D
102
{ACAD_XDICTIONARY
360
98F6
102
}
102
{ACAD_REACTORS
330
987C
102
}
330
987C
100
AcDbVisualStyle
  2
Shades of Gray
 70
    23
 71
     2
 72
     2
 73
     3
 90
        0
 40
-0.6
 41
-30.0
 62
     5
 63
     7
 74
     2
 91
        2
 64
     7
 65
     7
 75
     1
175
     1
 42
40.0
 92
        8
 66
     7
 43
1.0
 76
     1
 77
     6
 78
     2
 67
     7
 79
     3
170
     0
171
     0
290
     0
174
     0
 93
        1
 44
0.0
173
     0
291
     0
 45
0.0
1001
ACAD
1000
AcDbSavedByObjectVersion
1070
     0
  0
VISUALSTYLE
  5
988E
102
{ACAD_XDICTIONARY
360
98F8
102
}
102
{ACAD_REACTORS
330
987C
102
}
330
987C
100
AcDbVisualStyle
  2
Sketchy
 70
    24
 71
     1
 72
     2
 73
     2
 90
        0
 40
-0.6
 41
-30.0
 62
     5
 63
     7
 74
     2
 91
        2
 64
     7
 65
     7
 75
     1
175
     1
 42
40.0
 92
       11
 66
     7
 43
1.0
 76
     1
 77
     6
 78
     2
 67
     7
 79
     6
170
     0
171
     0
290
     0
174
     0
 93
        1
 44
0.0
173
     0
291
     0
 45
0.0
1001
ACAD
1000
AcDbSavedByObjectVersion
1070
     0
  0
VISUALSTYLE
  5
9889
102
{ACAD_XDICTIONARY
360
98EE
102
}
102
{ACAD_REACTORS
330
987C
102
}
330
987C
100
AcDbVisualStyle
  2
Thicken
 70
    13
 71
     2
 72
     2
 73
     0
 90
        0
 40
-0.6
 41
-30.0
 62
     5
 63
     7
 74
     1
 91
        4
 64
     7
 65
   257
 75
     1
175
     1
 42
1.0
 92
       12
 66
     7
 43
1.0
 76
     1
 77
     6
 78
     2
 67
     7
 79
     5
170
     0
171
     0
290
     0
174
     0
 93
        1
 44
0.0
173
     0
291
     1
 45
0.0
1001
ACAD
1000
AcDbSavedByObjectVersion
1070
     0
  0
VISUALSTYLE
  5
9883
102
{ACAD_XDICTIONARY
360
98E2
102
}
102
{ACAD_REACTORS
330
987C
102
}
330
987C
100
AcDbVisualStyle
  2
Wireframe
 70
     5
 71
     0
 72
     2
 73
     0
 90
        0
 40
-0.6
 41
-30.0
 62
     5
 63
     7
 74
     1
 91
        4
 64
     7
 65
   257
 75
     1
175
     1
 42
1.0
 92
        0
 66
   257
 43
1.0
 76
     1
 77
     6
 78
     2
 67
     7
 79
     3
170
     0
171
     0
290
     0
174
     0
 93
        1
 44
0.0
173
     0
291
     0
 45
0.0
1001
ACAD
1000
AcDbSavedByObjectVersion
1070
     0
  0
VISUALSTYLE
  5
988F
102
{ACAD_XDICTIONARY
360
98FA
102
}
102
{ACAD_REACTORS
330
987C
102
}
330
987C
100
AcDbVisualStyle
  2
X-Ray
 70
    25
 71
     2
 72
     2
 73
     1
 90
        1
 40
0.5
 41
-30.0
 62
     5
 63
     7
 74
     1
 91
        0
 64
     7
 65
   257
 75
     1
175
     1
 42
1.0
 92
        8
 66
     7
 43
1.0
 76
     1
 77
     6
 78
     2
 67
     7
 79
     3
170
     0
171
     0
290
     0
174
     0
 93
       13
 44
0.0
173
     0
291
     0
 45
0.0
1001
ACAD
1000
AcDbSavedByObjectVersion
1070
     0
  0
DICTIONARYVAR
  5
98C9
102
{ACAD_REACTORS
330
98C4
102
}
330
98C4
100
DictionaryVariables
280
     0
  1
1:1
  0
DICTIONARYVAR
  5
98C6
102
{ACAD_REACTORS
330
98C4
102
}
330
98C4
100
DictionaryVariables
280
     0
  1
STANDARD
  0
DICTIONARYVAR
  5
98C5
102
{ACAD_REACTORS
330
98C4
102
}
330
98C4
100
DictionaryVariables
280
     0
  1
STANDARD
  0
DICTIONARYVAR
  5
98C7
102
{ACAD_REACTORS
330
98C4
102
}
330
98C4
100
DictionaryVariables
280
     0
  1
Imperial24
  0
DICTIONARYVAR
  5
98C8
102
{ACAD_REACTORS
330
98C4
102
}
330
98C4
100
DictionaryVariables
280
     0
  1
Imperial24
  0
DICTIONARYVAR
  5
98CC
102
{ACAD_REACTORS
330
98C4
102
}
330
98C4
100
DictionaryVariables
280
     0
  1
1
  0
DICTIONARYVAR
  5
98CB
102
{ACAD_REACTORS
330
98C4
102
}
330
98C4
100
DictionaryVariables
280
     0
  1
0
  0
DICTIONARYVAR
  5
98CA
102
{ACAD_REACTORS
330
98C4
102
}
330
98C4
100
DictionaryVariables
280
     0
  1
127
  0
DICTIONARYVAR
  5
98CD
102
{ACAD_REACTORS
330
98C4
102
}
330
98C4
100
DictionaryVariables
280
     0
  1
2
  0
DICTIONARY
  5
990A
330
98AF
100
AcDbDictionary
280
     1
281
     1
  3
ACAD_XREC_ROUNDTRIP
360
990B
  0
DICTIONARY
  5
990C
330
98B0
100
AcDbDictionary
280
     1
281
     1
  3
ACAD_XREC_ROUNDTRIP
360
990D
  0
DICTIONARY
  5
990E
330
98B1
100
AcDbDictionary
280
     1
281
     1
  3
ACAD_XREC_ROUNDTRIP
360
990F
  0
DICTIONARY
  5
986D
330
986C
100
AcDbDictionary
280
     1
281
     1
  3
ACAD_XREC_ROUNDTRIP
360
98D4
  3
BUMPTILE
360
986F
  3
DIFFUSETILE
360
986E
  3
OPACITYTILE
360
9872
  3
REFLECTIONTILE
360
9871
  3
REFRACTIONTILE
360
9873
  3
SPECULARTILE
360
9870
  0
DICTIONARY
  5
9865
330
9864
100
AcDbDictionary
280
     1
281
     1
  3
ACAD_XREC_ROUNDTRIP
360
98D3
  3
BUMPTILE
360
9867
  3
DIFFUSETILE
360
9866
  3
OPACITYTILE
360
986A
  3
REFLECTIONTILE
360
9869
  3
REFRACTIONTILE
360
986B
  3
SPECULARTILE
360
9868
  0
DICTIONARY
  5
9875
330
9874
100
AcDbDictionary
280
     1
281
     1
  3
ACAD_XREC_ROUNDTRIP
360
98D5
  3
BUMPTILE
360
9877
  3
DIFFUSETILE
360
9876
  3
OPACITYTILE
360
987A
  3
REFLECTIONTILE
360
9879
  3
REFRACTIONTILE
360
987B
  3
SPECULARTILE
360
9878
  0
DICTIONARY
  5
9908
330
98AD
100
AcDbDictionary
280
     1
281
     1
  3
ACAD_XREC_ROUNDTRIP
360
9909
  0
DICTIONARY
  5
98CF
330
9897
100
AcDbDictionary
280
     1
281
     1
  3
ACAD_ROUNDTRIP_2008_TABLESTYLE_CELLSTYLEMAP
360
98D0
  3
ACAD_XREC_ROUNDTRIP
360
9906
  0
DICTIONARY
  5
98E0
330
9882
100
AcDbDictionary
280
     1
281
     1
  3
ACAD_XREC_ROUNDTRIP
360
98E1
  0
DICTIONARY
  5
98DE
330
9881
100
AcDbDictionary
280
     1
281
     1
  3
ACAD_XREC_ROUNDTRIP
360
98DF
  0
DICTIONARY
  5
98EC
330
9888
100
AcDbDictionary
280
     1
281
     1
  3
ACAD_XREC_ROUNDTRIP
360
98ED
  0
DICTIONARY
  5
98F4
330
988C
100
AcDbDictionary
280
     1
281
     1
  3
ACAD_XREC_ROUNDTRIP
360
98F5
  0
DICTIONARY
  5
98E6
330
9885
100
AcDbDictionary
280
     1
281
     1
  3
ACAD_XREC_ROUNDTRIP
360
98E7
  0
DICTIONARY
  5
98EA
330
9887
100
AcDbDictionary
280
     1
281
     1
  3
ACAD_XREC_ROUNDTRIP
360
98EB
  0
DICTIONARY
  5
9904
330
9894
100
AcDbDictionary
280
     1
281
     1
  3
ACAD_XREC_ROUNDTRIP
360
9905
  0
DICTIONARY
  5
98F2
330
988B
100
AcDbDictionary
280
     1
281
     1
  3
ACAD_XREC_ROUNDTRIP
360
98F3
  0
DICTIONARY
  5
98D6
330
987D
100
AcDbDictionary
280
     1
281
     1
  3
ACAD_XREC_ROUNDTRIP
360
98D7
  0
DICTIONARY
  5
98D8
330
987E
100
AcDbDictionary
280
     1
281
     1
  3
ACAD_XREC_ROUNDTRIP
360
98D9
  0
DICTIONARY
  5
98DA
330
987F
100
AcDbDictionary
280
     1
281
     1
  3
ACAD_XREC_ROUNDTRIP
360
98DB
  0
DICTIONARY
  5
98DC
330
9880
100
AcDbDictionary
280
     1
281
     1
  3
ACAD_XREC_ROUNDTRIP
360
98DD
  0
DICTIONARY
  5
98E4
330
9884
100
AcDbDictionary
280
     1
281
     1
  3
ACAD_XREC_ROUNDTRIP
360
98E5
  0
DICTIONARY
  5
9900
330
9892
100
AcDbDictionary
280
     1
281
     1
  3
ACAD_XREC_ROUNDTRIP
360
9901
  0
DICTIONARY
  5
98F0
330
988A
100
AcDbDictionary
280
     1
281
     1
  3
ACAD_XREC_ROUNDTRIP
360
98F1
  0
DICTIONARY
  5
9902
330
9893
100
AcDbDictionary
280
     1
281
     1
  3
ACAD_XREC_ROUNDTRIP
360
9903
  0
DICTIONARY
  5
98E8
330
9886
100
AcDbDictionary
280
     1
281
     1
  3
ACAD_XREC_ROUNDTRIP
360
98E9
  0
DICTIONARY
  5
98FE
330
9891
100
AcDbDictionary
280
     1
281
     1
  3
ACAD_XREC_ROUNDTRIP
360
98FF
  0
DICTIONARY
  5
98FC
330
9890
100
AcDbDictionary
280
     1
281
     1
  3
ACAD_XREC_ROUNDTRIP
360
98FD
  0
DICTIONARY
  5
98F6
330
988D
100
AcDbDictionary
280
     1
281
     1
  3
ACAD_XREC_ROUNDTRIP
360
98F7
  0
DICTIONARY
  5
98F8
330
988E
100
AcDbDictionary
280
     1
281
     1
  3
ACAD_XREC_ROUNDTRIP
360
98F9
  0
DICTIONARY
  5
98EE
330
9889
100
AcDbDictionary
280
     1
281
     1
  3
ACAD_XREC_ROUNDTRIP
360
98EF
  0
DICTIONARY
  5
98E2
330
9883
100
AcDbDictionary
280
     1
281
     1
  3
ACAD_XREC_ROUNDTRIP
360
98E3
  0
DICTIONARY
  5
98FA
330
988F
100
AcDbDictionary
280
     1
281
     1
  3
ACAD_XREC_ROUNDTRIP
360
98FB
  0
XRECORD
  5
990B
102
{ACAD_REACTORS
330
990A
102
}
330
990A
100
AcDbXrecord
280
     1
102
DISPLAYNAME
  1
Imperial24
102
FLAGS
 90
        0
  0
XRECORD
  5
990D
102
{ACAD_REACTORS
330
990C
102
}
330
990C
100
AcDbXrecord
280
     1
102
SHADEPLOT
 70
     0
102
SHADEPLOTRESLEVEL
 70
     2
102
SHADEPLOTCUSTOMDPI
 70
   300
  0
XRECORD
  5
990F
102
{ACAD_REACTORS
330
990E
102
}
330
990E
100
AcDbXrecord
280
     1
102
SHADEPLOT
 70
     0
102
SHADEPLOTRESLEVEL
 70
     2
102
SHADEPLOTCUSTOMDPI
 70
   300
  0
XRECORD
  5
98D4
102
{ACAD_REACTORS
330
986D
102
}
330
986D
100
AcDbXrecord
280
     1
102
MATERIAL
148
0.0
149
0.0
149
0.0
 93
        0
 94
      127
282
     0
 72
     0
 77
     0
171
     0
175
     0
179
     0
273
     0
  0
XRECORD
  5
986F
102
{ACAD_REACTORS
330
986D
102
}
330
986D
100
AcDbXrecord
280
     1
270
     1
271
     1
  0
XRECORD
  5
986E
102
{ACAD_REACTORS
330
986D
102
}
330
986D
100
AcDbXrecord
280
     1
270
     1
271
     1
  0
XRECORD
  5
9872
102
{ACAD_REACTORS
330
986D
102
}
330
986D
100
AcDbXrecord
280
     1
270
     1
271
     1
  0
XRECORD
  5
9871
102
{ACAD_REACTORS
330
986D
102
}
330
986D
100
AcDbXrecord
280
     1
270
     1
271
     1
  0
XRECORD
  5
9873
102
{ACAD_REACTORS
330
986D
102
}
330
986D
100
AcDbXrecord
280
     1
270
     1
271
     1
  0
XRECORD
  5
9870
102
{ACAD_REACTORS
330
986D
102
}
330
986D
100
AcDbXrecord
280
     1
270
     1
271
     1
  0
XRECORD
  5
98D3
102
{ACAD_REACTORS
330
9865
102
}
330
9865
100
AcDbXrecord
280
     1
102
MATERIAL
148
0.0
149
0.0
149
0.0
 93
        0
 94
      127
282
     0
 72
     0
 77
     0
171
     0
175
     0
179
     0
273
     0
  0
XRECORD
  5
9867
102
{ACAD_REACTORS
330
9865
102
}
330
9865
100
AcDbXrecord
280
     1
270
     1
271
     1
  0
XRECORD
  5
9866
102
{ACAD_REACTORS
330
9865
102
}
330
9865
100
AcDbXrecord
280
     1
270
     1
271
     1
  0
XRECORD
  5
986A
102
{ACAD_REACTORS
330
9865
102
}
330
9865
100
AcDbXrecord
280
     1
270
     1
271
     1
  0
XRECORD
  5
9869
102
{ACAD_REACTORS
330
9865
102
}
330
9865
100
AcDbXrecord
280
     1
270
     1
271
     1
  0
XRECORD
  5
986B
102
{ACAD_REACTORS
330
9865
102
}
330
9865
100
AcDbXrecord
280
     1
270
     1
271
     1
  0
XRECORD
  5
9868
102
{ACAD_REACTORS
330
9865
102
}
330
9865
100
AcDbXrecord
280
     1
270
     1
271
     1
  0
XRECORD
  5
98D5
102
{ACAD_REACTORS
330
9875
102
}
330
9875
100
AcDbXrecord
280
     1
102
MATERIAL
148
0.0
149
0.0
149
0.0
 93
        0
 94
      127
282
     0
 72
     0
 77
     0
171
     0
175
     0
179
     0
273
     0
  0
XRECORD
  5
9877
102
{ACAD_REACTORS
330
9875
102
}
330
9875
100
AcDbXrecord
280
     1
270
     1
271
     1
  0
XRECORD
  5
9876
102
{ACAD_REACTORS
330
9875
102
}
330
9875
100
AcDbXrecord
280
     1
270
     1
271
     1
  0
XRECORD
  5
987A
102
{ACAD_REACTORS
330
9875
102
}
330
9875
100
AcDbXrecord
280
     1
270
     1
271
     1
  0
XRECORD
  5
9879
102
{ACAD_REACTORS
330
9875
102
}
330
9875
100
AcDbXrecord
280
     1
270
     1
271
     1
  0
XRECORD
  5
987B
102
{ACAD_REACTORS
330
9875
102
}
330
9875
100
AcDbXrecord
280
     1
270
     1
271
     1
  0
XRECORD
  5
9878
102
{ACAD_REACTORS
330
9875
102
}
330
9875
100
AcDbXrecord
280
     1
270
     1
271
     1
  0
XRECORD
  5
9909
102
{ACAD_REACTORS
330
9908
102
}
330
9908
100
AcDbXrecord
280
     1
102
DISPLAYNAME
  1
Imperial24
102
FLAGS
 90
        0
  0
CELLSTYLEMAP
  5
98D0
102
{ACAD_REACTORS
330
98CF
102
}
330
98CF
100
AcDbCellStyleMap
 90
        3
300
CELLSTYLE
  1
TABLEFORMAT_BEGIN
 90
        5
170
     1
 91
        0
 92
    32768
 62
   257
 93
        1
300
CONTENTFORMAT
  1
CONTENTFORMAT_BEGIN
 90
        0
 91
        0
 92
      512
 93
        0
300

 40
0.0
140
1.0
 94
        5
 62
     0
340
9646
144
0.25
309
CONTENTFORMAT_END
171
     0
 94
        0
309
TABLEFORMAT_END
  1
CELLSTYLE_BEGIN
 90
        1
 91
        1
300
_TITLE
309
CELLSTYLE_END
300
CELLSTYLE
  1
TABLEFORMAT_BEGIN
 90
        5
170
     1
 91
        0
 92
        0
 62
   257
 93
        1
300
CONTENTFORMAT
  1
CONTENTFORMAT_BEGIN
 90
        0
 91
        0
 92
      512
 93
        0
300

 40
0.0
140
1.0
 94
        5
 62
     0
340
9646
144
0.18
309
CONTENTFORMAT_END
171
     0
 94
        0
309
TABLEFORMAT_END
  1
CELLSTYLE_BEGIN
 90
        2
 91
        1
300
_HEADER
309
CELLSTYLE_END
300
CELLSTYLE
  1
TABLEFORMAT_BEGIN
 90
        5
170
     1
 91
        0
 92
        0
 62
   257
 93
        1
300
CONTENTFORMAT
  1
CONTENTFORMAT_BEGIN
 90
        0
 91
        0
 92
      512
 93
        0
300

 40
0.0
140
1.0
 94
        2
 62
     0
340
9646
144
0.18
309
CONTENTFORMAT_END
171
     0
 94
        0
309
TABLEFORMAT_END
  1
CELLSTYLE_BEGIN
 90
        3
 91
        2
300
_DATA
309
CELLSTYLE_END
  0
XRECORD
  5
9906
102
{ACAD_REACTORS
330
98CF
102
}
330
98CF
100
AcDbXrecord
280
     1
102
ACAD_ROUNDTRIP_PRE2007_TABLESTYLE
 90
      512
 91
        0
  1

 92
      512
 93
        0
  2

 94
      512
 95
        0
  3

  0
XRECORD
  5
98E1
102
{ACAD_REACTORS
330
98E0
102
}
330
98E0
100
AcDbXrecord
280
     1
102
RTVSPost2010Prop28
280
     1
102
RTVSPost2010PropOp28
 70
     1
102
RTVSPost2010Prop29
280
     1
102
RTVSPost2010PropOp29
 70
     1
102
RTVSPost2010Prop30
280
     0
102
RTVSPost2010PropOp30
 70
     1
102
RTVSPost2010Prop31
280
     0
102
RTVSPost2010PropOp31
 70
     1
102
RTVSPost2010Prop32
280
     0
102
RTVSPost2010PropOp32
 70
     1
102
RTVSPost2010Prop33
280
     0
102
RTVSPost2010PropOp33
 70
     1
102
RTVSPost2010Prop34
280
     0
102
RTVSPost2010PropOp34
 70
     1
102
RTVSPost2010Prop35
280
     0
102
RTVSPost2010PropOp35
 70
     1
102
RTVSPost2010Prop36
280
     0
102
RTVSPost2010PropOp36
 70
     1
102
RTVSPost2010Prop37
 90
       50
102
RTVSPost2010PropOp37
 70
     1
102
RTVSPost2010Prop38
140
0.0
102
RTVSPost2010PropOp38
 70
     1
102
RTVSPost2010Prop39
140
1.0
102
RTVSPost2010PropOp39
 70
     1
102
RTVSPost2010Prop40
 90
        0
102
RTVSPost2010PropOp40
 70
     1
102
RTVSPost2010Prop41ColorIndex
 90
       18
102
RTVSPost2010Prop41ColorRGB
 90
        0
102
RTVSPost2010PropOp41
 70
     1
102
RTVSPost2010Prop42
 90
       50
102
RTVSPost2010PropOp42
 70
     1
102
RTVSPost2010Prop43
 90
        3
102
RTVSPost2010PropOp43
 70
     1
102
RTVSPost2010Prop44ColorIndex
 90
        5
102
RTVSPost2010Prop44ColorRGB
 90
      255
102
RTVSPost2010PropOp44
 70
     1
102
RTVSPost2010Prop45
280
     0
102
RTVSPost2010PropOp45
 70
     1
102
RTVSPost2010Prop46
 90
       50
102
RTVSPost2010PropOp46
 70
     1
102
RTVSPost2010Prop47
 90
       50
102
RTVSPost2010PropOp47
 70
     1
102
RTVSPost2010Prop48
 90
       50
102
RTVSPost2010PropOp48
 70
     1
102
RTVSPost2010Prop49
280
     0
102
RTVSPost2010PropOp49
 70
     1
102
RTVSPost2010Prop50
 90
       50
102
RTVSPost2010PropOp50
 70
     1
102
RTVSPost2010Prop51ColorIndex
 90
      256
102
RTVSPost2010Prop51ColorRGB
 90
-16777216
102
RTVSPost2010PropOp51
 70
     0
102
RTVSPost2010Prop52
140
1.0
102
RTVSPost2010PropOp52
 70
     0
102
RTVSPost2010Prop53
 90
        2
102
RTVSPost2010PropOp53
 70
     1
102
RTVSPost2010Prop54
  1
strokes_ogs.tif
102
RTVSPost2010PropOp54
 70
     1
102
RTVSPost2010Prop55
280
     0
102
RTVSPost2010PropOp55
 70
     1
102
RTVSPost2010Prop56
140
1.0
102
RTVSPost2010PropOp56
 70
     1
102
RTVSPost2010Prop57
140
1.0
102
RTVSPost2010PropOp57
 70
     1
102
RTVSPropertyOp0
 70
     1
102
RTVSPropertyOp1
 70
     1
102
RTVSPropertyOp2
 70
     1
102
RTVSPropertyOp3
 70
     1
102
RTVSPropertyOp4
 70
     1
102
RTVSPropertyOp5
 70
     1
102
RTVSPropertyOp6
 70
     1
102
RTVSPropertyOp7
 70
     1
102
RTVSPropertyOp8
 70
     1
102
RTVSPropertyOp9
 70
     1
102
RTVSPropertyOp10
 70
     1
102
RTVSPropertyOp11
 70
     1
102
RTVSPropertyOp12
 70
     1
102
RTVSPropertyOp13
 70
     1
102
RTVSPropertyOp14
 70
     1
102
RTVSPropertyOp15
 70
     1
102
RTVSPropertyOp16
 70
     1
102
RTVSPropertyOp17
 70
     1
102
RTVSPropertyOp18
 70
     1
102
RTVSPropertyOp19
 70
     1
102
RTVSPropertyOp20
 70
     1
102
RTVSPropertyOp21
 70
     1
102
RTVSPropertyOp22
 70
     1
102
RTVSPropertyOp23
 70
     1
102
RTVSPropertyOp24
 70
     1
102
RTVSPropertyOp25
 70
     1
102
RTVSPropertyOp26
 70
     1
102
RTVSPropertyOp27
 70
     1
102
RTVSPropertyOp28
 70
     1
102
RTVSPropertyOp29
 70
     1
102
RTVSPropertyOp30
 70
     1
102
RTVSPropertyOp31
 70
     1
102
RTVSPropertyOp32
 70
     1
102
RTVSPropertyOp33
 70
     1
102
RTVSPropertyOp34
 70
     1
102
RTVSPropertyOp35
 70
     1
102
RTVSPropertyOp36
 70
     1
102
RTVSPropertyOp37
 70
     1
102
RTVSPropertyOp38
 70
     1
102
RTVSPropertyOp39
 70
     1
102
RTVSPropertyOp40
 70
     1
102
RTVSPropertyOp41
 70
     1
102
RTVSPropertyOp42
 70
     1
102
RTVSPropertyOp43
 70
     1
102
RTVSPropertyOp44
 70
     1
102
RTVSPropertyOp45
 70
     1
102
RTVSPropertyOp46
 70
     1
102
RTVSPropertyOp47
 70
     1
102
RTVSPropertyOp48
 70
     1
102
RTVSPropertyOp49
 70
     1
102
RTVSPropertyOp50
 70
     1
102
RTVSPropertyOp51
 70
     0
102
RTVSPropertyOp52
 70
     0
102
RTVSPropertyOp53
 70
     1
102
RTVSPropertyOp54
 70
     1
102
RTVSPropertyOp55
 70
     1
102
RTVSPropertyOp56
 70
     1
102
RTVSPropertyOp57
 70
     1
102
RTVSPropertyOp58
 70
     1
102
RTVSPropertyOp59
 70
     1
102
RTVSPropertyOp60
 70
     1
102
RTVSPropertyOp61
 70
     1
102
RTVSPropertyOp62
 70
     1
  0
XRECORD
  5
98DF
102
{ACAD_REACTORS
330
98DE
102
}
330
98DE
100
AcDbXrecord
280
     1
102
RTVSPost2010Prop28
280
     0
102
RTVSPost2010PropOp28
 70
     1
102
RTVSPost2010Prop29
280
     1
102
RTVSPost2010PropOp29
 70
     1
102
RTVSPost2010Prop30
280
     1
102
RTVSPost2010PropOp30
 70
     1
102
RTVSPost2010Prop31
280
     0
102
RTVSPost2010PropOp31
 70
     1
102
RTVSPost2010Prop32
280
     0
102
RTVSPost2010PropOp32
 70
     1
102
RTVSPost2010Prop33
280
     0
102
RTVSPost2010PropOp33
 70
     1
102
RTVSPost2010Prop34
280
     0
102
RTVSPost2010PropOp34
 70
     1
102
RTVSPost2010Prop35
280
     0
102
RTVSPost2010PropOp35
 70
     1
102
RTVSPost2010Prop36
280
     0
102
RTVSPost2010PropOp36
 70
     1
102
RTVSPost2010Prop37
 90
       50
102
RTVSPost2010PropOp37
 70
     1
102
RTVSPost2010Prop38
140
0.0
102
RTVSPost2010PropOp38
 70
     1
102
RTVSPost2010Prop39
140
1.0
102
RTVSPost2010PropOp39
 70
     1
102
RTVSPost2010Prop40
 90
        0
102
RTVSPost2010PropOp40
 70
     1
102
RTVSPost2010Prop41ColorIndex
 90
       18
102
RTVSPost2010Prop41ColorRGB
 90
        0
102
RTVSPost2010PropOp41
 70
     1
102
RTVSPost2010Prop42
 90
       50
102
RTVSPost2010PropOp42
 70
     1
102
RTVSPost2010Prop43
 90
        3
102
RTVSPost2010PropOp43
 70
     1
102
RTVSPost2010Prop44ColorIndex
 90
        5
102
RTVSPost2010Prop44ColorRGB
 90
      255
102
RTVSPost2010PropOp44
 70
     1
102
RTVSPost2010Prop45
280
     0
102
RTVSPost2010PropOp45
 70
     1
102
RTVSPost2010Prop46
 90
       50
102
RTVSPost2010PropOp46
 70
     1
102
RTVSPost2010Prop47
 90
       50
102
RTVSPost2010PropOp47
 70
     1
102
RTVSPost2010Prop48
 90
       50
102
RTVSPost2010PropOp48
 70
     1
102
RTVSPost2010Prop49
280
     0
102
RTVSPost2010PropOp49
 70
     1
102
RTVSPost2010Prop50
 90
       50
102
RTVSPost2010PropOp50
 70
     1
102
RTVSPost2010Prop51ColorIndex
 90
      256
102
RTVSPost2010Prop51ColorRGB
 90
-16777216
102
RTVSPost2010PropOp51
 70
     0
102
RTVSPost2010Prop52
140
1.0
102
RTVSPost2010PropOp52
 70
     0
102
RTVSPost2010Prop53
 90
        2
102
RTVSPost2010PropOp53
 70
     1
102
RTVSPost2010Prop54
  1
strokes_ogs.tif
102
RTVSPost2010PropOp54
 70
     1
102
RTVSPost2010Prop55
280
     0
102
RTVSPost2010PropOp55
 70
     1
102
RTVSPost2010Prop56
140
1.0
102
RTVSPost2010PropOp56
 70
     1
102
RTVSPost2010Prop57
140
1.0
102
RTVSPost2010PropOp57
 70
     1
102
RTVSPropertyOp0
 70
     1
102
RTVSPropertyOp1
 70
     1
102
RTVSPropertyOp2
 70
     1
102
RTVSPropertyOp3
 70
     1
102
RTVSPropertyOp4
 70
     1
102
RTVSPropertyOp5
 70
     1
102
RTVSPropertyOp6
 70
     1
102
RTVSPropertyOp7
 70
     1
102
RTVSPropertyOp8
 70
     1
102
RTVSPropertyOp9
 70
     1
102
RTVSPropertyOp10
 70
     1
102
RTVSPropertyOp11
 70
     1
102
RTVSPropertyOp12
 70
     1
102
RTVSPropertyOp13
 70
     1
102
RTVSPropertyOp14
 70
     1
102
RTVSPropertyOp15
 70
     1
102
RTVSPropertyOp16
 70
     1
102
RTVSPropertyOp17
 70
     1
102
RTVSPropertyOp18
 70
     1
102
RTVSPropertyOp19
 70
     1
102
RTVSPropertyOp20
 70
     1
102
RTVSPropertyOp21
 70
     1
102
RTVSPropertyOp22
 70
     1
102
RTVSPropertyOp23
 70
     1
102
RTVSPropertyOp24
 70
     1
102
RTVSPropertyOp25
 70
     1
102
RTVSPropertyOp26
 70
     1
102
RTVSPropertyOp27
 70
     1
102
RTVSPropertyOp28
 70
     1
102
RTVSPropertyOp29
 70
     1
102
RTVSPropertyOp30
 70
     1
102
RTVSPropertyOp31
 70
     1
102
RTVSPropertyOp32
 70
     1
102
RTVSPropertyOp33
 70
     1
102
RTVSPropertyOp34
 70
     1
102
RTVSPropertyOp35
 70
     1
102
RTVSPropertyOp36
 70
     1
102
RTVSPropertyOp37
 70
     1
102
RTVSPropertyOp38
 70
     1
102
RTVSPropertyOp39
 70
     1
102
RTVSPropertyOp40
 70
     1
102
RTVSPropertyOp41
 70
     1
102
RTVSPropertyOp42
 70
     1
102
RTVSPropertyOp43
 70
     1
102
RTVSPropertyOp44
 70
     1
102
RTVSPropertyOp45
 70
     1
102
RTVSPropertyOp46
 70
     1
102
RTVSPropertyOp47
 70
     1
102
RTVSPropertyOp48
 70
     1
102
RTVSPropertyOp49
 70
     1
102
RTVSPropertyOp50
 70
     1
102
RTVSPropertyOp51
 70
     0
102
RTVSPropertyOp52
 70
     0
102
RTVSPropertyOp53
 70
     1
102
RTVSPropertyOp54
 70
     1
102
RTVSPropertyOp55
 70
     1
102
RTVSPropertyOp56
 70
     1
102
RTVSPropertyOp57
 70
     1
102
RTVSPropertyOp58
 70
     1
102
RTVSPropertyOp59
 70
     1
102
RTVSPropertyOp60
 70
     1
102
RTVSPropertyOp61
 70
     1
102
RTVSPropertyOp62
 70
     1
  0
XRECORD
  5
98ED
102
{ACAD_REACTORS
330
98EC
102
}
330
98EC
100
AcDbXrecord
280
     1
102
RTVSPost2010Prop28
280
     0
102
RTVSPost2010PropOp28
 70
     1
102
RTVSPost2010Prop29
280
     1
102
RTVSPost2010PropOp29
 70
     1
102
RTVSPost2010Prop30
280
     1
102
RTVSPost2010PropOp30
 70
     1
102
RTVSPost2010Prop31
280
     0
102
RTVSPost2010PropOp31
 70
     1
102
RTVSPost2010Prop32
280
     0
102
RTVSPost2010PropOp32
 70
     1
102
RTVSPost2010Prop33
280
     0
102
RTVSPost2010PropOp33
 70
     1
102
RTVSPost2010Prop34
280
     0
102
RTVSPost2010PropOp34
 70
     1
102
RTVSPost2010Prop35
280
     0
102
RTVSPost2010PropOp35
 70
     1
102
RTVSPost2010Prop36
280
     0
102
RTVSPost2010PropOp36
 70
     1
102
RTVSPost2010Prop37
 90
       50
102
RTVSPost2010PropOp37
 70
     1
102
RTVSPost2010Prop38
140
0.0
102
RTVSPost2010PropOp38
 70
     1
102
RTVSPost2010Prop39
140
1.0
102
RTVSPost2010PropOp39
 70
     1
102
RTVSPost2010Prop40
 90
        0
102
RTVSPost2010PropOp40
 70
     1
102
RTVSPost2010Prop41ColorIndex
 90
       18
102
RTVSPost2010Prop41ColorRGB
 90
        0
102
RTVSPost2010PropOp41
 70
     1
102
RTVSPost2010Prop42
 90
       50
102
RTVSPost2010PropOp42
 70
     1
102
RTVSPost2010Prop43
 90
        3
102
RTVSPost2010PropOp43
 70
     1
102
RTVSPost2010Prop44ColorIndex
 90
        5
102
RTVSPost2010Prop44ColorRGB
 90
      255
102
RTVSPost2010PropOp44
 70
     1
102
RTVSPost2010Prop45
280
     0
102
RTVSPost2010PropOp45
 70
     1
102
RTVSPost2010Prop46
 90
       50
102
RTVSPost2010PropOp46
 70
     1
102
RTVSPost2010Prop47
 90
       50
102
RTVSPost2010PropOp47
 70
     1
102
RTVSPost2010Prop48
 90
       50
102
RTVSPost2010PropOp48
 70
     1
102
RTVSPost2010Prop49
280
     0
102
RTVSPost2010PropOp49
 70
     1
102
RTVSPost2010Prop50
 90
       50
102
RTVSPost2010PropOp50
 70
     1
102
RTVSPost2010Prop51ColorIndex
 90
      256
102
RTVSPost2010Prop51ColorRGB
 90
-16777216
102
RTVSPost2010PropOp51
 70
     0
102
RTVSPost2010Prop52
140
1.0
102
RTVSPost2010PropOp52
 70
     0
102
RTVSPost2010Prop53
 90
        2
102
RTVSPost2010PropOp53
 70
     1
102
RTVSPost2010Prop54
  1
strokes_ogs.tif
102
RTVSPost2010PropOp54
 70
     1
102
RTVSPost2010Prop55
280
     0
102
RTVSPost2010PropOp55
 70
     1
102
RTVSPost2010Prop56
140
1.0
102
RTVSPost2010PropOp56
 70
     1
102
RTVSPost2010Prop57
140
1.0
102
RTVSPost2010PropOp57
 70
     1
102
RTVSPropertyOp0
 70
     1
102
RTVSPropertyOp1
 70
     1
102
RTVSPropertyOp2
 70
     1
102
RTVSPropertyOp3
 70
     1
102
RTVSPropertyOp4
 70
     1
102
RTVSPropertyOp5
 70
     1
102
RTVSPropertyOp6
 70
     1
102
RTVSPropertyOp7
 70
     1
102
RTVSPropertyOp8
 70
     1
102
RTVSPropertyOp9
 70
     1
102
RTVSPropertyOp10
 70
     1
102
RTVSPropertyOp11
 70
     1
102
RTVSPropertyOp12
 70
     1
102
RTVSPropertyOp13
 70
     1
102
RTVSPropertyOp14
 70
     1
102
RTVSPropertyOp15
 70
     1
102
RTVSPropertyOp16
 70
     1
102
RTVSPropertyOp17
 70
     1
102
RTVSPropertyOp18
 70
     1
102
RTVSPropertyOp19
 70
     1
102
RTVSPropertyOp20
 70
     1
102
RTVSPropertyOp21
 70
     1
102
RTVSPropertyOp22
 70
     1
102
RTVSPropertyOp23
 70
     1
102
RTVSPropertyOp24
 70
     1
102
RTVSPropertyOp25
 70
     1
102
RTVSPropertyOp26
 70
     1
102
RTVSPropertyOp27
 70
     1
102
RTVSPropertyOp28
 70
     1
102
RTVSPropertyOp29
 70
     1
102
RTVSPropertyOp30
 70
     1
102
RTVSPropertyOp31
 70
     1
102
RTVSPropertyOp32
 70
     1
102
RTVSPropertyOp33
 70
     1
102
RTVSPropertyOp34
 70
     1
102
RTVSPropertyOp35
 70
     1
102
RTVSPropertyOp36
 70
     1
102
RTVSPropertyOp37
 70
     1
102
RTVSPropertyOp38
 70
     1
102
RTVSPropertyOp39
 70
     1
102
RTVSPropertyOp40
 70
     1
102
RTVSPropertyOp41
 70
     1
102
RTVSPropertyOp42
 70
     1
102
RTVSPropertyOp43
 70
     1
102
RTVSPropertyOp44
 70
     1
102
RTVSPropertyOp45
 70
     1
102
RTVSPropertyOp46
 70
     1
102
RTVSPropertyOp47
 70
     1
102
RTVSPropertyOp48
 70
     1
102
RTVSPropertyOp49
 70
     1
102
RTVSPropertyOp50
 70
     1
102
RTVSPropertyOp51
 70
     0
102
RTVSPropertyOp52
 70
     0
102
RTVSPropertyOp53
 70
     1
102
RTVSPropertyOp54
 70
     1
102
RTVSPropertyOp55
 70
     1
102
RTVSPropertyOp56
 70
     1
102
RTVSPropertyOp57
 70
     1
102
RTVSPropertyOp58
 70
     1
102
RTVSPropertyOp59
 70
     1
102
RTVSPropertyOp60
 70
     1
102
RTVSPropertyOp61
 70
     1
102
RTVSPropertyOp62
 70
     1
  0
XRECORD
  5
98F5
102
{ACAD_REACTORS
330
98F4
102
}
330
98F4
100
AcDbXrecord
280
     1
102
RTVSPost2010Prop28
280
     0
102
RTVSPost2010PropOp28
 70
     1
102
RTVSPost2010Prop29
280
     1
102
RTVSPost2010PropOp29
 70
     1
102
RTVSPost2010Prop30
280
     1
102
RTVSPost2010PropOp30
 70
     1
102
RTVSPost2010Prop31
280
     0
102
RTVSPost2010PropOp31
 70
     1
102
RTVSPost2010Prop32
280
     0
102
RTVSPost2010PropOp32
 70
     1
102
RTVSPost2010Prop33
280
     0
102
RTVSPost2010PropOp33
 70
     1
102
RTVSPost2010Prop34
280
     0
102
RTVSPost2010PropOp34
 70
     1
102
RTVSPost2010Prop35
280
     0
102
RTVSPost2010PropOp35
 70
     1
102
RTVSPost2010Prop36
280
     0
102
RTVSPost2010PropOp36
 70
     1
102
RTVSPost2010Prop37
 90
       50
102
RTVSPost2010PropOp37
 70
     1
102
RTVSPost2010Prop38
140
0.0
102
RTVSPost2010PropOp38
 70
     1
102
RTVSPost2010Prop39
140
1.0
102
RTVSPost2010PropOp39
 70
     1
102
RTVSPost2010Prop40
 90
        0
102
RTVSPost2010PropOp40
 70
     1
102
RTVSPost2010Prop41ColorIndex
 90
       18
102
RTVSPost2010Prop41ColorRGB
 90
        0
102
RTVSPost2010PropOp41
 70
     1
102
RTVSPost2010Prop42
 90
       50
102
RTVSPost2010PropOp42
 70
     1
102
RTVSPost2010Prop43
 90
        3
102
RTVSPost2010PropOp43
 70
     1
102
RTVSPost2010Prop44ColorIndex
 90
        5
102
RTVSPost2010Prop44ColorRGB
 90
      255
102
RTVSPost2010PropOp44
 70
     1
102
RTVSPost2010Prop45
280
     0
102
RTVSPost2010PropOp45
 70
     1
102
RTVSPost2010Prop46
 90
       50
102
RTVSPost2010PropOp46
 70
     1
102
RTVSPost2010Prop47
 90
       50
102
RTVSPost2010PropOp47
 70
     1
102
RTVSPost2010Prop48
 90
       50
102
RTVSPost2010PropOp48
 70
     1
102
RTVSPost2010Prop49
280
     0
102
RTVSPost2010PropOp49
 70
     1
102
RTVSPost2010Prop50
 90
       50
102
RTVSPost2010PropOp50
 70
     1
102
RTVSPost2010Prop51ColorIndex
 90
      256
102
RTVSPost2010Prop51ColorRGB
 90
-16777216
102
RTVSPost2010PropOp51
 70
     0
102
RTVSPost2010Prop52
140
1.0
102
RTVSPost2010PropOp52
 70
     0
102
RTVSPost2010Prop53
 90
        2
102
RTVSPost2010PropOp53
 70
     1
102
RTVSPost2010Prop54
  1
strokes_ogs.tif
102
RTVSPost2010PropOp54
 70
     1
102
RTVSPost2010Prop55
280
     0
102
RTVSPost2010PropOp55
 70
     1
102
RTVSPost2010Prop56
140
1.0
102
RTVSPost2010PropOp56
 70
     1
102
RTVSPost2010Prop57
140
1.0
102
RTVSPost2010PropOp57
 70
     1
102
RTVSPropertyOp0
 70
     1
102
RTVSPropertyOp1
 70
     1
102
RTVSPropertyOp2
 70
     1
102
RTVSPropertyOp3
 70
     1
102
RTVSPropertyOp4
 70
     1
102
RTVSPropertyOp5
 70
     1
102
RTVSPropertyOp6
 70
     1
102
RTVSPropertyOp7
 70
     1
102
RTVSPropertyOp8
 70
     1
102
RTVSPropertyOp9
 70
     1
102
RTVSPropertyOp10
 70
     1
102
RTVSPropertyOp11
 70
     1
102
RTVSPropertyOp12
 70
     1
102
RTVSPropertyOp13
 70
     1
102
RTVSPropertyOp14
 70
     1
102
RTVSPropertyOp15
 70
     1
102
RTVSPropertyOp16
 70
     1
102
RTVSPropertyOp17
 70
     1
102
RTVSPropertyOp18
 70
     1
102
RTVSPropertyOp19
 70
     1
102
RTVSPropertyOp20
 70
     1
102
RTVSPropertyOp21
 70
     1
102
RTVSPropertyOp22
 70
     1
102
RTVSPropertyOp23
 70
     1
102
RTVSPropertyOp24
 70
     1
102
RTVSPropertyOp25
 70
     1
102
RTVSPropertyOp26
 70
     1
102
RTVSPropertyOp27
 70
     1
102
RTVSPropertyOp28
 70
     1
102
RTVSPropertyOp29
 70
     1
102
RTVSPropertyOp30
 70
     1
102
RTVSPropertyOp31
 70
     1
102
RTVSPropertyOp32
 70
     1
102
RTVSPropertyOp33
 70
     1
102
RTVSPropertyOp34
 70
     1
102
RTVSPropertyOp35
 70
     1
102
RTVSPropertyOp36
 70
     1
102
RTVSPropertyOp37
 70
     1
102
RTVSPropertyOp38
 70
     1
102
RTVSPropertyOp39
 70
     1
102
RTVSPropertyOp40
 70
     1
102
RTVSPropertyOp41
 70
     1
102
RTVSPropertyOp42
 70
     1
102
RTVSPropertyOp43
 70
     1
102
RTVSPropertyOp44
 70
     1
102
RTVSPropertyOp45
 70
     1
102
RTVSPropertyOp46
 70
     1
102
RTVSPropertyOp47
 70
     1
102
RTVSPropertyOp48
 70
     1
102
RTVSPropertyOp49
 70
     1
102
RTVSPropertyOp50
 70
     1
102
RTVSPropertyOp51
 70
     0
102
RTVSPropertyOp52
 70
     0
102
RTVSPropertyOp53
 70
     1
102
RTVSPropertyOp54
 70
     1
102
RTVSPropertyOp55
 70
     1
102
RTVSPropertyOp56
 70
     1
102
RTVSPropertyOp57
 70
     1
102
RTVSPropertyOp58
 70
     1
102
RTVSPropertyOp59
 70
     1
102
RTVSPropertyOp60
 70
     1
102
RTVSPropertyOp61
 70
     1
102
RTVSPropertyOp62
 70
     1
  0
XRECORD
  5
98E7
102
{ACAD_REACTORS
330
98E6
102
}
330
98E6
100
AcDbXrecord
280
     1
102
RTVSPost2010Prop28
280
     0
102
RTVSPost2010PropOp28
 70
     1
102
RTVSPost2010Prop29
280
     1
102
RTVSPost2010PropOp29
 70
     1
102
RTVSPost2010Prop30
280
     1
102
RTVSPost2010PropOp30
 70
     1
102
RTVSPost2010Prop31
280
     0
102
RTVSPost2010PropOp31
 70
     1
102
RTVSPost2010Prop32
280
     0
102
RTVSPost2010PropOp32
 70
     1
102
RTVSPost2010Prop33
280
     0
102
RTVSPost2010PropOp33
 70
     1
102
RTVSPost2010Prop34
280
     0
102
RTVSPost2010PropOp34
 70
     1
102
RTVSPost2010Prop35
280
     0
102
RTVSPost2010PropOp35
 70
     1
102
RTVSPost2010Prop36
280
     0
102
RTVSPost2010PropOp36
 70
     1
102
RTVSPost2010Prop37
 90
       50
102
RTVSPost2010PropOp37
 70
     1
102
RTVSPost2010Prop38
140
0.0
102
RTVSPost2010PropOp38
 70
     1
102
RTVSPost2010Prop39
140
1.0
102
RTVSPost2010PropOp39
 70
     1
102
RTVSPost2010Prop40
 90
        0
102
RTVSPost2010PropOp40
 70
     1
102
RTVSPost2010Prop41ColorIndex
 90
       18
102
RTVSPost2010Prop41ColorRGB
 90
        0
102
RTVSPost2010PropOp41
 70
     1
102
RTVSPost2010Prop42
 90
       50
102
RTVSPost2010PropOp42
 70
     1
102
RTVSPost2010Prop43
 90
        3
102
RTVSPost2010PropOp43
 70
     1
102
RTVSPost2010Prop44ColorIndex
 90
        5
102
RTVSPost2010Prop44ColorRGB
 90
      255
102
RTVSPost2010PropOp44
 70
     1
102
RTVSPost2010Prop45
280
     0
102
RTVSPost2010PropOp45
 70
     1
102
RTVSPost2010Prop46
 90
       50
102
RTVSPost2010PropOp46
 70
     1
102
RTVSPost2010Prop47
 90
       50
102
RTVSPost2010PropOp47
 70
     1
102
RTVSPost2010Prop48
 90
       50
102
RTVSPost2010PropOp48
 70
     1
102
RTVSPost2010Prop49
280
     0
102
RTVSPost2010PropOp49
 70
     1
102
RTVSPost2010Prop50
 90
       50
102
RTVSPost2010PropOp50
 70
     1
102
RTVSPost2010Prop51ColorIndex
 90
      256
102
RTVSPost2010Prop51ColorRGB
 90
-16777216
102
RTVSPost2010PropOp51
 70
     0
102
RTVSPost2010Prop52
140
1.0
102
RTVSPost2010PropOp52
 70
     0
102
RTVSPost2010Prop53
 90
        2
102
RTVSPost2010PropOp53
 70
     1
102
RTVSPost2010Prop54
  1
strokes_ogs.tif
102
RTVSPost2010PropOp54
 70
     1
102
RTVSPost2010Prop55
280
     0
102
RTVSPost2010PropOp55
 70
     1
102
RTVSPost2010Prop56
140
1.0
102
RTVSPost2010PropOp56
 70
     1
102
RTVSPost2010Prop57
140
1.0
102
RTVSPost2010PropOp57
 70
     1
102
RTVSPropertyOp0
 70
     1
102
RTVSPropertyOp1
 70
     1
102
RTVSPropertyOp2
 70
     1
102
RTVSPropertyOp3
 70
     1
102
RTVSPropertyOp4
 70
     1
102
RTVSPropertyOp5
 70
     1
102
RTVSPropertyOp6
 70
     1
102
RTVSPropertyOp7
 70
     1
102
RTVSPropertyOp8
 70
     1
102
RTVSPropertyOp9
 70
     1
102
RTVSPropertyOp10
 70
     1
102
RTVSPropertyOp11
 70
     1
102
RTVSPropertyOp12
 70
     1
102
RTVSPropertyOp13
 70
     1
102
RTVSPropertyOp14
 70
     1
102
RTVSPropertyOp15
 70
     1
102
RTVSPropertyOp16
 70
     1
102
RTVSPropertyOp17
 70
     1
102
RTVSPropertyOp18
 70
     1
102
RTVSPropertyOp19
 70
     1
102
RTVSPropertyOp20
 70
     1
102
RTVSPropertyOp21
 70
     1
102
RTVSPropertyOp22
 70
     1
102
RTVSPropertyOp23
 70
     1
102
RTVSPropertyOp24
 70
     1
102
RTVSPropertyOp25
 70
     1
102
RTVSPropertyOp26
 70
     1
102
RTVSPropertyOp27
 70
     1
102
RTVSPropertyOp28
 70
     1
102
RTVSPropertyOp29
 70
     1
102
RTVSPropertyOp30
 70
     1
102
RTVSPropertyOp31
 70
     1
102
RTVSPropertyOp32
 70
     1
102
RTVSPropertyOp33
 70
     1
102
RTVSPropertyOp34
 70
     1
102
RTVSPropertyOp35
 70
     1
102
RTVSPropertyOp36
 70
     1
102
RTVSPropertyOp37
 70
     1
102
RTVSPropertyOp38
 70
     1
102
RTVSPropertyOp39
 70
     1
102
RTVSPropertyOp40
 70
     1
102
RTVSPropertyOp41
 70
     1
102
RTVSPropertyOp42
 70
     1
102
RTVSPropertyOp43
 70
     1
102
RTVSPropertyOp44
 70
     1
102
RTVSPropertyOp45
 70
     1
102
RTVSPropertyOp46
 70
     1
102
RTVSPropertyOp47
 70
     1
102
RTVSPropertyOp48
 70
     1
102
RTVSPropertyOp49
 70
     1
102
RTVSPropertyOp50
 70
     1
102
RTVSPropertyOp51
 70
     0
102
RTVSPropertyOp52
 70
     0
102
RTVSPropertyOp53
 70
     1
102
RTVSPropertyOp54
 70
     1
102
RTVSPropertyOp55
 70
     1
102
RTVSPropertyOp56
 70
     1
102
RTVSPropertyOp57
 70
     1
102
RTVSPropertyOp58
 70
     1
102
RTVSPropertyOp59
 70
     1
102
RTVSPropertyOp60
 70
     1
102
RTVSPropertyOp61
 70
     1
102
RTVSPropertyOp62
 70
     1
  0
XRECORD
  5
98EB
102
{ACAD_REACTORS
330
98EA
102
}
330
98EA
100
AcDbXrecord
280
     1
102
RTVSPost2010Prop28
280
     0
102
RTVSPost2010PropOp28
 70
     1
102
RTVSPost2010Prop29
280
     1
102
RTVSPost2010PropOp29
 70
     1
102
RTVSPost2010Prop30
280
     1
102
RTVSPost2010PropOp30
 70
     1
102
RTVSPost2010Prop31
280
     0
102
RTVSPost2010PropOp31
 70
     1
102
RTVSPost2010Prop32
280
     0
102
RTVSPost2010PropOp32
 70
     1
102
RTVSPost2010Prop33
280
     0
102
RTVSPost2010PropOp33
 70
     1
102
RTVSPost2010Prop34
280
     0
102
RTVSPost2010PropOp34
 70
     1
102
RTVSPost2010Prop35
280
     0
102
RTVSPost2010PropOp35
 70
     1
102
RTVSPost2010Prop36
280
     0
102
RTVSPost2010PropOp36
 70
     1
102
RTVSPost2010Prop37
 90
       50
102
RTVSPost2010PropOp37
 70
     1
102
RTVSPost2010Prop38
140
0.0
102
RTVSPost2010PropOp38
 70
     1
102
RTVSPost2010Prop39
140
1.0
102
RTVSPost2010PropOp39
 70
     1
102
RTVSPost2010Prop40
 90
        0
102
RTVSPost2010PropOp40
 70
     1
102
RTVSPost2010Prop41ColorIndex
 90
       18
102
RTVSPost2010Prop41ColorRGB
 90
        0
102
RTVSPost2010PropOp41
 70
     1
102
RTVSPost2010Prop42
 90
       50
102
RTVSPost2010PropOp42
 70
     1
102
RTVSPost2010Prop43
 90
        3
102
RTVSPost2010PropOp43
 70
     1
102
RTVSPost2010Prop44ColorIndex
 90
        5
102
RTVSPost2010Prop44ColorRGB
 90
      255
102
RTVSPost2010PropOp44
 70
     1
102
RTVSPost2010Prop45
280
     0
102
RTVSPost2010PropOp45
 70
     1
102
RTVSPost2010Prop46
 90
       50
102
RTVSPost2010PropOp46
 70
     1
102
RTVSPost2010Prop47
 90
       50
102
RTVSPost2010PropOp47
 70
     1
102
RTVSPost2010Prop48
 90
       50
102
RTVSPost2010PropOp48
 70
     1
102
RTVSPost2010Prop49
280
     0
102
RTVSPost2010PropOp49
 70
     1
102
RTVSPost2010Prop50
 90
       50
102
RTVSPost2010PropOp50
 70
     1
102
RTVSPost2010Prop51ColorIndex
 90
      256
102
RTVSPost2010Prop51ColorRGB
 90
-16777216
102
RTVSPost2010PropOp51
 70
     0
102
RTVSPost2010Prop52
140
1.0
102
RTVSPost2010PropOp52
 70
     0
102
RTVSPost2010Prop53
 90
        2
102
RTVSPost2010PropOp53
 70
     1
102
RTVSPost2010Prop54
  1
strokes_ogs.tif
102
RTVSPost2010PropOp54
 70
     1
102
RTVSPost2010Prop55
280
     0
102
RTVSPost2010PropOp55
 70
     1
102
RTVSPost2010Prop56
140
1.0
102
RTVSPost2010PropOp56
 70
     1
102
RTVSPost2010Prop57
140
1.0
102
RTVSPost2010PropOp57
 70
     1
102
RTVSPropertyOp0
 70
     1
102
RTVSPropertyOp1
 70
     1
102
RTVSPropertyOp2
 70
     1
102
RTVSPropertyOp3
 70
     1
102
RTVSPropertyOp4
 70
     1
102
RTVSPropertyOp5
 70
     1
102
RTVSPropertyOp6
 70
     1
102
RTVSPropertyOp7
 70
     1
102
RTVSPropertyOp8
 70
     1
102
RTVSPropertyOp9
 70
     1
102
RTVSPropertyOp10
 70
     1
102
RTVSPropertyOp11
 70
     1
102
RTVSPropertyOp12
 70
     1
102
RTVSPropertyOp13
 70
     1
102
RTVSPropertyOp14
 70
     1
102
RTVSPropertyOp15
 70
     1
102
RTVSPropertyOp16
 70
     1
102
RTVSPropertyOp17
 70
     1
102
RTVSPropertyOp18
 70
     1
102
RTVSPropertyOp19
 70
     1
102
RTVSPropertyOp20
 70
     1
102
RTVSPropertyOp21
 70
     1
102
RTVSPropertyOp22
 70
     1
102
RTVSPropertyOp23
 70
     1
102
RTVSPropertyOp24
 70
     1
102
RTVSPropertyOp25
 70
     1
102
RTVSPropertyOp26
 70
     1
102
RTVSPropertyOp27
 70
     1
102
RTVSPropertyOp28
 70
     1
102
RTVSPropertyOp29
 70
     1
102
RTVSPropertyOp30
 70
     1
102
RTVSPropertyOp31
 70
     1
102
RTVSPropertyOp32
 70
     1
102
RTVSPropertyOp33
 70
     1
102
RTVSPropertyOp34
 70
     1
102
RTVSPropertyOp35
 70
     1
102
RTVSPropertyOp36
 70
     1
102
RTVSPropertyOp37
 70
     1
102
RTVSPropertyOp38
 70
     1
102
RTVSPropertyOp39
 70
     1
102
RTVSPropertyOp40
 70
     1
102
RTVSPropertyOp41
 70
     1
102
RTVSPropertyOp42
 70
     1
102
RTVSPropertyOp43
 70
     1
102
RTVSPropertyOp44
 70
     1
102
RTVSPropertyOp45
 70
     1
102
RTVSPropertyOp46
 70
     1
102
RTVSPropertyOp47
 70
     1
102
RTVSPropertyOp48
 70
     1
102
RTVSPropertyOp49
 70
     1
102
RTVSPropertyOp50
 70
     1
102
RTVSPropertyOp51
 70
     0
102
RTVSPropertyOp52
 70
     0
102
RTVSPropertyOp53
 70
     1
102
RTVSPropertyOp54
 70
     1
102
RTVSPropertyOp55
 70
     1
102
RTVSPropertyOp56
 70
     1
102
RTVSPropertyOp57
 70
     1
102
RTVSPropertyOp58
 70
     1
102
RTVSPropertyOp59
 70
     1
102
RTVSPropertyOp60
 70
     1
102
RTVSPropertyOp61
 70
     1
102
RTVSPropertyOp62
 70
     1
  0
XRECORD
  5
9905
102
{ACAD_REACTORS
330
9904
102
}
330
9904
100
AcDbXrecord
280
     1
102
RTVSPost2010Prop28
280
     0
102
RTVSPost2010PropOp28
 70
     1
102
RTVSPost2010Prop29
280
     1
102
RTVSPost2010PropOp29
 70
     1
102
RTVSPost2010Prop30
280
     1
102
RTVSPost2010PropOp30
 70
     1
102
RTVSPost2010Prop31
280
     0
102
RTVSPost2010PropOp31
 70
     1
102
RTVSPost2010Prop32
280
     0
102
RTVSPost2010PropOp32
 70
     1
102
RTVSPost2010Prop33
280
     0
102
RTVSPost2010PropOp33
 70
     1
102
RTVSPost2010Prop34
280
     0
102
RTVSPost2010PropOp34
 70
     1
102
RTVSPost2010Prop35
280
     0
102
RTVSPost2010PropOp35
 70
     1
102
RTVSPost2010Prop36
280
     0
102
RTVSPost2010PropOp36
 70
     1
102
RTVSPost2010Prop37
 90
       50
102
RTVSPost2010PropOp37
 70
     0
102
RTVSPost2010Prop38
140
0.0
102
RTVSPost2010PropOp38
 70
     0
102
RTVSPost2010Prop39
140
1.0
102
RTVSPost2010PropOp39
 70
     0
102
RTVSPost2010Prop40
 90
        0
102
RTVSPost2010PropOp40
 70
     0
102
RTVSPost2010Prop41ColorIndex
 90
       18
102
RTVSPost2010Prop41ColorRGB
 90
        0
102
RTVSPost2010PropOp41
 70
     0
102
RTVSPost2010Prop42
 90
       50
102
RTVSPost2010PropOp42
 70
     0
102
RTVSPost2010Prop43
 90
        3
102
RTVSPost2010PropOp43
 70
     0
102
RTVSPost2010Prop44ColorIndex
 90
        5
102
RTVSPost2010Prop44ColorRGB
 90
      255
102
RTVSPost2010PropOp44
 70
     0
102
RTVSPost2010Prop45
280
     0
102
RTVSPost2010PropOp45
 70
     1
102
RTVSPost2010Prop46
 90
       50
102
RTVSPost2010PropOp46
 70
     0
102
RTVSPost2010Prop47
 90
       50
102
RTVSPost2010PropOp47
 70
     0
102
RTVSPost2010Prop48
 90
       50
102
RTVSPost2010PropOp48
 70
     0
102
RTVSPost2010Prop49
280
     0
102
RTVSPost2010PropOp49
 70
     1
102
RTVSPost2010Prop50
 90
       50
102
RTVSPost2010PropOp50
 70
     0
102
RTVSPost2010Prop51ColorIndex
 90
      256
102
RTVSPost2010Prop51ColorRGB
 90
-16777216
102
RTVSPost2010PropOp51
 70
     0
102
RTVSPost2010Prop52
140
1.0
102
RTVSPost2010PropOp52
 70
     0
102
RTVSPost2010Prop53
 90
        2
102
RTVSPost2010PropOp53
 70
     0
102
RTVSPost2010Prop54
  1
strokes_ogs.tif
102
RTVSPost2010PropOp54
 70
     0
102
RTVSPost2010Prop55
280
     0
102
RTVSPost2010PropOp55
 70
     1
102
RTVSPost2010Prop56
140
1.0
102
RTVSPost2010PropOp56
 70
     0
102
RTVSPost2010Prop57
140
1.0
102
RTVSPost2010PropOp57
 70
     0
102
RTVSPropertyOp0
 70
     0
102
RTVSPropertyOp1
 70
     0
102
RTVSPropertyOp2
 70
     0
102
RTVSPropertyOp3
 70
     0
102
RTVSPropertyOp4
 70
     0
102
RTVSPropertyOp5
 70
     0
102
RTVSPropertyOp6
 70
     0
102
RTVSPropertyOp7
 70
     0
102
RTVSPropertyOp8
 70
     0
102
RTVSPropertyOp9
 70
     0
102
RTVSPropertyOp10
 70
     0
102
RTVSPropertyOp11
 70
     0
102
RTVSPropertyOp12
 70
     0
102
RTVSPropertyOp13
 70
     0
102
RTVSPropertyOp14
 70
     2
102
RTVSPropertyOp15
 70
     0
102
RTVSPropertyOp16
 70
     0
102
RTVSPropertyOp17
 70
     0
102
RTVSPropertyOp18
 70
     0
102
RTVSPropertyOp19
 70
     0
102
RTVSPropertyOp20
 70
     0
102
RTVSPropertyOp21
 70
     0
102
RTVSPropertyOp22
 70
     0
102
RTVSPropertyOp23
 70
     0
102
RTVSPropertyOp24
 70
     0
102
RTVSPropertyOp25
 70
     0
102
RTVSPropertyOp26
 70
     0
102
RTVSPropertyOp27
 70
     0
102
RTVSPropertyOp28
 70
     1
102
RTVSPropertyOp29
 70
     1
102
RTVSPropertyOp30
 70
     1
102
RTVSPropertyOp31
 70
     1
102
RTVSPropertyOp32
 70
     1
102
RTVSPropertyOp33
 70
     1
102
RTVSPropertyOp34
 70
     1
102
RTVSPropertyOp35
 70
     1
102
RTVSPropertyOp36
 70
     1
102
RTVSPropertyOp37
 70
     0
102
RTVSPropertyOp38
 70
     0
102
RTVSPropertyOp39
 70
     0
102
RTVSPropertyOp40
 70
     0
102
RTVSPropertyOp41
 70
     0
102
RTVSPropertyOp42
 70
     0
102
RTVSPropertyOp43
 70
     0
102
RTVSPropertyOp44
 70
     0
102
RTVSPropertyOp45
 70
     1
102
RTVSPropertyOp46
 70
     0
102
RTVSPropertyOp47
 70
     0
102
RTVSPropertyOp48
 70
     0
102
RTVSPropertyOp49
 70
     1
102
RTVSPropertyOp50
 70
     0
102
RTVSPropertyOp51
 70
     0
102
RTVSPropertyOp52
 70
     0
102
RTVSPropertyOp53
 70
     0
102
RTVSPropertyOp54
 70
     0
102
RTVSPropertyOp55
 70
     1
102
RTVSPropertyOp56
 70
     0
102
RTVSPropertyOp57
 70
     0
102
RTVSPropertyOp58
 70
     0
102
RTVSPropertyOp59
 70
     0
102
RTVSPropertyOp60
 70
     0
102
RTVSPropertyOp61
 70
     0
102
RTVSPropertyOp62
 70
     0
  0
XRECORD
  5
98F3
102
{ACAD_REACTORS
330
98F2
102
}
330
98F2
100
AcDbXrecord
280
     1
102
RTVSPost2010Prop28
280
     0
102
RTVSPost2010PropOp28
 70
     1
102
RTVSPost2010Prop29
280
     1
102
RTVSPost2010PropOp29
 70
     1
102
RTVSPost2010Prop30
280
     1
102
RTVSPost2010PropOp30
 70
     1
102
RTVSPost2010Prop31
280
     0
102
RTVSPost2010PropOp31
 70
     1
102
RTVSPost2010Prop32
280
     0
102
RTVSPost2010PropOp32
 70
     1
102
RTVSPost2010Prop33
280
     0
102
RTVSPost2010PropOp33
 70
     1
102
RTVSPost2010Prop34
280
     0
102
RTVSPost2010PropOp34
 70
     1
102
RTVSPost2010Prop35
280
     0
102
RTVSPost2010PropOp35
 70
     1
102
RTVSPost2010Prop36
280
     0
102
RTVSPost2010PropOp36
 70
     1
102
RTVSPost2010Prop37
 90
       50
102
RTVSPost2010PropOp37
 70
     1
102
RTVSPost2010Prop38
140
0.0
102
RTVSPost2010PropOp38
 70
     1
102
RTVSPost2010Prop39
140
1.0
102
RTVSPost2010PropOp39
 70
     1
102
RTVSPost2010Prop40
 90
        0
102
RTVSPost2010PropOp40
 70
     1
102
RTVSPost2010Prop41ColorIndex
 90
       18
102
RTVSPost2010Prop41ColorRGB
 90
        0
102
RTVSPost2010PropOp41
 70
     1
102
RTVSPost2010Prop42
 90
       50
102
RTVSPost2010PropOp42
 70
     1
102
RTVSPost2010Prop43
 90
        3
102
RTVSPost2010PropOp43
 70
     1
102
RTVSPost2010Prop44ColorIndex
 90
        5
102
RTVSPost2010Prop44ColorRGB
 90
      255
102
RTVSPost2010PropOp44
 70
     1
102
RTVSPost2010Prop45
280
     0
102
RTVSPost2010PropOp45
 70
     1
102
RTVSPost2010Prop46
 90
       50
102
RTVSPost2010PropOp46
 70
     1
102
RTVSPost2010Prop47
 90
       50
102
RTVSPost2010PropOp47
 70
     1
102
RTVSPost2010Prop48
 90
       50
102
RTVSPost2010PropOp48
 70
     1
102
RTVSPost2010Prop49
280
     0
102
RTVSPost2010PropOp49
 70
     1
102
RTVSPost2010Prop50
 90
       50
102
RTVSPost2010PropOp50
 70
     1
102
RTVSPost2010Prop51ColorIndex
 90
      256
102
RTVSPost2010Prop51ColorRGB
 90
-16777216
102
RTVSPost2010PropOp51
 70
     0
102
RTVSPost2010Prop52
140
1.0
102
RTVSPost2010PropOp52
 70
     0
102
RTVSPost2010Prop53
 90
        2
102
RTVSPost2010PropOp53
 70
     1
102
RTVSPost2010Prop54
  1
strokes_ogs.tif
102
RTVSPost2010PropOp54
 70
     1
102
RTVSPost2010Prop55
280
     0
102
RTVSPost2010PropOp55
 70
     1
102
RTVSPost2010Prop56
140
1.0
102
RTVSPost2010PropOp56
 70
     1
102
RTVSPost2010Prop57
140
1.0
102
RTVSPost2010PropOp57
 70
     1
102
RTVSPropertyOp0
 70
     1
102
RTVSPropertyOp1
 70
     1
102
RTVSPropertyOp2
 70
     1
102
RTVSPropertyOp3
 70
     1
102
RTVSPropertyOp4
 70
     1
102
RTVSPropertyOp5
 70
     1
102
RTVSPropertyOp6
 70
     1
102
RTVSPropertyOp7
 70
     1
102
RTVSPropertyOp8
 70
     1
102
RTVSPropertyOp9
 70
     1
102
RTVSPropertyOp10
 70
     1
102
RTVSPropertyOp11
 70
     1
102
RTVSPropertyOp12
 70
     1
102
RTVSPropertyOp13
 70
     1
102
RTVSPropertyOp14
 70
     1
102
RTVSPropertyOp15
 70
     1
102
RTVSPropertyOp16
 70
     1
102
RTVSPropertyOp17
 70
     1
102
RTVSPropertyOp18
 70
     1
102
RTVSPropertyOp19
 70
     1
102
RTVSPropertyOp20
 70
     1
102
RTVSPropertyOp21
 70
     1
102
RTVSPropertyOp22
 70
     1
102
RTVSPropertyOp23
 70
     1
102
RTVSPropertyOp24
 70
     1
102
RTVSPropertyOp25
 70
     1
102
RTVSPropertyOp26
 70
     1
102
RTVSPropertyOp27
 70
     1
102
RTVSPropertyOp28
 70
     1
102
RTVSPropertyOp29
 70
     1
102
RTVSPropertyOp30
 70
     1
102
RTVSPropertyOp31
 70
     1
102
RTVSPropertyOp32
 70
     1
102
RTVSPropertyOp33
 70
     1
102
RTVSPropertyOp34
 70
     1
102
RTVSPropertyOp35
 70
     1
102
RTVSPropertyOp36
 70
     1
102
RTVSPropertyOp37
 70
     1
102
RTVSPropertyOp38
 70
     1
102
RTVSPropertyOp39
 70
     1
102
RTVSPropertyOp40
 70
     1
102
RTVSPropertyOp41
 70
     1
102
RTVSPropertyOp42
 70
     1
102
RTVSPropertyOp43
 70
     1
102
RTVSPropertyOp44
 70
     1
102
RTVSPropertyOp45
 70
     1
102
RTVSPropertyOp46
 70
     1
102
RTVSPropertyOp47
 70
     1
102
RTVSPropertyOp48
 70
     1
102
RTVSPropertyOp49
 70
     1
102
RTVSPropertyOp50
 70
     1
102
RTVSPropertyOp51
 70
     0
102
RTVSPropertyOp52
 70
     0
102
RTVSPropertyOp53
 70
     1
102
RTVSPropertyOp54
 70
     1
102
RTVSPropertyOp55
 70
     1
102
RTVSPropertyOp56
 70
     1
102
RTVSPropertyOp57
 70
     1
102
RTVSPropertyOp58
 70
     1
102
RTVSPropertyOp59
 70
     1
102
RTVSPropertyOp60
 70
     1
102
RTVSPropertyOp61
 70
     1
102
RTVSPropertyOp62
 70
     1
  0
XRECORD
  5
98D7
102
{ACAD_REACTORS
330
98D6
102
}
330
98D6
100
AcDbXrecord
280
     1
102
RTVSPost2010Prop28
280
     0
102
RTVSPost2010PropOp28
 70
     1
102
RTVSPost2010Prop29
280
     1
102
RTVSPost2010PropOp29
 70
     1
102
RTVSPost2010Prop30
280
     1
102
RTVSPost2010PropOp30
 70
     1
102
RTVSPost2010Prop31
280
     0
102
RTVSPost2010PropOp31
 70
     1
102
RTVSPost2010Prop32
280
     0
102
RTVSPost2010PropOp32
 70
     1
102
RTVSPost2010Prop33
280
     0
102
RTVSPost2010PropOp33
 70
     1
102
RTVSPost2010Prop34
280
     0
102
RTVSPost2010PropOp34
 70
     1
102
RTVSPost2010Prop35
280
     0
102
RTVSPost2010PropOp35
 70
     1
102
RTVSPost2010Prop36
280
     0
102
RTVSPost2010PropOp36
 70
     1
102
RTVSPost2010Prop37
 90
       50
102
RTVSPost2010PropOp37
 70
     1
102
RTVSPost2010Prop38
140
0.0
102
RTVSPost2010PropOp38
 70
     1
102
RTVSPost2010Prop39
140
1.0
102
RTVSPost2010PropOp39
 70
     1
102
RTVSPost2010Prop40
 90
        0
102
RTVSPost2010PropOp40
 70
     1
102
RTVSPost2010Prop41ColorIndex
 90
       18
102
RTVSPost2010Prop41ColorRGB
 90
        0
102
RTVSPost2010PropOp41
 70
     1
102
RTVSPost2010Prop42
 90
       50
102
RTVSPost2010PropOp42
 70
     1
102
RTVSPost2010Prop43
 90
        3
102
RTVSPost2010PropOp43
 70
     1
102
RTVSPost2010Prop44ColorIndex
 90
        5
102
RTVSPost2010Prop44ColorRGB
 90
      255
102
RTVSPost2010PropOp44
 70
     1
102
RTVSPost2010Prop45
280
     0
102
RTVSPost2010PropOp45
 70
     1
102
RTVSPost2010Prop46
 90
       50
102
RTVSPost2010PropOp46
 70
     1
102
RTVSPost2010Prop47
 90
       50
102
RTVSPost2010PropOp47
 70
     1
102
RTVSPost2010Prop48
 90
       50
102
RTVSPost2010PropOp48
 70
     1
102
RTVSPost2010Prop49
280
     0
102
RTVSPost2010PropOp49
 70
     1
102
RTVSPost2010Prop50
 90
       50
102
RTVSPost2010PropOp50
 70
     1
102
RTVSPost2010Prop51ColorIndex
 90
      256
102
RTVSPost2010Prop51ColorRGB
 90
-16777216
102
RTVSPost2010PropOp51
 70
     0
102
RTVSPost2010Prop52
140
1.0
102
RTVSPost2010PropOp52
 70
     0
102
RTVSPost2010Prop53
 90
        2
102
RTVSPost2010PropOp53
 70
     1
102
RTVSPost2010Prop54
  1
strokes_ogs.tif
102
RTVSPost2010PropOp54
 70
     1
102
RTVSPost2010Prop55
280
     0
102
RTVSPost2010PropOp55
 70
     1
102
RTVSPost2010Prop56
140
1.0
102
RTVSPost2010PropOp56
 70
     1
102
RTVSPost2010Prop57
140
1.0
102
RTVSPost2010PropOp57
 70
     1
102
RTVSPropertyOp0
 70
     1
102
RTVSPropertyOp1
 70
     1
102
RTVSPropertyOp2
 70
     1
102
RTVSPropertyOp3
 70
     1
102
RTVSPropertyOp4
 70
     1
102
RTVSPropertyOp5
 70
     1
102
RTVSPropertyOp6
 70
     1
102
RTVSPropertyOp7
 70
     1
102
RTVSPropertyOp8
 70
     1
102
RTVSPropertyOp9
 70
     1
102
RTVSPropertyOp10
 70
     1
102
RTVSPropertyOp11
 70
     1
102
RTVSPropertyOp12
 70
     1
102
RTVSPropertyOp13
 70
     1
102
RTVSPropertyOp14
 70
     1
102
RTVSPropertyOp15
 70
     1
102
RTVSPropertyOp16
 70
     1
102
RTVSPropertyOp17
 70
     1
102
RTVSPropertyOp18
 70
     1
102
RTVSPropertyOp19
 70
     1
102
RTVSPropertyOp20
 70
     1
102
RTVSPropertyOp21
 70
     1
102
RTVSPropertyOp22
 70
     1
102
RTVSPropertyOp23
 70
     1
102
RTVSPropertyOp24
 70
     1
102
RTVSPropertyOp25
 70
     1
102
RTVSPropertyOp26
 70
     1
102
RTVSPropertyOp27
 70
     1
102
RTVSPropertyOp28
 70
     1
102
RTVSPropertyOp29
 70
     1
102
RTVSPropertyOp30
 70
     1
102
RTVSPropertyOp31
 70
     1
102
RTVSPropertyOp32
 70
     1
102
RTVSPropertyOp33
 70
     1
102
RTVSPropertyOp34
 70
     1
102
RTVSPropertyOp35
 70
     1
102
RTVSPropertyOp36
 70
     1
102
RTVSPropertyOp37
 70
     1
102
RTVSPropertyOp38
 70
     1
102
RTVSPropertyOp39
 70
     1
102
RTVSPropertyOp40
 70
     1
102
RTVSPropertyOp41
 70
     1
102
RTVSPropertyOp42
 70
     1
102
RTVSPropertyOp43
 70
     1
102
RTVSPropertyOp44
 70
     1
102
RTVSPropertyOp45
 70
     1
102
RTVSPropertyOp46
 70
     1
102
RTVSPropertyOp47
 70
     1
102
RTVSPropertyOp48
 70
     1
102
RTVSPropertyOp49
 70
     1
102
RTVSPropertyOp50
 70
     1
102
RTVSPropertyOp51
 70
     0
102
RTVSPropertyOp52
 70
     0
102
RTVSPropertyOp53
 70
     1
102
RTVSPropertyOp54
 70
     1
102
RTVSPropertyOp55
 70
     1
102
RTVSPropertyOp56
 70
     1
102
RTVSPropertyOp57
 70
     1
102
RTVSPropertyOp58
 70
     1
102
RTVSPropertyOp59
 70
     1
102
RTVSPropertyOp60
 70
     1
102
RTVSPropertyOp61
 70
     1
102
RTVSPropertyOp62
 70
     1
  0
XRECORD
  5
98D9
102
{ACAD_REACTORS
330
98D8
102
}
330
98D8
100
AcDbXrecord
280
     1
102
RTVSPost2010Prop28
280
     0
102
RTVSPost2010PropOp28
 70
     1
102
RTVSPost2010Prop29
280
     1
102
RTVSPost2010PropOp29
 70
     1
102
RTVSPost2010Prop30
280
     1
102
RTVSPost2010PropOp30
 70
     1
102
RTVSPost2010Prop31
280
     0
102
RTVSPost2010PropOp31
 70
     1
102
RTVSPost2010Prop32
280
     0
102
RTVSPost2010PropOp32
 70
     1
102
RTVSPost2010Prop33
280
     0
102
RTVSPost2010PropOp33
 70
     1
102
RTVSPost2010Prop34
280
     0
102
RTVSPost2010PropOp34
 70
     1
102
RTVSPost2010Prop35
280
     0
102
RTVSPost2010PropOp35
 70
     1
102
RTVSPost2010Prop36
280
     0
102
RTVSPost2010PropOp36
 70
     1
102
RTVSPost2010Prop37
 90
       50
102
RTVSPost2010PropOp37
 70
     1
102
RTVSPost2010Prop38
140
0.0
102
RTVSPost2010PropOp38
 70
     1
102
RTVSPost2010Prop39
140
1.0
102
RTVSPost2010PropOp39
 70
     1
102
RTVSPost2010Prop40
 90
        0
102
RTVSPost2010PropOp40
 70
     1
102
RTVSPost2010Prop41ColorIndex
 90
       18
102
RTVSPost2010Prop41ColorRGB
 90
        0
102
RTVSPost2010PropOp41
 70
     1
102
RTVSPost2010Prop42
 90
       50
102
RTVSPost2010PropOp42
 70
     1
102
RTVSPost2010Prop43
 90
        3
102
RTVSPost2010PropOp43
 70
     1
102
RTVSPost2010Prop44ColorIndex
 90
        5
102
RTVSPost2010Prop44ColorRGB
 90
      255
102
RTVSPost2010PropOp44
 70
     1
102
RTVSPost2010Prop45
280
     0
102
RTVSPost2010PropOp45
 70
     1
102
RTVSPost2010Prop46
 90
       50
102
RTVSPost2010PropOp46
 70
     1
102
RTVSPost2010Prop47
 90
       50
102
RTVSPost2010PropOp47
 70
     1
102
RTVSPost2010Prop48
 90
       50
102
RTVSPost2010PropOp48
 70
     1
102
RTVSPost2010Prop49
280
     0
102
RTVSPost2010PropOp49
 70
     1
102
RTVSPost2010Prop50
 90
       50
102
RTVSPost2010PropOp50
 70
     1
102
RTVSPost2010Prop51ColorIndex
 90
      256
102
RTVSPost2010Prop51ColorRGB
 90
-16777216
102
RTVSPost2010PropOp51
 70
     0
102
RTVSPost2010Prop52
140
1.0
102
RTVSPost2010PropOp52
 70
     0
102
RTVSPost2010Prop53
 90
        2
102
RTVSPost2010PropOp53
 70
     1
102
RTVSPost2010Prop54
  1
strokes_ogs.tif
102
RTVSPost2010PropOp54
 70
     1
102
RTVSPost2010Prop55
280
     0
102
RTVSPost2010PropOp55
 70
     1
102
RTVSPost2010Prop56
140
1.0
102
RTVSPost2010PropOp56
 70
     1
102
RTVSPost2010Prop57
140
1.0
102
RTVSPost2010PropOp57
 70
     1
102
RTVSPropertyOp0
 70
     1
102
RTVSPropertyOp1
 70
     1
102
RTVSPropertyOp2
 70
     1
102
RTVSPropertyOp3
 70
     1
102
RTVSPropertyOp4
 70
     1
102
RTVSPropertyOp5
 70
     1
102
RTVSPropertyOp6
 70
     1
102
RTVSPropertyOp7
 70
     1
102
RTVSPropertyOp8
 70
     1
102
RTVSPropertyOp9
 70
     1
102
RTVSPropertyOp10
 70
     1
102
RTVSPropertyOp11
 70
     1
102
RTVSPropertyOp12
 70
     1
102
RTVSPropertyOp13
 70
     1
102
RTVSPropertyOp14
 70
     1
102
RTVSPropertyOp15
 70
     1
102
RTVSPropertyOp16
 70
     1
102
RTVSPropertyOp17
 70
     1
102
RTVSPropertyOp18
 70
     1
102
RTVSPropertyOp19
 70
     1
102
RTVSPropertyOp20
 70
     1
102
RTVSPropertyOp21
 70
     1
102
RTVSPropertyOp22
 70
     1
102
RTVSPropertyOp23
 70
     1
102
RTVSPropertyOp24
 70
     1
102
RTVSPropertyOp25
 70
     1
102
RTVSPropertyOp26
 70
     1
102
RTVSPropertyOp27
 70
     1
102
RTVSPropertyOp28
 70
     1
102
RTVSPropertyOp29
 70
     1
102
RTVSPropertyOp30
 70
     1
102
RTVSPropertyOp31
 70
     1
102
RTVSPropertyOp32
 70
     1
102
RTVSPropertyOp33
 70
     1
102
RTVSPropertyOp34
 70
     1
102
RTVSPropertyOp35
 70
     1
102
RTVSPropertyOp36
 70
     1
102
RTVSPropertyOp37
 70
     1
102
RTVSPropertyOp38
 70
     1
102
RTVSPropertyOp39
 70
     1
102
RTVSPropertyOp40
 70
     1
102
RTVSPropertyOp41
 70
     1
102
RTVSPropertyOp42
 70
     1
102
RTVSPropertyOp43
 70
     1
102
RTVSPropertyOp44
 70
     1
102
RTVSPropertyOp45
 70
     1
102
RTVSPropertyOp46
 70
     1
102
RTVSPropertyOp47
 70
     1
102
RTVSPropertyOp48
 70
     1
102
RTVSPropertyOp49
 70
     1
102
RTVSPropertyOp50
 70
     1
102
RTVSPropertyOp51
 70
     0
102
RTVSPropertyOp52
 70
     0
102
RTVSPropertyOp53
 70
     1
102
RTVSPropertyOp54
 70
     1
102
RTVSPropertyOp55
 70
     1
102
RTVSPropertyOp56
 70
     1
102
RTVSPropertyOp57
 70
     1
102
RTVSPropertyOp58
 70
     1
102
RTVSPropertyOp59
 70
     1
102
RTVSPropertyOp60
 70
     1
102
RTVSPropertyOp61
 70
     1
102
RTVSPropertyOp62
 70
     1
  0
XRECORD
  5
98DB
102
{ACAD_REACTORS
330
98DA
102
}
330
98DA
100
AcDbXrecord
280
     1
102
RTVSPost2010Prop28
280
     0
102
RTVSPost2010PropOp28
 70
     1
102
RTVSPost2010Prop29
280
     1
102
RTVSPost2010PropOp29
 70
     1
102
RTVSPost2010Prop30
280
     1
102
RTVSPost2010PropOp30
 70
     1
102
RTVSPost2010Prop31
280
     0
102
RTVSPost2010PropOp31
 70
     1
102
RTVSPost2010Prop32
280
     0
102
RTVSPost2010PropOp32
 70
     1
102
RTVSPost2010Prop33
280
     0
102
RTVSPost2010PropOp33
 70
     1
102
RTVSPost2010Prop34
280
     0
102
RTVSPost2010PropOp34
 70
     1
102
RTVSPost2010Prop35
280
     0
102
RTVSPost2010PropOp35
 70
     1
102
RTVSPost2010Prop36
280
     0
102
RTVSPost2010PropOp36
 70
     1
102
RTVSPost2010Prop37
 90
       50
102
RTVSPost2010PropOp37
 70
     1
102
RTVSPost2010Prop38
140
0.0
102
RTVSPost2010PropOp38
 70
     1
102
RTVSPost2010Prop39
140
1.0
102
RTVSPost2010PropOp39
 70
     1
102
RTVSPost2010Prop40
 90
        0
102
RTVSPost2010PropOp40
 70
     1
102
RTVSPost2010Prop41ColorIndex
 90
       18
102
RTVSPost2010Prop41ColorRGB
 90
        0
102
RTVSPost2010PropOp41
 70
     1
102
RTVSPost2010Prop42
 90
       50
102
RTVSPost2010PropOp42
 70
     1
102
RTVSPost2010Prop43
 90
        3
102
RTVSPost2010PropOp43
 70
     1
102
RTVSPost2010Prop44ColorIndex
 90
        5
102
RTVSPost2010Prop44ColorRGB
 90
      255
102
RTVSPost2010PropOp44
 70
     1
102
RTVSPost2010Prop45
280
     0
102
RTVSPost2010PropOp45
 70
     1
102
RTVSPost2010Prop46
 90
       50
102
RTVSPost2010PropOp46
 70
     1
102
RTVSPost2010Prop47
 90
       50
102
RTVSPost2010PropOp47
 70
     1
102
RTVSPost2010Prop48
 90
       50
102
RTVSPost2010PropOp48
 70
     1
102
RTVSPost2010Prop49
280
     0
102
RTVSPost2010PropOp49
 70
     1
102
RTVSPost2010Prop50
 90
       50
102
RTVSPost2010PropOp50
 70
     1
102
RTVSPost2010Prop51ColorIndex
 90
      256
102
RTVSPost2010Prop51ColorRGB
 90
-16777216
102
RTVSPost2010PropOp51
 70
     0
102
RTVSPost2010Prop52
140
1.0
102
RTVSPost2010PropOp52
 70
     0
102
RTVSPost2010Prop53
 90
        2
102
RTVSPost2010PropOp53
 70
     1
102
RTVSPost2010Prop54
  1
strokes_ogs.tif
102
RTVSPost2010PropOp54
 70
     1
102
RTVSPost2010Prop55
280
     0
102
RTVSPost2010PropOp55
 70
     1
102
RTVSPost2010Prop56
140
1.0
102
RTVSPost2010PropOp56
 70
     1
102
RTVSPost2010Prop57
140
1.0
102
RTVSPost2010PropOp57
 70
     1
102
RTVSPropertyOp0
 70
     1
102
RTVSPropertyOp1
 70
     1
102
RTVSPropertyOp2
 70
     1
102
RTVSPropertyOp3
 70
     1
102
RTVSPropertyOp4
 70
     1
102
RTVSPropertyOp5
 70
     1
102
RTVSPropertyOp6
 70
     1
102
RTVSPropertyOp7
 70
     1
102
RTVSPropertyOp8
 70
     1
102
RTVSPropertyOp9
 70
     1
102
RTVSPropertyOp10
 70
     1
102
RTVSPropertyOp11
 70
     1
102
RTVSPropertyOp12
 70
     1
102
RTVSPropertyOp13
 70
     1
102
RTVSPropertyOp14
 70
     1
102
RTVSPropertyOp15
 70
     1
102
RTVSPropertyOp16
 70
     1
102
RTVSPropertyOp17
 70
     1
102
RTVSPropertyOp18
 70
     1
102
RTVSPropertyOp19
 70
     1
102
RTVSPropertyOp20
 70
     1
102
RTVSPropertyOp21
 70
     1
102
RTVSPropertyOp22
 70
     1
102
RTVSPropertyOp23
 70
     1
102
RTVSPropertyOp24
 70
     1
102
RTVSPropertyOp25
 70
     1
102
RTVSPropertyOp26
 70
     1
102
RTVSPropertyOp27
 70
     1
102
RTVSPropertyOp28
 70
     1
102
RTVSPropertyOp29
 70
     1
102
RTVSPropertyOp30
 70
     1
102
RTVSPropertyOp31
 70
     1
102
RTVSPropertyOp32
 70
     1
102
RTVSPropertyOp33
 70
     1
102
RTVSPropertyOp34
 70
     1
102
RTVSPropertyOp35
 70
     1
102
RTVSPropertyOp36
 70
     1
102
RTVSPropertyOp37
 70
     1
102
RTVSPropertyOp38
 70
     1
102
RTVSPropertyOp39
 70
     1
102
RTVSPropertyOp40
 70
     1
102
RTVSPropertyOp41
 70
     1
102
RTVSPropertyOp42
 70
     1
102
RTVSPropertyOp43
 70
     1
102
RTVSPropertyOp44
 70
     1
102
RTVSPropertyOp45
 70
     1
102
RTVSPropertyOp46
 70
     1
102
RTVSPropertyOp47
 70
     1
102
RTVSPropertyOp48
 70
     1
102
RTVSPropertyOp49
 70
     1
102
RTVSPropertyOp50
 70
     1
102
RTVSPropertyOp51
 70
     0
102
RTVSPropertyOp52
 70
     0
102
RTVSPropertyOp53
 70
     1
102
RTVSPropertyOp54
 70
     1
102
RTVSPropertyOp55
 70
     1
102
RTVSPropertyOp56
 70
     1
102
RTVSPropertyOp57
 70
     1
102
RTVSPropertyOp58
 70
     1
102
RTVSPropertyOp59
 70
     1
102
RTVSPropertyOp60
 70
     1
102
RTVSPropertyOp61
 70
     1
102
RTVSPropertyOp62
 70
     1
  0
XRECORD
  5
98DD
102
{ACAD_REACTORS
330
98DC
102
}
330
98DC
100
AcDbXrecord
280
     1
102
RTVSPost2010Prop28
280
     0
102
RTVSPost2010PropOp28
 70
     1
102
RTVSPost2010Prop29
280
     1
102
RTVSPost2010PropOp29
 70
     1
102
RTVSPost2010Prop30
280
     1
102
RTVSPost2010PropOp30
 70
     1
102
RTVSPost2010Prop31
280
     0
102
RTVSPost2010PropOp31
 70
     1
102
RTVSPost2010Prop32
280
     0
102
RTVSPost2010PropOp32
 70
     1
102
RTVSPost2010Prop33
280
     0
102
RTVSPost2010PropOp33
 70
     1
102
RTVSPost2010Prop34
280
     0
102
RTVSPost2010PropOp34
 70
     1
102
RTVSPost2010Prop35
280
     0
102
RTVSPost2010PropOp35
 70
     1
102
RTVSPost2010Prop36
280
     0
102
RTVSPost2010PropOp36
 70
     1
102
RTVSPost2010Prop37
 90
       50
102
RTVSPost2010PropOp37
 70
     1
102
RTVSPost2010Prop38
140
0.0
102
RTVSPost2010PropOp38
 70
     1
102
RTVSPost2010Prop39
140
1.0
102
RTVSPost2010PropOp39
 70
     1
102
RTVSPost2010Prop40
 90
        0
102
RTVSPost2010PropOp40
 70
     1
102
RTVSPost2010Prop41ColorIndex
 90
       18
102
RTVSPost2010Prop41ColorRGB
 90
        0
102
RTVSPost2010PropOp41
 70
     1
102
RTVSPost2010Prop42
 90
       50
102
RTVSPost2010PropOp42
 70
     1
102
RTVSPost2010Prop43
 90
        3
102
RTVSPost2010PropOp43
 70
     1
102
RTVSPost2010Prop44ColorIndex
 90
        5
102
RTVSPost2010Prop44ColorRGB
 90
      255
102
RTVSPost2010PropOp44
 70
     1
102
RTVSPost2010Prop45
280
     0
102
RTVSPost2010PropOp45
 70
     1
102
RTVSPost2010Prop46
 90
       50
102
RTVSPost2010PropOp46
 70
     1
102
RTVSPost2010Prop47
 90
       50
102
RTVSPost2010PropOp47
 70
     1
102
RTVSPost2010Prop48
 90
       50
102
RTVSPost2010PropOp48
 70
     1
102
RTVSPost2010Prop49
280
     0
102
RTVSPost2010PropOp49
 70
     1
102
RTVSPost2010Prop50
 90
       50
102
RTVSPost2010PropOp50
 70
     1
102
RTVSPost2010Prop51ColorIndex
 90
      256
102
RTVSPost2010Prop51ColorRGB
 90
-16777216
102
RTVSPost2010PropOp51
 70
     0
102
RTVSPost2010Prop52
140
1.0
102
RTVSPost2010PropOp52
 70
     0
102
RTVSPost2010Prop53
 90
        2
102
RTVSPost2010PropOp53
 70
     1
102
RTVSPost2010Prop54
  1
strokes_ogs.tif
102
RTVSPost2010PropOp54
 70
     1
102
RTVSPost2010Prop55
280
     0
102
RTVSPost2010PropOp55
 70
     1
102
RTVSPost2010Prop56
140
1.0
102
RTVSPost2010PropOp56
 70
     1
102
RTVSPost2010Prop57
140
1.0
102
RTVSPost2010PropOp57
 70
     1
102
RTVSPropertyOp0
 70
     1
102
RTVSPropertyOp1
 70
     1
102
RTVSPropertyOp2
 70
     1
102
RTVSPropertyOp3
 70
     1
102
RTVSPropertyOp4
 70
     1
102
RTVSPropertyOp5
 70
     1
102
RTVSPropertyOp6
 70
     1
102
RTVSPropertyOp7
 70
     1
102
RTVSPropertyOp8
 70
     1
102
RTVSPropertyOp9
 70
     1
102
RTVSPropertyOp10
 70
     1
102
RTVSPropertyOp11
 70
     1
102
RTVSPropertyOp12
 70
     1
102
RTVSPropertyOp13
 70
     1
102
RTVSPropertyOp14
 70
     1
102
RTVSPropertyOp15
 70
     1
102
RTVSPropertyOp16
 70
     1
102
RTVSPropertyOp17
 70
     1
102
RTVSPropertyOp18
 70
     1
102
RTVSPropertyOp19
 70
     1
102
RTVSPropertyOp20
 70
     1
102
RTVSPropertyOp21
 70
     1
102
RTVSPropertyOp22
 70
     1
102
RTVSPropertyOp23
 70
     1
102
RTVSPropertyOp24
 70
     1
102
RTVSPropertyOp25
 70
     1
102
RTVSPropertyOp26
 70
     1
102
RTVSPropertyOp27
 70
     1
102
RTVSPropertyOp28
 70
     1
102
RTVSPropertyOp29
 70
     1
102
RTVSPropertyOp30
 70
     1
102
RTVSPropertyOp31
 70
     1
102
RTVSPropertyOp32
 70
     1
102
RTVSPropertyOp33
 70
     1
102
RTVSPropertyOp34
 70
     1
102
RTVSPropertyOp35
 70
     1
102
RTVSPropertyOp36
 70
     1
102
RTVSPropertyOp37
 70
     1
102
RTVSPropertyOp38
 70
     1
102
RTVSPropertyOp39
 70
     1
102
RTVSPropertyOp40
 70
     1
102
RTVSPropertyOp41
 70
     1
102
RTVSPropertyOp42
 70
     1
102
RTVSPropertyOp43
 70
     1
102
RTVSPropertyOp44
 70
     1
102
RTVSPropertyOp45
 70
     1
102
RTVSPropertyOp46
 70
     1
102
RTVSPropertyOp47
 70
     1
102
RTVSPropertyOp48
 70
     1
102
RTVSPropertyOp49
 70
     1
102
RTVSPropertyOp50
 70
     1
102
RTVSPropertyOp51
 70
     0
102
RTVSPropertyOp52
 70
     0
102
RTVSPropertyOp53
 70
     1
102
RTVSPropertyOp54
 70
     1
102
RTVSPropertyOp55
 70
     1
102
RTVSPropertyOp56
 70
     1
102
RTVSPropertyOp57
 70
     1
102
RTVSPropertyOp58
 70
     1
102
RTVSPropertyOp59
 70
     1
102
RTVSPropertyOp60
 70
     1
102
RTVSPropertyOp61
 70
     1
102
RTVSPropertyOp62
 70
     1
  0
XRECORD
  5
98E5
102
{ACAD_REACTORS
330
98E4
102
}
330
98E4
100
AcDbXrecord
280
     1
102
RTVSPost2010Prop28
280
     0
102
RTVSPost2010PropOp28
 70
     1
102
RTVSPost2010Prop29
280
     1
102
RTVSPost2010PropOp29
 70
     1
102
RTVSPost2010Prop30
280
     1
102
RTVSPost2010PropOp30
 70
     1
102
RTVSPost2010Prop31
280
     0
102
RTVSPost2010PropOp31
 70
     1
102
RTVSPost2010Prop32
280
     0
102
RTVSPost2010PropOp32
 70
     1
102
RTVSPost2010Prop33
280
     0
102
RTVSPost2010PropOp33
 70
     1
102
RTVSPost2010Prop34
280
     0
102
RTVSPost2010PropOp34
 70
     1
102
RTVSPost2010Prop35
280
     0
102
RTVSPost2010PropOp35
 70
     1
102
RTVSPost2010Prop36
280
     0
102
RTVSPost2010PropOp36
 70
     1
102
RTVSPost2010Prop37
 90
       50
102
RTVSPost2010PropOp37
 70
     1
102
RTVSPost2010Prop38
140
0.0
102
RTVSPost2010PropOp38
 70
     1
102
RTVSPost2010Prop39
140
1.0
102
RTVSPost2010PropOp39
 70
     1
102
RTVSPost2010Prop40
 90
        0
102
RTVSPost2010PropOp40
 70
     1
102
RTVSPost2010Prop41ColorIndex
 90
       18
102
RTVSPost2010Prop41ColorRGB
 90
        0
102
RTVSPost2010PropOp41
 70
     1
102
RTVSPost2010Prop42
 90
       50
102
RTVSPost2010PropOp42
 70
     1
102
RTVSPost2010Prop43
 90
        3
102
RTVSPost2010PropOp43
 70
     1
102
RTVSPost2010Prop44ColorIndex
 90
        5
102
RTVSPost2010Prop44ColorRGB
 90
      255
102
RTVSPost2010PropOp44
 70
     1
102
RTVSPost2010Prop45
280
     0
102
RTVSPost2010PropOp45
 70
     1
102
RTVSPost2010Prop46
 90
       50
102
RTVSPost2010PropOp46
 70
     1
102
RTVSPost2010Prop47
 90
       50
102
RTVSPost2010PropOp47
 70
     1
102
RTVSPost2010Prop48
 90
       50
102
RTVSPost2010PropOp48
 70
     1
102
RTVSPost2010Prop49
280
     0
102
RTVSPost2010PropOp49
 70
     1
102
RTVSPost2010Prop50
 90
       50
102
RTVSPost2010PropOp50
 70
     1
102
RTVSPost2010Prop51ColorIndex
 90
      256
102
RTVSPost2010Prop51ColorRGB
 90
-16777216
102
RTVSPost2010PropOp51
 70
     0
102
RTVSPost2010Prop52
140
1.0
102
RTVSPost2010PropOp52
 70
     0
102
RTVSPost2010Prop53
 90
        2
102
RTVSPost2010PropOp53
 70
     1
102
RTVSPost2010Prop54
  1
strokes_ogs.tif
102
RTVSPost2010PropOp54
 70
     1
102
RTVSPost2010Prop55
280
     0
102
RTVSPost2010PropOp55
 70
     1
102
RTVSPost2010Prop56
140
1.0
102
RTVSPost2010PropOp56
 70
     1
102
RTVSPost2010Prop57
140
1.0
102
RTVSPost2010PropOp57
 70
     1
102
RTVSPropertyOp0
 70
     1
102
RTVSPropertyOp1
 70
     1
102
RTVSPropertyOp2
 70
     1
102
RTVSPropertyOp3
 70
     1
102
RTVSPropertyOp4
 70
     1
102
RTVSPropertyOp5
 70
     1
102
RTVSPropertyOp6
 70
     1
102
RTVSPropertyOp7
 70
     1
102
RTVSPropertyOp8
 70
     1
102
RTVSPropertyOp9
 70
     1
102
RTVSPropertyOp10
 70
     1
102
RTVSPropertyOp11
 70
     1
102
RTVSPropertyOp12
 70
     1
102
RTVSPropertyOp13
 70
     1
102
RTVSPropertyOp14
 70
     1
102
RTVSPropertyOp15
 70
     1
102
RTVSPropertyOp16
 70
     1
102
RTVSPropertyOp17
 70
     1
102
RTVSPropertyOp18
 70
     1
102
RTVSPropertyOp19
 70
     1
102
RTVSPropertyOp20
 70
     1
102
RTVSPropertyOp21
 70
     1
102
RTVSPropertyOp22
 70
     1
102
RTVSPropertyOp23
 70
     1
102
RTVSPropertyOp24
 70
     1
102
RTVSPropertyOp25
 70
     1
102
RTVSPropertyOp26
 70
     1
102
RTVSPropertyOp27
 70
     1
102
RTVSPropertyOp28
 70
     1
102
RTVSPropertyOp29
 70
     1
102
RTVSPropertyOp30
 70
     1
102
RTVSPropertyOp31
 70
     1
102
RTVSPropertyOp32
 70
     1
102
RTVSPropertyOp33
 70
     1
102
RTVSPropertyOp34
 70
     1
102
RTVSPropertyOp35
 70
     1
102
RTVSPropertyOp36
 70
     1
102
RTVSPropertyOp37
 70
     1
102
RTVSPropertyOp38
 70
     1
102
RTVSPropertyOp39
 70
     1
102
RTVSPropertyOp40
 70
     1
102
RTVSPropertyOp41
 70
     1
102
RTVSPropertyOp42
 70
     1
102
RTVSPropertyOp43
 70
     1
102
RTVSPropertyOp44
 70
     1
102
RTVSPropertyOp45
 70
     1
102
RTVSPropertyOp46
 70
     1
102
RTVSPropertyOp47
 70
     1
102
RTVSPropertyOp48
 70
     1
102
RTVSPropertyOp49
 70
     1
102
RTVSPropertyOp50
 70
     1
102
RTVSPropertyOp51
 70
     0
102
RTVSPropertyOp52
 70
     0
102
RTVSPropertyOp53
 70
     1
102
RTVSPropertyOp54
 70
     1
102
RTVSPropertyOp55
 70
     1
102
RTVSPropertyOp56
 70
     1
102
RTVSPropertyOp57
 70
     1
102
RTVSPropertyOp58
 70
     1
102
RTVSPropertyOp59
 70
     1
102
RTVSPropertyOp60
 70
     1
102
RTVSPropertyOp61
 70
     1
102
RTVSPropertyOp62
 70
     1
  0
XRECORD
  5
9901
102
{ACAD_REACTORS
330
9900
102
}
330
9900
100
AcDbXrecord
280
     1
102
RTVSPost2010Prop28
280
     0
102
RTVSPost2010PropOp28
 70
     1
102
RTVSPost2010Prop29
280
     1
102
RTVSPost2010PropOp29
 70
     1
102
RTVSPost2010Prop30
280
     1
102
RTVSPost2010PropOp30
 70
     1
102
RTVSPost2010Prop31
280
     0
102
RTVSPost2010PropOp31
 70
     1
102
RTVSPost2010Prop32
280
     0
102
RTVSPost2010PropOp32
 70
     1
102
RTVSPost2010Prop33
280
     0
102
RTVSPost2010PropOp33
 70
     1
102
RTVSPost2010Prop34
280
     0
102
RTVSPost2010PropOp34
 70
     1
102
RTVSPost2010Prop35
280
     0
102
RTVSPost2010PropOp35
 70
     1
102
RTVSPost2010Prop36
280
     0
102
RTVSPost2010PropOp36
 70
     1
102
RTVSPost2010Prop37
 90
       50
102
RTVSPost2010PropOp37
 70
     0
102
RTVSPost2010Prop38
140
0.0
102
RTVSPost2010PropOp38
 70
     0
102
RTVSPost2010Prop39
140
1.0
102
RTVSPost2010PropOp39
 70
     0
102
RTVSPost2010Prop40
 90
        0
102
RTVSPost2010PropOp40
 70
     0
102
RTVSPost2010Prop41ColorIndex
 90
       18
102
RTVSPost2010Prop41ColorRGB
 90
        0
102
RTVSPost2010PropOp41
 70
     0
102
RTVSPost2010Prop42
 90
       50
102
RTVSPost2010PropOp42
 70
     0
102
RTVSPost2010Prop43
 90
        3
102
RTVSPost2010PropOp43
 70
     0
102
RTVSPost2010Prop44ColorIndex
 90
        5
102
RTVSPost2010Prop44ColorRGB
 90
      255
102
RTVSPost2010PropOp44
 70
     0
102
RTVSPost2010Prop45
280
     0
102
RTVSPost2010PropOp45
 70
     1
102
RTVSPost2010Prop46
 90
       50
102
RTVSPost2010PropOp46
 70
     0
102
RTVSPost2010Prop47
 90
       50
102
RTVSPost2010PropOp47
 70
     0
102
RTVSPost2010Prop48
 90
       50
102
RTVSPost2010PropOp48
 70
     0
102
RTVSPost2010Prop49
280
     0
102
RTVSPost2010PropOp49
 70
     1
102
RTVSPost2010Prop50
 90
       50
102
RTVSPost2010PropOp50
 70
     0
102
RTVSPost2010Prop51ColorIndex
 90
      256
102
RTVSPost2010Prop51ColorRGB
 90
-16777216
102
RTVSPost2010PropOp51
 70
     0
102
RTVSPost2010Prop52
140
1.0
102
RTVSPost2010PropOp52
 70
     0
102
RTVSPost2010Prop53
 90
        2
102
RTVSPost2010PropOp53
 70
     0
102
RTVSPost2010Prop54
  1
strokes_ogs.tif
102
RTVSPost2010PropOp54
 70
     0
102
RTVSPost2010Prop55
280
     0
102
RTVSPost2010PropOp55
 70
     1
102
RTVSPost2010Prop56
140
1.0
102
RTVSPost2010PropOp56
 70
     0
102
RTVSPost2010Prop57
140
1.0
102
RTVSPost2010PropOp57
 70
     0
102
RTVSPropertyOp0
 70
     0
102
RTVSPropertyOp1
 70
     0
102
RTVSPropertyOp2
 70
     0
102
RTVSPropertyOp3
 70
     0
102
RTVSPropertyOp4
 70
     0
102
RTVSPropertyOp5
 70
     0
102
RTVSPropertyOp6
 70
     0
102
RTVSPropertyOp7
 70
     0
102
RTVSPropertyOp8
 70
     0
102
RTVSPropertyOp9
 70
     0
102
RTVSPropertyOp10
 70
     0
102
RTVSPropertyOp11
 70
     0
102
RTVSPropertyOp12
 70
     0
102
RTVSPropertyOp13
 70
     0
102
RTVSPropertyOp14
 70
     2
102
RTVSPropertyOp15
 70
     0
102
RTVSPropertyOp16
 70
     0
102
RTVSPropertyOp17
 70
     0
102
RTVSPropertyOp18
 70
     0
102
RTVSPropertyOp19
 70
     0
102
RTVSPropertyOp20
 70
     0
102
RTVSPropertyOp21
 70
     0
102
RTVSPropertyOp22
 70
     0
102
RTVSPropertyOp23
 70
     0
102
RTVSPropertyOp24
 70
     0
102
RTVSPropertyOp25
 70
     0
102
RTVSPropertyOp26
 70
     0
102
RTVSPropertyOp27
 70
     0
102
RTVSPropertyOp28
 70
     1
102
RTVSPropertyOp29
 70
     1
102
RTVSPropertyOp30
 70
     1
102
RTVSPropertyOp31
 70
     1
102
RTVSPropertyOp32
 70
     1
102
RTVSPropertyOp33
 70
     1
102
RTVSPropertyOp34
 70
     1
102
RTVSPropertyOp35
 70
     1
102
RTVSPropertyOp36
 70
     1
102
RTVSPropertyOp37
 70
     0
102
RTVSPropertyOp38
 70
     0
102
RTVSPropertyOp39
 70
     0
102
RTVSPropertyOp40
 70
     0
102
RTVSPropertyOp41
 70
     0
102
RTVSPropertyOp42
 70
     0
102
RTVSPropertyOp43
 70
     0
102
RTVSPropertyOp44
 70
     0
102
RTVSPropertyOp45
 70
     1
102
RTVSPropertyOp46
 70
     0
102
RTVSPropertyOp47
 70
     0
102
RTVSPropertyOp48
 70
     0
102
RTVSPropertyOp49
 70
     1
102
RTVSPropertyOp50
 70
     0
102
RTVSPropertyOp51
 70
     0
102
RTVSPropertyOp52
 70
     0
102
RTVSPropertyOp53
 70
     0
102
RTVSPropertyOp54
 70
     0
102
RTVSPropertyOp55
 70
     1
102
RTVSPropertyOp56
 70
     0
102
RTVSPropertyOp57
 70
     0
102
RTVSPropertyOp58
 70
     0
102
RTVSPropertyOp59
 70
     0
102
RTVSPropertyOp60
 70
     0
102
RTVSPropertyOp61
 70
     0
102
RTVSPropertyOp62
 70
     0
  0
XRECORD
  5
98F1
102
{ACAD_REACTORS
330
98F0
102
}
330
98F0
100
AcDbXrecord
280
     1
102
RTVSPost2010Prop28
280
     0
102
RTVSPost2010PropOp28
 70
     1
102
RTVSPost2010Prop29
280
     1
102
RTVSPost2010PropOp29
 70
     1
102
RTVSPost2010Prop30
280
     1
102
RTVSPost2010PropOp30
 70
     1
102
RTVSPost2010Prop31
280
     0
102
RTVSPost2010PropOp31
 70
     1
102
RTVSPost2010Prop32
280
     0
102
RTVSPost2010PropOp32
 70
     1
102
RTVSPost2010Prop33
280
     0
102
RTVSPost2010PropOp33
 70
     1
102
RTVSPost2010Prop34
280
     0
102
RTVSPost2010PropOp34
 70
     1
102
RTVSPost2010Prop35
280
     0
102
RTVSPost2010PropOp35
 70
     1
102
RTVSPost2010Prop36
280
     0
102
RTVSPost2010PropOp36
 70
     1
102
RTVSPost2010Prop37
 90
       50
102
RTVSPost2010PropOp37
 70
     1
102
RTVSPost2010Prop38
140
0.0
102
RTVSPost2010PropOp38
 70
     1
102
RTVSPost2010Prop39
140
1.0
102
RTVSPost2010PropOp39
 70
     1
102
RTVSPost2010Prop40
 90
        0
102
RTVSPost2010PropOp40
 70
     1
102
RTVSPost2010Prop41ColorIndex
 90
       18
102
RTVSPost2010Prop41ColorRGB
 90
        0
102
RTVSPost2010PropOp41
 70
     1
102
RTVSPost2010Prop42
 90
       50
102
RTVSPost2010PropOp42
 70
     1
102
RTVSPost2010Prop43
 90
        3
102
RTVSPost2010PropOp43
 70
     1
102
RTVSPost2010Prop44ColorIndex
 90
        5
102
RTVSPost2010Prop44ColorRGB
 90
      255
102
RTVSPost2010PropOp44
 70
     1
102
RTVSPost2010Prop45
280
     0
102
RTVSPost2010PropOp45
 70
     1
102
RTVSPost2010Prop46
 90
       50
102
RTVSPost2010PropOp46
 70
     1
102
RTVSPost2010Prop47
 90
       50
102
RTVSPost2010PropOp47
 70
     1
102
RTVSPost2010Prop48
 90
       50
102
RTVSPost2010PropOp48
 70
     1
102
RTVSPost2010Prop49
280
     0
102
RTVSPost2010PropOp49
 70
     1
102
RTVSPost2010Prop50
 90
       50
102
RTVSPost2010PropOp50
 70
     1
102
RTVSPost2010Prop51ColorIndex
 90
      256
102
RTVSPost2010Prop51ColorRGB
 90
-16777216
102
RTVSPost2010PropOp51
 70
     0
102
RTVSPost2010Prop52
140
1.0
102
RTVSPost2010PropOp52
 70
     0
102
RTVSPost2010Prop53
 90
        2
102
RTVSPost2010PropOp53
 70
     1
102
RTVSPost2010Prop54
  1
strokes_ogs.tif
102
RTVSPost2010PropOp54
 70
     1
102
RTVSPost2010Prop55
280
     0
102
RTVSPost2010PropOp55
 70
     1
102
RTVSPost2010Prop56
140
1.0
102
RTVSPost2010PropOp56
 70
     1
102
RTVSPost2010Prop57
140
1.0
102
RTVSPost2010PropOp57
 70
     1
102
RTVSPropertyOp0
 70
     1
102
RTVSPropertyOp1
 70
     1
102
RTVSPropertyOp2
 70
     1
102
RTVSPropertyOp3
 70
     1
102
RTVSPropertyOp4
 70
     1
102
RTVSPropertyOp5
 70
     1
102
RTVSPropertyOp6
 70
     1
102
RTVSPropertyOp7
 70
     1
102
RTVSPropertyOp8
 70
     1
102
RTVSPropertyOp9
 70
     1
102
RTVSPropertyOp10
 70
     1
102
RTVSPropertyOp11
 70
     1
102
RTVSPropertyOp12
 70
     1
102
RTVSPropertyOp13
 70
     1
102
RTVSPropertyOp14
 70
     1
102
RTVSPropertyOp15
 70
     1
102
RTVSPropertyOp16
 70
     1
102
RTVSPropertyOp17
 70
     1
102
RTVSPropertyOp18
 70
     1
102
RTVSPropertyOp19
 70
     1
102
RTVSPropertyOp20
 70
     1
102
RTVSPropertyOp21
 70
     1
102
RTVSPropertyOp22
 70
     1
102
RTVSPropertyOp23
 70
     1
102
RTVSPropertyOp24
 70
     1
102
RTVSPropertyOp25
 70
     1
102
RTVSPropertyOp26
 70
     1
102
RTVSPropertyOp27
 70
     1
102
RTVSPropertyOp28
 70
     1
102
RTVSPropertyOp29
 70
     1
102
RTVSPropertyOp30
 70
     1
102
RTVSPropertyOp31
 70
     1
102
RTVSPropertyOp32
 70
     1
102
RTVSPropertyOp33
 70
     1
102
RTVSPropertyOp34
 70
     1
102
RTVSPropertyOp35
 70
     1
102
RTVSPropertyOp36
 70
     1
102
RTVSPropertyOp37
 70
     1
102
RTVSPropertyOp38
 70
     1
102
RTVSPropertyOp39
 70
     1
102
RTVSPropertyOp40
 70
     1
102
RTVSPropertyOp41
 70
     1
102
RTVSPropertyOp42
 70
     1
102
RTVSPropertyOp43
 70
     1
102
RTVSPropertyOp44
 70
     1
102
RTVSPropertyOp45
 70
     1
102
RTVSPropertyOp46
 70
     1
102
RTVSPropertyOp47
 70
     1
102
RTVSPropertyOp48
 70
     1
102
RTVSPropertyOp49
 70
     1
102
RTVSPropertyOp50
 70
     1
102
RTVSPropertyOp51
 70
     0
102
RTVSPropertyOp52
 70
     0
102
RTVSPropertyOp53
 70
     1
102
RTVSPropertyOp54
 70
     1
102
RTVSPropertyOp55
 70
     1
102
RTVSPropertyOp56
 70
     1
102
RTVSPropertyOp57
 70
     1
102
RTVSPropertyOp58
 70
     1
102
RTVSPropertyOp59
 70
     1
102
RTVSPropertyOp60
 70
     1
102
RTVSPropertyOp61
 70
     1
102
RTVSPropertyOp62
 70
     1
  0
XRECORD
  5
9903
102
{ACAD_REACTORS
330
9902
102
}
330
9902
100
AcDbXrecord
280
     1
102
RTVSPost2010Prop28
280
     0
102
RTVSPost2010PropOp28
 70
     1
102
RTVSPost2010Prop29
280
     1
102
RTVSPost2010PropOp29
 70
     1
102
RTVSPost2010Prop30
280
     1
102
RTVSPost2010PropOp30
 70
     1
102
RTVSPost2010Prop31
280
     0
102
RTVSPost2010PropOp31
 70
     1
102
RTVSPost2010Prop32
280
     0
102
RTVSPost2010PropOp32
 70
     1
102
RTVSPost2010Prop33
280
     0
102
RTVSPost2010PropOp33
 70
     1
102
RTVSPost2010Prop34
280
     0
102
RTVSPost2010PropOp34
 70
     1
102
RTVSPost2010Prop35
280
     0
102
RTVSPost2010PropOp35
 70
     1
102
RTVSPost2010Prop36
280
     0
102
RTVSPost2010PropOp36
 70
     1
102
RTVSPost2010Prop37
 90
       50
102
RTVSPost2010PropOp37
 70
     0
102
RTVSPost2010Prop38
140
0.0
102
RTVSPost2010PropOp38
 70
     0
102
RTVSPost2010Prop39
140
1.0
102
RTVSPost2010PropOp39
 70
     0
102
RTVSPost2010Prop40
 90
        0
102
RTVSPost2010PropOp40
 70
     0
102
RTVSPost2010Prop41ColorIndex
 90
       18
102
RTVSPost2010Prop41ColorRGB
 90
        0
102
RTVSPost2010PropOp41
 70
     0
102
RTVSPost2010Prop42
 90
       50
102
RTVSPost2010PropOp42
 70
     0
102
RTVSPost2010Prop43
 90
        3
102
RTVSPost2010PropOp43
 70
     0
102
RTVSPost2010Prop44ColorIndex
 90
        5
102
RTVSPost2010Prop44ColorRGB
 90
      255
102
RTVSPost2010PropOp44
 70
     0
102
RTVSPost2010Prop45
280
     0
102
RTVSPost2010PropOp45
 70
     1
102
RTVSPost2010Prop46
 90
       50
102
RTVSPost2010PropOp46
 70
     0
102
RTVSPost2010Prop47
 90
       50
102
RTVSPost2010PropOp47
 70
     0
102
RTVSPost2010Prop48
 90
       50
102
RTVSPost2010PropOp48
 70
     0
102
RTVSPost2010Prop49
280
     0
102
RTVSPost2010PropOp49
 70
     1
102
RTVSPost2010Prop50
 90
       50
102
RTVSPost2010PropOp50
 70
     0
102
RTVSPost2010Prop51ColorIndex
 90
      256
102
RTVSPost2010Prop51ColorRGB
 90
-16777216
102
RTVSPost2010PropOp51
 70
     0
102
RTVSPost2010Prop52
140
1.0
102
RTVSPost2010PropOp52
 70
     0
102
RTVSPost2010Prop53
 90
        2
102
RTVSPost2010PropOp53
 70
     0
102
RTVSPost2010Prop54
  1
strokes_ogs.tif
102
RTVSPost2010PropOp54
 70
     0
102
RTVSPost2010Prop55
280
     0
102
RTVSPost2010PropOp55
 70
     1
102
RTVSPost2010Prop56
140
1.0
102
RTVSPost2010PropOp56
 70
     0
102
RTVSPost2010Prop57
140
1.0
102
RTVSPost2010PropOp57
 70
     0
102
RTVSPropertyOp0
 70
     0
102
RTVSPropertyOp1
 70
     0
102
RTVSPropertyOp2
 70
     0
102
RTVSPropertyOp3
 70
     0
102
RTVSPropertyOp4
 70
     0
102
RTVSPropertyOp5
 70
     0
102
RTVSPropertyOp6
 70
     0
102
RTVSPropertyOp7
 70
     0
102
RTVSPropertyOp8
 70
     0
102
RTVSPropertyOp9
 70
     0
102
RTVSPropertyOp10
 70
     0
102
RTVSPropertyOp11
 70
     0
102
RTVSPropertyOp12
 70
     0
102
RTVSPropertyOp13
 70
     0
102
RTVSPropertyOp14
 70
     2
102
RTVSPropertyOp15
 70
     0
102
RTVSPropertyOp16
 70
     0
102
RTVSPropertyOp17
 70
     0
102
RTVSPropertyOp18
 70
     0
102
RTVSPropertyOp19
 70
     0
102
RTVSPropertyOp20
 70
     0
102
RTVSPropertyOp21
 70
     0
102
RTVSPropertyOp22
 70
     0
102
RTVSPropertyOp23
 70
     0
102
RTVSPropertyOp24
 70
     0
102
RTVSPropertyOp25
 70
     0
102
RTVSPropertyOp26
 70
     0
102
RTVSPropertyOp27
 70
     0
102
RTVSPropertyOp28
 70
     1
102
RTVSPropertyOp29
 70
     1
102
RTVSPropertyOp30
 70
     1
102
RTVSPropertyOp31
 70
     1
102
RTVSPropertyOp32
 70
     1
102
RTVSPropertyOp33
 70
     1
102
RTVSPropertyOp34
 70
     1
102
RTVSPropertyOp35
 70
     1
102
RTVSPropertyOp36
 70
     1
102
RTVSPropertyOp37
 70
     0
102
RTVSPropertyOp38
 70
     0
102
RTVSPropertyOp39
 70
     0
102
RTVSPropertyOp40
 70
     0
102
RTVSPropertyOp41
 70
     0
102
RTVSPropertyOp42
 70
     0
102
RTVSPropertyOp43
 70
     0
102
RTVSPropertyOp44
 70
     0
102
RTVSPropertyOp45
 70
     1
102
RTVSPropertyOp46
 70
     0
102
RTVSPropertyOp47
 70
     0
102
RTVSPropertyOp48
 70
     0
102
RTVSPropertyOp49
 70
     1
102
RTVSPropertyOp50
 70
     0
102
RTVSPropertyOp51
 70
     0
102
RTVSPropertyOp52
 70
     0
102
RTVSPropertyOp53
 70
     0
102
RTVSPropertyOp54
 70
     0
102
RTVSPropertyOp55
 70
     1
102
RTVSPropertyOp56
 70
     0
102
RTVSPropertyOp57
 70
     0
102
RTVSPropertyOp58
 70
     0
102
RTVSPropertyOp59
 70
     0
102
RTVSPropertyOp60
 70
     0
102
RTVSPropertyOp61
 70
     0
102
RTVSPropertyOp62
 70
     0
  0
XRECORD
  5
98E9
102
{ACAD_REACTORS
330
98E8
102
}
330
98E8
100
AcDbXrecord
280
     1
102
RTVSPost2010Prop28
280
     0
102
RTVSPost2010PropOp28
 70
     1
102
RTVSPost2010Prop29
280
     1
102
RTVSPost2010PropOp29
 70
     1
102
RTVSPost2010Prop30
280
     1
102
RTVSPost2010PropOp30
 70
     1
102
RTVSPost2010Prop31
280
     0
102
RTVSPost2010PropOp31
 70
     1
102
RTVSPost2010Prop32
280
     0
102
RTVSPost2010PropOp32
 70
     1
102
RTVSPost2010Prop33
280
     0
102
RTVSPost2010PropOp33
 70
     1
102
RTVSPost2010Prop34
280
     0
102
RTVSPost2010PropOp34
 70
     1
102
RTVSPost2010Prop35
280
     0
102
RTVSPost2010PropOp35
 70
     1
102
RTVSPost2010Prop36
280
     0
102
RTVSPost2010PropOp36
 70
     1
102
RTVSPost2010Prop37
 90
       50
102
RTVSPost2010PropOp37
 70
     1
102
RTVSPost2010Prop38
140
0.0
102
RTVSPost2010PropOp38
 70
     1
102
RTVSPost2010Prop39
140
1.0
102
RTVSPost2010PropOp39
 70
     1
102
RTVSPost2010Prop40
 90
        0
102
RTVSPost2010PropOp40
 70
     1
102
RTVSPost2010Prop41ColorIndex
 90
       18
102
RTVSPost2010Prop41ColorRGB
 90
        0
102
RTVSPost2010PropOp41
 70
     1
102
RTVSPost2010Prop42
 90
       50
102
RTVSPost2010PropOp42
 70
     1
102
RTVSPost2010Prop43
 90
        3
102
RTVSPost2010PropOp43
 70
     1
102
RTVSPost2010Prop44ColorIndex
 90
        5
102
RTVSPost2010Prop44ColorRGB
 90
      255
102
RTVSPost2010PropOp44
 70
     1
102
RTVSPost2010Prop45
280
     0
102
RTVSPost2010PropOp45
 70
     1
102
RTVSPost2010Prop46
 90
       50
102
RTVSPost2010PropOp46
 70
     1
102
RTVSPost2010Prop47
 90
       50
102
RTVSPost2010PropOp47
 70
     1
102
RTVSPost2010Prop48
 90
       50
102
RTVSPost2010PropOp48
 70
     1
102
RTVSPost2010Prop49
280
     0
102
RTVSPost2010PropOp49
 70
     1
102
RTVSPost2010Prop50
 90
       50
102
RTVSPost2010PropOp50
 70
     1
102
RTVSPost2010Prop51ColorIndex
 90
      256
102
RTVSPost2010Prop51ColorRGB
 90
-16777216
102
RTVSPost2010PropOp51
 70
     0
102
RTVSPost2010Prop52
140
1.0
102
RTVSPost2010PropOp52
 70
     0
102
RTVSPost2010Prop53
 90
        2
102
RTVSPost2010PropOp53
 70
     1
102
RTVSPost2010Prop54
  1
strokes_ogs.tif
102
RTVSPost2010PropOp54
 70
     1
102
RTVSPost2010Prop55
280
     0
102
RTVSPost2010PropOp55
 70
     1
102
RTVSPost2010Prop56
140
1.0
102
RTVSPost2010PropOp56
 70
     1
102
RTVSPost2010Prop57
140
1.0
102
RTVSPost2010PropOp57
 70
     1
102
RTVSPropertyOp0
 70
     1
102
RTVSPropertyOp1
 70
     1
102
RTVSPropertyOp2
 70
     1
102
RTVSPropertyOp3
 70
     1
102
RTVSPropertyOp4
 70
     1
102
RTVSPropertyOp5
 70
     1
102
RTVSPropertyOp6
 70
     1
102
RTVSPropertyOp7
 70
     1
102
RTVSPropertyOp8
 70
     1
102
RTVSPropertyOp9
 70
     1
102
RTVSPropertyOp10
 70
     1
102
RTVSPropertyOp11
 70
     1
102
RTVSPropertyOp12
 70
     1
102
RTVSPropertyOp13
 70
     1
102
RTVSPropertyOp14
 70
     1
102
RTVSPropertyOp15
 70
     1
102
RTVSPropertyOp16
 70
     1
102
RTVSPropertyOp17
 70
     1
102
RTVSPropertyOp18
 70
     1
102
RTVSPropertyOp19
 70
     1
102
RTVSPropertyOp20
 70
     1
102
RTVSPropertyOp21
 70
     1
102
RTVSPropertyOp22
 70
     1
102
RTVSPropertyOp23
 70
     1
102
RTVSPropertyOp24
 70
     1
102
RTVSPropertyOp25
 70
     1
102
RTVSPropertyOp26
 70
     1
102
RTVSPropertyOp27
 70
     1
102
RTVSPropertyOp28
 70
     1
102
RTVSPropertyOp29
 70
     1
102
RTVSPropertyOp30
 70
     1
102
RTVSPropertyOp31
 70
     1
102
RTVSPropertyOp32
 70
     1
102
RTVSPropertyOp33
 70
     1
102
RTVSPropertyOp34
 70
     1
102
RTVSPropertyOp35
 70
     1
102
RTVSPropertyOp36
 70
     1
102
RTVSPropertyOp37
 70
     1
102
RTVSPropertyOp38
 70
     1
102
RTVSPropertyOp39
 70
     1
102
RTVSPropertyOp40
 70
     1
102
RTVSPropertyOp41
 70
     1
102
RTVSPropertyOp42
 70
     1
102
RTVSPropertyOp43
 70
     1
102
RTVSPropertyOp44
 70
     1
102
RTVSPropertyOp45
 70
     1
102
RTVSPropertyOp46
 70
     1
102
RTVSPropertyOp47
 70
     1
102
RTVSPropertyOp48
 70
     1
102
RTVSPropertyOp49
 70
     1
102
RTVSPropertyOp50
 70
     1
102
RTVSPropertyOp51
 70
     0
102
RTVSPropertyOp52
 70
     0
102
RTVSPropertyOp53
 70
     1
102
RTVSPropertyOp54
 70
     1
102
RTVSPropertyOp55
 70
     1
102
RTVSPropertyOp56
 70
     1
102
RTVSPropertyOp57
 70
     1
102
RTVSPropertyOp58
 70
     1
102
RTVSPropertyOp59
 70
     1
102
RTVSPropertyOp60
 70
     1
102
RTVSPropertyOp61
 70
     1
102
RTVSPropertyOp62
 70
     1
  0
XRECORD
  5
98FF
102
{ACAD_REACTORS
330
98FE
102
}
330
98FE
100
AcDbXrecord
280
     1
102
RTVSPost2010Prop28
280
     0
102
RTVSPost2010PropOp28
 70
     1
102
RTVSPost2010Prop29
280
     1
102
RTVSPost2010PropOp29
 70
     1
102
RTVSPost2010Prop30
280
     1
102
RTVSPost2010PropOp30
 70
     1
102
RTVSPost2010Prop31
280
     0
102
RTVSPost2010PropOp31
 70
     1
102
RTVSPost2010Prop32
280
     0
102
RTVSPost2010PropOp32
 70
     1
102
RTVSPost2010Prop33
280
     0
102
RTVSPost2010PropOp33
 70
     1
102
RTVSPost2010Prop34
280
     0
102
RTVSPost2010PropOp34
 70
     1
102
RTVSPost2010Prop35
280
     0
102
RTVSPost2010PropOp35
 70
     1
102
RTVSPost2010Prop36
280
     0
102
RTVSPost2010PropOp36
 70
     1
102
RTVSPost2010Prop37
 90
       50
102
RTVSPost2010PropOp37
 70
     1
102
RTVSPost2010Prop38
140
0.0
102
RTVSPost2010PropOp38
 70
     1
102
RTVSPost2010Prop39
140
1.0
102
RTVSPost2010PropOp39
 70
     1
102
RTVSPost2010Prop40
 90
        0
102
RTVSPost2010PropOp40
 70
     1
102
RTVSPost2010Prop41ColorIndex
 90
       18
102
RTVSPost2010Prop41ColorRGB
 90
        0
102
RTVSPost2010PropOp41
 70
     1
102
RTVSPost2010Prop42
 90
       50
102
RTVSPost2010PropOp42
 70
     1
102
RTVSPost2010Prop43
 90
        3
102
RTVSPost2010PropOp43
 70
     1
102
RTVSPost2010Prop44ColorIndex
 90
        5
102
RTVSPost2010Prop44ColorRGB
 90
      255
102
RTVSPost2010PropOp44
 70
     1
102
RTVSPost2010Prop45
280
     0
102
RTVSPost2010PropOp45
 70
     1
102
RTVSPost2010Prop46
 90
       50
102
RTVSPost2010PropOp46
 70
     1
102
RTVSPost2010Prop47
 90
       50
102
RTVSPost2010PropOp47
 70
     1
102
RTVSPost2010Prop48
 90
       50
102
RTVSPost2010PropOp48
 70
     1
102
RTVSPost2010Prop49
280
     0
102
RTVSPost2010PropOp49
 70
     1
102
RTVSPost2010Prop50
 90
       50
102
RTVSPost2010PropOp50
 70
     1
102
RTVSPost2010Prop51ColorIndex
 90
      256
102
RTVSPost2010Prop51ColorRGB
 90
-16777216
102
RTVSPost2010PropOp51
 70
     0
102
RTVSPost2010Prop52
140
1.0
102
RTVSPost2010PropOp52
 70
     0
102
RTVSPost2010Prop53
 90
        2
102
RTVSPost2010PropOp53
 70
     1
102
RTVSPost2010Prop54
  1
strokes_ogs.tif
102
RTVSPost2010PropOp54
 70
     1
102
RTVSPost2010Prop55
280
     0
102
RTVSPost2010PropOp55
 70
     1
102
RTVSPost2010Prop56
140
1.0
102
RTVSPost2010PropOp56
 70
     1
102
RTVSPost2010Prop57
140
1.0
102
RTVSPost2010PropOp57
 70
     1
102
RTVSPropertyOp0
 70
     1
102
RTVSPropertyOp1
 70
     1
102
RTVSPropertyOp2
 70
     1
102
RTVSPropertyOp3
 70
     1
102
RTVSPropertyOp4
 70
     1
102
RTVSPropertyOp5
 70
     1
102
RTVSPropertyOp6
 70
     1
102
RTVSPropertyOp7
 70
     1
102
RTVSPropertyOp8
 70
     1
102
RTVSPropertyOp9
 70
     1
102
RTVSPropertyOp10
 70
     1
102
RTVSPropertyOp11
 70
     1
102
RTVSPropertyOp12
 70
     1
102
RTVSPropertyOp13
 70
     1
102
RTVSPropertyOp14
 70
     1
102
RTVSPropertyOp15
 70
     1
102
RTVSPropertyOp16
 70
     1
102
RTVSPropertyOp17
 70
     1
102
RTVSPropertyOp18
 70
     1
102
RTVSPropertyOp19
 70
     1
102
RTVSPropertyOp20
 70
     1
102
RTVSPropertyOp21
 70
     1
102
RTVSPropertyOp22
 70
     1
102
RTVSPropertyOp23
 70
     1
102
RTVSPropertyOp24
 70
     1
102
RTVSPropertyOp25
 70
     1
102
RTVSPropertyOp26
 70
     1
102
RTVSPropertyOp27
 70
     1
102
RTVSPropertyOp28
 70
     1
102
RTVSPropertyOp29
 70
     1
102
RTVSPropertyOp30
 70
     1
102
RTVSPropertyOp31
 70
     1
102
RTVSPropertyOp32
 70
     1
102
RTVSPropertyOp33
 70
     1
102
RTVSPropertyOp34
 70
     1
102
RTVSPropertyOp35
 70
     1
102
RTVSPropertyOp36
 70
     1
102
RTVSPropertyOp37
 70
     1
102
RTVSPropertyOp38
 70
     1
102
RTVSPropertyOp39
 70
     1
102
RTVSPropertyOp40
 70
     1
102
RTVSPropertyOp41
 70
     1
102
RTVSPropertyOp42
 70
     1
102
RTVSPropertyOp43
 70
     1
102
RTVSPropertyOp44
 70
     1
102
RTVSPropertyOp45
 70
     1
102
RTVSPropertyOp46
 70
     1
102
RTVSPropertyOp47
 70
     1
102
RTVSPropertyOp48
 70
     1
102
RTVSPropertyOp49
 70
     1
102
RTVSPropertyOp50
 70
     1
102
RTVSPropertyOp51
 70
     0
102
RTVSPropertyOp52
 70
     0
102
RTVSPropertyOp53
 70
     1
102
RTVSPropertyOp54
 70
     1
102
RTVSPropertyOp55
 70
     1
102
RTVSPropertyOp56
 70
     1
102
RTVSPropertyOp57
 70
     1
102
RTVSPropertyOp58
 70
     1
102
RTVSPropertyOp59
 70
     1
102
RTVSPropertyOp60
 70
     1
102
RTVSPropertyOp61
 70
     1
102
RTVSPropertyOp62
 70
     1
  0
XRECORD
  5
98FD
102
{ACAD_REACTORS
330
98FC
102
}
330
98FC
100
AcDbXrecord
280
     1
102
RTVSPost2010Prop28
280
     0
102
RTVSPost2010PropOp28
 70
     1
102
RTVSPost2010Prop29
280
     1
102
RTVSPost2010PropOp29
 70
     1
102
RTVSPost2010Prop30
280
     1
102
RTVSPost2010PropOp30
 70
     1
102
RTVSPost2010Prop31
280
     0
102
RTVSPost2010PropOp31
 70
     1
102
RTVSPost2010Prop32
280
     0
102
RTVSPost2010PropOp32
 70
     1
102
RTVSPost2010Prop33
280
     0
102
RTVSPost2010PropOp33
 70
     1
102
RTVSPost2010Prop34
280
     0
102
RTVSPost2010PropOp34
 70
     1
102
RTVSPost2010Prop35
280
     0
102
RTVSPost2010PropOp35
 70
     1
102
RTVSPost2010Prop36
280
     0
102
RTVSPost2010PropOp36
 70
     1
102
RTVSPost2010Prop37
 90
       50
102
RTVSPost2010PropOp37
 70
     1
102
RTVSPost2010Prop38
140
0.0
102
RTVSPost2010PropOp38
 70
     1
102
RTVSPost2010Prop39
140
1.0
102
RTVSPost2010PropOp39
 70
     1
102
RTVSPost2010Prop40
 90
        0
102
RTVSPost2010PropOp40
 70
     1
102
RTVSPost2010Prop41ColorIndex
 90
       18
102
RTVSPost2010Prop41ColorRGB
 90
        0
102
RTVSPost2010PropOp41
 70
     1
102
RTVSPost2010Prop42
 90
       50
102
RTVSPost2010PropOp42
 70
     1
102
RTVSPost2010Prop43
 90
        3
102
RTVSPost2010PropOp43
 70
     1
102
RTVSPost2010Prop44ColorIndex
 90
        5
102
RTVSPost2010Prop44ColorRGB
 90
      255
102
RTVSPost2010PropOp44
 70
     1
102
RTVSPost2010Prop45
280
     0
102
RTVSPost2010PropOp45
 70
     1
102
RTVSPost2010Prop46
 90
       50
102
RTVSPost2010PropOp46
 70
     1
102
RTVSPost2010Prop47
 90
       50
102
RTVSPost2010PropOp47
 70
     1
102
RTVSPost2010Prop48
 90
       50
102
RTVSPost2010PropOp48
 70
     1
102
RTVSPost2010Prop49
280
     0
102
RTVSPost2010PropOp49
 70
     1
102
RTVSPost2010Prop50
 90
       50
102
RTVSPost2010PropOp50
 70
     1
102
RTVSPost2010Prop51ColorIndex
 90
      256
102
RTVSPost2010Prop51ColorRGB
 90
-16777216
102
RTVSPost2010PropOp51
 70
     0
102
RTVSPost2010Prop52
140
1.0
102
RTVSPost2010PropOp52
 70
     0
102
RTVSPost2010Prop53
 90
        2
102
RTVSPost2010PropOp53
 70
     1
102
RTVSPost2010Prop54
  1
strokes_ogs.tif
102
RTVSPost2010PropOp54
 70
     1
102
RTVSPost2010Prop55
280
     0
102
RTVSPost2010PropOp55
 70
     1
102
RTVSPost2010Prop56
140
1.0
102
RTVSPost2010PropOp56
 70
     1
102
RTVSPost2010Prop57
140
1.0
102
RTVSPost2010PropOp57
 70
     1
102
RTVSPropertyOp0
 70
     1
102
RTVSPropertyOp1
 70
     1
102
RTVSPropertyOp2
 70
     1
102
RTVSPropertyOp3
 70
     1
102
RTVSPropertyOp4
 70
     1
102
RTVSPropertyOp5
 70
     1
102
RTVSPropertyOp6
 70
     1
102
RTVSPropertyOp7
 70
     1
102
RTVSPropertyOp8
 70
     1
102
RTVSPropertyOp9
 70
     1
102
RTVSPropertyOp10
 70
     1
102
RTVSPropertyOp11
 70
     1
102
RTVSPropertyOp12
 70
     1
102
RTVSPropertyOp13
 70
     1
102
RTVSPropertyOp14
 70
     1
102
RTVSPropertyOp15
 70
     1
102
RTVSPropertyOp16
 70
     1
102
RTVSPropertyOp17
 70
     1
102
RTVSPropertyOp18
 70
     1
102
RTVSPropertyOp19
 70
     1
102
RTVSPropertyOp20
 70
     1
102
RTVSPropertyOp21
 70
     1
102
RTVSPropertyOp22
 70
     1
102
RTVSPropertyOp23
 70
     1
102
RTVSPropertyOp24
 70
     1
102
RTVSPropertyOp25
 70
     1
102
RTVSPropertyOp26
 70
     1
102
RTVSPropertyOp27
 70
     1
102
RTVSPropertyOp28
 70
     1
102
RTVSPropertyOp29
 70
     1
102
RTVSPropertyOp30
 70
     1
102
RTVSPropertyOp31
 70
     1
102
RTVSPropertyOp32
 70
     1
102
RTVSPropertyOp33
 70
     1
102
RTVSPropertyOp34
 70
     1
102
RTVSPropertyOp35
 70
     1
102
RTVSPropertyOp36
 70
     1
102
RTVSPropertyOp37
 70
     1
102
RTVSPropertyOp38
 70
     1
102
RTVSPropertyOp39
 70
     1
102
RTVSPropertyOp40
 70
     1
102
RTVSPropertyOp41
 70
     1
102
RTVSPropertyOp42
 70
     1
102
RTVSPropertyOp43
 70
     1
102
RTVSPropertyOp44
 70
     1
102
RTVSPropertyOp45
 70
     1
102
RTVSPropertyOp46
 70
     1
102
RTVSPropertyOp47
 70
     1
102
RTVSPropertyOp48
 70
     1
102
RTVSPropertyOp49
 70
     1
102
RTVSPropertyOp50
 70
     1
102
RTVSPropertyOp51
 70
     0
102
RTVSPropertyOp52
 70
     0
102
RTVSPropertyOp53
 70
     1
102
RTVSPropertyOp54
 70
     1
102
RTVSPropertyOp55
 70
     1
102
RTVSPropertyOp56
 70
     1
102
RTVSPropertyOp57
 70
     1
102
RTVSPropertyOp58
 70
     1
102
RTVSPropertyOp59
 70
     1
102
RTVSPropertyOp60
 70
     1
102
RTVSPropertyOp61
 70
     1
102
RTVSPropertyOp62
 70
     1
  0
XRECORD
  5
98F7
102
{ACAD_REACTORS
330
98F6
102
}
330
98F6
100
AcDbXrecord
280
     1
102
RTVSPost2010Prop28
280
     0
102
RTVSPost2010PropOp28
 70
     1
102
RTVSPost2010Prop29
280
     1
102
RTVSPost2010PropOp29
 70
     1
102
RTVSPost2010Prop30
280
     1
102
RTVSPost2010PropOp30
 70
     1
102
RTVSPost2010Prop31
280
     0
102
RTVSPost2010PropOp31
 70
     1
102
RTVSPost2010Prop32
280
     0
102
RTVSPost2010PropOp32
 70
     1
102
RTVSPost2010Prop33
280
     0
102
RTVSPost2010PropOp33
 70
     1
102
RTVSPost2010Prop34
280
     0
102
RTVSPost2010PropOp34
 70
     1
102
RTVSPost2010Prop35
280
     0
102
RTVSPost2010PropOp35
 70
     1
102
RTVSPost2010Prop36
280
     0
102
RTVSPost2010PropOp36
 70
     1
102
RTVSPost2010Prop37
 90
       50
102
RTVSPost2010PropOp37
 70
     1
102
RTVSPost2010Prop38
140
0.0
102
RTVSPost2010PropOp38
 70
     1
102
RTVSPost2010Prop39
140
1.0
102
RTVSPost2010PropOp39
 70
     1
102
RTVSPost2010Prop40
 90
        0
102
RTVSPost2010PropOp40
 70
     1
102
RTVSPost2010Prop41ColorIndex
 90
       18
102
RTVSPost2010Prop41ColorRGB
 90
        0
102
RTVSPost2010PropOp41
 70
     1
102
RTVSPost2010Prop42
 90
       50
102
RTVSPost2010PropOp42
 70
     1
102
RTVSPost2010Prop43
 90
        3
102
RTVSPost2010PropOp43
 70
     1
102
RTVSPost2010Prop44ColorIndex
 90
        5
102
RTVSPost2010Prop44ColorRGB
 90
      255
102
RTVSPost2010PropOp44
 70
     1
102
RTVSPost2010Prop45
280
     0
102
RTVSPost2010PropOp45
 70
     1
102
RTVSPost2010Prop46
 90
       50
102
RTVSPost2010PropOp46
 70
     1
102
RTVSPost2010Prop47
 90
       50
102
RTVSPost2010PropOp47
 70
     1
102
RTVSPost2010Prop48
 90
       50
102
RTVSPost2010PropOp48
 70
     1
102
RTVSPost2010Prop49
280
     0
102
RTVSPost2010PropOp49
 70
     1
102
RTVSPost2010Prop50
 90
       50
102
RTVSPost2010PropOp50
 70
     1
102
RTVSPost2010Prop51ColorIndex
 90
      256
102
RTVSPost2010Prop51ColorRGB
 90
-16777216
102
RTVSPost2010PropOp51
 70
     0
102
RTVSPost2010Prop52
140
1.0
102
RTVSPost2010PropOp52
 70
     0
102
RTVSPost2010Prop53
 90
        2
102
RTVSPost2010PropOp53
 70
     1
102
RTVSPost2010Prop54
  1
strokes_ogs.tif
102
RTVSPost2010PropOp54
 70
     1
102
RTVSPost2010Prop55
280
     0
102
RTVSPost2010PropOp55
 70
     1
102
RTVSPost2010Prop56
140
1.0
102
RTVSPost2010PropOp56
 70
     1
102
RTVSPost2010Prop57
140
1.0
102
RTVSPost2010PropOp57
 70
     1
102
RTVSPropertyOp0
 70
     1
102
RTVSPropertyOp1
 70
     1
102
RTVSPropertyOp2
 70
     1
102
RTVSPropertyOp3
 70
     1
102
RTVSPropertyOp4
 70
     1
102
RTVSPropertyOp5
 70
     1
102
RTVSPropertyOp6
 70
     1
102
RTVSPropertyOp7
 70
     1
102
RTVSPropertyOp8
 70
     1
102
RTVSPropertyOp9
 70
     1
102
RTVSPropertyOp10
 70
     1
102
RTVSPropertyOp11
 70
     1
102
RTVSPropertyOp12
 70
     1
102
RTVSPropertyOp13
 70
     1
102
RTVSPropertyOp14
 70
     1
102
RTVSPropertyOp15
 70
     1
102
RTVSPropertyOp16
 70
     1
102
RTVSPropertyOp17
 70
     1
102
RTVSPropertyOp18
 70
     1
102
RTVSPropertyOp19
 70
     1
102
RTVSPropertyOp20
 70
     1
102
RTVSPropertyOp21
 70
     1
102
RTVSPropertyOp22
 70
     1
102
RTVSPropertyOp23
 70
     1
102
RTVSPropertyOp24
 70
     1
102
RTVSPropertyOp25
 70
     1
102
RTVSPropertyOp26
 70
     1
102
RTVSPropertyOp27
 70
     1
102
RTVSPropertyOp28
 70
     1
102
RTVSPropertyOp29
 70
     1
102
RTVSPropertyOp30
 70
     1
102
RTVSPropertyOp31
 70
     1
102
RTVSPropertyOp32
 70
     1
102
RTVSPropertyOp33
 70
     1
102
RTVSPropertyOp34
 70
     1
102
RTVSPropertyOp35
 70
     1
102
RTVSPropertyOp36
 70
     1
102
RTVSPropertyOp37
 70
     1
102
RTVSPropertyOp38
 70
     1
102
RTVSPropertyOp39
 70
     1
102
RTVSPropertyOp40
 70
     1
102
RTVSPropertyOp41
 70
     1
102
RTVSPropertyOp42
 70
     1
102
RTVSPropertyOp43
 70
     1
102
RTVSPropertyOp44
 70
     1
102
RTVSPropertyOp45
 70
     1
102
RTVSPropertyOp46
 70
     1
102
RTVSPropertyOp47
 70
     1
102
RTVSPropertyOp48
 70
     1
102
RTVSPropertyOp49
 70
     1
102
RTVSPropertyOp50
 70
     1
102
RTVSPropertyOp51
 70
     0
102
RTVSPropertyOp52
 70
     0
102
RTVSPropertyOp53
 70
     1
102
RTVSPropertyOp54
 70
     1
102
RTVSPropertyOp55
 70
     1
102
RTVSPropertyOp56
 70
     1
102
RTVSPropertyOp57
 70
     1
102
RTVSPropertyOp58
 70
     1
102
RTVSPropertyOp59
 70
     1
102
RTVSPropertyOp60
 70
     1
102
RTVSPropertyOp61
 70
     1
102
RTVSPropertyOp62
 70
     1
  0
XRECORD
  5
98F9
102
{ACAD_REACTORS
330
98F8
102
}
330
98F8
100
AcDbXrecord
280
     1
102
RTVSPost2010Prop28
280
     0
102
RTVSPost2010PropOp28
 70
     1
102
RTVSPost2010Prop29
280
     1
102
RTVSPost2010PropOp29
 70
     1
102
RTVSPost2010Prop30
280
     1
102
RTVSPost2010PropOp30
 70
     1
102
RTVSPost2010Prop31
280
     0
102
RTVSPost2010PropOp31
 70
     1
102
RTVSPost2010Prop32
280
     0
102
RTVSPost2010PropOp32
 70
     1
102
RTVSPost2010Prop33
280
     0
102
RTVSPost2010PropOp33
 70
     1
102
RTVSPost2010Prop34
280
     0
102
RTVSPost2010PropOp34
 70
     1
102
RTVSPost2010Prop35
280
     0
102
RTVSPost2010PropOp35
 70
     1
102
RTVSPost2010Prop36
280
     0
102
RTVSPost2010PropOp36
 70
     1
102
RTVSPost2010Prop37
 90
       50
102
RTVSPost2010PropOp37
 70
     1
102
RTVSPost2010Prop38
140
0.0
102
RTVSPost2010PropOp38
 70
     1
102
RTVSPost2010Prop39
140
1.0
102
RTVSPost2010PropOp39
 70
     1
102
RTVSPost2010Prop40
 90
        0
102
RTVSPost2010PropOp40
 70
     1
102
RTVSPost2010Prop41ColorIndex
 90
       18
102
RTVSPost2010Prop41ColorRGB
 90
        0
102
RTVSPost2010PropOp41
 70
     1
102
RTVSPost2010Prop42
 90
       50
102
RTVSPost2010PropOp42
 70
     1
102
RTVSPost2010Prop43
 90
        3
102
RTVSPost2010PropOp43
 70
     1
102
RTVSPost2010Prop44ColorIndex
 90
        5
102
RTVSPost2010Prop44ColorRGB
 90
      255
102
RTVSPost2010PropOp44
 70
     1
102
RTVSPost2010Prop45
280
     0
102
RTVSPost2010PropOp45
 70
     1
102
RTVSPost2010Prop46
 90
       50
102
RTVSPost2010PropOp46
 70
     1
102
RTVSPost2010Prop47
 90
       50
102
RTVSPost2010PropOp47
 70
     1
102
RTVSPost2010Prop48
 90
       50
102
RTVSPost2010PropOp48
 70
     1
102
RTVSPost2010Prop49
280
     0
102
RTVSPost2010PropOp49
 70
     1
102
RTVSPost2010Prop50
 90
       50
102
RTVSPost2010PropOp50
 70
     1
102
RTVSPost2010Prop51ColorIndex
 90
      256
102
RTVSPost2010Prop51ColorRGB
 90
-16777216
102
RTVSPost2010PropOp51
 70
     0
102
RTVSPost2010Prop52
140
1.0
102
RTVSPost2010PropOp52
 70
     0
102
RTVSPost2010Prop53
 90
        2
102
RTVSPost2010PropOp53
 70
     1
102
RTVSPost2010Prop54
  1
strokes_ogs.tif
102
RTVSPost2010PropOp54
 70
     1
102
RTVSPost2010Prop55
280
     0
102
RTVSPost2010PropOp55
 70
     1
102
RTVSPost2010Prop56
140
1.0
102
RTVSPost2010PropOp56
 70
     1
102
RTVSPost2010Prop57
140
1.0
102
RTVSPost2010PropOp57
 70
     1
102
RTVSPropertyOp0
 70
     1
102
RTVSPropertyOp1
 70
     1
102
RTVSPropertyOp2
 70
     1
102
RTVSPropertyOp3
 70
     1
102
RTVSPropertyOp4
 70
     1
102
RTVSPropertyOp5
 70
     1
102
RTVSPropertyOp6
 70
     1
102
RTVSPropertyOp7
 70
     1
102
RTVSPropertyOp8
 70
     1
102
RTVSPropertyOp9
 70
     1
102
RTVSPropertyOp10
 70
     1
102
RTVSPropertyOp11
 70
     1
102
RTVSPropertyOp12
 70
     1
102
RTVSPropertyOp13
 70
     1
102
RTVSPropertyOp14
 70
     1
102
RTVSPropertyOp15
 70
     1
102
RTVSPropertyOp16
 70
     1
102
RTVSPropertyOp17
 70
     1
102
RTVSPropertyOp18
 70
     1
102
RTVSPropertyOp19
 70
     1
102
RTVSPropertyOp20
 70
     1
102
RTVSPropertyOp21
 70
     1
102
RTVSPropertyOp22
 70
     1
102
RTVSPropertyOp23
 70
     1
102
RTVSPropertyOp24
 70
     1
102
RTVSPropertyOp25
 70
     1
102
RTVSPropertyOp26
 70
     1
102
RTVSPropertyOp27
 70
     1
102
RTVSPropertyOp28
 70
     1
102
RTVSPropertyOp29
 70
     1
102
RTVSPropertyOp30
 70
     1
102
RTVSPropertyOp31
 70
     1
102
RTVSPropertyOp32
 70
     1
102
RTVSPropertyOp33
 70
     1
102
RTVSPropertyOp34
 70
     1
102
RTVSPropertyOp35
 70
     1
102
RTVSPropertyOp36
 70
     1
102
RTVSPropertyOp37
 70
     1
102
RTVSPropertyOp38
 70
     1
102
RTVSPropertyOp39
 70
     1
102
RTVSPropertyOp40
 70
     1
102
RTVSPropertyOp41
 70
     1
102
RTVSPropertyOp42
 70
     1
102
RTVSPropertyOp43
 70
     1
102
RTVSPropertyOp44
 70
     1
102
RTVSPropertyOp45
 70
     1
102
RTVSPropertyOp46
 70
     1
102
RTVSPropertyOp47
 70
     1
102
RTVSPropertyOp48
 70
     1
102
RTVSPropertyOp49
 70
     1
102
RTVSPropertyOp50
 70
     1
102
RTVSPropertyOp51
 70
     0
102
RTVSPropertyOp52
 70
     0
102
RTVSPropertyOp53
 70
     1
102
RTVSPropertyOp54
 70
     1
102
RTVSPropertyOp55
 70
     1
102
RTVSPropertyOp56
 70
     1
102
RTVSPropertyOp57
 70
     1
102
RTVSPropertyOp58
 70
     1
102
RTVSPropertyOp59
 70
     1
102
RTVSPropertyOp60
 70
     1
102
RTVSPropertyOp61
 70
     1
102
RTVSPropertyOp62
 70
     1
  0
XRECORD
  5
98EF
102
{ACAD_REACTORS
330
98EE
102
}
330
98EE
100
AcDbXrecord
280
     1
102
RTVSPost2010Prop28
280
     0
102
RTVSPost2010PropOp28
 70
     1
102
RTVSPost2010Prop29
280
     1
102
RTVSPost2010PropOp29
 70
     1
102
RTVSPost2010Prop30
280
     1
102
RTVSPost2010PropOp30
 70
     1
102
RTVSPost2010Prop31
280
     0
102
RTVSPost2010PropOp31
 70
     1
102
RTVSPost2010Prop32
280
     0
102
RTVSPost2010PropOp32
 70
     1
102
RTVSPost2010Prop33
280
     0
102
RTVSPost2010PropOp33
 70
     1
102
RTVSPost2010Prop34
280
     0
102
RTVSPost2010PropOp34
 70
     1
102
RTVSPost2010Prop35
280
     0
102
RTVSPost2010PropOp35
 70
     1
102
RTVSPost2010Prop36
280
     0
102
RTVSPost2010PropOp36
 70
     1
102
RTVSPost2010Prop37
 90
       50
102
RTVSPost2010PropOp37
 70
     1
102
RTVSPost2010Prop38
140
0.0
102
RTVSPost2010PropOp38
 70
     1
102
RTVSPost2010Prop39
140
1.0
102
RTVSPost2010PropOp39
 70
     1
102
RTVSPost2010Prop40
 90
        0
102
RTVSPost2010PropOp40
 70
     1
102
RTVSPost2010Prop41ColorIndex
 90
       18
102
RTVSPost2010Prop41ColorRGB
 90
        0
102
RTVSPost2010PropOp41
 70
     1
102
RTVSPost2010Prop42
 90
       50
102
RTVSPost2010PropOp42
 70
     1
102
RTVSPost2010Prop43
 90
        3
102
RTVSPost2010PropOp43
 70
     1
102
RTVSPost2010Prop44ColorIndex
 90
        5
102
RTVSPost2010Prop44ColorRGB
 90
      255
102
RTVSPost2010PropOp44
 70
     1
102
RTVSPost2010Prop45
280
     0
102
RTVSPost2010PropOp45
 70
     1
102
RTVSPost2010Prop46
 90
       50
102
RTVSPost2010PropOp46
 70
     1
102
RTVSPost2010Prop47
 90
       50
102
RTVSPost2010PropOp47
 70
     1
102
RTVSPost2010Prop48
 90
       50
102
RTVSPost2010PropOp48
 70
     1
102
RTVSPost2010Prop49
280
     0
102
RTVSPost2010PropOp49
 70
     1
102
RTVSPost2010Prop50
 90
       50
102
RTVSPost2010PropOp50
 70
     1
102
RTVSPost2010Prop51ColorIndex
 90
      256
102
RTVSPost2010Prop51ColorRGB
 90
-16777216
102
RTVSPost2010PropOp51
 70
     0
102
RTVSPost2010Prop52
140
1.0
102
RTVSPost2010PropOp52
 70
     0
102
RTVSPost2010Prop53
 90
        2
102
RTVSPost2010PropOp53
 70
     1
102
RTVSPost2010Prop54
  1
strokes_ogs.tif
102
RTVSPost2010PropOp54
 70
     1
102
RTVSPost2010Prop55
280
     0
102
RTVSPost2010PropOp55
 70
     1
102
RTVSPost2010Prop56
140
1.0
102
RTVSPost2010PropOp56
 70
     1
102
RTVSPost2010Prop57
140
1.0
102
RTVSPost2010PropOp57
 70
     1
102
RTVSPropertyOp0
 70
     1
102
RTVSPropertyOp1
 70
     1
102
RTVSPropertyOp2
 70
     1
102
RTVSPropertyOp3
 70
     1
102
RTVSPropertyOp4
 70
     1
102
RTVSPropertyOp5
 70
     1
102
RTVSPropertyOp6
 70
     1
102
RTVSPropertyOp7
 70
     1
102
RTVSPropertyOp8
 70
     1
102
RTVSPropertyOp9
 70
     1
102
RTVSPropertyOp10
 70
     1
102
RTVSPropertyOp11
 70
     1
102
RTVSPropertyOp12
 70
     1
102
RTVSPropertyOp13
 70
     1
102
RTVSPropertyOp14
 70
     1
102
RTVSPropertyOp15
 70
     1
102
RTVSPropertyOp16
 70
     1
102
RTVSPropertyOp17
 70
     1
102
RTVSPropertyOp18
 70
     1
102
RTVSPropertyOp19
 70
     1
102
RTVSPropertyOp20
 70
     1
102
RTVSPropertyOp21
 70
     1
102
RTVSPropertyOp22
 70
     1
102
RTVSPropertyOp23
 70
     1
102
RTVSPropertyOp24
 70
     1
102
RTVSPropertyOp25
 70
     1
102
RTVSPropertyOp26
 70
     1
102
RTVSPropertyOp27
 70
     1
102
RTVSPropertyOp28
 70
     1
102
RTVSPropertyOp29
 70
     1
102
RTVSPropertyOp30
 70
     1
102
RTVSPropertyOp31
 70
     1
102
RTVSPropertyOp32
 70
     1
102
RTVSPropertyOp33
 70
     1
102
RTVSPropertyOp34
 70
     1
102
RTVSPropertyOp35
 70
     1
102
RTVSPropertyOp36
 70
     1
102
RTVSPropertyOp37
 70
     1
102
RTVSPropertyOp38
 70
     1
102
RTVSPropertyOp39
 70
     1
102
RTVSPropertyOp40
 70
     1
102
RTVSPropertyOp41
 70
     1
102
RTVSPropertyOp42
 70
     1
102
RTVSPropertyOp43
 70
     1
102
RTVSPropertyOp44
 70
     1
102
RTVSPropertyOp45
 70
     1
102
RTVSPropertyOp46
 70
     1
102
RTVSPropertyOp47
 70
     1
102
RTVSPropertyOp48
 70
     1
102
RTVSPropertyOp49
 70
     1
102
RTVSPropertyOp50
 70
     1
102
RTVSPropertyOp51
 70
     0
102
RTVSPropertyOp52
 70
     0
102
RTVSPropertyOp53
 70
     1
102
RTVSPropertyOp54
 70
     1
102
RTVSPropertyOp55
 70
     1
102
RTVSPropertyOp56
 70
     1
102
RTVSPropertyOp57
 70
     1
102
RTVSPropertyOp58
 70
     1
102
RTVSPropertyOp59
 70
     1
102
RTVSPropertyOp60
 70
     1
102
RTVSPropertyOp61
 70
     1
102
RTVSPropertyOp62
 70
     1
  0
XRECORD
  5
98E3
102
{ACAD_REACTORS
330
98E2
102
}
330
98E2
100
AcDbXrecord
280
     1
102
RTVSPost2010Prop28
280
     0
102
RTVSPost2010PropOp28
 70
     1
102
RTVSPost2010Prop29
280
     1
102
RTVSPost2010PropOp29
 70
     1
102
RTVSPost2010Prop30
280
     1
102
RTVSPost2010PropOp30
 70
     1
102
RTVSPost2010Prop31
280
     0
102
RTVSPost2010PropOp31
 70
     1
102
RTVSPost2010Prop32
280
     0
102
RTVSPost2010PropOp32
 70
     1
102
RTVSPost2010Prop33
280
     0
102
RTVSPost2010PropOp33
 70
     1
102
RTVSPost2010Prop34
280
     0
102
RTVSPost2010PropOp34
 70
     1
102
RTVSPost2010Prop35
280
     0
102
RTVSPost2010PropOp35
 70
     1
102
RTVSPost2010Prop36
280
     0
102
RTVSPost2010PropOp36
 70
     1
102
RTVSPost2010Prop37
 90
       50
102
RTVSPost2010PropOp37
 70
     1
102
RTVSPost2010Prop38
140
0.0
102
RTVSPost2010PropOp38
 70
     1
102
RTVSPost2010Prop39
140
1.0
102
RTVSPost2010PropOp39
 70
     1
102
RTVSPost2010Prop40
 90
        0
102
RTVSPost2010PropOp40
 70
     1
102
RTVSPost2010Prop41ColorIndex
 90
       18
102
RTVSPost2010Prop41ColorRGB
 90
        0
102
RTVSPost2010PropOp41
 70
     1
102
RTVSPost2010Prop42
 90
       50
102
RTVSPost2010PropOp42
 70
     1
102
RTVSPost2010Prop43
 90
        3
102
RTVSPost2010PropOp43
 70
     1
102
RTVSPost2010Prop44ColorIndex
 90
        5
102
RTVSPost2010Prop44ColorRGB
 90
      255
102
RTVSPost2010PropOp44
 70
     1
102
RTVSPost2010Prop45
280
     0
102
RTVSPost2010PropOp45
 70
     1
102
RTVSPost2010Prop46
 90
       50
102
RTVSPost2010PropOp46
 70
     1
102
RTVSPost2010Prop47
 90
       50
102
RTVSPost2010PropOp47
 70
     1
102
RTVSPost2010Prop48
 90
       50
102
RTVSPost2010PropOp48
 70
     1
102
RTVSPost2010Prop49
280
     0
102
RTVSPost2010PropOp49
 70
     1
102
RTVSPost2010Prop50
 90
       50
102
RTVSPost2010PropOp50
 70
     1
102
RTVSPost2010Prop51ColorIndex
 90
      256
102
RTVSPost2010Prop51ColorRGB
 90
-16777216
102
RTVSPost2010PropOp51
 70
     0
102
RTVSPost2010Prop52
140
1.0
102
RTVSPost2010PropOp52
 70
     0
102
RTVSPost2010Prop53
 90
        2
102
RTVSPost2010PropOp53
 70
     1
102
RTVSPost2010Prop54
  1
strokes_ogs.tif
102
RTVSPost2010PropOp54
 70
     1
102
RTVSPost2010Prop55
280
     0
102
RTVSPost2010PropOp55
 70
     1
102
RTVSPost2010Prop56
140
1.0
102
RTVSPost2010PropOp56
 70
     1
102
RTVSPost2010Prop57
140
1.0
102
RTVSPost2010PropOp57
 70
     1
102
RTVSPropertyOp0
 70
     1
102
RTVSPropertyOp1
 70
     1
102
RTVSPropertyOp2
 70
     1
102
RTVSPropertyOp3
 70
     1
102
RTVSPropertyOp4
 70
     1
102
RTVSPropertyOp5
 70
     1
102
RTVSPropertyOp6
 70
     1
102
RTVSPropertyOp7
 70
     1
102
RTVSPropertyOp8
 70
     1
102
RTVSPropertyOp9
 70
     1
102
RTVSPropertyOp10
 70
     1
102
RTVSPropertyOp11
 70
     1
102
RTVSPropertyOp12
 70
     1
102
RTVSPropertyOp13
 70
     1
102
RTVSPropertyOp14
 70
     1
102
RTVSPropertyOp15
 70
     1
102
RTVSPropertyOp16
 70
     1
102
RTVSPropertyOp17
 70
     1
102
RTVSPropertyOp18
 70
     1
102
RTVSPropertyOp19
 70
     1
102
RTVSPropertyOp20
 70
     1
102
RTVSPropertyOp21
 70
     1
102
RTVSPropertyOp22
 70
     1
102
RTVSPropertyOp23
 70
     1
102
RTVSPropertyOp24
 70
     1
102
RTVSPropertyOp25
 70
     1
102
RTVSPropertyOp26
 70
     1
102
RTVSPropertyOp27
 70
     1
102
RTVSPropertyOp28
 70
     1
102
RTVSPropertyOp29
 70
     1
102
RTVSPropertyOp30
 70
     1
102
RTVSPropertyOp31
 70
     1
102
RTVSPropertyOp32
 70
     1
102
RTVSPropertyOp33
 70
     1
102
RTVSPropertyOp34
 70
     1
102
RTVSPropertyOp35
 70
     1
102
RTVSPropertyOp36
 70
     1
102
RTVSPropertyOp37
 70
     1
102
RTVSPropertyOp38
 70
     1
102
RTVSPropertyOp39
 70
     1
102
RTVSPropertyOp40
 70
     1
102
RTVSPropertyOp41
 70
     1
102
RTVSPropertyOp42
 70
     1
102
RTVSPropertyOp43
 70
     1
102
RTVSPropertyOp44
 70
     1
102
RTVSPropertyOp45
 70
     1
102
RTVSPropertyOp46
 70
     1
102
RTVSPropertyOp47
 70
     1
102
RTVSPropertyOp48
 70
     1
102
RTVSPropertyOp49
 70
     1
102
RTVSPropertyOp50
 70
     1
102
RTVSPropertyOp51
 70
     0
102
RTVSPropertyOp52
 70
     0
102
RTVSPropertyOp53
 70
     1
102
RTVSPropertyOp54
 70
     1
102
RTVSPropertyOp55
 70
     1
102
RTVSPropertyOp56
 70
     1
102
RTVSPropertyOp57
 70
     1
102
RTVSPropertyOp58
 70
     1
102
RTVSPropertyOp59
 70
     1
102
RTVSPropertyOp60
 70
     1
102
RTVSPropertyOp61
 70
     1
102
RTVSPropertyOp62
 70
     1
  0
XRECORD
  5
98FB
102
{ACAD_REACTORS
330
98FA
102
}
330
98FA
100
AcDbXrecord
280
     1
102
RTVSPost2010Prop28
280
     0
102
RTVSPost2010PropOp28
 70
     1
102
RTVSPost2010Prop29
280
     1
102
RTVSPost2010PropOp29
 70
     1
102
RTVSPost2010Prop30
280
     1
102
RTVSPost2010PropOp30
 70
     1
102
RTVSPost2010Prop31
280
     0
102
RTVSPost2010PropOp31
 70
     1
102
RTVSPost2010Prop32
280
     0
102
RTVSPost2010PropOp32
 70
     1
102
RTVSPost2010Prop33
280
     0
102
RTVSPost2010PropOp33
 70
     1
102
RTVSPost2010Prop34
280
     0
102
RTVSPost2010PropOp34
 70
     1
102
RTVSPost2010Prop35
280
     0
102
RTVSPost2010PropOp35
 70
     1
102
RTVSPost2010Prop36
280
     0
102
RTVSPost2010PropOp36
 70
     1
102
RTVSPost2010Prop37
 90
       50
102
RTVSPost2010PropOp37
 70
     1
102
RTVSPost2010Prop38
140
0.0
102
RTVSPost2010PropOp38
 70
     1
102
RTVSPost2010Prop39
140
1.0
102
RTVSPost2010PropOp39
 70
     1
102
RTVSPost2010Prop40
 90
        0
102
RTVSPost2010PropOp40
 70
     1
102
RTVSPost2010Prop41ColorIndex
 90
       18
102
RTVSPost2010Prop41ColorRGB
 90
        0
102
RTVSPost2010PropOp41
 70
     1
102
RTVSPost2010Prop42
 90
       50
102
RTVSPost2010PropOp42
 70
     1
102
RTVSPost2010Prop43
 90
        3
102
RTVSPost2010PropOp43
 70
     1
102
RTVSPost2010Prop44ColorIndex
 90
        5
102
RTVSPost2010Prop44ColorRGB
 90
      255
102
RTVSPost2010PropOp44
 70
     1
102
RTVSPost2010Prop45
280
     0
102
RTVSPost2010PropOp45
 70
     1
102
RTVSPost2010Prop46
 90
       50
102
RTVSPost2010PropOp46
 70
     1
102
RTVSPost2010Prop47
 90
       50
102
RTVSPost2010PropOp47
 70
     1
102
RTVSPost2010Prop48
 90
       50
102
RTVSPost2010PropOp48
 70
     1
102
RTVSPost2010Prop49
280
     0
102
RTVSPost2010PropOp49
 70
     1
102
RTVSPost2010Prop50
 90
       50
102
RTVSPost2010PropOp50
 70
     1
102
RTVSPost2010Prop51ColorIndex
 90
      256
102
RTVSPost2010Prop51ColorRGB
 90
-16777216
102
RTVSPost2010PropOp51
 70
     0
102
RTVSPost2010Prop52
140
1.0
102
RTVSPost2010PropOp52
 70
     0
102
RTVSPost2010Prop53
 90
        2
102
RTVSPost2010PropOp53
 70
     1
102
RTVSPost2010Prop54
  1
strokes_ogs.tif
102
RTVSPost2010PropOp54
 70
     1
102
RTVSPost2010Prop55
280
     0
102
RTVSPost2010PropOp55
 70
     1
102
RTVSPost2010Prop56
140
1.0
102
RTVSPost2010PropOp56
 70
     1
102
RTVSPost2010Prop57
140
1.0
102
RTVSPost2010PropOp57
 70
     1
102
RTVSPropertyOp0
 70
     1
102
RTVSPropertyOp1
 70
     1
102
RTVSPropertyOp2
 70
     1
102
RTVSPropertyOp3
 70
     1
102
RTVSPropertyOp4
 70
     1
102
RTVSPropertyOp5
 70
     1
102
RTVSPropertyOp6
 70
     1
102
RTVSPropertyOp7
 70
     1
102
RTVSPropertyOp8
 70
     1
102
RTVSPropertyOp9
 70
     1
102
RTVSPropertyOp10
 70
     1
102
RTVSPropertyOp11
 70
     1
102
RTVSPropertyOp12
 70
     1
102
RTVSPropertyOp13
 70
     1
102
RTVSPropertyOp14
 70
     1
102
RTVSPropertyOp15
 70
     1
102
RTVSPropertyOp16
 70
     1
102
RTVSPropertyOp17
 70
     1
102
RTVSPropertyOp18
 70
     1
102
RTVSPropertyOp19
 70
     1
102
RTVSPropertyOp20
 70
     1
102
RTVSPropertyOp21
 70
     1
102
RTVSPropertyOp22
 70
     1
102
RTVSPropertyOp23
 70
     1
102
RTVSPropertyOp24
 70
     1
102
RTVSPropertyOp25
 70
     1
102
RTVSPropertyOp26
 70
     1
102
RTVSPropertyOp27
 70
     1
102
RTVSPropertyOp28
 70
     1
102
RTVSPropertyOp29
 70
     1
102
RTVSPropertyOp30
 70
     1
102
RTVSPropertyOp31
 70
     1
102
RTVSPropertyOp32
 70
     1
102
RTVSPropertyOp33
 70
     1
102
RTVSPropertyOp34
 70
     1
102
RTVSPropertyOp35
 70
     1
102
RTVSPropertyOp36
 70
     1
102
RTVSPropertyOp37
 70
     1
102
RTVSPropertyOp38
 70
     1
102
RTVSPropertyOp39
 70
     1
102
RTVSPropertyOp40
 70
     1
102
RTVSPropertyOp41
 70
     1
102
RTVSPropertyOp42
 70
     1
102
RTVSPropertyOp43
 70
     1
102
RTVSPropertyOp44
 70
     1
102
RTVSPropertyOp45
 70
     1
102
RTVSPropertyOp46
 70
     1
102
RTVSPropertyOp47
 70
     1
102
RTVSPropertyOp48
 70
     1
102
RTVSPropertyOp49
 70
     1
102
RTVSPropertyOp50
 70
     1
102
RTVSPropertyOp51
 70
     0
102
RTVSPropertyOp52
 70
     0
102
RTVSPropertyOp53
 70
     1
102
RTVSPropertyOp54
 70
     1
102
RTVSPropertyOp55
 70
     1
102
RTVSPropertyOp56
 70
     1
102
RTVSPropertyOp57
 70
     1
102
RTVSPropertyOp58
 70
     1
102
RTVSPropertyOp59
 70
     1
102
RTVSPropertyOp60
 70
     1
102
RTVSPropertyOp61
 70
     1
102
RTVSPropertyOp62
 70
     1
  0
ENDSEC
  0
EOF
