  0
SECTION
  2
HEADER
  9
$ACADVER
  1
AC1015
  9
$ACADMAINTVER
 70
    20
  9
$DWGCODEPAGE
  3
ANSI_932
  9
$INSBASE
 10
0.0
 20
0.0
 30
0.0
  9
$EXTMIN
 10
10.0
 20
9.999999999999998
 30
0.0
  9
$EXTMAX
 10
356.588367
 20
211.831693
 30
0.0
  9
$LIMMIN
 10
0.0
 20
0.0
  9
$LIMMAX
 10
396.0
 20
273.0
  9
$ORTHOMODE
 70
     1
  9
$REGENMODE
 70
     1
  9
$FILLMODE
 70
     1
  9
$QTEXTMODE
 70
     0
  9
$MIRRTEXT
 70
     1
  9
$LTSCALE
 40
20.0
  9
$ATTMODE
 70
     1
  9
$TEXTSIZE
 40
5.0
  9
$TRACEWID
 40
1.0
  9
$TEXTSTYLE
  7
STANDARD
  9
$CLAYER
  8
0
  9
$CELTYPE
  6
BYLAYER
  9
$CECOLOR
 62
   256
  9
$CELTSCALE
 40
1.0
  9
$DISPSILH
 70
     0
  9
$DIMSCALE
 40
1.0
  9
$DIMASZ
 40
3.0
  9
$DIMEXO
 40
1.0
  9
$DIMDLI
 40
10.0
  9
$DIMRND
 40
0.0
  9
$DIMDLE
 40
0.0
  9
$DIMEXE
 40
1.0
  9
$DIMTP
 40
0.0
  9
$DIMTM
 40
0.0
  9
$DIMTXT
 40
3.2
  9
$DIMCEN
 40
0.0
  9
$DIMTSZ
 40
0.0
  9
$DIMTOL
 70
     0
  9
$DIMLIM
 70
     0
  9
$DIMTIH
 70
     0
  9
$DIMTOH
 70
     0
  9
$DIMSE1
 70
     0
  9
$DIMSE2
 70
     0
  9
$DIMTAD
 70
     3
  9
$DIMZIN
 70
     8
  9
$DIMBLK
  1

  9
$DIMASO
 70
     1
  9
$DIMSHO
 70
     1
  9
$DIMPOST
  1

  9
$DIMAPOST
  1

  9
$DIMALT
 70
     0
  9
$DIMALTD
 70
     2
  9
$DIMALTF
 40
25.4
  9
$DIMLFAC
 40
1.0
  9
$DIMTOFL
 70
     1
  9
$DIMTVP
 40
0.0
  9
$DIMTIX
 70
     0
  9
$DIMSOXD
 70
     0
  9
$DIMSAH
 70
     1
  9
$DIMBLK1
  1

  9
$DIMBLK2
  1

  9
$DIMSTYLE
  2
STANDARD
  9
$DIMCLRD
 70
     0
  9
$DIMCLRE
 70
     0
  9
$DIMCLRT
 70
     0
  9
$DIMTFAC
 40
1.0
  9
$DIMGAP
 40
1.0
  9
$DIMJUST
 70
     0
  9
$DIMSD1
 70
     0
  9
$DIMSD2
 70
     0
  9
$DIMTOLJ
 70
     1
  9
$DIMTZIN
 70
     0
  9
$DIMALTZ
 70
     0
  9
$DIMALTTZ
 70
     0
  9
$DIMUPT
 70
     0
  9
$DIMDEC
 70
     4
  9
$DIMTDEC
 70
     4
  9
$DIMALTU
 70
     2
  9
$DIMALTTD
 70
     2
  9
$DIMTXSTY
  7
STANDARD
  9
$DIMAUNIT
 70
     0
  9
$DIMADEC
 70
     0
  9
$DIMALTRND
 40
0.0
  9
$DIMAZIN
 70
     0
  9
$DIMDSEP
 70
    46
  9
$DIMATFIT
 70
     3
  9
$DIMFRAC
 70
     0
  9
$DIMLDRBLK
  1

  9
$DIMLUNIT
 70
     2
  9
$DIMLWD
 70
    -2
  9
$DIMLWE
 70
    -2
  9
$DIMTMOVE
 70
     0
  9
$LUNITS
 70
     2
  9
$LUPREC
 70
     4
  9
$SKETCHINC
 40
1.0
  9
$FILLETRAD
 40
2.5
  9
$AUNITS
 70
     0
  9
$AUPREC
 70
     2
  9
$MENU
  1
.
  9
$ELEVATION
 40
0.0
  9
$PELEVATION
 40
0.0
  9
$THICKNESS
 40
0.0
  9
$LIMCHECK
 70
     0
  9
$CHAMFERA
 40
10.0
  9
$CHAMFERB
 40
10.0
  9
$CHAMFERC
 40
0.0
  9
$CHAMFERD
 40
0.0
  9
$SKPOLY
 70
     0
  9
$TDCREATE
 40
2450945.749533333
  9
$TDUCREATE
 40
2450945.374533334
  9
$TDUPDATE
 40
2457192.603495706
  9
$TDUUPDATE
 40
2457192.228495706
  9
$TDINDWG
 40
0.0000137037
  9
$TDUSRTIMER
 40
0.0000133796
  9
$USRTIMER
 70
     1
  9
$ANGBASE
 50
0.0
  9
$ANGDIR
 70
     0
  9
$PDMODE
 70
     0
  9
$PDSIZE
 40
0.0
  9
$PLINEWID
 40
0.0
  9
$SPLFRAME
 70
     0
  9
$SPLINETYPE
 70
     6
  9
$SPLINESEGS
 70
     8
  9
$HANDSEED
  5
97FF
  9
$SURFTAB1
 70
     6
  9
$SURFTAB2
 70
     6
  9
$SURFTYPE
 70
     6
  9
$SURFU
 70
     6
  9
$SURFV
 70
     6
  9
$UCSBASE
  2

  9
$UCSNAME
  2

  9
$UCSORG
 10
0.0
 20
0.0
 30
0.0
  9
$UCSXDIR
 10
1.0
 20
0.0
 30
0.0
  9
$UCSYDIR
 10
0.0
 20
1.0
 30
0.0
  9
$UCSORTHOREF
  2

  9
$UCSORTHOVIEW
 70
     0
  9
$UCSORGTOP
 10
0.0
 20
0.0
 30
0.0
  9
$UCSORGBOTTOM
 10
0.0
 20
0.0
 30
0.0
  9
$UCSORGLEFT
 10
0.0
 20
0.0
 30
0.0
  9
$UCSORGRIGHT
 10
0.0
 20
0.0
 30
0.0
  9
$UCSORGFRONT
 10
0.0
 20
0.0
 30
0.0
  9
$UCSORGBACK
 10
0.0
 20
0.0
 30
0.0
  9
$PUCSBASE
  2

  9
$PUCSNAME
  2

  9
$PUCSORG
 10
0.0
 20
0.0
 30
0.0
  9
$PUCSXDIR
 10
1.0
 20
0.0
 30
0.0
  9
$PUCSYDIR
 10
0.0
 20
1.0
 30
0.0
  9
$PUCSORTHOREF
  2

  9
$PUCSORTHOVIEW
 70
     0
  9
$PUCSORGTOP
 10
0.0
 20
0.0
 30
0.0
  9
$PUCSORGBOTTOM
 10
0.0
 20
0.0
 30
0.0
  9
$PUCSORGLEFT
 10
0.0
 20
0.0
 30
0.0
  9
$PUCSORGRIGHT
 10
0.0
 20
0.0
 30
0.0
  9
$PUCSORGFRONT
 10
0.0
 20
0.0
 30
0.0
  9
$PUCSORGBACK
 10
0.0
 20
0.0
 30
0.0
  9
$USERI1
 70
     0
  9
$USERI2
 70
     0
  9
$USERI3
 70
     0
  9
$USERI4
 70
     0
  9
$USERI5
 70
     0
  9
$USERR1
 40
0.0
  9
$USERR2
 40
0.0
  9
$USERR3
 40
0.0
  9
$USERR4
 40
0.0
  9
$USERR5
 40
0.0
  9
$WORLDVIEW
 70
     1
  9
$SHADEDGE
 70
     3
  9
$SHADEDIF
 70
    70
  9
$TILEMODE
 70
     1
  9
$MAXACTVP
 70
    16
  9
$PINSBASE
 10
0.0
 20
0.0
 30
0.0
  9
$PLIMCHECK
 70
     0
  9
$PEXTMIN
 10
1.000000000000000E+20
 20
1.000000000000000E+20
 30
1.000000000000000E+20
  9
$PEXTMAX
 10
-1.000000000000000E+20
 20
-1.000000000000000E+20
 30
-1.000000000000000E+20
  9
$PLIMMIN
 10
0.0
 20
0.0
  9
$PLIMMAX
 10
420.0
 20
297.0
  9
$UNITMODE
 70
     0
  9
$VISRETAIN
 70
     0
  9
$PLINEGEN
 70
     0
  9
$PSLTSCALE
 70
     0
  9
$TREEDEPTH
 70
  3020
  9
$CMLSTYLE
  2
STANDARD
  9
$CMLJUST
 70
     0
  9
$CMLSCALE
 40
1.0
  9
$PROXYGRAPHICS
 70
     1
  9
$MEASUREMENT
 70
     0
  9
$CELWEIGHT
370
    -1
  9
$ENDCAPS
280
     0
  9
$JOINSTYLE
280
     0
  9
$LWDISPLAY
290
     0
  9
$INSUNITS
 70
     0
  9
$HYPERLINKBASE
  1

  9
$STYLESHEET
  1

  9
$XEDIT
290
     1
  9
$CEPSNTYPE
380
     0
  9
$PSTYLEMODE
290
     1
  9
$FINGERPRINTGUID
  2
{324C656C-9A37-480B-917F-21EC0C885C6D}
  9
$VERSIONGUID
  2
{574EF26E-6122-4144-BF32-2123FE8144D9}
  9
$EXTNAMES
290
     1
  9
$PSVPSCALE
 40
0.0
  9
$OLESTARTUP
290
     0
  0
ENDSEC
  0
SECTION
  2
CLASSES
  0
CLASS
  1
ACDBDICTIONARYWDFLT
  2
AcDbDictionaryWithDefault
  3
ObjectDBX Classes
 90
        0
280
     0
281
     0
  0
CLASS
  1
ACDBPLACEHOLDER
  2
AcDbPlaceHolder
  3
ObjectDBX Classes
 90
        0
280
     0
281
     0
  0
CLASS
  1
LAYOUT
  2
AcDbLayout
  3
ObjectDBX Classes
 90
        0
280
     0
281
     0
  0
CLASS
  1
DICTIONARYVAR
  2
AcDbDictionaryVar
  3
ObjectDBX Classes
 90
        0
280
     0
281
     0
  0
CLASS
  1
MATERIAL
  2
AcDbMaterial
  3
ObjectDBX Classes
 90
     1153
280
     0
281
     0
  0
CLASS
  1
VISUALSTYLE
  2
AcDbVisualStyle
  3
ObjectDBX Classes
 90
     4095
280
     0
281
     0
  0
CLASS
  1
TABLESTYLE
  2
AcDbTableStyle
  3
ObjectDBX Classes
 90
     4095
280
     0
281
     0
  0
CLASS
  1
SCALE
  2
AcDbScale
  3
ObjectDBX Classes
 90
     1153
280
     0
281
     0
  0
CLASS
  1
MLEADERSTYLE
  2
AcDbMLeaderStyle
  3
ACDB_MLEADERSTYLE_CLASS
 90
     4095
280
     0
281
     0
  0
CLASS
  1
ACDBSECTIONVIEWSTYLE
  2
AcDbSectionViewStyle
  3
ObjectDBX Classes
 90
     1025
280
     0
281
     0
  0
CLASS
  1
ACDBDETAILVIEWSTYLE
  2
AcDbDetailViewStyle
  3
ObjectDBX Classes
 90
     1025
280
     0
281
     0
  0
CLASS
  1
CELLSTYLEMAP
  2
AcDbCellStyleMap
  3
ObjectDBX Classes
 90
     1152
280
     0
281
     0
  0
ENDSEC
  0
SECTION
  2
TABLES
  0
TABLE
  2
VPORT
  5
9572
330
0
100
AcDbSymbolTable
 70
     1
  0
VPORT
  5
9748
330
9572
100
AcDbSymbolTableRecord
100
AcDbViewportTableRecord
  2
*ACTIVE
 70
     0
 10
0.0
 20
0.0
 11
1.0
 21
1.0
 12
244.4373426597012
 22
110.9124990799609
 13
0.0
 23
0.0
 14
10.0
 24
10.0
 15
10.0
 25
10.0
 16
0.0
 26
0.0
 36
1.0
 17
0.0
 27
0.0
 37
0.0
 40
204.1040783118352
 41
1.899603698811096
 42
50.0
 43
0.0
 44
0.0
 50
0.0
 51
0.0
 71
     0
 72
   100
 73
     1
 74
     0
 75
     0
 76
     0
 77
     0
 78
     0
281
     0
 65
     1
110
0.0
120
0.0
130
0.0
111
1.0
121
0.0
131
0.0
112
0.0
122
1.0
132
0.0
 79
     0
146
0.0
1001
ACAD_NAV_VCDISPLAY
1070
     3
  0
ENDTAB
  0
TABLE
  2
LTYPE
  5
956F
330
0
100
AcDbSymbolTable
 70
     4
  0
LTYPE
  5
957D
330
956F
100
AcDbSymbolTableRecord
100
AcDbLinetypeTableRecord
  2
BYBLOCK
 70
     0
  3

 72
    65
 73
     0
 40
0.0
  0
LTYPE
  5
957E
330
956F
100
AcDbSymbolTableRecord
100
AcDbLinetypeTableRecord
  2
BYLAYER
 70
     0
  3

 72
    65
 73
     0
 40
0.0
  0
LTYPE
  5
957F
330
956F
100
AcDbSymbolTableRecord
100
AcDbLinetypeTableRecord
  2
CONTINUOUS
 70
     0
  3
Solid line
 72
    65
 73
     0
 40
0.0
  0
LTYPE
  5
958D
330
956F
100
AcDbSymbolTableRecord
100
AcDbLinetypeTableRecord
  2
DASHED
 70
     0
  3
__ __ __ __ __ __ __ __ __ __ __ __ __ __ __ __
 72
    65
 73
     2
 40
0.75
 49
0.5
 74
     0
 49
-0.25
 74
     0
  0
LTYPE
  5
958E
330
956F
100
AcDbSymbolTableRecord
100
AcDbLinetypeTableRecord
  2
CENTER
 70
     0
  3
____ _ ____ _ ____ _ ____ _ ____ _ ____ _ ____ 
 72
    65
 73
     4
 40
2.0
 49
1.25
 74
     0
 49
-0.25
 74
     0
 49
0.25
 74
     0
 49
-0.25
 74
     0
  0
LTYPE
  5
958F
330
956F
100
AcDbSymbolTableRecord
100
AcDbLinetypeTableRecord
  2
PHANTOM
 70
     0
  3
______  __  __  ______  __  __  ______  __  __ 
 72
    65
 73
     6
 40
2.5
 49
1.25
 74
     0
 49
-0.25
 74
     0
 49
0.25
 74
     0
 49
-0.25
 74
     0
 49
0.25
 74
     0
 49
-0.25
 74
     0
  0
ENDTAB
  0
TABLE
  2
LAYER
  5
956C
330
0
100
AcDbSymbolTable
 70
     8
  0
LAYER
  5
957A
102
{ACAD_XDICTIONARY
360
97A3
102
}
330
956C
100
AcDbSymbolTableRecord
100
AcDbLayerTableRecord
  2
0
 70
     0
 62
     7
  6
CONTINUOUS
370
    -3
390
9751
  0
LAYER
  5
9590
102
{ACAD_XDICTIONARY
360
97A5
102
}
330
956C
100
AcDbSymbolTableRecord
100
AcDbLayerTableRecord
  2
4
 70
     0
 62
     1
  6
CENTER
370
    -3
390
9751
  0
LAYER
  5
9591
102
{ACAD_XDICTIONARY
360
97A7
102
}
330
956C
100
AcDbSymbolTableRecord
100
AcDbLayerTableRecord
  2
5
 70
     0
 62
     6
  6
PHANTOM
370
    -3
390
9751
  0
LAYER
  5
9592
102
{ACAD_XDICTIONARY
360
97A9
102
}
330
956C
100
AcDbSymbolTableRecord
100
AcDbLayerTableRecord
  2
1
 70
     0
 62
     7
  6
CONTINUOUS
370
    -3
390
9751
  0
LAYER
  5
9593
102
{ACAD_XDICTIONARY
360
97AB
102
}
330
956C
100
AcDbSymbolTableRecord
100
AcDbLayerTableRecord
  2
2
 70
     0
 62
     4
  6
CONTINUOUS
370
    -3
390
9751
  0
LAYER
  5
9594
102
{ACAD_XDICTIONARY
360
97AD
102
}
330
956C
100
AcDbSymbolTableRecord
100
AcDbLayerTableRecord
  2
3
 70
     0
 62
     2
  6
DASHED
370
    -3
390
9751
  0
LAYER
  5
9595
102
{ACAD_XDICTIONARY
360
97AF
102
}
330
956C
100
AcDbSymbolTableRecord
100
AcDbLayerTableRecord
  2
6
 70
     0
 62
     5
  6
CONTINUOUS
370
    -3
390
9751
  0
LAYER
  5
9596
102
{ACAD_XDICTIONARY
360
97B1
102
}
330
956C
100
AcDbSymbolTableRecord
100
AcDbLayerTableRecord
  2
7
 70
     0
 62
     3
  6
CONTINUOUS
370
    -3
390
9751
  0
ENDTAB
  0
TABLE
  2
STYLE
  5
956D
330
0
100
AcDbSymbolTable
 70
     1
  0
STYLE
  5
957B
330
956D
100
AcDbSymbolTableRecord
100
AcDbTextStyleTableRecord
  2
STANDARD
 70
     0
 40
0.0
 41
1.0
 50
0.0
 71
     0
 42
5.0
  3
txt
  4

  0
ENDTAB
  0
TABLE
  2
VIEW
  5
9570
330
0
100
AcDbSymbolTable
 70
     0
  0
ENDTAB
  0
TABLE
  2
UCS
  5
9571
330
0
100
AcDbSymbolTable
 70
     0
  0
ENDTAB
  0
TABLE
  2
APPID
  5
9573
330
0
100
AcDbSymbolTable
 70
     3
  0
APPID
  5
957C
330
9573
100
AcDbSymbolTableRecord
100
AcDbRegAppTableRecord
  2
ACAD
 70
     0
  0
APPID
  5
97BD
330
9573
100
AcDbSymbolTableRecord
100
AcDbRegAppTableRecord
  2
ACAD_NAV_VCDISPLAY
 70
     0
  0
APPID
  5
97F6
330
9573
100
AcDbSymbolTableRecord
100
AcDbRegAppTableRecord
  2
ACAD_MLEADERVER
 70
     0
  0
ENDTAB
  0
TABLE
  2
DIMSTYLE
  5
9574
330
0
100
AcDbSymbolTable
 70
     1
100
AcDbDimStyleTable
 71
     0
  0
DIMSTYLE
105
9598
330
9574
100
AcDbSymbolTableRecord
100
AcDbDimStyleTableRecord
  2
STANDARD
 70
     0
 41
3.0
 42
1.0
 43
10.0
 44
1.0
 73
     0
 74
     0
 77
     3
 78
     8
140
3.2
141
0.0
147
1.0
172
     1
173
     1
284
     8
285
     8
286
     8
340
957B
  0
ENDTAB
  0
TABLE
  2
BLOCK_RECORD
  5
956B
330
0
100
AcDbSymbolTable
 70
     0
  0
BLOCK_RECORD
  5
9588
102
{ACAD_XDICTIONARY
360
974B
102
}
330
956B
100
AcDbSymbolTableRecord
100
AcDbBlockTableRecord
  2
*MODEL_SPACE
340
979F
  0
BLOCK_RECORD
  5
9584
102
{ACAD_XDICTIONARY
360
9749
102
}
330
956B
100
AcDbSymbolTableRecord
100
AcDbBlockTableRecord
  2
*PAPER_SPACE
340
97A0
  0
ENDTAB
  0
ENDSEC
  0
SECTION
  2
BLOCKS
  0
BLOCK
  5
9589
330
9588
100
AcDbEntity
  8
0
100
AcDbBlockBegin
  2
*MODEL_SPACE
 70
     0
 10
0.0
 20
0.0
 30
0.0
  3
*MODEL_SPACE
  1

  0
ENDBLK
  5
958A
330
9588
100
AcDbEntity
  8
0
100
AcDbBlockEnd
  0
BLOCK
  5
9585
330
9584
100
AcDbEntity
 67
     1
  8
0
100
AcDbBlockBegin
  2
*PAPER_SPACE
 70
     0
 10
0.0
 20
0.0
 30
0.0
  3
*PAPER_SPACE
  1

  0
ENDBLK
  5
9586
330
9584
100
AcDbEntity
 67
     1
  8
0
100
AcDbBlockEnd
  0
ENDSEC
  0
SECTION
  2
ENTITIES
  0
TEXT
  5
95A0
330
9588
100
AcDbEntity
  8
7
  6
Continuous
100
AcDbText
 10
10.0
 20
18.0
 30
0.0
 40
3.0
  1
TYPE No.TL-86-6
100
AcDbText
  0
TEXT
  5
95A1
330
9588
100
AcDbEntity
  8
7
  6
Continuous
100
AcDbText
 10
10.0
 20
26.0
 30
0.0
 40
3.0
  1
CODE No.1247
100
AcDbText
  0
TEXT
  5
95A2
330
9588
100
AcDbEntity
  8
1
  6
Continuous
100
AcDbText
 10
10.0
 20
10.0
 30
0.0
 40
1.399999999999999
  1
LAYER
100
AcDbText
  0
TEXT
  5
95A3
330
9588
100
AcDbEntity
  8
1
  6
Continuous
100
AcDbText
 10
17.97951099999998
 20
10.04873699999998
 30
0.0
 40
1.399999999999999
  1
1
100
AcDbText
  0
TEXT
  5
95A4
330
9588
100
AcDbEntity
  8
7
  6
Continuous
100
AcDbText
 10
29.97951099999999
 20
10.04873699999998
 30
0.0
 40
1.399999999999999
  1
7
100
AcDbText
  0
TEXT
  5
95A5
330
9588
100
AcDbEntity
  8
4
  6
CENTER
100
AcDbText
 10
23.97951099999999
 20
10.04873699999998
 30
0.0
 40
1.399999999999999
  1
4
100
AcDbText
  0
TEXT
  5
95A6
330
9588
100
AcDbEntity
  8
3
  6
DASHED
100
AcDbText
 10
21.979511
 20
10.04873699999998
 30
0.0
 40
1.399999999999999
  1
3
100
AcDbText
  0
TEXT
  5
95A7
330
9588
100
AcDbEntity
  8
2
  6
Continuous
100
AcDbText
 10
19.97951099999999
 20
10.04873699999998
 30
0.0
 40
1.399999999999999
  1
2
100
AcDbText
  0
TEXT
  5
95A8
330
9588
100
AcDbEntity
  8
6
  6
Continuous
100
AcDbText
 10
27.979511
 20
10.04873699999998
 30
0.0
 40
1.399999999999999
  1
6
100
AcDbText
  0
TEXT
  5
95A9
330
9588
100
AcDbEntity
  8
5
  6
PHANTOM
100
AcDbText
 10
25.97951099999999
 20
10.04873699999998
 30
0.0
 40
1.399999999999999
  1
5
100
AcDbText
  0
LINE
  5
95AA
330
9588
100
AcDbEntity
  8
4
  6
CENTER
100
AcDbLine
 10
13.541867
 20
121.3316929999999
 30
0.0
 11
39.77386699999998
 21
121.3316929999999
 31
0.0
  0
LINE
  5
95AB
330
9588
100
AcDbEntity
  8
4
  6
CENTER
100
AcDbLine
 10
26.267667
 20
134.606693
 30
0.0
 11
26.267667
 21
110.8006929999999
 31
0.0
  0
LINE
  5
95AC
330
9588
100
AcDbEntity
  8
1
  6
Continuous
100
AcDbLine
 10
128.2673669999998
 20
209.831693
 30
0.0
 11
128.2673669999998
 21
195.831693
 31
0.0
  0
LINE
  5
95AD
330
9588
100
AcDbEntity
  8
4
  6
CENTER
100
AcDbLine
 10
111.9473669999998
 20
121.3316929999999
 30
0.0
 11
153.1633669999999
 21
121.3316929999999
 31
0.0
  0
LINE
  5
95AE
330
9588
100
AcDbEntity
  8
1
  6
Continuous
100
AcDbLine
 10
146.2673669999998
 20
209.831693
 30
0.0
 11
146.2673669999998
 21
195.831693
 31
0.0
  0
LINE
  5
95AF
330
9588
100
AcDbEntity
  8
5
  6
PHANTOM
100
AcDbLine
 10
139.2673669999997
 20
205.331693
 30
0.0
 11
139.2673669999997
 21
197.331693
 31
0.0
  0
LINE
  5
95B0
330
9588
100
AcDbEntity
  8
1
  6
Continuous
100
AcDbLine
 10
115.2673669999998
 20
205.331693
 30
0.0
 11
115.2673669999998
 21
197.331693
 31
0.0
  0
LINE
  5
95B1
330
9588
100
AcDbEntity
  8
1
  6
Continuous
100
AcDbLine
 10
124.267367
 20
205.831693
 30
0.0
 11
124.267367
 21
196.831693
 31
0.0
  0
LINE
  5
95B2
330
9588
100
AcDbEntity
  8
1
  6
Continuous
100
AcDbLine
 10
115.7673669999998
 20
196.831693
 30
0.0
 11
124.267367
 21
196.831693
 31
0.0
  0
LINE
  5
95B3
330
9588
100
AcDbEntity
  8
1
  6
Continuous
100
AcDbLine
 10
115.7673669999998
 20
205.831693
 30
0.0
 11
124.267367
 21
205.831693
 31
0.0
  0
LINE
  5
95B4
330
9588
100
AcDbEntity
  8
1
  6
Continuous
100
AcDbLine
 10
124.267367
 20
197.331693
 30
0.0
 11
128.2673669999998
 21
197.331693
 31
0.0
  0
LINE
  5
95B5
330
9588
100
AcDbEntity
  8
1
  6
Continuous
100
AcDbLine
 10
124.267367
 20
205.331693
 30
0.0
 11
128.2673669999998
 21
205.331693
 31
0.0
  0
LINE
  5
95B6
330
9588
100
AcDbEntity
  8
1
  6
Continuous
100
AcDbLine
 10
115.7673669999998
 20
205.831693
 30
0.0
 11
115.2673669999998
 21
205.331693
 31
0.0
  0
LINE
  5
95B7
330
9588
100
AcDbEntity
  8
1
  6
Continuous
100
AcDbLine
 10
115.2673669999998
 20
197.331693
 30
0.0
 11
115.7673669999998
 21
196.831693
 31
0.0
  0
LINE
  5
95B8
330
9588
100
AcDbEntity
  8
1
  6
Continuous
100
AcDbLine
 10
115.7673669999998
 20
205.831693
 30
0.0
 11
115.7673669999998
 21
196.831693
 31
0.0
  0
LINE
  5
95B9
330
9588
100
AcDbEntity
  8
1
  6
Continuous
100
AcDbLine
 10
115.7673669999998
 20
204.8316929999999
 30
0.0
 11
124.267367
 21
204.8316929999999
 31
0.0
  0
LINE
  5
95BA
330
9588
100
AcDbEntity
  8
1
  6
Continuous
100
AcDbLine
 10
115.7673669999998
 20
203.831693
 30
0.0
 11
123.267367
 21
203.831693
 31
0.0
  0
LINE
  5
95BB
330
9588
100
AcDbEntity
  8
1
  6
Continuous
100
AcDbLine
 10
115.7673669999998
 20
202.8316929999999
 30
0.0
 11
122.267367
 21
202.8316929999999
 31
0.0
  0
LINE
  5
95BC
330
9588
100
AcDbEntity
  8
1
  6
Continuous
100
AcDbLine
 10
115.7673669999998
 20
201.831693
 30
0.0
 11
121.267367
 21
201.831693
 31
0.0
  0
LINE
  5
95BD
330
9588
100
AcDbEntity
  8
1
  6
Continuous
100
AcDbLine
 10
150.2673669999998
 20
202.9316929999999
 30
0.0
 11
150.2673669999998
 21
199.731693
 31
0.0
  0
LINE
  5
95BE
330
9588
100
AcDbEntity
  8
1
  6
Continuous
100
AcDbLine
 10
147.2673669999998
 20
202.9316929999999
 30
0.0
 11
147.2673669999998
 21
201.0116929999998
 31
0.0
  0
LINE
  5
95BF
330
9588
100
AcDbEntity
  8
1
  6
Continuous
100
AcDbLine
 10
149.0673669999999
 20
205.6316929999999
 30
0.0
 11
149.0673669999999
 21
197.0316929999999
 31
0.0
  0
LINE
  5
95C0
330
9588
100
AcDbEntity
  8
1
  6
Continuous
100
AcDbLine
 10
149.0673669999999
 20
202.9316929999999
 30
0.0
 11
150.2673669999998
 21
202.9316929999999
 31
0.0
  0
LINE
  5
95C1
330
9588
100
AcDbEntity
  8
1
  6
Continuous
100
AcDbLine
 10
149.0673669999999
 20
199.731693
 30
0.0
 11
150.2673669999998
 21
199.731693
 31
0.0
  0
LINE
  5
95C2
330
9588
100
AcDbEntity
  8
1
  6
Continuous
100
AcDbLine
 10
147.3773669999999
 20
200.1816929999999
 30
0.0
 11
147.5673669999999
 21
200.1816929999999
 31
0.0
  0
LINE
  5
95C3
330
9588
100
AcDbEntity
  8
1
  6
Continuous
100
AcDbLine
 10
147.2673669999998
 20
202.481693
 30
0.0
 11
147.5673669999999
 21
202.481693
 31
0.0
  0
LINE
  5
95C4
330
9588
100
AcDbEntity
  8
1
  6
Continuous
100
AcDbLine
 10
146.2673669999998
 20
199.731693
 30
0.0
 11
147.033367
 21
199.731693
 31
0.0
  0
LINE
  5
95C5
330
9588
100
AcDbEntity
  8
1
  6
Continuous
100
AcDbLine
 10
146.2673669999998
 20
202.9316929999999
 30
0.0
 11
146.610367
 21
202.9316929999999
 31
0.0
  0
LINE
  5
95C6
330
9588
100
AcDbEntity
  8
4
  6
CENTER
100
AcDbLine
 10
247.4703669999999
 20
121.3316929999999
 30
0.0
 11
220.742367
 21
121.3316929999999
 31
0.0
  0
LINE
  5
95C7
330
9588
100
AcDbEntity
  8
4
  6
CENTER
100
AcDbLine
 10
234.2673669999999
 20
129.9266929999998
 30
0.0
 11
234.2673669999999
 21
110.466693
 31
0.0
  0
LINE
  5
95C8
330
9588
100
AcDbEntity
  8
1
  6
Continuous
100
AcDbLine
 10
233.2673669999998
 20
124.789693
 30
0.0
 11
232.3533669999999
 21
126.682693
 31
0.0
  0
LINE
  5
95C9
330
9588
100
AcDbEntity
  8
1
  6
Continuous
100
AcDbLine
 10
235.2673669999998
 20
124.789693
 30
0.0
 11
236.182367
 21
126.682693
 31
0.0
  0
LINE
  5
95CA
330
9588
100
AcDbEntity
  8
1
  6
Continuous
100
AcDbLine
 10
237.1763669999999
 20
123.4536929999999
 30
0.0
 11
238.2533669999999
 21
125.681693
 31
0.0
  0
LINE
  5
95CB
330
9588
100
AcDbEntity
  8
1
  6
Continuous
100
AcDbLine
 10
231.3593669999999
 20
123.4536929999999
 30
0.0
 11
230.2823669999999
 21
125.681693
 31
0.0
  0
LINE
  5
95CC
330
9588
100
AcDbEntity
  8
1
  6
Continuous
100
AcDbLine
 10
235.343367
 20
120.1476929999998
 30
0.0
 11
236.2933669999999
 21
115.7396929999999
 31
0.0
  0
LINE
  5
95CD
330
9588
100
AcDbEntity
  8
1
  6
Continuous
100
AcDbLine
 10
233.191367
 20
120.1476929999998
 30
0.0
 11
232.242367
 21
115.7396929999999
 31
0.0
  0
LINE
  5
95CE
330
9588
100
AcDbEntity
  8
1
  6
Continuous
100
AcDbLine
 10
230.8503669999999
 20
120.2006929999999
 30
0.0
 11
229.993367
 21
116.2236929999999
 31
0.0
  0
LINE
  5
95CF
330
9588
100
AcDbEntity
  8
1
  6
Continuous
100
AcDbLine
 10
237.685367
 20
120.2006929999999
 30
0.0
 11
238.5423669999999
 21
116.2236929999999
 31
0.0
  0
LINE
  5
95D0
330
9588
100
AcDbEntity
  8
1
  6
Continuous
100
AcDbLine
 10
147.5673669999999
 20
205.6316929999999
 30
0.0
 11
147.5673669999999
 21
197.0316929999999
 31
0.0
  0
LINE
  5
95D1
330
9588
100
AcDbEntity
  8
1
  6
Continuous
100
AcDbLine
 10
128.2673669999998
 20
127.3316929999999
 30
0.0
 11
128.2673669999998
 21
115.3316929999999
 31
0.0
  0
LINE
  5
95D2
330
9588
100
AcDbEntity
  8
1
  6
Continuous
100
AcDbLine
 10
115.2673669999998
 20
125.3316929999999
 30
0.0
 11
115.2673669999998
 21
117.3316929999999
 31
0.0
  0
LINE
  5
95D3
330
9588
100
AcDbEntity
  8
1
  6
Continuous
100
AcDbLine
 10
124.267367
 20
125.8316929999999
 30
0.0
 11
124.267367
 21
116.8316929999999
 31
0.0
  0
LINE
  5
95D4
330
9588
100
AcDbEntity
  8
1
  6
Continuous
100
AcDbLine
 10
115.7673669999998
 20
116.8316929999999
 30
0.0
 11
124.267367
 21
116.8316929999999
 31
0.0
  0
LINE
  5
95D5
330
9588
100
AcDbEntity
  8
1
  6
Continuous
100
AcDbLine
 10
115.7673669999998
 20
125.8316929999999
 30
0.0
 11
124.267367
 21
125.8316929999999
 31
0.0
  0
LINE
  5
95D6
330
9588
100
AcDbEntity
  8
1
  6
Continuous
100
AcDbLine
 10
124.267367
 20
117.3316929999999
 30
0.0
 11
128.2673669999998
 21
117.3316929999999
 31
0.0
  0
LINE
  5
95D7
330
9588
100
AcDbEntity
  8
1
  6
Continuous
100
AcDbLine
 10
124.267367
 20
125.3316929999999
 30
0.0
 11
128.2673669999998
 21
125.3316929999999
 31
0.0
  0
LINE
  5
95D8
330
9588
100
AcDbEntity
  8
1
  6
Continuous
100
AcDbLine
 10
115.7673669999998
 20
125.8316929999999
 30
0.0
 11
115.2673669999998
 21
125.3316929999999
 31
0.0
  0
LINE
  5
95D9
330
9588
100
AcDbEntity
  8
1
  6
Continuous
100
AcDbLine
 10
115.2673669999998
 20
117.3316929999999
 30
0.0
 11
115.7673669999998
 21
116.8316929999999
 31
0.0
  0
LINE
  5
95DA
330
9588
100
AcDbEntity
  8
1
  6
Continuous
100
AcDbLine
 10
115.7673669999998
 20
125.8316929999999
 30
0.0
 11
115.7673669999998
 21
116.8316929999999
 31
0.0
  0
LINE
  5
95DB
330
9588
100
AcDbEntity
  8
1
  6
Continuous
100
AcDbLine
 10
115.7673669999998
 20
124.8316929999998
 30
0.0
 11
124.267367
 21
124.8316929999998
 31
0.0
  0
LINE
  5
95DC
330
9588
100
AcDbEntity
  8
1
  6
Continuous
100
AcDbLine
 10
115.7673669999998
 20
123.8316929999998
 30
0.0
 11
123.267367
 21
123.8316929999998
 31
0.0
  0
LINE
  5
95DD
330
9588
100
AcDbEntity
  8
1
  6
Continuous
100
AcDbLine
 10
115.7673669999998
 20
122.8316929999998
 30
0.0
 11
122.267367
 21
122.8316929999998
 31
0.0
  0
LINE
  5
95DE
330
9588
100
AcDbEntity
  8
1
  6
Continuous
100
AcDbLine
 10
115.7673669999998
 20
121.8316929999998
 30
0.0
 11
121.267367
 21
121.8316929999998
 31
0.0
  0
LINE
  5
95DF
330
9588
100
AcDbEntity
  8
1
  6
Continuous
100
AcDbLine
 10
150.2673669999998
 20
122.9316929999999
 30
0.0
 11
150.2673669999998
 21
119.7316929999998
 31
0.0
  0
LINE
  5
95E0
330
9588
100
AcDbEntity
  8
1
  6
Continuous
100
AcDbLine
 10
147.2673669999998
 20
122.9316929999999
 30
0.0
 11
147.2673669999998
 21
121.0116929999998
 31
0.0
  0
LINE
  5
95E1
330
9588
100
AcDbEntity
  8
1
  6
Continuous
100
AcDbLine
 10
149.0673669999999
 20
127.3316929999999
 30
0.0
 11
149.0673669999999
 21
114.8316929999999
 31
0.0
  0
LINE
  5
95E2
330
9588
100
AcDbEntity
  8
1
  6
Continuous
100
AcDbLine
 10
149.0673669999999
 20
122.9316929999999
 30
0.0
 11
150.2673669999998
 21
122.9316929999999
 31
0.0
  0
LINE
  5
95E3
330
9588
100
AcDbEntity
  8
1
  6
Continuous
100
AcDbLine
 10
149.0673669999999
 20
119.7316929999998
 30
0.0
 11
150.2673669999998
 21
119.7316929999998
 31
0.0
  0
LINE
  5
95E4
330
9588
100
AcDbEntity
  8
1
  6
Continuous
100
AcDbLine
 10
147.3773669999999
 20
120.1816929999999
 30
0.0
 11
147.5673669999999
 21
120.1816929999999
 31
0.0
  0
LINE
  5
95E5
330
9588
100
AcDbEntity
  8
1
  6
Continuous
100
AcDbLine
 10
147.2673669999998
 20
122.481693
 30
0.0
 11
147.5673669999999
 21
122.481693
 31
0.0
  0
LINE
  5
95E6
330
9588
100
AcDbEntity
  8
1
  6
Continuous
100
AcDbLine
 10
146.2673669999998
 20
119.7316929999998
 30
0.0
 11
147.033367
 21
119.7316929999998
 31
0.0
  0
LINE
  5
95E7
330
9588
100
AcDbEntity
  8
1
  6
Continuous
100
AcDbLine
 10
146.2673669999998
 20
122.9316929999999
 30
0.0
 11
146.610367
 21
122.9316929999999
 31
0.0
  0
LINE
  5
95E8
330
9588
100
AcDbEntity
  8
1
  6
Continuous
100
AcDbLine
 10
147.5673669999999
 20
114.8316929999999
 30
0.0
 11
149.0673669999999
 21
114.8316929999999
 31
0.0
  0
LINE
  5
95E9
330
9588
100
AcDbEntity
  8
1
  6
Continuous
100
AcDbLine
 10
147.5673669999999
 20
127.3316929999999
 30
0.0
 11
149.0673669999999
 21
127.3316929999999
 31
0.0
  0
LINE
  5
95EA
330
9588
100
AcDbEntity
  8
1
  6
Continuous
100
AcDbLine
 10
147.5673669999999
 20
123.4536929999999
 30
0.0
 11
149.0673669999999
 21
123.4536929999999
 31
0.0
  0
LINE
  5
95EB
330
9588
100
AcDbEntity
  8
1
  6
Continuous
100
AcDbLine
 10
147.5673669999999
 20
127.3316929999999
 30
0.0
 11
147.5673669999999
 21
114.8316929999999
 31
0.0
  0
LINE
  5
95EC
330
9588
100
AcDbEntity
  8
1
  6
Continuous
100
AcDbLine
 10
147.5673669999999
 20
120.2006929999999
 30
0.0
 11
149.0673669999999
 21
120.2006929999999
 31
0.0
  0
LINE
  5
95ED
330
9588
100
AcDbEntity
  8
1
  6
Continuous
100
AcDbLine
 10
130.2673669999998
 20
118.0816929999999
 30
0.0
 11
131.2673669999998
 21
118.0816929999999
 31
0.0
  0
LINE
  5
95EE
330
9588
100
AcDbEntity
  8
1
  6
Continuous
100
AcDbLine
 10
130.2673669999998
 20
124.5816929999999
 30
0.0
 11
131.2673669999998
 21
124.5816929999999
 31
0.0
  0
LINE
  5
95EF
330
9588
100
AcDbEntity
  8
1
  6
Continuous
100
AcDbLine
 10
147.5673669999999
 20
205.431693
 30
0.0
 11
149.0673669999999
 21
205.431693
 31
0.0
  0
LINE
  5
95F0
330
9588
100
AcDbEntity
  8
1
  6
Continuous
100
AcDbLine
 10
147.5673669999999
 20
197.231693
 30
0.0
 11
149.0673669999999
 21
197.231693
 31
0.0
  0
LINE
  5
95F1
330
9588
100
AcDbEntity
  8
1
  6
Continuous
100
AcDbLine
 10
147.5673669999999
 20
202.331693
 30
0.0
 11
149.0673669999999
 21
202.331693
 31
0.0
  0
LINE
  5
95F2
330
9588
100
AcDbEntity
  8
1
  6
Continuous
100
AcDbLine
 10
147.5673669999999
 20
200.3316929999999
 30
0.0
 11
149.0673669999999
 21
200.3316929999999
 31
0.0
  0
LINE
  5
95F3
330
9588
100
AcDbEntity
  8
1
  6
Continuous
100
AcDbLine
 10
147.5673669999999
 20
205.6316929999999
 30
0.0
 11
149.0673669999999
 21
205.6316929999999
 31
0.0
  0
LINE
  5
95F4
330
9588
100
AcDbEntity
  8
1
  6
Continuous
100
AcDbLine
 10
147.5673669999999
 20
197.0316929999999
 30
0.0
 11
149.0673669999999
 21
197.0316929999999
 31
0.0
  0
LINE
  5
95F5
330
9588
100
AcDbEntity
  8
1
  6
Continuous
100
AcDbLine
 10
147.0133669999998
 20
122.9316929999999
 30
0.0
 11
147.2673669999998
 21
122.9316929999999
 31
0.0
  0
LINE
  5
95F6
330
9588
100
AcDbEntity
  8
1
  6
Continuous
100
AcDbLine
 10
147.1673669999999
 20
203.931693
 30
0.0
 11
147.1673669999999
 21
202.9316929999999
 31
0.0
  0
LINE
  5
95F7
330
9588
100
AcDbEntity
  8
1
  6
Continuous
100
AcDbLine
 10
147.5663669999998
 20
198.7576929999999
 30
0.0
 11
146.6663669999998
 21
205.5576929999999
 31
0.0
  0
LINE
  5
95F8
330
9588
100
AcDbEntity
  8
1
  6
Continuous
100
AcDbLine
 10
146.2693669999999
 20
205.5056929999998
 30
0.0
 11
147.169367
 21
198.7056929999999
 31
0.0
  0
LINE
  5
95F9
330
9588
100
AcDbEntity
  8
1
  6
Continuous
100
AcDbLine
 10
146.6673669999998
 20
199.731693
 30
0.0
 11
146.6673669999998
 21
197.131693
 31
0.0
  0
LINE
  5
95FA
330
9588
100
AcDbEntity
  8
1
  6
Continuous
100
AcDbLine
 10
146.6673669999998
 20
119.7316929999998
 30
0.0
 11
146.6673669999998
 21
117.1316929999999
 31
0.0
  0
LINE
  5
95FB
330
9588
100
AcDbEntity
  8
1
  6
Continuous
100
AcDbLine
 10
146.2693669999999
 20
125.505693
 30
0.0
 11
147.169367
 21
118.705693
 31
0.0
  0
LINE
  5
95FC
330
9588
100
AcDbEntity
  8
1
  6
Continuous
100
AcDbLine
 10
147.5663669999998
 20
118.7576929999998
 30
0.0
 11
146.6663669999998
 21
125.5576929999999
 31
0.0
  0
LINE
  5
95FD
330
9588
100
AcDbEntity
  8
1
  6
Continuous
100
AcDbLine
 10
147.1673669999999
 20
123.9316929999999
 30
0.0
 11
147.1673669999999
 21
122.9316929999999
 31
0.0
  0
LINE
  5
95FE
330
9588
100
AcDbEntity
  8
1
  6
Continuous
100
AcDbLine
 10
147.0133669999998
 20
202.9316929999999
 30
0.0
 11
147.2673669999998
 21
202.9316929999999
 31
0.0
  0
LINE
  5
95FF
330
9588
100
AcDbEntity
  8
5
  6
PHANTOM
100
AcDbLine
 10
130.7673669999998
 20
193.831693
 30
0.0
 11
130.7673669999998
 21
190.331693
 31
0.0
  0
LINE
  5
9600
330
9588
100
AcDbEntity
  8
5
  6
PHANTOM
100
AcDbLine
 10
136.2673669999997
 20
205.331693
 30
0.0
 11
136.2673669999997
 21
197.331693
 31
0.0
  0
LINE
  5
9601
330
9588
100
AcDbEntity
  8
5
  6
PHANTOM
100
AcDbLine
 10
136.2673669999997
 20
205.331693
 30
0.0
 11
139.2673669999997
 21
205.331693
 31
0.0
  0
LINE
  5
9602
330
9588
100
AcDbEntity
  8
5
  6
PHANTOM
100
AcDbLine
 10
130.7673669999998
 20
190.331693
 30
0.0
 11
133.7673669999998
 21
190.331693
 31
0.0
  0
LINE
  5
9603
330
9588
100
AcDbEntity
  8
5
  6
PHANTOM
100
AcDbLine
 10
133.7673669999998
 20
193.831693
 30
0.0
 11
133.7673669999998
 21
190.331693
 31
0.0
  0
LINE
  5
9604
330
9588
100
AcDbEntity
  8
5
  6
PHANTOM
100
AcDbLine
 10
136.2673669999997
 20
197.331693
 30
0.0
 11
133.2343669999999
 21
196.7836929999998
 31
0.0
  0
LINE
  5
9605
330
9588
100
AcDbEntity
  8
5
  6
PHANTOM
100
AcDbLine
 10
133.7673669999998
 20
193.831693
 30
0.0
 11
136.800367
 21
194.3796929999998
 31
0.0
  0
LINE
  5
9606
330
9588
100
AcDbEntity
  8
1
  6
Continuous
100
AcDbLine
 10
226.7673669999998
 20
118.3316929999999
 30
0.0
 11
223.6483669999998
 21
118.3316929999999
 31
0.0
  0
LINE
  5
9607
330
9588
100
AcDbEntity
  8
1
  6
Continuous
100
AcDbLine
 10
226.7673669999998
 20
124.3316929999999
 30
0.0
 11
223.6483669999998
 21
124.3316929999999
 31
0.0
  0
LINE
  5
9608
330
9588
100
AcDbEntity
  8
1
  6
Continuous
100
AcDbLine
 10
228.7673669999998
 20
124.59836
 30
0.0
 11
226.7673669999998
 21
124.3316929999999
 31
0.0
  0
LINE
  5
9609
330
9588
100
AcDbEntity
  8
1
  6
Continuous
100
AcDbLine
 10
228.7673669999998
 20
118.0650259999999
 30
0.0
 11
226.7673669999998
 21
118.3316929999999
 31
0.0
  0
LINE
  5
960A
330
9588
100
AcDbEntity
  8
1
  6
Continuous
100
AcDbLine
 10
226.7673669999998
 20
123.5616929999999
 30
0.0
 11
226.7673669999998
 21
118.9006929999999
 31
0.0
  0
LINE
  5
960B
330
9588
100
AcDbEntity
  8
1
  6
Continuous
100
AcDbLine
 10
137.7673669999998
 20
124.3316929999999
 30
0.0
 11
137.7673669999998
 21
118.3316929999999
 31
0.0
  0
LINE
  5
960C
330
9588
100
AcDbEntity
  8
1
  6
Continuous
100
AcDbLine
 10
140.2673669999997
 20
125.3316929999999
 30
0.0
 11
143.2673669999998
 21
125.3316929999999
 31
0.0
  0
LINE
  5
960D
330
9588
100
AcDbEntity
  8
1
  6
Continuous
100
AcDbLine
 10
140.2673669999997
 20
117.3316929999999
 30
0.0
 11
143.2673669999998
 21
117.3316929999999
 31
0.0
  0
LINE
  5
960E
330
9588
100
AcDbEntity
  8
1
  6
Continuous
100
AcDbLine
 10
134.7673669999998
 20
118.3316929999999
 30
0.0
 11
137.7673669999998
 21
118.3316929999999
 31
0.0
  0
LINE
  5
960F
330
9588
100
AcDbEntity
  8
1
  6
Continuous
100
AcDbLine
 10
134.7673669999998
 20
124.3316929999999
 30
0.0
 11
137.7673669999998
 21
124.3316929999999
 31
0.0
  0
LINE
  5
9610
330
9588
100
AcDbEntity
  8
1
  6
Continuous
100
AcDbLine
 10
143.2673669999998
 20
125.3316929999999
 30
0.0
 11
137.7673669999998
 21
124.3316929999999
 31
0.0
  0
LINE
  5
9611
330
9588
100
AcDbEntity
  8
1
  6
Continuous
100
AcDbLine
 10
140.2673669999997
 20
125.3316929999999
 30
0.0
 11
134.7673669999998
 21
124.3316929999999
 31
0.0
  0
LINE
  5
9612
330
9588
100
AcDbEntity
  8
1
  6
Continuous
100
AcDbLine
 10
137.7673669999998
 20
118.3316929999999
 30
0.0
 11
143.2673669999998
 21
117.3316929999999
 31
0.0
  0
LINE
  5
9613
330
9588
100
AcDbEntity
  8
1
  6
Continuous
100
AcDbLine
 10
140.2673669999997
 20
117.3316929999999
 30
0.0
 11
134.7673669999998
 21
118.3316929999999
 31
0.0
  0
LINE
  5
9614
330
9588
100
AcDbEntity
  8
1
  6
Continuous
100
AcDbLine
 10
140.2673669999997
 20
205.331693
 30
0.0
 11
143.2673669999998
 21
205.331693
 31
0.0
  0
LINE
  5
9615
330
9588
100
AcDbEntity
  8
1
  6
Continuous
100
AcDbLine
 10
140.2673669999997
 20
205.331693
 30
0.0
 11
140.2673669999997
 21
197.331693
 31
0.0
  0
LINE
  5
9616
330
9588
100
AcDbEntity
  8
1
  6
Continuous
100
AcDbLine
 10
140.2673669999997
 20
197.331693
 30
0.0
 11
137.234367
 21
196.7836929999998
 31
0.0
  0
LINE
  5
9617
330
9588
100
AcDbEntity
  8
1
  6
Continuous
100
AcDbLine
 10
134.7673669999998
 20
193.831693
 30
0.0
 11
134.7673669999998
 21
190.331693
 31
0.0
  0
LINE
  5
9618
330
9588
100
AcDbEntity
  8
1
  6
Continuous
100
AcDbLine
 10
134.7673669999998
 20
190.331693
 30
0.0
 11
137.7673669999998
 21
190.331693
 31
0.0
  0
LINE
  5
9619
330
9588
100
AcDbEntity
  8
1
  6
Continuous
100
AcDbLine
 10
137.7673669999998
 20
193.831693
 30
0.0
 11
137.7673669999998
 21
190.331693
 31
0.0
  0
LINE
  5
961A
330
9588
100
AcDbEntity
  8
1
  6
Continuous
100
AcDbLine
 10
137.7673669999998
 20
193.831693
 30
0.0
 11
140.800367
 21
194.3796929999998
 31
0.0
  0
LINE
  5
961B
330
9588
100
AcDbEntity
  8
1
  6
Continuous
100
AcDbLine
 10
139.7673669999998
 20
204.1816929999999
 30
0.0
 11
139.7673669999998
 21
198.481693
 31
0.0
  0
LINE
  5
961C
330
9588
100
AcDbEntity
  8
1
  6
Continuous
100
AcDbLine
 10
131.7673669999998
 20
118.8316929999998
 30
0.0
 11
132.0853669999999
 21
118.8316929999998
 31
0.0
  0
LINE
  5
961D
330
9588
100
AcDbEntity
  8
1
  6
Continuous
100
AcDbLine
 10
131.7673669999998
 20
123.8316929999998
 30
0.0
 11
132.7633669999999
 21
123.8316929999998
 31
0.0
  0
LINE
  5
961E
330
9588
100
AcDbEntity
  8
2
  6
Continuous
100
AcDbLine
 10
137.2853669999998
 20
199.264693
 30
0.0
 11
138.326367
 21
199.264693
 31
0.0
  0
LINE
  5
961F
330
9588
100
AcDbEntity
  8
4
  6
CENTER
100
AcDbLine
 10
356.588367
 20
121.3316929999999
 30
0.0
 11
315.372367
 21
121.3316929999999
 31
0.0
  0
LINE
  5
9620
330
9588
100
AcDbEntity
  8
1
  6
Continuous
100
AcDbLine
 10
353.2673669999998
 20
125.3316929999999
 30
0.0
 11
353.2673669999998
 21
117.3316929999999
 31
0.0
  0
LINE
  5
9621
330
9588
100
AcDbEntity
  8
1
  6
Continuous
100
AcDbLine
 10
344.267367
 20
125.8316929999999
 30
0.0
 11
344.267367
 21
116.8316929999999
 31
0.0
  0
LINE
  5
9622
330
9588
100
AcDbEntity
  8
1
  6
Continuous
100
AcDbLine
 10
352.7673669999999
 20
116.8316929999999
 30
0.0
 11
344.267367
 21
116.8316929999999
 31
0.0
  0
LINE
  5
9623
330
9588
100
AcDbEntity
  8
1
  6
Continuous
100
AcDbLine
 10
352.7673669999999
 20
125.8316929999999
 30
0.0
 11
344.267367
 21
125.8316929999999
 31
0.0
  0
LINE
  5
9624
330
9588
100
AcDbEntity
  8
1
  6
Continuous
100
AcDbLine
 10
344.267367
 20
117.3316929999999
 30
0.0
 11
340.2673669999999
 21
117.3316929999999
 31
0.0
  0
LINE
  5
9625
330
9588
100
AcDbEntity
  8
1
  6
Continuous
100
AcDbLine
 10
344.267367
 20
125.3316929999999
 30
0.0
 11
340.2673669999999
 21
125.3316929999999
 31
0.0
  0
LINE
  5
9626
330
9588
100
AcDbEntity
  8
1
  6
Continuous
100
AcDbLine
 10
352.7673669999999
 20
125.8316929999999
 30
0.0
 11
353.2673669999998
 21
125.3316929999999
 31
0.0
  0
LINE
  5
9627
330
9588
100
AcDbEntity
  8
1
  6
Continuous
100
AcDbLine
 10
353.2673669999998
 20
117.3316929999999
 30
0.0
 11
352.7673669999999
 21
116.8316929999999
 31
0.0
  0
LINE
  5
9628
330
9588
100
AcDbEntity
  8
1
  6
Continuous
100
AcDbLine
 10
352.7673669999999
 20
125.8316929999999
 30
0.0
 11
352.7673669999999
 21
116.8316929999999
 31
0.0
  0
LINE
  5
9629
330
9588
100
AcDbEntity
  8
1
  6
Continuous
100
AcDbLine
 10
352.7673669999999
 20
124.8316929999998
 30
0.0
 11
344.267367
 21
124.8316929999998
 31
0.0
  0
LINE
  5
962A
330
9588
100
AcDbEntity
  8
1
  6
Continuous
100
AcDbLine
 10
352.7673669999999
 20
123.8316929999998
 30
0.0
 11
345.2673669999999
 21
123.8316929999998
 31
0.0
  0
LINE
  5
962B
330
9588
100
AcDbEntity
  8
1
  6
Continuous
100
AcDbLine
 10
352.7673669999999
 20
122.8316929999998
 30
0.0
 11
346.267367
 21
122.8316929999998
 31
0.0
  0
LINE
  5
962C
330
9588
100
AcDbEntity
  8
1
  6
Continuous
100
AcDbLine
 10
352.7673669999999
 20
121.8316929999998
 30
0.0
 11
347.2673669999999
 21
121.8316929999998
 31
0.0
  0
LINE
  5
962D
330
9588
100
AcDbEntity
  8
1
  6
Continuous
100
AcDbLine
 10
318.2673669999999
 20
122.9316929999999
 30
0.0
 11
318.2673669999999
 21
119.7316929999998
 31
0.0
  0
LINE
  5
962E
330
9588
100
AcDbEntity
  8
1
  6
Continuous
100
AcDbLine
 10
321.267367
 20
122.9316929999999
 30
0.0
 11
321.267367
 21
121.0116929999998
 31
0.0
  0
LINE
  5
962F
330
9588
100
AcDbEntity
  8
1
  6
Continuous
100
AcDbLine
 10
319.4673669999999
 20
127.3316929999999
 30
0.0
 11
319.4673669999999
 21
114.8316929999999
 31
0.0
  0
LINE
  5
9630
330
9588
100
AcDbEntity
  8
1
  6
Continuous
100
AcDbLine
 10
319.4673669999999
 20
122.9316929999999
 30
0.0
 11
318.2673669999999
 21
122.9316929999999
 31
0.0
  0
LINE
  5
9631
330
9588
100
AcDbEntity
  8
1
  6
Continuous
100
AcDbLine
 10
319.4673669999999
 20
119.7316929999998
 30
0.0
 11
318.2673669999999
 21
119.7316929999998
 31
0.0
  0
LINE
  5
9632
330
9588
100
AcDbEntity
  8
1
  6
Continuous
100
AcDbLine
 10
321.1573669999999
 20
120.1816929999999
 30
0.0
 11
320.9673669999999
 21
120.1816929999999
 31
0.0
  0
LINE
  5
9633
330
9588
100
AcDbEntity
  8
1
  6
Continuous
100
AcDbLine
 10
321.267367
 20
122.481693
 30
0.0
 11
320.9673669999999
 21
122.481693
 31
0.0
  0
LINE
  5
9634
330
9588
100
AcDbEntity
  8
1
  6
Continuous
100
AcDbLine
 10
322.2673669999999
 20
119.7316929999998
 30
0.0
 11
321.501367
 21
119.7316929999998
 31
0.0
  0
LINE
  5
9635
330
9588
100
AcDbEntity
  8
1
  6
Continuous
100
AcDbLine
 10
322.2673669999999
 20
122.9316929999999
 30
0.0
 11
321.925367
 21
122.9316929999999
 31
0.0
  0
LINE
  5
9636
330
9588
100
AcDbEntity
  8
1
  6
Continuous
100
AcDbLine
 10
320.9673669999999
 20
114.8316929999999
 30
0.0
 11
319.4673669999999
 21
114.8316929999999
 31
0.0
  0
LINE
  5
9637
330
9588
100
AcDbEntity
  8
1
  6
Continuous
100
AcDbLine
 10
320.9673669999999
 20
127.3316929999999
 30
0.0
 11
319.4673669999999
 21
127.3316929999999
 31
0.0
  0
LINE
  5
9638
330
9588
100
AcDbEntity
  8
1
  6
Continuous
100
AcDbLine
 10
320.9673669999999
 20
123.4536929999999
 30
0.0
 11
319.4673669999999
 21
123.4536929999999
 31
0.0
  0
LINE
  5
9639
330
9588
100
AcDbEntity
  8
1
  6
Continuous
100
AcDbLine
 10
320.9673669999999
 20
127.3316929999999
 30
0.0
 11
320.9673669999999
 21
114.8316929999999
 31
0.0
  0
LINE
  5
963A
330
9588
100
AcDbEntity
  8
1
  6
Continuous
100
AcDbLine
 10
320.9673669999999
 20
120.2006929999999
 30
0.0
 11
319.4673669999999
 21
120.2006929999999
 31
0.0
  0
LINE
  5
963B
330
9588
100
AcDbEntity
  8
1
  6
Continuous
100
AcDbLine
 10
321.521367
 20
122.9316929999999
 30
0.0
 11
321.267367
 21
122.9316929999999
 31
0.0
  0
LINE
  5
963C
330
9588
100
AcDbEntity
  8
1
  6
Continuous
100
AcDbLine
 10
321.867367
 20
119.7316929999998
 30
0.0
 11
321.867367
 21
117.1316929999999
 31
0.0
  0
LINE
  5
963D
330
9588
100
AcDbEntity
  8
1
  6
Continuous
100
AcDbLine
 10
322.266367
 20
125.505693
 30
0.0
 11
321.3663669999998
 21
118.705693
 31
0.0
  0
LINE
  5
963E
330
9588
100
AcDbEntity
  8
1
  6
Continuous
100
AcDbLine
 10
320.969367
 20
118.7576929999998
 30
0.0
 11
321.869367
 21
125.5576929999999
 31
0.0
  0
LINE
  5
963F
330
9588
100
AcDbEntity
  8
1
  6
Continuous
100
AcDbLine
 10
321.3673669999999
 20
123.9316929999999
 30
0.0
 11
321.3673669999999
 21
122.9316929999999
 31
0.0
  0
LINE
  5
9640
330
9588
100
AcDbEntity
  8
1
  6
Continuous
100
AcDbLine
 10
131.2673669999998
 20
124.5816929999999
 30
0.0
 11
131.2673669999998
 21
118.0816929999999
 31
0.0
  0
LINE
  5
9641
330
9588
100
AcDbEntity
  8
1
  6
Continuous
100
AcDbLine
 10
15.767667
 20
127.3316929999999
 30
0.0
 11
15.767667
 21
115.3316929999999
 31
0.0
  0
LINE
  5
9642
330
9588
100
AcDbEntity
  8
1
  6
Continuous
100
AcDbLine
 10
31.76766699999999
 20
127.3316929999999
 30
0.0
 11
31.76766699999999
 21
113.3316929999999
 31
0.0
  0
LINE
  5
9643
330
9588
100
AcDbEntity
  8
1
  6
Continuous
100
AcDbLine
 10
15.767667
 20
127.3316929999999
 30
0.0
 11
31.76766699999999
 21
127.3316929999999
 31
0.0
  0
LINE
  5
9644
330
9588
100
AcDbEntity
  8
1
  6
Continuous
100
AcDbLine
 10
17.767667
 20
113.3316929999999
 30
0.0
 11
31.76766699999999
 21
113.3316929999999
 31
0.0
  0
LINE
  5
9645
330
9588
100
AcDbEntity
  8
1
  6
Continuous
100
AcDbLine
 10
31.76766699999999
 20
124.59836
 30
0.0
 11
33.76766699999999
 21
124.3316929999999
 31
0.0
  0
LINE
  5
9646
330
9588
100
AcDbEntity
  8
1
  6
Continuous
100
AcDbLine
 10
33.76766699999999
 20
124.3316929999999
 30
0.0
 11
36.88666699999997
 21
124.3316929999999
 31
0.0
  0
LINE
  5
9647
330
9588
100
AcDbEntity
  8
1
  6
Continuous
100
AcDbLine
 10
33.76766699999999
 20
118.3316929999999
 30
0.0
 11
36.88666699999997
 21
118.3316929999999
 31
0.0
  0
LINE
  5
9648
330
9588
100
AcDbEntity
  8
1
  6
Continuous
100
AcDbLine
 10
33.76766699999999
 20
118.3316929999999
 30
0.0
 11
31.76766699999999
 21
118.0650259999999
 31
0.0
  0
LINE
  5
9649
330
9588
100
AcDbEntity
  8
1
  6
Continuous
100
AcDbLine
 10
17.767667
 20
115.3316929999999
 30
0.0
 11
31.76766699999999
 21
115.3316929999999
 31
0.0
  0
LINE
  5
964A
330
9588
100
AcDbEntity
  8
1
  6
Continuous
100
AcDbLine
 10
17.767667
 20
117.3316929999999
 30
0.0
 11
17.767667
 21
115.3316929999999
 31
0.0
  0
LINE
  5
964B
330
9588
100
AcDbEntity
  8
1
  6
Continuous
100
AcDbLine
 10
19.76766699999999
 20
115.3316929999999
 30
0.0
 11
19.76766699999999
 21
113.3316929999999
 31
0.0
  0
LINE
  5
964C
330
9588
100
AcDbEntity
  8
1
  6
Continuous
100
AcDbLine
 10
15.767667
 20
117.3316929999999
 30
0.0
 11
17.767667
 21
117.3316929999999
 31
0.0
  0
LINE
  5
964D
330
9588
100
AcDbEntity
  8
1
  6
Continuous
100
AcDbLine
 10
128.2673669999998
 20
127.3316929999999
 30
0.0
 11
146.2673669999998
 21
127.3316929999999
 31
0.0
  0
LINE
  5
964E
330
9588
100
AcDbEntity
  8
1
  6
Continuous
100
AcDbLine
 10
130.2673669999998
 20
113.3316929999999
 30
0.0
 11
144.2673669999998
 21
113.3316929999999
 31
0.0
  0
LINE
  5
964F
330
9588
100
AcDbEntity
  8
1
  6
Continuous
100
AcDbLine
 10
130.2673669999998
 20
127.3316929999999
 30
0.0
 11
130.2673669999998
 21
113.3316929999999
 31
0.0
  0
LINE
  5
9650
330
9588
100
AcDbEntity
  8
1
  6
Continuous
100
AcDbLine
 10
146.2673669999998
 20
127.3316929999999
 30
0.0
 11
146.2673669999998
 21
115.3316929999999
 31
0.0
  0
LINE
  5
9651
330
9588
100
AcDbEntity
  8
1
  6
Continuous
100
AcDbLine
 10
144.2673669999998
 20
127.3316929999999
 30
0.0
 11
144.2673669999998
 21
113.3316929999999
 31
0.0
  0
LINE
  5
9652
330
9588
100
AcDbEntity
  8
1
  6
Continuous
100
AcDbLine
 10
128.2673669999998
 20
115.3316929999999
 30
0.0
 11
146.2673669999998
 21
115.3316929999999
 31
0.0
  0
LINE
  5
9653
330
9588
100
AcDbEntity
  8
1
  6
Continuous
100
AcDbLine
 10
134.7673669999998
 20
124.3316929999999
 30
0.0
 11
134.7673669999998
 21
118.3316929999999
 31
0.0
  0
LINE
  5
9654
330
9588
100
AcDbEntity
  8
1
  6
Continuous
100
AcDbLine
 10
143.2673669999998
 20
205.331693
 30
0.0
 11
143.2673669999998
 21
197.331693
 31
0.0
  0
LINE
  5
9655
330
9588
100
AcDbEntity
  8
1
  6
Continuous
100
AcDbLine
 10
143.2673669999998
 20
198.581693
 30
0.0
 11
144.2673669999998
 21
198.581693
 31
0.0
  0
LINE
  5
9656
330
9588
100
AcDbEntity
  8
1
  6
Continuous
100
AcDbLine
 10
143.2673669999998
 20
204.081693
 30
0.0
 11
144.2673669999998
 21
204.081693
 31
0.0
  0
LINE
  5
9657
330
9588
100
AcDbEntity
  8
1
  6
Continuous
100
AcDbLine
 10
143.2673669999998
 20
124.0816929999999
 30
0.0
 11
144.2673669999998
 21
124.0816929999999
 31
0.0
  0
LINE
  5
9658
330
9588
100
AcDbEntity
  8
1
  6
Continuous
100
AcDbLine
 10
143.2673669999998
 20
118.5816929999998
 30
0.0
 11
144.2673669999998
 21
118.5816929999998
 31
0.0
  0
LINE
  5
9659
330
9588
100
AcDbEntity
  8
1
  6
Continuous
100
AcDbLine
 10
143.2673669999998
 20
125.3316929999999
 30
0.0
 11
143.2673669999998
 21
117.3316929999999
 31
0.0
  0
LINE
  5
965A
330
9588
100
AcDbEntity
  8
1
  6
Continuous
100
AcDbLine
 10
130.2673669999998
 20
209.831693
 30
0.0
 11
130.2673669999998
 21
195.831693
 31
0.0
  0
LINE
  5
965B
330
9588
100
AcDbEntity
  8
1
  6
Continuous
100
AcDbLine
 10
144.2673669999998
 20
209.831693
 30
0.0
 11
144.2673669999998
 21
195.831693
 31
0.0
  0
LINE
  5
965C
330
9588
100
AcDbEntity
  8
1
  6
Continuous
100
AcDbLine
 10
128.2673669999998
 20
195.831693
 30
0.0
 11
135.5313669999999
 21
195.831693
 31
0.0
  0
LINE
  5
965D
330
9588
100
AcDbEntity
  8
1
  6
Continuous
100
AcDbLine
 10
130.2673669999998
 20
211.831693
 30
0.0
 11
144.2673669999998
 21
211.831693
 31
0.0
  0
LINE
  5
965E
330
9588
100
AcDbEntity
  8
1
  6
Continuous
100
AcDbLine
 10
130.2673669999998
 20
209.831693
 30
0.0
 11
144.2673669999998
 21
209.831693
 31
0.0
  0
LINE
  5
965F
330
9588
100
AcDbEntity
  8
1
  6
Continuous
100
AcDbLine
 10
142.8653669999999
 20
195.831693
 30
0.0
 11
146.2673669999998
 21
195.831693
 31
0.0
  0
LINE
  5
9660
330
9588
100
AcDbEntity
  8
1
  6
Continuous
100
AcDbLine
 10
128.2673669999998
 20
32.831693
 30
0.0
 11
128.2673669999998
 21
46.831693
 31
0.0
  0
LINE
  5
9661
330
9588
100
AcDbEntity
  8
4
  6
CENTER
100
AcDbLine
 10
111.9473669999998
 20
41.331693
 30
0.0
 11
153.1633669999999
 21
41.331693
 31
0.0
  0
LINE
  5
9662
330
9588
100
AcDbEntity
  8
1
  6
Continuous
100
AcDbLine
 10
146.2673669999998
 20
32.831693
 30
0.0
 11
146.2673669999998
 21
46.831693
 31
0.0
  0
LINE
  5
9663
330
9588
100
AcDbEntity
  8
1
  6
Continuous
100
AcDbLine
 10
115.2673669999998
 20
37.331693
 30
0.0
 11
115.2673669999998
 21
45.33169299999999
 31
0.0
  0
LINE
  5
9664
330
9588
100
AcDbEntity
  8
1
  6
Continuous
100
AcDbLine
 10
124.267367
 20
36.831693
 30
0.0
 11
124.267367
 21
45.831693
 31
0.0
  0
LINE
  5
9665
330
9588
100
AcDbEntity
  8
1
  6
Continuous
100
AcDbLine
 10
115.7673669999998
 20
45.831693
 30
0.0
 11
124.267367
 21
45.831693
 31
0.0
  0
LINE
  5
9666
330
9588
100
AcDbEntity
  8
1
  6
Continuous
100
AcDbLine
 10
115.7673669999998
 20
36.831693
 30
0.0
 11
124.267367
 21
36.831693
 31
0.0
  0
LINE
  5
9667
330
9588
100
AcDbEntity
  8
1
  6
Continuous
100
AcDbLine
 10
124.267367
 20
45.33169299999999
 30
0.0
 11
128.2673669999998
 21
45.33169299999999
 31
0.0
  0
LINE
  5
9668
330
9588
100
AcDbEntity
  8
1
  6
Continuous
100
AcDbLine
 10
124.267367
 20
37.331693
 30
0.0
 11
128.2673669999998
 21
37.331693
 31
0.0
  0
LINE
  5
9669
330
9588
100
AcDbEntity
  8
1
  6
Continuous
100
AcDbLine
 10
115.7673669999998
 20
36.831693
 30
0.0
 11
115.2673669999998
 21
37.331693
 31
0.0
  0
LINE
  5
966A
330
9588
100
AcDbEntity
  8
1
  6
Continuous
100
AcDbLine
 10
115.2673669999998
 20
45.33169299999999
 30
0.0
 11
115.7673669999998
 21
45.831693
 31
0.0
  0
LINE
  5
966B
330
9588
100
AcDbEntity
  8
1
  6
Continuous
100
AcDbLine
 10
115.7673669999998
 20
36.831693
 30
0.0
 11
115.7673669999998
 21
45.831693
 31
0.0
  0
LINE
  5
966C
330
9588
100
AcDbEntity
  8
1
  6
Continuous
100
AcDbLine
 10
115.7673669999998
 20
44.831693
 30
0.0
 11
124.267367
 21
44.831693
 31
0.0
  0
LINE
  5
966D
330
9588
100
AcDbEntity
  8
1
  6
Continuous
100
AcDbLine
 10
115.7673669999998
 20
43.831693
 30
0.0
 11
123.267367
 21
43.831693
 31
0.0
  0
LINE
  5
966E
330
9588
100
AcDbEntity
  8
1
  6
Continuous
100
AcDbLine
 10
115.7673669999998
 20
42.83169299999999
 30
0.0
 11
122.267367
 21
42.83169299999999
 31
0.0
  0
LINE
  5
966F
330
9588
100
AcDbEntity
  8
1
  6
Continuous
100
AcDbLine
 10
115.7673669999998
 20
41.831693
 30
0.0
 11
121.267367
 21
41.831693
 31
0.0
  0
LINE
  5
9670
330
9588
100
AcDbEntity
  8
1
  6
Continuous
100
AcDbLine
 10
150.2673669999998
 20
39.731693
 30
0.0
 11
150.2673669999998
 21
42.931693
 31
0.0
  0
LINE
  5
9671
330
9588
100
AcDbEntity
  8
1
  6
Continuous
100
AcDbLine
 10
147.2673669999998
 20
39.731693
 30
0.0
 11
147.2673669999998
 21
41.651893
 31
0.0
  0
LINE
  5
9672
330
9588
100
AcDbEntity
  8
1
  6
Continuous
100
AcDbLine
 10
149.0673669999999
 20
37.03169299999998
 30
0.0
 11
149.0673669999999
 21
45.631693
 31
0.0
  0
LINE
  5
9673
330
9588
100
AcDbEntity
  8
1
  6
Continuous
100
AcDbLine
 10
149.0673669999999
 20
39.731693
 30
0.0
 11
150.2673669999998
 21
39.731693
 31
0.0
  0
LINE
  5
9674
330
9588
100
AcDbEntity
  8
1
  6
Continuous
100
AcDbLine
 10
149.0673669999999
 20
42.931693
 30
0.0
 11
150.2673669999998
 21
42.931693
 31
0.0
  0
LINE
  5
9675
330
9588
100
AcDbEntity
  8
1
  6
Continuous
100
AcDbLine
 10
147.3773669999999
 20
42.48169299999999
 30
0.0
 11
147.5673669999999
 21
42.48169299999999
 31
0.0
  0
LINE
  5
9676
330
9588
100
AcDbEntity
  8
1
  6
Continuous
100
AcDbLine
 10
147.2673669999998
 20
40.181693
 30
0.0
 11
147.5673669999999
 21
40.181693
 31
0.0
  0
LINE
  5
9677
330
9588
100
AcDbEntity
  8
1
  6
Continuous
100
AcDbLine
 10
146.2673669999998
 20
42.931693
 30
0.0
 11
147.033367
 21
42.931693
 31
0.0
  0
LINE
  5
9678
330
9588
100
AcDbEntity
  8
1
  6
Continuous
100
AcDbLine
 10
146.2673669999998
 20
39.731693
 30
0.0
 11
146.610367
 21
39.731693
 31
0.0
  0
LINE
  5
9679
330
9588
100
AcDbEntity
  8
1
  6
Continuous
100
AcDbLine
 10
147.5673669999999
 20
37.03169299999998
 30
0.0
 11
147.5673669999999
 21
45.631693
 31
0.0
  0
LINE
  5
967A
330
9588
100
AcDbEntity
  8
1
  6
Continuous
100
AcDbLine
 10
147.5673669999999
 20
37.231693
 30
0.0
 11
149.0673669999999
 21
37.231693
 31
0.0
  0
LINE
  5
967B
330
9588
100
AcDbEntity
  8
1
  6
Continuous
100
AcDbLine
 10
147.5673669999999
 20
45.431693
 30
0.0
 11
149.0673669999999
 21
45.431693
 31
0.0
  0
LINE
  5
967C
330
9588
100
AcDbEntity
  8
1
  6
Continuous
100
AcDbLine
 10
147.5673669999999
 20
40.33169299999999
 30
0.0
 11
149.0673669999999
 21
40.33169299999999
 31
0.0
  0
LINE
  5
967D
330
9588
100
AcDbEntity
  8
1
  6
Continuous
100
AcDbLine
 10
147.5673669999999
 20
42.331693
 30
0.0
 11
149.0673669999999
 21
42.331693
 31
0.0
  0
LINE
  5
967E
330
9588
100
AcDbEntity
  8
1
  6
Continuous
100
AcDbLine
 10
147.5673669999999
 20
37.03169299999998
 30
0.0
 11
149.0673669999999
 21
37.03169299999998
 31
0.0
  0
LINE
  5
967F
330
9588
100
AcDbEntity
  8
1
  6
Continuous
100
AcDbLine
 10
147.5673669999999
 20
45.631693
 30
0.0
 11
149.0673669999999
 21
45.631693
 31
0.0
  0
LINE
  5
9680
330
9588
100
AcDbEntity
  8
1
  6
Continuous
100
AcDbLine
 10
147.1673669999999
 20
38.731693
 30
0.0
 11
147.1673669999999
 21
39.731693
 31
0.0
  0
LINE
  5
9681
330
9588
100
AcDbEntity
  8
1
  6
Continuous
100
AcDbLine
 10
147.5663669999998
 20
43.90549299999999
 30
0.0
 11
146.6663669999998
 21
37.105493
 31
0.0
  0
LINE
  5
9682
330
9588
100
AcDbEntity
  8
1
  6
Continuous
100
AcDbLine
 10
146.2693669999999
 20
37.157993
 30
0.0
 11
147.169367
 21
43.957993
 31
0.0
  0
LINE
  5
9683
330
9588
100
AcDbEntity
  8
1
  6
Continuous
100
AcDbLine
 10
146.6673669999998
 20
42.931693
 30
0.0
 11
146.6673669999998
 21
45.53169299999999
 31
0.0
  0
LINE
  5
9684
330
9588
100
AcDbEntity
  8
1
  6
Continuous
100
AcDbLine
 10
147.0133669999998
 20
39.731693
 30
0.0
 11
147.2673669999998
 21
39.731693
 31
0.0
  0
LINE
  5
9685
330
9588
100
AcDbEntity
  8
1
  6
Continuous
100
AcDbLine
 10
134.7673669999998
 20
48.831693
 30
0.0
 11
134.7673669999998
 21
52.331693
 31
0.0
  0
LINE
  5
9686
330
9588
100
AcDbEntity
  8
1
  6
Continuous
100
AcDbLine
 10
134.7673669999998
 20
52.331693
 30
0.0
 11
137.7673669999998
 21
52.331693
 31
0.0
  0
LINE
  5
9687
330
9588
100
AcDbEntity
  8
1
  6
Continuous
100
AcDbLine
 10
137.7673669999998
 20
48.831693
 30
0.0
 11
137.7673669999998
 21
52.331693
 31
0.0
  0
LINE
  5
9688
330
9588
100
AcDbEntity
  8
1
  6
Continuous
100
AcDbLine
 10
137.7673669999998
 20
48.831693
 30
0.0
 11
140.800367
 21
48.283993
 31
0.0
  0
LINE
  5
9689
330
9588
100
AcDbEntity
  8
1
  6
Continuous
100
AcDbLine
 10
130.2673669999998
 20
32.831693
 30
0.0
 11
130.2673669999998
 21
46.831693
 31
0.0
  0
LINE
  5
968A
330
9588
100
AcDbEntity
  8
1
  6
Continuous
100
AcDbLine
 10
144.2673669999998
 20
32.831693
 30
0.0
 11
144.2673669999998
 21
46.831693
 31
0.0
  0
LINE
  5
968B
330
9588
100
AcDbEntity
  8
1
  6
Continuous
100
AcDbLine
 10
128.2673669999998
 20
46.831693
 30
0.0
 11
146.2673669999998
 21
46.831693
 31
0.0
  0
LINE
  5
968C
330
9588
100
AcDbEntity
  8
1
  6
Continuous
100
AcDbLine
 10
130.2673669999998
 20
30.83169299999999
 30
0.0
 11
144.2673669999998
 21
30.83169299999999
 31
0.0
  0
LINE
  5
968D
330
9588
100
AcDbEntity
  8
1
  6
Continuous
100
AcDbLine
 10
130.2673669999998
 20
32.831693
 30
0.0
 11
132.2673669999998
 21
32.831693
 31
0.0
  0
LINE
  5
968E
330
9588
100
AcDbEntity
  8
1
  6
Continuous
100
AcDbLine
 10
128.2673669999998
 20
34.831693
 30
0.0
 11
130.2673669999998
 21
34.831693
 31
0.0
  0
LINE
  5
968F
330
9588
100
AcDbEntity
  8
1
  6
Continuous
100
AcDbLine
 10
132.2673669999998
 20
32.831693
 30
0.0
 11
132.2673669999998
 21
30.83169299999999
 31
0.0
  0
LINE
  5
9690
330
9588
100
AcDbEntity
  8
1
  6
Continuous
100
AcDbLine
 10
142.2673669999998
 20
32.831693
 30
0.0
 11
142.2673669999998
 21
30.83169299999999
 31
0.0
  0
LINE
  5
9691
330
9588
100
AcDbEntity
  8
1
  6
Continuous
100
AcDbLine
 10
144.2673669999998
 20
34.831693
 30
0.0
 11
146.2673669999998
 21
34.831693
 31
0.0
  0
LINE
  5
9692
330
9588
100
AcDbEntity
  8
1
  6
Continuous
100
AcDbLine
 10
338.2673669999999
 20
113.3316929999999
 30
0.0
 11
324.2673669999998
 21
113.3316929999999
 31
0.0
  0
LINE
  5
9693
330
9588
100
AcDbEntity
  8
1
  6
Continuous
100
AcDbLine
 10
324.2673669999998
 20
117.3316929999999
 30
0.0
 11
324.2673669999998
 21
113.3316929999999
 31
0.0
  0
LINE
  5
9694
330
9588
100
AcDbEntity
  8
1
  6
Continuous
100
AcDbLine
 10
340.2673669999999
 20
115.3316929999999
 30
0.0
 11
336.2673669999999
 21
115.3316929999999
 31
0.0
  0
LINE
  5
9695
330
9588
100
AcDbEntity
  8
1
  6
Continuous
100
AcDbLine
 10
322.2673669999999
 20
127.3316929999999
 30
0.0
 11
322.2673669999999
 21
115.3316929999999
 31
0.0
  0
LINE
  5
9696
330
9588
100
AcDbEntity
  8
1
  6
Continuous
100
AcDbLine
 10
340.2673669999999
 20
127.3316929999999
 30
0.0
 11
322.2673669999999
 21
127.3316929999999
 31
0.0
  0
LINE
  5
9697
330
9588
100
AcDbEntity
  8
1
  6
Continuous
100
AcDbLine
 10
338.2673669999999
 20
117.3316929999999
 30
0.0
 11
338.2673669999999
 21
113.3316929999999
 31
0.0
  0
LINE
  5
9698
330
9588
100
AcDbEntity
  8
1
  6
Continuous
100
AcDbLine
 10
340.2673669999999
 20
127.3316929999999
 30
0.0
 11
340.2673669999999
 21
115.3316929999999
 31
0.0
  0
LINE
  5
9699
330
9588
100
AcDbEntity
  8
1
  6
Continuous
100
AcDbLine
 10
322.2673669999999
 20
117.3316929999999
 30
0.0
 11
324.2673669999998
 21
117.3316929999999
 31
0.0
  0
LINE
  5
969A
330
9588
100
AcDbEntity
  8
1
  6
Continuous
100
AcDbLine
 10
338.2673669999999
 20
117.3316929999999
 30
0.0
 11
340.2673669999999
 21
117.3316929999999
 31
0.0
  0
LINE
  5
969B
330
9588
100
AcDbEntity
  8
1
  6
Continuous
100
AcDbLine
 10
326.2673669999998
 20
115.3316929999999
 30
0.0
 11
322.2673669999999
 21
115.3316929999999
 31
0.0
  0
LINE
  5
969C
330
9588
100
AcDbEntity
  8
1
  6
Continuous
100
AcDbLine
 10
336.2673669999999
 20
115.3316929999999
 30
0.0
 11
336.2673669999999
 21
113.3316929999999
 31
0.0
  0
LINE
  5
969D
330
9588
100
AcDbEntity
  8
1
  6
Continuous
100
AcDbLine
 10
326.2673669999998
 20
115.3316929999999
 30
0.0
 11
326.2673669999998
 21
113.3316929999999
 31
0.0
  0
LINE
  5
969E
330
9588
100
AcDbEntity
  8
4
  6
CENTER
100
AcDbLine
 10
327.2673669999999
 20
123.8146929999999
 30
0.0
 11
327.2673669999999
 21
118.817693
 31
0.0
  0
LINE
  5
969F
330
9588
100
AcDbEntity
  8
1
  6
Continuous
100
AcDbLine
 10
244.7673669999999
 20
127.3316929999999
 30
0.0
 11
244.7673669999999
 21
115.3316929999999
 31
0.0
  0
LINE
  5
96A0
330
9588
100
AcDbEntity
  8
1
  6
Continuous
100
AcDbLine
 10
242.7673669999999
 20
113.3316929999999
 30
0.0
 11
228.7673669999998
 21
113.3316929999999
 31
0.0
  0
LINE
  5
96A1
330
9588
100
AcDbEntity
  8
1
  6
Continuous
100
AcDbLine
 10
242.7673669999999
 20
115.3316929999999
 30
0.0
 11
238.366367
 21
115.3316929999999
 31
0.0
  0
LINE
  5
96A2
330
9588
100
AcDbEntity
  8
1
  6
Continuous
100
AcDbLine
 10
242.7673669999999
 20
117.3316929999999
 30
0.0
 11
242.7673669999999
 21
115.3316929999999
 31
0.0
  0
LINE
  5
96A3
330
9588
100
AcDbEntity
  8
1
  6
Continuous
100
AcDbLine
 10
240.7673669999998
 20
115.3316929999999
 30
0.0
 11
240.7673669999998
 21
113.3316929999999
 31
0.0
  0
LINE
  5
96A4
330
9588
100
AcDbEntity
  8
1
  6
Continuous
100
AcDbLine
 10
244.7673669999999
 20
117.3316929999999
 30
0.0
 11
242.7673669999999
 21
117.3316929999999
 31
0.0
  0
LINE
  5
96A5
330
9588
100
AcDbEntity
  8
1
  6
Continuous
100
AcDbLine
 10
244.7673669999999
 20
127.3316929999999
 30
0.0
 11
228.7673669999998
 21
127.3316929999999
 31
0.0
  0
LINE
  5
96A6
330
9588
100
AcDbEntity
  8
1
  6
Continuous
100
AcDbLine
 10
228.7673669999998
 20
127.3316929999999
 30
0.0
 11
228.7673669999998
 21
113.3316929999999
 31
0.0
  0
LINE
  5
96A7
330
9588
100
AcDbEntity
  8
1
  6
Continuous
100
AcDbLine
 10
230.169367
 20
115.3316929999999
 30
0.0
 11
228.7673669999998
 21
115.3316929999999
 31
0.0
  0
LINE
  5
96A8
330
9588
100
AcDbEntity
  8
1
  6
Continuous
100
AcDbLine
 10
236.469367
 20
115.3316929999999
 30
0.0
 11
232.066367
 21
115.3316929999999
 31
0.0
  0
LINE
  5
96A9
330
9588
100
AcDbEntity
  8
1
  6
Continuous
100
AcDbLine
 10
131.7673669999998
 20
124.1816929999999
 30
0.0
 11
131.7673669999998
 21
118.4816929999998
 31
0.0
  0
LINE
  5
96AA
330
9588
100
AcDbEntity
  8
1
  6
Continuous
100
AcDbLine
 10
132.0423669999998
 20
118.4476929999999
 30
0.0
 11
131.9903669999999
 21
118.8316929999998
 31
0.0
  0
LINE
  5
96AB
330
9588
100
AcDbEntity
  8
1
  6
Continuous
100
AcDbLine
 10
131.765367
 20
124.2156929999999
 30
0.0
 11
131.8173669999999
 21
123.8316929999998
 31
0.0
  0
LINE
  5
96AC
330
9588
100
AcDbEntity
  8
1
  6
Continuous
100
AcDbLine
 10
132.0423669999998
 20
118.5156929999999
 30
0.0
 11
132.8153669999998
 21
124.2156929999999
 31
0.0
  0
LINE
  5
96AD
330
9588
100
AcDbEntity
  8
1
  6
Continuous
100
AcDbLine
 10
133.3103669999998
 20
124.1476929999999
 30
0.0
 11
132.5383669999999
 21
118.4476929999999
 31
0.0
  0
LINE
  5
96AE
330
9588
100
AcDbEntity
  8
1
  6
Continuous
100
AcDbLine
 10
133.588367
 20
118.4476929999999
 30
0.0
 11
133.5363669999999
 21
118.8316929999998
 31
0.0
  0
LINE
  5
96AF
330
9588
100
AcDbEntity
  8
1
  6
Continuous
100
AcDbLine
 10
133.3113669999999
 20
124.2156929999999
 30
0.0
 11
133.3633669999999
 21
123.8316929999998
 31
0.0
  0
LINE
  5
96B0
330
9588
100
AcDbEntity
  8
1
  6
Continuous
100
AcDbLine
 10
134.0833669999998
 20
118.4476929999999
 30
0.0
 11
134.7673669999998
 21
123.4946929999999
 31
0.0
  0
LINE
  5
96B1
330
9588
100
AcDbEntity
  8
1
  6
Continuous
100
AcDbLine
 10
134.360367
 20
124.2156929999999
 30
0.0
 11
133.588367
 21
118.5156929999999
 31
0.0
  0
LINE
  5
96B2
330
9588
100
AcDbEntity
  8
1
  6
Continuous
100
AcDbLine
 10
138.224367
 20
198.4476929999999
 30
0.0
 11
138.1723669999997
 21
198.831693
 31
0.0
  0
LINE
  5
96B3
330
9588
100
AcDbEntity
  8
1
  6
Continuous
100
AcDbLine
 10
138.997367
 20
204.2156929999999
 30
0.0
 11
138.224367
 21
198.515693
 31
0.0
  0
LINE
  5
96B4
330
9588
100
AcDbEntity
  8
1
  6
Continuous
100
AcDbLine
 10
138.7203669999999
 20
198.4476929999999
 30
0.0
 11
139.492367
 21
204.1476929999999
 31
0.0
  0
LINE
  5
96B5
330
9588
100
AcDbEntity
  8
1
  6
Continuous
100
AcDbLine
 10
139.770367
 20
198.4476929999999
 30
0.0
 11
139.7183669999998
 21
198.831693
 31
0.0
  0
LINE
  5
96B6
330
9588
100
AcDbEntity
  8
1
  6
Continuous
100
AcDbLine
 10
139.492367
 20
204.2156929999999
 30
0.0
 11
139.5443669999999
 21
203.831693
 31
0.0
  0
LINE
  5
96B7
330
9588
100
AcDbEntity
  8
1
  6
Continuous
100
AcDbLine
 10
132.5903669999999
 20
118.8316929999998
 30
0.0
 11
133.6313669999998
 21
118.8316929999998
 31
0.0
  0
LINE
  5
96B8
330
9588
100
AcDbEntity
  8
1
  6
Continuous
100
AcDbLine
 10
134.1353669999998
 20
118.8316929999998
 30
0.0
 11
134.7673669999998
 21
118.8316929999998
 31
0.0
  0
LINE
  5
96B9
330
9588
100
AcDbEntity
  8
1
  6
Continuous
100
AcDbLine
 10
133.2683669999999
 20
123.8316929999998
 30
0.0
 11
134.308367
 21
123.8316929999998
 31
0.0
  0
LINE
  5
96BA
330
9588
100
AcDbEntity
  8
2
  6
Continuous
100
AcDbLine
 10
139.391367
 20
203.3986929999998
 30
0.0
 11
139.7673669999998
 21
203.3986929999998
 31
0.0
  0
LINE
  5
96BB
330
9588
100
AcDbEntity
  8
1
  6
Continuous
100
AcDbLine
 10
139.4493669999999
 20
203.831693
 30
0.0
 11
139.7673669999998
 21
203.831693
 31
0.0
  0
LINE
  5
96BC
330
9588
100
AcDbEntity
  8
1
  6
Continuous
100
AcDbLine
 10
138.7723669999998
 20
198.831693
 30
0.0
 11
139.7673669999998
 21
198.831693
 31
0.0
  0
LINE
  5
96BD
330
9588
100
AcDbEntity
  8
2
  6
Continuous
100
AcDbLine
 10
138.8303669999999
 20
199.264693
 30
0.0
 11
139.7673669999998
 21
199.264693
 31
0.0
  0
LINE
  5
96BE
330
9588
100
AcDbEntity
  8
4
  6
CENTER
100
AcDbLine
 10
111.9473669999998
 20
201.331693
 30
0.0
 11
153.1633669999999
 21
201.331693
 31
0.0
  0
LINE
  5
96BF
330
9588
100
AcDbEntity
  8
1
  6
Continuous
100
AcDbLine
 10
135.7673669999998
 20
199.3316929999998
 30
0.0
 11
136.7893669999999
 21
199.3316929999998
 31
0.0
  0
LINE
  5
96C0
330
9588
100
AcDbEntity
  8
1
  6
Continuous
100
AcDbLine
 10
130.2673669999998
 20
198.0816929999998
 30
0.0
 11
131.2673669999998
 21
198.0816929999998
 31
0.0
  0
LINE
  5
96C1
330
9588
100
AcDbEntity
  8
1
  6
Continuous
100
AcDbLine
 10
130.2673669999998
 20
204.5816929999999
 30
0.0
 11
131.2673669999998
 21
204.5816929999999
 31
0.0
  0
LINE
  5
96C2
330
9588
100
AcDbEntity
  8
1
  6
Continuous
100
AcDbLine
 10
131.7673669999998
 20
198.831693
 30
0.0
 11
132.0853669999999
 21
198.831693
 31
0.0
  0
LINE
  5
96C3
330
9588
100
AcDbEntity
  8
1
  6
Continuous
100
AcDbLine
 10
131.7673669999998
 20
203.831693
 30
0.0
 11
132.7633669999999
 21
203.831693
 31
0.0
  0
LINE
  5
96C4
330
9588
100
AcDbEntity
  8
1
  6
Continuous
100
AcDbLine
 10
131.2673669999998
 20
204.5816929999999
 30
0.0
 11
131.2673669999998
 21
198.0816929999998
 31
0.0
  0
LINE
  5
96C5
330
9588
100
AcDbEntity
  8
1
  6
Continuous
100
AcDbLine
 10
135.7673669999998
 20
203.831693
 30
0.0
 11
135.7673669999998
 21
203.192693
 31
0.0
  0
LINE
  5
96C6
330
9588
100
AcDbEntity
  8
1
  6
Continuous
100
AcDbLine
 10
131.7673669999998
 20
204.1816929999999
 30
0.0
 11
131.7673669999998
 21
198.481693
 31
0.0
  0
LINE
  5
96C7
330
9588
100
AcDbEntity
  8
1
  6
Continuous
100
AcDbLine
 10
132.0423669999998
 20
198.4476929999999
 30
0.0
 11
131.9903669999999
 21
198.831693
 31
0.0
  0
LINE
  5
96C8
330
9588
100
AcDbEntity
  8
1
  6
Continuous
100
AcDbLine
 10
131.765367
 20
204.2156929999999
 30
0.0
 11
131.8173669999999
 21
203.831693
 31
0.0
  0
LINE
  5
96C9
330
9588
100
AcDbEntity
  8
1
  6
Continuous
100
AcDbLine
 10
132.0423669999998
 20
198.515693
 30
0.0
 11
132.8153669999998
 21
204.2156929999999
 31
0.0
  0
LINE
  5
96CA
330
9588
100
AcDbEntity
  8
1
  6
Continuous
100
AcDbLine
 10
133.3103669999998
 20
204.1476929999999
 30
0.0
 11
132.5383669999999
 21
198.4476929999999
 31
0.0
  0
LINE
  5
96CB
330
9588
100
AcDbEntity
  8
1
  6
Continuous
100
AcDbLine
 10
133.588367
 20
198.4476929999999
 30
0.0
 11
133.5363669999999
 21
198.831693
 31
0.0
  0
LINE
  5
96CC
330
9588
100
AcDbEntity
  8
1
  6
Continuous
100
AcDbLine
 10
133.3103669999998
 20
204.2156929999999
 30
0.0
 11
133.3633669999999
 21
203.831693
 31
0.0
  0
LINE
  5
96CD
330
9588
100
AcDbEntity
  8
1
  6
Continuous
100
AcDbLine
 10
134.0833669999998
 20
198.4476929999999
 30
0.0
 11
134.856367
 21
204.1476929999999
 31
0.0
  0
LINE
  5
96CE
330
9588
100
AcDbEntity
  8
1
  6
Continuous
100
AcDbLine
 10
134.360367
 20
204.2156929999999
 30
0.0
 11
133.588367
 21
198.515693
 31
0.0
  0
LINE
  5
96CF
330
9588
100
AcDbEntity
  8
1
  6
Continuous
100
AcDbLine
 10
135.133367
 20
198.4476929999999
 30
0.0
 11
135.0813669999998
 21
198.831693
 31
0.0
  0
LINE
  5
96D0
330
9588
100
AcDbEntity
  8
1
  6
Continuous
100
AcDbLine
 10
134.856367
 20
204.2156929999999
 30
0.0
 11
134.9083669999999
 21
203.831693
 31
0.0
  0
LINE
  5
96D1
330
9588
100
AcDbEntity
  8
1
  6
Continuous
100
AcDbLine
 10
135.629367
 20
198.4476929999999
 30
0.0
 11
136.401367
 21
204.1476929999999
 31
0.0
  0
LINE
  5
96D2
330
9588
100
AcDbEntity
  8
1
  6
Continuous
100
AcDbLine
 10
135.9063669999999
 20
204.2156929999999
 30
0.0
 11
135.133367
 21
198.515693
 31
0.0
  0
LINE
  5
96D3
330
9588
100
AcDbEntity
  8
1
  6
Continuous
100
AcDbLine
 10
132.5903669999999
 20
198.831693
 30
0.0
 11
133.6313669999998
 21
198.831693
 31
0.0
  0
LINE
  5
96D4
330
9588
100
AcDbEntity
  8
1
  6
Continuous
100
AcDbLine
 10
134.1353669999998
 20
198.831693
 30
0.0
 11
135.1763669999999
 21
198.831693
 31
0.0
  0
LINE
  5
96D5
330
9588
100
AcDbEntity
  8
1
  6
Continuous
100
AcDbLine
 10
135.6813669999999
 20
198.831693
 30
0.0
 11
135.7673669999998
 21
198.831693
 31
0.0
  0
LINE
  5
96D6
330
9588
100
AcDbEntity
  8
1
  6
Continuous
100
AcDbLine
 10
134.8133669999998
 20
203.831693
 30
0.0
 11
135.7673669999998
 21
203.831693
 31
0.0
  0
LINE
  5
96D7
330
9588
100
AcDbEntity
  8
1
  6
Continuous
100
AcDbLine
 10
133.2683669999999
 20
203.831693
 30
0.0
 11
134.308367
 21
203.831693
 31
0.0
  0
LINE
  5
96D8
330
9588
100
AcDbEntity
  8
1
  6
Continuous
100
AcDbLine
 10
135.7673669999998
 20
199.4706929999999
 30
0.0
 11
135.7673669999998
 21
198.831693
 31
0.0
  0
LINE
  5
96D9
330
9588
100
AcDbEntity
  8
1
  6
Continuous
100
AcDbLine
 10
136.5213669999999
 20
203.331693
 30
0.0
 11
136.401367
 21
204.2156929999999
 31
0.0
  0
LINE
  5
96DA
330
9588
100
AcDbEntity
  8
1
  6
Continuous
100
AcDbLine
 10
136.2913669999997
 20
203.331693
 30
0.0
 11
137.2673669999997
 21
203.331693
 31
0.0
  0
LINE
  5
96DB
330
9588
100
AcDbEntity
  8
1
  6
Continuous
100
AcDbLine
 10
137.2673669999997
 20
198.831693
 30
0.0
 11
138.2673669999997
 21
198.831693
 31
0.0
  0
LINE
  5
96DC
330
9588
100
AcDbEntity
  8
1
  6
Continuous
100
AcDbLine
 10
136.5593669999997
 20
199.3316929999998
 30
0.0
 11
136.6793669999998
 21
198.4476929999999
 31
0.0
  0
LINE
  5
96DD
330
9588
100
AcDbEntity
  8
1
  6
Continuous
100
AcDbLine
 10
137.451367
 20
204.2156929999999
 30
0.0
 11
136.6793669999998
 21
198.515693
 31
0.0
  0
LINE
  5
96DE
330
9588
100
AcDbEntity
  8
1
  6
Continuous
100
AcDbLine
 10
137.1743669999998
 20
198.4476929999999
 30
0.0
 11
137.9473669999998
 21
204.1476929999999
 31
0.0
  0
LINE
  5
96DF
330
9588
100
AcDbEntity
  8
1
  6
Continuous
100
AcDbLine
 10
137.2673669999997
 20
199.135693
 30
0.0
 11
137.2673669999997
 21
198.831693
 31
0.0
  0
LINE
  5
96E0
330
9588
100
AcDbEntity
  8
1
  6
Continuous
100
AcDbLine
 10
137.2673669999997
 20
203.831693
 30
0.0
 11
137.2673669999997
 21
202.8576929999999
 31
0.0
  0
LINE
  5
96E1
330
9588
100
AcDbEntity
  8
1
  6
Continuous
100
AcDbLine
 10
137.2673669999997
 20
203.831693
 30
0.0
 11
137.3993669999999
 21
203.831693
 31
0.0
  0
LINE
  5
96E2
330
9588
100
AcDbEntity
  8
2
  6
Continuous
100
AcDbLine
 10
137.2673669999997
 20
203.3986929999998
 30
0.0
 11
137.3413669999999
 21
203.3986929999998
 31
0.0
  0
LINE
  5
96E3
330
9588
100
AcDbEntity
  8
1
  6
Continuous
100
AcDbLine
 10
137.9473669999998
 20
204.2156929999999
 30
0.0
 11
137.999367
 21
203.831693
 31
0.0
  0
LINE
  5
96E4
330
9588
100
AcDbEntity
  8
1
  6
Continuous
100
AcDbLine
 10
137.9043669999997
 20
203.831693
 30
0.0
 11
138.9453669999997
 21
203.831693
 31
0.0
  0
LINE
  5
96E5
330
9588
100
AcDbEntity
  8
2
  6
Continuous
100
AcDbLine
 10
137.8453669999998
 20
203.3986929999998
 30
0.0
 11
138.8863669999998
 21
203.3986929999998
 31
0.0
  0
CIRCLE
  5
96E6
330
9588
100
AcDbEntity
  8
1
  6
Continuous
100
AcDbCircle
 10
26.267667
 20
121.3316929999999
 30
0.0
 40
4.5
  0
CIRCLE
  5
96E7
330
9588
100
AcDbEntity
  8
1
  6
Continuous
100
AcDbCircle
 10
26.267667
 20
121.3316929999999
 30
0.0
 40
4.0
  0
CIRCLE
  5
96E8
330
9588
100
AcDbEntity
  8
1
  6
Continuous
100
AcDbCircle
 10
234.2673669999999
 20
121.3316929999999
 30
0.0
 40
1.6
  0
ARC
  5
96E9
330
9588
100
AcDbEntity
  8
1
  6
Continuous
100
AcDbCircle
 10
234.2673669999999
 20
121.3316929999999
 30
0.0
 40
3.6
100
AcDbArc
 50
341.6819999999999
 51
36.1087
  0
ARC
  5
96EA
330
9588
100
AcDbEntity
  8
1
  6
Continuous
100
AcDbCircle
 10
234.2673669999999
 20
121.3316929999999
 30
0.0
 40
3.6
100
AcDbArc
 50
73.8724
 51
106.128
  0
ARC
  5
96EB
330
9588
100
AcDbEntity
  8
1
  6
Continuous
100
AcDbCircle
 10
234.2673669999999
 20
121.3316929999999
 30
0.0
 40
3.6
100
AcDbArc
 50
143.8909999999999
 51
198.3179999999999
  0
ARC
  5
96EC
330
9588
100
AcDbEntity
  8
1
  6
Continuous
100
AcDbCircle
 10
237.217367
 20
126.1816929999999
 30
0.0
 40
1.149999999999999
100
AcDbArc
 50
334.202
 51
154.2019999999999
  0
ARC
  5
96ED
330
9588
100
AcDbEntity
  8
1
  6
Continuous
100
AcDbCircle
 10
231.3173669999999
 20
126.1816929999999
 30
0.0
 40
1.149999999999999
100
AcDbArc
 50
25.79779999999999
 51
205.798
  0
ARC
  5
96EE
330
9588
100
AcDbEntity
  8
1
  6
Continuous
100
AcDbCircle
 10
237.4173669999999
 20
115.9816929999998
 30
0.0
 40
1.149999999999999
100
AcDbArc
 50
192.1579999999999
 51
12.1576
  0
ARC
  5
96EF
330
9588
100
AcDbEntity
  8
1
  6
Continuous
100
AcDbCircle
 10
231.117367
 20
115.9816929999998
 30
0.0
 40
1.149999999999999
100
AcDbArc
 50
167.842
 51
347.8419999999999
  0
CIRCLE
  5
96F0
330
9588
100
AcDbEntity
  8
1
  6
Continuous
100
AcDbCircle
 10
147.3673669999998
 20
203.931693
 30
0.0
 40
0.2
  0
ARC
  5
96F1
330
9588
100
AcDbEntity
  8
1
  6
Continuous
100
AcDbCircle
 10
146.4673669999999
 20
205.531693
 30
0.0
 40
0.2
100
AcDbArc
 50
0.0
 51
180.0
  0
CIRCLE
  5
96F2
330
9588
100
AcDbEntity
  8
1
  6
Continuous
100
AcDbCircle
 10
146.4673669999999
 20
197.131693
 30
0.0
 40
0.2
  0
ARC
  5
96F3
330
9588
100
AcDbEntity
  8
1
  6
Continuous
100
AcDbCircle
 10
147.3673669999998
 20
198.731693
 30
0.0
 40
0.2
100
AcDbArc
 50
180.0
 51
0.00001
  0
CIRCLE
  5
96F4
330
9588
100
AcDbEntity
  8
1
  6
Continuous
100
AcDbCircle
 10
146.4673669999999
 20
117.1316929999999
 30
0.0
 40
0.2
  0
ARC
  5
96F5
330
9588
100
AcDbEntity
  8
1
  6
Continuous
100
AcDbCircle
 10
147.3673669999998
 20
118.7316929999998
 30
0.0
 40
0.2
100
AcDbArc
 50
180.0
 51
0.00001
  0
CIRCLE
  5
96F6
330
9588
100
AcDbEntity
  8
1
  6
Continuous
100
AcDbCircle
 10
147.3673669999998
 20
123.9316929999999
 30
0.0
 40
0.2
  0
ARC
  5
96F7
330
9588
100
AcDbEntity
  8
1
  6
Continuous
100
AcDbCircle
 10
146.4673669999999
 20
125.5316929999999
 30
0.0
 40
0.2
100
AcDbArc
 50
0.0
 51
180.0
  0
ARC
  5
96F8
330
9588
100
AcDbEntity
  8
1
  6
Continuous
100
AcDbCircle
 10
234.2673669999999
 20
121.3316929999999
 30
0.0
 40
4.4
100
AcDbArc
 50
72.10179999999998
 51
107.899
  0
ARC
  5
96F9
330
9588
100
AcDbEntity
  8
1
  6
Continuous
100
AcDbCircle
 10
234.2673669999999
 20
121.3316929999999
 30
0.0
 40
4.4
100
AcDbArc
 50
326.9979999999998
 51
41.5404
  0
ARC
  5
96FA
330
9588
100
AcDbEntity
  8
1
  6
Continuous
100
AcDbCircle
 10
234.2673669999999
 20
121.3316929999999
 30
0.0
 40
4.4
100
AcDbArc
 50
138.46
 51
213.0009999999999
  0
ARC
  5
96FB
330
9588
100
AcDbEntity
  8
5
  6
PHANTOM
100
AcDbCircle
 10
133.7673669999998
 20
193.831693
 30
0.0
 40
3.0
100
AcDbArc
 50
100.2369999999999
 51
180.0
  0
ARC
  5
96FC
330
9588
100
AcDbEntity
  8
5
  6
PHANTOM
100
AcDbCircle
 10
136.2673669999997
 20
197.331693
 30
0.0
 40
3.0
100
AcDbArc
 50
280.237
 51
0.0
  0
ARC
  5
96FD
330
9588
100
AcDbEntity
  8
1
  6
Continuous
100
AcDbCircle
 10
235.2673669999998
 20
121.3316929999999
 30
0.0
 40
12.0
100
AcDbArc
 50
165.5219999999999
 51
194.4779999999999
  0
ARC
  5
96FE
330
9588
100
AcDbEntity
  8
1
  6
Continuous
100
AcDbCircle
 10
137.7673669999998
 20
193.831693
 30
0.0
 40
3.0
100
AcDbArc
 50
100.2369999999999
 51
180.0
  0
ARC
  5
96FF
330
9588
100
AcDbEntity
  8
1
  6
Continuous
100
AcDbCircle
 10
140.2673669999997
 20
197.331693
 30
0.0
 40
3.0
100
AcDbArc
 50
280.237
 51
0.0
  0
ARC
  5
9700
330
9588
100
AcDbEntity
  8
1
  6
Continuous
100
AcDbCircle
 10
140.0173669999998
 20
198.481693
 30
0.0
 40
0.25
100
AcDbArc
 50
191.275
 51
0.0
  0
ARC
  5
9701
330
9588
100
AcDbEntity
  8
1
  6
Continuous
100
AcDbCircle
 10
140.0173669999998
 20
204.1816929999999
 30
0.0
 40
0.25
100
AcDbArc
 50
0.0
 51
180.0
  0
CIRCLE
  5
9702
330
9588
100
AcDbEntity
  8
1
  6
Continuous
100
AcDbCircle
 10
322.067367
 20
117.1316929999999
 30
0.0
 40
0.2
  0
ARC
  5
9703
330
9588
100
AcDbEntity
  8
1
  6
Continuous
100
AcDbCircle
 10
321.167367
 20
118.7316929999998
 30
0.0
 40
0.2
100
AcDbArc
 50
180.0
 51
0.0
  0
CIRCLE
  5
9704
330
9588
100
AcDbEntity
  8
1
  6
Continuous
100
AcDbCircle
 10
321.167367
 20
123.9316929999999
 30
0.0
 40
0.2
  0
ARC
  5
9705
330
9588
100
AcDbEntity
  8
1
  6
Continuous
100
AcDbCircle
 10
322.067367
 20
125.5316929999999
 30
0.0
 40
0.2
100
AcDbArc
 50
0.0
 51
180.0
  0
ARC
  5
9706
330
9588
100
AcDbEntity
  8
1
  6
Continuous
100
AcDbCircle
 10
25.267667
 20
121.3316929999999
 30
0.0
 40
12.0
100
AcDbArc
 50
345.522
 51
14.4775
  0
ARC
  5
9707
330
9588
100
AcDbEntity
  8
1
  6
Continuous
100
AcDbCircle
 10
17.767667
 20
115.3316929999999
 30
0.0
 40
2.0
100
AcDbArc
 50
180.0
 51
270.0
  0
ARC
  5
9708
330
9588
100
AcDbEntity
  8
1
  6
Continuous
100
AcDbCircle
 10
17.767667
 20
115.3316929999999
 30
0.0
 40
2.0
100
AcDbArc
 50
0.0
 51
90.0
  0
ARC
  5
9709
330
9588
100
AcDbEntity
  8
1
  6
Continuous
100
AcDbCircle
 10
130.2673669999998
 20
209.831693
 30
0.0
 40
2.0
100
AcDbArc
 50
90.0
 51
180.0
  0
ARC
  5
970A
330
9588
100
AcDbEntity
  8
1
  6
Continuous
100
AcDbCircle
 10
144.2673669999998
 20
209.831693
 30
0.0
 40
2.0
100
AcDbArc
 50
0.0
 51
90.0
  0
ARC
  5
970B
330
9588
100
AcDbEntity
  8
1
  6
Continuous
100
AcDbCircle
 10
130.2673669999998
 20
209.831693
 30
0.0
 40
2.0
100
AcDbArc
 50
270.0
 51
0.0
  0
ARC
  5
970C
330
9588
100
AcDbEntity
  8
1
  6
Continuous
100
AcDbCircle
 10
144.2673669999998
 20
209.831693
 30
0.0
 40
2.0
100
AcDbArc
 50
180.0
 51
270.0
  0
CIRCLE
  5
970D
330
9588
100
AcDbEntity
  8
1
  6
Continuous
100
AcDbCircle
 10
147.3673669999998
 20
38.731693
 30
0.0
 40
0.2
  0
ARC
  5
970E
330
9588
100
AcDbEntity
  8
1
  6
Continuous
100
AcDbCircle
 10
146.4673669999999
 20
37.131693
 30
0.0
 40
0.2
100
AcDbArc
 50
180.0
 51
0.00001
  0
CIRCLE
  5
970F
330
9588
100
AcDbEntity
  8
1
  6
Continuous
100
AcDbCircle
 10
146.4673669999999
 20
45.53169299999999
 30
0.0
 40
0.2
  0
ARC
  5
9710
330
9588
100
AcDbEntity
  8
1
  6
Continuous
100
AcDbCircle
 10
147.3673669999998
 20
43.931693
 30
0.0
 40
0.2
100
AcDbArc
 50
0.0
 51
180.0
  0
ARC
  5
9711
330
9588
100
AcDbEntity
  8
1
  6
Continuous
100
AcDbCircle
 10
137.7673669999998
 20
48.831693
 30
0.0
 40
3.0
100
AcDbArc
 50
180.0
 51
221.81
  0
ARC
  5
9712
330
9588
100
AcDbEntity
  8
1
  6
Continuous
100
AcDbCircle
 10
140.2673669999997
 20
45.33169299999999
 30
0.0
 40
3.0
100
AcDbArc
 50
30.0
 51
79.76330000000001
  0
ARC
  5
9713
330
9588
100
AcDbEntity
  8
1
  6
Continuous
100
AcDbCircle
 10
130.2673669999998
 20
32.831693
 30
0.0
 40
2.0
100
AcDbArc
 50
180.0
 51
270.0
  0
ARC
  5
9714
330
9588
100
AcDbEntity
  8
1
  6
Continuous
100
AcDbCircle
 10
144.2673669999998
 20
32.831693
 30
0.0
 40
2.0
100
AcDbArc
 50
270.0
 51
0.0
  0
ARC
  5
9715
330
9588
100
AcDbEntity
  8
1
  6
Continuous
100
AcDbCircle
 10
130.2673669999998
 20
32.831693
 30
0.0
 40
2.0
100
AcDbArc
 50
0.0
 51
90.0
  0
ARC
  5
9716
330
9588
100
AcDbEntity
  8
1
  6
Continuous
100
AcDbCircle
 10
144.2673669999998
 20
32.831693
 30
0.0
 40
2.0
100
AcDbArc
 50
90.0
 51
180.0
  0
ARC
  5
9717
330
9588
100
AcDbEntity
  8
1
  6
Continuous
100
AcDbCircle
 10
338.2673669999999
 20
115.3316929999999
 30
0.0
 40
2.0
100
AcDbArc
 50
90.0
 51
180.0
  0
ARC
  5
9718
330
9588
100
AcDbEntity
  8
1
  6
Continuous
100
AcDbCircle
 10
324.2673669999998
 20
115.3316929999999
 30
0.0
 40
2.0
100
AcDbArc
 50
0.0
 51
90.0
  0
CIRCLE
  5
9719
330
9588
100
AcDbEntity
  8
2
  6
Continuous
100
AcDbCircle
 10
327.2673669999999
 20
121.3316929999999
 30
0.0
 40
1.5
  0
CIRCLE
  5
971A
330
9588
100
AcDbEntity
  8
1
  6
Continuous
100
AcDbCircle
 10
327.2673669999999
 20
121.3316929999999
 30
0.0
 40
1.2295
  0
ARC
  5
971B
330
9588
100
AcDbEntity
  8
1
  6
Continuous
100
AcDbCircle
 10
242.7673669999999
 20
115.3316929999999
 30
0.0
 40
2.0
100
AcDbArc
 50
270.0
 51
0.0
  0
ARC
  5
971C
330
9588
100
AcDbEntity
  8
1
  6
Continuous
100
AcDbCircle
 10
242.7673669999999
 20
115.3316929999999
 30
0.0
 40
2.0
100
AcDbArc
 50
90.0
 51
180.0
  0
ARC
  5
971D
330
9588
100
AcDbEntity
  8
1
  6
Continuous
100
AcDbCircle
 10
234.2673669999999
 20
121.3316929999999
 30
0.0
 40
4.4
100
AcDbArc
 50
247.332
 51
292.668
  0
ARC
  5
971E
330
9588
100
AcDbEntity
  8
1
  6
Continuous
100
AcDbCircle
 10
131.5173669999998
 20
124.1816929999999
 30
0.0
 40
0.25
100
AcDbArc
 50
0.0
 51
180.0
  0
ARC
  5
971F
330
9588
100
AcDbEntity
  8
1
  6
Continuous
100
AcDbCircle
 10
131.5173669999998
 20
118.4816929999998
 30
0.0
 40
0.25
100
AcDbArc
 50
180.0
 51
0.00001
  0
ARC
  5
9720
330
9588
100
AcDbEntity
  8
1
  6
Continuous
100
AcDbCircle
 10
133.063367
 20
124.1816929999999
 30
0.0
 40
0.25
100
AcDbArc
 50
7.72029
 51
172.28
  0
ARC
  5
9721
330
9588
100
AcDbEntity
  8
1
  6
Continuous
100
AcDbCircle
 10
134.6083669999998
 20
124.1816929999999
 30
0.0
 40
0.25
100
AcDbArc
 50
38.7597
 51
172.28
  0
ARC
  5
9722
330
9588
100
AcDbEntity
  8
1
  6
Continuous
100
AcDbCircle
 10
139.2453669999998
 20
204.1816929999999
 30
0.0
 40
0.25
100
AcDbArc
 50
7.72029
 51
172.28
  0
ARC
  5
9723
330
9588
100
AcDbEntity
  8
1
  6
Continuous
100
AcDbCircle
 10
138.4723669999999
 20
198.481693
 30
0.0
 40
0.25
100
AcDbArc
 50
187.72
 51
352.2799999999999
  0
ARC
  5
9724
330
9588
100
AcDbEntity
  8
1
  6
Continuous
100
AcDbCircle
 10
133.8353669999999
 20
118.4816929999998
 30
0.0
 40
0.25
100
AcDbArc
 50
187.72
 51
352.2799999999999
  0
ARC
  5
9725
330
9588
100
AcDbEntity
  8
1
  6
Continuous
100
AcDbCircle
 10
132.290367
 20
118.4816929999998
 30
0.0
 40
0.25
100
AcDbArc
 50
187.72
 51
352.2799999999999
  0
ARC
  5
9726
330
9588
100
AcDbEntity
  8
1
  6
Continuous
100
AcDbCircle
 10
131.5173669999998
 20
204.1816929999999
 30
0.0
 40
0.25
100
AcDbArc
 50
0.0
 51
180.0
  0
ARC
  5
9727
330
9588
100
AcDbEntity
  8
1
  6
Continuous
100
AcDbCircle
 10
131.5173669999998
 20
198.481693
 30
0.0
 40
0.25
100
AcDbArc
 50
180.0
 51
0.00001
  0
ARC
  5
9728
330
9588
100
AcDbEntity
  8
1
  6
Continuous
100
AcDbCircle
 10
133.063367
 20
204.1816929999999
 30
0.0
 40
0.25
100
AcDbArc
 50
7.72029
 51
172.28
  0
ARC
  5
9729
330
9588
100
AcDbEntity
  8
1
  6
Continuous
100
AcDbCircle
 10
134.6083669999998
 20
204.1816929999999
 30
0.0
 40
0.25
100
AcDbArc
 50
7.72029
 51
172.28
  0
ARC
  5
972A
330
9588
100
AcDbEntity
  8
1
  6
Continuous
100
AcDbCircle
 10
135.3813669999998
 20
198.481693
 30
0.0
 40
0.25
100
AcDbArc
 50
187.72
 51
352.2799999999999
  0
ARC
  5
972B
330
9588
100
AcDbEntity
  8
1
  6
Continuous
100
AcDbCircle
 10
133.8353669999999
 20
198.481693
 30
0.0
 40
0.25
100
AcDbArc
 50
187.72
 51
352.2799999999999
  0
ARC
  5
972C
330
9588
100
AcDbEntity
  8
1
  6
Continuous
100
AcDbCircle
 10
132.290367
 20
198.481693
 30
0.0
 40
0.25
100
AcDbArc
 50
187.72
 51
352.2799999999999
  0
ARC
  5
972D
330
9588
100
AcDbEntity
  8
1
  6
Continuous
100
AcDbCircle
 10
136.1543669999998
 20
204.1816929999999
 30
0.0
 40
0.25
100
AcDbArc
 50
7.72029
 51
172.28
  0
ARC
  5
972E
330
9588
100
AcDbEntity
  8
1
  6
Continuous
100
AcDbCircle
 10
136.926367
 20
198.481693
 30
0.0
 40
0.25
100
AcDbArc
 50
187.72
 51
352.2799999999999
  0
ARC
  5
972F
330
9588
100
AcDbEntity
  8
1
  6
Continuous
100
AcDbCircle
 10
137.699367
 20
204.1816929999999
 30
0.0
 40
0.25
100
AcDbArc
 50
7.72029
 51
172.28
  0
ARC
  5
9730
330
9588
100
AcDbEntity
  8
1
  6
Continuous
100
AcDbCircle
 10
144.2673669999998
 20
115.3316929999999
 30
0.0
 40
2.0
100
AcDbArc
 50
90.0
 51
180.0
  0
ARC
  5
9731
330
9588
100
AcDbEntity
  8
1
  6
Continuous
100
AcDbCircle
 10
130.2673669999998
 20
115.3316929999999
 30
0.0
 40
2.0
100
AcDbArc
 50
0.0
 51
90.0
  0
LINE
  5
9732
330
9588
100
AcDbEntity
  8
1
  6
Continuous
100
AcDbLine
 10
142.2673669999998
 20
32.831693
 30
0.0
 11
144.2673669999998
 21
32.831693
 31
0.0
  0
ARC
  5
9733
330
9588
100
AcDbEntity
  8
5
  6
PHANTOM
100
AcDbCircle
 10
25.36781700000001
 20
121.7678929999999
 30
0.0
 40
12.0
100
AcDbArc
 50
319.6603349999999
 51
348.6163349999998
  0
LINE
  5
9734
330
9588
100
AcDbEntity
  8
4
  6
CENTER
100
AcDbLine
 10
14.38694899999999
 20
127.0908389999999
 30
0.0
 11
38.438136
 21
115.4320899999998
 31
0.0
  0
LINE
  5
9735
330
9588
100
AcDbEntity
  8
5
  6
PHANTOM
100
AcDbLine
 10
24.522867
 20
117.732294
 30
0.0
 11
31.707941
 21
115.3606449999999
 31
0.0
  0
LINE
  5
9736
330
9588
100
AcDbEntity
  8
5
  6
PHANTOM
100
AcDbLine
 10
28.01246599999998
 20
124.9310919999998
 30
0.0
 11
34.32513999999999
 21
120.759744
 31
0.0
  0
LINE
  5
9737
330
9588
100
AcDbEntity
  8
5
  6
PHANTOM
100
AcDbLine
 10
34.32513999999999
 20
120.759744
 30
0.0
 11
37.131772
 21
119.399237
 31
0.0
  0
LINE
  5
9738
330
9588
100
AcDbEntity
  8
5
  6
PHANTOM
100
AcDbLine
 10
31.707941
 20
115.3606449999999
 30
0.0
 11
34.51457299999999
 21
114.0001379999998
 31
0.0
  0
LINE
  5
9739
330
9588
100
AcDbEntity
  8
5
  6
PHANTOM
100
AcDbLine
 10
29.41869
 20
123.795643
 30
0.0
 11
24.011028
 21
129.087825
 31
0.0
  0
LINE
  5
973A
330
9588
100
AcDbEntity
  8
5
  6
PHANTOM
100
AcDbLine
 10
23.11664299999999
 20
118.867743
 30
0.0
 11
19.28449299999998
 21
125.3919
 31
0.0
  0
LINE
  5
973B
330
9588
100
AcDbEntity
  8
4
  6
CENTER
100
AcDbLine
 10
34.40055
 20
110.930952
 30
0.0
 11
17.93643499999999
 21
131.9860919999999
 31
0.0
  0
LINE
  5
973C
330
9588
100
AcDbEntity
  8
5
  6
PHANTOM
100
AcDbLine
 10
24.011028
 20
129.087825
 30
0.0
 11
22.089763
 21
131.544835
 31
0.0
  0
LINE
  5
973D
330
9588
100
AcDbEntity
  8
5
  6
PHANTOM
100
AcDbLine
 10
19.28449299999998
 20
125.3919
 30
0.0
 11
17.36322699999999
 21
127.84891
 31
0.0
  0
ARC
  5
973E
330
9588
100
AcDbEntity
  8
5
  6
PHANTOM
100
AcDbCircle
 10
26.88365399999999
 20
120.543937
 30
0.0
 40
12.0
100
AcDbArc
 50
113.545711
 51
142.5017109999998
  0
ENDSEC
  0
SECTION
  2
OBJECTS
  0
DICTIONARY
  5
9576
330
0
100
AcDbDictionary
281
     1
  3
ACAD_CIP_PREVIOUS_PRODUCT_INFO
350
97A2
  3
ACAD_COLOR
350
9784
  3
ACAD_DETAILVIEWSTYLE
350
979D
  3
ACAD_GROUP
350
9577
  3
ACAD_LAYOUT
350
9583
  3
ACAD_MATERIAL
350
9752
  3
ACAD_MLEADERSTYLE
350
9799
  3
ACAD_MLINESTYLE
350
9580
  3
ACAD_PLOTSETTINGS
350
9582
  3
ACAD_PLOTSTYLENAME
350
9750
  3
ACAD_SCALELIST
350
9787
  3
ACAD_SECTIONVIEWSTYLE
350
979B
  3
ACAD_TABLESTYLE
350
9785
  3
ACAD_VISUALSTYLE
350
976B
  3
ACDB_RECOMPOSE_DATA
350
97C0
  3
AcDbVariableDictionary
350
97B3
  3
DWGPROPS
350
97C1
  0
DICTIONARY
  5
97A3
330
957A
100
AcDbDictionary
280
     1
281
     1
  3
ADSK_XREC_LAYER_RECONCILED
360
97A4
  0
DICTIONARY
  5
97A5
330
9590
100
AcDbDictionary
280
     1
281
     1
  3
ADSK_XREC_LAYER_RECONCILED
360
97A6
  0
DICTIONARY
  5
97A7
330
9591
100
AcDbDictionary
280
     1
281
     1
  3
ADSK_XREC_LAYER_RECONCILED
360
97A8
  0
DICTIONARY
  5
97A9
330
9592
100
AcDbDictionary
280
     1
281
     1
  3
ADSK_XREC_LAYER_RECONCILED
360
97AA
  0
DICTIONARY
  5
97AB
330
9593
100
AcDbDictionary
280
     1
281
     1
  3
ADSK_XREC_LAYER_RECONCILED
360
97AC
  0
DICTIONARY
  5
97AD
330
9594
100
AcDbDictionary
280
     1
281
     1
  3
ADSK_XREC_LAYER_RECONCILED
360
97AE
  0
DICTIONARY
  5
97AF
330
9595
100
AcDbDictionary
280
     1
281
     1
  3
ADSK_XREC_LAYER_RECONCILED
360
97B0
  0
DICTIONARY
  5
97B1
330
9596
100
AcDbDictionary
280
     1
281
     1
  3
ADSK_XREC_LAYER_RECONCILED
360
97B2
  0
DICTIONARY
  5
974B
330
9588
100
AcDbDictionary
281
     1
  3
ACAD_LAYOUTSELFREF
350
974C
  0
DICTIONARY
  5
9749
330
9584
100
AcDbDictionary
281
     1
  3
ACAD_LAYOUTSELFREF
350
974A
  0
XRECORD
  5
97A2
102
{ACAD_REACTORS
330
9576
102
}
330
9576
100
AcDbXrecord
280
     1
300
ACDLT
300
2014
300
ACDLT_F_S
  0
DICTIONARY
  5
9784
102
{ACAD_REACTORS
330
9576
102
}
330
9576
100
AcDbDictionary
281
     1
  0
DICTIONARY
  5
979D
102
{ACAD_REACTORS
330
9576
102
}
330
9576
100
AcDbDictionary
281
     1
  3
Imperial24
350
979E
  0
DICTIONARY
  5
9577
102
{ACAD_REACTORS
330
9576
102
}
330
9576
100
AcDbDictionary
281
     1
  0
DICTIONARY
  5
9583
102
{ACAD_REACTORS
330
9576
102
}
330
9576
100
AcDbDictionary
281
     1
  3
Model
350
979F
  3
レイアウト1
350
97A0
  0
DICTIONARY
  5
9752
102
{ACAD_REACTORS
330
9576
102
}
330
9576
100
AcDbDictionary
281
     1
  3
ByBlock
350
975B
  3
ByLayer
350
9753
  3
Global
350
9763
  0
DICTIONARY
  5
9799
102
{ACAD_REACTORS
330
9576
102
}
330
9576
100
AcDbDictionary
281
     1
  3
Standard
350
979A
  0
DICTIONARY
  5
9580
102
{ACAD_REACTORS
330
9576
102
}
330
9576
100
AcDbDictionary
281
     1
  3
STANDARD
350
9581
  0
DICTIONARY
  5
9582
102
{ACAD_REACTORS
330
9576
102
}
330
9576
100
AcDbDictionary
281
     1
  0
ACDBDICTIONARYWDFLT
  5
9750
102
{ACAD_REACTORS
330
9576
102
}
330
9576
100
AcDbDictionary
281
     1
  3
Normal
350
9751
100
AcDbDictionaryWithDefault
340
9751
  0
DICTIONARY
  5
9787
102
{ACAD_REACTORS
330
9576
102
}
330
9576
100
AcDbDictionary
281
     1
  3
A0
350
9788
  3
A1
350
9789
  3
A2
350
978A
  3
A3
350
978B
  3
A4
350
978C
  3
A5
350
978D
  3
A6
350
978E
  3
A7
350
978F
  3
A8
350
9790
  3
A9
350
9791
  3
B0
350
9792
  3
B1
350
9793
  3
B2
350
9794
  3
B3
350
9795
  3
B4
350
9796
  3
B5
350
9797
  3
B6
350
9798
  0
DICTIONARY
  5
979B
102
{ACAD_REACTORS
330
9576
102
}
330
9576
100
AcDbDictionary
281
     1
  3
Imperial24
350
979C
  0
DICTIONARY
  5
9785
102
{ACAD_REACTORS
330
9576
102
}
330
9576
100
AcDbDictionary
281
     1
  3
Standard
350
9786
  0
DICTIONARY
  5
976B
102
{ACAD_REACTORS
330
9576
102
}
330
9576
100
AcDbDictionary
281
     1
  3
2dWireframe
350
9771
  3
Basic
350
9770
  3
Brighten
350
9777
  3
ColorChange
350
977B
  3
Conceptual
350
9774
  3
Dim
350
9776
  3
EdgeColorOff
350
9783
  3
Facepattern
350
977A
  3
Flat
350
976C
  3
FlatWithEdges
350
976D
  3
Gouraud
350
976E
  3
GouraudWithEdges
350
976F
  3
Hidden
350
9773
  3
JitterOff
350
9781
  3
Linepattern
350
9779
  3
OverhangOff
350
9782
  3
Realistic
350
9775
  3
Shaded
350
9780
  3
Shaded with edges
350
977F
  3
Shades of Gray
350
977C
  3
Sketchy
350
977D
  3
Thicken
350
9778
  3
Wireframe
350
9772
  3
X-Ray
350
977E
  0
XRECORD
  5
97C0
102
{ACAD_REACTORS
330
9576
102
}
330
9576
100
AcDbXrecord
280
     1
 90
        1
330
9786
  0
DICTIONARY
  5
97B3
102
{ACAD_REACTORS
330
9576
102
}
330
9576
100
AcDbDictionary
281
     1
  3
CANNOSCALE
350
97B8
  3
CMLEADERSTYLE
350
97B5
  3
CTABLESTYLE
350
97B4
  3
CVIEWDETAILSTYLE
350
97B6
  3
CVIEWSECTIONSTYLE
350
97B7
  3
DIMASSOC
350
97BB
  3
INDEXCTL
350
97BA
  3
SORTENTS
350
97B9
  3
XCLIPFRAME
350
97BC
  0
XRECORD
  5
97C1
102
{ACAD_REACTORS
330
9576
102
}
330
9576
100
AcDbXrecord
280
     1
  1
DWGPROPS COOKIE
  2

  3

  4

  6

  7

  8
Yoshitsune
  9

300
=
301
=
302
=
303
=
304
=
305
=
306
=
307
=
308
=
309
=
 40
0.0000130324074074
 41
2450945.749533333
 42
2457192.603495706
  1

 90
        0
  0
XRECORD
  5
97A4
102
{ACAD_REACTORS
330
97A3
102
}
330
97A3
100
AcDbXrecord
280
     1
290
     1
  0
XRECORD
  5
97A6
102
{ACAD_REACTORS
330
97A5
102
}
330
97A5
100
AcDbXrecord
280
     1
290
     1
  0
XRECORD
  5
97A8
102
{ACAD_REACTORS
330
97A7
102
}
330
97A7
100
AcDbXrecord
280
     1
290
     1
  0
XRECORD
  5
97AA
102
{ACAD_REACTORS
330
97A9
102
}
330
97A9
100
AcDbXrecord
280
     1
290
     1
  0
XRECORD
  5
97AC
102
{ACAD_REACTORS
330
97AB
102
}
330
97AB
100
AcDbXrecord
280
     1
290
     1
  0
XRECORD
  5
97AE
102
{ACAD_REACTORS
330
97AD
102
}
330
97AD
100
AcDbXrecord
280
     1
290
     1
  0
XRECORD
  5
97B0
102
{ACAD_REACTORS
330
97AF
102
}
330
97AF
100
AcDbXrecord
280
     1
290
     1
  0
XRECORD
  5
97B2
102
{ACAD_REACTORS
330
97B1
102
}
330
97B1
100
AcDbXrecord
280
     1
290
     1
  0
XRECORD
  5
974C
102
{ACAD_REACTORS
330
974B
102
}
330
974B
100
AcDbXrecord
280
     1
340
9588
  0
XRECORD
  5
974A
102
{ACAD_REACTORS
330
9749
102
}
330
9749
100
AcDbXrecord
280
     1
340
9584
  0
ACDBDETAILVIEWSTYLE
  5
979E
102
{ACAD_XDICTIONARY
360
97F9
102
}
102
{ACAD_REACTORS
330
979D
102
}
330
979D
100
AcDbModelDocViewStyle
 70
     0
  3
Imperial24
290
     0
100
AcDbDetailViewStyle
 70
     0
 71
     0
 90
        3
 71
     1
340
957B
 40
0.24
340
0
 40
0.24
300

 40
0.36
280
     3
 71
     2
340
957F
 90
       25
 71
     3
340
957B
 40
0.24
 90
        1
 40
0.75
 90
        1
300
%<\AcVar ViewType \f "%tc1">% %<\AcVar ViewDetailId>%\PSCALE %<\AcVar ViewScale \f "%sn">%
 71
     4
340
957F
 90
       25
340
957F
 90
       25
280
     0
  0
LAYOUT
  5
979F
102
{ACAD_XDICTIONARY
360
97FB
102
}
102
{ACAD_REACTORS
330
9583
102
}
330
9583
100
AcDbPlotSettings
  1

  2
Canon LBP9100C
  4

  6

 40
0.0
 41
0.0
 42
0.0
 43
0.0
 44
0.0
 45
0.0
 46
0.0
 47
0.0
 48
0.0
 49
0.0
140
0.0
141
0.0
142
1.0
143
1.0
 70
  1712
 72
     0
 73
     0
 74
     0
  7

 75
     0
147
1.0
148
0.0
149
0.0
100
AcDbLayout
  1
Model
 70
     1
 71
     0
 10
0.0
 20
0.0
 11
12.0
 21
9.0
 12
0.0
 22
0.0
 32
0.0
 14
0.0
 24
0.0
 34
0.0
 15
0.0
 25
0.0
 35
0.0
146
0.0
 13
0.0
 23
0.0
 33
0.0
 16
1.0
 26
0.0
 36
0.0
 17
0.0
 27
1.0
 37
0.0
 76
     0
330
9588
331
9748
  0
LAYOUT
  5
97A0
102
{ACAD_XDICTIONARY
360
97FD
102
}
102
{ACAD_REACTORS
330
9583
102
}
330
9583
100
AcDbPlotSettings
  1

  2
Canon LBP9100C
  4

  6

 40
0.0
 41
0.0
 42
0.0
 43
0.0
 44
0.0
 45
0.0
 46
0.0
 47
0.0
 48
0.0
 49
0.0
140
0.0
141
0.0
142
1.0
143
1.0
 70
   688
 72
     0
 73
     0
 74
     5
  7

 75
    16
147
1.0
148
0.0
149
0.0
100
AcDbLayout
  1
レイアウト1
 70
     0
 71
     1
 10
0.0
 20
0.0
 11
420.0
 21
297.0
 12
0.0
 22
0.0
 32
0.0
 14
1.000000000000000E+20
 24
1.000000000000000E+20
 34
1.000000000000000E+20
 15
-1.000000000000000E+20
 25
-1.000000000000000E+20
 35
-1.000000000000000E+20
146
0.0
 13
0.0
 23
0.0
 33
0.0
 16
1.0
 26
0.0
 36
0.0
 17
0.0
 27
1.0
 37
0.0
 76
     0
330
9584
  0
MATERIAL
  5
975B
102
{ACAD_XDICTIONARY
360
975C
102
}
102
{ACAD_REACTORS
330
9752
102
}
330
9752
100
AcDbMaterial
  1
ByBlock
 72
     0
 43
0.0208333333333333
 43
0.0
 43
0.0
 43
0.0
 43
0.0
 43
0.0208333333333333
 43
0.0
 43
0.0
 43
0.0
 43
0.0
 43
1.0
 43
0.0
 43
0.0
 43
0.0
 43
0.0
 43
1.0
 77
     0
 47
0.0208333333333333
 47
0.0
 47
0.0
 47
0.0
 47
0.0
 47
0.0208333333333333
 47
0.0
 47
0.0
 47
0.0
 47
0.0
 47
1.0
 47
0.0
 47
0.0
 47
0.0
 47
0.0
 47
1.0
171
     0
 49
0.0208333333333333
 49
0.0
 49
0.0
 49
0.0
 49
0.0
 49
0.0208333333333333
 49
0.0
 49
0.0
 49
0.0
 49
0.0
 49
1.0
 49
0.0
 49
0.0
 49
0.0
 49
0.0
 49
1.0
175
     0
142
0.0208333333333333
142
0.0
142
0.0
142
0.0
142
0.0
142
0.0208333333333333
142
0.0
142
0.0
142
0.0
142
0.0
142
1.0
142
0.0
142
0.0
142
0.0
142
0.0
142
1.0
179
     0
144
0.0208333333333333
144
0.0
144
0.0
144
0.0
144
0.0
144
0.0208333333333333
144
0.0
144
0.0
144
0.0
144
0.0
144
1.0
144
0.0
144
0.0
144
0.0
144
0.0
144
1.0
147
0.0208333333333333
147
0.0
147
0.0
147
0.0
147
0.0
147
0.0208333333333333
147
0.0
147
0.0
147
0.0
147
0.0
147
1.0
147
0.0
147
0.0
147
0.0
147
0.0
147
1.0
  0
MATERIAL
  5
9753
102
{ACAD_XDICTIONARY
360
9754
102
}
102
{ACAD_REACTORS
330
9752
102
}
330
9752
100
AcDbMaterial
  1
ByLayer
 72
     0
 43
0.0208333333333333
 43
0.0
 43
0.0
 43
0.0
 43
0.0
 43
0.0208333333333333
 43
0.0
 43
0.0
 43
0.0
 43
0.0
 43
1.0
 43
0.0
 43
0.0
 43
0.0
 43
0.0
 43
1.0
 77
     0
 47
0.0208333333333333
 47
0.0
 47
0.0
 47
0.0
 47
0.0
 47
0.0208333333333333
 47
0.0
 47
0.0
 47
0.0
 47
0.0
 47
1.0
 47
0.0
 47
0.0
 47
0.0
 47
0.0
 47
1.0
171
     0
 49
0.0208333333333333
 49
0.0
 49
0.0
 49
0.0
 49
0.0
 49
0.0208333333333333
 49
0.0
 49
0.0
 49
0.0
 49
0.0
 49
1.0
 49
0.0
 49
0.0
 49
0.0
 49
0.0
 49
1.0
175
     0
142
0.0208333333333333
142
0.0
142
0.0
142
0.0
142
0.0
142
0.0208333333333333
142
0.0
142
0.0
142
0.0
142
0.0
142
1.0
142
0.0
142
0.0
142
0.0
142
0.0
142
1.0
179
     0
144
0.0208333333333333
144
0.0
144
0.0
144
0.0
144
0.0
144
0.0208333333333333
144
0.0
144
0.0
144
0.0
144
0.0
144
1.0
144
0.0
144
0.0
144
0.0
144
0.0
144
1.0
147
0.0208333333333333
147
0.0
147
0.0
147
0.0
147
0.0
147
0.0208333333333333
147
0.0
147
0.0
147
0.0
147
0.0
147
1.0
147
0.0
147
0.0
147
0.0
147
0.0
147
1.0
  0
MATERIAL
  5
9763
102
{ACAD_XDICTIONARY
360
9764
102
}
102
{ACAD_REACTORS
330
9752
102
}
330
9752
100
AcDbMaterial
  1
Global
 72
     0
 43
0.0208333333333333
 43
0.0
 43
0.0
 43
0.0
 43
0.0
 43
0.0208333333333333
 43
0.0
 43
0.0
 43
0.0
 43
0.0
 43
1.0
 43
0.0
 43
0.0
 43
0.0
 43
0.0
 43
1.0
 77
     0
 47
0.0208333333333333
 47
0.0
 47
0.0
 47
0.0
 47
0.0
 47
0.0208333333333333
 47
0.0
 47
0.0
 47
0.0
 47
0.0
 47
1.0
 47
0.0
 47
0.0
 47
0.0
 47
0.0
 47
1.0
171
     0
 49
0.0208333333333333
 49
0.0
 49
0.0
 49
0.0
 49
0.0
 49
0.0208333333333333
 49
0.0
 49
0.0
 49
0.0
 49
0.0
 49
1.0
 49
0.0
 49
0.0
 49
0.0
 49
0.0
 49
1.0
175
     0
142
0.0208333333333333
142
0.0
142
0.0
142
0.0
142
0.0
142
0.0208333333333333
142
0.0
142
0.0
142
0.0
142
0.0
142
1.0
142
0.0
142
0.0
142
0.0
142
0.0
142
1.0
179
     0
144
0.0208333333333333
144
0.0
144
0.0
144
0.0
144
0.0
144
0.0208333333333333
144
0.0
144
0.0
144
0.0
144
0.0
144
1.0
144
0.0
144
0.0
144
0.0
144
0.0
144
1.0
147
0.0208333333333333
147
0.0
147
0.0
147
0.0
147
0.0
147
0.0208333333333333
147
0.0
147
0.0
147
0.0
147
0.0
147
1.0
147
0.0
147
0.0
147
0.0
147
0.0
147
1.0
  0
MLEADERSTYLE
  5
979A
102
{ACAD_REACTORS
330
9799
102
}
330
9799
100
AcDbMLeaderStyle
170
     2
171
     1
172
     0
 90
        2
 40
0.0
 41
0.0
173
     1
 91
-1056964608
340
957D
 92
       -2
290
     1
 42
0.09
291
     1
 43
0.36
  3
Standard
 44
0.18
300

342
957B
174
     1
178
     6
175
     1
176
     0
 93
-1056964608
 45
0.18
292
     0
297
     0
 46
0.18
 94
-1056964608
 47
1.0
 49
1.0
140
1.0
293
     1
141
0.0
294
     1
177
     0
142
1.0
295
     0
296
     0
143
0.125
1001
ACAD_MLEADERVER
1070
     2
  0
MLINESTYLE
  5
9581
102
{ACAD_REACTORS
330
9580
102
}
330
9580
100
AcDbMlineStyle
  2
STANDARD
 70
     0
  3

 62
   256
 51
90.0
 52
90.0
 71
     2
 49
0.5
 62
   256
  6
BYLAYER
 49
-0.5
 62
   256
  6
BYLAYER
  0
ACDBPLACEHOLDER
  5
9751
102
{ACAD_REACTORS
330
9750
102
}
330
9750
  0
SCALE
  5
9788
102
{ACAD_REACTORS
330
9787
102
}
330
9787
100
AcDbScale
 70
     0
300
1:1
140
1.0
141
1.0
290
     1
  0
SCALE
  5
9789
102
{ACAD_REACTORS
330
9787
102
}
330
9787
100
AcDbScale
 70
     0
300
1/128" = 1'-0"
140
0.0078125
141
12.0
290
     0
  0
SCALE
  5
978A
102
{ACAD_REACTORS
330
9787
102
}
330
9787
100
AcDbScale
 70
     0
300
1/64" = 1'-0"
140
0.015625
141
12.0
290
     0
  0
SCALE
  5
978B
102
{ACAD_REACTORS
330
9787
102
}
330
9787
100
AcDbScale
 70
     0
300
1/32" = 1'-0"
140
0.03125
141
12.0
290
     0
  0
SCALE
  5
978C
102
{ACAD_REACTORS
330
9787
102
}
330
9787
100
AcDbScale
 70
     0
300
1/16" = 1'-0"
140
0.0625
141
12.0
290
     0
  0
SCALE
  5
978D
102
{ACAD_REACTORS
330
9787
102
}
330
9787
100
AcDbScale
 70
     0
300
3/32" = 1'-0"
140
0.09375
141
12.0
290
     0
  0
SCALE
  5
978E
102
{ACAD_REACTORS
330
9787
102
}
330
9787
100
AcDbScale
 70
     0
300
1/8" = 1'-0"
140
0.125
141
12.0
290
     0
  0
SCALE
  5
978F
102
{ACAD_REACTORS
330
9787
102
}
330
9787
100
AcDbScale
 70
     0
300
3/16" = 1'-0"
140
0.1875
141
12.0
290
     0
  0
SCALE
  5
9790
102
{ACAD_REACTORS
330
9787
102
}
330
9787
100
AcDbScale
 70
     0
300
1/4" = 1'-0"
140
0.25
141
12.0
290
     0
  0
SCALE
  5
9791
102
{ACAD_REACTORS
330
9787
102
}
330
9787
100
AcDbScale
 70
     0
300
3/8" = 1'-0"
140
0.375
141
12.0
290
     0
  0
SCALE
  5
9792
102
{ACAD_REACTORS
330
9787
102
}
330
9787
100
AcDbScale
 70
     0
300
1/2" = 1'-0"
140
0.5
141
12.0
290
     0
  0
SCALE
  5
9793
102
{ACAD_REACTORS
330
9787
102
}
330
9787
100
AcDbScale
 70
     0
300
3/4" = 1'-0"
140
0.75
141
12.0
290
     0
  0
SCALE
  5
9794
102
{ACAD_REACTORS
330
9787
102
}
330
9787
100
AcDbScale
 70
     0
300
1" = 1'-0"
140
1.0
141
12.0
290
     0
  0
SCALE
  5
9795
102
{ACAD_REACTORS
330
9787
102
}
330
9787
100
AcDbScale
 70
     0
300
1-1/2" = 1'-0"
140
1.5
141
12.0
290
     0
  0
SCALE
  5
9796
102
{ACAD_REACTORS
330
9787
102
}
330
9787
100
AcDbScale
 70
     0
300
3" = 1'-0"
140
3.0
141
12.0
290
     0
  0
SCALE
  5
9797
102
{ACAD_REACTORS
330
9787
102
}
330
9787
100
AcDbScale
 70
     0
300
6" = 1'-0"
140
6.0
141
12.0
290
     0
  0
SCALE
  5
9798
102
{ACAD_REACTORS
330
9787
102
}
330
9787
100
AcDbScale
 70
     0
300
1'-0" = 1'-0"
140
12.0
141
12.0
290
     0
  0
ACDBSECTIONVIEWSTYLE
  5
979C
102
{ACAD_XDICTIONARY
360
97F7
102
}
102
{ACAD_REACTORS
330
979B
102
}
330
979B
100
AcDbModelDocViewStyle
 70
     0
  3
Imperial24
290
     0
100
AcDbSectionViewStyle
 70
     0
 71
     0
 90
       78
 71
     1
340
957B
 40
0.24
340
0
340
0
 40
0.24
300
I, O, Q, S, X, Z
 40
0.48
 90
        3
 40
0.18
 90
        1
 71
     2
340
957F
 90
       25
340
957F
 90
       50
 40
0.24
 40
0.0
 40
0.24
 71
     3
340
957B
 40
0.24
 90
        1
 40
0.75
 90
        1
300
%<\AcVar ViewType \f "%tc1">% %<\AcVar ViewSectionStartId>%-%<\AcVar ViewSectionEndId>%\PSCALE %<\AcVar ViewScale \f "%sn">%
 71
     4
300
ANSI31
 40
1.0
 90
        0
290
     0
290
     0
 90
        6
 40
0.0
 40
1.570796326794896
 40
0.2617993877991494
 40
1.308996938995747
 40
-0.2617993877991494
 40
1.832595714594046
  0
TABLESTYLE
  5
9786
102
{ACAD_XDICTIONARY
360
97BE
102
}
102
{ACAD_REACTORS
330
9785
102
}
330
9785
100
AcDbTableStyle
  3
Standard
 70
     0
 71
     0
 40
0.06
 41
0.06
280
     0
281
     0
  7
STANDARD
140
0.18
170
     2
 62
     0
 63
     7
283
     0
274
    -2
284
     1
 64
     0
275
    -2
285
     1
 65
     0
276
    -2
286
     1
 66
     0
277
    -2
287
     1
 67
     0
278
    -2
288
     1
 68
     0
279
    -2
289
     1
 69
     0
  7
STANDARD
140
0.25
170
     5
 62
     0
 63
     7
283
     0
274
    -2
284
     1
 64
     0
275
    -2
285
     1
 65
     0
276
    -2
286
     1
 66
     0
277
    -2
287
     1
 67
     0
278
    -2
288
     1
 68
     0
279
    -2
289
     1
 69
     0
  7
STANDARD
140
0.18
170
     5
 62
     0
 63
     7
283
     0
274
    -2
284
     1
 64
     0
275
    -2
285
     1
 65
     0
276
    -2
286
     1
 66
     0
277
    -2
287
     1
 67
     0
278
    -2
288
     1
 68
     0
279
    -2
289
     1
 69
     0
  0
VISUALSTYLE
  5
9771
102
{ACAD_XDICTIONARY
360
97CF
102
}
102
{ACAD_REACTORS
330
976B
102
}
330
976B
100
AcDbVisualStyle
  2
2dWireframe
 70
     4
 71
     0
 72
     2
 73
     0
 90
        0
 40
-0.6
 41
-30.0
 62
     5
 63
     7
 74
     1
 91
        4
 64
     7
 65
   257
 75
     1
175
     1
 42
1.0
 92
        0
 66
   257
 43
1.0
 76
     1
 77
     6
 78
     2
 67
     7
 79
     5
170
     0
171
     0
290
     0
174
     0
 93
        1
 44
0.0
173
     0
291
     0
 45
0.0
1001
ACAD
1000
AcDbSavedByObjectVersion
1070
     0
  0
VISUALSTYLE
  5
9770
102
{ACAD_XDICTIONARY
360
97CD
102
}
102
{ACAD_REACTORS
330
976B
102
}
330
976B
100
AcDbVisualStyle
  2
Basic
 70
     7
 71
     1
 72
     0
 73
     1
 90
        0
 40
-0.6
 41
-30.0
 62
     5
 63
     7
 74
     0
 91
        4
 64
     7
 65
   257
 75
     1
175
     1
 42
1.0
 92
        8
 66
     7
 43
1.0
 76
     1
 77
     6
 78
     2
 67
     7
 79
     5
170
     0
171
     0
290
     0
174
     0
 93
        1
 44
0.0
173
     0
291
     1
 45
0.0
1001
ACAD
1000
AcDbSavedByObjectVersion
1070
     0
  0
VISUALSTYLE
  5
9777
102
{ACAD_XDICTIONARY
360
97DB
102
}
102
{ACAD_REACTORS
330
976B
102
}
330
976B
100
AcDbVisualStyle
  2
Brighten
 70
    12
 71
     2
 72
     2
 73
     0
 90
        0
 40
-0.6
 41
-30.0
 62
     5
 63
     7
 74
     1
 91
        4
 64
     7
 65
   257
 75
     1
175
     1
 42
1.0
 92
        8
 66
     7
 43
1.0
 76
     1
 77
     6
 78
     2
 67
     7
 79
     5
170
     0
171
     0
290
     0
174
     0
 93
        1
 44
50.0
173
     0
291
     1
 45
0.0
1001
ACAD
1000
AcDbSavedByObjectVersion
1070
     0
  0
VISUALSTYLE
  5
977B
102
{ACAD_XDICTIONARY
360
97E3
102
}
102
{ACAD_REACTORS
330
976B
102
}
330
976B
100
AcDbVisualStyle
  2
ColorChange
 70
    16
 71
     2
 72
     2
 73
     3
 90
        0
 40
-0.6
 41
-30.0
 62
     5
 63
     8
 74
     1
 91
        4
 64
     7
 65
   257
 75
     1
175
     1
 42
1.0
 92
        8
 66
     8
 43
1.0
 76
     1
 77
     6
 78
     2
 67
     7
 79
     5
170
     0
171
     0
290
     0
174
     0
 93
        1
 44
0.0
173
     0
291
     1
 45
0.0
1001
ACAD
1000
AcDbSavedByObjectVersion
1070
     0
  0
VISUALSTYLE
  5
9774
102
{ACAD_XDICTIONARY
360
97D5
102
}
102
{ACAD_REACTORS
330
976B
102
}
330
976B
100
AcDbVisualStyle
  2
Conceptual
 70
     9
 71
     3
 72
     2
 73
     0
 90
        0
 40
-0.6
 41
-30.0
 62
     5
 63
     7
 74
     2
 91
        2
 64
     7
 65
   257
 75
     1
175
     1
 42
179.0
 92
        8
 66
     7
 43
1.0
 76
     1
 77
     6
 78
     2
 67
     7
 79
     3
170
     0
171
     0
290
     0
174
     0
 93
        1
 44
0.0
173
     0
291
     0
 45
0.0
1001
ACAD
1000
AcDbSavedByObjectVersion
1070
     0
  0
VISUALSTYLE
  5
9776
102
{ACAD_XDICTIONARY
360
97D9
102
}
102
{ACAD_REACTORS
330
976B
102
}
330
976B
100
AcDbVisualStyle
  2
Dim
 70
    11
 71
     2
 72
     2
 73
     0
 90
        0
 40
-0.6
 41
-30.0
 62
     5
 63
     7
 74
     1
 91
        4
 64
     7
 65
   257
 75
     1
175
     1
 42
1.0
 92
        8
 66
     7
 43
1.0
 76
     1
 77
     6
 78
     2
 67
     7
 79
     5
170
     0
171
     0
290
     0
174
     0
 93
        1
 44
-50.0
173
     0
291
     1
 45
0.0
1001
ACAD
1000
AcDbSavedByObjectVersion
1070
     0
  0
VISUALSTYLE
  5
9783
102
{ACAD_XDICTIONARY
360
97F3
102
}
102
{ACAD_REACTORS
330
976B
102
}
330
976B
100
AcDbVisualStyle
  2
EdgeColorOff
 70
    22
 71
     2
 72
     2
 73
     0
 90
        0
 40
-0.6
 41
-30.0
 62
     5
 63
     7
 74
     1
 91
        4
 64
     7
 65
   257
 75
     1
175
     1
 42
1.0
 92
        8
 66
     7
 43
1.0
 76
     1
 77
     6
 78
     2
 67
     7
 79
     5
170
     0
171
     0
290
     0
174
     0
 93
        1
 44
0.0
173
     0
291
     1
 45
0.0
1001
ACAD
1000
AcDbSavedByObjectVersion
1070
     0
  0
VISUALSTYLE
  5
977A
102
{ACAD_XDICTIONARY
360
97E1
102
}
102
{ACAD_REACTORS
330
976B
102
}
330
976B
100
AcDbVisualStyle
  2
Facepattern
 70
    15
 71
     2
 72
     2
 73
     0
 90
        0
 40
-0.6
 41
-30.0
 62
     5
 63
     7
 74
     1
 91
        4
 64
     7
 65
   257
 75
     1
175
     1
 42
1.0
 92
        8
 66
     7
 43
1.0
 76
     1
 77
     6
 78
     2
 67
     7
 79
     5
170
     0
171
     0
290
     0
174
     0
 93
        1
 44
0.0
173
     0
291
     1
 45
0.0
1001
ACAD
1000
AcDbSavedByObjectVersion
1070
     0
  0
VISUALSTYLE
  5
976C
102
{ACAD_XDICTIONARY
360
97C5
102
}
102
{ACAD_REACTORS
330
976B
102
}
330
976B
100
AcDbVisualStyle
  2
Flat
 70
     0
 71
     2
 72
     1
 73
     1
 90
        2
 40
-0.6
 41
30.0
 62
     5
 63
     7
 74
     0
 91
        0
 64
     7
 65
   257
 75
     1
175
     1
 42
1.0
 92
        8
 66
     7
 43
1.0
 76
     1
 77
     6
 78
     2
 67
     7
 79
     5
170
     0
171
     0
290
     0
174
     0
 93
       13
 44
0.0
173
     0
291
     1
 45
0.0
1001
ACAD
1000
AcDbSavedByObjectVersion
1070
     0
  0
VISUALSTYLE
  5
976D
102
{ACAD_XDICTIONARY
360
97C7
102
}
102
{ACAD_REACTORS
330
976B
102
}
330
976B
100
AcDbVisualStyle
  2
FlatWithEdges
 70
     1
 71
     2
 72
     1
 73
     1
 90
        2
 40
-0.6
 41
30.0
 62
     5
 63
     7
 74
     1
 91
        0
 64
     7
 65
   257
 75
     1
175
     1
 42
1.0
 92
        0
 66
   257
 43
1.0
 76
     1
 77
     6
 78
     2
 67
     7
 79
     5
170
     0
171
     0
290
     0
174
     0
 93
       13
 44
0.0
173
     0
291
     1
 45
0.0
1001
ACAD
1000
AcDbSavedByObjectVersion
1070
     0
  0
VISUALSTYLE
  5
976E
102
{ACAD_XDICTIONARY
360
97C9
102
}
102
{ACAD_REACTORS
330
976B
102
}
330
976B
100
AcDbVisualStyle
  2
Gouraud
 70
     2
 71
     2
 72
     2
 73
     1
 90
        2
 40
-0.6
 41
30.0
 62
     5
 63
     7
 74
     0
 91
        0
 64
     7
 65
   257
 75
     1
175
     1
 42
1.0
 92
        0
 66
     7
 43
1.0
 76
     1
 77
     6
 78
     2
 67
     7
 79
     5
170
     0
171
     0
290
     0
174
     0
 93
       13
 44
0.0
173
     0
291
     1
 45
0.0
1001
ACAD
1000
AcDbSavedByObjectVersion
1070
     0
  0
VISUALSTYLE
  5
976F
102
{ACAD_XDICTIONARY
360
97CB
102
}
102
{ACAD_REACTORS
330
976B
102
}
330
976B
100
AcDbVisualStyle
  2
GouraudWithEdges
 70
     3
 71
     2
 72
     2
 73
     1
 90
        2
 40
-0.6
 41
30.0
 62
     5
 63
     7
 74
     1
 91
        0
 64
     7
 65
   257
 75
     1
175
     1
 42
1.0
 92
        0
 66
   257
 43
1.0
 76
     1
 77
     6
 78
     2
 67
     7
 79
     5
170
     0
171
     0
290
     0
174
     0
 93
       13
 44
0.0
173
     0
291
     1
 45
0.0
1001
ACAD
1000
AcDbSavedByObjectVersion
1070
     0
  0
VISUALSTYLE
  5
9773
102
{ACAD_XDICTIONARY
360
97D3
102
}
102
{ACAD_REACTORS
330
976B
102
}
330
976B
100
AcDbVisualStyle
  2
Hidden
 70
     6
 71
     1
 72
     2
 73
     2
 90
        0
 40
-0.6
 41
-30.0
 62
     5
 63
     7
 74
     2
 91
        2
 64
     7
 65
   257
 75
     2
175
     1
 42
40.0
 92
        0
 66
   257
 43
1.0
 76
     1
 77
     6
 78
     2
 67
     7
 79
     3
170
     0
171
     0
290
     0
174
     0
 93
        1
 44
0.0
173
     0
291
     0
 45
0.0
1001
ACAD
1000
AcDbSavedByObjectVersion
1070
     0
  0
VISUALSTYLE
  5
9781
102
{ACAD_XDICTIONARY
360
97EF
102
}
102
{ACAD_REACTORS
330
976B
102
}
330
976B
100
AcDbVisualStyle
  2
JitterOff
 70
    20
 71
     2
 72
     2
 73
     0
 90
        0
 40
-0.6
 41
-30.0
 62
     5
 63
     7
 74
     1
 91
        4
 64
     7
 65
   257
 75
     1
175
     1
 42
1.0
 92
       10
 66
     7
 43
1.0
 76
     1
 77
     6
 78
     2
 67
     7
 79
     5
170
     0
171
     0
290
     0
174
     0
 93
        1
 44
0.0
173
     0
291
     1
 45
0.0
1001
ACAD
1000
AcDbSavedByObjectVersion
1070
     0
  0
VISUALSTYLE
  5
9779
102
{ACAD_XDICTIONARY
360
97DF
102
}
102
{ACAD_REACTORS
330
976B
102
}
330
976B
100
AcDbVisualStyle
  2
Linepattern
 70
    14
 71
     2
 72
     2
 73
     0
 90
        0
 40
-0.6
 41
-30.0
 62
     5
 63
     7
 74
     1
 91
        4
 64
     7
 65
   257
 75
     7
175
     7
 42
1.0
 92
        8
 66
     7
 43
1.0
 76
     1
 77
     6
 78
     2
 67
     7
 79
     5
170
     0
171
     0
290
     0
174
     0
 93
        1
 44
0.0
173
     0
291
     1
 45
0.0
1001
ACAD
1000
AcDbSavedByObjectVersion
1070
     0
  0
VISUALSTYLE
  5
9782
102
{ACAD_XDICTIONARY
360
97F1
102
}
102
{ACAD_REACTORS
330
976B
102
}
330
976B
100
AcDbVisualStyle
  2
OverhangOff
 70
    21
 71
     2
 72
     2
 73
     0
 90
        0
 40
-0.6
 41
-30.0
 62
     5
 63
     7
 74
     1
 91
        4
 64
     7
 65
   257
 75
     1
175
     1
 42
1.0
 92
        9
 66
     7
 43
1.0
 76
     1
 77
     6
 78
     2
 67
     7
 79
     5
170
     0
171
     0
290
     0
174
     0
 93
        1
 44
0.0
173
     0
291
     1
 45
0.0
1001
ACAD
1000
AcDbSavedByObjectVersion
1070
     0
  0
VISUALSTYLE
  5
9775
102
{ACAD_XDICTIONARY
360
97D7
102
}
102
{ACAD_REACTORS
330
976B
102
}
330
976B
100
AcDbVisualStyle
  2
Realistic
 70
     8
 71
     2
 72
     3
 73
     0
 90
        2
 40
-0.6
 41
30.0
 62
     5
 63
     7
 74
     0
 91
        0
 64
     7
 65
   257
 75
     1
175
     1
 42
1.0
 92
        8
 66
   257
 43
1.0
 76
     1
 77
     6
 78
     2
 67
     7
 79
     3
170
     0
171
     0
290
     0
174
     0
 93
       13
 44
0.0
173
     0
291
     0
 45
0.0
1001
ACAD
1000
AcDbSavedByObjectVersion
1070
     0
  0
VISUALSTYLE
  5
9780
102
{ACAD_XDICTIONARY
360
97ED
102
}
102
{ACAD_REACTORS
330
976B
102
}
330
976B
100
AcDbVisualStyle
  2
Shaded
 70
    27
 71
     2
 72
     2
 73
     1
 90
        2
 40
-0.6
 41
30.0
 62
     5
 63
     7
 74
     0
 91
        4
 64
     7
 65
   257
 75
     1
175
     1
 42
1.0
 92
        8
 66
   257
 43
1.0
 76
     1
 77
     6
 78
     2
 67
     8
 79
     3
170
     0
171
     0
290
     0
174
     0
 93
        5
 44
0.0
173
     0
291
     0
 45
0.0
1001
ACAD
1000
AcDbSavedByObjectVersion
1070
     0
  0
VISUALSTYLE
  5
977F
102
{ACAD_XDICTIONARY
360
97EB
102
}
102
{ACAD_REACTORS
330
976B
102
}
330
976B
100
AcDbVisualStyle
  2
Shaded with edges
 70
    26
 71
     2
 72
     2
 73
     1
 90
        2
 40
-0.6
 41
30.0
 62
     5
 63
     7
 74
     1
 91
       10
 64
     7
 65
   257
 75
     2
175
     1
 42
1.0
 92
        8
 66
   257
 43
1.0
 76
     1
 77
     6
 78
     2
 67
     7
 79
     3
170
     0
171
     0
290
     0
174
     0
 93
        5
 44
0.0
173
     0
291
     0
 45
0.0
1001
ACAD
1000
AcDbSavedByObjectVersion
1070
     0
  0
VISUALSTYLE
  5
977C
102
{ACAD_XDICTIONARY
360
97E5
102
}
102
{ACAD_REACTORS
330
976B
102
}
330
976B
100
AcDbVisualStyle
  2
Shades of Gray
 70
    23
 71
     2
 72
     2
 73
     3
 90
        0
 40
-0.6
 41
-30.0
 62
     5
 63
     7
 74
     2
 91
        2
 64
     7
 65
     7
 75
     1
175
     1
 42
40.0
 92
        8
 66
     7
 43
1.0
 76
     1
 77
     6
 78
     2
 67
     7
 79
     3
170
     0
171
     0
290
     0
174
     0
 93
        1
 44
0.0
173
     0
291
     0
 45
0.0
1001
ACAD
1000
AcDbSavedByObjectVersion
1070
     0
  0
VISUALSTYLE
  5
977D
102
{ACAD_XDICTIONARY
360
97E7
102
}
102
{ACAD_REACTORS
330
976B
102
}
330
976B
100
AcDbVisualStyle
  2
Sketchy
 70
    24
 71
     1
 72
     2
 73
     2
 90
        0
 40
-0.6
 41
-30.0
 62
     5
 63
     7
 74
     2
 91
        2
 64
     7
 65
     7
 75
     1
175
     1
 42
40.0
 92
       11
 66
     7
 43
1.0
 76
     1
 77
     6
 78
     2
 67
     7
 79
     6
170
     0
171
     0
290
     0
174
     0
 93
        1
 44
0.0
173
     0
291
     0
 45
0.0
1001
ACAD
1000
AcDbSavedByObjectVersion
1070
     0
  0
VISUALSTYLE
  5
9778
102
{ACAD_XDICTIONARY
360
97DD
102
}
102
{ACAD_REACTORS
330
976B
102
}
330
976B
100
AcDbVisualStyle
  2
Thicken
 70
    13
 71
     2
 72
     2
 73
     0
 90
        0
 40
-0.6
 41
-30.0
 62
     5
 63
     7
 74
     1
 91
        4
 64
     7
 65
   257
 75
     1
175
     1
 42
1.0
 92
       12
 66
     7
 43
1.0
 76
     1
 77
     6
 78
     2
 67
     7
 79
     5
170
     0
171
     0
290
     0
174
     0
 93
        1
 44
0.0
173
     0
291
     1
 45
0.0
1001
ACAD
1000
AcDbSavedByObjectVersion
1070
     0
  0
VISUALSTYLE
  5
9772
102
{ACAD_XDICTIONARY
360
97D1
102
}
102
{ACAD_REACTORS
330
976B
102
}
330
976B
100
AcDbVisualStyle
  2
Wireframe
 70
     5
 71
     0
 72
     2
 73
     0
 90
        0
 40
-0.6
 41
-30.0
 62
     5
 63
     7
 74
     1
 91
        4
 64
     7
 65
   257
 75
     1
175
     1
 42
1.0
 92
        0
 66
   257
 43
1.0
 76
     1
 77
     6
 78
     2
 67
     7
 79
     3
170
     0
171
     0
290
     0
174
     0
 93
        1
 44
0.0
173
     0
291
     0
 45
0.0
1001
ACAD
1000
AcDbSavedByObjectVersion
1070
     0
  0
VISUALSTYLE
  5
977E
102
{ACAD_XDICTIONARY
360
97E9
102
}
102
{ACAD_REACTORS
330
976B
102
}
330
976B
100
AcDbVisualStyle
  2
X-Ray
 70
    25
 71
     2
 72
     2
 73
     1
 90
        1
 40
0.5
 41
-30.0
 62
     5
 63
     7
 74
     1
 91
        0
 64
     7
 65
   257
 75
     1
175
     1
 42
1.0
 92
        8
 66
     7
 43
1.0
 76
     1
 77
     6
 78
     2
 67
     7
 79
     3
170
     0
171
     0
290
     0
174
     0
 93
       13
 44
0.0
173
     0
291
     0
 45
0.0
1001
ACAD
1000
AcDbSavedByObjectVersion
1070
     0
  0
DICTIONARYVAR
  5
97B8
102
{ACAD_REACTORS
330
97B3
102
}
330
97B3
100
DictionaryVariables
280
     0
  1
1:1
  0
DICTIONARYVAR
  5
97B5
102
{ACAD_REACTORS
330
97B3
102
}
330
97B3
100
DictionaryVariables
280
     0
  1
STANDARD
  0
DICTIONARYVAR
  5
97B4
102
{ACAD_REACTORS
330
97B3
102
}
330
97B3
100
DictionaryVariables
280
     0
  1
STANDARD
  0
DICTIONARYVAR
  5
97B6
102
{ACAD_REACTORS
330
97B3
102
}
330
97B3
100
DictionaryVariables
280
     0
  1
Imperial24
  0
DICTIONARYVAR
  5
97B7
102
{ACAD_REACTORS
330
97B3
102
}
330
97B3
100
DictionaryVariables
280
     0
  1
Imperial24
  0
DICTIONARYVAR
  5
97BB
102
{ACAD_REACTORS
330
97B3
102
}
330
97B3
100
DictionaryVariables
280
     0
  1
1
  0
DICTIONARYVAR
  5
97BA
102
{ACAD_REACTORS
330
97B3
102
}
330
97B3
100
DictionaryVariables
280
     0
  1
0
  0
DICTIONARYVAR
  5
97B9
102
{ACAD_REACTORS
330
97B3
102
}
330
97B3
100
DictionaryVariables
280
     0
  1
127
  0
DICTIONARYVAR
  5
97BC
102
{ACAD_REACTORS
330
97B3
102
}
330
97B3
100
DictionaryVariables
280
     0
  1
2
  0
DICTIONARY
  5
97F9
330
979E
100
AcDbDictionary
280
     1
281
     1
  3
ACAD_XREC_ROUNDTRIP
360
97FA
  0
DICTIONARY
  5
97FB
330
979F
100
AcDbDictionary
280
     1
281
     1
  3
ACAD_XREC_ROUNDTRIP
360
97FC
  0
DICTIONARY
  5
97FD
330
97A0
100
AcDbDictionary
280
     1
281
     1
  3
ACAD_XREC_ROUNDTRIP
360
97FE
  0
DICTIONARY
  5
975C
330
975B
100
AcDbDictionary
280
     1
281
     1
  3
ACAD_XREC_ROUNDTRIP
360
97C3
  3
BUMPTILE
360
975E
  3
DIFFUSETILE
360
975D
  3
OPACITYTILE
360
9761
  3
REFLECTIONTILE
360
9760
  3
REFRACTIONTILE
360
9762
  3
SPECULARTILE
360
975F
  0
DICTIONARY
  5
9754
330
9753
100
AcDbDictionary
280
     1
281
     1
  3
ACAD_XREC_ROUNDTRIP
360
97C2
  3
BUMPTILE
360
9756
  3
DIFFUSETILE
360
9755
  3
OPACITYTILE
360
9759
  3
REFLECTIONTILE
360
9758
  3
REFRACTIONTILE
360
975A
  3
SPECULARTILE
360
9757
  0
DICTIONARY
  5
9764
330
9763
100
AcDbDictionary
280
     1
281
     1
  3
ACAD_XREC_ROUNDTRIP
360
97C4
  3
BUMPTILE
360
9766
  3
DIFFUSETILE
360
9765
  3
OPACITYTILE
360
9769
  3
REFLECTIONTILE
360
9768
  3
REFRACTIONTILE
360
976A
  3
SPECULARTILE
360
9767
  0
DICTIONARY
  5
97F7
330
979C
100
AcDbDictionary
280
     1
281
     1
  3
ACAD_XREC_ROUNDTRIP
360
97F8
  0
DICTIONARY
  5
97BE
330
9786
100
AcDbDictionary
280
     1
281
     1
  3
ACAD_ROUNDTRIP_2008_TABLESTYLE_CELLSTYLEMAP
360
97BF
  3
ACAD_XREC_ROUNDTRIP
360
97F5
  0
DICTIONARY
  5
97CF
330
9771
100
AcDbDictionary
280
     1
281
     1
  3
ACAD_XREC_ROUNDTRIP
360
97D0
  0
DICTIONARY
  5
97CD
330
9770
100
AcDbDictionary
280
     1
281
     1
  3
ACAD_XREC_ROUNDTRIP
360
97CE
  0
DICTIONARY
  5
97DB
330
9777
100
AcDbDictionary
280
     1
281
     1
  3
ACAD_XREC_ROUNDTRIP
360
97DC
  0
DICTIONARY
  5
97E3
330
977B
100
AcDbDictionary
280
     1
281
     1
  3
ACAD_XREC_ROUNDTRIP
360
97E4
  0
DICTIONARY
  5
97D5
330
9774
100
AcDbDictionary
280
     1
281
     1
  3
ACAD_XREC_ROUNDTRIP
360
97D6
  0
DICTIONARY
  5
97D9
330
9776
100
AcDbDictionary
280
     1
281
     1
  3
ACAD_XREC_ROUNDTRIP
360
97DA
  0
DICTIONARY
  5
97F3
330
9783
100
AcDbDictionary
280
     1
281
     1
  3
ACAD_XREC_ROUNDTRIP
360
97F4
  0
DICTIONARY
  5
97E1
330
977A
100
AcDbDictionary
280
     1
281
     1
  3
ACAD_XREC_ROUNDTRIP
360
97E2
  0
DICTIONARY
  5
97C5
330
976C
100
AcDbDictionary
280
     1
281
     1
  3
ACAD_XREC_ROUNDTRIP
360
97C6
  0
DICTIONARY
  5
97C7
330
976D
100
AcDbDictionary
280
     1
281
     1
  3
ACAD_XREC_ROUNDTRIP
360
97C8
  0
DICTIONARY
  5
97C9
330
976E
100
AcDbDictionary
280
     1
281
     1
  3
ACAD_XREC_ROUNDTRIP
360
97CA
  0
DICTIONARY
  5
97CB
330
976F
100
AcDbDictionary
280
     1
281
     1
  3
ACAD_XREC_ROUNDTRIP
360
97CC
  0
DICTIONARY
  5
97D3
330
9773
100
AcDbDictionary
280
     1
281
     1
  3
ACAD_XREC_ROUNDTRIP
360
97D4
  0
DICTIONARY
  5
97EF
330
9781
100
AcDbDictionary
280
     1
281
     1
  3
ACAD_XREC_ROUNDTRIP
360
97F0
  0
DICTIONARY
  5
97DF
330
9779
100
AcDbDictionary
280
     1
281
     1
  3
ACAD_XREC_ROUNDTRIP
360
97E0
  0
DICTIONARY
  5
97F1
330
9782
100
AcDbDictionary
280
     1
281
     1
  3
ACAD_XREC_ROUNDTRIP
360
97F2
  0
DICTIONARY
  5
97D7
330
9775
100
AcDbDictionary
280
     1
281
     1
  3
ACAD_XREC_ROUNDTRIP
360
97D8
  0
DICTIONARY
  5
97ED
330
9780
100
AcDbDictionary
280
     1
281
     1
  3
ACAD_XREC_ROUNDTRIP
360
97EE
  0
DICTIONARY
  5
97EB
330
977F
100
AcDbDictionary
280
     1
281
     1
  3
ACAD_XREC_ROUNDTRIP
360
97EC
  0
DICTIONARY
  5
97E5
330
977C
100
AcDbDictionary
280
     1
281
     1
  3
ACAD_XREC_ROUNDTRIP
360
97E6
  0
DICTIONARY
  5
97E7
330
977D
100
AcDbDictionary
280
     1
281
     1
  3
ACAD_XREC_ROUNDTRIP
360
97E8
  0
DICTIONARY
  5
97DD
330
9778
100
AcDbDictionary
280
     1
281
     1
  3
ACAD_XREC_ROUNDTRIP
360
97DE
  0
DICTIONARY
  5
97D1
330
9772
100
AcDbDictionary
280
     1
281
     1
  3
ACAD_XREC_ROUNDTRIP
360
97D2
  0
DICTIONARY
  5
97E9
330
977E
100
AcDbDictionary
280
     1
281
     1
  3
ACAD_XREC_ROUNDTRIP
360
97EA
  0
XRECORD
  5
97FA
102
{ACAD_REACTORS
330
97F9
102
}
330
97F9
100
AcDbXrecord
280
     1
102
DISPLAYNAME
  1
Imperial24
102
FLAGS
 90
        0
  0
XRECORD
  5
97FC
102
{ACAD_REACTORS
330
97FB
102
}
330
97FB
100
AcDbXrecord
280
     1
102
SHADEPLOT
 70
     0
102
SHADEPLOTRESLEVEL
 70
     2
102
SHADEPLOTCUSTOMDPI
 70
   300
  0
XRECORD
  5
97FE
102
{ACAD_REACTORS
330
97FD
102
}
330
97FD
100
AcDbXrecord
280
     1
102
SHADEPLOT
 70
     0
102
SHADEPLOTRESLEVEL
 70
     2
102
SHADEPLOTCUSTOMDPI
 70
   300
  0
XRECORD
  5
97C3
102
{ACAD_REACTORS
330
975C
102
}
330
975C
100
AcDbXrecord
280
     1
102
MATERIAL
148
0.0
149
0.0
149
0.0
 93
        0
 94
      127
282
     0
 72
     0
 77
     0
171
     0
175
     0
179
     0
273
     0
  0
XRECORD
  5
975E
102
{ACAD_REACTORS
330
975C
102
}
330
975C
100
AcDbXrecord
280
     1
270
     1
271
     1
  0
XRECORD
  5
975D
102
{ACAD_REACTORS
330
975C
102
}
330
975C
100
AcDbXrecord
280
     1
270
     1
271
     1
  0
XRECORD
  5
9761
102
{ACAD_REACTORS
330
975C
102
}
330
975C
100
AcDbXrecord
280
     1
270
     1
271
     1
  0
XRECORD
  5
9760
102
{ACAD_REACTORS
330
975C
102
}
330
975C
100
AcDbXrecord
280
     1
270
     1
271
     1
  0
XRECORD
  5
9762
102
{ACAD_REACTORS
330
975C
102
}
330
975C
100
AcDbXrecord
280
     1
270
     1
271
     1
  0
XRECORD
  5
975F
102
{ACAD_REACTORS
330
975C
102
}
330
975C
100
AcDbXrecord
280
     1
270
     1
271
     1
  0
XRECORD
  5
97C2
102
{ACAD_REACTORS
330
9754
102
}
330
9754
100
AcDbXrecord
280
     1
102
MATERIAL
148
0.0
149
0.0
149
0.0
 93
        0
 94
      127
282
     0
 72
     0
 77
     0
171
     0
175
     0
179
     0
273
     0
  0
XRECORD
  5
9756
102
{ACAD_REACTORS
330
9754
102
}
330
9754
100
AcDbXrecord
280
     1
270
     1
271
     1
  0
XRECORD
  5
9755
102
{ACAD_REACTORS
330
9754
102
}
330
9754
100
AcDbXrecord
280
     1
270
     1
271
     1
  0
XRECORD
  5
9759
102
{ACAD_REACTORS
330
9754
102
}
330
9754
100
AcDbXrecord
280
     1
270
     1
271
     1
  0
XRECORD
  5
9758
102
{ACAD_REACTORS
330
9754
102
}
330
9754
100
AcDbXrecord
280
     1
270
     1
271
     1
  0
XRECORD
  5
975A
102
{ACAD_REACTORS
330
9754
102
}
330
9754
100
AcDbXrecord
280
     1
270
     1
271
     1
  0
XRECORD
  5
9757
102
{ACAD_REACTORS
330
9754
102
}
330
9754
100
AcDbXrecord
280
     1
270
     1
271
     1
  0
XRECORD
  5
97C4
102
{ACAD_REACTORS
330
9764
102
}
330
9764
100
AcDbXrecord
280
     1
102
MATERIAL
148
0.0
149
0.0
149
0.0
 93
        0
 94
      127
282
     0
 72
     0
 77
     0
171
     0
175
     0
179
     0
273
     0
  0
XRECORD
  5
9766
102
{ACAD_REACTORS
330
9764
102
}
330
9764
100
AcDbXrecord
280
     1
270
     1
271
     1
  0
XRECORD
  5
9765
102
{ACAD_REACTORS
330
9764
102
}
330
9764
100
AcDbXrecord
280
     1
270
     1
271
     1
  0
XRECORD
  5
9769
102
{ACAD_REACTORS
330
9764
102
}
330
9764
100
AcDbXrecord
280
     1
270
     1
271
     1
  0
XRECORD
  5
9768
102
{ACAD_REACTORS
330
9764
102
}
330
9764
100
AcDbXrecord
280
     1
270
     1
271
     1
  0
XRECORD
  5
976A
102
{ACAD_REACTORS
330
9764
102
}
330
9764
100
AcDbXrecord
280
     1
270
     1
271
     1
  0
XRECORD
  5
9767
102
{ACAD_REACTORS
330
9764
102
}
330
9764
100
AcDbXrecord
280
     1
270
     1
271
     1
  0
XRECORD
  5
97F8
102
{ACAD_REACTORS
330
97F7
102
}
330
97F7
100
AcDbXrecord
280
     1
102
DISPLAYNAME
  1
Imperial24
102
FLAGS
 90
        0
  0
CELLSTYLEMAP
  5
97BF
102
{ACAD_REACTORS
330
97BE
102
}
330
97BE
100
AcDbCellStyleMap
 90
        3
300
CELLSTYLE
  1
TABLEFORMAT_BEGIN
 90
        5
170
     1
 91
        0
 92
    32768
 62
   257
 93
        1
300
CONTENTFORMAT
  1
CONTENTFORMAT_BEGIN
 90
        0
 91
        0
 92
      512
 93
        0
300

 40
0.0
140
1.0
 94
        5
 62
     0
340
957B
144
0.25
309
CONTENTFORMAT_END
171
     0
 94
        0
309
TABLEFORMAT_END
  1
CELLSTYLE_BEGIN
 90
        1
 91
        1
300
_TITLE
309
CELLSTYLE_END
300
CELLSTYLE
  1
TABLEFORMAT_BEGIN
 90
        5
170
     1
 91
        0
 92
        0
 62
   257
 93
        1
300
CONTENTFORMAT
  1
CONTENTFORMAT_BEGIN
 90
        0
 91
        0
 92
      512
 93
        0
300

 40
0.0
140
1.0
 94
        5
 62
     0
340
957B
144
0.18
309
CONTENTFORMAT_END
171
     0
 94
        0
309
TABLEFORMAT_END
  1
CELLSTYLE_BEGIN
 90
        2
 91
        1
300
_HEADER
309
CELLSTYLE_END
300
CELLSTYLE
  1
TABLEFORMAT_BEGIN
 90
        5
170
     1
 91
        0
 92
        0
 62
   257
 93
        1
300
CONTENTFORMAT
  1
CONTENTFORMAT_BEGIN
 90
        0
 91
        0
 92
      512
 93
        0
300

 40
0.0
140
1.0
 94
        2
 62
     0
340
957B
144
0.18
309
CONTENTFORMAT_END
171
     0
 94
        0
309
TABLEFORMAT_END
  1
CELLSTYLE_BEGIN
 90
        3
 91
        2
300
_DATA
309
CELLSTYLE_END
  0
XRECORD
  5
97F5
102
{ACAD_REACTORS
330
97BE
102
}
330
97BE
100
AcDbXrecord
280
     1
102
ACAD_ROUNDTRIP_PRE2007_TABLESTYLE
 90
      512
 91
        0
  1

 92
      512
 93
        0
  2

 94
      512
 95
        0
  3

  0
XRECORD
  5
97D0
102
{ACAD_REACTORS
330
97CF
102
}
330
97CF
100
AcDbXrecord
280
     1
102
RTVSPost2010Prop28
280
     1
102
RTVSPost2010PropOp28
 70
     1
102
RTVSPost2010Prop29
280
     1
102
RTVSPost2010PropOp29
 70
     1
102
RTVSPost2010Prop30
280
     0
102
RTVSPost2010PropOp30
 70
     1
102
RTVSPost2010Prop31
280
     0
102
RTVSPost2010PropOp31
 70
     1
102
RTVSPost2010Prop32
280
     0
102
RTVSPost2010PropOp32
 70
     1
102
RTVSPost2010Prop33
280
     0
102
RTVSPost2010PropOp33
 70
     1
102
RTVSPost2010Prop34
280
     0
102
RTVSPost2010PropOp34
 70
     1
102
RTVSPost2010Prop35
280
     0
102
RTVSPost2010PropOp35
 70
     1
102
RTVSPost2010Prop36
280
     0
102
RTVSPost2010PropOp36
 70
     1
102
RTVSPost2010Prop37
 90
       50
102
RTVSPost2010PropOp37
 70
     1
102
RTVSPost2010Prop38
140
0.0
102
RTVSPost2010PropOp38
 70
     1
102
RTVSPost2010Prop39
140
1.0
102
RTVSPost2010PropOp39
 70
     1
102
RTVSPost2010Prop40
 90
        0
102
RTVSPost2010PropOp40
 70
     1
102
RTVSPost2010Prop41ColorIndex
 90
       18
102
RTVSPost2010Prop41ColorRGB
 90
        0
102
RTVSPost2010PropOp41
 70
     1
102
RTVSPost2010Prop42
 90
       50
102
RTVSPost2010PropOp42
 70
     1
102
RTVSPost2010Prop43
 90
        3
102
RTVSPost2010PropOp43
 70
     1
102
RTVSPost2010Prop44ColorIndex
 90
        5
102
RTVSPost2010Prop44ColorRGB
 90
      255
102
RTVSPost2010PropOp44
 70
     1
102
RTVSPost2010Prop45
280
     0
102
RTVSPost2010PropOp45
 70
     1
102
RTVSPost2010Prop46
 90
       50
102
RTVSPost2010PropOp46
 70
     1
102
RTVSPost2010Prop47
 90
       50
102
RTVSPost2010PropOp47
 70
     1
102
RTVSPost2010Prop48
 90
       50
102
RTVSPost2010PropOp48
 70
     1
102
RTVSPost2010Prop49
280
     0
102
RTVSPost2010PropOp49
 70
     1
102
RTVSPost2010Prop50
 90
       50
102
RTVSPost2010PropOp50
 70
     1
102
RTVSPost2010Prop51ColorIndex
 90
      256
102
RTVSPost2010Prop51ColorRGB
 90
-16777216
102
RTVSPost2010PropOp51
 70
     0
102
RTVSPost2010Prop52
140
1.0
102
RTVSPost2010PropOp52
 70
     0
102
RTVSPost2010Prop53
 90
        2
102
RTVSPost2010PropOp53
 70
     1
102
RTVSPost2010Prop54
  1
strokes_ogs.tif
102
RTVSPost2010PropOp54
 70
     1
102
RTVSPost2010Prop55
280
     0
102
RTVSPost2010PropOp55
 70
     1
102
RTVSPost2010Prop56
140
1.0
102
RTVSPost2010PropOp56
 70
     1
102
RTVSPost2010Prop57
140
1.0
102
RTVSPost2010PropOp57
 70
     1
102
RTVSPropertyOp0
 70
     1
102
RTVSPropertyOp1
 70
     1
102
RTVSPropertyOp2
 70
     1
102
RTVSPropertyOp3
 70
     1
102
RTVSPropertyOp4
 70
     1
102
RTVSPropertyOp5
 70
     1
102
RTVSPropertyOp6
 70
     1
102
RTVSPropertyOp7
 70
     1
102
RTVSPropertyOp8
 70
     1
102
RTVSPropertyOp9
 70
     1
102
RTVSPropertyOp10
 70
     1
102
RTVSPropertyOp11
 70
     1
102
RTVSPropertyOp12
 70
     1
102
RTVSPropertyOp13
 70
     1
102
RTVSPropertyOp14
 70
     1
102
RTVSPropertyOp15
 70
     1
102
RTVSPropertyOp16
 70
     1
102
RTVSPropertyOp17
 70
     1
102
RTVSPropertyOp18
 70
     1
102
RTVSPropertyOp19
 70
     1
102
RTVSPropertyOp20
 70
     1
102
RTVSPropertyOp21
 70
     1
102
RTVSPropertyOp22
 70
     1
102
RTVSPropertyOp23
 70
     1
102
RTVSPropertyOp24
 70
     1
102
RTVSPropertyOp25
 70
     1
102
RTVSPropertyOp26
 70
     1
102
RTVSPropertyOp27
 70
     1
102
RTVSPropertyOp28
 70
     1
102
RTVSPropertyOp29
 70
     1
102
RTVSPropertyOp30
 70
     1
102
RTVSPropertyOp31
 70
     1
102
RTVSPropertyOp32
 70
     1
102
RTVSPropertyOp33
 70
     1
102
RTVSPropertyOp34
 70
     1
102
RTVSPropertyOp35
 70
     1
102
RTVSPropertyOp36
 70
     1
102
RTVSPropertyOp37
 70
     1
102
RTVSPropertyOp38
 70
     1
102
RTVSPropertyOp39
 70
     1
102
RTVSPropertyOp40
 70
     1
102
RTVSPropertyOp41
 70
     1
102
RTVSPropertyOp42
 70
     1
102
RTVSPropertyOp43
 70
     1
102
RTVSPropertyOp44
 70
     1
102
RTVSPropertyOp45
 70
     1
102
RTVSPropertyOp46
 70
     1
102
RTVSPropertyOp47
 70
     1
102
RTVSPropertyOp48
 70
     1
102
RTVSPropertyOp49
 70
     1
102
RTVSPropertyOp50
 70
     1
102
RTVSPropertyOp51
 70
     0
102
RTVSPropertyOp52
 70
     0
102
RTVSPropertyOp53
 70
     1
102
RTVSPropertyOp54
 70
     1
102
RTVSPropertyOp55
 70
     1
102
RTVSPropertyOp56
 70
     1
102
RTVSPropertyOp57
 70
     1
102
RTVSPropertyOp58
 70
     1
102
RTVSPropertyOp59
 70
     1
102
RTVSPropertyOp60
 70
     1
102
RTVSPropertyOp61
 70
     1
102
RTVSPropertyOp62
 70
     1
  0
XRECORD
  5
97CE
102
{ACAD_REACTORS
330
97CD
102
}
330
97CD
100
AcDbXrecord
280
     1
102
RTVSPost2010Prop28
280
     0
102
RTVSPost2010PropOp28
 70
     1
102
RTVSPost2010Prop29
280
     1
102
RTVSPost2010PropOp29
 70
     1
102
RTVSPost2010Prop30
280
     1
102
RTVSPost2010PropOp30
 70
     1
102
RTVSPost2010Prop31
280
     0
102
RTVSPost2010PropOp31
 70
     1
102
RTVSPost2010Prop32
280
     0
102
RTVSPost2010PropOp32
 70
     1
102
RTVSPost2010Prop33
280
     0
102
RTVSPost2010PropOp33
 70
     1
102
RTVSPost2010Prop34
280
     0
102
RTVSPost2010PropOp34
 70
     1
102
RTVSPost2010Prop35
280
     0
102
RTVSPost2010PropOp35
 70
     1
102
RTVSPost2010Prop36
280
     0
102
RTVSPost2010PropOp36
 70
     1
102
RTVSPost2010Prop37
 90
       50
102
RTVSPost2010PropOp37
 70
     1
102
RTVSPost2010Prop38
140
0.0
102
RTVSPost2010PropOp38
 70
     1
102
RTVSPost2010Prop39
140
1.0
102
RTVSPost2010PropOp39
 70
     1
102
RTVSPost2010Prop40
 90
        0
102
RTVSPost2010PropOp40
 70
     1
102
RTVSPost2010Prop41ColorIndex
 90
       18
102
RTVSPost2010Prop41ColorRGB
 90
        0
102
RTVSPost2010PropOp41
 70
     1
102
RTVSPost2010Prop42
 90
       50
102
RTVSPost2010PropOp42
 70
     1
102
RTVSPost2010Prop43
 90
        3
102
RTVSPost2010PropOp43
 70
     1
102
RTVSPost2010Prop44ColorIndex
 90
        5
102
RTVSPost2010Prop44ColorRGB
 90
      255
102
RTVSPost2010PropOp44
 70
     1
102
RTVSPost2010Prop45
280
     0
102
RTVSPost2010PropOp45
 70
     1
102
RTVSPost2010Prop46
 90
       50
102
RTVSPost2010PropOp46
 70
     1
102
RTVSPost2010Prop47
 90
       50
102
RTVSPost2010PropOp47
 70
     1
102
RTVSPost2010Prop48
 90
       50
102
RTVSPost2010PropOp48
 70
     1
102
RTVSPost2010Prop49
280
     0
102
RTVSPost2010PropOp49
 70
     1
102
RTVSPost2010Prop50
 90
       50
102
RTVSPost2010PropOp50
 70
     1
102
RTVSPost2010Prop51ColorIndex
 90
      256
102
RTVSPost2010Prop51ColorRGB
 90
-16777216
102
RTVSPost2010PropOp51
 70
     0
102
RTVSPost2010Prop52
140
1.0
102
RTVSPost2010PropOp52
 70
     0
102
RTVSPost2010Prop53
 90
        2
102
RTVSPost2010PropOp53
 70
     1
102
RTVSPost2010Prop54
  1
strokes_ogs.tif
102
RTVSPost2010PropOp54
 70
     1
102
RTVSPost2010Prop55
280
     0
102
RTVSPost2010PropOp55
 70
     1
102
RTVSPost2010Prop56
140
1.0
102
RTVSPost2010PropOp56
 70
     1
102
RTVSPost2010Prop57
140
1.0
102
RTVSPost2010PropOp57
 70
     1
102
RTVSPropertyOp0
 70
     1
102
RTVSPropertyOp1
 70
     1
102
RTVSPropertyOp2
 70
     1
102
RTVSPropertyOp3
 70
     1
102
RTVSPropertyOp4
 70
     1
102
RTVSPropertyOp5
 70
     1
102
RTVSPropertyOp6
 70
     1
102
RTVSPropertyOp7
 70
     1
102
RTVSPropertyOp8
 70
     1
102
RTVSPropertyOp9
 70
     1
102
RTVSPropertyOp10
 70
     1
102
RTVSPropertyOp11
 70
     1
102
RTVSPropertyOp12
 70
     1
102
RTVSPropertyOp13
 70
     1
102
RTVSPropertyOp14
 70
     1
102
RTVSPropertyOp15
 70
     1
102
RTVSPropertyOp16
 70
     1
102
RTVSPropertyOp17
 70
     1
102
RTVSPropertyOp18
 70
     1
102
RTVSPropertyOp19
 70
     1
102
RTVSPropertyOp20
 70
     1
102
RTVSPropertyOp21
 70
     1
102
RTVSPropertyOp22
 70
     1
102
RTVSPropertyOp23
 70
     1
102
RTVSPropertyOp24
 70
     1
102
RTVSPropertyOp25
 70
     1
102
RTVSPropertyOp26
 70
     1
102
RTVSPropertyOp27
 70
     1
102
RTVSPropertyOp28
 70
     1
102
RTVSPropertyOp29
 70
     1
102
RTVSPropertyOp30
 70
     1
102
RTVSPropertyOp31
 70
     1
102
RTVSPropertyOp32
 70
     1
102
RTVSPropertyOp33
 70
     1
102
RTVSPropertyOp34
 70
     1
102
RTVSPropertyOp35
 70
     1
102
RTVSPropertyOp36
 70
     1
102
RTVSPropertyOp37
 70
     1
102
RTVSPropertyOp38
 70
     1
102
RTVSPropertyOp39
 70
     1
102
RTVSPropertyOp40
 70
     1
102
RTVSPropertyOp41
 70
     1
102
RTVSPropertyOp42
 70
     1
102
RTVSPropertyOp43
 70
     1
102
RTVSPropertyOp44
 70
     1
102
RTVSPropertyOp45
 70
     1
102
RTVSPropertyOp46
 70
     1
102
RTVSPropertyOp47
 70
     1
102
RTVSPropertyOp48
 70
     1
102
RTVSPropertyOp49
 70
     1
102
RTVSPropertyOp50
 70
     1
102
RTVSPropertyOp51
 70
     0
102
RTVSPropertyOp52
 70
     0
102
RTVSPropertyOp53
 70
     1
102
RTVSPropertyOp54
 70
     1
102
RTVSPropertyOp55
 70
     1
102
RTVSPropertyOp56
 70
     1
102
RTVSPropertyOp57
 70
     1
102
RTVSPropertyOp58
 70
     1
102
RTVSPropertyOp59
 70
     1
102
RTVSPropertyOp60
 70
     1
102
RTVSPropertyOp61
 70
     1
102
RTVSPropertyOp62
 70
     1
  0
XRECORD
  5
97DC
102
{ACAD_REACTORS
330
97DB
102
}
330
97DB
100
AcDbXrecord
280
     1
102
RTVSPost2010Prop28
280
     0
102
RTVSPost2010PropOp28
 70
     1
102
RTVSPost2010Prop29
280
     1
102
RTVSPost2010PropOp29
 70
     1
102
RTVSPost2010Prop30
280
     1
102
RTVSPost2010PropOp30
 70
     1
102
RTVSPost2010Prop31
280
     0
102
RTVSPost2010PropOp31
 70
     1
102
RTVSPost2010Prop32
280
     0
102
RTVSPost2010PropOp32
 70
     1
102
RTVSPost2010Prop33
280
     0
102
RTVSPost2010PropOp33
 70
     1
102
RTVSPost2010Prop34
280
     0
102
RTVSPost2010PropOp34
 70
     1
102
RTVSPost2010Prop35
280
     0
102
RTVSPost2010PropOp35
 70
     1
102
RTVSPost2010Prop36
280
     0
102
RTVSPost2010PropOp36
 70
     1
102
RTVSPost2010Prop37
 90
       50
102
RTVSPost2010PropOp37
 70
     1
102
RTVSPost2010Prop38
140
0.0
102
RTVSPost2010PropOp38
 70
     1
102
RTVSPost2010Prop39
140
1.0
102
RTVSPost2010PropOp39
 70
     1
102
RTVSPost2010Prop40
 90
        0
102
RTVSPost2010PropOp40
 70
     1
102
RTVSPost2010Prop41ColorIndex
 90
       18
102
RTVSPost2010Prop41ColorRGB
 90
        0
102
RTVSPost2010PropOp41
 70
     1
102
RTVSPost2010Prop42
 90
       50
102
RTVSPost2010PropOp42
 70
     1
102
RTVSPost2010Prop43
 90
        3
102
RTVSPost2010PropOp43
 70
     1
102
RTVSPost2010Prop44ColorIndex
 90
        5
102
RTVSPost2010Prop44ColorRGB
 90
      255
102
RTVSPost2010PropOp44
 70
     1
102
RTVSPost2010Prop45
280
     0
102
RTVSPost2010PropOp45
 70
     1
102
RTVSPost2010Prop46
 90
       50
102
RTVSPost2010PropOp46
 70
     1
102
RTVSPost2010Prop47
 90
       50
102
RTVSPost2010PropOp47
 70
     1
102
RTVSPost2010Prop48
 90
       50
102
RTVSPost2010PropOp48
 70
     1
102
RTVSPost2010Prop49
280
     0
102
RTVSPost2010PropOp49
 70
     1
102
RTVSPost2010Prop50
 90
       50
102
RTVSPost2010PropOp50
 70
     1
102
RTVSPost2010Prop51ColorIndex
 90
      256
102
RTVSPost2010Prop51ColorRGB
 90
-16777216
102
RTVSPost2010PropOp51
 70
     0
102
RTVSPost2010Prop52
140
1.0
102
RTVSPost2010PropOp52
 70
     0
102
RTVSPost2010Prop53
 90
        2
102
RTVSPost2010PropOp53
 70
     1
102
RTVSPost2010Prop54
  1
strokes_ogs.tif
102
RTVSPost2010PropOp54
 70
     1
102
RTVSPost2010Prop55
280
     0
102
RTVSPost2010PropOp55
 70
     1
102
RTVSPost2010Prop56
140
1.0
102
RTVSPost2010PropOp56
 70
     1
102
RTVSPost2010Prop57
140
1.0
102
RTVSPost2010PropOp57
 70
     1
102
RTVSPropertyOp0
 70
     1
102
RTVSPropertyOp1
 70
     1
102
RTVSPropertyOp2
 70
     1
102
RTVSPropertyOp3
 70
     1
102
RTVSPropertyOp4
 70
     1
102
RTVSPropertyOp5
 70
     1
102
RTVSPropertyOp6
 70
     1
102
RTVSPropertyOp7
 70
     1
102
RTVSPropertyOp8
 70
     1
102
RTVSPropertyOp9
 70
     1
102
RTVSPropertyOp10
 70
     1
102
RTVSPropertyOp11
 70
     1
102
RTVSPropertyOp12
 70
     1
102
RTVSPropertyOp13
 70
     1
102
RTVSPropertyOp14
 70
     1
102
RTVSPropertyOp15
 70
     1
102
RTVSPropertyOp16
 70
     1
102
RTVSPropertyOp17
 70
     1
102
RTVSPropertyOp18
 70
     1
102
RTVSPropertyOp19
 70
     1
102
RTVSPropertyOp20
 70
     1
102
RTVSPropertyOp21
 70
     1
102
RTVSPropertyOp22
 70
     1
102
RTVSPropertyOp23
 70
     1
102
RTVSPropertyOp24
 70
     1
102
RTVSPropertyOp25
 70
     1
102
RTVSPropertyOp26
 70
     1
102
RTVSPropertyOp27
 70
     1
102
RTVSPropertyOp28
 70
     1
102
RTVSPropertyOp29
 70
     1
102
RTVSPropertyOp30
 70
     1
102
RTVSPropertyOp31
 70
     1
102
RTVSPropertyOp32
 70
     1
102
RTVSPropertyOp33
 70
     1
102
RTVSPropertyOp34
 70
     1
102
RTVSPropertyOp35
 70
     1
102
RTVSPropertyOp36
 70
     1
102
RTVSPropertyOp37
 70
     1
102
RTVSPropertyOp38
 70
     1
102
RTVSPropertyOp39
 70
     1
102
RTVSPropertyOp40
 70
     1
102
RTVSPropertyOp41
 70
     1
102
RTVSPropertyOp42
 70
     1
102
RTVSPropertyOp43
 70
     1
102
RTVSPropertyOp44
 70
     1
102
RTVSPropertyOp45
 70
     1
102
RTVSPropertyOp46
 70
     1
102
RTVSPropertyOp47
 70
     1
102
RTVSPropertyOp48
 70
     1
102
RTVSPropertyOp49
 70
     1
102
RTVSPropertyOp50
 70
     1
102
RTVSPropertyOp51
 70
     0
102
RTVSPropertyOp52
 70
     0
102
RTVSPropertyOp53
 70
     1
102
RTVSPropertyOp54
 70
     1
102
RTVSPropertyOp55
 70
     1
102
RTVSPropertyOp56
 70
     1
102
RTVSPropertyOp57
 70
     1
102
RTVSPropertyOp58
 70
     1
102
RTVSPropertyOp59
 70
     1
102
RTVSPropertyOp60
 70
     1
102
RTVSPropertyOp61
 70
     1
102
RTVSPropertyOp62
 70
     1
  0
XRECORD
  5
97E4
102
{ACAD_REACTORS
330
97E3
102
}
330
97E3
100
AcDbXrecord
280
     1
102
RTVSPost2010Prop28
280
     0
102
RTVSPost2010PropOp28
 70
     1
102
RTVSPost2010Prop29
280
     1
102
RTVSPost2010PropOp29
 70
     1
102
RTVSPost2010Prop30
280
     1
102
RTVSPost2010PropOp30
 70
     1
102
RTVSPost2010Prop31
280
     0
102
RTVSPost2010PropOp31
 70
     1
102
RTVSPost2010Prop32
280
     0
102
RTVSPost2010PropOp32
 70
     1
102
RTVSPost2010Prop33
280
     0
102
RTVSPost2010PropOp33
 70
     1
102
RTVSPost2010Prop34
280
     0
102
RTVSPost2010PropOp34
 70
     1
102
RTVSPost2010Prop35
280
     0
102
RTVSPost2010PropOp35
 70
     1
102
RTVSPost2010Prop36
280
     0
102
RTVSPost2010PropOp36
 70
     1
102
RTVSPost2010Prop37
 90
       50
102
RTVSPost2010PropOp37
 70
     1
102
RTVSPost2010Prop38
140
0.0
102
RTVSPost2010PropOp38
 70
     1
102
RTVSPost2010Prop39
140
1.0
102
RTVSPost2010PropOp39
 70
     1
102
RTVSPost2010Prop40
 90
        0
102
RTVSPost2010PropOp40
 70
     1
102
RTVSPost2010Prop41ColorIndex
 90
       18
102
RTVSPost2010Prop41ColorRGB
 90
        0
102
RTVSPost2010PropOp41
 70
     1
102
RTVSPost2010Prop42
 90
       50
102
RTVSPost2010PropOp42
 70
     1
102
RTVSPost2010Prop43
 90
        3
102
RTVSPost2010PropOp43
 70
     1
102
RTVSPost2010Prop44ColorIndex
 90
        5
102
RTVSPost2010Prop44ColorRGB
 90
      255
102
RTVSPost2010PropOp44
 70
     1
102
RTVSPost2010Prop45
280
     0
102
RTVSPost2010PropOp45
 70
     1
102
RTVSPost2010Prop46
 90
       50
102
RTVSPost2010PropOp46
 70
     1
102
RTVSPost2010Prop47
 90
       50
102
RTVSPost2010PropOp47
 70
     1
102
RTVSPost2010Prop48
 90
       50
102
RTVSPost2010PropOp48
 70
     1
102
RTVSPost2010Prop49
280
     0
102
RTVSPost2010PropOp49
 70
     1
102
RTVSPost2010Prop50
 90
       50
102
RTVSPost2010PropOp50
 70
     1
102
RTVSPost2010Prop51ColorIndex
 90
      256
102
RTVSPost2010Prop51ColorRGB
 90
-16777216
102
RTVSPost2010PropOp51
 70
     0
102
RTVSPost2010Prop52
140
1.0
102
RTVSPost2010PropOp52
 70
     0
102
RTVSPost2010Prop53
 90
        2
102
RTVSPost2010PropOp53
 70
     1
102
RTVSPost2010Prop54
  1
strokes_ogs.tif
102
RTVSPost2010PropOp54
 70
     1
102
RTVSPost2010Prop55
280
     0
102
RTVSPost2010PropOp55
 70
     1
102
RTVSPost2010Prop56
140
1.0
102
RTVSPost2010PropOp56
 70
     1
102
RTVSPost2010Prop57
140
1.0
102
RTVSPost2010PropOp57
 70
     1
102
RTVSPropertyOp0
 70
     1
102
RTVSPropertyOp1
 70
     1
102
RTVSPropertyOp2
 70
     1
102
RTVSPropertyOp3
 70
     1
102
RTVSPropertyOp4
 70
     1
102
RTVSPropertyOp5
 70
     1
102
RTVSPropertyOp6
 70
     1
102
RTVSPropertyOp7
 70
     1
102
RTVSPropertyOp8
 70
     1
102
RTVSPropertyOp9
 70
     1
102
RTVSPropertyOp10
 70
     1
102
RTVSPropertyOp11
 70
     1
102
RTVSPropertyOp12
 70
     1
102
RTVSPropertyOp13
 70
     1
102
RTVSPropertyOp14
 70
     1
102
RTVSPropertyOp15
 70
     1
102
RTVSPropertyOp16
 70
     1
102
RTVSPropertyOp17
 70
     1
102
RTVSPropertyOp18
 70
     1
102
RTVSPropertyOp19
 70
     1
102
RTVSPropertyOp20
 70
     1
102
RTVSPropertyOp21
 70
     1
102
RTVSPropertyOp22
 70
     1
102
RTVSPropertyOp23
 70
     1
102
RTVSPropertyOp24
 70
     1
102
RTVSPropertyOp25
 70
     1
102
RTVSPropertyOp26
 70
     1
102
RTVSPropertyOp27
 70
     1
102
RTVSPropertyOp28
 70
     1
102
RTVSPropertyOp29
 70
     1
102
RTVSPropertyOp30
 70
     1
102
RTVSPropertyOp31
 70
     1
102
RTVSPropertyOp32
 70
     1
102
RTVSPropertyOp33
 70
     1
102
RTVSPropertyOp34
 70
     1
102
RTVSPropertyOp35
 70
     1
102
RTVSPropertyOp36
 70
     1
102
RTVSPropertyOp37
 70
     1
102
RTVSPropertyOp38
 70
     1
102
RTVSPropertyOp39
 70
     1
102
RTVSPropertyOp40
 70
     1
102
RTVSPropertyOp41
 70
     1
102
RTVSPropertyOp42
 70
     1
102
RTVSPropertyOp43
 70
     1
102
RTVSPropertyOp44
 70
     1
102
RTVSPropertyOp45
 70
     1
102
RTVSPropertyOp46
 70
     1
102
RTVSPropertyOp47
 70
     1
102
RTVSPropertyOp48
 70
     1
102
RTVSPropertyOp49
 70
     1
102
RTVSPropertyOp50
 70
     1
102
RTVSPropertyOp51
 70
     0
102
RTVSPropertyOp52
 70
     0
102
RTVSPropertyOp53
 70
     1
102
RTVSPropertyOp54
 70
     1
102
RTVSPropertyOp55
 70
     1
102
RTVSPropertyOp56
 70
     1
102
RTVSPropertyOp57
 70
     1
102
RTVSPropertyOp58
 70
     1
102
RTVSPropertyOp59
 70
     1
102
RTVSPropertyOp60
 70
     1
102
RTVSPropertyOp61
 70
     1
102
RTVSPropertyOp62
 70
     1
  0
XRECORD
  5
97D6
102
{ACAD_REACTORS
330
97D5
102
}
330
97D5
100
AcDbXrecord
280
     1
102
RTVSPost2010Prop28
280
     0
102
RTVSPost2010PropOp28
 70
     1
102
RTVSPost2010Prop29
280
     1
102
RTVSPost2010PropOp29
 70
     1
102
RTVSPost2010Prop30
280
     1
102
RTVSPost2010PropOp30
 70
     1
102
RTVSPost2010Prop31
280
     0
102
RTVSPost2010PropOp31
 70
     1
102
RTVSPost2010Prop32
280
     0
102
RTVSPost2010PropOp32
 70
     1
102
RTVSPost2010Prop33
280
     0
102
RTVSPost2010PropOp33
 70
     1
102
RTVSPost2010Prop34
280
     0
102
RTVSPost2010PropOp34
 70
     1
102
RTVSPost2010Prop35
280
     0
102
RTVSPost2010PropOp35
 70
     1
102
RTVSPost2010Prop36
280
     0
102
RTVSPost2010PropOp36
 70
     1
102
RTVSPost2010Prop37
 90
       50
102
RTVSPost2010PropOp37
 70
     1
102
RTVSPost2010Prop38
140
0.0
102
RTVSPost2010PropOp38
 70
     1
102
RTVSPost2010Prop39
140
1.0
102
RTVSPost2010PropOp39
 70
     1
102
RTVSPost2010Prop40
 90
        0
102
RTVSPost2010PropOp40
 70
     1
102
RTVSPost2010Prop41ColorIndex
 90
       18
102
RTVSPost2010Prop41ColorRGB
 90
        0
102
RTVSPost2010PropOp41
 70
     1
102
RTVSPost2010Prop42
 90
       50
102
RTVSPost2010PropOp42
 70
     1
102
RTVSPost2010Prop43
 90
        3
102
RTVSPost2010PropOp43
 70
     1
102
RTVSPost2010Prop44ColorIndex
 90
        5
102
RTVSPost2010Prop44ColorRGB
 90
      255
102
RTVSPost2010PropOp44
 70
     1
102
RTVSPost2010Prop45
280
     0
102
RTVSPost2010PropOp45
 70
     1
102
RTVSPost2010Prop46
 90
       50
102
RTVSPost2010PropOp46
 70
     1
102
RTVSPost2010Prop47
 90
       50
102
RTVSPost2010PropOp47
 70
     1
102
RTVSPost2010Prop48
 90
       50
102
RTVSPost2010PropOp48
 70
     1
102
RTVSPost2010Prop49
280
     0
102
RTVSPost2010PropOp49
 70
     1
102
RTVSPost2010Prop50
 90
       50
102
RTVSPost2010PropOp50
 70
     1
102
RTVSPost2010Prop51ColorIndex
 90
      256
102
RTVSPost2010Prop51ColorRGB
 90
-16777216
102
RTVSPost2010PropOp51
 70
     0
102
RTVSPost2010Prop52
140
1.0
102
RTVSPost2010PropOp52
 70
     0
102
RTVSPost2010Prop53
 90
        2
102
RTVSPost2010PropOp53
 70
     1
102
RTVSPost2010Prop54
  1
strokes_ogs.tif
102
RTVSPost2010PropOp54
 70
     1
102
RTVSPost2010Prop55
280
     0
102
RTVSPost2010PropOp55
 70
     1
102
RTVSPost2010Prop56
140
1.0
102
RTVSPost2010PropOp56
 70
     1
102
RTVSPost2010Prop57
140
1.0
102
RTVSPost2010PropOp57
 70
     1
102
RTVSPropertyOp0
 70
     1
102
RTVSPropertyOp1
 70
     1
102
RTVSPropertyOp2
 70
     1
102
RTVSPropertyOp3
 70
     1
102
RTVSPropertyOp4
 70
     1
102
RTVSPropertyOp5
 70
     1
102
RTVSPropertyOp6
 70
     1
102
RTVSPropertyOp7
 70
     1
102
RTVSPropertyOp8
 70
     1
102
RTVSPropertyOp9
 70
     1
102
RTVSPropertyOp10
 70
     1
102
RTVSPropertyOp11
 70
     1
102
RTVSPropertyOp12
 70
     1
102
RTVSPropertyOp13
 70
     1
102
RTVSPropertyOp14
 70
     1
102
RTVSPropertyOp15
 70
     1
102
RTVSPropertyOp16
 70
     1
102
RTVSPropertyOp17
 70
     1
102
RTVSPropertyOp18
 70
     1
102
RTVSPropertyOp19
 70
     1
102
RTVSPropertyOp20
 70
     1
102
RTVSPropertyOp21
 70
     1
102
RTVSPropertyOp22
 70
     1
102
RTVSPropertyOp23
 70
     1
102
RTVSPropertyOp24
 70
     1
102
RTVSPropertyOp25
 70
     1
102
RTVSPropertyOp26
 70
     1
102
RTVSPropertyOp27
 70
     1
102
RTVSPropertyOp28
 70
     1
102
RTVSPropertyOp29
 70
     1
102
RTVSPropertyOp30
 70
     1
102
RTVSPropertyOp31
 70
     1
102
RTVSPropertyOp32
 70
     1
102
RTVSPropertyOp33
 70
     1
102
RTVSPropertyOp34
 70
     1
102
RTVSPropertyOp35
 70
     1
102
RTVSPropertyOp36
 70
     1
102
RTVSPropertyOp37
 70
     1
102
RTVSPropertyOp38
 70
     1
102
RTVSPropertyOp39
 70
     1
102
RTVSPropertyOp40
 70
     1
102
RTVSPropertyOp41
 70
     1
102
RTVSPropertyOp42
 70
     1
102
RTVSPropertyOp43
 70
     1
102
RTVSPropertyOp44
 70
     1
102
RTVSPropertyOp45
 70
     1
102
RTVSPropertyOp46
 70
     1
102
RTVSPropertyOp47
 70
     1
102
RTVSPropertyOp48
 70
     1
102
RTVSPropertyOp49
 70
     1
102
RTVSPropertyOp50
 70
     1
102
RTVSPropertyOp51
 70
     0
102
RTVSPropertyOp52
 70
     0
102
RTVSPropertyOp53
 70
     1
102
RTVSPropertyOp54
 70
     1
102
RTVSPropertyOp55
 70
     1
102
RTVSPropertyOp56
 70
     1
102
RTVSPropertyOp57
 70
     1
102
RTVSPropertyOp58
 70
     1
102
RTVSPropertyOp59
 70
     1
102
RTVSPropertyOp60
 70
     1
102
RTVSPropertyOp61
 70
     1
102
RTVSPropertyOp62
 70
     1
  0
XRECORD
  5
97DA
102
{ACAD_REACTORS
330
97D9
102
}
330
97D9
100
AcDbXrecord
280
     1
102
RTVSPost2010Prop28
280
     0
102
RTVSPost2010PropOp28
 70
     1
102
RTVSPost2010Prop29
280
     1
102
RTVSPost2010PropOp29
 70
     1
102
RTVSPost2010Prop30
280
     1
102
RTVSPost2010PropOp30
 70
     1
102
RTVSPost2010Prop31
280
     0
102
RTVSPost2010PropOp31
 70
     1
102
RTVSPost2010Prop32
280
     0
102
RTVSPost2010PropOp32
 70
     1
102
RTVSPost2010Prop33
280
     0
102
RTVSPost2010PropOp33
 70
     1
102
RTVSPost2010Prop34
280
     0
102
RTVSPost2010PropOp34
 70
     1
102
RTVSPost2010Prop35
280
     0
102
RTVSPost2010PropOp35
 70
     1
102
RTVSPost2010Prop36
280
     0
102
RTVSPost2010PropOp36
 70
     1
102
RTVSPost2010Prop37
 90
       50
102
RTVSPost2010PropOp37
 70
     1
102
RTVSPost2010Prop38
140
0.0
102
RTVSPost2010PropOp38
 70
     1
102
RTVSPost2010Prop39
140
1.0
102
RTVSPost2010PropOp39
 70
     1
102
RTVSPost2010Prop40
 90
        0
102
RTVSPost2010PropOp40
 70
     1
102
RTVSPost2010Prop41ColorIndex
 90
       18
102
RTVSPost2010Prop41ColorRGB
 90
        0
102
RTVSPost2010PropOp41
 70
     1
102
RTVSPost2010Prop42
 90
       50
102
RTVSPost2010PropOp42
 70
     1
102
RTVSPost2010Prop43
 90
        3
102
RTVSPost2010PropOp43
 70
     1
102
RTVSPost2010Prop44ColorIndex
 90
        5
102
RTVSPost2010Prop44ColorRGB
 90
      255
102
RTVSPost2010PropOp44
 70
     1
102
RTVSPost2010Prop45
280
     0
102
RTVSPost2010PropOp45
 70
     1
102
RTVSPost2010Prop46
 90
       50
102
RTVSPost2010PropOp46
 70
     1
102
RTVSPost2010Prop47
 90
       50
102
RTVSPost2010PropOp47
 70
     1
102
RTVSPost2010Prop48
 90
       50
102
RTVSPost2010PropOp48
 70
     1
102
RTVSPost2010Prop49
280
     0
102
RTVSPost2010PropOp49
 70
     1
102
RTVSPost2010Prop50
 90
       50
102
RTVSPost2010PropOp50
 70
     1
102
RTVSPost2010Prop51ColorIndex
 90
      256
102
RTVSPost2010Prop51ColorRGB
 90
-16777216
102
RTVSPost2010PropOp51
 70
     0
102
RTVSPost2010Prop52
140
1.0
102
RTVSPost2010PropOp52
 70
     0
102
RTVSPost2010Prop53
 90
        2
102
RTVSPost2010PropOp53
 70
     1
102
RTVSPost2010Prop54
  1
strokes_ogs.tif
102
RTVSPost2010PropOp54
 70
     1
102
RTVSPost2010Prop55
280
     0
102
RTVSPost2010PropOp55
 70
     1
102
RTVSPost2010Prop56
140
1.0
102
RTVSPost2010PropOp56
 70
     1
102
RTVSPost2010Prop57
140
1.0
102
RTVSPost2010PropOp57
 70
     1
102
RTVSPropertyOp0
 70
     1
102
RTVSPropertyOp1
 70
     1
102
RTVSPropertyOp2
 70
     1
102
RTVSPropertyOp3
 70
     1
102
RTVSPropertyOp4
 70
     1
102
RTVSPropertyOp5
 70
     1
102
RTVSPropertyOp6
 70
     1
102
RTVSPropertyOp7
 70
     1
102
RTVSPropertyOp8
 70
     1
102
RTVSPropertyOp9
 70
     1
102
RTVSPropertyOp10
 70
     1
102
RTVSPropertyOp11
 70
     1
102
RTVSPropertyOp12
 70
     1
102
RTVSPropertyOp13
 70
     1
102
RTVSPropertyOp14
 70
     1
102
RTVSPropertyOp15
 70
     1
102
RTVSPropertyOp16
 70
     1
102
RTVSPropertyOp17
 70
     1
102
RTVSPropertyOp18
 70
     1
102
RTVSPropertyOp19
 70
     1
102
RTVSPropertyOp20
 70
     1
102
RTVSPropertyOp21
 70
     1
102
RTVSPropertyOp22
 70
     1
102
RTVSPropertyOp23
 70
     1
102
RTVSPropertyOp24
 70
     1
102
RTVSPropertyOp25
 70
     1
102
RTVSPropertyOp26
 70
     1
102
RTVSPropertyOp27
 70
     1
102
RTVSPropertyOp28
 70
     1
102
RTVSPropertyOp29
 70
     1
102
RTVSPropertyOp30
 70
     1
102
RTVSPropertyOp31
 70
     1
102
RTVSPropertyOp32
 70
     1
102
RTVSPropertyOp33
 70
     1
102
RTVSPropertyOp34
 70
     1
102
RTVSPropertyOp35
 70
     1
102
RTVSPropertyOp36
 70
     1
102
RTVSPropertyOp37
 70
     1
102
RTVSPropertyOp38
 70
     1
102
RTVSPropertyOp39
 70
     1
102
RTVSPropertyOp40
 70
     1
102
RTVSPropertyOp41
 70
     1
102
RTVSPropertyOp42
 70
     1
102
RTVSPropertyOp43
 70
     1
102
RTVSPropertyOp44
 70
     1
102
RTVSPropertyOp45
 70
     1
102
RTVSPropertyOp46
 70
     1
102
RTVSPropertyOp47
 70
     1
102
RTVSPropertyOp48
 70
     1
102
RTVSPropertyOp49
 70
     1
102
RTVSPropertyOp50
 70
     1
102
RTVSPropertyOp51
 70
     0
102
RTVSPropertyOp52
 70
     0
102
RTVSPropertyOp53
 70
     1
102
RTVSPropertyOp54
 70
     1
102
RTVSPropertyOp55
 70
     1
102
RTVSPropertyOp56
 70
     1
102
RTVSPropertyOp57
 70
     1
102
RTVSPropertyOp58
 70
     1
102
RTVSPropertyOp59
 70
     1
102
RTVSPropertyOp60
 70
     1
102
RTVSPropertyOp61
 70
     1
102
RTVSPropertyOp62
 70
     1
  0
XRECORD
  5
97F4
102
{ACAD_REACTORS
330
97F3
102
}
330
97F3
100
AcDbXrecord
280
     1
102
RTVSPost2010Prop28
280
     0
102
RTVSPost2010PropOp28
 70
     1
102
RTVSPost2010Prop29
280
     1
102
RTVSPost2010PropOp29
 70
     1
102
RTVSPost2010Prop30
280
     1
102
RTVSPost2010PropOp30
 70
     1
102
RTVSPost2010Prop31
280
     0
102
RTVSPost2010PropOp31
 70
     1
102
RTVSPost2010Prop32
280
     0
102
RTVSPost2010PropOp32
 70
     1
102
RTVSPost2010Prop33
280
     0
102
RTVSPost2010PropOp33
 70
     1
102
RTVSPost2010Prop34
280
     0
102
RTVSPost2010PropOp34
 70
     1
102
RTVSPost2010Prop35
280
     0
102
RTVSPost2010PropOp35
 70
     1
102
RTVSPost2010Prop36
280
     0
102
RTVSPost2010PropOp36
 70
     1
102
RTVSPost2010Prop37
 90
       50
102
RTVSPost2010PropOp37
 70
     0
102
RTVSPost2010Prop38
140
0.0
102
RTVSPost2010PropOp38
 70
     0
102
RTVSPost2010Prop39
140
1.0
102
RTVSPost2010PropOp39
 70
     0
102
RTVSPost2010Prop40
 90
        0
102
RTVSPost2010PropOp40
 70
     0
102
RTVSPost2010Prop41ColorIndex
 90
       18
102
RTVSPost2010Prop41ColorRGB
 90
        0
102
RTVSPost2010PropOp41
 70
     0
102
RTVSPost2010Prop42
 90
       50
102
RTVSPost2010PropOp42
 70
     0
102
RTVSPost2010Prop43
 90
        3
102
RTVSPost2010PropOp43
 70
     0
102
RTVSPost2010Prop44ColorIndex
 90
        5
102
RTVSPost2010Prop44ColorRGB
 90
      255
102
RTVSPost2010PropOp44
 70
     0
102
RTVSPost2010Prop45
280
     0
102
RTVSPost2010PropOp45
 70
     1
102
RTVSPost2010Prop46
 90
       50
102
RTVSPost2010PropOp46
 70
     0
102
RTVSPost2010Prop47
 90
       50
102
RTVSPost2010PropOp47
 70
     0
102
RTVSPost2010Prop48
 90
       50
102
RTVSPost2010PropOp48
 70
     0
102
RTVSPost2010Prop49
280
     0
102
RTVSPost2010PropOp49
 70
     1
102
RTVSPost2010Prop50
 90
       50
102
RTVSPost2010PropOp50
 70
     0
102
RTVSPost2010Prop51ColorIndex
 90
      256
102
RTVSPost2010Prop51ColorRGB
 90
-16777216
102
RTVSPost2010PropOp51
 70
     0
102
RTVSPost2010Prop52
140
1.0
102
RTVSPost2010PropOp52
 70
     0
102
RTVSPost2010Prop53
 90
        2
102
RTVSPost2010PropOp53
 70
     0
102
RTVSPost2010Prop54
  1
strokes_ogs.tif
102
RTVSPost2010PropOp54
 70
     0
102
RTVSPost2010Prop55
280
     0
102
RTVSPost2010PropOp55
 70
     1
102
RTVSPost2010Prop56
140
1.0
102
RTVSPost2010PropOp56
 70
     0
102
RTVSPost2010Prop57
140
1.0
102
RTVSPost2010PropOp57
 70
     0
102
RTVSPropertyOp0
 70
     0
102
RTVSPropertyOp1
 70
     0
102
RTVSPropertyOp2
 70
     0
102
RTVSPropertyOp3
 70
     0
102
RTVSPropertyOp4
 70
     0
102
RTVSPropertyOp5
 70
     0
102
RTVSPropertyOp6
 70
     0
102
RTVSPropertyOp7
 70
     0
102
RTVSPropertyOp8
 70
     0
102
RTVSPropertyOp9
 70
     0
102
RTVSPropertyOp10
 70
     0
102
RTVSPropertyOp11
 70
     0
102
RTVSPropertyOp12
 70
     0
102
RTVSPropertyOp13
 70
     0
102
RTVSPropertyOp14
 70
     2
102
RTVSPropertyOp15
 70
     0
102
RTVSPropertyOp16
 70
     0
102
RTVSPropertyOp17
 70
     0
102
RTVSPropertyOp18
 70
     0
102
RTVSPropertyOp19
 70
     0
102
RTVSPropertyOp20
 70
     0
102
RTVSPropertyOp21
 70
     0
102
RTVSPropertyOp22
 70
     0
102
RTVSPropertyOp23
 70
     0
102
RTVSPropertyOp24
 70
     0
102
RTVSPropertyOp25
 70
     0
102
RTVSPropertyOp26
 70
     0
102
RTVSPropertyOp27
 70
     0
102
RTVSPropertyOp28
 70
     1
102
RTVSPropertyOp29
 70
     1
102
RTVSPropertyOp30
 70
     1
102
RTVSPropertyOp31
 70
     1
102
RTVSPropertyOp32
 70
     1
102
RTVSPropertyOp33
 70
     1
102
RTVSPropertyOp34
 70
     1
102
RTVSPropertyOp35
 70
     1
102
RTVSPropertyOp36
 70
     1
102
RTVSPropertyOp37
 70
     0
102
RTVSPropertyOp38
 70
     0
102
RTVSPropertyOp39
 70
     0
102
RTVSPropertyOp40
 70
     0
102
RTVSPropertyOp41
 70
     0
102
RTVSPropertyOp42
 70
     0
102
RTVSPropertyOp43
 70
     0
102
RTVSPropertyOp44
 70
     0
102
RTVSPropertyOp45
 70
     1
102
RTVSPropertyOp46
 70
     0
102
RTVSPropertyOp47
 70
     0
102
RTVSPropertyOp48
 70
     0
102
RTVSPropertyOp49
 70
     1
102
RTVSPropertyOp50
 70
     0
102
RTVSPropertyOp51
 70
     0
102
RTVSPropertyOp52
 70
     0
102
RTVSPropertyOp53
 70
     0
102
RTVSPropertyOp54
 70
     0
102
RTVSPropertyOp55
 70
     1
102
RTVSPropertyOp56
 70
     0
102
RTVSPropertyOp57
 70
     0
102
RTVSPropertyOp58
 70
     0
102
RTVSPropertyOp59
 70
     0
102
RTVSPropertyOp60
 70
     0
102
RTVSPropertyOp61
 70
     0
102
RTVSPropertyOp62
 70
     0
  0
XRECORD
  5
97E2
102
{ACAD_REACTORS
330
97E1
102
}
330
97E1
100
AcDbXrecord
280
     1
102
RTVSPost2010Prop28
280
     0
102
RTVSPost2010PropOp28
 70
     1
102
RTVSPost2010Prop29
280
     1
102
RTVSPost2010PropOp29
 70
     1
102
RTVSPost2010Prop30
280
     1
102
RTVSPost2010PropOp30
 70
     1
102
RTVSPost2010Prop31
280
     0
102
RTVSPost2010PropOp31
 70
     1
102
RTVSPost2010Prop32
280
     0
102
RTVSPost2010PropOp32
 70
     1
102
RTVSPost2010Prop33
280
     0
102
RTVSPost2010PropOp33
 70
     1
102
RTVSPost2010Prop34
280
     0
102
RTVSPost2010PropOp34
 70
     1
102
RTVSPost2010Prop35
280
     0
102
RTVSPost2010PropOp35
 70
     1
102
RTVSPost2010Prop36
280
     0
102
RTVSPost2010PropOp36
 70
     1
102
RTVSPost2010Prop37
 90
       50
102
RTVSPost2010PropOp37
 70
     1
102
RTVSPost2010Prop38
140
0.0
102
RTVSPost2010PropOp38
 70
     1
102
RTVSPost2010Prop39
140
1.0
102
RTVSPost2010PropOp39
 70
     1
102
RTVSPost2010Prop40
 90
        0
102
RTVSPost2010PropOp40
 70
     1
102
RTVSPost2010Prop41ColorIndex
 90
       18
102
RTVSPost2010Prop41ColorRGB
 90
        0
102
RTVSPost2010PropOp41
 70
     1
102
RTVSPost2010Prop42
 90
       50
102
RTVSPost2010PropOp42
 70
     1
102
RTVSPost2010Prop43
 90
        3
102
RTVSPost2010PropOp43
 70
     1
102
RTVSPost2010Prop44ColorIndex
 90
        5
102
RTVSPost2010Prop44ColorRGB
 90
      255
102
RTVSPost2010PropOp44
 70
     1
102
RTVSPost2010Prop45
280
     0
102
RTVSPost2010PropOp45
 70
     1
102
RTVSPost2010Prop46
 90
       50
102
RTVSPost2010PropOp46
 70
     1
102
RTVSPost2010Prop47
 90
       50
102
RTVSPost2010PropOp47
 70
     1
102
RTVSPost2010Prop48
 90
       50
102
RTVSPost2010PropOp48
 70
     1
102
RTVSPost2010Prop49
280
     0
102
RTVSPost2010PropOp49
 70
     1
102
RTVSPost2010Prop50
 90
       50
102
RTVSPost2010PropOp50
 70
     1
102
RTVSPost2010Prop51ColorIndex
 90
      256
102
RTVSPost2010Prop51ColorRGB
 90
-16777216
102
RTVSPost2010PropOp51
 70
     0
102
RTVSPost2010Prop52
140
1.0
102
RTVSPost2010PropOp52
 70
     0
102
RTVSPost2010Prop53
 90
        2
102
RTVSPost2010PropOp53
 70
     1
102
RTVSPost2010Prop54
  1
strokes_ogs.tif
102
RTVSPost2010PropOp54
 70
     1
102
RTVSPost2010Prop55
280
     0
102
RTVSPost2010PropOp55
 70
     1
102
RTVSPost2010Prop56
140
1.0
102
RTVSPost2010PropOp56
 70
     1
102
RTVSPost2010Prop57
140
1.0
102
RTVSPost2010PropOp57
 70
     1
102
RTVSPropertyOp0
 70
     1
102
RTVSPropertyOp1
 70
     1
102
RTVSPropertyOp2
 70
     1
102
RTVSPropertyOp3
 70
     1
102
RTVSPropertyOp4
 70
     1
102
RTVSPropertyOp5
 70
     1
102
RTVSPropertyOp6
 70
     1
102
RTVSPropertyOp7
 70
     1
102
RTVSPropertyOp8
 70
     1
102
RTVSPropertyOp9
 70
     1
102
RTVSPropertyOp10
 70
     1
102
RTVSPropertyOp11
 70
     1
102
RTVSPropertyOp12
 70
     1
102
RTVSPropertyOp13
 70
     1
102
RTVSPropertyOp14
 70
     1
102
RTVSPropertyOp15
 70
     1
102
RTVSPropertyOp16
 70
     1
102
RTVSPropertyOp17
 70
     1
102
RTVSPropertyOp18
 70
     1
102
RTVSPropertyOp19
 70
     1
102
RTVSPropertyOp20
 70
     1
102
RTVSPropertyOp21
 70
     1
102
RTVSPropertyOp22
 70
     1
102
RTVSPropertyOp23
 70
     1
102
RTVSPropertyOp24
 70
     1
102
RTVSPropertyOp25
 70
     1
102
RTVSPropertyOp26
 70
     1
102
RTVSPropertyOp27
 70
     1
102
RTVSPropertyOp28
 70
     1
102
RTVSPropertyOp29
 70
     1
102
RTVSPropertyOp30
 70
     1
102
RTVSPropertyOp31
 70
     1
102
RTVSPropertyOp32
 70
     1
102
RTVSPropertyOp33
 70
     1
102
RTVSPropertyOp34
 70
     1
102
RTVSPropertyOp35
 70
     1
102
RTVSPropertyOp36
 70
     1
102
RTVSPropertyOp37
 70
     1
102
RTVSPropertyOp38
 70
     1
102
RTVSPropertyOp39
 70
     1
102
RTVSPropertyOp40
 70
     1
102
RTVSPropertyOp41
 70
     1
102
RTVSPropertyOp42
 70
     1
102
RTVSPropertyOp43
 70
     1
102
RTVSPropertyOp44
 70
     1
102
RTVSPropertyOp45
 70
     1
102
RTVSPropertyOp46
 70
     1
102
RTVSPropertyOp47
 70
     1
102
RTVSPropertyOp48
 70
     1
102
RTVSPropertyOp49
 70
     1
102
RTVSPropertyOp50
 70
     1
102
RTVSPropertyOp51
 70
     0
102
RTVSPropertyOp52
 70
     0
102
RTVSPropertyOp53
 70
     1
102
RTVSPropertyOp54
 70
     1
102
RTVSPropertyOp55
 70
     1
102
RTVSPropertyOp56
 70
     1
102
RTVSPropertyOp57
 70
     1
102
RTVSPropertyOp58
 70
     1
102
RTVSPropertyOp59
 70
     1
102
RTVSPropertyOp60
 70
     1
102
RTVSPropertyOp61
 70
     1
102
RTVSPropertyOp62
 70
     1
  0
XRECORD
  5
97C6
102
{ACAD_REACTORS
330
97C5
102
}
330
97C5
100
AcDbXrecord
280
     1
102
RTVSPost2010Prop28
280
     0
102
RTVSPost2010PropOp28
 70
     1
102
RTVSPost2010Prop29
280
     1
102
RTVSPost2010PropOp29
 70
     1
102
RTVSPost2010Prop30
280
     1
102
RTVSPost2010PropOp30
 70
     1
102
RTVSPost2010Prop31
280
     0
102
RTVSPost2010PropOp31
 70
     1
102
RTVSPost2010Prop32
280
     0
102
RTVSPost2010PropOp32
 70
     1
102
RTVSPost2010Prop33
280
     0
102
RTVSPost2010PropOp33
 70
     1
102
RTVSPost2010Prop34
280
     0
102
RTVSPost2010PropOp34
 70
     1
102
RTVSPost2010Prop35
280
     0
102
RTVSPost2010PropOp35
 70
     1
102
RTVSPost2010Prop36
280
     0
102
RTVSPost2010PropOp36
 70
     1
102
RTVSPost2010Prop37
 90
       50
102
RTVSPost2010PropOp37
 70
     1
102
RTVSPost2010Prop38
140
0.0
102
RTVSPost2010PropOp38
 70
     1
102
RTVSPost2010Prop39
140
1.0
102
RTVSPost2010PropOp39
 70
     1
102
RTVSPost2010Prop40
 90
        0
102
RTVSPost2010PropOp40
 70
     1
102
RTVSPost2010Prop41ColorIndex
 90
       18
102
RTVSPost2010Prop41ColorRGB
 90
        0
102
RTVSPost2010PropOp41
 70
     1
102
RTVSPost2010Prop42
 90
       50
102
RTVSPost2010PropOp42
 70
     1
102
RTVSPost2010Prop43
 90
        3
102
RTVSPost2010PropOp43
 70
     1
102
RTVSPost2010Prop44ColorIndex
 90
        5
102
RTVSPost2010Prop44ColorRGB
 90
      255
102
RTVSPost2010PropOp44
 70
     1
102
RTVSPost2010Prop45
280
     0
102
RTVSPost2010PropOp45
 70
     1
102
RTVSPost2010Prop46
 90
       50
102
RTVSPost2010PropOp46
 70
     1
102
RTVSPost2010Prop47
 90
       50
102
RTVSPost2010PropOp47
 70
     1
102
RTVSPost2010Prop48
 90
       50
102
RTVSPost2010PropOp48
 70
     1
102
RTVSPost2010Prop49
280
     0
102
RTVSPost2010PropOp49
 70
     1
102
RTVSPost2010Prop50
 90
       50
102
RTVSPost2010PropOp50
 70
     1
102
RTVSPost2010Prop51ColorIndex
 90
      256
102
RTVSPost2010Prop51ColorRGB
 90
-16777216
102
RTVSPost2010PropOp51
 70
     0
102
RTVSPost2010Prop52
140
1.0
102
RTVSPost2010PropOp52
 70
     0
102
RTVSPost2010Prop53
 90
        2
102
RTVSPost2010PropOp53
 70
     1
102
RTVSPost2010Prop54
  1
strokes_ogs.tif
102
RTVSPost2010PropOp54
 70
     1
102
RTVSPost2010Prop55
280
     0
102
RTVSPost2010PropOp55
 70
     1
102
RTVSPost2010Prop56
140
1.0
102
RTVSPost2010PropOp56
 70
     1
102
RTVSPost2010Prop57
140
1.0
102
RTVSPost2010PropOp57
 70
     1
102
RTVSPropertyOp0
 70
     1
102
RTVSPropertyOp1
 70
     1
102
RTVSPropertyOp2
 70
     1
102
RTVSPropertyOp3
 70
     1
102
RTVSPropertyOp4
 70
     1
102
RTVSPropertyOp5
 70
     1
102
RTVSPropertyOp6
 70
     1
102
RTVSPropertyOp7
 70
     1
102
RTVSPropertyOp8
 70
     1
102
RTVSPropertyOp9
 70
     1
102
RTVSPropertyOp10
 70
     1
102
RTVSPropertyOp11
 70
     1
102
RTVSPropertyOp12
 70
     1
102
RTVSPropertyOp13
 70
     1
102
RTVSPropertyOp14
 70
     1
102
RTVSPropertyOp15
 70
     1
102
RTVSPropertyOp16
 70
     1
102
RTVSPropertyOp17
 70
     1
102
RTVSPropertyOp18
 70
     1
102
RTVSPropertyOp19
 70
     1
102
RTVSPropertyOp20
 70
     1
102
RTVSPropertyOp21
 70
     1
102
RTVSPropertyOp22
 70
     1
102
RTVSPropertyOp23
 70
     1
102
RTVSPropertyOp24
 70
     1
102
RTVSPropertyOp25
 70
     1
102
RTVSPropertyOp26
 70
     1
102
RTVSPropertyOp27
 70
     1
102
RTVSPropertyOp28
 70
     1
102
RTVSPropertyOp29
 70
     1
102
RTVSPropertyOp30
 70
     1
102
RTVSPropertyOp31
 70
     1
102
RTVSPropertyOp32
 70
     1
102
RTVSPropertyOp33
 70
     1
102
RTVSPropertyOp34
 70
     1
102
RTVSPropertyOp35
 70
     1
102
RTVSPropertyOp36
 70
     1
102
RTVSPropertyOp37
 70
     1
102
RTVSPropertyOp38
 70
     1
102
RTVSPropertyOp39
 70
     1
102
RTVSPropertyOp40
 70
     1
102
RTVSPropertyOp41
 70
     1
102
RTVSPropertyOp42
 70
     1
102
RTVSPropertyOp43
 70
     1
102
RTVSPropertyOp44
 70
     1
102
RTVSPropertyOp45
 70
     1
102
RTVSPropertyOp46
 70
     1
102
RTVSPropertyOp47
 70
     1
102
RTVSPropertyOp48
 70
     1
102
RTVSPropertyOp49
 70
     1
102
RTVSPropertyOp50
 70
     1
102
RTVSPropertyOp51
 70
     0
102
RTVSPropertyOp52
 70
     0
102
RTVSPropertyOp53
 70
     1
102
RTVSPropertyOp54
 70
     1
102
RTVSPropertyOp55
 70
     1
102
RTVSPropertyOp56
 70
     1
102
RTVSPropertyOp57
 70
     1
102
RTVSPropertyOp58
 70
     1
102
RTVSPropertyOp59
 70
     1
102
RTVSPropertyOp60
 70
     1
102
RTVSPropertyOp61
 70
     1
102
RTVSPropertyOp62
 70
     1
  0
XRECORD
  5
97C8
102
{ACAD_REACTORS
330
97C7
102
}
330
97C7
100
AcDbXrecord
280
     1
102
RTVSPost2010Prop28
280
     0
102
RTVSPost2010PropOp28
 70
     1
102
RTVSPost2010Prop29
280
     1
102
RTVSPost2010PropOp29
 70
     1
102
RTVSPost2010Prop30
280
     1
102
RTVSPost2010PropOp30
 70
     1
102
RTVSPost2010Prop31
280
     0
102
RTVSPost2010PropOp31
 70
     1
102
RTVSPost2010Prop32
280
     0
102
RTVSPost2010PropOp32
 70
     1
102
RTVSPost2010Prop33
280
     0
102
RTVSPost2010PropOp33
 70
     1
102
RTVSPost2010Prop34
280
     0
102
RTVSPost2010PropOp34
 70
     1
102
RTVSPost2010Prop35
280
     0
102
RTVSPost2010PropOp35
 70
     1
102
RTVSPost2010Prop36
280
     0
102
RTVSPost2010PropOp36
 70
     1
102
RTVSPost2010Prop37
 90
       50
102
RTVSPost2010PropOp37
 70
     1
102
RTVSPost2010Prop38
140
0.0
102
RTVSPost2010PropOp38
 70
     1
102
RTVSPost2010Prop39
140
1.0
102
RTVSPost2010PropOp39
 70
     1
102
RTVSPost2010Prop40
 90
        0
102
RTVSPost2010PropOp40
 70
     1
102
RTVSPost2010Prop41ColorIndex
 90
       18
102
RTVSPost2010Prop41ColorRGB
 90
        0
102
RTVSPost2010PropOp41
 70
     1
102
RTVSPost2010Prop42
 90
       50
102
RTVSPost2010PropOp42
 70
     1
102
RTVSPost2010Prop43
 90
        3
102
RTVSPost2010PropOp43
 70
     1
102
RTVSPost2010Prop44ColorIndex
 90
        5
102
RTVSPost2010Prop44ColorRGB
 90
      255
102
RTVSPost2010PropOp44
 70
     1
102
RTVSPost2010Prop45
280
     0
102
RTVSPost2010PropOp45
 70
     1
102
RTVSPost2010Prop46
 90
       50
102
RTVSPost2010PropOp46
 70
     1
102
RTVSPost2010Prop47
 90
       50
102
RTVSPost2010PropOp47
 70
     1
102
RTVSPost2010Prop48
 90
       50
102
RTVSPost2010PropOp48
 70
     1
102
RTVSPost2010Prop49
280
     0
102
RTVSPost2010PropOp49
 70
     1
102
RTVSPost2010Prop50
 90
       50
102
RTVSPost2010PropOp50
 70
     1
102
RTVSPost2010Prop51ColorIndex
 90
      256
102
RTVSPost2010Prop51ColorRGB
 90
-16777216
102
RTVSPost2010PropOp51
 70
     0
102
RTVSPost2010Prop52
140
1.0
102
RTVSPost2010PropOp52
 70
     0
102
RTVSPost2010Prop53
 90
        2
102
RTVSPost2010PropOp53
 70
     1
102
RTVSPost2010Prop54
  1
strokes_ogs.tif
102
RTVSPost2010PropOp54
 70
     1
102
RTVSPost2010Prop55
280
     0
102
RTVSPost2010PropOp55
 70
     1
102
RTVSPost2010Prop56
140
1.0
102
RTVSPost2010PropOp56
 70
     1
102
RTVSPost2010Prop57
140
1.0
102
RTVSPost2010PropOp57
 70
     1
102
RTVSPropertyOp0
 70
     1
102
RTVSPropertyOp1
 70
     1
102
RTVSPropertyOp2
 70
     1
102
RTVSPropertyOp3
 70
     1
102
RTVSPropertyOp4
 70
     1
102
RTVSPropertyOp5
 70
     1
102
RTVSPropertyOp6
 70
     1
102
RTVSPropertyOp7
 70
     1
102
RTVSPropertyOp8
 70
     1
102
RTVSPropertyOp9
 70
     1
102
RTVSPropertyOp10
 70
     1
102
RTVSPropertyOp11
 70
     1
102
RTVSPropertyOp12
 70
     1
102
RTVSPropertyOp13
 70
     1
102
RTVSPropertyOp14
 70
     1
102
RTVSPropertyOp15
 70
     1
102
RTVSPropertyOp16
 70
     1
102
RTVSPropertyOp17
 70
     1
102
RTVSPropertyOp18
 70
     1
102
RTVSPropertyOp19
 70
     1
102
RTVSPropertyOp20
 70
     1
102
RTVSPropertyOp21
 70
     1
102
RTVSPropertyOp22
 70
     1
102
RTVSPropertyOp23
 70
     1
102
RTVSPropertyOp24
 70
     1
102
RTVSPropertyOp25
 70
     1
102
RTVSPropertyOp26
 70
     1
102
RTVSPropertyOp27
 70
     1
102
RTVSPropertyOp28
 70
     1
102
RTVSPropertyOp29
 70
     1
102
RTVSPropertyOp30
 70
     1
102
RTVSPropertyOp31
 70
     1
102
RTVSPropertyOp32
 70
     1
102
RTVSPropertyOp33
 70
     1
102
RTVSPropertyOp34
 70
     1
102
RTVSPropertyOp35
 70
     1
102
RTVSPropertyOp36
 70
     1
102
RTVSPropertyOp37
 70
     1
102
RTVSPropertyOp38
 70
     1
102
RTVSPropertyOp39
 70
     1
102
RTVSPropertyOp40
 70
     1
102
RTVSPropertyOp41
 70
     1
102
RTVSPropertyOp42
 70
     1
102
RTVSPropertyOp43
 70
     1
102
RTVSPropertyOp44
 70
     1
102
RTVSPropertyOp45
 70
     1
102
RTVSPropertyOp46
 70
     1
102
RTVSPropertyOp47
 70
     1
102
RTVSPropertyOp48
 70
     1
102
RTVSPropertyOp49
 70
     1
102
RTVSPropertyOp50
 70
     1
102
RTVSPropertyOp51
 70
     0
102
RTVSPropertyOp52
 70
     0
102
RTVSPropertyOp53
 70
     1
102
RTVSPropertyOp54
 70
     1
102
RTVSPropertyOp55
 70
     1
102
RTVSPropertyOp56
 70
     1
102
RTVSPropertyOp57
 70
     1
102
RTVSPropertyOp58
 70
     1
102
RTVSPropertyOp59
 70
     1
102
RTVSPropertyOp60
 70
     1
102
RTVSPropertyOp61
 70
     1
102
RTVSPropertyOp62
 70
     1
  0
XRECORD
  5
97CA
102
{ACAD_REACTORS
330
97C9
102
}
330
97C9
100
AcDbXrecord
280
     1
102
RTVSPost2010Prop28
280
     0
102
RTVSPost2010PropOp28
 70
     1
102
RTVSPost2010Prop29
280
     1
102
RTVSPost2010PropOp29
 70
     1
102
RTVSPost2010Prop30
280
     1
102
RTVSPost2010PropOp30
 70
     1
102
RTVSPost2010Prop31
280
     0
102
RTVSPost2010PropOp31
 70
     1
102
RTVSPost2010Prop32
280
     0
102
RTVSPost2010PropOp32
 70
     1
102
RTVSPost2010Prop33
280
     0
102
RTVSPost2010PropOp33
 70
     1
102
RTVSPost2010Prop34
280
     0
102
RTVSPost2010PropOp34
 70
     1
102
RTVSPost2010Prop35
280
     0
102
RTVSPost2010PropOp35
 70
     1
102
RTVSPost2010Prop36
280
     0
102
RTVSPost2010PropOp36
 70
     1
102
RTVSPost2010Prop37
 90
       50
102
RTVSPost2010PropOp37
 70
     1
102
RTVSPost2010Prop38
140
0.0
102
RTVSPost2010PropOp38
 70
     1
102
RTVSPost2010Prop39
140
1.0
102
RTVSPost2010PropOp39
 70
     1
102
RTVSPost2010Prop40
 90
        0
102
RTVSPost2010PropOp40
 70
     1
102
RTVSPost2010Prop41ColorIndex
 90
       18
102
RTVSPost2010Prop41ColorRGB
 90
        0
102
RTVSPost2010PropOp41
 70
     1
102
RTVSPost2010Prop42
 90
       50
102
RTVSPost2010PropOp42
 70
     1
102
RTVSPost2010Prop43
 90
        3
102
RTVSPost2010PropOp43
 70
     1
102
RTVSPost2010Prop44ColorIndex
 90
        5
102
RTVSPost2010Prop44ColorRGB
 90
      255
102
RTVSPost2010PropOp44
 70
     1
102
RTVSPost2010Prop45
280
     0
102
RTVSPost2010PropOp45
 70
     1
102
RTVSPost2010Prop46
 90
       50
102
RTVSPost2010PropOp46
 70
     1
102
RTVSPost2010Prop47
 90
       50
102
RTVSPost2010PropOp47
 70
     1
102
RTVSPost2010Prop48
 90
       50
102
RTVSPost2010PropOp48
 70
     1
102
RTVSPost2010Prop49
280
     0
102
RTVSPost2010PropOp49
 70
     1
102
RTVSPost2010Prop50
 90
       50
102
RTVSPost2010PropOp50
 70
     1
102
RTVSPost2010Prop51ColorIndex
 90
      256
102
RTVSPost2010Prop51ColorRGB
 90
-16777216
102
RTVSPost2010PropOp51
 70
     0
102
RTVSPost2010Prop52
140
1.0
102
RTVSPost2010PropOp52
 70
     0
102
RTVSPost2010Prop53
 90
        2
102
RTVSPost2010PropOp53
 70
     1
102
RTVSPost2010Prop54
  1
strokes_ogs.tif
102
RTVSPost2010PropOp54
 70
     1
102
RTVSPost2010Prop55
280
     0
102
RTVSPost2010PropOp55
 70
     1
102
RTVSPost2010Prop56
140
1.0
102
RTVSPost2010PropOp56
 70
     1
102
RTVSPost2010Prop57
140
1.0
102
RTVSPost2010PropOp57
 70
     1
102
RTVSPropertyOp0
 70
     1
102
RTVSPropertyOp1
 70
     1
102
RTVSPropertyOp2
 70
     1
102
RTVSPropertyOp3
 70
     1
102
RTVSPropertyOp4
 70
     1
102
RTVSPropertyOp5
 70
     1
102
RTVSPropertyOp6
 70
     1
102
RTVSPropertyOp7
 70
     1
102
RTVSPropertyOp8
 70
     1
102
RTVSPropertyOp9
 70
     1
102
RTVSPropertyOp10
 70
     1
102
RTVSPropertyOp11
 70
     1
102
RTVSPropertyOp12
 70
     1
102
RTVSPropertyOp13
 70
     1
102
RTVSPropertyOp14
 70
     1
102
RTVSPropertyOp15
 70
     1
102
RTVSPropertyOp16
 70
     1
102
RTVSPropertyOp17
 70
     1
102
RTVSPropertyOp18
 70
     1
102
RTVSPropertyOp19
 70
     1
102
RTVSPropertyOp20
 70
     1
102
RTVSPropertyOp21
 70
     1
102
RTVSPropertyOp22
 70
     1
102
RTVSPropertyOp23
 70
     1
102
RTVSPropertyOp24
 70
     1
102
RTVSPropertyOp25
 70
     1
102
RTVSPropertyOp26
 70
     1
102
RTVSPropertyOp27
 70
     1
102
RTVSPropertyOp28
 70
     1
102
RTVSPropertyOp29
 70
     1
102
RTVSPropertyOp30
 70
     1
102
RTVSPropertyOp31
 70
     1
102
RTVSPropertyOp32
 70
     1
102
RTVSPropertyOp33
 70
     1
102
RTVSPropertyOp34
 70
     1
102
RTVSPropertyOp35
 70
     1
102
RTVSPropertyOp36
 70
     1
102
RTVSPropertyOp37
 70
     1
102
RTVSPropertyOp38
 70
     1
102
RTVSPropertyOp39
 70
     1
102
RTVSPropertyOp40
 70
     1
102
RTVSPropertyOp41
 70
     1
102
RTVSPropertyOp42
 70
     1
102
RTVSPropertyOp43
 70
     1
102
RTVSPropertyOp44
 70
     1
102
RTVSPropertyOp45
 70
     1
102
RTVSPropertyOp46
 70
     1
102
RTVSPropertyOp47
 70
     1
102
RTVSPropertyOp48
 70
     1
102
RTVSPropertyOp49
 70
     1
102
RTVSPropertyOp50
 70
     1
102
RTVSPropertyOp51
 70
     0
102
RTVSPropertyOp52
 70
     0
102
RTVSPropertyOp53
 70
     1
102
RTVSPropertyOp54
 70
     1
102
RTVSPropertyOp55
 70
     1
102
RTVSPropertyOp56
 70
     1
102
RTVSPropertyOp57
 70
     1
102
RTVSPropertyOp58
 70
     1
102
RTVSPropertyOp59
 70
     1
102
RTVSPropertyOp60
 70
     1
102
RTVSPropertyOp61
 70
     1
102
RTVSPropertyOp62
 70
     1
  0
XRECORD
  5
97CC
102
{ACAD_REACTORS
330
97CB
102
}
330
97CB
100
AcDbXrecord
280
     1
102
RTVSPost2010Prop28
280
     0
102
RTVSPost2010PropOp28
 70
     1
102
RTVSPost2010Prop29
280
     1
102
RTVSPost2010PropOp29
 70
     1
102
RTVSPost2010Prop30
280
     1
102
RTVSPost2010PropOp30
 70
     1
102
RTVSPost2010Prop31
280
     0
102
RTVSPost2010PropOp31
 70
     1
102
RTVSPost2010Prop32
280
     0
102
RTVSPost2010PropOp32
 70
     1
102
RTVSPost2010Prop33
280
     0
102
RTVSPost2010PropOp33
 70
     1
102
RTVSPost2010Prop34
280
     0
102
RTVSPost2010PropOp34
 70
     1
102
RTVSPost2010Prop35
280
     0
102
RTVSPost2010PropOp35
 70
     1
102
RTVSPost2010Prop36
280
     0
102
RTVSPost2010PropOp36
 70
     1
102
RTVSPost2010Prop37
 90
       50
102
RTVSPost2010PropOp37
 70
     1
102
RTVSPost2010Prop38
140
0.0
102
RTVSPost2010PropOp38
 70
     1
102
RTVSPost2010Prop39
140
1.0
102
RTVSPost2010PropOp39
 70
     1
102
RTVSPost2010Prop40
 90
        0
102
RTVSPost2010PropOp40
 70
     1
102
RTVSPost2010Prop41ColorIndex
 90
       18
102
RTVSPost2010Prop41ColorRGB
 90
        0
102
RTVSPost2010PropOp41
 70
     1
102
RTVSPost2010Prop42
 90
       50
102
RTVSPost2010PropOp42
 70
     1
102
RTVSPost2010Prop43
 90
        3
102
RTVSPost2010PropOp43
 70
     1
102
RTVSPost2010Prop44ColorIndex
 90
        5
102
RTVSPost2010Prop44ColorRGB
 90
      255
102
RTVSPost2010PropOp44
 70
     1
102
RTVSPost2010Prop45
280
     0
102
RTVSPost2010PropOp45
 70
     1
102
RTVSPost2010Prop46
 90
       50
102
RTVSPost2010PropOp46
 70
     1
102
RTVSPost2010Prop47
 90
       50
102
RTVSPost2010PropOp47
 70
     1
102
RTVSPost2010Prop48
 90
       50
102
RTVSPost2010PropOp48
 70
     1
102
RTVSPost2010Prop49
280
     0
102
RTVSPost2010PropOp49
 70
     1
102
RTVSPost2010Prop50
 90
       50
102
RTVSPost2010PropOp50
 70
     1
102
RTVSPost2010Prop51ColorIndex
 90
      256
102
RTVSPost2010Prop51ColorRGB
 90
-16777216
102
RTVSPost2010PropOp51
 70
     0
102
RTVSPost2010Prop52
140
1.0
102
RTVSPost2010PropOp52
 70
     0
102
RTVSPost2010Prop53
 90
        2
102
RTVSPost2010PropOp53
 70
     1
102
RTVSPost2010Prop54
  1
strokes_ogs.tif
102
RTVSPost2010PropOp54
 70
     1
102
RTVSPost2010Prop55
280
     0
102
RTVSPost2010PropOp55
 70
     1
102
RTVSPost2010Prop56
140
1.0
102
RTVSPost2010PropOp56
 70
     1
102
RTVSPost2010Prop57
140
1.0
102
RTVSPost2010PropOp57
 70
     1
102
RTVSPropertyOp0
 70
     1
102
RTVSPropertyOp1
 70
     1
102
RTVSPropertyOp2
 70
     1
102
RTVSPropertyOp3
 70
     1
102
RTVSPropertyOp4
 70
     1
102
RTVSPropertyOp5
 70
     1
102
RTVSPropertyOp6
 70
     1
102
RTVSPropertyOp7
 70
     1
102
RTVSPropertyOp8
 70
     1
102
RTVSPropertyOp9
 70
     1
102
RTVSPropertyOp10
 70
     1
102
RTVSPropertyOp11
 70
     1
102
RTVSPropertyOp12
 70
     1
102
RTVSPropertyOp13
 70
     1
102
RTVSPropertyOp14
 70
     1
102
RTVSPropertyOp15
 70
     1
102
RTVSPropertyOp16
 70
     1
102
RTVSPropertyOp17
 70
     1
102
RTVSPropertyOp18
 70
     1
102
RTVSPropertyOp19
 70
     1
102
RTVSPropertyOp20
 70
     1
102
RTVSPropertyOp21
 70
     1
102
RTVSPropertyOp22
 70
     1
102
RTVSPropertyOp23
 70
     1
102
RTVSPropertyOp24
 70
     1
102
RTVSPropertyOp25
 70
     1
102
RTVSPropertyOp26
 70
     1
102
RTVSPropertyOp27
 70
     1
102
RTVSPropertyOp28
 70
     1
102
RTVSPropertyOp29
 70
     1
102
RTVSPropertyOp30
 70
     1
102
RTVSPropertyOp31
 70
     1
102
RTVSPropertyOp32
 70
     1
102
RTVSPropertyOp33
 70
     1
102
RTVSPropertyOp34
 70
     1
102
RTVSPropertyOp35
 70
     1
102
RTVSPropertyOp36
 70
     1
102
RTVSPropertyOp37
 70
     1
102
RTVSPropertyOp38
 70
     1
102
RTVSPropertyOp39
 70
     1
102
RTVSPropertyOp40
 70
     1
102
RTVSPropertyOp41
 70
     1
102
RTVSPropertyOp42
 70
     1
102
RTVSPropertyOp43
 70
     1
102
RTVSPropertyOp44
 70
     1
102
RTVSPropertyOp45
 70
     1
102
RTVSPropertyOp46
 70
     1
102
RTVSPropertyOp47
 70
     1
102
RTVSPropertyOp48
 70
     1
102
RTVSPropertyOp49
 70
     1
102
RTVSPropertyOp50
 70
     1
102
RTVSPropertyOp51
 70
     0
102
RTVSPropertyOp52
 70
     0
102
RTVSPropertyOp53
 70
     1
102
RTVSPropertyOp54
 70
     1
102
RTVSPropertyOp55
 70
     1
102
RTVSPropertyOp56
 70
     1
102
RTVSPropertyOp57
 70
     1
102
RTVSPropertyOp58
 70
     1
102
RTVSPropertyOp59
 70
     1
102
RTVSPropertyOp60
 70
     1
102
RTVSPropertyOp61
 70
     1
102
RTVSPropertyOp62
 70
     1
  0
XRECORD
  5
97D4
102
{ACAD_REACTORS
330
97D3
102
}
330
97D3
100
AcDbXrecord
280
     1
102
RTVSPost2010Prop28
280
     0
102
RTVSPost2010PropOp28
 70
     1
102
RTVSPost2010Prop29
280
     1
102
RTVSPost2010PropOp29
 70
     1
102
RTVSPost2010Prop30
280
     1
102
RTVSPost2010PropOp30
 70
     1
102
RTVSPost2010Prop31
280
     0
102
RTVSPost2010PropOp31
 70
     1
102
RTVSPost2010Prop32
280
     0
102
RTVSPost2010PropOp32
 70
     1
102
RTVSPost2010Prop33
280
     0
102
RTVSPost2010PropOp33
 70
     1
102
RTVSPost2010Prop34
280
     0
102
RTVSPost2010PropOp34
 70
     1
102
RTVSPost2010Prop35
280
     0
102
RTVSPost2010PropOp35
 70
     1
102
RTVSPost2010Prop36
280
     0
102
RTVSPost2010PropOp36
 70
     1
102
RTVSPost2010Prop37
 90
       50
102
RTVSPost2010PropOp37
 70
     1
102
RTVSPost2010Prop38
140
0.0
102
RTVSPost2010PropOp38
 70
     1
102
RTVSPost2010Prop39
140
1.0
102
RTVSPost2010PropOp39
 70
     1
102
RTVSPost2010Prop40
 90
        0
102
RTVSPost2010PropOp40
 70
     1
102
RTVSPost2010Prop41ColorIndex
 90
       18
102
RTVSPost2010Prop41ColorRGB
 90
        0
102
RTVSPost2010PropOp41
 70
     1
102
RTVSPost2010Prop42
 90
       50
102
RTVSPost2010PropOp42
 70
     1
102
RTVSPost2010Prop43
 90
        3
102
RTVSPost2010PropOp43
 70
     1
102
RTVSPost2010Prop44ColorIndex
 90
        5
102
RTVSPost2010Prop44ColorRGB
 90
      255
102
RTVSPost2010PropOp44
 70
     1
102
RTVSPost2010Prop45
280
     0
102
RTVSPost2010PropOp45
 70
     1
102
RTVSPost2010Prop46
 90
       50
102
RTVSPost2010PropOp46
 70
     1
102
RTVSPost2010Prop47
 90
       50
102
RTVSPost2010PropOp47
 70
     1
102
RTVSPost2010Prop48
 90
       50
102
RTVSPost2010PropOp48
 70
     1
102
RTVSPost2010Prop49
280
     0
102
RTVSPost2010PropOp49
 70
     1
102
RTVSPost2010Prop50
 90
       50
102
RTVSPost2010PropOp50
 70
     1
102
RTVSPost2010Prop51ColorIndex
 90
      256
102
RTVSPost2010Prop51ColorRGB
 90
-16777216
102
RTVSPost2010PropOp51
 70
     0
102
RTVSPost2010Prop52
140
1.0
102
RTVSPost2010PropOp52
 70
     0
102
RTVSPost2010Prop53
 90
        2
102
RTVSPost2010PropOp53
 70
     1
102
RTVSPost2010Prop54
  1
strokes_ogs.tif
102
RTVSPost2010PropOp54
 70
     1
102
RTVSPost2010Prop55
280
     0
102
RTVSPost2010PropOp55
 70
     1
102
RTVSPost2010Prop56
140
1.0
102
RTVSPost2010PropOp56
 70
     1
102
RTVSPost2010Prop57
140
1.0
102
RTVSPost2010PropOp57
 70
     1
102
RTVSPropertyOp0
 70
     1
102
RTVSPropertyOp1
 70
     1
102
RTVSPropertyOp2
 70
     1
102
RTVSPropertyOp3
 70
     1
102
RTVSPropertyOp4
 70
     1
102
RTVSPropertyOp5
 70
     1
102
RTVSPropertyOp6
 70
     1
102
RTVSPropertyOp7
 70
     1
102
RTVSPropertyOp8
 70
     1
102
RTVSPropertyOp9
 70
     1
102
RTVSPropertyOp10
 70
     1
102
RTVSPropertyOp11
 70
     1
102
RTVSPropertyOp12
 70
     1
102
RTVSPropertyOp13
 70
     1
102
RTVSPropertyOp14
 70
     1
102
RTVSPropertyOp15
 70
     1
102
RTVSPropertyOp16
 70
     1
102
RTVSPropertyOp17
 70
     1
102
RTVSPropertyOp18
 70
     1
102
RTVSPropertyOp19
 70
     1
102
RTVSPropertyOp20
 70
     1
102
RTVSPropertyOp21
 70
     1
102
RTVSPropertyOp22
 70
     1
102
RTVSPropertyOp23
 70
     1
102
RTVSPropertyOp24
 70
     1
102
RTVSPropertyOp25
 70
     1
102
RTVSPropertyOp26
 70
     1
102
RTVSPropertyOp27
 70
     1
102
RTVSPropertyOp28
 70
     1
102
RTVSPropertyOp29
 70
     1
102
RTVSPropertyOp30
 70
     1
102
RTVSPropertyOp31
 70
     1
102
RTVSPropertyOp32
 70
     1
102
RTVSPropertyOp33
 70
     1
102
RTVSPropertyOp34
 70
     1
102
RTVSPropertyOp35
 70
     1
102
RTVSPropertyOp36
 70
     1
102
RTVSPropertyOp37
 70
     1
102
RTVSPropertyOp38
 70
     1
102
RTVSPropertyOp39
 70
     1
102
RTVSPropertyOp40
 70
     1
102
RTVSPropertyOp41
 70
     1
102
RTVSPropertyOp42
 70
     1
102
RTVSPropertyOp43
 70
     1
102
RTVSPropertyOp44
 70
     1
102
RTVSPropertyOp45
 70
     1
102
RTVSPropertyOp46
 70
     1
102
RTVSPropertyOp47
 70
     1
102
RTVSPropertyOp48
 70
     1
102
RTVSPropertyOp49
 70
     1
102
RTVSPropertyOp50
 70
     1
102
RTVSPropertyOp51
 70
     0
102
RTVSPropertyOp52
 70
     0
102
RTVSPropertyOp53
 70
     1
102
RTVSPropertyOp54
 70
     1
102
RTVSPropertyOp55
 70
     1
102
RTVSPropertyOp56
 70
     1
102
RTVSPropertyOp57
 70
     1
102
RTVSPropertyOp58
 70
     1
102
RTVSPropertyOp59
 70
     1
102
RTVSPropertyOp60
 70
     1
102
RTVSPropertyOp61
 70
     1
102
RTVSPropertyOp62
 70
     1
  0
XRECORD
  5
97F0
102
{ACAD_REACTORS
330
97EF
102
}
330
97EF
100
AcDbXrecord
280
     1
102
RTVSPost2010Prop28
280
     0
102
RTVSPost2010PropOp28
 70
     1
102
RTVSPost2010Prop29
280
     1
102
RTVSPost2010PropOp29
 70
     1
102
RTVSPost2010Prop30
280
     1
102
RTVSPost2010PropOp30
 70
     1
102
RTVSPost2010Prop31
280
     0
102
RTVSPost2010PropOp31
 70
     1
102
RTVSPost2010Prop32
280
     0
102
RTVSPost2010PropOp32
 70
     1
102
RTVSPost2010Prop33
280
     0
102
RTVSPost2010PropOp33
 70
     1
102
RTVSPost2010Prop34
280
     0
102
RTVSPost2010PropOp34
 70
     1
102
RTVSPost2010Prop35
280
     0
102
RTVSPost2010PropOp35
 70
     1
102
RTVSPost2010Prop36
280
     0
102
RTVSPost2010PropOp36
 70
     1
102
RTVSPost2010Prop37
 90
       50
102
RTVSPost2010PropOp37
 70
     0
102
RTVSPost2010Prop38
140
0.0
102
RTVSPost2010PropOp38
 70
     0
102
RTVSPost2010Prop39
140
1.0
102
RTVSPost2010PropOp39
 70
     0
102
RTVSPost2010Prop40
 90
        0
102
RTVSPost2010PropOp40
 70
     0
102
RTVSPost2010Prop41ColorIndex
 90
       18
102
RTVSPost2010Prop41ColorRGB
 90
        0
102
RTVSPost2010PropOp41
 70
     0
102
RTVSPost2010Prop42
 90
       50
102
RTVSPost2010PropOp42
 70
     0
102
RTVSPost2010Prop43
 90
        3
102
RTVSPost2010PropOp43
 70
     0
102
RTVSPost2010Prop44ColorIndex
 90
        5
102
RTVSPost2010Prop44ColorRGB
 90
      255
102
RTVSPost2010PropOp44
 70
     0
102
RTVSPost2010Prop45
280
     0
102
RTVSPost2010PropOp45
 70
     1
102
RTVSPost2010Prop46
 90
       50
102
RTVSPost2010PropOp46
 70
     0
102
RTVSPost2010Prop47
 90
       50
102
RTVSPost2010PropOp47
 70
     0
102
RTVSPost2010Prop48
 90
       50
102
RTVSPost2010PropOp48
 70
     0
102
RTVSPost2010Prop49
280
     0
102
RTVSPost2010PropOp49
 70
     1
102
RTVSPost2010Prop50
 90
       50
102
RTVSPost2010PropOp50
 70
     0
102
RTVSPost2010Prop51ColorIndex
 90
      256
102
RTVSPost2010Prop51ColorRGB
 90
-16777216
102
RTVSPost2010PropOp51
 70
     0
102
RTVSPost2010Prop52
140
1.0
102
RTVSPost2010PropOp52
 70
     0
102
RTVSPost2010Prop53
 90
        2
102
RTVSPost2010PropOp53
 70
     0
102
RTVSPost2010Prop54
  1
strokes_ogs.tif
102
RTVSPost2010PropOp54
 70
     0
102
RTVSPost2010Prop55
280
     0
102
RTVSPost2010PropOp55
 70
     1
102
RTVSPost2010Prop56
140
1.0
102
RTVSPost2010PropOp56
 70
     0
102
RTVSPost2010Prop57
140
1.0
102
RTVSPost2010PropOp57
 70
     0
102
RTVSPropertyOp0
 70
     0
102
RTVSPropertyOp1
 70
     0
102
RTVSPropertyOp2
 70
     0
102
RTVSPropertyOp3
 70
     0
102
RTVSPropertyOp4
 70
     0
102
RTVSPropertyOp5
 70
     0
102
RTVSPropertyOp6
 70
     0
102
RTVSPropertyOp7
 70
     0
102
RTVSPropertyOp8
 70
     0
102
RTVSPropertyOp9
 70
     0
102
RTVSPropertyOp10
 70
     0
102
RTVSPropertyOp11
 70
     0
102
RTVSPropertyOp12
 70
     0
102
RTVSPropertyOp13
 70
     0
102
RTVSPropertyOp14
 70
     2
102
RTVSPropertyOp15
 70
     0
102
RTVSPropertyOp16
 70
     0
102
RTVSPropertyOp17
 70
     0
102
RTVSPropertyOp18
 70
     0
102
RTVSPropertyOp19
 70
     0
102
RTVSPropertyOp20
 70
     0
102
RTVSPropertyOp21
 70
     0
102
RTVSPropertyOp22
 70
     0
102
RTVSPropertyOp23
 70
     0
102
RTVSPropertyOp24
 70
     0
102
RTVSPropertyOp25
 70
     0
102
RTVSPropertyOp26
 70
     0
102
RTVSPropertyOp27
 70
     0
102
RTVSPropertyOp28
 70
     1
102
RTVSPropertyOp29
 70
     1
102
RTVSPropertyOp30
 70
     1
102
RTVSPropertyOp31
 70
     1
102
RTVSPropertyOp32
 70
     1
102
RTVSPropertyOp33
 70
     1
102
RTVSPropertyOp34
 70
     1
102
RTVSPropertyOp35
 70
     1
102
RTVSPropertyOp36
 70
     1
102
RTVSPropertyOp37
 70
     0
102
RTVSPropertyOp38
 70
     0
102
RTVSPropertyOp39
 70
     0
102
RTVSPropertyOp40
 70
     0
102
RTVSPropertyOp41
 70
     0
102
RTVSPropertyOp42
 70
     0
102
RTVSPropertyOp43
 70
     0
102
RTVSPropertyOp44
 70
     0
102
RTVSPropertyOp45
 70
     1
102
RTVSPropertyOp46
 70
     0
102
RTVSPropertyOp47
 70
     0
102
RTVSPropertyOp48
 70
     0
102
RTVSPropertyOp49
 70
     1
102
RTVSPropertyOp50
 70
     0
102
RTVSPropertyOp51
 70
     0
102
RTVSPropertyOp52
 70
     0
102
RTVSPropertyOp53
 70
     0
102
RTVSPropertyOp54
 70
     0
102
RTVSPropertyOp55
 70
     1
102
RTVSPropertyOp56
 70
     0
102
RTVSPropertyOp57
 70
     0
102
RTVSPropertyOp58
 70
     0
102
RTVSPropertyOp59
 70
     0
102
RTVSPropertyOp60
 70
     0
102
RTVSPropertyOp61
 70
     0
102
RTVSPropertyOp62
 70
     0
  0
XRECORD
  5
97E0
102
{ACAD_REACTORS
330
97DF
102
}
330
97DF
100
AcDbXrecord
280
     1
102
RTVSPost2010Prop28
280
     0
102
RTVSPost2010PropOp28
 70
     1
102
RTVSPost2010Prop29
280
     1
102
RTVSPost2010PropOp29
 70
     1
102
RTVSPost2010Prop30
280
     1
102
RTVSPost2010PropOp30
 70
     1
102
RTVSPost2010Prop31
280
     0
102
RTVSPost2010PropOp31
 70
     1
102
RTVSPost2010Prop32
280
     0
102
RTVSPost2010PropOp32
 70
     1
102
RTVSPost2010Prop33
280
     0
102
RTVSPost2010PropOp33
 70
     1
102
RTVSPost2010Prop34
280
     0
102
RTVSPost2010PropOp34
 70
     1
102
RTVSPost2010Prop35
280
     0
102
RTVSPost2010PropOp35
 70
     1
102
RTVSPost2010Prop36
280
     0
102
RTVSPost2010PropOp36
 70
     1
102
RTVSPost2010Prop37
 90
       50
102
RTVSPost2010PropOp37
 70
     1
102
RTVSPost2010Prop38
140
0.0
102
RTVSPost2010PropOp38
 70
     1
102
RTVSPost2010Prop39
140
1.0
102
RTVSPost2010PropOp39
 70
     1
102
RTVSPost2010Prop40
 90
        0
102
RTVSPost2010PropOp40
 70
     1
102
RTVSPost2010Prop41ColorIndex
 90
       18
102
RTVSPost2010Prop41ColorRGB
 90
        0
102
RTVSPost2010PropOp41
 70
     1
102
RTVSPost2010Prop42
 90
       50
102
RTVSPost2010PropOp42
 70
     1
102
RTVSPost2010Prop43
 90
        3
102
RTVSPost2010PropOp43
 70
     1
102
RTVSPost2010Prop44ColorIndex
 90
        5
102
RTVSPost2010Prop44ColorRGB
 90
      255
102
RTVSPost2010PropOp44
 70
     1
102
RTVSPost2010Prop45
280
     0
102
RTVSPost2010PropOp45
 70
     1
102
RTVSPost2010Prop46
 90
       50
102
RTVSPost2010PropOp46
 70
     1
102
RTVSPost2010Prop47
 90
       50
102
RTVSPost2010PropOp47
 70
     1
102
RTVSPost2010Prop48
 90
       50
102
RTVSPost2010PropOp48
 70
     1
102
RTVSPost2010Prop49
280
     0
102
RTVSPost2010PropOp49
 70
     1
102
RTVSPost2010Prop50
 90
       50
102
RTVSPost2010PropOp50
 70
     1
102
RTVSPost2010Prop51ColorIndex
 90
      256
102
RTVSPost2010Prop51ColorRGB
 90
-16777216
102
RTVSPost2010PropOp51
 70
     0
102
RTVSPost2010Prop52
140
1.0
102
RTVSPost2010PropOp52
 70
     0
102
RTVSPost2010Prop53
 90
        2
102
RTVSPost2010PropOp53
 70
     1
102
RTVSPost2010Prop54
  1
strokes_ogs.tif
102
RTVSPost2010PropOp54
 70
     1
102
RTVSPost2010Prop55
280
     0
102
RTVSPost2010PropOp55
 70
     1
102
RTVSPost2010Prop56
140
1.0
102
RTVSPost2010PropOp56
 70
     1
102
RTVSPost2010Prop57
140
1.0
102
RTVSPost2010PropOp57
 70
     1
102
RTVSPropertyOp0
 70
     1
102
RTVSPropertyOp1
 70
     1
102
RTVSPropertyOp2
 70
     1
102
RTVSPropertyOp3
 70
     1
102
RTVSPropertyOp4
 70
     1
102
RTVSPropertyOp5
 70
     1
102
RTVSPropertyOp6
 70
     1
102
RTVSPropertyOp7
 70
     1
102
RTVSPropertyOp8
 70
     1
102
RTVSPropertyOp9
 70
     1
102
RTVSPropertyOp10
 70
     1
102
RTVSPropertyOp11
 70
     1
102
RTVSPropertyOp12
 70
     1
102
RTVSPropertyOp13
 70
     1
102
RTVSPropertyOp14
 70
     1
102
RTVSPropertyOp15
 70
     1
102
RTVSPropertyOp16
 70
     1
102
RTVSPropertyOp17
 70
     1
102
RTVSPropertyOp18
 70
     1
102
RTVSPropertyOp19
 70
     1
102
RTVSPropertyOp20
 70
     1
102
RTVSPropertyOp21
 70
     1
102
RTVSPropertyOp22
 70
     1
102
RTVSPropertyOp23
 70
     1
102
RTVSPropertyOp24
 70
     1
102
RTVSPropertyOp25
 70
     1
102
RTVSPropertyOp26
 70
     1
102
RTVSPropertyOp27
 70
     1
102
RTVSPropertyOp28
 70
     1
102
RTVSPropertyOp29
 70
     1
102
RTVSPropertyOp30
 70
     1
102
RTVSPropertyOp31
 70
     1
102
RTVSPropertyOp32
 70
     1
102
RTVSPropertyOp33
 70
     1
102
RTVSPropertyOp34
 70
     1
102
RTVSPropertyOp35
 70
     1
102
RTVSPropertyOp36
 70
     1
102
RTVSPropertyOp37
 70
     1
102
RTVSPropertyOp38
 70
     1
102
RTVSPropertyOp39
 70
     1
102
RTVSPropertyOp40
 70
     1
102
RTVSPropertyOp41
 70
     1
102
RTVSPropertyOp42
 70
     1
102
RTVSPropertyOp43
 70
     1
102
RTVSPropertyOp44
 70
     1
102
RTVSPropertyOp45
 70
     1
102
RTVSPropertyOp46
 70
     1
102
RTVSPropertyOp47
 70
     1
102
RTVSPropertyOp48
 70
     1
102
RTVSPropertyOp49
 70
     1
102
RTVSPropertyOp50
 70
     1
102
RTVSPropertyOp51
 70
     0
102
RTVSPropertyOp52
 70
     0
102
RTVSPropertyOp53
 70
     1
102
RTVSPropertyOp54
 70
     1
102
RTVSPropertyOp55
 70
     1
102
RTVSPropertyOp56
 70
     1
102
RTVSPropertyOp57
 70
     1
102
RTVSPropertyOp58
 70
     1
102
RTVSPropertyOp59
 70
     1
102
RTVSPropertyOp60
 70
     1
102
RTVSPropertyOp61
 70
     1
102
RTVSPropertyOp62
 70
     1
  0
XRECORD
  5
97F2
102
{ACAD_REACTORS
330
97F1
102
}
330
97F1
100
AcDbXrecord
280
     1
102
RTVSPost2010Prop28
280
     0
102
RTVSPost2010PropOp28
 70
     1
102
RTVSPost2010Prop29
280
     1
102
RTVSPost2010PropOp29
 70
     1
102
RTVSPost2010Prop30
280
     1
102
RTVSPost2010PropOp30
 70
     1
102
RTVSPost2010Prop31
280
     0
102
RTVSPost2010PropOp31
 70
     1
102
RTVSPost2010Prop32
280
     0
102
RTVSPost2010PropOp32
 70
     1
102
RTVSPost2010Prop33
280
     0
102
RTVSPost2010PropOp33
 70
     1
102
RTVSPost2010Prop34
280
     0
102
RTVSPost2010PropOp34
 70
     1
102
RTVSPost2010Prop35
280
     0
102
RTVSPost2010PropOp35
 70
     1
102
RTVSPost2010Prop36
280
     0
102
RTVSPost2010PropOp36
 70
     1
102
RTVSPost2010Prop37
 90
       50
102
RTVSPost2010PropOp37
 70
     0
102
RTVSPost2010Prop38
140
0.0
102
RTVSPost2010PropOp38
 70
     0
102
RTVSPost2010Prop39
140
1.0
102
RTVSPost2010PropOp39
 70
     0
102
RTVSPost2010Prop40
 90
        0
102
RTVSPost2010PropOp40
 70
     0
102
RTVSPost2010Prop41ColorIndex
 90
       18
102
RTVSPost2010Prop41ColorRGB
 90
        0
102
RTVSPost2010PropOp41
 70
     0
102
RTVSPost2010Prop42
 90
       50
102
RTVSPost2010PropOp42
 70
     0
102
RTVSPost2010Prop43
 90
        3
102
RTVSPost2010PropOp43
 70
     0
102
RTVSPost2010Prop44ColorIndex
 90
        5
102
RTVSPost2010Prop44ColorRGB
 90
      255
102
RTVSPost2010PropOp44
 70
     0
102
RTVSPost2010Prop45
280
     0
102
RTVSPost2010PropOp45
 70
     1
102
RTVSPost2010Prop46
 90
       50
102
RTVSPost2010PropOp46
 70
     0
102
RTVSPost2010Prop47
 90
       50
102
RTVSPost2010PropOp47
 70
     0
102
RTVSPost2010Prop48
 90
       50
102
RTVSPost2010PropOp48
 70
     0
102
RTVSPost2010Prop49
280
     0
102
RTVSPost2010PropOp49
 70
     1
102
RTVSPost2010Prop50
 90
       50
102
RTVSPost2010PropOp50
 70
     0
102
RTVSPost2010Prop51ColorIndex
 90
      256
102
RTVSPost2010Prop51ColorRGB
 90
-16777216
102
RTVSPost2010PropOp51
 70
     0
102
RTVSPost2010Prop52
140
1.0
102
RTVSPost2010PropOp52
 70
     0
102
RTVSPost2010Prop53
 90
        2
102
RTVSPost2010PropOp53
 70
     0
102
RTVSPost2010Prop54
  1
strokes_ogs.tif
102
RTVSPost2010PropOp54
 70
     0
102
RTVSPost2010Prop55
280
     0
102
RTVSPost2010PropOp55
 70
     1
102
RTVSPost2010Prop56
140
1.0
102
RTVSPost2010PropOp56
 70
     0
102
RTVSPost2010Prop57
140
1.0
102
RTVSPost2010PropOp57
 70
     0
102
RTVSPropertyOp0
 70
     0
102
RTVSPropertyOp1
 70
     0
102
RTVSPropertyOp2
 70
     0
102
RTVSPropertyOp3
 70
     0
102
RTVSPropertyOp4
 70
     0
102
RTVSPropertyOp5
 70
     0
102
RTVSPropertyOp6
 70
     0
102
RTVSPropertyOp7
 70
     0
102
RTVSPropertyOp8
 70
     0
102
RTVSPropertyOp9
 70
     0
102
RTVSPropertyOp10
 70
     0
102
RTVSPropertyOp11
 70
     0
102
RTVSPropertyOp12
 70
     0
102
RTVSPropertyOp13
 70
     0
102
RTVSPropertyOp14
 70
     2
102
RTVSPropertyOp15
 70
     0
102
RTVSPropertyOp16
 70
     0
102
RTVSPropertyOp17
 70
     0
102
RTVSPropertyOp18
 70
     0
102
RTVSPropertyOp19
 70
     0
102
RTVSPropertyOp20
 70
     0
102
RTVSPropertyOp21
 70
     0
102
RTVSPropertyOp22
 70
     0
102
RTVSPropertyOp23
 70
     0
102
RTVSPropertyOp24
 70
     0
102
RTVSPropertyOp25
 70
     0
102
RTVSPropertyOp26
 70
     0
102
RTVSPropertyOp27
 70
     0
102
RTVSPropertyOp28
 70
     1
102
RTVSPropertyOp29
 70
     1
102
RTVSPropertyOp30
 70
     1
102
RTVSPropertyOp31
 70
     1
102
RTVSPropertyOp32
 70
     1
102
RTVSPropertyOp33
 70
     1
102
RTVSPropertyOp34
 70
     1
102
RTVSPropertyOp35
 70
     1
102
RTVSPropertyOp36
 70
     1
102
RTVSPropertyOp37
 70
     0
102
RTVSPropertyOp38
 70
     0
102
RTVSPropertyOp39
 70
     0
102
RTVSPropertyOp40
 70
     0
102
RTVSPropertyOp41
 70
     0
102
RTVSPropertyOp42
 70
     0
102
RTVSPropertyOp43
 70
     0
102
RTVSPropertyOp44
 70
     0
102
RTVSPropertyOp45
 70
     1
102
RTVSPropertyOp46
 70
     0
102
RTVSPropertyOp47
 70
     0
102
RTVSPropertyOp48
 70
     0
102
RTVSPropertyOp49
 70
     1
102
RTVSPropertyOp50
 70
     0
102
RTVSPropertyOp51
 70
     0
102
RTVSPropertyOp52
 70
     0
102
RTVSPropertyOp53
 70
     0
102
RTVSPropertyOp54
 70
     0
102
RTVSPropertyOp55
 70
     1
102
RTVSPropertyOp56
 70
     0
102
RTVSPropertyOp57
 70
     0
102
RTVSPropertyOp58
 70
     0
102
RTVSPropertyOp59
 70
     0
102
RTVSPropertyOp60
 70
     0
102
RTVSPropertyOp61
 70
     0
102
RTVSPropertyOp62
 70
     0
  0
XRECORD
  5
97D8
102
{ACAD_REACTORS
330
97D7
102
}
330
97D7
100
AcDbXrecord
280
     1
102
RTVSPost2010Prop28
280
     0
102
RTVSPost2010PropOp28
 70
     1
102
RTVSPost2010Prop29
280
     1
102
RTVSPost2010PropOp29
 70
     1
102
RTVSPost2010Prop30
280
     1
102
RTVSPost2010PropOp30
 70
     1
102
RTVSPost2010Prop31
280
     0
102
RTVSPost2010PropOp31
 70
     1
102
RTVSPost2010Prop32
280
     0
102
RTVSPost2010PropOp32
 70
     1
102
RTVSPost2010Prop33
280
     0
102
RTVSPost2010PropOp33
 70
     1
102
RTVSPost2010Prop34
280
     0
102
RTVSPost2010PropOp34
 70
     1
102
RTVSPost2010Prop35
280
     0
102
RTVSPost2010PropOp35
 70
     1
102
RTVSPost2010Prop36
280
     0
102
RTVSPost2010PropOp36
 70
     1
102
RTVSPost2010Prop37
 90
       50
102
RTVSPost2010PropOp37
 70
     1
102
RTVSPost2010Prop38
140
0.0
102
RTVSPost2010PropOp38
 70
     1
102
RTVSPost2010Prop39
140
1.0
102
RTVSPost2010PropOp39
 70
     1
102
RTVSPost2010Prop40
 90
        0
102
RTVSPost2010PropOp40
 70
     1
102
RTVSPost2010Prop41ColorIndex
 90
       18
102
RTVSPost2010Prop41ColorRGB
 90
        0
102
RTVSPost2010PropOp41
 70
     1
102
RTVSPost2010Prop42
 90
       50
102
RTVSPost2010PropOp42
 70
     1
102
RTVSPost2010Prop43
 90
        3
102
RTVSPost2010PropOp43
 70
     1
102
RTVSPost2010Prop44ColorIndex
 90
        5
102
RTVSPost2010Prop44ColorRGB
 90
      255
102
RTVSPost2010PropOp44
 70
     1
102
RTVSPost2010Prop45
280
     0
102
RTVSPost2010PropOp45
 70
     1
102
RTVSPost2010Prop46
 90
       50
102
RTVSPost2010PropOp46
 70
     1
102
RTVSPost2010Prop47
 90
       50
102
RTVSPost2010PropOp47
 70
     1
102
RTVSPost2010Prop48
 90
       50
102
RTVSPost2010PropOp48
 70
     1
102
RTVSPost2010Prop49
280
     0
102
RTVSPost2010PropOp49
 70
     1
102
RTVSPost2010Prop50
 90
       50
102
RTVSPost2010PropOp50
 70
     1
102
RTVSPost2010Prop51ColorIndex
 90
      256
102
RTVSPost2010Prop51ColorRGB
 90
-16777216
102
RTVSPost2010PropOp51
 70
     0
102
RTVSPost2010Prop52
140
1.0
102
RTVSPost2010PropOp52
 70
     0
102
RTVSPost2010Prop53
 90
        2
102
RTVSPost2010PropOp53
 70
     1
102
RTVSPost2010Prop54
  1
strokes_ogs.tif
102
RTVSPost2010PropOp54
 70
     1
102
RTVSPost2010Prop55
280
     0
102
RTVSPost2010PropOp55
 70
     1
102
RTVSPost2010Prop56
140
1.0
102
RTVSPost2010PropOp56
 70
     1
102
RTVSPost2010Prop57
140
1.0
102
RTVSPost2010PropOp57
 70
     1
102
RTVSPropertyOp0
 70
     1
102
RTVSPropertyOp1
 70
     1
102
RTVSPropertyOp2
 70
     1
102
RTVSPropertyOp3
 70
     1
102
RTVSPropertyOp4
 70
     1
102
RTVSPropertyOp5
 70
     1
102
RTVSPropertyOp6
 70
     1
102
RTVSPropertyOp7
 70
     1
102
RTVSPropertyOp8
 70
     1
102
RTVSPropertyOp9
 70
     1
102
RTVSPropertyOp10
 70
     1
102
RTVSPropertyOp11
 70
     1
102
RTVSPropertyOp12
 70
     1
102
RTVSPropertyOp13
 70
     1
102
RTVSPropertyOp14
 70
     1
102
RTVSPropertyOp15
 70
     1
102
RTVSPropertyOp16
 70
     1
102
RTVSPropertyOp17
 70
     1
102
RTVSPropertyOp18
 70
     1
102
RTVSPropertyOp19
 70
     1
102
RTVSPropertyOp20
 70
     1
102
RTVSPropertyOp21
 70
     1
102
RTVSPropertyOp22
 70
     1
102
RTVSPropertyOp23
 70
     1
102
RTVSPropertyOp24
 70
     1
102
RTVSPropertyOp25
 70
     1
102
RTVSPropertyOp26
 70
     1
102
RTVSPropertyOp27
 70
     1
102
RTVSPropertyOp28
 70
     1
102
RTVSPropertyOp29
 70
     1
102
RTVSPropertyOp30
 70
     1
102
RTVSPropertyOp31
 70
     1
102
RTVSPropertyOp32
 70
     1
102
RTVSPropertyOp33
 70
     1
102
RTVSPropertyOp34
 70
     1
102
RTVSPropertyOp35
 70
     1
102
RTVSPropertyOp36
 70
     1
102
RTVSPropertyOp37
 70
     1
102
RTVSPropertyOp38
 70
     1
102
RTVSPropertyOp39
 70
     1
102
RTVSPropertyOp40
 70
     1
102
RTVSPropertyOp41
 70
     1
102
RTVSPropertyOp42
 70
     1
102
RTVSPropertyOp43
 70
     1
102
RTVSPropertyOp44
 70
     1
102
RTVSPropertyOp45
 70
     1
102
RTVSPropertyOp46
 70
     1
102
RTVSPropertyOp47
 70
     1
102
RTVSPropertyOp48
 70
     1
102
RTVSPropertyOp49
 70
     1
102
RTVSPropertyOp50
 70
     1
102
RTVSPropertyOp51
 70
     0
102
RTVSPropertyOp52
 70
     0
102
RTVSPropertyOp53
 70
     1
102
RTVSPropertyOp54
 70
     1
102
RTVSPropertyOp55
 70
     1
102
RTVSPropertyOp56
 70
     1
102
RTVSPropertyOp57
 70
     1
102
RTVSPropertyOp58
 70
     1
102
RTVSPropertyOp59
 70
     1
102
RTVSPropertyOp60
 70
     1
102
RTVSPropertyOp61
 70
     1
102
RTVSPropertyOp62
 70
     1
  0
XRECORD
  5
97EE
102
{ACAD_REACTORS
330
97ED
102
}
330
97ED
100
AcDbXrecord
280
     1
102
RTVSPost2010Prop28
280
     0
102
RTVSPost2010PropOp28
 70
     1
102
RTVSPost2010Prop29
280
     1
102
RTVSPost2010PropOp29
 70
     1
102
RTVSPost2010Prop30
280
     1
102
RTVSPost2010PropOp30
 70
     1
102
RTVSPost2010Prop31
280
     0
102
RTVSPost2010PropOp31
 70
     1
102
RTVSPost2010Prop32
280
     0
102
RTVSPost2010PropOp32
 70
     1
102
RTVSPost2010Prop33
280
     0
102
RTVSPost2010PropOp33
 70
     1
102
RTVSPost2010Prop34
280
     0
102
RTVSPost2010PropOp34
 70
     1
102
RTVSPost2010Prop35
280
     0
102
RTVSPost2010PropOp35
 70
     1
102
RTVSPost2010Prop36
280
     0
102
RTVSPost2010PropOp36
 70
     1
102
RTVSPost2010Prop37
 90
       50
102
RTVSPost2010PropOp37
 70
     1
102
RTVSPost2010Prop38
140
0.0
102
RTVSPost2010PropOp38
 70
     1
102
RTVSPost2010Prop39
140
1.0
102
RTVSPost2010PropOp39
 70
     1
102
RTVSPost2010Prop40
 90
        0
102
RTVSPost2010PropOp40
 70
     1
102
RTVSPost2010Prop41ColorIndex
 90
       18
102
RTVSPost2010Prop41ColorRGB
 90
        0
102
RTVSPost2010PropOp41
 70
     1
102
RTVSPost2010Prop42
 90
       50
102
RTVSPost2010PropOp42
 70
     1
102
RTVSPost2010Prop43
 90
        3
102
RTVSPost2010PropOp43
 70
     1
102
RTVSPost2010Prop44ColorIndex
 90
        5
102
RTVSPost2010Prop44ColorRGB
 90
      255
102
RTVSPost2010PropOp44
 70
     1
102
RTVSPost2010Prop45
280
     0
102
RTVSPost2010PropOp45
 70
     1
102
RTVSPost2010Prop46
 90
       50
102
RTVSPost2010PropOp46
 70
     1
102
RTVSPost2010Prop47
 90
       50
102
RTVSPost2010PropOp47
 70
     1
102
RTVSPost2010Prop48
 90
       50
102
RTVSPost2010PropOp48
 70
     1
102
RTVSPost2010Prop49
280
     0
102
RTVSPost2010PropOp49
 70
     1
102
RTVSPost2010Prop50
 90
       50
102
RTVSPost2010PropOp50
 70
     1
102
RTVSPost2010Prop51ColorIndex
 90
      256
102
RTVSPost2010Prop51ColorRGB
 90
-16777216
102
RTVSPost2010PropOp51
 70
     0
102
RTVSPost2010Prop52
140
1.0
102
RTVSPost2010PropOp52
 70
     0
102
RTVSPost2010Prop53
 90
        2
102
RTVSPost2010PropOp53
 70
     1
102
RTVSPost2010Prop54
  1
strokes_ogs.tif
102
RTVSPost2010PropOp54
 70
     1
102
RTVSPost2010Prop55
280
     0
102
RTVSPost2010PropOp55
 70
     1
102
RTVSPost2010Prop56
140
1.0
102
RTVSPost2010PropOp56
 70
     1
102
RTVSPost2010Prop57
140
1.0
102
RTVSPost2010PropOp57
 70
     1
102
RTVSPropertyOp0
 70
     1
102
RTVSPropertyOp1
 70
     1
102
RTVSPropertyOp2
 70
     1
102
RTVSPropertyOp3
 70
     1
102
RTVSPropertyOp4
 70
     1
102
RTVSPropertyOp5
 70
     1
102
RTVSPropertyOp6
 70
     1
102
RTVSPropertyOp7
 70
     1
102
RTVSPropertyOp8
 70
     1
102
RTVSPropertyOp9
 70
     1
102
RTVSPropertyOp10
 70
     1
102
RTVSPropertyOp11
 70
     1
102
RTVSPropertyOp12
 70
     1
102
RTVSPropertyOp13
 70
     1
102
RTVSPropertyOp14
 70
     1
102
RTVSPropertyOp15
 70
     1
102
RTVSPropertyOp16
 70
     1
102
RTVSPropertyOp17
 70
     1
102
RTVSPropertyOp18
 70
     1
102
RTVSPropertyOp19
 70
     1
102
RTVSPropertyOp20
 70
     1
102
RTVSPropertyOp21
 70
     1
102
RTVSPropertyOp22
 70
     1
102
RTVSPropertyOp23
 70
     1
102
RTVSPropertyOp24
 70
     1
102
RTVSPropertyOp25
 70
     1
102
RTVSPropertyOp26
 70
     1
102
RTVSPropertyOp27
 70
     1
102
RTVSPropertyOp28
 70
     1
102
RTVSPropertyOp29
 70
     1
102
RTVSPropertyOp30
 70
     1
102
RTVSPropertyOp31
 70
     1
102
RTVSPropertyOp32
 70
     1
102
RTVSPropertyOp33
 70
     1
102
RTVSPropertyOp34
 70
     1
102
RTVSPropertyOp35
 70
     1
102
RTVSPropertyOp36
 70
     1
102
RTVSPropertyOp37
 70
     1
102
RTVSPropertyOp38
 70
     1
102
RTVSPropertyOp39
 70
     1
102
RTVSPropertyOp40
 70
     1
102
RTVSPropertyOp41
 70
     1
102
RTVSPropertyOp42
 70
     1
102
RTVSPropertyOp43
 70
     1
102
RTVSPropertyOp44
 70
     1
102
RTVSPropertyOp45
 70
     1
102
RTVSPropertyOp46
 70
     1
102
RTVSPropertyOp47
 70
     1
102
RTVSPropertyOp48
 70
     1
102
RTVSPropertyOp49
 70
     1
102
RTVSPropertyOp50
 70
     1
102
RTVSPropertyOp51
 70
     0
102
RTVSPropertyOp52
 70
     0
102
RTVSPropertyOp53
 70
     1
102
RTVSPropertyOp54
 70
     1
102
RTVSPropertyOp55
 70
     1
102
RTVSPropertyOp56
 70
     1
102
RTVSPropertyOp57
 70
     1
102
RTVSPropertyOp58
 70
     1
102
RTVSPropertyOp59
 70
     1
102
RTVSPropertyOp60
 70
     1
102
RTVSPropertyOp61
 70
     1
102
RTVSPropertyOp62
 70
     1
  0
XRECORD
  5
97EC
102
{ACAD_REACTORS
330
97EB
102
}
330
97EB
100
AcDbXrecord
280
     1
102
RTVSPost2010Prop28
280
     0
102
RTVSPost2010PropOp28
 70
     1
102
RTVSPost2010Prop29
280
     1
102
RTVSPost2010PropOp29
 70
     1
102
RTVSPost2010Prop30
280
     1
102
RTVSPost2010PropOp30
 70
     1
102
RTVSPost2010Prop31
280
     0
102
RTVSPost2010PropOp31
 70
     1
102
RTVSPost2010Prop32
280
     0
102
RTVSPost2010PropOp32
 70
     1
102
RTVSPost2010Prop33
280
     0
102
RTVSPost2010PropOp33
 70
     1
102
RTVSPost2010Prop34
280
     0
102
RTVSPost2010PropOp34
 70
     1
102
RTVSPost2010Prop35
280
     0
102
RTVSPost2010PropOp35
 70
     1
102
RTVSPost2010Prop36
280
     0
102
RTVSPost2010PropOp36
 70
     1
102
RTVSPost2010Prop37
 90
       50
102
RTVSPost2010PropOp37
 70
     1
102
RTVSPost2010Prop38
140
0.0
102
RTVSPost2010PropOp38
 70
     1
102
RTVSPost2010Prop39
140
1.0
102
RTVSPost2010PropOp39
 70
     1
102
RTVSPost2010Prop40
 90
        0
102
RTVSPost2010PropOp40
 70
     1
102
RTVSPost2010Prop41ColorIndex
 90
       18
102
RTVSPost2010Prop41ColorRGB
 90
        0
102
RTVSPost2010PropOp41
 70
     1
102
RTVSPost2010Prop42
 90
       50
102
RTVSPost2010PropOp42
 70
     1
102
RTVSPost2010Prop43
 90
        3
102
RTVSPost2010PropOp43
 70
     1
102
RTVSPost2010Prop44ColorIndex
 90
        5
102
RTVSPost2010Prop44ColorRGB
 90
      255
102
RTVSPost2010PropOp44
 70
     1
102
RTVSPost2010Prop45
280
     0
102
RTVSPost2010PropOp45
 70
     1
102
RTVSPost2010Prop46
 90
       50
102
RTVSPost2010PropOp46
 70
     1
102
RTVSPost2010Prop47
 90
       50
102
RTVSPost2010PropOp47
 70
     1
102
RTVSPost2010Prop48
 90
       50
102
RTVSPost2010PropOp48
 70
     1
102
RTVSPost2010Prop49
280
     0
102
RTVSPost2010PropOp49
 70
     1
102
RTVSPost2010Prop50
 90
       50
102
RTVSPost2010PropOp50
 70
     1
102
RTVSPost2010Prop51ColorIndex
 90
      256
102
RTVSPost2010Prop51ColorRGB
 90
-16777216
102
RTVSPost2010PropOp51
 70
     0
102
RTVSPost2010Prop52
140
1.0
102
RTVSPost2010PropOp52
 70
     0
102
RTVSPost2010Prop53
 90
        2
102
RTVSPost2010PropOp53
 70
     1
102
RTVSPost2010Prop54
  1
strokes_ogs.tif
102
RTVSPost2010PropOp54
 70
     1
102
RTVSPost2010Prop55
280
     0
102
RTVSPost2010PropOp55
 70
     1
102
RTVSPost2010Prop56
140
1.0
102
RTVSPost2010PropOp56
 70
     1
102
RTVSPost2010Prop57
140
1.0
102
RTVSPost2010PropOp57
 70
     1
102
RTVSPropertyOp0
 70
     1
102
RTVSPropertyOp1
 70
     1
102
RTVSPropertyOp2
 70
     1
102
RTVSPropertyOp3
 70
     1
102
RTVSPropertyOp4
 70
     1
102
RTVSPropertyOp5
 70
     1
102
RTVSPropertyOp6
 70
     1
102
RTVSPropertyOp7
 70
     1
102
RTVSPropertyOp8
 70
     1
102
RTVSPropertyOp9
 70
     1
102
RTVSPropertyOp10
 70
     1
102
RTVSPropertyOp11
 70
     1
102
RTVSPropertyOp12
 70
     1
102
RTVSPropertyOp13
 70
     1
102
RTVSPropertyOp14
 70
     1
102
RTVSPropertyOp15
 70
     1
102
RTVSPropertyOp16
 70
     1
102
RTVSPropertyOp17
 70
     1
102
RTVSPropertyOp18
 70
     1
102
RTVSPropertyOp19
 70
     1
102
RTVSPropertyOp20
 70
     1
102
RTVSPropertyOp21
 70
     1
102
RTVSPropertyOp22
 70
     1
102
RTVSPropertyOp23
 70
     1
102
RTVSPropertyOp24
 70
     1
102
RTVSPropertyOp25
 70
     1
102
RTVSPropertyOp26
 70
     1
102
RTVSPropertyOp27
 70
     1
102
RTVSPropertyOp28
 70
     1
102
RTVSPropertyOp29
 70
     1
102
RTVSPropertyOp30
 70
     1
102
RTVSPropertyOp31
 70
     1
102
RTVSPropertyOp32
 70
     1
102
RTVSPropertyOp33
 70
     1
102
RTVSPropertyOp34
 70
     1
102
RTVSPropertyOp35
 70
     1
102
RTVSPropertyOp36
 70
     1
102
RTVSPropertyOp37
 70
     1
102
RTVSPropertyOp38
 70
     1
102
RTVSPropertyOp39
 70
     1
102
RTVSPropertyOp40
 70
     1
102
RTVSPropertyOp41
 70
     1
102
RTVSPropertyOp42
 70
     1
102
RTVSPropertyOp43
 70
     1
102
RTVSPropertyOp44
 70
     1
102
RTVSPropertyOp45
 70
     1
102
RTVSPropertyOp46
 70
     1
102
RTVSPropertyOp47
 70
     1
102
RTVSPropertyOp48
 70
     1
102
RTVSPropertyOp49
 70
     1
102
RTVSPropertyOp50
 70
     1
102
RTVSPropertyOp51
 70
     0
102
RTVSPropertyOp52
 70
     0
102
RTVSPropertyOp53
 70
     1
102
RTVSPropertyOp54
 70
     1
102
RTVSPropertyOp55
 70
     1
102
RTVSPropertyOp56
 70
     1
102
RTVSPropertyOp57
 70
     1
102
RTVSPropertyOp58
 70
     1
102
RTVSPropertyOp59
 70
     1
102
RTVSPropertyOp60
 70
     1
102
RTVSPropertyOp61
 70
     1
102
RTVSPropertyOp62
 70
     1
  0
XRECORD
  5
97E6
102
{ACAD_REACTORS
330
97E5
102
}
330
97E5
100
AcDbXrecord
280
     1
102
RTVSPost2010Prop28
280
     0
102
RTVSPost2010PropOp28
 70
     1
102
RTVSPost2010Prop29
280
     1
102
RTVSPost2010PropOp29
 70
     1
102
RTVSPost2010Prop30
280
     1
102
RTVSPost2010PropOp30
 70
     1
102
RTVSPost2010Prop31
280
     0
102
RTVSPost2010PropOp31
 70
     1
102
RTVSPost2010Prop32
280
     0
102
RTVSPost2010PropOp32
 70
     1
102
RTVSPost2010Prop33
280
     0
102
RTVSPost2010PropOp33
 70
     1
102
RTVSPost2010Prop34
280
     0
102
RTVSPost2010PropOp34
 70
     1
102
RTVSPost2010Prop35
280
     0
102
RTVSPost2010PropOp35
 70
     1
102
RTVSPost2010Prop36
280
     0
102
RTVSPost2010PropOp36
 70
     1
102
RTVSPost2010Prop37
 90
       50
102
RTVSPost2010PropOp37
 70
     1
102
RTVSPost2010Prop38
140
0.0
102
RTVSPost2010PropOp38
 70
     1
102
RTVSPost2010Prop39
140
1.0
102
RTVSPost2010PropOp39
 70
     1
102
RTVSPost2010Prop40
 90
        0
102
RTVSPost2010PropOp40
 70
     1
102
RTVSPost2010Prop41ColorIndex
 90
       18
102
RTVSPost2010Prop41ColorRGB
 90
        0
102
RTVSPost2010PropOp41
 70
     1
102
RTVSPost2010Prop42
 90
       50
102
RTVSPost2010PropOp42
 70
     1
102
RTVSPost2010Prop43
 90
        3
102
RTVSPost2010PropOp43
 70
     1
102
RTVSPost2010Prop44ColorIndex
 90
        5
102
RTVSPost2010Prop44ColorRGB
 90
      255
102
RTVSPost2010PropOp44
 70
     1
102
RTVSPost2010Prop45
280
     0
102
RTVSPost2010PropOp45
 70
     1
102
RTVSPost2010Prop46
 90
       50
102
RTVSPost2010PropOp46
 70
     1
102
RTVSPost2010Prop47
 90
       50
102
RTVSPost2010PropOp47
 70
     1
102
RTVSPost2010Prop48
 90
       50
102
RTVSPost2010PropOp48
 70
     1
102
RTVSPost2010Prop49
280
     0
102
RTVSPost2010PropOp49
 70
     1
102
RTVSPost2010Prop50
 90
       50
102
RTVSPost2010PropOp50
 70
     1
102
RTVSPost2010Prop51ColorIndex
 90
      256
102
RTVSPost2010Prop51ColorRGB
 90
-16777216
102
RTVSPost2010PropOp51
 70
     0
102
RTVSPost2010Prop52
140
1.0
102
RTVSPost2010PropOp52
 70
     0
102
RTVSPost2010Prop53
 90
        2
102
RTVSPost2010PropOp53
 70
     1
102
RTVSPost2010Prop54
  1
strokes_ogs.tif
102
RTVSPost2010PropOp54
 70
     1
102
RTVSPost2010Prop55
280
     0
102
RTVSPost2010PropOp55
 70
     1
102
RTVSPost2010Prop56
140
1.0
102
RTVSPost2010PropOp56
 70
     1
102
RTVSPost2010Prop57
140
1.0
102
RTVSPost2010PropOp57
 70
     1
102
RTVSPropertyOp0
 70
     1
102
RTVSPropertyOp1
 70
     1
102
RTVSPropertyOp2
 70
     1
102
RTVSPropertyOp3
 70
     1
102
RTVSPropertyOp4
 70
     1
102
RTVSPropertyOp5
 70
     1
102
RTVSPropertyOp6
 70
     1
102
RTVSPropertyOp7
 70
     1
102
RTVSPropertyOp8
 70
     1
102
RTVSPropertyOp9
 70
     1
102
RTVSPropertyOp10
 70
     1
102
RTVSPropertyOp11
 70
     1
102
RTVSPropertyOp12
 70
     1
102
RTVSPropertyOp13
 70
     1
102
RTVSPropertyOp14
 70
     1
102
RTVSPropertyOp15
 70
     1
102
RTVSPropertyOp16
 70
     1
102
RTVSPropertyOp17
 70
     1
102
RTVSPropertyOp18
 70
     1
102
RTVSPropertyOp19
 70
     1
102
RTVSPropertyOp20
 70
     1
102
RTVSPropertyOp21
 70
     1
102
RTVSPropertyOp22
 70
     1
102
RTVSPropertyOp23
 70
     1
102
RTVSPropertyOp24
 70
     1
102
RTVSPropertyOp25
 70
     1
102
RTVSPropertyOp26
 70
     1
102
RTVSPropertyOp27
 70
     1
102
RTVSPropertyOp28
 70
     1
102
RTVSPropertyOp29
 70
     1
102
RTVSPropertyOp30
 70
     1
102
RTVSPropertyOp31
 70
     1
102
RTVSPropertyOp32
 70
     1
102
RTVSPropertyOp33
 70
     1
102
RTVSPropertyOp34
 70
     1
102
RTVSPropertyOp35
 70
     1
102
RTVSPropertyOp36
 70
     1
102
RTVSPropertyOp37
 70
     1
102
RTVSPropertyOp38
 70
     1
102
RTVSPropertyOp39
 70
     1
102
RTVSPropertyOp40
 70
     1
102
RTVSPropertyOp41
 70
     1
102
RTVSPropertyOp42
 70
     1
102
RTVSPropertyOp43
 70
     1
102
RTVSPropertyOp44
 70
     1
102
RTVSPropertyOp45
 70
     1
102
RTVSPropertyOp46
 70
     1
102
RTVSPropertyOp47
 70
     1
102
RTVSPropertyOp48
 70
     1
102
RTVSPropertyOp49
 70
     1
102
RTVSPropertyOp50
 70
     1
102
RTVSPropertyOp51
 70
     0
102
RTVSPropertyOp52
 70
     0
102
RTVSPropertyOp53
 70
     1
102
RTVSPropertyOp54
 70
     1
102
RTVSPropertyOp55
 70
     1
102
RTVSPropertyOp56
 70
     1
102
RTVSPropertyOp57
 70
     1
102
RTVSPropertyOp58
 70
     1
102
RTVSPropertyOp59
 70
     1
102
RTVSPropertyOp60
 70
     1
102
RTVSPropertyOp61
 70
     1
102
RTVSPropertyOp62
 70
     1
  0
XRECORD
  5
97E8
102
{ACAD_REACTORS
330
97E7
102
}
330
97E7
100
AcDbXrecord
280
     1
102
RTVSPost2010Prop28
280
     0
102
RTVSPost2010PropOp28
 70
     1
102
RTVSPost2010Prop29
280
     1
102
RTVSPost2010PropOp29
 70
     1
102
RTVSPost2010Prop30
280
     1
102
RTVSPost2010PropOp30
 70
     1
102
RTVSPost2010Prop31
280
     0
102
RTVSPost2010PropOp31
 70
     1
102
RTVSPost2010Prop32
280
     0
102
RTVSPost2010PropOp32
 70
     1
102
RTVSPost2010Prop33
280
     0
102
RTVSPost2010PropOp33
 70
     1
102
RTVSPost2010Prop34
280
     0
102
RTVSPost2010PropOp34
 70
     1
102
RTVSPost2010Prop35
280
     0
102
RTVSPost2010PropOp35
 70
     1
102
RTVSPost2010Prop36
280
     0
102
RTVSPost2010PropOp36
 70
     1
102
RTVSPost2010Prop37
 90
       50
102
RTVSPost2010PropOp37
 70
     1
102
RTVSPost2010Prop38
140
0.0
102
RTVSPost2010PropOp38
 70
     1
102
RTVSPost2010Prop39
140
1.0
102
RTVSPost2010PropOp39
 70
     1
102
RTVSPost2010Prop40
 90
        0
102
RTVSPost2010PropOp40
 70
     1
102
RTVSPost2010Prop41ColorIndex
 90
       18
102
RTVSPost2010Prop41ColorRGB
 90
        0
102
RTVSPost2010PropOp41
 70
     1
102
RTVSPost2010Prop42
 90
       50
102
RTVSPost2010PropOp42
 70
     1
102
RTVSPost2010Prop43
 90
        3
102
RTVSPost2010PropOp43
 70
     1
102
RTVSPost2010Prop44ColorIndex
 90
        5
102
RTVSPost2010Prop44ColorRGB
 90
      255
102
RTVSPost2010PropOp44
 70
     1
102
RTVSPost2010Prop45
280
     0
102
RTVSPost2010PropOp45
 70
     1
102
RTVSPost2010Prop46
 90
       50
102
RTVSPost2010PropOp46
 70
     1
102
RTVSPost2010Prop47
 90
       50
102
RTVSPost2010PropOp47
 70
     1
102
RTVSPost2010Prop48
 90
       50
102
RTVSPost2010PropOp48
 70
     1
102
RTVSPost2010Prop49
280
     0
102
RTVSPost2010PropOp49
 70
     1
102
RTVSPost2010Prop50
 90
       50
102
RTVSPost2010PropOp50
 70
     1
102
RTVSPost2010Prop51ColorIndex
 90
      256
102
RTVSPost2010Prop51ColorRGB
 90
-16777216
102
RTVSPost2010PropOp51
 70
     0
102
RTVSPost2010Prop52
140
1.0
102
RTVSPost2010PropOp52
 70
     0
102
RTVSPost2010Prop53
 90
        2
102
RTVSPost2010PropOp53
 70
     1
102
RTVSPost2010Prop54
  1
strokes_ogs.tif
102
RTVSPost2010PropOp54
 70
     1
102
RTVSPost2010Prop55
280
     0
102
RTVSPost2010PropOp55
 70
     1
102
RTVSPost2010Prop56
140
1.0
102
RTVSPost2010PropOp56
 70
     1
102
RTVSPost2010Prop57
140
1.0
102
RTVSPost2010PropOp57
 70
     1
102
RTVSPropertyOp0
 70
     1
102
RTVSPropertyOp1
 70
     1
102
RTVSPropertyOp2
 70
     1
102
RTVSPropertyOp3
 70
     1
102
RTVSPropertyOp4
 70
     1
102
RTVSPropertyOp5
 70
     1
102
RTVSPropertyOp6
 70
     1
102
RTVSPropertyOp7
 70
     1
102
RTVSPropertyOp8
 70
     1
102
RTVSPropertyOp9
 70
     1
102
RTVSPropertyOp10
 70
     1
102
RTVSPropertyOp11
 70
     1
102
RTVSPropertyOp12
 70
     1
102
RTVSPropertyOp13
 70
     1
102
RTVSPropertyOp14
 70
     1
102
RTVSPropertyOp15
 70
     1
102
RTVSPropertyOp16
 70
     1
102
RTVSPropertyOp17
 70
     1
102
RTVSPropertyOp18
 70
     1
102
RTVSPropertyOp19
 70
     1
102
RTVSPropertyOp20
 70
     1
102
RTVSPropertyOp21
 70
     1
102
RTVSPropertyOp22
 70
     1
102
RTVSPropertyOp23
 70
     1
102
RTVSPropertyOp24
 70
     1
102
RTVSPropertyOp25
 70
     1
102
RTVSPropertyOp26
 70
     1
102
RTVSPropertyOp27
 70
     1
102
RTVSPropertyOp28
 70
     1
102
RTVSPropertyOp29
 70
     1
102
RTVSPropertyOp30
 70
     1
102
RTVSPropertyOp31
 70
     1
102
RTVSPropertyOp32
 70
     1
102
RTVSPropertyOp33
 70
     1
102
RTVSPropertyOp34
 70
     1
102
RTVSPropertyOp35
 70
     1
102
RTVSPropertyOp36
 70
     1
102
RTVSPropertyOp37
 70
     1
102
RTVSPropertyOp38
 70
     1
102
RTVSPropertyOp39
 70
     1
102
RTVSPropertyOp40
 70
     1
102
RTVSPropertyOp41
 70
     1
102
RTVSPropertyOp42
 70
     1
102
RTVSPropertyOp43
 70
     1
102
RTVSPropertyOp44
 70
     1
102
RTVSPropertyOp45
 70
     1
102
RTVSPropertyOp46
 70
     1
102
RTVSPropertyOp47
 70
     1
102
RTVSPropertyOp48
 70
     1
102
RTVSPropertyOp49
 70
     1
102
RTVSPropertyOp50
 70
     1
102
RTVSPropertyOp51
 70
     0
102
RTVSPropertyOp52
 70
     0
102
RTVSPropertyOp53
 70
     1
102
RTVSPropertyOp54
 70
     1
102
RTVSPropertyOp55
 70
     1
102
RTVSPropertyOp56
 70
     1
102
RTVSPropertyOp57
 70
     1
102
RTVSPropertyOp58
 70
     1
102
RTVSPropertyOp59
 70
     1
102
RTVSPropertyOp60
 70
     1
102
RTVSPropertyOp61
 70
     1
102
RTVSPropertyOp62
 70
     1
  0
XRECORD
  5
97DE
102
{ACAD_REACTORS
330
97DD
102
}
330
97DD
100
AcDbXrecord
280
     1
102
RTVSPost2010Prop28
280
     0
102
RTVSPost2010PropOp28
 70
     1
102
RTVSPost2010Prop29
280
     1
102
RTVSPost2010PropOp29
 70
     1
102
RTVSPost2010Prop30
280
     1
102
RTVSPost2010PropOp30
 70
     1
102
RTVSPost2010Prop31
280
     0
102
RTVSPost2010PropOp31
 70
     1
102
RTVSPost2010Prop32
280
     0
102
RTVSPost2010PropOp32
 70
     1
102
RTVSPost2010Prop33
280
     0
102
RTVSPost2010PropOp33
 70
     1
102
RTVSPost2010Prop34
280
     0
102
RTVSPost2010PropOp34
 70
     1
102
RTVSPost2010Prop35
280
     0
102
RTVSPost2010PropOp35
 70
     1
102
RTVSPost2010Prop36
280
     0
102
RTVSPost2010PropOp36
 70
     1
102
RTVSPost2010Prop37
 90
       50
102
RTVSPost2010PropOp37
 70
     1
102
RTVSPost2010Prop38
140
0.0
102
RTVSPost2010PropOp38
 70
     1
102
RTVSPost2010Prop39
140
1.0
102
RTVSPost2010PropOp39
 70
     1
102
RTVSPost2010Prop40
 90
        0
102
RTVSPost2010PropOp40
 70
     1
102
RTVSPost2010Prop41ColorIndex
 90
       18
102
RTVSPost2010Prop41ColorRGB
 90
        0
102
RTVSPost2010PropOp41
 70
     1
102
RTVSPost2010Prop42
 90
       50
102
RTVSPost2010PropOp42
 70
     1
102
RTVSPost2010Prop43
 90
        3
102
RTVSPost2010PropOp43
 70
     1
102
RTVSPost2010Prop44ColorIndex
 90
        5
102
RTVSPost2010Prop44ColorRGB
 90
      255
102
RTVSPost2010PropOp44
 70
     1
102
RTVSPost2010Prop45
280
     0
102
RTVSPost2010PropOp45
 70
     1
102
RTVSPost2010Prop46
 90
       50
102
RTVSPost2010PropOp46
 70
     1
102
RTVSPost2010Prop47
 90
       50
102
RTVSPost2010PropOp47
 70
     1
102
RTVSPost2010Prop48
 90
       50
102
RTVSPost2010PropOp48
 70
     1
102
RTVSPost2010Prop49
280
     0
102
RTVSPost2010PropOp49
 70
     1
102
RTVSPost2010Prop50
 90
       50
102
RTVSPost2010PropOp50
 70
     1
102
RTVSPost2010Prop51ColorIndex
 90
      256
102
RTVSPost2010Prop51ColorRGB
 90
-16777216
102
RTVSPost2010PropOp51
 70
     0
102
RTVSPost2010Prop52
140
1.0
102
RTVSPost2010PropOp52
 70
     0
102
RTVSPost2010Prop53
 90
        2
102
RTVSPost2010PropOp53
 70
     1
102
RTVSPost2010Prop54
  1
strokes_ogs.tif
102
RTVSPost2010PropOp54
 70
     1
102
RTVSPost2010Prop55
280
     0
102
RTVSPost2010PropOp55
 70
     1
102
RTVSPost2010Prop56
140
1.0
102
RTVSPost2010PropOp56
 70
     1
102
RTVSPost2010Prop57
140
1.0
102
RTVSPost2010PropOp57
 70
     1
102
RTVSPropertyOp0
 70
     1
102
RTVSPropertyOp1
 70
     1
102
RTVSPropertyOp2
 70
     1
102
RTVSPropertyOp3
 70
     1
102
RTVSPropertyOp4
 70
     1
102
RTVSPropertyOp5
 70
     1
102
RTVSPropertyOp6
 70
     1
102
RTVSPropertyOp7
 70
     1
102
RTVSPropertyOp8
 70
     1
102
RTVSPropertyOp9
 70
     1
102
RTVSPropertyOp10
 70
     1
102
RTVSPropertyOp11
 70
     1
102
RTVSPropertyOp12
 70
     1
102
RTVSPropertyOp13
 70
     1
102
RTVSPropertyOp14
 70
     1
102
RTVSPropertyOp15
 70
     1
102
RTVSPropertyOp16
 70
     1
102
RTVSPropertyOp17
 70
     1
102
RTVSPropertyOp18
 70
     1
102
RTVSPropertyOp19
 70
     1
102
RTVSPropertyOp20
 70
     1
102
RTVSPropertyOp21
 70
     1
102
RTVSPropertyOp22
 70
     1
102
RTVSPropertyOp23
 70
     1
102
RTVSPropertyOp24
 70
     1
102
RTVSPropertyOp25
 70
     1
102
RTVSPropertyOp26
 70
     1
102
RTVSPropertyOp27
 70
     1
102
RTVSPropertyOp28
 70
     1
102
RTVSPropertyOp29
 70
     1
102
RTVSPropertyOp30
 70
     1
102
RTVSPropertyOp31
 70
     1
102
RTVSPropertyOp32
 70
     1
102
RTVSPropertyOp33
 70
     1
102
RTVSPropertyOp34
 70
     1
102
RTVSPropertyOp35
 70
     1
102
RTVSPropertyOp36
 70
     1
102
RTVSPropertyOp37
 70
     1
102
RTVSPropertyOp38
 70
     1
102
RTVSPropertyOp39
 70
     1
102
RTVSPropertyOp40
 70
     1
102
RTVSPropertyOp41
 70
     1
102
RTVSPropertyOp42
 70
     1
102
RTVSPropertyOp43
 70
     1
102
RTVSPropertyOp44
 70
     1
102
RTVSPropertyOp45
 70
     1
102
RTVSPropertyOp46
 70
     1
102
RTVSPropertyOp47
 70
     1
102
RTVSPropertyOp48
 70
     1
102
RTVSPropertyOp49
 70
     1
102
RTVSPropertyOp50
 70
     1
102
RTVSPropertyOp51
 70
     0
102
RTVSPropertyOp52
 70
     0
102
RTVSPropertyOp53
 70
     1
102
RTVSPropertyOp54
 70
     1
102
RTVSPropertyOp55
 70
     1
102
RTVSPropertyOp56
 70
     1
102
RTVSPropertyOp57
 70
     1
102
RTVSPropertyOp58
 70
     1
102
RTVSPropertyOp59
 70
     1
102
RTVSPropertyOp60
 70
     1
102
RTVSPropertyOp61
 70
     1
102
RTVSPropertyOp62
 70
     1
  0
XRECORD
  5
97D2
102
{ACAD_REACTORS
330
97D1
102
}
330
97D1
100
AcDbXrecord
280
     1
102
RTVSPost2010Prop28
280
     0
102
RTVSPost2010PropOp28
 70
     1
102
RTVSPost2010Prop29
280
     1
102
RTVSPost2010PropOp29
 70
     1
102
RTVSPost2010Prop30
280
     1
102
RTVSPost2010PropOp30
 70
     1
102
RTVSPost2010Prop31
280
     0
102
RTVSPost2010PropOp31
 70
     1
102
RTVSPost2010Prop32
280
     0
102
RTVSPost2010PropOp32
 70
     1
102
RTVSPost2010Prop33
280
     0
102
RTVSPost2010PropOp33
 70
     1
102
RTVSPost2010Prop34
280
     0
102
RTVSPost2010PropOp34
 70
     1
102
RTVSPost2010Prop35
280
     0
102
RTVSPost2010PropOp35
 70
     1
102
RTVSPost2010Prop36
280
     0
102
RTVSPost2010PropOp36
 70
     1
102
RTVSPost2010Prop37
 90
       50
102
RTVSPost2010PropOp37
 70
     1
102
RTVSPost2010Prop38
140
0.0
102
RTVSPost2010PropOp38
 70
     1
102
RTVSPost2010Prop39
140
1.0
102
RTVSPost2010PropOp39
 70
     1
102
RTVSPost2010Prop40
 90
        0
102
RTVSPost2010PropOp40
 70
     1
102
RTVSPost2010Prop41ColorIndex
 90
       18
102
RTVSPost2010Prop41ColorRGB
 90
        0
102
RTVSPost2010PropOp41
 70
     1
102
RTVSPost2010Prop42
 90
       50
102
RTVSPost2010PropOp42
 70
     1
102
RTVSPost2010Prop43
 90
        3
102
RTVSPost2010PropOp43
 70
     1
102
RTVSPost2010Prop44ColorIndex
 90
        5
102
RTVSPost2010Prop44ColorRGB
 90
      255
102
RTVSPost2010PropOp44
 70
     1
102
RTVSPost2010Prop45
280
     0
102
RTVSPost2010PropOp45
 70
     1
102
RTVSPost2010Prop46
 90
       50
102
RTVSPost2010PropOp46
 70
     1
102
RTVSPost2010Prop47
 90
       50
102
RTVSPost2010PropOp47
 70
     1
102
RTVSPost2010Prop48
 90
       50
102
RTVSPost2010PropOp48
 70
     1
102
RTVSPost2010Prop49
280
     0
102
RTVSPost2010PropOp49
 70
     1
102
RTVSPost2010Prop50
 90
       50
102
RTVSPost2010PropOp50
 70
     1
102
RTVSPost2010Prop51ColorIndex
 90
      256
102
RTVSPost2010Prop51ColorRGB
 90
-16777216
102
RTVSPost2010PropOp51
 70
     0
102
RTVSPost2010Prop52
140
1.0
102
RTVSPost2010PropOp52
 70
     0
102
RTVSPost2010Prop53
 90
        2
102
RTVSPost2010PropOp53
 70
     1
102
RTVSPost2010Prop54
  1
strokes_ogs.tif
102
RTVSPost2010PropOp54
 70
     1
102
RTVSPost2010Prop55
280
     0
102
RTVSPost2010PropOp55
 70
     1
102
RTVSPost2010Prop56
140
1.0
102
RTVSPost2010PropOp56
 70
     1
102
RTVSPost2010Prop57
140
1.0
102
RTVSPost2010PropOp57
 70
     1
102
RTVSPropertyOp0
 70
     1
102
RTVSPropertyOp1
 70
     1
102
RTVSPropertyOp2
 70
     1
102
RTVSPropertyOp3
 70
     1
102
RTVSPropertyOp4
 70
     1
102
RTVSPropertyOp5
 70
     1
102
RTVSPropertyOp6
 70
     1
102
RTVSPropertyOp7
 70
     1
102
RTVSPropertyOp8
 70
     1
102
RTVSPropertyOp9
 70
     1
102
RTVSPropertyOp10
 70
     1
102
RTVSPropertyOp11
 70
     1
102
RTVSPropertyOp12
 70
     1
102
RTVSPropertyOp13
 70
     1
102
RTVSPropertyOp14
 70
     1
102
RTVSPropertyOp15
 70
     1
102
RTVSPropertyOp16
 70
     1
102
RTVSPropertyOp17
 70
     1
102
RTVSPropertyOp18
 70
     1
102
RTVSPropertyOp19
 70
     1
102
RTVSPropertyOp20
 70
     1
102
RTVSPropertyOp21
 70
     1
102
RTVSPropertyOp22
 70
     1
102
RTVSPropertyOp23
 70
     1
102
RTVSPropertyOp24
 70
     1
102
RTVSPropertyOp25
 70
     1
102
RTVSPropertyOp26
 70
     1
102
RTVSPropertyOp27
 70
     1
102
RTVSPropertyOp28
 70
     1
102
RTVSPropertyOp29
 70
     1
102
RTVSPropertyOp30
 70
     1
102
RTVSPropertyOp31
 70
     1
102
RTVSPropertyOp32
 70
     1
102
RTVSPropertyOp33
 70
     1
102
RTVSPropertyOp34
 70
     1
102
RTVSPropertyOp35
 70
     1
102
RTVSPropertyOp36
 70
     1
102
RTVSPropertyOp37
 70
     1
102
RTVSPropertyOp38
 70
     1
102
RTVSPropertyOp39
 70
     1
102
RTVSPropertyOp40
 70
     1
102
RTVSPropertyOp41
 70
     1
102
RTVSPropertyOp42
 70
     1
102
RTVSPropertyOp43
 70
     1
102
RTVSPropertyOp44
 70
     1
102
RTVSPropertyOp45
 70
     1
102
RTVSPropertyOp46
 70
     1
102
RTVSPropertyOp47
 70
     1
102
RTVSPropertyOp48
 70
     1
102
RTVSPropertyOp49
 70
     1
102
RTVSPropertyOp50
 70
     1
102
RTVSPropertyOp51
 70
     0
102
RTVSPropertyOp52
 70
     0
102
RTVSPropertyOp53
 70
     1
102
RTVSPropertyOp54
 70
     1
102
RTVSPropertyOp55
 70
     1
102
RTVSPropertyOp56
 70
     1
102
RTVSPropertyOp57
 70
     1
102
RTVSPropertyOp58
 70
     1
102
RTVSPropertyOp59
 70
     1
102
RTVSPropertyOp60
 70
     1
102
RTVSPropertyOp61
 70
     1
102
RTVSPropertyOp62
 70
     1
  0
XRECORD
  5
97EA
102
{ACAD_REACTORS
330
97E9
102
}
330
97E9
100
AcDbXrecord
280
     1
102
RTVSPost2010Prop28
280
     0
102
RTVSPost2010PropOp28
 70
     1
102
RTVSPost2010Prop29
280
     1
102
RTVSPost2010PropOp29
 70
     1
102
RTVSPost2010Prop30
280
     1
102
RTVSPost2010PropOp30
 70
     1
102
RTVSPost2010Prop31
280
     0
102
RTVSPost2010PropOp31
 70
     1
102
RTVSPost2010Prop32
280
     0
102
RTVSPost2010PropOp32
 70
     1
102
RTVSPost2010Prop33
280
     0
102
RTVSPost2010PropOp33
 70
     1
102
RTVSPost2010Prop34
280
     0
102
RTVSPost2010PropOp34
 70
     1
102
RTVSPost2010Prop35
280
     0
102
RTVSPost2010PropOp35
 70
     1
102
RTVSPost2010Prop36
280
     0
102
RTVSPost2010PropOp36
 70
     1
102
RTVSPost2010Prop37
 90
       50
102
RTVSPost2010PropOp37
 70
     1
102
RTVSPost2010Prop38
140
0.0
102
RTVSPost2010PropOp38
 70
     1
102
RTVSPost2010Prop39
140
1.0
102
RTVSPost2010PropOp39
 70
     1
102
RTVSPost2010Prop40
 90
        0
102
RTVSPost2010PropOp40
 70
     1
102
RTVSPost2010Prop41ColorIndex
 90
       18
102
RTVSPost2010Prop41ColorRGB
 90
        0
102
RTVSPost2010PropOp41
 70
     1
102
RTVSPost2010Prop42
 90
       50
102
RTVSPost2010PropOp42
 70
     1
102
RTVSPost2010Prop43
 90
        3
102
RTVSPost2010PropOp43
 70
     1
102
RTVSPost2010Prop44ColorIndex
 90
        5
102
RTVSPost2010Prop44ColorRGB
 90
      255
102
RTVSPost2010PropOp44
 70
     1
102
RTVSPost2010Prop45
280
     0
102
RTVSPost2010PropOp45
 70
     1
102
RTVSPost2010Prop46
 90
       50
102
RTVSPost2010PropOp46
 70
     1
102
RTVSPost2010Prop47
 90
       50
102
RTVSPost2010PropOp47
 70
     1
102
RTVSPost2010Prop48
 90
       50
102
RTVSPost2010PropOp48
 70
     1
102
RTVSPost2010Prop49
280
     0
102
RTVSPost2010PropOp49
 70
     1
102
RTVSPost2010Prop50
 90
       50
102
RTVSPost2010PropOp50
 70
     1
102
RTVSPost2010Prop51ColorIndex
 90
      256
102
RTVSPost2010Prop51ColorRGB
 90
-16777216
102
RTVSPost2010PropOp51
 70
     0
102
RTVSPost2010Prop52
140
1.0
102
RTVSPost2010PropOp52
 70
     0
102
RTVSPost2010Prop53
 90
        2
102
RTVSPost2010PropOp53
 70
     1
102
RTVSPost2010Prop54
  1
strokes_ogs.tif
102
RTVSPost2010PropOp54
 70
     1
102
RTVSPost2010Prop55
280
     0
102
RTVSPost2010PropOp55
 70
     1
102
RTVSPost2010Prop56
140
1.0
102
RTVSPost2010PropOp56
 70
     1
102
RTVSPost2010Prop57
140
1.0
102
RTVSPost2010PropOp57
 70
     1
102
RTVSPropertyOp0
 70
     1
102
RTVSPropertyOp1
 70
     1
102
RTVSPropertyOp2
 70
     1
102
RTVSPropertyOp3
 70
     1
102
RTVSPropertyOp4
 70
     1
102
RTVSPropertyOp5
 70
     1
102
RTVSPropertyOp6
 70
     1
102
RTVSPropertyOp7
 70
     1
102
RTVSPropertyOp8
 70
     1
102
RTVSPropertyOp9
 70
     1
102
RTVSPropertyOp10
 70
     1
102
RTVSPropertyOp11
 70
     1
102
RTVSPropertyOp12
 70
     1
102
RTVSPropertyOp13
 70
     1
102
RTVSPropertyOp14
 70
     1
102
RTVSPropertyOp15
 70
     1
102
RTVSPropertyOp16
 70
     1
102
RTVSPropertyOp17
 70
     1
102
RTVSPropertyOp18
 70
     1
102
RTVSPropertyOp19
 70
     1
102
RTVSPropertyOp20
 70
     1
102
RTVSPropertyOp21
 70
     1
102
RTVSPropertyOp22
 70
     1
102
RTVSPropertyOp23
 70
     1
102
RTVSPropertyOp24
 70
     1
102
RTVSPropertyOp25
 70
     1
102
RTVSPropertyOp26
 70
     1
102
RTVSPropertyOp27
 70
     1
102
RTVSPropertyOp28
 70
     1
102
RTVSPropertyOp29
 70
     1
102
RTVSPropertyOp30
 70
     1
102
RTVSPropertyOp31
 70
     1
102
RTVSPropertyOp32
 70
     1
102
RTVSPropertyOp33
 70
     1
102
RTVSPropertyOp34
 70
     1
102
RTVSPropertyOp35
 70
     1
102
RTVSPropertyOp36
 70
     1
102
RTVSPropertyOp37
 70
     1
102
RTVSPropertyOp38
 70
     1
102
RTVSPropertyOp39
 70
     1
102
RTVSPropertyOp40
 70
     1
102
RTVSPropertyOp41
 70
     1
102
RTVSPropertyOp42
 70
     1
102
RTVSPropertyOp43
 70
     1
102
RTVSPropertyOp44
 70
     1
102
RTVSPropertyOp45
 70
     1
102
RTVSPropertyOp46
 70
     1
102
RTVSPropertyOp47
 70
     1
102
RTVSPropertyOp48
 70
     1
102
RTVSPropertyOp49
 70
     1
102
RTVSPropertyOp50
 70
     1
102
RTVSPropertyOp51
 70
     0
102
RTVSPropertyOp52
 70
     0
102
RTVSPropertyOp53
 70
     1
102
RTVSPropertyOp54
 70
     1
102
RTVSPropertyOp55
 70
     1
102
RTVSPropertyOp56
 70
     1
102
RTVSPropertyOp57
 70
     1
102
RTVSPropertyOp58
 70
     1
102
RTVSPropertyOp59
 70
     1
102
RTVSPropertyOp60
 70
     1
102
RTVSPropertyOp61
 70
     1
102
RTVSPropertyOp62
 70
     1
  0
ENDSEC
  0
EOF
