  0
SECTION
  2
HEADER
  9
$ACADVER
  1
AC1027
  9
$DWGCODEPAGE
  3
ANSI_932
  9
$LTSCALE
 40
20.0
  9
$FILLMODE
 70
     1
  9
$CLAYER
  8
0
  9
$PDMODE
 70
     0
  9
$SPLFRAME
 70
     0
  9
$SPLINETYPE
 70
     6
  9
$SPLINESEGS
 70
     8
  9
$DIMASZ
 40
2.000000
  9
$DIMEXE
 40
1.500000
  9
$DIMEXO
 40
0.800000
  9
$DIMTAD
 70
     1
  9
$DIMTIH
 70
     0
  9
$DIMTOH
 70
     0
  9
$DIMTVP
 40
0.500000
  9
$DIMTXT
 40
3.100000
  9
$EXTMIN
 10
0.000000
 20
0.000000
 30
0.000000
  9
$EXTMAX
 10
297.000000
 20
420.000000
 30
0.000000
  9
$MEASUREMENT
 70
  1
  9
$LIMMIN
 10
0.000000
 20
0.000000
  9
$LIMMAX
 10
297.000000
 20
420.000000
  9
$HANDSEED
  5
E0
  9
$LWDISPLAY
290
     0
  9
$DIMBLK
  1
_OPEN
  9
$DIMDEC
 70
     2
  9
$DIMADEC
 70
     2
  9
$DIMAUNIT
 70
     0
  9
$DIMZIN
 70
     8
  9
$DIMAZIN
 70
     2
  9
$DIMTOFL
 70
     1
  0
ENDSEC
  0
SECTION
  2
CLASSES
  0
ENDSEC
  0
SECTION
  2
TABLES
  0
TABLE
  2
VPORT
  5
AA
100
AcDbSymbolTable
 70
     1
  0
VPORT
  5
AB
100
AcDbSymbolTableRecord
100
AcDbViewportTableRecord
  2
*ACTIVE
 70
     0
 12
94.860524
 22
112.988333
 40
189.976665
 41
0.893378
  0
ENDTAB
  0
TABLE
  2
LTYPE
  5
AC
100
AcDbSymbolTable
 70
     3
  0
LTYPE
  5
AD
100
AcDbSymbolTableRecord
100
AcDbLinetypeTableRecord
  2
BYBLOCK
 70
     0
  3

 72
    65
 73
     0
 40
0.0
  0
LTYPE
  5
AE
100
AcDbSymbolTableRecord
100
AcDbLinetypeTableRecord
  2
BYLAYER
 70
     0
  3

 72
    65
 73
     0
 40
0.0
  0
LTYPE
  5
AF
100
AcDbSymbolTableRecord
100
AcDbLinetypeTableRecord
  2
CONTINUOUS
 70
     0
  3
Solid line (NEC CAE2D for Win R18.0 : 2024.11.21)
 72
    65
 73
     0
 40
0.0
  0
LTYPE
  5
B0
100
AcDbSymbolTableRecord
100
AcDbLinetypeTableRecord
  2
DASHED
 70
     0
  3
__ __ __ __ __ __ __ __ __ __ __ __ __ _
 72
    65
 73
     2
 40
0.75
 49
0.5
 74
     0
 49
-0.25
 74
     0
  0
LTYPE
  5
B1
100
AcDbSymbolTableRecord
100
AcDbLinetypeTableRecord
  2
CENTER
 70
     0
  3
____ _ ____ _ ____ _ ____ _ ____ _ ____
 72
    65
 73
     4
 40
2.0
 49
1.25
 74
     0
 49
-0.25
 74
     0
 49
0.25
 74
     0
 49
-0.25
 74
     0
  0
ENDTAB
  0
TABLE
  2
LAYER
  5
B2
100
AcDbSymbolTable
 70
    15
  0
LAYER
  5
B3
100
AcDbSymbolTableRecord
100
AcDbLayerTableRecord
  2
0
 70
     0
 62
     7
  6
CONTINUOUS
370
    -3
390

  0
LAYER
  5
B4
100
AcDbSymbolTableRecord
100
AcDbLayerTableRecord
  2
A0
 70
     0
 62
     9
  6
CONTINUOUS
370
    -3
390

  0
LAYER
  5
B5
100
AcDbSymbolTableRecord
100
AcDbLayerTableRecord
  2
A1
 70
     0
 62
    12
  6
CONTINUOUS
370
    -3
390

  0
LAYER
  5
B6
100
AcDbSymbolTableRecord
100
AcDbLayerTableRecord
  2
A3
 70
     0
 62
    12
  6
CONTINUOUS
370
    -3
390

  0
LAYER
  5
B7
100
AcDbSymbolTableRecord
100
AcDbLayerTableRecord
  2
A4
 70
     0
 62
     9
  6
CONTINUOUS
370
    -3
390

  0
LAYER
  5
B8
100
AcDbSymbolTableRecord
100
AcDbLayerTableRecord
  2
A5
 70
     0
 62
     8
  6
CONTINUOUS
370
    -3
390

  0
LAYER
  5
B9
100
AcDbSymbolTableRecord
100
AcDbLayerTableRecord
  2
A6
 70
     0
 62
    12
  6
CONTINUOUS
370
    -3
390

  0
LAYER
  5
BA
100
AcDbSymbolTableRecord
100
AcDbLayerTableRecord
  2
A8
 70
     0
 62
    10
  6
CONTINUOUS
370
    -3
390

  0
LAYER
  5
BB
100
AcDbSymbolTableRecord
100
AcDbLayerTableRecord
  2
A9
 70
     0
 62
     9
  6
CONTINUOUS
370
    -3
390

  0
LAYER
  5
BC
100
AcDbSymbolTableRecord
100
AcDbLayerTableRecord
  2
A10
 70
     0
 62
     6
  6
CONTINUOUS
370
    -3
390

  0
LAYER
  5
BD
100
AcDbSymbolTableRecord
100
AcDbLayerTableRecord
  2
A20
 70
     0
 62
     1
  6
CONTINUOUS
370
    -3
390

  0
LAYER
  5
BE
100
AcDbSymbolTableRecord
100
AcDbLayerTableRecord
  2
A30
 70
     0
 62
     1
  6
CONTINUOUS
370
    -3
390

  0
LAYER
  5
BF
100
AcDbSymbolTableRecord
100
AcDbLayerTableRecord
  2
A40
 70
     0
 62
     9
  6
CONTINUOUS
370
    -3
390

  0
LAYER
  5
C0
100
AcDbSymbolTableRecord
100
AcDbLayerTableRecord
  2
A50
 70
     0
 62
    12
  6
CONTINUOUS
370
    -3
390

  0
LAYER
  5
C1
100
AcDbSymbolTableRecord
100
AcDbLayerTableRecord
  2
A1023
 70
     0
 62
    16
  6
CONTINUOUS
370
    -3
390

  0
ENDTAB
  0
TABLE
  2
STYLE
  5
C2
100
AcDbSymbolTable
 70
     4
  0
STYLE
  5
C3
100
AcDbSymbolTableRecord
100
AcDbTextStyleTableRecord
  2
STANDARD
 70
    64
 40
0.0
 41
1.0
 50
0.0
 71
     0
 42
3.000000000000000
  3
TXT
  4

  0
STYLE
  5
C4
100
AcDbSymbolTableRecord
100
AcDbTextStyleTableRecord
  2
ANKTATE
 70
    68
 40
0.0
 41
1.0
 50
0.0
 71
     0
 42
3.000000000000000
  3
TXT
  4

  0
STYLE
  5
C5
100
AcDbSymbolTableRecord
100
AcDbTextStyleTableRecord
  2
KNJYOKO
 70
    64
 40
0.0
 41
1.0
 50
0.0
 71
     0
 42
3.000000000000000
  3
TXT
  4
BIGFONT
  0
STYLE
  5
C6
100
AcDbSymbolTableRecord
100
AcDbTextStyleTableRecord
  2
KNJTATE
 70
    68
 40
0.0
 41
1.0
 50
0.0
 71
     0
 42
3.000000000000000
  3
TXT
  4
BIGFONT
  0
ENDTAB
  0
TABLE
  2
VIEW
  5
C7
100
AcDbSymbolTable
 70
     0
  0
ENDTAB
  0
TABLE
  2
UCS
  5
C8
100
AcDbSymbolTable
 70
     0
  0
ENDTAB
  0
TABLE
  2
APPID
  5
C9
100
AcDbSymbolTable
 70
     1
  0
APPID
  5
CA
100
AcDbSymbolTableRecord
100
AcDbRegAppTableRecord
  2
ACAD
 70
     0
  0
ENDTAB
  0
TABLE
  2
DIMSTYLE
  5
CB
100
AcDbSymbolTable
 70
     2
100
AcDbDimStyleTable
  0
DIMSTYLE
105
CC
100
AcDbSymbolTableRecord
100
AcDbDimStyleTableRecord
  2
STANDARD
 70
     0
 41
2.000000
 44
1.500000
 42
0.800000
145
0.661290
140
3.100000
144
1.000000
146
0.645161
340
C3
  0
DIMSTYLE
105
CD
100
AcDbSymbolTableRecord
100
AcDbDimStyleTableRecord
  2
A001
 70
     0
 41
2.000000
 44
1.500000
 42
0.800000
145
0.661290
140
3.100000
144
1.000000
146
0.645161
 77
     1
 73
     0
 74
     0
271
     2
179
     2
275
     0
 78
     8
 79
     2
172
     1
340
C3
  0
ENDTAB
  0
TABLE
  2
BLOCK_RECORD
  5
CE
100
AcDbSymbolTable
 70
    12
  0
BLOCK_RECORD
  5
CF
100
AcDbSymbolTableRecord
100
AcDbBlockTableRecord
  2
*MODEL_SPACE
  0
BLOCK_RECORD
  5
D0
100
AcDbSymbolTableRecord
100
AcDbBlockTableRecord
  2
*PAPER_SPACE
  0
BLOCK_RECORD
  5
D1
100
AcDbSymbolTableRecord
100
AcDbBlockTableRecord
  2
*PAPER_SPACE0
  0
BLOCK_RECORD
  5
1
100
AcDbSymbolTableRecord
100
AcDbBlockTableRecord
  2
_NONE
  0
BLOCK_RECORD
  5
4
100
AcDbSymbolTableRecord
100
AcDbBlockTableRecord
  2
_CLOSED
  0
BLOCK_RECORD
  5
B
100
AcDbSymbolTableRecord
100
AcDbBlockTableRecord
  2
_DOT
  0
BLOCK_RECORD
  5
13
100
AcDbSymbolTableRecord
100
AcDbBlockTableRecord
  2
_OPEN
  0
BLOCK_RECORD
  5
19
100
AcDbSymbolTableRecord
100
AcDbBlockTableRecord
  2
_ORIGIN
  0
BLOCK_RECORD
  5
1E
100
AcDbSymbolTableRecord
100
AcDbBlockTableRecord
  2
_OPEN30
  0
BLOCK_RECORD
  5
24
100
AcDbSymbolTableRecord
100
AcDbBlockTableRecord
  2
_BOXFILLED
  0
BLOCK_RECORD
  5
29
100
AcDbSymbolTableRecord
100
AcDbBlockTableRecord
  2
_BOXBLANK
  0
BLOCK_RECORD
  5
31
100
AcDbSymbolTableRecord
100
AcDbBlockTableRecord
  2
_OBLIQUE
  0
BLOCK_RECORD
  5
35
100
AcDbSymbolTableRecord
100
AcDbBlockTableRecord
  2
_OPEN90
  0
BLOCK_RECORD
  5
3B
100
AcDbSymbolTableRecord
100
AcDbBlockTableRecord
  2
_CLOSEDBLANK
  0
BLOCK_RECORD
  5
41
100
AcDbSymbolTableRecord
100
AcDbBlockTableRecord
  2
_DOTBLANK
  0
ENDTAB
  0
ENDSEC
  0
SECTION
  2
BLOCKS
  0
BLOCK
  5
D2
100
AcDbEntity
  8
0
100
AcDbBlockBegin
  2
*MODEL_SPACE
 70
     0
 10
0.0
 20
0.0
 30
0.0
  3
*MODEL_SPACE
  1

  0
ENDBLK
  5
D3
100
AcDbEntity
  8
0
100
AcDbBlockEnd
  0
BLOCK
  5
D4
100
AcDbEntity
  8
0
100
AcDbBlockBegin
  2
*PAPER_SPACE
 70
     0
 10
0.0
 20
0.0
 30
0.0
  3
*PAPER_SPACE
  1

  0
ENDBLK
  5
D5
100
AcDbEntity
  8
0
100
AcDbBlockEnd
  0
BLOCK
  5
D6
100
AcDbEntity
  8
0
100
AcDbBlockBegin
  2
*PAPER_SPACE0
 70
     0
 10
0.0
 20
0.0
 30
0.0
  3
*PAPER_SPACE0
  1

  0
ENDBLK
  5
D7
100
AcDbEntity
  8
0
100
AcDbBlockEnd
  0
BLOCK
  5
2
330
1
100
AcDbEntity
  8
0
100
AcDbBlockBegin
  2
_NONE
 70
     0
 10
0.0
 20
0.0
 30
0.0
  3
_NONE
  1

  0
ENDBLK
  5
3
330
1
100
AcDbEntity
  8
0
100
AcDbBlockEnd
  0
BLOCK
  5
5
330
4
100
AcDbEntity
  8
0
100
AcDbBlockBegin
  2
_CLOSED
 70
     0
 10
0.0
 20
0.0
 30
0.0
  3
_CLOSED
  1

  0
LINE
  5
6
330
4
100
AcDbEntity
  8
0
  6
BYBLOCK
 62
     0
370
    -2
100
AcDbLine
 10
-1.0
 20
0.166667
 30
0.0
 11
0.0
 21
0.0
 31
0.0
  0
LINE
  5
7
330
4
100
AcDbEntity
  8
0
  6
BYBLOCK
 62
     0
370
    -2
100
AcDbLine
 10
0.0
 20
0.0
 30
0.0
 11
-1.0
 21
-0.166667
 31
0.0
  0
LINE
  5
8
330
4
100
AcDbEntity
  8
0
  6
BYBLOCK
 62
     0
370
    -2
100
AcDbLine
 10
-1.0
 20
0.166667
 30
0.0
 11
-1.0
 21
-0.166667
 31
0.0
  0
LINE
  5
9
330
4
100
AcDbEntity
  8
0
  6
BYBLOCK
 62
     0
370
    -2
100
AcDbLine
 10
0.0
 20
0.0
 30
0.0
 11
-1.0
 21
0.0
 31
0.0
  0
ENDBLK
  5
A
330
4
100
AcDbEntity
  8
0
100
AcDbBlockEnd
  0
BLOCK
  5
C
330
B
100
AcDbEntity
  8
0
100
AcDbBlockBegin
  2
_DOT
 70
     0
 10
0.0
 20
0.0
 30
0.0
  3
_DOT
  1

  0
POLYLINE
  5
D
330
B
100
AcDbEntity
  8
0
  6
BYBLOCK
 62
     0
370
    -2
100
AcDb2dPolyline
 66
     1
 10
0.0
 20
0.0
 30
0.0
 70
     1
 40
0.5
 41
0.5
  0
VERTEX
  5
E
330
B
100
AcDbEntity
  8
0
  6
BYBLOCK
 62
     0
370
    -2
100
AcDbVertex
100
AcDb2dVertex
 10
-0.25
 20
0.0
 30
0.0
 42
1.0
  0
VERTEX
  5
F
330
B
100
AcDbEntity
  8
0
  6
BYBLOCK
 62
     0
370
    -2
100
AcDbVertex
100
AcDb2dVertex
 10
0.25
 20
0.0
 30
0.0
 42
1.0
  0
SEQEND
  5
10
330
B
100
AcDbEntity
  8
0
  6
BYBLOCK
 62
     0
370
    -2
  0
LINE
  5
11
330
B
100
AcDbEntity
  8
0
  6
BYBLOCK
 62
     0
370
    -2
100
AcDbLine
 10
-0.5
 20
0.0
 30
0.0
 11
-1.0
 21
0.0
 31
0.0
  0
ENDBLK
  5
12
330
B
100
AcDbEntity
  8
0
100
AcDbBlockEnd
  0
BLOCK
  5
14
330
13
100
AcDbEntity
  8
0
100
AcDbBlockBegin
  2
_OPEN
 70
     0
 10
0.0
 20
0.0
 30
0.0
  3
_OPEN
  1

  0
LINE
  5
15
330
13
100
AcDbEntity
  8
0
  6
BYBLOCK
 62
     0
370
    -2
100
AcDbLine
 10
-1.0
 20
0.166667
 30
0.0
 11
0.0
 21
0.0
 31
0.0
  0
LINE
  5
16
330
13
100
AcDbEntity
  8
0
  6
BYBLOCK
 62
     0
370
    -2
100
AcDbLine
 10
0.0
 20
0.0
 30
0.0
 11
-1.0
 21
-0.166667
 31
0.0
  0
LINE
  5
17
330
13
100
AcDbEntity
  8
0
  6
BYBLOCK
 62
     0
370
    -2
100
AcDbLine
 10
0.0
 20
0.0
 30
0.0
 11
-1.0
 21
0.0
 31
0.0
  0
ENDBLK
  5
18
330
13
100
AcDbEntity
  8
0
100
AcDbBlockEnd
  0
BLOCK
  5
1A
330
19
100
AcDbEntity
  8
0
100
AcDbBlockBegin
  2
_ORIGIN
 70
     0
 10
0.0
 20
0.0
 30
0.0
  3
_ORIGIN
  1

  0
CIRCLE
  5
1B
330
19
100
AcDbEntity
  8
0
  6
BYBLOCK
 62
     0
370
    -2
100
AcDbCircle
 10
0.0
 20
0.0
 30
0.0
 40
0.5
  0
LINE
  5
1C
330
19
100
AcDbEntity
  8
0
  6
BYBLOCK
 62
     0
370
    -2
100
AcDbLine
 10
0.0
 20
0.0
 30
0.0
 11
-1.0
 21
0.0
 31
0.0
  0
ENDBLK
  5
1D
330
19
100
AcDbEntity
  8
0
100
AcDbBlockEnd
  0
BLOCK
  5
1F
330
1E
100
AcDbEntity
  8
0
100
AcDbBlockBegin
  2
_OPEN30
 70
     0
 10
0.0
 20
0.0
 30
0.0
  3
_OPEN30
  1

  0
LINE
  5
20
330
1E
100
AcDbEntity
  8
0
  6
BYBLOCK
 62
     0
370
    -2
100
AcDbLine
 10
-1.0
 20
0.267949
 30
0.0
 11
0.0
 21
0.0
 31
0.0
  0
LINE
  5
21
330
1E
100
AcDbEntity
  8
0
  6
BYBLOCK
 62
     0
370
    -2
100
AcDbLine
 10
0.0
 20
0.0
 30
0.0
 11
-1.0
 21
-0.267949
 31
0.0
  0
LINE
  5
22
330
1E
100
AcDbEntity
  8
0
  6
BYBLOCK
 62
     0
370
    -2
100
AcDbLine
 10
0.0
 20
0.0
 30
0.0
 11
-1.0
 21
0.0
 31
0.0
  0
ENDBLK
  5
23
330
1E
100
AcDbEntity
  8
0
100
AcDbBlockEnd
  0
BLOCK
  5
25
330
24
100
AcDbEntity
  8
0
100
AcDbBlockBegin
  2
_BOXFILLED
 70
     0
 10
0.0
 20
0.0
 30
0.0
  3
_BOXFILLED
  1

  0
SOLID
  5
26
330
24
100
AcDbEntity
  8
0
  6
BYBLOCK
 62
     0
370
    -2
100
AcDbTrace
 10
-0.5
 20
0.5
 30
0.0
 11
0.5
 21
0.5
 31
0.0
 12
-0.5
 22
-0.5
 32
0.0
 13
0.5
 23
-0.5
 33
0.0
  0
LINE
  5
27
330
24
100
AcDbEntity
  8
0
  6
BYBLOCK
 62
     0
370
    -2
100
AcDbLine
 10
-0.5
 20
0.0
 30
0.0
 11
-1.0
 21
0.0
 31
0.0
  0
ENDBLK
  5
28
330
24
100
AcDbEntity
  8
0
100
AcDbBlockEnd
  0
BLOCK
  5
2A
330
29
100
AcDbEntity
  8
0
100
AcDbBlockBegin
  2
_BOXBLANK
 70
     0
 10
0.0
 20
0.0
 30
0.0
  3
_BOXBLANK
  1

  0
LINE
  5
2B
330
29
100
AcDbEntity
  8
0
  6
BYBLOCK
 62
     0
370
    -2
100
AcDbLine
 10
-0.5
 20
-0.5
 30
0.0
 11
0.5
 21
-0.5
 31
0.0
  0
LINE
  5
2C
330
29
100
AcDbEntity
  8
0
  6
BYBLOCK
 62
     0
370
    -2
100
AcDbLine
 10
0.5
 20
-0.5
 30
0.0
 11
0.5
 21
0.5
 31
0.0
  0
LINE
  5
2D
330
29
100
AcDbEntity
  8
0
  6
BYBLOCK
 62
     0
370
    -2
100
AcDbLine
 10
0.5
 20
0.5
 30
0.0
 11
-0.5
 21
0.5
 31
0.0
  0
LINE
  5
2E
330
29
100
AcDbEntity
  8
0
  6
BYBLOCK
 62
     0
370
    -2
100
AcDbLine
 10
-0.5
 20
0.5
 30
0.0
 11
-0.5
 21
-0.5
 31
0.0
  0
LINE
  5
2F
330
29
100
AcDbEntity
  8
0
  6
BYBLOCK
 62
     0
370
    -2
100
AcDbLine
 10
-0.5
 20
0.0
 30
0.0
 11
-1.0
 21
0.0
 31
0.0
  0
ENDBLK
  5
30
330
29
100
AcDbEntity
  8
0
100
AcDbBlockEnd
  0
BLOCK
  5
32
330
31
100
AcDbEntity
  8
0
100
AcDbBlockBegin
  2
_OBLIQUE
 70
     0
 10
0.0
 20
0.0
 30
0.0
  3
_OBLIQUE
  1

  0
LINE
  5
33
330
31
100
AcDbEntity
  8
0
  6
BYBLOCK
 62
     0
370
    -2
100
AcDbLine
 10
-0.5
 20
-0.5
 30
0.0
 11
0.5
 21
0.5
 31
0.0
  0
ENDBLK
  5
34
330
31
100
AcDbEntity
  8
0
100
AcDbBlockEnd
  0
BLOCK
  5
36
330
35
100
AcDbEntity
  8
0
100
AcDbBlockBegin
  2
_OPEN90
 70
     0
 10
0.0
 20
0.0
 30
0.0
  3
_OPEN90
  1

  0
LINE
  5
37
330
35
100
AcDbEntity
  8
0
  6
BYBLOCK
 62
     0
370
    -2
100
AcDbLine
 10
-0.5
 20
0.5
 30
0.0
 11
0.0
 21
0.0
 31
0.0
  0
LINE
  5
38
330
35
100
AcDbEntity
  8
0
  6
BYBLOCK
 62
     0
370
    -2
100
AcDbLine
 10
0.0
 20
0.0
 30
0.0
 11
-0.5
 21
-0.5
 31
0.0
  0
LINE
  5
39
330
35
100
AcDbEntity
  8
0
  6
BYBLOCK
 62
     0
370
    -2
100
AcDbLine
 10
0.0
 20
0.0
 30
0.0
 11
-1.0
 21
0.0
 31
0.0
  0
ENDBLK
  5
3A
330
35
100
AcDbEntity
  8
0
100
AcDbBlockEnd
  0
BLOCK
  5
3C
330
3B
100
AcDbEntity
  8
0
100
AcDbBlockBegin
  2
_CLOSEDBLANK
 70
     0
 10
0.0
 20
0.0
 30
0.0
  3
_CLOSEDBLANK
  1

  0
LINE
  5
3D
330
3B
100
AcDbEntity
  8
0
  6
BYBLOCK
 62
     0
370
    -2
100
AcDbLine
 10
-1.0
 20
0.1666666666666666
 30
0.0
 11
0.0
 21
0.0
 31
0.0
  0
LINE
  5
3E
330
3B
100
AcDbEntity
  8
0
  6
BYBLOCK
 62
     0
370
    -2
100
AcDbLine
 10
0.0
 20
0.0
 30
0.0
 11
-1.0
 21
-0.1666666666666666
 31
0.0
  0
LINE
  5
3F
330
3B
100
AcDbEntity
  8
0
  6
BYBLOCK
 62
     0
370
    -2
100
AcDbLine
 10
-1.0
 20
0.1666666666666666
 30
0.0
 11
-1.0
 21
-0.1666666666666666
 31
0.0
  0
ENDBLK
  5
40
330
3B
100
AcDbEntity
  8
0
100
AcDbBlockEnd
  0
BLOCK
  5
42
330
41
100
AcDbEntity
  8
0
100
AcDbBlockBegin
  2
_DOTBLANK
 70
     0
 10
0.0
 20
0.0
 30
0.0
  3
_DOTBLANK
  1

  0
CIRCLE
  5
43
330
41
100
AcDbEntity
  8
0
  6
BYBLOCK
 62
     0
370
    -2
100
AcDbCircle
 10
0.0
 20
0.0
 30
0.0
 40
0.5
  0
LINE
  5
44
330
41
100
AcDbEntity
  8
0
  6
BYBLOCK
 62
     0
370
    -2
100
AcDbLine
 10
-0.5
 20
0.0
 30
0.0
 11
-1.0
 21
0.0
 31
0.0
  0
ENDBLK
  5
45
330
41
100
AcDbEntity
  8
0
100
AcDbBlockEnd
  0
ENDSEC
  0
SECTION
  2
ENTITIES
  0
MTEXT
  5
46
100
AcDbEntity
  8
A8
  6
CONTINUOUS
 62
3
100
AcDbMText
 10
9.999997526638502
 20
18.00000076076889
 30
0.000000000000000
 40
3.000000000000000
 41
0.000000000000000
 44
0.6739999771118164
 71
     7
 72
     1
  1
{\H0.93x;{TYPE No.TL-91-3}}
 11
1.000000000000000
 21
0.000000000000000
 31
0.000000000000000
  7
STANDARD
  0
POINT
  5
47
100
AcDbEntity
  8
A0
  6
CONTINUOUS
 62
3
100
AcDbPoint
 10
9.999997526638502
 20
18.00000076076889
 30
0.000000000000000
  0
LINE
  5
48
100
AcDbEntity
  8
A1
  6
CONTINUOUS
 62
7
100
AcDbLine
 10
64.00000000000000
 20
158.4766658031882
 30
0.000000000000000
 11
106.0000000000000
 21
158.4766658031882
 31
0.000000000000000
  0
LINE
  5
49
100
AcDbEntity
  8
A1
  6
CONTINUOUS
 62
7
100
AcDbLine
 10
81.99999999999994
 20
141.9766658031882
 30
0.000000000000000
 11
88.00000000000000
 21
141.9766658031882
 31
0.000000000000000
  0
LINE
  5
4A
100
AcDbEntity
  8
A4
  6
CENTER
 62
1
100
AcDbLine
 10
85.00000000000000
 20
159.9766658031882
 30
0.000000000000000
 11
85.00000000000000
 21
140.4766658031882
 31
0.000000000000000
  0
LINE
  5
4B
100
AcDbEntity
  8
A1
  6
CONTINUOUS
 62
7
100
AcDbLine
 10
106.0000000000000
 20
158.4766658031882
 30
0.000000000000000
 11
106.0000000000000
 21
155.4766658031882
 31
0.000000000000000
  0
ARC
  5
4C
100
AcDbEntity
  8
A1
  6
CONTINUOUS
 62
7
100
AcDbCircle
 10
81.99999999999994
 20
143.9766658031882
 30
0.000000000000000
 40
2.000000000000000
100
AcDbArc
 50
167.6498998737903
 51
270.0000000000000
  0
ARC
  5
4D
100
AcDbEntity
  8
A1
  6
CONTINUOUS
 62
7
100
AcDbCircle
 10
88.00000000000000
 20
143.9766658031882
 30
0.000000000000000
 40
2.000000000000000
100
AcDbArc
 50
270.0000000000000
 51
372.3501001262096
  0
ARC
  5
4E
100
AcDbEntity
  8
A1
  6
CONTINUOUS
 62
7
100
AcDbCircle
 10
92.50000000000000
 20
151.4766658031882
 30
0.000000000000000
 40
4.000000000000000
100
AcDbArc
 50
90.00000000000000
 51
192.3501001262092
  0
ARC
  5
4F
100
AcDbEntity
  8
A1
  6
CONTINUOUS
 62
7
100
AcDbCircle
 10
77.50000000000000
 20
151.4766658031882
 30
0.000000000000000
 40
4.000000000000000
100
AcDbArc
 50
347.6498998737903
 51
450.0000000000000
  0
LINE
  5
50
100
AcDbEntity
  8
A1
  6
CONTINUOUS
 62
7
100
AcDbLine
 10
89.95371784915267
 20
144.4044350936964
 30
0.000000000000000
 11
88.59256430169448
 21
150.6211272221714
 31
0.000000000000000
  0
LINE
  5
51
100
AcDbEntity
  8
A1
  6
CONTINUOUS
 62
7
100
AcDbLine
 10
80.04628215084722
 20
144.4044350936965
 30
0.000000000000000
 11
81.40743569830541
 21
150.6211272221714
 31
0.000000000000000
  0
LINE
  5
52
100
AcDbEntity
  8
A1
  6
CONTINUOUS
 62
7
100
AcDbLine
 10
64.00000000000000
 20
155.4766658031882
 30
0.000000000000000
 11
77.50000000000000
 21
155.4766658031882
 31
0.000000000000000
  0
LINE
  5
53
100
AcDbEntity
  8
A1
  6
CONTINUOUS
 62
7
100
AcDbLine
 10
92.50000000000000
 20
155.4766658031882
 30
0.000000000000000
 11
106.0000000000000
 21
155.4766658031882
 31
0.000000000000000
  0
LINE
  5
54
100
AcDbEntity
  8
A1
  6
CONTINUOUS
 62
7
100
AcDbLine
 10
64.00000000000000
 20
205.9766658032544
 30
0.000000000000000
 11
64.00000000000000
 21
193.9766658032544
 31
0.000000000000000
  0
LINE
  5
55
100
AcDbEntity
  8
A1
  6
CONTINUOUS
 62
7
100
AcDbLine
 10
106.0000000000000
 20
205.9766658032544
 30
0.000000000000000
 11
106.0000000000000
 21
193.9766658032544
 31
0.000000000000000
  0
LINE
  5
56
100
AcDbEntity
  8
A1
  6
CONTINUOUS
 62
7
100
AcDbLine
 10
64.50000000000000
 20
193.4766658032544
 30
0.000000000000000
 11
105.5000000000000
 21
193.4766658032544
 31
0.000000000000000
  0
LINE
  5
57
100
AcDbEntity
  8
A1
  6
CONTINUOUS
 62
7
100
AcDbLine
 10
64.49999999999994
 20
206.4766658032544
 30
0.000000000000000
 11
105.5000000000000
 21
206.4766658032544
 31
0.000000000000000
  0
LINE
  5
58
100
AcDbEntity
  8
A4
  6
CENTER
 62
1
100
AcDbLine
 10
85.00000000000000
 20
207.9766658032544
 30
0.000000000000000
 11
85.00000000000000
 21
191.9766658032544
 31
0.000000000000000
  0
CIRCLE
  5
59
100
AcDbEntity
  8
A1
  6
CONTINUOUS
 62
7
100
AcDbCircle
 10
100.0000000000000
 20
199.9766658032213
 30
0.000000000000000
 40
2.150000000000000
  0
CIRCLE
  5
5A
100
AcDbEntity
  8
A1
  6
CONTINUOUS
 62
7
100
AcDbCircle
 10
70.00000000000000
 20
199.9766658032213
 30
0.000000000000000
 40
2.150000000000000
  0
ARC
  5
5B
100
AcDbEntity
  8
A1
  6
CONTINUOUS
 62
7
100
AcDbCircle
 10
64.50000000000000
 20
193.9766658032544
 30
0.000000000000000
 40
0.5000000000000000
100
AcDbArc
 50
180.0000000000000
 51
270.0000000000000
  0
ARC
  5
5C
100
AcDbEntity
  8
A1
  6
CONTINUOUS
 62
7
100
AcDbCircle
 10
105.5000000000000
 20
193.9766658032544
 30
0.000000000000000
 40
0.5000000000000000
100
AcDbArc
 50
270.0000000000000
 51
360.0000000000000
  0
ARC
  5
5D
100
AcDbEntity
  8
A1
  6
CONTINUOUS
 62
7
100
AcDbCircle
 10
105.5000000000000
 20
205.9766658032544
 30
0.000000000000000
 40
0.5000000000000000
100
AcDbArc
 50
0.000000000000000
 51
90.00000000000000
  0
ARC
  5
5E
100
AcDbEntity
  8
A1
  6
CONTINUOUS
 62
7
100
AcDbCircle
 10
64.49999999999994
 20
205.9766658032544
 30
0.000000000000000
 40
0.5000000000000000
100
AcDbArc
 50
90.00000000000000
 51
180.0000000000000
  0
LINE
  5
5F
100
AcDbEntity
  8
A4
  6
CENTER
 62
1
100
AcDbLine
 10
70.00000000003246
 20
153.9766658031882
 30
0.000000000000000
 11
70.00000000003246
 21
159.9766658031882
 31
0.000000000000000
  0
LINE
  5
60
100
AcDbEntity
  8
A4
  6
CENTER
 62
1
100
AcDbLine
 10
99.99999999996726
 20
153.9766658031882
 30
0.000000000000000
 11
99.99999999996726
 21
159.9766658031882
 31
0.000000000000000
  0
LINE
  5
61
100
AcDbEntity
  8
A1
  6
CONTINUOUS
 62
7
100
AcDbLine
 10
64.00000000000000
 20
155.4766658031882
 30
0.000000000000000
 11
64.00000000000000
 21
158.4766658031882
 31
0.000000000000000
  0
LINE
  5
62
100
AcDbEntity
  8
A1
  6
CONTINUOUS
 62
7
100
AcDbLine
 10
50.00000000000000
 20
97.49999999999997
 30
0.000000000000000
 11
120.0000000000000
 21
97.49999999999997
 31
0.000000000000000
  0
LINE
  5
63
100
AcDbEntity
  8
A4
  6
CENTER
 62
1
100
AcDbLine
 10
85.00000000000000
 20
115.0000000000000
 30
0.000000000000000
 11
85.00000000000000
 21
95.99999999999997
 31
0.000000000000000
  0
LINE
  5
64
100
AcDbEntity
  8
A1
  6
CONTINUOUS
 62
7
100
AcDbLine
 10
50.00000000000000
 20
100.5000000000000
 30
0.000000000000000
 11
50.00000000000000
 21
97.49999999999997
 31
0.000000000000000
  0
LINE
  5
65
100
AcDbEntity
  8
A1
  6
CONTINUOUS
 62
7
100
AcDbLine
 10
120.0000000000000
 20
100.5000000000000
 30
0.000000000000000
 11
120.0000000000000
 21
97.49999999999997
 31
0.000000000000000
  0
LINE
  5
66
100
AcDbEntity
  8
A1
  6
CONTINUOUS
 62
7
100
AcDbLine
 10
78.75000000000000
 20
113.5000000000000
 30
0.000000000000000
 11
78.75000000000000
 21
100.5000000000000
 31
0.000000000000000
  0
LINE
  5
67
100
AcDbEntity
  8
A1
  6
CONTINUOUS
 62
7
100
AcDbLine
 10
61.75000000000000
 20
113.5000000000000
 30
0.000000000000000
 11
61.75000000000000
 21
100.5000000000000
 31
0.000000000000000
  0
LINE
  5
68
100
AcDbEntity
  8
A1
  6
CONTINUOUS
 62
7
100
AcDbLine
 10
50.00000000000000
 20
100.5000000000000
 30
0.000000000000000
 11
61.74999999999997
 21
100.5000000000000
 31
0.000000000000000
  0
LINE
  5
69
100
AcDbEntity
  8
A1
  6
CONTINUOUS
 62
7
100
AcDbLine
 10
78.75000000000000
 20
100.5000000000000
 30
0.000000000000000
 11
91.25000000000000
 21
100.5000000000000
 31
0.000000000000000
  0
LINE
  5
6A
100
AcDbEntity
  8
A1
  6
CONTINUOUS
 62
7
100
AcDbLine
 10
108.2500000000000
 20
100.5000000000000
 30
0.000000000000000
 11
120.0000000000000
 21
100.5000000000000
 31
0.000000000000000
  0
LINE
  5
6B
100
AcDbEntity
  8
A1
  6
CONTINUOUS
 62
7
100
AcDbLine
 10
61.75000000000000
 20
113.5000000000000
 30
0.000000000000000
 11
78.75000000000000
 21
113.5000000000000
 31
0.000000000000000
  0
LINE
  5
6C
100
AcDbEntity
  8
A1
  6
CONTINUOUS
 62
7
100
AcDbLine
 10
91.25000000000000
 20
113.5000000000000
 30
0.000000000000000
 11
108.2500000000000
 21
113.5000000000000
 31
0.000000000000000
  0
LINE
  5
6D
100
AcDbEntity
  8
A4
  6
CENTER
 62
1
100
AcDbLine
 10
114.5000000000000
 20
102.0000000000000
 30
0.000000000000000
 11
114.5000000000000
 21
95.99999999999997
 31
0.000000000000000
  0
LINE
  5
6E
100
AcDbEntity
  8
A4
  6
CENTER
 62
1
100
AcDbLine
 10
55.50000000000000
 20
102.0000000000000
 30
0.000000000000000
 11
55.50000000000000
 21
95.99999999999997
 31
0.000000000000000
  0
LINE
  5
6F
100
AcDbEntity
  8
A1
  6
CONTINUOUS
 62
7
100
AcDbLine
 10
50.00000000000000
 20
62.50000000000000
 30
0.000000000000000
 11
120.0000000000000
 21
62.50000000000000
 31
0.000000000000000
  0
LINE
  5
70
100
AcDbEntity
  8
A1
  6
CONTINUOUS
 62
7
100
AcDbLine
 10
50.00000000000000
 20
50.00000000000000
 30
0.000000000000000
 11
120.0000000000000
 21
50.00000000000000
 31
0.000000000000000
  0
LINE
  5
71
100
AcDbEntity
  8
A1
  6
CONTINUOUS
 62
7
100
AcDbLine
 10
50.00000000000000
 20
62.50000000000000
 30
0.000000000000000
 11
50.00000000000000
 21
50.00000000000000
 31
0.000000000000000
  0
LINE
  5
72
100
AcDbEntity
  8
A1
  6
CONTINUOUS
 62
7
100
AcDbLine
 10
120.0000000000000
 20
62.50000000000000
 30
0.000000000000000
 11
120.0000000000000
 21
50.00000000000000
 31
0.000000000000000
  0
LINE
  5
73
100
AcDbEntity
  8
A4
  6
CENTER
 62
1
100
AcDbLine
 10
85.00000000000000
 20
64.00000000000000
 30
0.000000000000000
 11
85.00000000000000
 21
48.50000000000000
 31
0.000000000000000
  0
CIRCLE
  5
74
100
AcDbEntity
  8
A1
  6
CONTINUOUS
 62
7
100
AcDbCircle
 10
114.5000000000000
 20
56.25000000000000
 30
0.000000000000000
 40
2.150000000000000
  0
CIRCLE
  5
75
100
AcDbEntity
  8
A1
  6
CONTINUOUS
 62
7
100
AcDbCircle
 10
55.49999999999997
 20
56.25000000000000
 30
0.000000000000000
 40
2.150000000000000
  0
LINE
  5
76
100
AcDbEntity
  8
A1
  6
CONTINUOUS
 62
7
100
AcDbLine
 10
165.7210509529351
 20
97.49999999999997
 30
0.000000000000000
 11
165.7210509529351
 21
107.2500000000000
 31
0.000000000000000
  0
LINE
  5
77
100
AcDbEntity
  8
A1
  6
CONTINUOUS
 62
7
100
AcDbLine
 10
165.7210509529351
 20
97.49999999999997
 30
0.000000000000000
 11
178.2210509529351
 21
97.49999999999997
 31
0.000000000000000
  0
LINE
  5
78
100
AcDbEntity
  8
A1
  6
CONTINUOUS
 62
7
100
AcDbLine
 10
178.2210509529351
 20
97.49999999999997
 30
0.000000000000000
 11
178.2210509529351
 21
107.2500000000000
 31
0.000000000000000
  0
LINE
  5
79
100
AcDbEntity
  8
A1
  6
CONTINUOUS
 62
7
100
AcDbLine
 10
165.7210509529351
 20
100.5000000000000
 30
0.000000000000000
 11
178.2210509529351
 21
100.5000000000000
 31
0.000000000000000
  0
ARC
  5
7A
100
AcDbEntity
  8
A1
  6
CONTINUOUS
 62
7
100
AcDbCircle
 10
171.9710509529351
 20
107.2500000000000
 30
0.000000000000000
 40
6.249999999999999
100
AcDbArc
 50
0.000000000000000
 51
180.0000000000000
  0
LINE
  5
7B
100
AcDbEntity
  8
A4
  6
CENTER
 62
1
100
AcDbLine
 10
179.7210509529351
 20
107.2500000000000
 30
0.000000000000000
 11
164.2210509529351
 21
107.2500000000000
 31
0.000000000000000
  0
LINE
  5
7C
100
AcDbEntity
  8
A4
  6
CENTER
 62
1
100
AcDbLine
 10
171.9710509529351
 20
115.0000000000000
 30
0.000000000000000
 11
171.9710509529351
 21
95.99999999999997
 31
0.000000000000000
  0
CIRCLE
  5
7D
100
AcDbEntity
  8
A1
  6
CONTINUOUS
 62
7
100
AcDbCircle
 10
171.9710509529351
 20
107.2500000000000
 30
0.000000000000000
 40
5.500000000000000
  0
LINE
  5
7E
100
AcDbEntity
  8
A1
  6
CONTINUOUS
 62
7
100
AcDbLine
 10
167.6809105282076
 20
110.6916122873037
 30
0.000000000000000
 11
175.4126632402387
 21
102.9598595752726
 31
0.000000000000000
  0
LINE
  5
7F
100
AcDbEntity
  8
A1
  6
CONTINUOUS
 62
7
100
AcDbLine
 10
168.5294386656313
 20
111.5401404247274
 30
0.000000000000000
 11
176.2611913776624
 21
103.8083877126963
 31
0.000000000000000
  0
ARC
  5
80
100
AcDbEntity
  8
A1
  6
CONTINUOUS
 62
7
100
AcDbCircle
 10
171.9710509529351
 20
107.2500000000000
 30
0.000000000000000
 40
5.000000000000000
100
AcDbArc
 50
321.8921025793458
 51
488.1078974206542
  0
ARC
  5
81
100
AcDbEntity
  8
A1
  6
CONTINUOUS
 62
7
100
AcDbCircle
 10
171.9710509529351
 20
107.2500000000000
 30
0.000000000000000
 40
5.000000000000000
100
AcDbArc
 50
141.8921025793467
 51
308.1078974206533
  0
LINE
  5
82
100
AcDbEntity
  8
A1
  6
CONTINUOUS
 62
7
100
AcDbLine
 10
108.2500000000000
 20
100.5000000000000
 30
0.000000000000000
 11
108.2500000000000
 21
113.5000000000000
 31
0.000000000000000
  0
LINE
  5
83
100
AcDbEntity
  8
A4
  6
CENTER
 62
1
100
AcDbLine
 10
60.25000000000000
 20
107.2500000000000
 30
0.000000000000000
 11
109.7500000000000
 21
107.2500000000000
 31
0.000000000000000
  0
LINE
  5
84
100
AcDbEntity
  8
A4
  6
CENTER
 62
1
100
AcDbLine
 10
55.50000000000000
 20
51.49999999999993
 30
0.000000000000000
 11
55.50000000000000
 21
61.00000000000007
 31
0.000000000000000
  0
LINE
  5
85
100
AcDbEntity
  8
A4
  6
CENTER
 62
1
100
AcDbLine
 10
48.50000000000000
 20
56.25000000000000
 30
0.000000000000000
 11
121.5000000000000
 21
56.25000000000000
 31
0.000000000000000
  0
LINE
  5
86
100
AcDbEntity
  8
A4
  6
CENTER
 62
1
100
AcDbLine
 10
114.4999999999999
 20
51.49999999999993
 30
0.000000000000000
 11
114.4999999999999
 21
61.00000000000007
 31
0.000000000000000
  0
ARC
  5
87
100
AcDbEntity
  8
A1
  6
CONTINUOUS
 62
7
100
AcDbCircle
 10
76.66570328352813
 20
107.2500000000000
 30
0.000000000000000
 40
4.762500000000000
100
AcDbArc
 50
295.9538851104364
 51
424.0461148895636
  0
LINE
  5
88
100
AcDbEntity
  8
A4
  6
CENTER
 62
1
100
AcDbLine
 10
70.00000000000000
 20
204.7266658031562
 30
0.000000000000000
 11
70.00000000000000
 21
195.2266658032865
 31
0.000000000000000
  0
LINE
  5
89
100
AcDbEntity
  8
A4
  6
CENTER
 62
1
100
AcDbLine
 10
100.0000000000000
 20
204.7266658031562
 30
0.000000000000000
 11
100.0000000000000
 21
195.2266658032865
 31
0.000000000000000
  0
LINE
  5
8A
100
AcDbEntity
  8
A4
  6
CENTER
 62
1
100
AcDbLine
 10
62.50000000000000
 20
199.9766658032213
 30
0.000000000000000
 11
107.4999999999999
 21
199.9766658032213
 31
0.000000000000000
  0
LINE
  5
8B
100
AcDbEntity
  8
A1
  6
CONTINUOUS
 62
7
100
AcDbLine
 10
91.25000000000000
 20
100.5000000000000
 30
0.000000000000000
 11
91.25000000000000
 21
113.5000000000000
 31
0.000000000000000
  0
ARC
  5
8C
100
AcDbEntity
  8
A1
  6
CONTINUOUS
 62
7
100
AcDbCircle
 10
93.33429671647187
 20
107.2500000000000
 30
0.000000000000000
 40
4.762500000000000
100
AcDbArc
 50
115.9538851104364
 51
244.0461148895637
  0
LINE
  5
8D
100
AcDbEntity
  8
A3
  6
DASHED
 62
2
100
AcDbLine
 10
116.6499999999673
 20
98.35000000002557
 30
0.000000000000000
 11
116.6499999999673
 21
97.49999999999997
 31
0.000000000000000
  0
LINE
  5
8E
100
AcDbEntity
  8
A3
  6
DASHED
 62
2
100
AcDbLine
 10
112.3499999999673
 20
98.35000000002563
 30
0.000000000000000
 11
112.3499999999673
 21
97.49999999999997
 31
0.000000000000000
  0
CIRCLE
  5
8F
100
AcDbEntity
  8
A3
  6
DASHED
 62
2
100
AcDbCircle
 10
114.4999999999999
 20
56.25000000000000
 30
0.000000000000000
 40
4.300000000000000
  0
CIRCLE
  5
90
100
AcDbEntity
  8
A3
  6
DASHED
 62
2
100
AcDbCircle
 10
55.50000000000000
 20
56.24999999999999
 30
0.000000000000000
 40
4.300000000000000
  0
LINE
  5
91
100
AcDbEntity
  8
A3
  6
DASHED
 62
2
100
AcDbLine
 10
118.8000000000000
 20
100.4999999999999
 30
0.000000000000000
 11
116.6499999999668
 21
98.34999999996739
 31
0.000000000000000
  0
LINE
  5
92
100
AcDbEntity
  8
A3
  6
DASHED
 62
2
100
AcDbLine
 10
110.2000000000000
 20
100.5000000000000
 30
0.000000000000000
 11
112.3499999999638
 21
98.35000000002563
 31
0.000000000000000
  0
LINE
  5
93
100
AcDbEntity
  8
A3
  6
DASHED
 62
2
100
AcDbLine
 10
116.6499999999652
 20
98.35000000002556
 30
0.000000000000000
 11
112.3499999999695
 21
98.35000000002562
 31
0.000000000000000
  0
LINE
  5
94
100
AcDbEntity
  8
A3
  6
DASHED
 62
2
100
AcDbLine
 10
57.64999999996729
 20
98.35000000002555
 30
0.000000000000000
 11
57.64999999996729
 21
97.49999999999994
 31
0.000000000000000
  0
LINE
  5
95
100
AcDbEntity
  8
A3
  6
DASHED
 62
2
100
AcDbLine
 10
53.34999999996728
 20
98.35000000002560
 30
0.000000000000000
 11
53.34999999996728
 21
97.49999999999994
 31
0.000000000000000
  0
LINE
  5
96
100
AcDbEntity
  8
A3
  6
DASHED
 62
2
100
AcDbLine
 10
59.79999999999995
 20
100.4999999999999
 30
0.000000000000000
 11
57.64999999996675
 21
98.34999999996737
 31
0.000000000000000
  0
LINE
  5
97
100
AcDbEntity
  8
A3
  6
DASHED
 62
2
100
AcDbLine
 10
51.19999999999997
 20
100.4999999999999
 30
0.000000000000000
 11
53.34999999996384
 21
98.35000000002560
 31
0.000000000000000
  0
LINE
  5
98
100
AcDbEntity
  8
A3
  6
DASHED
 62
2
100
AcDbLine
 10
57.64999999996518
 20
98.35000000002555
 30
0.000000000000000
 11
53.34999999996955
 21
98.35000000002560
 31
0.000000000000000
  0
LINE
  5
99
100
AcDbEntity
  8
A3
  6
DASHED
 62
2
100
AcDbLine
 10
67.85000000006518
 20
157.6266658031626
 30
0.000000000000000
 11
67.85000000006518
 21
158.4766658031882
 31
0.000000000000000
  0
LINE
  5
9A
100
AcDbEntity
  8
A3
  6
DASHED
 62
2
100
AcDbLine
 10
72.15000000006519
 20
157.6266658031625
 30
0.000000000000000
 11
72.15000000006519
 21
158.4766658031882
 31
0.000000000000000
  0
LINE
  5
9B
100
AcDbEntity
  8
A3
  6
DASHED
 62
2
100
AcDbLine
 10
65.70000000003247
 20
155.4766658031882
 30
0.000000000000000
 11
67.85000000006568
 21
157.6266658032207
 31
0.000000000000000
  0
LINE
  5
9C
100
AcDbEntity
  8
A3
  6
DASHED
 62
2
100
AcDbLine
 10
74.30000000003253
 20
155.4766658031881
 30
0.000000000000000
 11
72.15000000006867
 21
157.6266658031624
 31
0.000000000000000
  0
LINE
  5
9D
100
AcDbEntity
  8
A3
  6
DASHED
 62
2
100
AcDbLine
 10
67.85000000006727
 20
157.6266658031626
 30
0.000000000000000
 11
72.15000000006290
 21
157.6266658031625
 31
0.000000000000000
  0
LINE
  5
9E
100
AcDbEntity
  8
A3
  6
DASHED
 62
2
100
AcDbLine
 10
97.84999999999992
 20
157.6266658031626
 30
0.000000000000000
 11
97.84999999999992
 21
158.4766658031882
 31
0.000000000000000
  0
LINE
  5
9F
100
AcDbEntity
  8
A3
  6
DASHED
 62
2
100
AcDbLine
 10
102.1499999999999
 20
157.6266658031625
 30
0.000000000000000
 11
102.1499999999999
 21
158.4766658031882
 31
0.000000000000000
  0
LINE
  5
A0
100
AcDbEntity
  8
A3
  6
DASHED
 62
2
100
AcDbLine
 10
95.69999999996725
 20
155.4766658031881
 30
0.000000000000000
 11
97.85000000000045
 21
157.6266658032207
 31
0.000000000000000
  0
LINE
  5
A1
100
AcDbEntity
  8
A3
  6
DASHED
 62
2
100
AcDbLine
 10
104.2999999999672
 20
155.4766658031881
 30
0.000000000000000
 11
102.1500000000034
 21
157.6266658031625
 31
0.000000000000000
  0
LINE
  5
A2
100
AcDbEntity
  8
A3
  6
DASHED
 62
2
100
AcDbLine
 10
97.85000000000204
 20
157.6266658031626
 30
0.000000000000000
 11
102.1499999999977
 21
157.6266658031625
 31
0.000000000000000
  0
CIRCLE
  5
A3
100
AcDbEntity
  8
A3
  6
DASHED
 62
2
100
AcDbCircle
 10
70.00000000000000
 20
199.9766658032213
 30
0.000000000000000
 40
4.300000000000000
  0
CIRCLE
  5
A4
100
AcDbEntity
  8
A3
  6
DASHED
 62
2
100
AcDbCircle
 10
100.0000000000000
 20
199.9766658032213
 30
0.000000000000000
 40
4.300000000000000
  0
LINE
  5
A5
100
AcDbEntity
  8
A3
  6
DASHED
 62
2
100
AcDbLine
 10
174.1210509529024
 20
98.35000000002555
 30
0.000000000000000
 11
174.1210509529024
 21
97.49999999999994
 31
0.000000000000000
  0
LINE
  5
A6
100
AcDbEntity
  8
A3
  6
DASHED
 62
2
100
AcDbLine
 10
169.8210509529023
 20
98.35000000002560
 30
0.000000000000000
 11
169.8210509529023
 21
97.49999999999994
 31
0.000000000000000
  0
LINE
  5
A7
100
AcDbEntity
  8
A3
  6
DASHED
 62
2
100
AcDbLine
 10
176.2710509529350
 20
100.4999999999999
 30
0.000000000000000
 11
174.1210509529018
 21
98.34999999996737
 31
0.000000000000000
  0
LINE
  5
A8
100
AcDbEntity
  8
A3
  6
DASHED
 62
2
100
AcDbLine
 10
167.6710509529350
 20
100.4999999999999
 30
0.000000000000000
 11
169.8210509528989
 21
98.35000000002559
 31
0.000000000000000
  0
LINE
  5
A9
100
AcDbEntity
  8
A3
  6
DASHED
 62
2
100
AcDbLine
 10
174.1210509529002
 20
98.35000000002555
 30
0.000000000000000
 11
169.8210509529046
 21
98.35000000002560
 31
0.000000000000000
  0
ENDSEC
  0
SECTION
  2
OBJECTS
  0
DICTIONARY
  5
D8
100
AcDbDictionary
  3
ACAD_GROUP
350
D9
  3
ACAD_LAYOUT
350
DA
  3
ACAD_MLINESTYLE
350
DB
  0
DICTIONARY
  5
D9
102
{ACAD_REACTORS
330
D8
102
}
330
D8
100
AcDbDictionary
  0
DICTIONARY
  5
DA
102
{ACAD_REACTORS
330
D8
102
}
330
D8
100
AcDbDictionary
  3
Model
350
DC
  3
ﾚｲｱｳﾄ1
350
DD
  3
ﾚｲｱｳﾄ2
350
DE
  0
DICTIONARY
  5
DB
102
{ACAD_REACTORS
330
D8
102
}
330
D8
100
AcDbDictionary
  3
STANDARD
350
DF
  0
LAYOUT
  5
DC
102
{ACAD_REACTORS
330
DA
102
}
330
DA
100
AcDbPlotSettings
 70
11952
  4
A3
 44
297.000000
 45
420.000000
 73
  1
 72
  1
100
AcDbLayout
  1
Model
 71
0
330
CF
  0
LAYOUT
  5
DD
102
{ACAD_REACTORS
330
DA
102
}
330
DA
100
AcDbPlotSettings
100
AcDbLayout
  1
ﾚｲｱｳﾄ1
 71
1
330
D0
  0
LAYOUT
  5
DE
102
{ACAD_REACTORS
330
DA
102
}
330
DA
100
AcDbPlotSettings
100
AcDbLayout
  1
ﾚｲｱｳﾄ2
 71
2
330
D1
  0
MLINESTYLE
  5
DF
102
{ACAD_REACTORS
330
DB
102
}
330
DB
100
AcDbMlineStyle
  2
STANDARD
 70
     0
  3

 62
   256
 51
90.00
 52
90.00
 71
     2
 49
0.50
 62
   256
  6
BYLAYER
 49
-0.50
 62
   256
  6
BYLAYER
  0
ENDSEC
  0
EOF
