  0
SECTION
  2
HEADER
  9
$ACADVER
  1
AC1015
  9
$ACADMAINTVER
 70
    20
  9
$DWGCODEPAGE
  3
ANSI_932
  9
$INSBASE
 10
0.0
 20
0.0
 30
0.0
  9
$EXTMIN
 10
10.0
 20
9.999999999999998
 30
0.0
  9
$EXTMAX
 10
510.979513
 20
237.961981
 30
0.0
  9
$LIMMIN
 10
0.0
 20
0.0
  9
$LIMMAX
 10
524.0829999999998
 20
361.2996439999998
  9
$ORTHOMODE
 70
     1
  9
$REGENMODE
 70
     1
  9
$FILLMODE
 70
     1
  9
$QTEXTMODE
 70
     0
  9
$MIRRTEXT
 70
     1
  9
$LTSCALE
 40
20.0
  9
$ATTMODE
 70
     1
  9
$TEXTSIZE
 40
5.0
  9
$TRACEWID
 40
1.0
  9
$TEXTSTYLE
  7
STANDARD
  9
$CLAYER
  8
0
  9
$CELTYPE
  6
BYLAYER
  9
$CECOLOR
 62
   256
  9
$CELTSCALE
 40
1.0
  9
$DISPSILH
 70
     0
  9
$DIMSCALE
 40
1.0
  9
$DIMASZ
 40
2.5
  9
$DIMEXO
 40
1.0
  9
$DIMDLI
 40
10.0
  9
$DIMRND
 40
0.0
  9
$DIMDLE
 40
0.0
  9
$DIMEXE
 40
1.0
  9
$DIMTP
 40
0.0
  9
$DIMTM
 40
0.0
  9
$DIMTXT
 40
3.2
  9
$DIMCEN
 40
0.0
  9
$DIMTSZ
 40
0.0
  9
$DIMTOL
 70
     0
  9
$DIMLIM
 70
     0
  9
$DIMTIH
 70
     0
  9
$DIMTOH
 70
     0
  9
$DIMSE1
 70
     0
  9
$DIMSE2
 70
     0
  9
$DIMTAD
 70
     3
  9
$DIMZIN
 70
     8
  9
$DIMBLK
  1

  9
$DIMASO
 70
     1
  9
$DIMSHO
 70
     1
  9
$DIMPOST
  1

  9
$DIMAPOST
  1

  9
$DIMALT
 70
     0
  9
$DIMALTD
 70
     2
  9
$DIMALTF
 40
25.4
  9
$DIMLFAC
 40
1.0
  9
$DIMTOFL
 70
     1
  9
$DIMTVP
 40
0.0
  9
$DIMTIX
 70
     0
  9
$DIMSOXD
 70
     0
  9
$DIMSAH
 70
     1
  9
$DIMBLK1
  1
OPEN
  9
$DIMBLK2
  1
OPEN
  9
$DIMSTYLE
  2
STANDARD
  9
$DIMCLRD
 70
     0
  9
$DIMCLRE
 70
     0
  9
$DIMCLRT
 70
     0
  9
$DIMTFAC
 40
1.0
  9
$DIMGAP
 40
1.0
  9
$DIMJUST
 70
     0
  9
$DIMSD1
 70
     0
  9
$DIMSD2
 70
     0
  9
$DIMTOLJ
 70
     1
  9
$DIMTZIN
 70
     0
  9
$DIMALTZ
 70
     0
  9
$DIMALTTZ
 70
     0
  9
$DIMUPT
 70
     0
  9
$DIMDEC
 70
     4
  9
$DIMTDEC
 70
     4
  9
$DIMALTU
 70
     2
  9
$DIMALTTD
 70
     2
  9
$DIMTXSTY
  7
STANDARD
  9
$DIMAUNIT
 70
     0
  9
$DIMADEC
 70
     0
  9
$DIMALTRND
 40
0.0
  9
$DIMAZIN
 70
     0
  9
$DIMDSEP
 70
    46
  9
$DIMATFIT
 70
     3
  9
$DIMFRAC
 70
     0
  9
$DIMLDRBLK
  1
OPEN
  9
$DIMLUNIT
 70
     2
  9
$DIMLWD
 70
    -2
  9
$DIMLWE
 70
    -2
  9
$DIMTMOVE
 70
     0
  9
$LUNITS
 70
     2
  9
$LUPREC
 70
     4
  9
$SKETCHINC
 40
1.0
  9
$FILLETRAD
 40
1.5
  9
$AUNITS
 70
     0
  9
$AUPREC
 70
     2
  9
$MENU
  1
.
  9
$ELEVATION
 40
0.0
  9
$PELEVATION
 40
0.0
  9
$THICKNESS
 40
0.0
  9
$LIMCHECK
 70
     0
  9
$CHAMFERA
 40
10.0
  9
$CHAMFERB
 40
10.0
  9
$CHAMFERC
 40
0.0
  9
$CHAMFERD
 40
0.0
  9
$SKPOLY
 70
     0
  9
$TDCREATE
 40
2451344.671518171
  9
$TDUCREATE
 40
2451344.296518171
  9
$TDUPDATE
 40
2457192.603568842
  9
$TDUUPDATE
 40
2457192.228568843
  9
$TDINDWG
 40
0.0000145023
  9
$TDUSRTIMER
 40
0.0000140162
  9
$USRTIMER
 70
     1
  9
$ANGBASE
 50
0.0
  9
$ANGDIR
 70
     0
  9
$PDMODE
 70
     0
  9
$PDSIZE
 40
0.0
  9
$PLINEWID
 40
0.0
  9
$SPLFRAME
 70
     0
  9
$SPLINETYPE
 70
     6
  9
$SPLINESEGS
 70
     8
  9
$HANDSEED
  5
A329
  9
$SURFTAB1
 70
     6
  9
$SURFTAB2
 70
     6
  9
$SURFTYPE
 70
     6
  9
$SURFU
 70
     6
  9
$SURFV
 70
     6
  9
$UCSBASE
  2

  9
$UCSNAME
  2

  9
$UCSORG
 10
0.0
 20
0.0
 30
0.0
  9
$UCSXDIR
 10
1.0
 20
0.0
 30
0.0
  9
$UCSYDIR
 10
0.0
 20
1.0
 30
0.0
  9
$UCSORTHOREF
  2

  9
$UCSORTHOVIEW
 70
     0
  9
$UCSORGTOP
 10
0.0
 20
0.0
 30
0.0
  9
$UCSORGBOTTOM
 10
0.0
 20
0.0
 30
0.0
  9
$UCSORGLEFT
 10
0.0
 20
0.0
 30
0.0
  9
$UCSORGRIGHT
 10
0.0
 20
0.0
 30
0.0
  9
$UCSORGFRONT
 10
0.0
 20
0.0
 30
0.0
  9
$UCSORGBACK
 10
0.0
 20
0.0
 30
0.0
  9
$PUCSBASE
  2

  9
$PUCSNAME
  2

  9
$PUCSORG
 10
0.0
 20
0.0
 30
0.0
  9
$PUCSXDIR
 10
1.0
 20
0.0
 30
0.0
  9
$PUCSYDIR
 10
0.0
 20
1.0
 30
0.0
  9
$PUCSORTHOREF
  2

  9
$PUCSORTHOVIEW
 70
     0
  9
$PUCSORGTOP
 10
0.0
 20
0.0
 30
0.0
  9
$PUCSORGBOTTOM
 10
0.0
 20
0.0
 30
0.0
  9
$PUCSORGLEFT
 10
0.0
 20
0.0
 30
0.0
  9
$PUCSORGRIGHT
 10
0.0
 20
0.0
 30
0.0
  9
$PUCSORGFRONT
 10
0.0
 20
0.0
 30
0.0
  9
$PUCSORGBACK
 10
0.0
 20
0.0
 30
0.0
  9
$USERI1
 70
     0
  9
$USERI2
 70
     0
  9
$USERI3
 70
     0
  9
$USERI4
 70
     0
  9
$USERI5
 70
     0
  9
$USERR1
 40
0.0
  9
$USERR2
 40
0.0
  9
$USERR3
 40
0.0
  9
$USERR4
 40
0.0
  9
$USERR5
 40
0.0
  9
$WORLDVIEW
 70
     1
  9
$SHADEDGE
 70
     3
  9
$SHADEDIF
 70
    70
  9
$TILEMODE
 70
     1
  9
$MAXACTVP
 70
    16
  9
$PINSBASE
 10
0.0
 20
0.0
 30
0.0
  9
$PLIMCHECK
 70
     0
  9
$PEXTMIN
 10
1.000000000000000E+20
 20
1.000000000000000E+20
 30
1.000000000000000E+20
  9
$PEXTMAX
 10
-1.000000000000000E+20
 20
-1.000000000000000E+20
 30
-1.000000000000000E+20
  9
$PLIMMIN
 10
0.0
 20
0.0
  9
$PLIMMAX
 10
420.0
 20
297.0
  9
$UNITMODE
 70
     0
  9
$VISRETAIN
 70
     0
  9
$PLINEGEN
 70
     0
  9
$PSLTSCALE
 70
     0
  9
$TREEDEPTH
 70
  3020
  9
$CMLSTYLE
  2
STANDARD
  9
$CMLJUST
 70
     0
  9
$CMLSCALE
 40
1.0
  9
$PROXYGRAPHICS
 70
     1
  9
$MEASUREMENT
 70
     0
  9
$CELWEIGHT
370
    -1
  9
$ENDCAPS
280
     0
  9
$JOINSTYLE
280
     0
  9
$LWDISPLAY
290
     0
  9
$INSUNITS
 70
     0
  9
$HYPERLINKBASE
  1

  9
$STYLESHEET
  1

  9
$XEDIT
290
     1
  9
$CEPSNTYPE
380
     0
  9
$PSTYLEMODE
290
     1
  9
$FINGERPRINTGUID
  2
{B0FD52BC-9FD5-47F0-AF71-2931AE5D7F3E}
  9
$VERSIONGUID
  2
{88ADFC71-9D30-4C72-AC64-F7490F498D57}
  9
$EXTNAMES
290
     1
  9
$PSVPSCALE
 40
0.0
  9
$OLESTARTUP
290
     0
  0
ENDSEC
  0
SECTION
  2
CLASSES
  0
CLASS
  1
ACDBDICTIONARYWDFLT
  2
AcDbDictionaryWithDefault
  3
ObjectDBX Classes
 90
        0
280
     0
281
     0
  0
CLASS
  1
ACDBPLACEHOLDER
  2
AcDbPlaceHolder
  3
ObjectDBX Classes
 90
        0
280
     0
281
     0
  0
CLASS
  1
LAYOUT
  2
AcDbLayout
  3
ObjectDBX Classes
 90
        0
280
     0
281
     0
  0
CLASS
  1
DICTIONARYVAR
  2
AcDbDictionaryVar
  3
ObjectDBX Classes
 90
        0
280
     0
281
     0
  0
CLASS
  1
MATERIAL
  2
AcDbMaterial
  3
ObjectDBX Classes
 90
     1153
280
     0
281
     0
  0
CLASS
  1
VISUALSTYLE
  2
AcDbVisualStyle
  3
ObjectDBX Classes
 90
     4095
280
     0
281
     0
  0
CLASS
  1
TABLESTYLE
  2
AcDbTableStyle
  3
ObjectDBX Classes
 90
     4095
280
     0
281
     0
  0
CLASS
  1
SCALE
  2
AcDbScale
  3
ObjectDBX Classes
 90
     1153
280
     0
281
     0
  0
CLASS
  1
MLEADERSTYLE
  2
AcDbMLeaderStyle
  3
ACDB_MLEADERSTYLE_CLASS
 90
     4095
280
     0
281
     0
  0
CLASS
  1
ACDBSECTIONVIEWSTYLE
  2
AcDbSectionViewStyle
  3
ObjectDBX Classes
 90
     1025
280
     0
281
     0
  0
CLASS
  1
ACDBDETAILVIEWSTYLE
  2
AcDbDetailViewStyle
  3
ObjectDBX Classes
 90
     1025
280
     0
281
     0
  0
CLASS
  1
CELLSTYLEMAP
  2
AcDbCellStyleMap
  3
ObjectDBX Classes
 90
     1152
280
     0
281
     0
  0
ENDSEC
  0
SECTION
  2
TABLES
  0
TABLE
  2
VPORT
  5
A0A3
330
0
100
AcDbSymbolTable
 70
     1
  0
VPORT
  5
A272
330
A0A3
100
AcDbSymbolTableRecord
100
AcDbViewportTableRecord
  2
*ACTIVE
 70
     0
 10
0.0
 20
0.0
 11
1.0
 21
1.0
 12
346.7416856922138
 22
123.9900160856498
 13
0.0
 23
0.0
 14
10.0
 24
10.0
 15
10.0
 25
10.0
 16
0.0
 26
0.0
 36
1.0
 17
0.0
 27
0.0
 37
0.0
 40
287.9812941803534
 41
1.899603698811096
 42
50.0
 43
0.0
 44
0.0
 50
0.0
 51
0.0
 71
     0
 72
   100
 73
     1
 74
     0
 75
     0
 76
     0
 77
     0
 78
     0
281
     0
 65
     1
110
0.0
120
0.0
130
0.0
111
1.0
121
0.0
131
0.0
112
0.0
122
1.0
132
0.0
 79
     0
146
0.0
1001
ACAD_NAV_VCDISPLAY
1070
     3
  0
ENDTAB
  0
TABLE
  2
LTYPE
  5
A0A0
330
0
100
AcDbSymbolTable
 70
     4
  0
LTYPE
  5
A0AE
330
A0A0
100
AcDbSymbolTableRecord
100
AcDbLinetypeTableRecord
  2
BYBLOCK
 70
     0
  3

 72
    65
 73
     0
 40
0.0
  0
LTYPE
  5
A0AF
330
A0A0
100
AcDbSymbolTableRecord
100
AcDbLinetypeTableRecord
  2
BYLAYER
 70
     0
  3

 72
    65
 73
     0
 40
0.0
  0
LTYPE
  5
A0B0
330
A0A0
100
AcDbSymbolTableRecord
100
AcDbLinetypeTableRecord
  2
CONTINUOUS
 70
     0
  3
Solid line
 72
    65
 73
     0
 40
0.0
  0
LTYPE
  5
A0BE
330
A0A0
100
AcDbSymbolTableRecord
100
AcDbLinetypeTableRecord
  2
DASHED
 70
     0
  3
__ __ __ __ __ __ __ __ __ __ __ __ __ __ __ __
 72
    65
 73
     2
 40
0.75
 49
0.5
 74
     0
 49
-0.25
 74
     0
  0
LTYPE
  5
A0BF
330
A0A0
100
AcDbSymbolTableRecord
100
AcDbLinetypeTableRecord
  2
CENTER
 70
     0
  3
____ _ ____ _ ____ _ ____ _ ____ _ ____ _ ____ 
 72
    65
 73
     4
 40
2.0
 49
1.25
 74
     0
 49
-0.25
 74
     0
 49
0.25
 74
     0
 49
-0.25
 74
     0
  0
LTYPE
  5
A0C0
330
A0A0
100
AcDbSymbolTableRecord
100
AcDbLinetypeTableRecord
  2
PHANTOM
 70
     0
  3
______  __  __  ______  __  __  ______  __  __ 
 72
    65
 73
     6
 40
2.5
 49
1.25
 74
     0
 49
-0.25
 74
     0
 49
0.25
 74
     0
 49
-0.25
 74
     0
 49
0.25
 74
     0
 49
-0.25
 74
     0
  0
ENDTAB
  0
TABLE
  2
LAYER
  5
A09D
330
0
100
AcDbSymbolTable
 70
     8
  0
LAYER
  5
A0AB
102
{ACAD_XDICTIONARY
360
A2CD
102
}
330
A09D
100
AcDbSymbolTableRecord
100
AcDbLayerTableRecord
  2
0
 70
     0
 62
     7
  6
CONTINUOUS
370
    -3
390
A27B
  0
LAYER
  5
A0C1
102
{ACAD_XDICTIONARY
360
A2CF
102
}
330
A09D
100
AcDbSymbolTableRecord
100
AcDbLayerTableRecord
  2
4
 70
     0
 62
     1
  6
CENTER
370
    -3
390
A27B
  0
LAYER
  5
A0C2
102
{ACAD_XDICTIONARY
360
A2D1
102
}
330
A09D
100
AcDbSymbolTableRecord
100
AcDbLayerTableRecord
  2
5
 70
     0
 62
     6
  6
PHANTOM
370
    -3
390
A27B
  0
LAYER
  5
A0C3
102
{ACAD_XDICTIONARY
360
A2D3
102
}
330
A09D
100
AcDbSymbolTableRecord
100
AcDbLayerTableRecord
  2
1
 70
     0
 62
     7
  6
CONTINUOUS
370
    -3
390
A27B
  0
LAYER
  5
A0C4
102
{ACAD_XDICTIONARY
360
A2D5
102
}
330
A09D
100
AcDbSymbolTableRecord
100
AcDbLayerTableRecord
  2
2
 70
     0
 62
     4
  6
CONTINUOUS
370
    -3
390
A27B
  0
LAYER
  5
A0C5
102
{ACAD_XDICTIONARY
360
A2D7
102
}
330
A09D
100
AcDbSymbolTableRecord
100
AcDbLayerTableRecord
  2
3
 70
     0
 62
     2
  6
DASHED
370
    -3
390
A27B
  0
LAYER
  5
A0C6
102
{ACAD_XDICTIONARY
360
A2D9
102
}
330
A09D
100
AcDbSymbolTableRecord
100
AcDbLayerTableRecord
  2
6
 70
     0
 62
     5
  6
CONTINUOUS
370
    -3
390
A27B
  0
LAYER
  5
A0C7
102
{ACAD_XDICTIONARY
360
A2DB
102
}
330
A09D
100
AcDbSymbolTableRecord
100
AcDbLayerTableRecord
  2
7
 70
     0
 62
     3
  6
CONTINUOUS
370
    -3
390
A27B
  0
ENDTAB
  0
TABLE
  2
STYLE
  5
A09E
330
0
100
AcDbSymbolTable
 70
     1
  0
STYLE
  5
A0AC
330
A09E
100
AcDbSymbolTableRecord
100
AcDbTextStyleTableRecord
  2
STANDARD
 70
     0
 40
0.0
 41
1.0
 50
0.0
 71
     0
 42
5.0
  3
txt
  4

  0
ENDTAB
  0
TABLE
  2
VIEW
  5
A0A1
330
0
100
AcDbSymbolTable
 70
     0
  0
ENDTAB
  0
TABLE
  2
UCS
  5
A0A2
330
0
100
AcDbSymbolTable
 70
     0
  0
ENDTAB
  0
TABLE
  2
APPID
  5
A0A4
330
0
100
AcDbSymbolTable
 70
     3
  0
APPID
  5
A0AD
330
A0A4
100
AcDbSymbolTableRecord
100
AcDbRegAppTableRecord
  2
ACAD
 70
     0
  0
APPID
  5
A2E7
330
A0A4
100
AcDbSymbolTableRecord
100
AcDbRegAppTableRecord
  2
ACAD_NAV_VCDISPLAY
 70
     0
  0
APPID
  5
A320
330
A0A4
100
AcDbSymbolTableRecord
100
AcDbRegAppTableRecord
  2
ACAD_MLEADERVER
 70
     0
  0
ENDTAB
  0
TABLE
  2
DIMSTYLE
  5
A0A5
330
0
100
AcDbSymbolTable
 70
     1
100
AcDbDimStyleTable
 71
     0
  0
DIMSTYLE
105
A0C9
330
A0A5
100
AcDbSymbolTableRecord
100
AcDbDimStyleTableRecord
  2
STANDARD
 70
     0
 41
2.5
 42
1.0
 43
10.0
 44
1.0
 73
     0
 74
     0
 77
     3
 78
     8
140
3.2
141
0.0
147
1.0
172
     1
173
     1
284
     8
285
     8
286
     8
340
A0AC
  0
ENDTAB
  0
TABLE
  2
BLOCK_RECORD
  5
A09C
330
0
100
AcDbSymbolTable
 70
     1
  0
BLOCK_RECORD
  5
A0B9
102
{ACAD_XDICTIONARY
360
A275
102
}
330
A09C
100
AcDbSymbolTableRecord
100
AcDbBlockTableRecord
  2
*MODEL_SPACE
340
A2C9
  0
BLOCK_RECORD
  5
A0B5
102
{ACAD_XDICTIONARY
360
A273
102
}
330
A09C
100
AcDbSymbolTableRecord
100
AcDbBlockTableRecord
  2
*PAPER_SPACE
340
A2CA
  0
BLOCK_RECORD
  5
A0D1
330
A09C
100
AcDbSymbolTableRecord
100
AcDbBlockTableRecord
  2
_OPEN
340
0
  0
ENDTAB
  0
ENDSEC
  0
SECTION
  2
BLOCKS
  0
BLOCK
  5
A0BA
330
A0B9
100
AcDbEntity
  8
0
100
AcDbBlockBegin
  2
*MODEL_SPACE
 70
     0
 10
0.0
 20
0.0
 30
0.0
  3
*MODEL_SPACE
  1

  0
ENDBLK
  5
A0BB
330
A0B9
100
AcDbEntity
  8
0
100
AcDbBlockEnd
  0
BLOCK
  5
A0B6
330
A0B5
100
AcDbEntity
 67
     1
  8
0
100
AcDbBlockBegin
  2
*PAPER_SPACE
 70
     0
 10
0.0
 20
0.0
 30
0.0
  3
*PAPER_SPACE
  1

  0
ENDBLK
  5
A0B7
330
A0B5
100
AcDbEntity
 67
     1
  8
0
100
AcDbBlockEnd
  0
BLOCK
  5
A0D2
330
A0D1
100
AcDbEntity
  8
0
100
AcDbBlockBegin
  2
_OPEN
 70
     0
 10
0.0
 20
0.0
 30
0.0
  3
_OPEN
  1

  0
LINE
  5
A0D3
330
A0D1
100
AcDbEntity
  8
0
  6
ByBlock
 62
     0
100
AcDbLine
 10
-1.0
 20
0.166667
 30
0.0
 11
0.0
 21
0.0
 31
0.0
  0
LINE
  5
A0D4
330
A0D1
100
AcDbEntity
  8
0
  6
ByBlock
 62
     0
100
AcDbLine
 10
0.0
 20
0.0
 30
0.0
 11
-1.0
 21
-0.166667
 31
0.0
  0
LINE
  5
A0D5
330
A0D1
100
AcDbEntity
  8
0
  6
ByBlock
 62
     0
100
AcDbLine
 10
0.0
 20
0.0
 30
0.0
 11
-1.0
 21
0.0
 31
0.0
  0
ENDBLK
  5
A0D6
330
A0D1
100
AcDbEntity
  8
0
100
AcDbBlockEnd
  0
ENDSEC
  0
SECTION
  2
ENTITIES
  0
TEXT
  5
A0D7
330
A0B9
100
AcDbEntity
  8
7
  6
Continuous
100
AcDbText
 10
10.0
 20
18.0
 30
0.0
 40
3.0
  1
TYPE No.TL-94-003
100
AcDbText
  0
TEXT
  5
A0D8
330
A0B9
100
AcDbEntity
  8
7
  6
Continuous
100
AcDbText
 10
10.0
 20
26.0
 30
0.0
 40
3.0
  1
CODE No.1904
100
AcDbText
  0
TEXT
  5
A0D9
330
A0B9
100
AcDbEntity
  8
1
  6
Continuous
100
AcDbText
 10
10.0
 20
10.0
 30
0.0
 40
1.399999999999999
  1
LAYER
100
AcDbText
  0
TEXT
  5
A0DA
330
A0B9
100
AcDbEntity
  8
1
  6
Continuous
100
AcDbText
 10
17.97951099999998
 20
10.04873699999998
 30
0.0
 40
1.399999999999999
  1
1
100
AcDbText
  0
TEXT
  5
A0DB
330
A0B9
100
AcDbEntity
  8
7
  6
Continuous
100
AcDbText
 10
29.97951099999999
 20
10.04873699999998
 30
0.0
 40
1.399999999999999
  1
7
100
AcDbText
  0
TEXT
  5
A0DC
330
A0B9
100
AcDbEntity
  8
4
  6
CENTER
100
AcDbText
 10
23.97951099999999
 20
10.04873699999998
 30
0.0
 40
1.399999999999999
  1
4
100
AcDbText
  0
TEXT
  5
A0DD
330
A0B9
100
AcDbEntity
  8
3
  6
DASHED
100
AcDbText
 10
21.979511
 20
10.04873699999998
 30
0.0
 40
1.399999999999999
  1
3
100
AcDbText
  0
TEXT
  5
A0DE
330
A0B9
100
AcDbEntity
  8
2
  6
Continuous
100
AcDbText
 10
19.97951099999999
 20
10.04873699999998
 30
0.0
 40
1.399999999999999
  1
2
100
AcDbText
  0
TEXT
  5
A0DF
330
A0B9
100
AcDbEntity
  8
6
  6
Continuous
100
AcDbText
 10
27.979511
 20
10.04873699999998
 30
0.0
 40
1.399999999999999
  1
6
100
AcDbText
  0
TEXT
  5
A0E0
330
A0B9
100
AcDbEntity
  8
5
  6
PHANTOM
100
AcDbText
 10
25.97951099999999
 20
10.04873699999998
 30
0.0
 40
1.399999999999999
  1
5
100
AcDbText
  0
LINE
  5
A0E1
330
A0B9
100
AcDbEntity
  8
1
  6
Continuous
100
AcDbLine
 10
35.53073799999999
 20
133.5107139999998
 30
0.0
 11
35.53073799999999
 21
146.796334
 31
0.0
  0
LINE
  5
A0E2
330
A0B9
100
AcDbEntity
  8
1
  6
Continuous
100
AcDbLine
 10
37.330733
 20
133.510715
 30
0.0
 11
37.330733
 21
146.796333
 31
0.0
  0
CIRCLE
  5
A0E3
330
A0B9
100
AcDbEntity
  8
1
  6
Continuous
100
AcDbCircle
 10
36.43073199999999
 20
140.153524
 30
0.0
 40
8.0
  0
LINE
  5
A0E4
330
A0B9
100
AcDbEntity
  8
1
  6
Continuous
100
AcDbLine
 10
28.430732
 20
159.1535239999998
 30
0.0
 11
28.430732
 21
143.153524
 31
0.0
  0
LINE
  5
A0E5
330
A0B9
100
AcDbEntity
  8
1
  6
Continuous
100
AcDbLine
 10
44.43073199999999
 20
159.1535239999998
 30
0.0
 11
44.43073199999999
 21
121.153524
 31
0.0
  0
LINE
  5
A0E6
330
A0B9
100
AcDbEntity
  8
1
  6
Continuous
100
AcDbLine
 10
26.43073199999999
 20
137.153524
 30
0.0
 11
28.430732
 21
137.153524
 31
0.0
  0
LINE
  5
A0E7
330
A0B9
100
AcDbEntity
  8
1
  6
Continuous
100
AcDbLine
 10
26.43073199999999
 20
143.153524
 30
0.0
 11
28.430732
 21
143.153524
 31
0.0
  0
LINE
  5
A0E8
330
A0B9
100
AcDbEntity
  8
1
  6
Continuous
100
AcDbLine
 10
26.43073199999999
 20
143.153524
 30
0.0
 11
26.43073199999999
 21
137.153524
 31
0.0
  0
LINE
  5
A0E9
330
A0B9
100
AcDbEntity
  8
1
  6
Continuous
100
AcDbLine
 10
28.430732
 20
137.153524
 30
0.0
 11
28.430732
 21
121.153524
 31
0.0
  0
LINE
  5
A0EA
330
A0B9
100
AcDbEntity
  8
1
  6
Continuous
100
AcDbLine
 10
201.117348
 20
113.153524
 30
0.0
 11
202.7173389999999
 21
113.153524
 31
0.0
  0
LINE
  5
A0EB
330
A0B9
100
AcDbEntity
  8
1
  6
Continuous
100
AcDbLine
 10
201.117348
 20
167.153524
 30
0.0
 11
202.7173389999999
 21
167.153524
 31
0.0
  0
LINE
  5
A0EC
330
A0B9
100
AcDbEntity
  8
1
  6
Continuous
100
AcDbLine
 10
201.117348
 20
167.153524
 30
0.0
 11
201.117348
 21
113.153524
 31
0.0
  0
LINE
  5
A0ED
330
A0B9
100
AcDbEntity
  8
1
  6
Continuous
100
AcDbLine
 10
202.7173389999999
 20
167.153524
 30
0.0
 11
202.7173389999999
 21
113.153524
 31
0.0
  0
ARC
  5
A0EE
330
A0B9
100
AcDbEntity
  8
1
  6
Continuous
100
AcDbCircle
 10
36.43073199999999
 20
121.153524
 30
0.0
 40
8.0
100
AcDbArc
 50
180.000009
 51
0.0
  0
ARC
  5
A0EF
330
A0B9
100
AcDbEntity
  8
1
  6
Continuous
100
AcDbCircle
 10
36.43073199999999
 20
159.1535239999998
 30
0.0
 40
8.0
100
AcDbArc
 50
0.0
 51
180.000005
  0
LINE
  5
A0F0
330
A0B9
100
AcDbEntity
  8
1
  6
Continuous
100
AcDbLine
 10
208.517352
 20
134.053526
 30
0.0
 11
208.517352
 21
146.253523
 31
0.0
  0
LINE
  5
A0F1
330
A0B9
100
AcDbEntity
  8
1
  6
Continuous
100
AcDbLine
 10
208.517352
 20
134.053526
 30
0.0
 11
207.0173519999999
 21
134.053526
 31
0.0
  0
LINE
  5
A0F2
330
A0B9
100
AcDbEntity
  8
1
  6
Continuous
100
AcDbLine
 10
208.517352
 20
146.253523
 30
0.0
 11
207.0173519999999
 21
146.253523
 31
0.0
  0
LINE
  5
A0F3
330
A0B9
100
AcDbEntity
  8
1
  6
Continuous
100
AcDbLine
 10
207.0173519999999
 20
134.053526
 30
0.0
 11
207.0173519999999
 21
146.253523
 31
0.0
  0
LINE
  5
A0F4
330
A0B9
100
AcDbEntity
  8
1
  6
Continuous
100
AcDbLine
 10
213.5173519999999
 20
135.153524
 30
0.0
 11
213.5173519999999
 21
145.153524
 31
0.0
  0
LINE
  5
A0F5
330
A0B9
100
AcDbEntity
  8
1
  6
Continuous
100
AcDbLine
 10
208.517352
 20
134.3800249999999
 30
0.0
 11
208.517352
 21
145.9270379999999
 31
0.0
  0
LINE
  5
A0F6
330
A0B9
100
AcDbEntity
  8
1
  6
Continuous
100
AcDbLine
 10
213.070788
 20
134.3800249999999
 30
0.0
 11
208.517352
 21
134.3800249999999
 31
0.0
  0
LINE
  5
A0F7
330
A0B9
100
AcDbEntity
  8
1
  6
Continuous
100
AcDbLine
 10
213.070788
 20
137.2667749999999
 30
0.0
 11
208.517352
 21
137.2667749999999
 31
0.0
  0
LINE
  5
A0F8
330
A0B9
100
AcDbEntity
  8
1
  6
Continuous
100
AcDbLine
 10
213.070788
 20
143.0402729999999
 30
0.0
 11
208.517352
 21
143.0402729999999
 31
0.0
  0
LINE
  5
A0F9
330
A0B9
100
AcDbEntity
  8
1
  6
Continuous
100
AcDbLine
 10
213.070788
 20
145.9270379999999
 30
0.0
 11
208.517352
 21
145.9270379999999
 31
0.0
  0
LINE
  5
A0FA
330
A0B9
100
AcDbEntity
  8
1
  6
Continuous
100
AcDbLine
 10
213.5173439999999
 20
145.153532
 30
0.0
 11
213.070758
 21
145.9270379999999
 31
0.0
  0
LINE
  5
A0FB
330
A0B9
100
AcDbEntity
  8
1
  6
Continuous
100
AcDbLine
 10
213.5173519999999
 20
135.153532
 30
0.0
 11
213.070765
 21
134.380022
 31
0.0
  0
ARC
  5
A0FC
330
A0B9
100
AcDbEntity
  8
1
  6
Continuous
100
AcDbCircle
 10
210.9615349999999
 20
144.483648
 30
0.0
 40
2.55582
100
AcDbArc
 50
325.6156889999999
 51
34.38432799999999
  0
ARC
  5
A0FD
330
A0B9
100
AcDbEntity
  8
1
  6
Continuous
100
AcDbCircle
 10
203.9639769999999
 20
140.153524
 30
0.0
 40
9.553395999999999
100
AcDbArc
 50
342.4119979999999
 51
17.58797799999999
  0
ARC
  5
A0FE
330
A0B9
100
AcDbEntity
  8
1
  6
Continuous
100
AcDbCircle
 10
210.9615349999999
 20
135.8233999999999
 30
0.0
 40
2.55582
100
AcDbArc
 50
325.6156889999999
 51
34.384315
  0
LINE
  5
A0FF
330
A0B9
100
AcDbEntity
  8
1
  6
Continuous
100
AcDbLine
 10
205.0173519999999
 20
147.153524
 30
0.0
 11
207.0173519999999
 21
147.153524
 31
0.0
  0
LINE
  5
A100
330
A0B9
100
AcDbEntity
  8
1
  6
Continuous
100
AcDbLine
 10
205.0173519999999
 20
133.153524
 30
0.0
 11
207.0173519999999
 21
133.153524
 31
0.0
  0
LINE
  5
A101
330
A0B9
100
AcDbEntity
  8
1
  6
Continuous
100
AcDbLine
 10
205.0173519999999
 20
147.153524
 30
0.0
 11
205.0173519999999
 21
133.153524
 31
0.0
  0
LINE
  5
A102
330
A0B9
100
AcDbEntity
  8
1
  6
Continuous
100
AcDbLine
 10
207.0173519999999
 20
147.153524
 30
0.0
 11
207.0173519999999
 21
133.153524
 31
0.0
  0
LINE
  5
A103
330
A0B9
100
AcDbEntity
  8
4
  6
CENTER
100
AcDbLine
 10
36.43073199999999
 20
108.153524
 30
0.0
 11
36.43073199999999
 21
185.153524
 31
0.0
  0
LINE
  5
A104
330
A0B9
100
AcDbEntity
  8
4
  6
CENTER
100
AcDbLine
 10
138.43075
 20
140.153524
 30
0.0
 11
170.430753
 21
140.153524
 31
0.0
  0
LINE
  5
A105
330
A0B9
100
AcDbEntity
  8
4
  6
CENTER
100
AcDbLine
 10
21.43073199999999
 20
140.153524
 30
0.0
 11
81.43073199999998
 21
140.153524
 31
0.0
  0
ARC
  5
A106
330
A0B9
100
AcDbEntity
  8
1
  6
Continuous
100
AcDbCircle
 10
36.43073199999999
 20
140.153524
 30
0.0
 40
6.7035
100
AcDbArc
 50
82.28426299999998
 51
97.71567700000002
  0
ARC
  5
A107
330
A0B9
100
AcDbEntity
  8
1
  6
Continuous
100
AcDbCircle
 10
36.43073199999999
 20
140.153524
 30
0.0
 40
6.7035
100
AcDbArc
 50
262.2843229999999
 51
277.7157369999998
  0
ARC
  5
A108
330
A0B9
100
AcDbEntity
  8
1
  6
Continuous
100
AcDbCircle
 10
155.5974169999998
 20
140.153524
 30
0.0
 40
12.166667
100
AcDbArc
 50
138.887908
 51
221.112088
  0
LINE
  5
A109
330
A0B9
100
AcDbEntity
  8
1
  6
Continuous
100
AcDbLine
 10
146.430753
 20
148.153524
 30
0.0
 11
146.430753
 21
132.1535239999998
 31
0.0
  0
LINE
  5
A10A
330
A0B9
100
AcDbEntity
  8
1
  6
Continuous
100
AcDbLine
 10
148.430753
 20
148.153524
 30
0.0
 11
148.430753
 21
132.1535239999998
 31
0.0
  0
LINE
  5
A10B
330
A0B9
100
AcDbEntity
  8
1
  6
Continuous
100
AcDbLine
 10
146.430753
 20
132.1535239999998
 30
0.0
 11
148.430753
 21
132.1535239999998
 31
0.0
  0
LINE
  5
A10C
330
A0B9
100
AcDbEntity
  8
2
  6
Continuous
100
AcDbLine
 10
156.430753
 20
142.6120349999999
 30
0.0
 11
164.5124099999999
 21
142.6120349999999
 31
0.0
  0
LINE
  5
A10D
330
A0B9
100
AcDbEntity
  8
1
  6
Continuous
100
AcDbLine
 10
154.430753
 20
143.153524
 30
0.0
 11
163.9307599999999
 21
143.153524
 31
0.0
  0
LINE
  5
A10E
330
A0B9
100
AcDbEntity
  8
2
  6
Continuous
100
AcDbLine
 10
156.430753
 20
137.695028
 30
0.0
 11
164.5124099999999
 21
137.695028
 31
0.0
  0
LINE
  5
A10F
330
A0B9
100
AcDbEntity
  8
1
  6
Continuous
100
AcDbLine
 10
154.430753
 20
137.153524
 30
0.0
 11
163.9307599999999
 21
137.153524
 31
0.0
  0
LINE
  5
A110
330
A0B9
100
AcDbEntity
  8
2
  6
Continuous
100
AcDbLine
 10
155.492848
 20
143.153524
 30
0.0
 11
156.430753
 21
142.6120199999998
 31
0.0
  0
LINE
  5
A111
330
A0B9
100
AcDbEntity
  8
2
  6
Continuous
100
AcDbLine
 10
154.4307599999999
 20
144.153524
 30
0.0
 11
151.4307599999999
 21
140.4040119999999
 31
0.0
  0
LINE
  5
A112
330
A0B9
100
AcDbEntity
  8
2
  6
Continuous
100
AcDbLine
 10
151.430753
 20
144.153524
 30
0.0
 11
154.430753
 21
140.404027
 31
0.0
  0
LINE
  5
A113
330
A0B9
100
AcDbEntity
  8
1
  6
Continuous
100
AcDbLine
 10
151.430753
 20
140.4040119999999
 30
0.0
 11
154.430753
 21
140.4040119999999
 31
0.0
  0
LINE
  5
A114
330
A0B9
100
AcDbEntity
  8
1
  6
Continuous
100
AcDbLine
 10
148.430753
 20
145.153524
 30
0.0
 11
149.430753
 21
145.153524
 31
0.0
  0
LINE
  5
A115
330
A0B9
100
AcDbEntity
  8
1
  6
Continuous
100
AcDbLine
 10
146.430753
 20
148.153524
 30
0.0
 11
148.430753
 21
148.153524
 31
0.0
  0
LINE
  5
A116
330
A0B9
100
AcDbEntity
  8
1
  6
Continuous
100
AcDbLine
 10
149.430753
 20
144.153524
 30
0.0
 11
154.430753
 21
144.153524
 31
0.0
  0
LINE
  5
A117
330
A0B9
100
AcDbEntity
  8
2
  6
Continuous
100
AcDbLine
 10
155.492848
 20
137.153524
 30
0.0
 11
156.430753
 21
137.695028
 31
0.0
  0
LINE
  5
A118
330
A0B9
100
AcDbEntity
  8
2
  6
Continuous
100
AcDbLine
 10
151.430753
 20
139.9030359999999
 30
0.0
 11
154.430753
 21
136.153539
 31
0.0
  0
LINE
  5
A119
330
A0B9
100
AcDbEntity
  8
2
  6
Continuous
100
AcDbLine
 10
154.430753
 20
139.9030359999999
 30
0.0
 11
151.4307599999999
 21
136.153524
 31
0.0
  0
LINE
  5
A11A
330
A0B9
100
AcDbEntity
  8
1
  6
Continuous
100
AcDbLine
 10
151.430753
 20
139.9030359999999
 30
0.0
 11
154.430753
 21
139.9030359999999
 31
0.0
  0
LINE
  5
A11B
330
A0B9
100
AcDbEntity
  8
1
  6
Continuous
100
AcDbLine
 10
148.430753
 20
135.153524
 30
0.0
 11
149.430753
 21
135.153524
 31
0.0
  0
LINE
  5
A11C
330
A0B9
100
AcDbEntity
  8
1
  6
Continuous
100
AcDbLine
 10
149.430753
 20
136.153524
 30
0.0
 11
154.430753
 21
136.153524
 31
0.0
  0
LINE
  5
A11D
330
A0B9
100
AcDbEntity
  8
1
  6
Continuous
100
AcDbLine
 10
156.430753
 20
143.153524
 30
0.0
 11
156.430753
 21
137.153524
 31
0.0
  0
LINE
  5
A11E
330
A0B9
100
AcDbEntity
  8
1
  6
Continuous
100
AcDbLine
 10
154.430753
 20
144.153524
 30
0.0
 11
154.430753
 21
136.153524
 31
0.0
  0
LINE
  5
A11F
330
A0B9
100
AcDbEntity
  8
1
  6
Continuous
100
AcDbLine
 10
151.430753
 20
144.153524
 30
0.0
 11
151.430753
 21
136.153524
 31
0.0
  0
LINE
  5
A120
330
A0B9
100
AcDbEntity
  8
1
  6
Continuous
100
AcDbLine
 10
149.430753
 20
145.153524
 30
0.0
 11
149.430753
 21
135.153524
 31
0.0
  0
ARC
  5
A121
330
A0B9
100
AcDbEntity
  8
1
  6
Continuous
100
AcDbCircle
 10
161.680753
 20
140.153524
 30
0.0
 40
3.75
100
AcDbArc
 50
306.8698979999999
 51
53.130102
  0
LINE
  5
A122
330
A0B9
100
AcDbEntity
  8
1
  6
Continuous
100
AcDbLine
 10
163.9307599999999
 20
143.153524
 30
0.0
 11
163.9307599999999
 21
137.153524
 31
0.0
  0
LINE
  5
A123
330
A0B9
100
AcDbEntity
  8
1
  6
Continuous
100
AcDbLine
 10
207.0173519999999
 20
140.153524
 30
0.0
 11
208.517352
 21
141.6535239999998
 31
0.0
  0
LINE
  5
A124
330
A0B9
100
AcDbEntity
  8
1
  6
Continuous
100
AcDbLine
 10
207.0173519999999
 20
138.653524
 30
0.0
 11
208.517352
 21
140.153524
 31
0.0
  0
LINE
  5
A125
330
A0B9
100
AcDbEntity
  8
4
  6
CENTER
100
AcDbLine
 10
324.7051309999998
 20
108.153524
 30
0.0
 11
324.7051309999998
 21
185.153524
 31
0.0
  0
LINE
  5
A126
330
A0B9
100
AcDbEntity
  8
4
  6
CENTER
100
AcDbLine
 10
339.705131
 20
140.153524
 30
0.0
 11
279.705131
 21
140.153524
 31
0.0
  0
ARC
  5
A127
330
A0B9
100
AcDbEntity
  8
1
  6
Continuous
100
AcDbCircle
 10
324.7051309999998
 20
159.1535239999998
 30
0.0
 40
8.0
100
AcDbArc
 50
359.999995
 51
41.622431
  0
ARC
  5
A128
330
A0B9
100
AcDbEntity
  8
1
  6
Continuous
100
AcDbCircle
 10
324.7051309999998
 20
121.153524
 30
0.0
 40
8.0
100
AcDbArc
 50
179.9999909999999
 51
359.9999829999999
  0
LINE
  5
A129
330
A0B9
100
AcDbEntity
  8
1
  6
Continuous
100
AcDbLine
 10
316.705131
 20
159.1535239999998
 30
0.0
 11
316.705131
 21
149.7582109999999
 31
0.0
  0
LINE
  5
A12A
330
A0B9
100
AcDbEntity
  8
1
  6
Continuous
100
AcDbLine
 10
333.1051249999998
 20
143.153524
 30
0.0
 11
333.1051249999998
 21
137.153524
 31
0.0
  0
LINE
  5
A12B
330
A0B9
100
AcDbEntity
  8
1
  6
Continuous
100
AcDbLine
 10
334.7051309999999
 20
143.153524
 30
0.0
 11
334.7051309999999
 21
137.153524
 31
0.0
  0
LINE
  5
A12C
330
A0B9
100
AcDbEntity
  8
1
  6
Continuous
100
AcDbLine
 10
334.7051309999999
 20
137.153524
 30
0.0
 11
332.7051309999998
 21
137.153524
 31
0.0
  0
LINE
  5
A12D
330
A0B9
100
AcDbEntity
  8
1
  6
Continuous
100
AcDbLine
 10
332.7051309999998
 20
137.153524
 30
0.0
 11
332.7051309999998
 21
121.153524
 31
0.0
  0
LINE
  5
A12E
330
A0B9
100
AcDbEntity
  8
1
  6
Continuous
100
AcDbLine
 10
334.7051309999999
 20
143.153524
 30
0.0
 11
332.7051309999998
 21
143.153524
 31
0.0
  0
LINE
  5
A12F
330
A0B9
100
AcDbEntity
  8
1
  6
Continuous
100
AcDbLine
 10
332.7051309999998
 20
159.1535239999998
 30
0.0
 11
332.7051309999998
 21
149.7582109999999
 31
0.0
  0
ARC
  5
A130
330
A0B9
100
AcDbEntity
  8
1
  6
Continuous
100
AcDbCircle
 10
324.7051309999998
 20
159.1535239999998
 30
0.0
 40
8.0
100
AcDbArc
 50
138.377756
 51
180.000005
  0
LINE
  5
A131
330
A0B9
100
AcDbEntity
  8
1
  6
Continuous
100
AcDbLine
 10
316.705131
 20
130.5488379999999
 30
0.0
 11
316.705131
 21
121.153524
 31
0.0
  0
CIRCLE
  5
A132
330
A0B9
100
AcDbEntity
  8
1
  6
Continuous
100
AcDbCircle
 10
324.7051309999998
 20
140.153524
 30
0.0
 40
7.0
  0
CIRCLE
  5
A133
330
A0B9
100
AcDbEntity
  8
1
  6
Continuous
100
AcDbCircle
 10
324.7051309999998
 20
140.153524
 30
0.0
 40
6.099999999999997
  0
LINE
  5
A134
330
A0B9
100
AcDbEntity
  8
1
  6
Continuous
100
AcDbLine
 10
324.705127
 20
145.9270379999999
 30
0.0
 11
329.705139
 21
143.0402879999998
 31
0.0
  0
LINE
  5
A135
330
A0B9
100
AcDbEntity
  8
1
  6
Continuous
100
AcDbLine
 10
324.7051159999998
 20
145.92703
 30
0.0
 11
319.70512
 21
143.0402809999999
 31
0.0
  0
CIRCLE
  5
A136
330
A0B9
100
AcDbEntity
  8
1
  6
Continuous
100
AcDbCircle
 10
324.7051309999998
 20
140.153524
 30
0.0
 40
5.0
  0
LINE
  5
A137
330
A0B9
100
AcDbEntity
  8
1
  6
Continuous
100
AcDbLine
 10
319.70512
 20
137.2667749999999
 30
0.0
 11
324.7051159999998
 21
134.3800249999999
 31
0.0
  0
CIRCLE
  5
A138
330
A0B9
100
AcDbEntity
  8
2
  6
Continuous
100
AcDbCircle
 10
324.7051309999998
 20
140.153524
 30
0.0
 40
2.458499999999999
  0
CIRCLE
  5
A139
330
A0B9
100
AcDbEntity
  8
1
  6
Continuous
100
AcDbCircle
 10
324.7051309999998
 20
140.153524
 30
0.0
 40
3.0
  0
LINE
  5
A13A
330
A0B9
100
AcDbEntity
  8
1
  6
Continuous
100
AcDbLine
 10
319.7051309999999
 20
137.2667749999999
 30
0.0
 11
319.7051309999999
 21
143.0402729999999
 31
0.0
  0
LINE
  5
A13B
330
A0B9
100
AcDbEntity
  8
1
  6
Continuous
100
AcDbLine
 10
329.7051159999999
 20
137.2667749999999
 30
0.0
 11
324.705122
 21
134.380022
 31
0.0
  0
LINE
  5
A13C
330
A0B9
100
AcDbEntity
  8
1
  6
Continuous
100
AcDbLine
 10
329.705131
 20
137.2667749999999
 30
0.0
 11
329.705131
 21
143.0402729999999
 31
0.0
  0
LINE
  5
A13D
330
A0B9
100
AcDbEntity
  8
4
  6
CENTER
100
AcDbLine
 10
196.117348
 20
140.153524
 30
0.0
 11
218.917352
 21
140.153524
 31
0.0
  0
LINE
  5
A13E
330
A0B9
100
AcDbEntity
  8
4
  6
CENTER
100
AcDbLine
 10
138.43075
 20
54.47972599999999
 30
0.0
 11
170.430753
 21
54.47972599999999
 31
0.0
  0
LINE
  5
A13F
330
A0B9
100
AcDbEntity
  8
1
  6
Continuous
100
AcDbLine
 10
205.0173519999999
 20
47.47972599999999
 30
0.0
 11
207.0173519999999
 21
47.47972599999999
 31
0.0
  0
LINE
  5
A140
330
A0B9
100
AcDbEntity
  8
1
  6
Continuous
100
AcDbLine
 10
205.0173519999999
 20
61.479726
 30
0.0
 11
207.0173519999999
 21
61.479726
 31
0.0
  0
LINE
  5
A141
330
A0B9
100
AcDbEntity
  8
4
  6
CENTER
100
AcDbLine
 10
196.117348
 20
54.47972599999999
 30
0.0
 11
230.4173519999999
 21
54.47972599999999
 31
0.0
  0
LINE
  5
A142
330
A0B9
100
AcDbEntity
  8
1
  6
Continuous
100
AcDbLine
 10
205.0173519999999
 20
61.479726
 30
0.0
 11
205.0173519999999
 21
47.47972599999999
 31
0.0
  0
LINE
  5
A143
330
A0B9
100
AcDbEntity
  8
1
  6
Continuous
100
AcDbLine
 10
208.517352
 20
48.379728
 30
0.0
 11
208.517352
 21
60.579725
 31
0.0
  0
LINE
  5
A144
330
A0B9
100
AcDbEntity
  8
1
  6
Continuous
100
AcDbLine
 10
207.0173519999999
 20
48.379728
 30
0.0
 11
207.0173519999999
 21
60.579725
 31
0.0
  0
LINE
  5
A145
330
A0B9
100
AcDbEntity
  8
1
  6
Continuous
100
AcDbLine
 10
208.517352
 20
48.706227
 30
0.0
 11
208.517352
 21
60.25324000000001
 31
0.0
  0
LINE
  5
A146
330
A0B9
100
AcDbEntity
  8
1
  6
Continuous
100
AcDbLine
 10
207.0173519999999
 20
61.479726
 30
0.0
 11
207.0173519999999
 21
47.47972599999999
 31
0.0
  0
LINE
  5
A147
330
A0B9
100
AcDbEntity
  8
1
  6
Continuous
100
AcDbLine
 10
208.517352
 20
48.379728
 30
0.0
 11
207.0173519999999
 21
48.379728
 31
0.0
  0
LINE
  5
A148
330
A0B9
100
AcDbEntity
  8
1
  6
Continuous
100
AcDbLine
 10
207.0173519999999
 20
54.47972599999999
 30
0.0
 11
208.517352
 21
55.979726
 31
0.0
  0
LINE
  5
A149
330
A0B9
100
AcDbEntity
  8
1
  6
Continuous
100
AcDbLine
 10
207.0173519999999
 20
52.979726
 30
0.0
 11
208.517352
 21
54.47972599999999
 31
0.0
  0
LINE
  5
A14A
330
A0B9
100
AcDbEntity
  8
1
  6
Continuous
100
AcDbLine
 10
208.517352
 20
60.579725
 30
0.0
 11
207.0173519999999
 21
60.579725
 31
0.0
  0
LINE
  5
A14B
330
A0B9
100
AcDbEntity
  8
1
  6
Continuous
100
AcDbLine
 10
201.117348
 20
46.479726
 30
0.0
 11
201.117348
 21
62.479726
 31
0.0
  0
ARC
  5
A14C
330
A0B9
100
AcDbEntity
  8
1
  6
Continuous
100
AcDbCircle
 10
202.717354
 20
46.479726
 30
0.0
 40
1.6
100
AcDbArc
 50
180.0000029999999
 51
262.653973
  0
LINE
  5
A14D
330
A0B9
100
AcDbEntity
  8
1
  6
Continuous
100
AcDbLine
 10
205.7173539999999
 20
46.07973199999999
 30
0.0
 11
202.717354
 21
46.479733
 31
0.0
  0
LINE
  5
A14E
330
A0B9
100
AcDbEntity
  8
1
  6
Continuous
100
AcDbLine
 10
205.7173539999999
 20
44.47972599999999
 30
0.0
 11
202.5127789999999
 21
44.89285699999999
 31
0.0
  0
LINE
  5
A14F
330
A0B9
100
AcDbEntity
  8
1
  6
Continuous
100
AcDbLine
 10
205.7173539999999
 20
44.47972599999999
 30
0.0
 11
205.7173539999999
 21
46.079724
 31
0.0
  0
LINE
  5
A150
330
A0B9
100
AcDbEntity
  8
1
  6
Continuous
100
AcDbLine
 10
202.717354
 20
46.479726
 30
0.0
 11
201.117348
 21
46.479726
 31
0.0
  0
LINE
  5
A151
330
A0B9
100
AcDbEntity
  8
1
  6
Continuous
100
AcDbLine
 10
202.717354
 20
62.479726
 30
0.0
 11
201.117348
 21
62.479726
 31
0.0
  0
ARC
  5
A152
330
A0B9
100
AcDbEntity
  8
1
  6
Continuous
100
AcDbCircle
 10
206.2964969999999
 20
56.98418199999998
 30
0.0
 40
7.220869999999998
100
AcDbArc
 50
339.7438009999999
 51
20.25620799999998
  0
ARC
  5
A153
330
A0B9
100
AcDbEntity
  8
1
  6
Continuous
100
AcDbCircle
 10
206.2964969999999
 20
51.98418199999998
 30
0.0
 40
7.220869999999998
100
AcDbArc
 50
339.7438009999999
 51
20.25620799999998
  0
LINE
  5
A154
330
A0B9
100
AcDbEntity
  8
1
  6
Continuous
100
AcDbLine
 10
208.517352
 20
59.48418199999998
 30
0.0
 11
213.5173599999999
 21
59.48418199999998
 31
0.0
  0
LINE
  5
A155
330
A0B9
100
AcDbEntity
  8
1
  6
Continuous
100
AcDbLine
 10
208.517352
 20
49.48418199999998
 30
0.0
 11
213.5173599999999
 21
49.48418199999998
 31
0.0
  0
LINE
  5
A156
330
A0B9
100
AcDbEntity
  8
1
  6
Continuous
100
AcDbLine
 10
213.5173599999999
 20
59.48418199999998
 30
0.0
 11
213.5173599999999
 21
49.48418199999998
 31
0.0
  0
LINE
  5
A157
330
A0B9
100
AcDbEntity
  8
1
  6
Continuous
100
AcDbLine
 10
208.517352
 20
59.48418199999998
 30
0.0
 11
208.517352
 21
49.48418199999998
 31
0.0
  0
LINE
  5
A158
330
A0B9
100
AcDbEntity
  8
1
  6
Continuous
100
AcDbLine
 10
208.517352
 20
54.48418199999998
 30
0.0
 11
213.070796
 21
54.48418199999998
 31
0.0
  0
ARC
  5
A159
330
A0B9
100
AcDbEntity
  8
1
  6
Continuous
100
AcDbCircle
 10
155.5974169999998
 20
54.47972599999999
 30
0.0
 40
12.166667
100
AcDbArc
 50
184.242198
 51
221.112092
  0
LINE
  5
A15A
330
A0B9
100
AcDbEntity
  8
1
  6
Continuous
100
AcDbLine
 10
146.430753
 20
62.479726
 30
0.0
 11
146.430753
 21
46.479726
 31
0.0
  0
LINE
  5
A15B
330
A0B9
100
AcDbEntity
  8
1
  6
Continuous
100
AcDbLine
 10
148.430753
 20
62.479726
 30
0.0
 11
148.430753
 21
46.479726
 31
0.0
  0
LINE
  5
A15C
330
A0B9
100
AcDbEntity
  8
1
  6
Continuous
100
AcDbLine
 10
149.430753
 20
59.47972599999999
 30
0.0
 11
149.430753
 21
49.47972599999999
 31
0.0
  0
LINE
  5
A15D
330
A0B9
100
AcDbEntity
  8
1
  6
Continuous
100
AcDbLine
 10
148.430753
 20
49.47972599999999
 30
0.0
 11
149.430753
 21
49.47972599999999
 31
0.0
  0
LINE
  5
A15E
330
A0B9
100
AcDbEntity
  8
1
  6
Continuous
100
AcDbLine
 10
146.430753
 20
46.479726
 30
0.0
 11
148.430753
 21
46.479726
 31
0.0
  0
LINE
  5
A15F
330
A0B9
100
AcDbEntity
  8
2
  6
Continuous
100
AcDbLine
 10
156.430753
 20
56.938223
 30
0.0
 11
164.5124099999999
 21
56.938223
 31
0.0
  0
LINE
  5
A160
330
A0B9
100
AcDbEntity
  8
2
  6
Continuous
100
AcDbLine
 10
156.430753
 20
52.021223
 30
0.0
 11
164.5124099999999
 21
52.021223
 31
0.0
  0
LINE
  5
A161
330
A0B9
100
AcDbEntity
  8
1
  6
Continuous
100
AcDbLine
 10
154.430753
 20
51.479726
 30
0.0
 11
163.9307599999999
 21
51.479726
 31
0.0
  0
LINE
  5
A162
330
A0B9
100
AcDbEntity
  8
1
  6
Continuous
100
AcDbLine
 10
154.430753
 20
57.479726
 30
0.0
 11
163.9307599999999
 21
57.479726
 31
0.0
  0
LINE
  5
A163
330
A0B9
100
AcDbEntity
  8
1
  6
Continuous
100
AcDbLine
 10
148.430753
 20
59.47972599999999
 30
0.0
 11
149.430753
 21
59.47972599999999
 31
0.0
  0
LINE
  5
A164
330
A0B9
100
AcDbEntity
  8
1
  6
Continuous
100
AcDbLine
 10
146.430753
 20
62.479726
 30
0.0
 11
148.430753
 21
62.479726
 31
0.0
  0
LINE
  5
A165
330
A0B9
100
AcDbEntity
  8
2
  6
Continuous
100
AcDbLine
 10
155.492848
 20
57.479726
 30
0.0
 11
156.43076
 21
56.938223
 31
0.0
  0
LINE
  5
A166
330
A0B9
100
AcDbEntity
  8
2
  6
Continuous
100
AcDbLine
 10
155.492848
 20
51.479726
 30
0.0
 11
156.430753
 21
52.021223
 31
0.0
  0
LINE
  5
A167
330
A0B9
100
AcDbEntity
  8
1
  6
Continuous
100
AcDbLine
 10
156.430753
 20
57.479726
 30
0.0
 11
156.430753
 21
51.479726
 31
0.0
  0
LINE
  5
A168
330
A0B9
100
AcDbEntity
  8
1
  6
Continuous
100
AcDbLine
 10
154.430753
 20
58.479726
 30
0.0
 11
154.430753
 21
50.479726
 31
0.0
  0
LINE
  5
A169
330
A0B9
100
AcDbEntity
  8
1
  6
Continuous
100
AcDbLine
 10
145.430753
 20
55.37971999999999
 30
0.0
 11
145.430753
 21
53.579725
 31
0.0
  0
LINE
  5
A16A
330
A0B9
100
AcDbEntity
  8
1
  6
Continuous
100
AcDbLine
 10
143.464086
 20
53.579725
 30
0.0
 11
145.430753
 21
53.579725
 31
0.0
  0
LINE
  5
A16B
330
A0B9
100
AcDbEntity
  8
1
  6
Continuous
100
AcDbLine
 10
143.464086
 20
55.37971999999999
 30
0.0
 11
145.430753
 21
55.37971999999999
 31
0.0
  0
LINE
  5
A16C
330
A0B9
100
AcDbEntity
  8
1
  6
Continuous
100
AcDbLine
 10
151.430753
 20
58.479726
 30
0.0
 11
151.430753
 21
50.479726
 31
0.0
  0
LINE
  5
A16D
330
A0B9
100
AcDbEntity
  8
2
  6
Continuous
100
AcDbLine
 10
154.430753
 20
58.479719
 30
0.0
 11
151.4307599999999
 21
54.730215
 31
0.0
  0
LINE
  5
A16E
330
A0B9
100
AcDbEntity
  8
2
  6
Continuous
100
AcDbLine
 10
151.430753
 20
58.479726
 30
0.0
 11
154.430753
 21
54.73022199999999
 31
0.0
  0
LINE
  5
A16F
330
A0B9
100
AcDbEntity
  8
2
  6
Continuous
100
AcDbLine
 10
151.430753
 20
54.229238
 30
0.0
 11
154.430753
 21
50.479726
 31
0.0
  0
LINE
  5
A170
330
A0B9
100
AcDbEntity
  8
2
  6
Continuous
100
AcDbLine
 10
154.430753
 20
54.22922299999999
 30
0.0
 11
151.430753
 21
50.479719
 31
0.0
  0
LINE
  5
A171
330
A0B9
100
AcDbEntity
  8
1
  6
Continuous
100
AcDbLine
 10
151.430753
 20
54.730215
 30
0.0
 11
154.430753
 21
54.730215
 31
0.0
  0
LINE
  5
A172
330
A0B9
100
AcDbEntity
  8
1
  6
Continuous
100
AcDbLine
 10
151.430753
 20
54.22923100000001
 30
0.0
 11
154.430753
 21
54.22923100000001
 31
0.0
  0
LINE
  5
A173
330
A0B9
100
AcDbEntity
  8
1
  6
Continuous
100
AcDbLine
 10
149.430753
 20
50.479726
 30
0.0
 11
154.430753
 21
50.479726
 31
0.0
  0
LINE
  5
A174
330
A0B9
100
AcDbEntity
  8
1
  6
Continuous
100
AcDbLine
 10
149.430753
 20
58.479726
 30
0.0
 11
154.430753
 21
58.479726
 31
0.0
  0
ARC
  5
A175
330
A0B9
100
AcDbEntity
  8
1
  6
Continuous
100
AcDbCircle
 10
155.5974169999998
 20
54.47972599999999
 30
0.0
 40
12.166667
100
AcDbArc
 50
138.887908
 51
175.7578019999999
  0
ARC
  5
A176
330
A0B9
100
AcDbEntity
  8
1
  6
Continuous
100
AcDbCircle
 10
161.680753
 20
54.47972599999999
 30
0.0
 40
3.75
100
AcDbArc
 50
306.8698979999999
 51
53.130102
  0
LINE
  5
A177
330
A0B9
100
AcDbEntity
  8
1
  6
Continuous
100
AcDbLine
 10
163.9307599999999
 20
57.479726
 30
0.0
 11
163.9307599999999
 21
51.479726
 31
0.0
  0
LINE
  5
A178
330
A0B9
100
AcDbEntity
  8
1
  6
Continuous
100
AcDbLine
 10
146.430753
 20
217.827322
 30
0.0
 11
146.430753
 21
233.827322
 31
0.0
  0
LINE
  5
A179
330
A0B9
100
AcDbEntity
  8
1
  6
Continuous
100
AcDbLine
 10
148.430753
 20
217.827322
 30
0.0
 11
148.430753
 21
233.827322
 31
0.0
  0
ARC
  5
A17A
330
A0B9
100
AcDbEntity
  8
1
  6
Continuous
100
AcDbCircle
 10
155.5974169999998
 20
225.8273219999999
 30
0.0
 40
12.166667
100
AcDbArc
 50
184.242198
 51
221.112092
  0
LINE
  5
A17B
330
A0B9
100
AcDbEntity
  8
4
  6
CENTER
100
AcDbLine
 10
138.43075
 20
225.8273219999999
 30
0.0
 11
170.430753
 21
225.8273219999999
 31
0.0
  0
LINE
  5
A17C
330
A0B9
100
AcDbEntity
  8
2
  6
Continuous
100
AcDbLine
 10
156.430753
 20
223.3688249999999
 30
0.0
 11
164.5124099999999
 21
223.3688249999999
 31
0.0
  0
LINE
  5
A17D
330
A0B9
100
AcDbEntity
  8
2
  6
Continuous
100
AcDbLine
 10
156.430753
 20
228.2858249999999
 30
0.0
 11
164.5124099999999
 21
228.2858249999999
 31
0.0
  0
LINE
  5
A17E
330
A0B9
100
AcDbEntity
  8
1
  6
Continuous
100
AcDbLine
 10
154.430753
 20
228.827322
 30
0.0
 11
163.9307599999999
 21
228.827322
 31
0.0
  0
LINE
  5
A17F
330
A0B9
100
AcDbEntity
  8
1
  6
Continuous
100
AcDbLine
 10
154.430753
 20
222.827322
 30
0.0
 11
163.9307599999999
 21
222.827322
 31
0.0
  0
ARC
  5
A180
330
A0B9
100
AcDbEntity
  8
1
  6
Continuous
100
AcDbCircle
 10
155.5974169999998
 20
225.8273219999999
 30
0.0
 40
12.166667
100
AcDbArc
 50
138.887908
 51
175.7578019999999
  0
LINE
  5
A181
330
A0B9
100
AcDbEntity
  8
1
  6
Continuous
100
AcDbLine
 10
146.430753
 20
233.827322
 30
0.0
 11
148.430753
 21
233.827322
 31
0.0
  0
LINE
  5
A182
330
A0B9
100
AcDbEntity
  8
2
  6
Continuous
100
AcDbLine
 10
154.430753
 20
221.8273289999999
 30
0.0
 11
151.4307599999999
 21
225.5768329999999
 31
0.0
  0
LINE
  5
A183
330
A0B9
100
AcDbEntity
  8
2
  6
Continuous
100
AcDbLine
 10
151.430753
 20
221.8273219999999
 30
0.0
 11
154.430753
 21
225.5768259999999
 31
0.0
  0
LINE
  5
A184
330
A0B9
100
AcDbEntity
  8
2
  6
Continuous
100
AcDbLine
 10
151.430753
 20
226.07781
 30
0.0
 11
154.430753
 21
229.827322
 31
0.0
  0
LINE
  5
A185
330
A0B9
100
AcDbEntity
  8
2
  6
Continuous
100
AcDbLine
 10
154.430753
 20
226.0778249999999
 30
0.0
 11
151.430753
 21
229.827329
 31
0.0
  0
LINE
  5
A186
330
A0B9
100
AcDbEntity
  8
1
  6
Continuous
100
AcDbLine
 10
151.430753
 20
225.5768329999999
 30
0.0
 11
154.430753
 21
225.5768329999999
 31
0.0
  0
LINE
  5
A187
330
A0B9
100
AcDbEntity
  8
1
  6
Continuous
100
AcDbLine
 10
151.430753
 20
226.077817
 30
0.0
 11
154.430753
 21
226.077817
 31
0.0
  0
LINE
  5
A188
330
A0B9
100
AcDbEntity
  8
1
  6
Continuous
100
AcDbLine
 10
149.430753
 20
229.827322
 30
0.0
 11
154.430753
 21
229.827322
 31
0.0
  0
LINE
  5
A189
330
A0B9
100
AcDbEntity
  8
1
  6
Continuous
100
AcDbLine
 10
149.430753
 20
221.8273219999999
 30
0.0
 11
154.430753
 21
221.8273219999999
 31
0.0
  0
LINE
  5
A18A
330
A0B9
100
AcDbEntity
  8
1
  6
Continuous
100
AcDbLine
 10
151.430753
 20
221.8273219999999
 30
0.0
 11
151.430753
 21
229.827322
 31
0.0
  0
LINE
  5
A18B
330
A0B9
100
AcDbEntity
  8
1
  6
Continuous
100
AcDbLine
 10
149.430753
 20
220.827322
 30
0.0
 11
149.430753
 21
230.827322
 31
0.0
  0
LINE
  5
A18C
330
A0B9
100
AcDbEntity
  8
1
  6
Continuous
100
AcDbLine
 10
148.430753
 20
230.827322
 30
0.0
 11
149.430753
 21
230.827322
 31
0.0
  0
LINE
  5
A18D
330
A0B9
100
AcDbEntity
  8
1
  6
Continuous
100
AcDbLine
 10
148.430753
 20
220.827322
 30
0.0
 11
149.430753
 21
220.827322
 31
0.0
  0
LINE
  5
A18E
330
A0B9
100
AcDbEntity
  8
1
  6
Continuous
100
AcDbLine
 10
145.430753
 20
224.927328
 30
0.0
 11
145.430753
 21
226.7273229999999
 31
0.0
  0
LINE
  5
A18F
330
A0B9
100
AcDbEntity
  8
1
  6
Continuous
100
AcDbLine
 10
143.464086
 20
226.7273229999999
 30
0.0
 11
145.430753
 21
226.7273229999999
 31
0.0
  0
LINE
  5
A190
330
A0B9
100
AcDbEntity
  8
1
  6
Continuous
100
AcDbLine
 10
143.464086
 20
224.927328
 30
0.0
 11
145.430753
 21
224.927328
 31
0.0
  0
LINE
  5
A191
330
A0B9
100
AcDbEntity
  8
2
  6
Continuous
100
AcDbLine
 10
155.492848
 20
222.827322
 30
0.0
 11
156.43076
 21
223.3688249999999
 31
0.0
  0
LINE
  5
A192
330
A0B9
100
AcDbEntity
  8
2
  6
Continuous
100
AcDbLine
 10
155.492848
 20
228.827322
 30
0.0
 11
156.430753
 21
228.2858249999999
 31
0.0
  0
LINE
  5
A193
330
A0B9
100
AcDbEntity
  8
1
  6
Continuous
100
AcDbLine
 10
156.430753
 20
222.827322
 30
0.0
 11
156.430753
 21
228.827322
 31
0.0
  0
LINE
  5
A194
330
A0B9
100
AcDbEntity
  8
1
  6
Continuous
100
AcDbLine
 10
154.430753
 20
221.8273219999999
 30
0.0
 11
154.430753
 21
229.827322
 31
0.0
  0
ARC
  5
A195
330
A0B9
100
AcDbEntity
  8
1
  6
Continuous
100
AcDbCircle
 10
161.680753
 20
225.8273219999999
 30
0.0
 40
3.75
100
AcDbArc
 50
306.8698979999999
 51
53.130102
  0
LINE
  5
A196
330
A0B9
100
AcDbEntity
  8
1
  6
Continuous
100
AcDbLine
 10
163.9307599999999
 20
222.827322
 30
0.0
 11
163.9307599999999
 21
228.827322
 31
0.0
  0
LINE
  5
A197
330
A0B9
100
AcDbEntity
  8
1
  6
Continuous
100
AcDbLine
 10
146.430753
 20
217.827322
 30
0.0
 11
148.430753
 21
217.827322
 31
0.0
  0
LINE
  5
A198
330
A0B9
100
AcDbEntity
  8
1
  6
Continuous
100
AcDbLine
 10
201.117348
 20
233.827322
 30
0.0
 11
201.117348
 21
217.827322
 31
0.0
  0
LINE
  5
A199
330
A0B9
100
AcDbEntity
  8
4
  6
CENTER
100
AcDbLine
 10
196.117348
 20
225.8273219999999
 30
0.0
 11
230.4173519999999
 21
225.8273219999999
 31
0.0
  0
LINE
  5
A19A
330
A0B9
100
AcDbEntity
  8
1
  6
Continuous
100
AcDbLine
 10
205.7173539999999
 20
234.2273159999999
 30
0.0
 11
205.0173519999999
 21
234.1339819999999
 31
0.0
  0
LINE
  5
A19B
330
A0B9
100
AcDbEntity
  8
1
  6
Continuous
100
AcDbLine
 10
202.717354
 20
233.827322
 30
0.0
 11
201.117348
 21
233.827322
 31
0.0
  0
LINE
  5
A19C
330
A0B9
100
AcDbEntity
  8
1
  6
Continuous
100
AcDbLine
 10
205.7173539999999
 20
235.827322
 30
0.0
 11
205.0173519999999
 21
235.7370779999999
 31
0.0
  0
ARC
  5
A19D
330
A0B9
100
AcDbEntity
  8
1
  6
Continuous
100
AcDbCircle
 10
202.717354
 20
233.827322
 30
0.0
 40
1.6
100
AcDbArc
 50
97.34602700000001
 51
179.999997
  0
LINE
  5
A19E
330
A0B9
100
AcDbEntity
  8
1
  6
Continuous
100
AcDbLine
 10
205.7173539999999
 20
235.827322
 30
0.0
 11
205.7173539999999
 21
234.227324
 31
0.0
  0
LINE
  5
A19F
330
A0B9
100
AcDbEntity
  8
1
  6
Continuous
100
AcDbLine
 10
202.717354
 20
217.827322
 30
0.0
 11
201.117348
 21
217.827322
 31
0.0
  0
LINE
  5
A1A0
330
A0B9
100
AcDbEntity
  8
1
  6
Continuous
100
AcDbLine
 10
202.7173639999999
 20
235.4405659999999
 30
0.0
 11
202.5127789999999
 21
235.414191
 31
0.0
  0
LINE
  5
A1A1
330
A0B9
100
AcDbEntity
  8
2
  6
Continuous
100
AcDbLine
 10
497.9795099999998
 20
139.9030359999999
 30
0.0
 11
494.9795099999998
 21
136.153539
 31
0.0
  0
LINE
  5
A1A2
330
A0B9
100
AcDbEntity
  8
2
  6
Continuous
100
AcDbLine
 10
494.9795099999998
 20
139.9030359999999
 30
0.0
 11
497.979503
 21
136.153524
 31
0.0
  0
LINE
  5
A1A3
330
A0B9
100
AcDbEntity
  8
1
  6
Continuous
100
AcDbLine
 10
499.9795099999998
 20
136.153524
 30
0.0
 11
494.9795099999998
 21
136.153524
 31
0.0
  0
LINE
  5
A1A4
330
A0B9
100
AcDbEntity
  8
2
  6
Continuous
100
AcDbLine
 10
494.979503
 20
144.153524
 30
0.0
 11
497.979503
 21
140.4040119999999
 31
0.0
  0
LINE
  5
A1A5
330
A0B9
100
AcDbEntity
  8
2
  6
Continuous
100
AcDbLine
 10
497.9795099999998
 20
144.153524
 30
0.0
 11
494.9795099999998
 21
140.404027
 31
0.0
  0
LINE
  5
A1A6
330
A0B9
100
AcDbEntity
  8
1
  6
Continuous
100
AcDbLine
 10
497.9795099999998
 20
140.4040119999999
 30
0.0
 11
494.9795099999998
 21
140.4040119999999
 31
0.0
  0
LINE
  5
A1A7
330
A0B9
100
AcDbEntity
  8
1
  6
Continuous
100
AcDbLine
 10
497.9795099999998
 20
139.9030359999999
 30
0.0
 11
494.9795099999998
 21
139.9030359999999
 31
0.0
  0
LINE
  5
A1A8
330
A0B9
100
AcDbEntity
  8
1
  6
Continuous
100
AcDbLine
 10
499.9795099999998
 20
144.153524
 30
0.0
 11
494.9795099999998
 21
144.153524
 31
0.0
  0
LINE
  5
A1A9
330
A0B9
100
AcDbEntity
  8
4
  6
CENTER
100
AcDbLine
 10
510.979513
 20
140.153524
 30
0.0
 11
478.9795099999998
 21
140.153524
 31
0.0
  0
LINE
  5
A1AA
330
A0B9
100
AcDbEntity
  8
1
  6
Continuous
100
AcDbLine
 10
502.9795099999998
 20
148.153524
 30
0.0
 11
502.9795099999998
 21
132.1535239999998
 31
0.0
  0
ARC
  5
A1AB
330
A0B9
100
AcDbEntity
  8
1
  6
Continuous
100
AcDbCircle
 10
493.8128459999998
 20
140.153524
 30
0.0
 40
12.166667
100
AcDbArc
 50
318.8879119999999
 51
41.112092
  0
LINE
  5
A1AC
330
A0B9
100
AcDbEntity
  8
1
  6
Continuous
100
AcDbLine
 10
500.9795099999998
 20
148.153524
 30
0.0
 11
500.9795099999998
 21
132.1535239999998
 31
0.0
  0
LINE
  5
A1AD
330
A0B9
100
AcDbEntity
  8
1
  6
Continuous
100
AcDbLine
 10
497.9795099999998
 20
144.153524
 30
0.0
 11
497.9795099999998
 21
136.153524
 31
0.0
  0
LINE
  5
A1AE
330
A0B9
100
AcDbEntity
  8
1
  6
Continuous
100
AcDbLine
 10
499.9795099999998
 20
145.153524
 30
0.0
 11
499.9795099999998
 21
135.153524
 31
0.0
  0
LINE
  5
A1AF
330
A0B9
100
AcDbEntity
  8
1
  6
Continuous
100
AcDbLine
 10
502.9795099999998
 20
132.1535239999998
 30
0.0
 11
500.9795099999998
 21
132.1535239999998
 31
0.0
  0
LINE
  5
A1B0
330
A0B9
100
AcDbEntity
  8
1
  6
Continuous
100
AcDbLine
 10
500.9795099999998
 20
135.153524
 30
0.0
 11
499.9795099999998
 21
135.153524
 31
0.0
  0
LINE
  5
A1B1
330
A0B9
100
AcDbEntity
  8
1
  6
Continuous
100
AcDbLine
 10
500.9795099999998
 20
145.153524
 30
0.0
 11
499.9795099999998
 21
145.153524
 31
0.0
  0
LINE
  5
A1B2
330
A0B9
100
AcDbEntity
  8
1
  6
Continuous
100
AcDbLine
 10
502.9795099999998
 20
148.153524
 30
0.0
 11
500.9795099999998
 21
148.153524
 31
0.0
  0
LINE
  5
A1B3
330
A0B9
100
AcDbEntity
  8
1
  6
Continuous
100
AcDbLine
 10
448.2929139999998
 20
167.153524
 30
0.0
 11
448.2929139999998
 21
113.153524
 31
0.0
  0
ARC
  5
A1B4
330
A0B9
100
AcDbEntity
  8
1
  6
Continuous
100
AcDbCircle
 10
487.7295099999998
 20
140.153524
 30
0.0
 40
3.75
100
AcDbArc
 50
126.869898
 51
233.130102
  0
LINE
  5
A1B5
330
A0B9
100
AcDbEntity
  8
1
  6
Continuous
100
AcDbLine
 10
485.479503
 20
143.153524
 30
0.0
 11
485.479503
 21
137.153524
 31
0.0
  0
LINE
  5
A1B6
330
A0B9
100
AcDbEntity
  8
1
  6
Continuous
100
AcDbLine
 10
494.9795099999998
 20
144.153524
 30
0.0
 11
494.9795099999998
 21
136.153524
 31
0.0
  0
LINE
  5
A1B7
330
A0B9
100
AcDbEntity
  8
1
  6
Continuous
100
AcDbLine
 10
492.9795099999998
 20
143.153524
 30
0.0
 11
492.9795099999998
 21
137.153524
 31
0.0
  0
LINE
  5
A1B8
330
A0B9
100
AcDbEntity
  8
2
  6
Continuous
100
AcDbLine
 10
493.917415
 20
137.153524
 30
0.0
 11
492.9795099999998
 21
137.695028
 31
0.0
  0
LINE
  5
A1B9
330
A0B9
100
AcDbEntity
  8
2
  6
Continuous
100
AcDbLine
 10
493.917415
 20
143.153524
 30
0.0
 11
492.9795099999998
 21
142.6120199999998
 31
0.0
  0
LINE
  5
A1BA
330
A0B9
100
AcDbEntity
  8
1
  6
Continuous
100
AcDbLine
 10
494.9795099999998
 20
137.153524
 30
0.0
 11
485.479503
 21
137.153524
 31
0.0
  0
LINE
  5
A1BB
330
A0B9
100
AcDbEntity
  8
2
  6
Continuous
100
AcDbLine
 10
492.9795099999998
 20
137.695028
 30
0.0
 11
484.897853
 21
137.695028
 31
0.0
  0
LINE
  5
A1BC
330
A0B9
100
AcDbEntity
  8
2
  6
Continuous
100
AcDbLine
 10
492.9795099999998
 20
142.6120349999999
 30
0.0
 11
484.897853
 21
142.6120349999999
 31
0.0
  0
LINE
  5
A1BD
330
A0B9
100
AcDbEntity
  8
1
  6
Continuous
100
AcDbLine
 10
494.9795099999998
 20
143.153524
 30
0.0
 11
485.479503
 21
143.153524
 31
0.0
  0
LINE
  5
A1BE
330
A0B9
100
AcDbEntity
  8
4
  6
CENTER
100
AcDbLine
 10
453.2929139999998
 20
140.153524
 30
0.0
 11
430.8929099999998
 21
140.153524
 31
0.0
  0
LINE
  5
A1BF
330
A0B9
100
AcDbEntity
  8
1
  6
Continuous
100
AcDbLine
 10
440.8929099999999
 20
134.3800249999999
 30
0.0
 11
440.8929099999999
 21
145.9270379999999
 31
0.0
  0
LINE
  5
A1C0
330
A0B9
100
AcDbEntity
  8
1
  6
Continuous
100
AcDbLine
 10
442.3929099999998
 20
133.153524
 30
0.0
 11
442.3929099999998
 21
147.153524
 31
0.0
  0
LINE
  5
A1C1
330
A0B9
100
AcDbEntity
  8
1
  6
Continuous
100
AcDbLine
 10
440.8929099999999
 20
134.053526
 30
0.0
 11
440.8929099999999
 21
146.253523
 31
0.0
  0
ARC
  5
A1C2
330
A0B9
100
AcDbEntity
  8
1
  6
Continuous
100
AcDbCircle
 10
438.448727
 20
135.8233999999999
 30
0.0
 40
2.55582
100
AcDbArc
 50
145.615685
 51
214.384311
  0
LINE
  5
A1C3
330
A0B9
100
AcDbEntity
  8
1
  6
Continuous
100
AcDbLine
 10
435.89291
 20
135.153524
 30
0.0
 11
435.89291
 21
145.153524
 31
0.0
  0
LINE
  5
A1C4
330
A0B9
100
AcDbEntity
  8
1
  6
Continuous
100
AcDbLine
 10
436.339474
 20
134.3800249999999
 30
0.0
 11
440.8929099999999
 21
134.3800249999999
 31
0.0
  0
LINE
  5
A1C5
330
A0B9
100
AcDbEntity
  8
1
  6
Continuous
100
AcDbLine
 10
440.8929099999999
 20
134.053526
 30
0.0
 11
442.3929099999998
 21
134.053526
 31
0.0
  0
LINE
  5
A1C6
330
A0B9
100
AcDbEntity
  8
1
  6
Continuous
100
AcDbLine
 10
435.89291
 20
135.153532
 30
0.0
 11
436.3394969999998
 21
134.380022
 31
0.0
  0
LINE
  5
A1C7
330
A0B9
100
AcDbEntity
  8
1
  6
Continuous
100
AcDbLine
 10
436.339474
 20
145.9270379999999
 30
0.0
 11
440.8929099999999
 21
145.9270379999999
 31
0.0
  0
LINE
  5
A1C8
330
A0B9
100
AcDbEntity
  8
1
  6
Continuous
100
AcDbLine
 10
436.339474
 20
137.2667749999999
 30
0.0
 11
440.8929099999999
 21
137.2667749999999
 31
0.0
  0
LINE
  5
A1C9
330
A0B9
100
AcDbEntity
  8
1
  6
Continuous
100
AcDbLine
 10
436.339474
 20
143.0402729999999
 30
0.0
 11
440.8929099999999
 21
143.0402729999999
 31
0.0
  0
LINE
  5
A1CA
330
A0B9
100
AcDbEntity
  8
1
  6
Continuous
100
AcDbLine
 10
440.8929099999999
 20
146.253523
 30
0.0
 11
442.3929099999998
 21
146.253523
 31
0.0
  0
LINE
  5
A1CB
330
A0B9
100
AcDbEntity
  8
1
  6
Continuous
100
AcDbLine
 10
442.3929099999998
 20
141.6535239999998
 30
0.0
 11
440.8929099999999
 21
140.153524
 31
0.0
  0
LINE
  5
A1CC
330
A0B9
100
AcDbEntity
  8
1
  6
Continuous
100
AcDbLine
 10
442.3929099999998
 20
140.153524
 30
0.0
 11
440.8929099999999
 21
138.653524
 31
0.0
  0
LINE
  5
A1CD
330
A0B9
100
AcDbEntity
  8
1
  6
Continuous
100
AcDbLine
 10
435.8929179999998
 20
145.153532
 30
0.0
 11
436.3395039999998
 21
145.9270379999999
 31
0.0
  0
ARC
  5
A1CE
330
A0B9
100
AcDbEntity
  8
1
  6
Continuous
100
AcDbCircle
 10
445.4462849999998
 20
140.153524
 30
0.0
 40
9.553395999999999
100
AcDbArc
 50
162.412022
 51
197.5880019999999
  0
ARC
  5
A1CF
330
A0B9
100
AcDbEntity
  8
1
  6
Continuous
100
AcDbCircle
 10
438.448727
 20
144.483648
 30
0.0
 40
2.55582
100
AcDbArc
 50
145.6156719999999
 51
214.384311
  0
LINE
  5
A1D0
330
A0B9
100
AcDbEntity
  8
1
  6
Continuous
100
AcDbLine
 10
444.39291
 20
147.153524
 30
0.0
 11
444.39291
 21
143.153524
 31
0.0
  0
LINE
  5
A1D1
330
A0B9
100
AcDbEntity
  8
1
  6
Continuous
100
AcDbLine
 10
444.39291
 20
133.153524
 30
0.0
 11
442.3929099999998
 21
133.153524
 31
0.0
  0
LINE
  5
A1D2
330
A0B9
100
AcDbEntity
  8
1
  6
Continuous
100
AcDbLine
 10
444.39291
 20
147.153524
 30
0.0
 11
442.3929099999998
 21
147.153524
 31
0.0
  0
LINE
  5
A1D3
330
A0B9
100
AcDbEntity
  8
1
  6
Continuous
100
AcDbLine
 10
443.692916
 20
143.153524
 30
0.0
 11
443.692916
 21
137.153524
 31
0.0
  0
LINE
  5
A1D4
330
A0B9
100
AcDbEntity
  8
1
  6
Continuous
100
AcDbLine
 10
448.2929139999998
 20
167.153524
 30
0.0
 11
448.2929139999998
 21
113.153524
 31
0.0
  0
LINE
  5
A1D5
330
A0B9
100
AcDbEntity
  8
1
  6
Continuous
100
AcDbLine
 10
448.2929139999998
 20
137.153524
 30
0.0
 11
443.692916
 21
137.153524
 31
0.0
  0
LINE
  5
A1D6
330
A0B9
100
AcDbEntity
  8
1
  6
Continuous
100
AcDbLine
 10
448.2929139999998
 20
113.153524
 30
0.0
 11
446.692916
 21
113.153524
 31
0.0
  0
LINE
  5
A1D7
330
A0B9
100
AcDbEntity
  8
1
  6
Continuous
100
AcDbLine
 10
446.692916
 20
137.153524
 30
0.0
 11
446.692916
 21
113.153524
 31
0.0
  0
LINE
  5
A1D8
330
A0B9
100
AcDbEntity
  8
1
  6
Continuous
100
AcDbLine
 10
448.2929139999998
 20
167.153524
 30
0.0
 11
446.692916
 21
167.153524
 31
0.0
  0
LINE
  5
A1D9
330
A0B9
100
AcDbEntity
  8
1
  6
Continuous
100
AcDbLine
 10
448.2929139999998
 20
143.153524
 30
0.0
 11
443.692916
 21
143.153524
 31
0.0
  0
LINE
  5
A1DA
330
A0B9
100
AcDbEntity
  8
1
  6
Continuous
100
AcDbLine
 10
444.39291
 20
137.153524
 30
0.0
 11
444.39291
 21
133.153524
 31
0.0
  0
LINE
  5
A1DB
330
A0B9
100
AcDbEntity
  8
1
  6
Continuous
100
AcDbLine
 10
221.217349
 20
227.577322
 30
0.0
 11
221.217349
 21
231.9588829999999
 31
0.0
  0
LINE
  5
A1DC
330
A0B9
100
AcDbEntity
  8
1
  6
Continuous
100
AcDbLine
 10
223.517352
 20
228.0773219999999
 30
0.0
 11
223.517352
 21
231.9588829999999
 31
0.0
  0
LINE
  5
A1DD
330
A0B9
100
AcDbEntity
  8
1
  6
Continuous
100
AcDbLine
 10
202.7173639999999
 20
213.3273219999999
 30
0.0
 11
202.7173639999999
 21
237.961981
 31
0.0
  0
LINE
  5
A1DE
330
A0B9
100
AcDbEntity
  8
1
  6
Continuous
100
AcDbLine
 10
202.7173639999999
 20
227.577322
 30
0.0
 11
221.217349
 21
227.577322
 31
0.0
  0
LINE
  5
A1DF
330
A0B9
100
AcDbEntity
  8
1
  6
Continuous
100
AcDbLine
 10
202.7173639999999
 20
224.077322
 30
0.0
 11
221.217349
 21
224.077322
 31
0.0
  0
LINE
  5
A1E0
330
A0B9
100
AcDbEntity
  8
1
  6
Continuous
100
AcDbLine
 10
202.7173639999999
 20
218.5773069999999
 30
0.0
 11
221.217349
 21
219.6957449999999
 31
0.0
  0
ARC
  5
A1E1
330
A0B9
100
AcDbEntity
  8
1
  6
Continuous
100
AcDbCircle
 10
220.541308
 20
225.8273219999999
 30
0.0
 40
1.876041999999999
100
AcDbArc
 50
291.122027
 51
68.877978
  0
ARC
  5
A1E2
330
A0B9
100
AcDbEntity
  8
1
  6
Continuous
100
AcDbCircle
 10
222.579852
 20
225.8273219999999
 30
0.0
 40
2.4375
100
AcDbArc
 50
292.61986
 51
67.380135
  0
LINE
  5
A1E3
330
A0B9
100
AcDbEntity
  8
1
  6
Continuous
100
AcDbLine
 10
221.217349
 20
219.6957609999998
 30
0.0
 11
223.517352
 21
219.6957609999998
 31
0.0
  0
LINE
  5
A1E4
330
A0B9
100
AcDbEntity
  8
1
  6
Continuous
100
AcDbLine
 10
221.217349
 20
219.6957609999998
 30
0.0
 11
221.217349
 21
224.077322
 31
0.0
  0
LINE
  5
A1E5
330
A0B9
100
AcDbEntity
  8
1
  6
Continuous
100
AcDbLine
 10
223.517352
 20
219.6957609999998
 30
0.0
 11
223.517352
 21
223.577322
 31
0.0
  0
LINE
  5
A1E6
330
A0B9
100
AcDbEntity
  8
1
  6
Continuous
100
AcDbLine
 10
205.0173519999999
 20
213.3273219999999
 30
0.0
 11
205.0173519999999
 21
218.716355
 31
0.0
  0
LINE
  5
A1E7
330
A0B9
100
AcDbEntity
  8
1
  6
Continuous
100
AcDbLine
 10
202.7173639999999
 20
213.3273219999999
 30
0.0
 11
205.0173519999999
 21
213.3273219999999
 31
0.0
  0
LINE
  5
A1E8
330
A0B9
100
AcDbEntity
  8
1
  6
Continuous
100
AcDbLine
 10
202.7173639999999
 20
233.077322
 30
0.0
 11
221.217364
 21
231.958868
 31
0.0
  0
LINE
  5
A1E9
330
A0B9
100
AcDbEntity
  8
1
  6
Continuous
100
AcDbLine
 10
221.217349
 20
231.9588829999999
 30
0.0
 11
223.517352
 21
231.9588829999999
 31
0.0
  0
LINE
  5
A1EA
330
A0B9
100
AcDbEntity
  8
1
  6
Continuous
100
AcDbLine
 10
205.0173519999999
 20
233.077322
 30
0.0
 11
205.0173519999999
 21
237.961981
 31
0.0
  0
LINE
  5
A1EB
330
A0B9
100
AcDbEntity
  8
1
  6
Continuous
100
AcDbLine
 10
202.7173639999999
 20
237.961981
 30
0.0
 11
205.0173519999999
 21
237.961981
 31
0.0
  0
LINE
  5
A1EC
330
A0B9
100
AcDbEntity
  8
1
  6
Continuous
100
AcDbLine
 10
205.0173519999999
 20
154.653524
 30
0.0
 11
205.0173519999999
 21
128.0188579999999
 31
0.0
  0
LINE
  5
A1ED
330
A0B9
100
AcDbEntity
  8
1
  6
Continuous
100
AcDbLine
 10
205.0173519999999
 20
128.0188579999999
 30
0.0
 11
202.7173639999999
 21
128.0188579999999
 31
0.0
  0
LINE
  5
A1EE
330
A0B9
100
AcDbEntity
  8
1
  6
Continuous
100
AcDbLine
 10
222.889529
 20
161.7412009999999
 30
0.0
 11
205.0173599999999
 21
152.9830839999999
 31
0.0
  0
LINE
  5
A1EF
330
A0B9
100
AcDbEntity
  8
1
  6
Continuous
100
AcDbLine
 10
222.229461
 20
163.0881709999998
 30
0.0
 11
205.0173599999999
 21
154.653509
 31
0.0
  0
LINE
  5
A1F0
330
A0B9
100
AcDbEntity
  8
1
  6
Continuous
100
AcDbLine
 10
221.217357
 20
165.153524
 30
0.0
 11
204.005252
 21
156.7188629999999
 31
0.0
  0
LINE
  5
A1F1
330
A0B9
100
AcDbEntity
  8
1
  6
Continuous
100
AcDbLine
 10
205.0173519999999
 20
150.3362329999999
 30
0.0
 11
202.7173639999999
 21
150.3362329999999
 31
0.0
  0
ARC
  5
A1F2
330
A0B9
100
AcDbEntity
  8
1
  6
Continuous
100
AcDbCircle
 10
205.0173519999999
 20
154.653524
 30
0.0
 40
2.299999999999998
100
AcDbArc
 50
116.106796
 51
180.000005
  0
LINE
  5
A1F3
330
A0B9
100
AcDbEntity
  8
1
  6
Continuous
100
AcDbLine
 10
223.517352
 20
178.653524
 30
0.0
 11
223.517352
 21
165.153524
 31
0.0
  0
LINE
  5
A1F4
330
A0B9
100
AcDbEntity
  8
1
  6
Continuous
100
AcDbLine
 10
221.217364
 20
177.853524
 30
0.0
 11
221.217364
 21
165.153524
 31
0.0
  0
LINE
  5
A1F5
330
A0B9
100
AcDbEntity
  8
1
  6
Continuous
100
AcDbLine
 10
225.017352
 20
180.1535239999998
 30
0.0
 11
225.017352
 21
165.153524
 31
0.0
  0
ARC
  5
A1F6
330
A0B9
100
AcDbEntity
  8
1
  6
Continuous
100
AcDbCircle
 10
221.217364
 20
165.153524
 30
0.0
 40
3.799999999999998
100
AcDbArc
 50
296.1067969999998
 51
0.000005
  0
ARC
  5
A1F7
330
A0B9
100
AcDbEntity
  8
1
  6
Continuous
100
AcDbCircle
 10
221.217364
 20
165.153524
 30
0.0
 40
2.299999999999998
100
AcDbArc
 50
296.1067969999998
 51
0.000005
  0
LINE
  5
A1F8
330
A0B9
100
AcDbEntity
  8
1
  6
Continuous
100
AcDbLine
 10
225.017352
 20
180.1535239999998
 30
0.0
 11
223.5173639999999
 21
180.1535239999998
 31
0.0
  0
LINE
  5
A1F9
330
A0B9
100
AcDbEntity
  8
1
  6
Continuous
100
AcDbLine
 10
444.3929289999998
 20
154.653524
 30
0.0
 11
444.3929289999998
 21
143.153524
 31
0.0
  0
LINE
  5
A1FA
330
A0B9
100
AcDbEntity
  8
1
  6
Continuous
100
AcDbLine
 10
446.692916
 20
167.153524
 30
0.0
 11
446.692916
 21
143.153524
 31
0.0
  0
LINE
  5
A1FB
330
A0B9
100
AcDbEntity
  8
1
  6
Continuous
100
AcDbLine
 10
444.3929289999998
 20
128.0188579999999
 30
0.0
 11
446.692916
 21
128.0188579999999
 31
0.0
  0
LINE
  5
A1FC
330
A0B9
100
AcDbEntity
  8
1
  6
Continuous
100
AcDbLine
 10
444.3929289999998
 20
133.153524
 30
0.0
 11
446.692916
 21
133.153524
 31
0.0
  0
LINE
  5
A1FD
330
A0B9
100
AcDbEntity
  8
1
  6
Continuous
100
AcDbLine
 10
444.3929289999998
 20
143.153524
 30
0.0
 11
446.692916
 21
143.153524
 31
0.0
  0
LINE
  5
A1FE
330
A0B9
100
AcDbEntity
  8
1
  6
Continuous
100
AcDbLine
 10
426.5207509999998
 20
161.741217
 30
0.0
 11
444.3929129999999
 21
152.983099
 31
0.0
  0
LINE
  5
A1FF
330
A0B9
100
AcDbEntity
  8
1
  6
Continuous
100
AcDbLine
 10
427.1808159999998
 20
163.0881709999998
 30
0.0
 11
444.3929129999999
 21
154.653524
 31
0.0
  0
LINE
  5
A200
330
A0B9
100
AcDbEntity
  8
1
  6
Continuous
100
AcDbLine
 10
428.192916
 20
165.153524
 30
0.0
 11
445.405029
 21
156.7188629999999
 31
0.0
  0
LINE
  5
A201
330
A0B9
100
AcDbEntity
  8
1
  6
Continuous
100
AcDbLine
 10
425.892929
 20
178.653524
 30
0.0
 11
425.892929
 21
165.153524
 31
0.0
  0
LINE
  5
A202
330
A0B9
100
AcDbEntity
  8
1
  6
Continuous
100
AcDbLine
 10
428.192916
 20
177.853524
 30
0.0
 11
428.192916
 21
165.153524
 31
0.0
  0
LINE
  5
A203
330
A0B9
100
AcDbEntity
  8
1
  6
Continuous
100
AcDbLine
 10
424.3929289999998
 20
180.1535239999998
 30
0.0
 11
424.3929289999998
 21
165.153524
 31
0.0
  0
ARC
  5
A204
330
A0B9
100
AcDbEntity
  8
1
  6
Continuous
100
AcDbCircle
 10
428.192916
 20
165.153524
 30
0.0
 40
3.799999999999998
100
AcDbArc
 50
179.9999909999999
 51
243.8932149999998
  0
ARC
  5
A205
330
A0B9
100
AcDbEntity
  8
1
  6
Continuous
100
AcDbCircle
 10
428.192916
 20
165.153524
 30
0.0
 40
2.299999999999998
100
AcDbArc
 50
179.9999909999999
 51
243.8932149999998
  0
LINE
  5
A206
330
A0B9
100
AcDbEntity
  8
1
  6
Continuous
100
AcDbLine
 10
424.3929289999998
 20
180.1535239999998
 30
0.0
 11
425.892916
 21
180.1535239999998
 31
0.0
  0
ARC
  5
A207
330
A0B9
100
AcDbEntity
  8
1
  6
Continuous
100
AcDbCircle
 10
444.3929289999998
 20
154.653524
 30
0.0
 40
2.299999999999998
100
AcDbArc
 50
0.0
 51
63.893203
  0
LINE
  5
A208
330
A0B9
100
AcDbEntity
  8
1
  6
Continuous
100
AcDbLine
 10
444.3929289999998
 20
150.3362329999999
 30
0.0
 11
446.692916
 21
150.3362329999999
 31
0.0
  0
LINE
  5
A209
330
A0B9
100
AcDbEntity
  8
1
  6
Continuous
100
AcDbLine
 10
223.517352
 20
52.229726
 30
0.0
 11
223.517352
 21
48.348165
 31
0.0
  0
LINE
  5
A20A
330
A0B9
100
AcDbEntity
  8
1
  6
Continuous
100
AcDbLine
 10
205.0173519999999
 20
66.97972599999999
 30
0.0
 11
205.0173519999999
 21
46.11973299999998
 31
0.0
  0
LINE
  5
A20B
330
A0B9
100
AcDbEntity
  8
1
  6
Continuous
100
AcDbLine
 10
202.717353
 20
66.97972599999999
 30
0.0
 11
202.717353
 21
46.4264
 31
0.0
  0
LINE
  5
A20C
330
A0B9
100
AcDbEntity
  8
1
  6
Continuous
100
AcDbLine
 10
213.5173599999999
 20
56.729726
 30
0.0
 11
223.517352
 21
56.729726
 31
0.0
  0
LINE
  5
A20D
330
A0B9
100
AcDbEntity
  8
1
  6
Continuous
100
AcDbLine
 10
213.5173599999999
 20
52.229726
 30
0.0
 11
223.517352
 21
52.229726
 31
0.0
  0
LINE
  5
A20E
330
A0B9
100
AcDbEntity
  8
1
  6
Continuous
100
AcDbLine
 10
205.0173519999999
 20
61.590688
 30
0.0
 11
221.2173529999998
 21
60.611287
 31
0.0
  0
LINE
  5
A20F
330
A0B9
100
AcDbEntity
  8
1
  6
Continuous
100
AcDbLine
 10
202.717353
 20
57.479726
 30
0.0
 11
205.0173519999999
 21
57.479726
 31
0.0
  0
LINE
  5
A210
330
A0B9
100
AcDbEntity
  8
1
  6
Continuous
100
AcDbLine
 10
202.717353
 20
66.97972599999999
 30
0.0
 11
205.0173519999999
 21
66.97972599999999
 31
0.0
  0
ARC
  5
A211
330
A0B9
100
AcDbEntity
  8
1
  6
Continuous
100
AcDbCircle
 10
222.579852
 20
54.47972599999999
 30
0.0
 40
2.4375
100
AcDbArc
 50
292.6198649999999
 51
67.38013999999998
  0
LINE
  5
A212
330
A0B9
100
AcDbEntity
  8
1
  6
Continuous
100
AcDbLine
 10
221.2173529999998
 20
60.611287
 30
0.0
 11
223.517352
 21
60.611287
 31
0.0
  0
LINE
  5
A213
330
A0B9
100
AcDbEntity
  8
1
  6
Continuous
100
AcDbLine
 10
223.517352
 20
60.611287
 30
0.0
 11
223.517352
 21
56.729726
 31
0.0
  0
LINE
  5
A214
330
A0B9
100
AcDbEntity
  8
1
  6
Continuous
100
AcDbLine
 10
205.017356
 20
47.36879499999999
 30
0.0
 11
221.217357
 21
48.34818
 31
0.0
  0
LINE
  5
A215
330
A0B9
100
AcDbEntity
  8
1
  6
Continuous
100
AcDbLine
 10
205.0173519999999
 20
47.47972599999999
 30
0.0
 11
202.717353
 21
47.47972599999999
 31
0.0
  0
LINE
  5
A216
330
A0B9
100
AcDbEntity
  8
1
  6
Continuous
100
AcDbLine
 10
202.717353
 20
42.34506699999999
 30
0.0
 11
205.0173519999999
 21
42.34506699999999
 31
0.0
  0
LINE
  5
A217
330
A0B9
100
AcDbEntity
  8
1
  6
Continuous
100
AcDbLine
 10
221.2173529999998
 20
48.348165
 30
0.0
 11
223.517352
 21
48.348165
 31
0.0
  0
LINE
  5
A218
330
A0B9
100
AcDbEntity
  8
5
  6
PHANTOM
100
AcDbLine
 10
46.83986599999999
 20
147.3831689999999
 30
0.0
 11
71.878196
 21
145.1334429999998
 31
0.0
  0
LINE
  5
A219
330
A0B9
100
AcDbEntity
  8
5
  6
PHANTOM
100
AcDbLine
 10
46.839851
 20
132.923879
 30
0.0
 11
71.87816600000002
 21
135.173574
 31
0.0
  0
LINE
  5
A21A
330
A0B9
100
AcDbEntity
  8
5
  6
PHANTOM
100
AcDbLine
 10
60.43073199999999
 20
138.403524
 30
0.0
 11
53.364952
 21
138.403524
 31
0.0
  0
LINE
  5
A21B
330
A0B9
100
AcDbEntity
  8
5
  6
PHANTOM
100
AcDbLine
 10
60.43073199999999
 20
141.903524
 30
0.0
 11
53.364952
 21
141.903524
 31
0.0
  0
ARC
  5
A21C
330
A0B9
100
AcDbEntity
  8
5
  6
PHANTOM
100
AcDbCircle
 10
36.43073199999999
 20
140.153524
 30
0.0
 40
12.5
100
AcDbArc
 50
196.957773
 51
230.208181
  0
ARC
  5
A21D
330
A0B9
100
AcDbEntity
  8
5
  6
PHANTOM
100
AcDbCircle
 10
24.95248399999999
 20
136.653524
 30
0.0
 40
0.5
100
AcDbArc
 50
90.00000900000001
 51
196.957773
  0
LINE
  5
A21E
330
A0B9
100
AcDbEntity
  8
5
  6
PHANTOM
100
AcDbLine
 10
26.43073199999999
 20
137.153524
 30
0.0
 11
24.95248399999999
 21
137.153524
 31
0.0
  0
LINE
  5
A21F
330
A0B9
100
AcDbEntity
  8
5
  6
PHANTOM
100
AcDbLine
 10
52.364952
 20
146.8867389999998
 30
0.0
 11
52.364952
 21
141.903524
 31
0.0
  0
ARC
  5
A220
330
A0B9
100
AcDbEntity
  8
5
  6
PHANTOM
100
AcDbCircle
 10
36.43073199999999
 20
140.153524
 30
0.0
 40
12.5
100
AcDbArc
 50
36.472332
 51
50.208181
  0
ARC
  5
A221
330
A0B9
100
AcDbEntity
  8
5
  6
PHANTOM
100
AcDbCircle
 10
46.884605
 20
147.881154
 30
0.0
 40
0.5
100
AcDbArc
 50
216.4723299999999
 51
264.8657109999999
  0
ARC
  5
A222
330
A0B9
100
AcDbEntity
  8
5
  6
PHANTOM
100
AcDbCircle
 10
53.040992
 20
140.153524
 30
0.0
 40
1.876041999999999
100
AcDbArc
 50
111.122027
 51
248.8779779999999
  0
ARC
  5
A223
330
A0B9
100
AcDbEntity
  8
5
  6
PHANTOM
100
AcDbCircle
 10
46.884605
 20
132.4258629999999
 30
0.0
 40
0.5
100
AcDbArc
 50
95.13428899999999
 51
143.527668
  0
LINE
  5
A224
330
A0B9
100
AcDbEntity
  8
5
  6
PHANTOM
100
AcDbLine
 10
52.364952
 20
138.403524
 30
0.0
 11
52.364952
 21
133.4203079999997
 31
0.0
  0
LINE
  5
A225
330
A0B9
100
AcDbEntity
  8
5
  6
PHANTOM
100
AcDbLine
 10
61.43073199999999
 20
145.0126239999999
 30
0.0
 11
61.43073199999999
 21
141.153524
 31
0.0
  0
ARC
  5
A226
330
A0B9
100
AcDbEntity
  8
5
  6
PHANTOM
100
AcDbCircle
 10
71.43073199999998
 20
140.153524
 30
0.0
 40
5.0
100
AcDbArc
 50
275.134289
 51
84.865711
  0
LINE
  5
A227
330
A0B9
100
AcDbEntity
  8
5
  6
PHANTOM
100
AcDbLine
 10
76.114479
 20
138.403524
 30
0.0
 11
62.43073199999999
 21
138.403524
 31
0.0
  0
LINE
  5
A228
330
A0B9
100
AcDbEntity
  8
5
  6
PHANTOM
100
AcDbLine
 10
76.114479
 20
141.903524
 30
0.0
 11
62.43073199999999
 21
141.903524
 31
0.0
  0
LINE
  5
A229
330
A0B9
100
AcDbEntity
  8
5
  6
PHANTOM
100
AcDbLine
 10
61.43073199999999
 20
139.153524
 30
0.0
 11
61.43073199999999
 21
135.181722
 31
0.0
  0
ARC
  5
A22A
330
A0B9
100
AcDbEntity
  8
5
  6
PHANTOM
100
AcDbCircle
 10
324.7051309999998
 20
140.153524
 30
0.0
 40
7.0
100
AcDbArc
 50
340.5287809999999
 51
109.47122
  0
LINE
  5
A22B
330
A0B9
100
AcDbEntity
  8
5
  6
PHANTOM
100
AcDbLine
 10
310.205131
 20
142.403524
 30
0.0
 11
310.205131
 21
147.0156
 31
0.0
  0
LINE
  5
A22C
330
A0B9
100
AcDbEntity
  8
5
  6
PHANTOM
100
AcDbLine
 10
314.296012
 20
147.3831689999999
 30
0.0
 11
289.257682
 21
145.1334589999999
 31
0.0
  0
LINE
  5
A22D
330
A0B9
100
AcDbEntity
  8
5
  6
PHANTOM
100
AcDbLine
 10
303.0747139999999
 20
137.903524
 30
0.0
 11
309.2051309999998
 21
137.903524
 31
0.0
  0
LINE
  5
A22E
330
A0B9
100
AcDbEntity
  8
5
  6
PHANTOM
100
AcDbLine
 10
303.0747139999999
 20
142.403524
 30
0.0
 11
309.2051309999998
 21
142.403524
 31
0.0
  0
LINE
  5
A22F
330
A0B9
100
AcDbEntity
  8
5
  6
PHANTOM
100
AcDbLine
 10
314.295997
 20
132.9238639999998
 30
0.0
 11
289.257682
 21
135.173574
 31
0.0
  0
ARC
  5
A230
330
A0B9
100
AcDbEntity
  8
5
  6
PHANTOM
100
AcDbCircle
 10
324.7051309999998
 20
140.153524
 30
0.0
 40
12.5
100
AcDbArc
 50
216.4723319999999
 51
343.0422259999998
  0
ARC
  5
A231
330
A0B9
100
AcDbEntity
  8
5
  6
PHANTOM
100
AcDbCircle
 10
331.776206
 20
137.653524
 30
0.0
 40
0.5
100
AcDbArc
 50
160.528779
 51
270.0000049999998
  0
ARC
  5
A232
330
A0B9
100
AcDbEntity
  8
5
  6
PHANTOM
100
AcDbCircle
 10
336.1833789999999
 20
136.653524
 30
0.0
 40
0.5
100
AcDbArc
 50
343.042236
 51
90.0
  0
LINE
  5
A233
330
A0B9
100
AcDbEntity
  8
5
  6
PHANTOM
100
AcDbLine
 10
331.776206
 20
137.153524
 30
0.0
 11
336.1833789999999
 21
137.153524
 31
0.0
  0
ARC
  5
A234
330
A0B9
100
AcDbEntity
  8
5
  6
PHANTOM
100
AcDbCircle
 10
309.2676309999998
 20
140.153509
 30
0.0
 40
2.437504
100
AcDbArc
 50
292.6200929999998
 51
67.379908
  0
ARC
  5
A235
330
A0B9
100
AcDbEntity
  8
5
  6
PHANTOM
100
AcDbCircle
 10
314.2512579999999
 20
132.4258629999999
 30
0.0
 40
0.5
100
AcDbArc
 50
36.47233699999999
 51
84.86570699999999
  0
LINE
  5
A236
330
A0B9
100
AcDbEntity
  8
5
  6
PHANTOM
100
AcDbLine
 10
310.205131
 20
133.291433
 30
0.0
 11
310.205131
 21
137.903524
 31
0.0
  0
ARC
  5
A237
330
A0B9
100
AcDbEntity
  8
5
  6
PHANTOM
100
AcDbCircle
 10
289.705131
 20
140.153524
 30
0.0
 40
5.0
100
AcDbArc
 50
95.134293
 51
264.8657109999999
  0
LINE
  5
A238
330
A0B9
100
AcDbEntity
  8
5
  6
PHANTOM
100
AcDbLine
 10
302.0747139999999
 20
141.153524
 30
0.0
 11
302.0747139999999
 21
145.0126389999998
 31
0.0
  0
LINE
  5
A239
330
A0B9
100
AcDbEntity
  8
5
  6
PHANTOM
100
AcDbLine
 10
285.239997
 20
142.403524
 30
0.0
 11
301.0747139999998
 21
142.403524
 31
0.0
  0
LINE
  5
A23A
330
A0B9
100
AcDbEntity
  8
5
  6
PHANTOM
100
AcDbLine
 10
285.239997
 20
137.903524
 30
0.0
 11
301.0747139999998
 21
137.903524
 31
0.0
  0
LINE
  5
A23B
330
A0B9
100
AcDbEntity
  8
5
  6
PHANTOM
100
AcDbLine
 10
302.0747139999999
 20
135.181737
 30
0.0
 11
302.0747139999999
 21
139.153524
 31
0.0
  0
ARC
  5
A23C
330
A0B9
100
AcDbEntity
  8
5
  6
PHANTOM
100
AcDbCircle
 10
324.7051309999998
 20
140.153524
 30
0.0
 40
12.5
100
AcDbArc
 50
106.9577629999999
 51
143.5276629999999
  0
ARC
  5
A23D
330
A0B9
100
AcDbEntity
  8
5
  6
PHANTOM
100
AcDbCircle
 10
322.2051309999999
 20
147.224584
 30
0.0
 40
0.5
100
AcDbArc
 50
180.0000029999999
 51
289.471221
  0
ARC
  5
A23E
330
A0B9
100
AcDbEntity
  8
5
  6
PHANTOM
100
AcDbCircle
 10
321.205131
 20
151.6317649999998
 30
0.0
 40
0.5
100
AcDbArc
 50
359.999997
 51
106.9577629999999
  0
LINE
  5
A23F
330
A0B9
100
AcDbEntity
  8
5
  6
PHANTOM
100
AcDbLine
 10
321.7051309999998
 20
147.224584
 30
0.0
 11
321.7051309999998
 21
151.6317649999998
 31
0.0
  0
ARC
  5
A240
330
A0B9
100
AcDbEntity
  8
5
  6
PHANTOM
100
AcDbCircle
 10
314.2512579999999
 20
147.88117
 30
0.0
 40
0.5
100
AcDbArc
 50
275.134289
 51
323.527668
  0
LINE
  5
A241
330
A0B9
100
AcDbEntity
  8
1
  6
Continuous
100
AcDbLine
 10
42.411045
 20
164.4672659999999
 30
0.0
 11
41.410682
 21
175.6009579999999
 31
0.0
  0
LINE
  5
A242
330
A0B9
100
AcDbEntity
  8
1
  6
Continuous
100
AcDbLine
 10
30.450436
 20
164.467285
 30
0.0
 11
31.450813
 21
175.600988
 31
0.0
  0
ARC
  5
A243
330
A0B9
100
AcDbEntity
  8
1
  6
Continuous
100
AcDbCircle
 10
36.43073199999999
 20
140.153524
 30
0.0
 40
12.5
100
AcDbArc
 50
309.7918189999999
 51
50.208181
  0
LINE
  5
A244
330
A0B9
100
AcDbEntity
  8
1
  6
Continuous
100
AcDbLine
 10
34.680732
 20
179.8372709999999
 30
0.0
 11
34.680732
 21
166.9597719999998
 31
0.0
  0
LINE
  5
A245
330
A0B9
100
AcDbEntity
  8
1
  6
Continuous
100
AcDbLine
 10
38.180732
 20
179.8372709999999
 30
0.0
 11
38.180732
 21
166.9597719999998
 31
0.0
  0
ARC
  5
A246
330
A0B9
100
AcDbEntity
  8
1
  6
Continuous
100
AcDbCircle
 10
36.43073199999999
 20
175.153524
 30
0.0
 40
5.0
100
AcDbArc
 50
5.134288999999998
 51
174.865711
  0
LINE
  5
A247
330
A0B9
100
AcDbEntity
  8
1
  6
Continuous
100
AcDbLine
 10
26.43073199999999
 20
143.153524
 30
0.0
 11
24.952491
 21
143.153524
 31
0.0
  0
ARC
  5
A248
330
A0B9
100
AcDbEntity
  8
1
  6
Continuous
100
AcDbCircle
 10
24.952491
 20
143.6535239999998
 30
0.0
 40
0.5
100
AcDbArc
 50
163.0422439999998
 51
270.000001
  0
ARC
  5
A249
330
A0B9
100
AcDbEntity
  8
1
  6
Continuous
100
AcDbCircle
 10
36.43073199999999
 20
140.153524
 30
0.0
 40
12.5
100
AcDbArc
 50
129.791819
 51
163.0422439999998
  0
ARC
  5
A24A
330
A0B9
100
AcDbEntity
  8
5
  6
PHANTOM
100
AcDbCircle
 10
36.43073199999999
 20
140.153524
 30
0.0
 40
12.5
100
AcDbArc
 50
309.7918189999999
 51
323.52767
  0
LINE
  5
A24B
330
A0B9
100
AcDbEntity
  8
1
  6
Continuous
100
AcDbLine
 10
321.7051309999998
 20
133.0824489999999
 30
0.0
 11
321.7051309999998
 21
128.6752759999999
 31
0.0
  0
ARC
  5
A24C
330
A0B9
100
AcDbEntity
  8
1
  6
Continuous
100
AcDbCircle
 10
324.7051309999998
 20
140.153524
 30
0.0
 40
12.5
100
AcDbArc
 50
126.472332
 51
253.0422259999999
  0
ARC
  5
A24D
330
A0B9
100
AcDbEntity
  8
1
  6
Continuous
100
AcDbCircle
 10
321.205131
 20
128.6752759999999
 30
0.0
 40
0.5
100
AcDbArc
 50
253.0422359999998
 51
0.0
  0
LINE
  5
A24E
330
A0B9
100
AcDbEntity
  8
1
  6
Continuous
100
AcDbLine
 10
322.4551309999998
 20
179.618658
 30
0.0
 11
322.4551309999998
 21
163.7839409999999
 31
0.0
  0
LINE
  5
A24F
330
A0B9
100
AcDbEntity
  8
1
  6
Continuous
100
AcDbLine
 10
326.955131
 20
179.618658
 30
0.0
 11
326.955131
 21
163.7839409999999
 31
0.0
  0
LINE
  5
A250
330
A0B9
100
AcDbEntity
  8
1
  6
Continuous
100
AcDbLine
 10
317.4754709999999
 20
150.5626579999999
 30
0.0
 11
319.725181
 21
175.600973
 31
0.0
  0
LINE
  5
A251
330
A0B9
100
AcDbEntity
  8
1
  6
Continuous
100
AcDbLine
 10
331.9347759999998
 20
150.5626429999998
 30
0.0
 11
329.685066
 21
175.600973
 31
0.0
  0
ARC
  5
A252
330
A0B9
100
AcDbEntity
  8
1
  6
Continuous
100
AcDbCircle
 10
331.7761909999999
 20
142.6535239999998
 30
0.0
 40
0.5
100
AcDbArc
 50
90.00000300000001
 51
199.4712209999999
  0
ARC
  5
A253
330
A0B9
100
AcDbEntity
  8
1
  6
Continuous
100
AcDbCircle
 10
316.97747
 20
150.6073969999999
 30
0.0
 40
0.5
100
AcDbArc
 50
306.4723369999999
 51
354.8657069999999
  0
ARC
  5
A254
330
A0B9
100
AcDbEntity
  8
1
  6
Continuous
100
AcDbCircle
 10
322.2051309999999
 20
133.0824489999999
 30
0.0
 40
0.5
100
AcDbArc
 50
70.528779
 51
180.000005
  0
ARC
  5
A255
330
A0B9
100
AcDbEntity
  8
1
  6
Continuous
100
AcDbCircle
 10
332.432777
 20
150.6073969999999
 30
0.0
 40
0.5
100
AcDbArc
 50
185.1342889999999
 51
233.527668
  0
LINE
  5
A256
330
A0B9
100
AcDbEntity
  8
1
  6
Continuous
100
AcDbLine
 10
331.7761909999999
 20
143.153524
 30
0.0
 11
336.183372
 21
143.153524
 31
0.0
  0
ARC
  5
A257
330
A0B9
100
AcDbEntity
  8
1
  6
Continuous
100
AcDbCircle
 10
336.183372
 20
143.6535239999998
 30
0.0
 40
0.5
100
AcDbArc
 50
269.9999969999999
 51
16.957763
  0
ARC
  5
A258
330
A0B9
100
AcDbEntity
  8
1
  6
Continuous
100
AcDbCircle
 10
324.7051309999998
 20
140.153524
 30
0.0
 40
12.5
100
AcDbArc
 50
16.957763
 51
53.52766299999998
  0
LINE
  5
A259
330
A0B9
100
AcDbEntity
  8
1
  6
Continuous
100
AcDbLine
 10
326.955131
 20
154.653524
 30
0.0
 11
331.567207
 21
154.653524
 31
0.0
  0
LINE
  5
A25A
330
A0B9
100
AcDbEntity
  8
1
  6
Continuous
100
AcDbLine
 10
319.7333439999998
 20
162.7839409999999
 30
0.0
 11
323.705131
 21
162.7839409999999
 31
0.0
  0
LINE
  5
A25B
330
A0B9
100
AcDbEntity
  8
1
  6
Continuous
100
AcDbLine
 10
325.705131
 20
162.7839409999999
 30
0.0
 11
329.5642459999999
 21
162.7839409999999
 31
0.0
  0
LINE
  5
A25C
330
A0B9
100
AcDbEntity
  8
1
  6
Continuous
100
AcDbLine
 10
317.8430399999998
 20
154.653524
 30
0.0
 11
322.4551309999998
 21
154.653524
 31
0.0
  0
ARC
  5
A25D
330
A0B9
100
AcDbEntity
  8
1
  6
Continuous
100
AcDbCircle
 10
324.7051159999998
 20
155.591024
 30
0.0
 40
2.437504
100
AcDbArc
 50
202.6200929999999
 51
337.3799079999999
  0
LINE
  5
A25E
330
A0B9
100
AcDbEntity
  8
1
  6
Continuous
100
AcDbLine
 10
326.955131
 20
161.783941
 30
0.0
 11
326.955131
 21
155.653524
 31
0.0
  0
LINE
  5
A25F
330
A0B9
100
AcDbEntity
  8
1
  6
Continuous
100
AcDbLine
 10
322.4551309999998
 20
161.783941
 30
0.0
 11
322.4551309999998
 21
155.653524
 31
0.0
  0
ARC
  5
A260
330
A0B9
100
AcDbEntity
  8
1
  6
Continuous
100
AcDbCircle
 10
324.7051309999998
 20
175.153524
 30
0.0
 40
5.0
100
AcDbArc
 50
5.134293
 51
174.865711
  0
LINE
  5
A261
330
A0B9
100
AcDbEntity
  8
1
  6
Continuous
100
AcDbLine
 10
444.3929289999998
 20
137.153524
 30
0.0
 11
444.3929289999998
 21
128.0188579999999
 31
0.0
  0
LINE
  5
A262
330
A0B9
100
AcDbEntity
  8
1
  6
Continuous
100
AcDbLine
 10
202.717353
 20
44.814916
 30
0.0
 11
202.717353
 21
42.34506699999999
 31
0.0
  0
LINE
  5
A263
330
A0B9
100
AcDbEntity
  8
1
  6
Continuous
100
AcDbLine
 10
205.0173519999999
 20
44.518402
 30
0.0
 11
205.0173519999999
 21
42.34506699999999
 31
0.0
  0
ARC
  5
A264
330
A0B9
100
AcDbEntity
  8
1
  6
Continuous
100
AcDbCircle
 10
223.5173639999999
 20
177.853524
 30
0.0
 40
2.299999999999998
100
AcDbArc
 50
90.0
 51
180.0
  0
ARC
  5
A265
330
A0B9
100
AcDbEntity
  8
1
  6
Continuous
100
AcDbCircle
 10
225.017352
 20
178.653524
 30
0.0
 40
1.5
100
AcDbArc
 50
90.0
 51
180.0
  0
ARC
  5
A266
330
A0B9
100
AcDbEntity
  8
1
  6
Continuous
100
AcDbCircle
 10
425.892916
 20
177.853524
 30
0.0
 40
2.299999999999998
100
AcDbArc
 50
0.0
 51
90.0
  0
ARC
  5
A267
330
A0B9
100
AcDbEntity
  8
1
  6
Continuous
100
AcDbCircle
 10
424.3929289999998
 20
178.653524
 30
0.0
 40
1.5
100
AcDbArc
 50
0.0
 51
90.0
  0
ARC
  5
A268
330
A0B9
100
AcDbEntity
  8
1
  6
Continuous
100
AcDbCircle
 10
206.8933939999999
 20
225.8273219999999
 30
0.0
 40
1.876041999999999
100
AcDbArc
 50
111.122022
 51
248.877973
  0
ENDSEC
  0
SECTION
  2
OBJECTS
  0
DICTIONARY
  5
A0A7
330
0
100
AcDbDictionary
281
     1
  3
ACAD_CIP_PREVIOUS_PRODUCT_INFO
350
A2CC
  3
ACAD_COLOR
350
A2AE
  3
ACAD_DETAILVIEWSTYLE
350
A2C7
  3
ACAD_GROUP
350
A0A8
  3
ACAD_LAYOUT
350
A0B4
  3
ACAD_MATERIAL
350
A27C
  3
ACAD_MLEADERSTYLE
350
A2C3
  3
ACAD_MLINESTYLE
350
A0B1
  3
ACAD_PLOTSETTINGS
350
A0B3
  3
ACAD_PLOTSTYLENAME
350
A27A
  3
ACAD_SCALELIST
350
A2B1
  3
ACAD_SECTIONVIEWSTYLE
350
A2C5
  3
ACAD_TABLESTYLE
350
A2AF
  3
ACAD_VISUALSTYLE
350
A295
  3
ACDB_RECOMPOSE_DATA
350
A2EA
  3
AcDbVariableDictionary
350
A2DD
  3
DWGPROPS
350
A2EB
  0
DICTIONARY
  5
A2CD
330
A0AB
100
AcDbDictionary
280
     1
281
     1
  3
ADSK_XREC_LAYER_RECONCILED
360
A2CE
  0
DICTIONARY
  5
A2CF
330
A0C1
100
AcDbDictionary
280
     1
281
     1
  3
ADSK_XREC_LAYER_RECONCILED
360
A2D0
  0
DICTIONARY
  5
A2D1
330
A0C2
100
AcDbDictionary
280
     1
281
     1
  3
ADSK_XREC_LAYER_RECONCILED
360
A2D2
  0
DICTIONARY
  5
A2D3
330
A0C3
100
AcDbDictionary
280
     1
281
     1
  3
ADSK_XREC_LAYER_RECONCILED
360
A2D4
  0
DICTIONARY
  5
A2D5
330
A0C4
100
AcDbDictionary
280
     1
281
     1
  3
ADSK_XREC_LAYER_RECONCILED
360
A2D6
  0
DICTIONARY
  5
A2D7
330
A0C5
100
AcDbDictionary
280
     1
281
     1
  3
ADSK_XREC_LAYER_RECONCILED
360
A2D8
  0
DICTIONARY
  5
A2D9
330
A0C6
100
AcDbDictionary
280
     1
281
     1
  3
ADSK_XREC_LAYER_RECONCILED
360
A2DA
  0
DICTIONARY
  5
A2DB
330
A0C7
100
AcDbDictionary
280
     1
281
     1
  3
ADSK_XREC_LAYER_RECONCILED
360
A2DC
  0
DICTIONARY
  5
A275
330
A0B9
100
AcDbDictionary
281
     1
  3
ACAD_LAYOUTSELFREF
350
A276
  0
DICTIONARY
  5
A273
330
A0B5
100
AcDbDictionary
281
     1
  3
ACAD_LAYOUTSELFREF
350
A274
  0
XRECORD
  5
A2CC
102
{ACAD_REACTORS
330
A0A7
102
}
330
A0A7
100
AcDbXrecord
280
     1
300
ACDLT
300
2014
300
ACDLT_F_S
  0
DICTIONARY
  5
A2AE
102
{ACAD_REACTORS
330
A0A7
102
}
330
A0A7
100
AcDbDictionary
281
     1
  0
DICTIONARY
  5
A2C7
102
{ACAD_REACTORS
330
A0A7
102
}
330
A0A7
100
AcDbDictionary
281
     1
  3
Imperial24
350
A2C8
  0
DICTIONARY
  5
A0A8
102
{ACAD_REACTORS
330
A0A7
102
}
330
A0A7
100
AcDbDictionary
281
     1
  0
DICTIONARY
  5
A0B4
102
{ACAD_REACTORS
330
A0A7
102
}
330
A0A7
100
AcDbDictionary
281
     1
  3
Model
350
A2C9
  3
レイアウト1
350
A2CA
  0
DICTIONARY
  5
A27C
102
{ACAD_REACTORS
330
A0A7
102
}
330
A0A7
100
AcDbDictionary
281
     1
  3
ByBlock
350
A285
  3
ByLayer
350
A27D
  3
Global
350
A28D
  0
DICTIONARY
  5
A2C3
102
{ACAD_REACTORS
330
A0A7
102
}
330
A0A7
100
AcDbDictionary
281
     1
  3
Standard
350
A2C4
  0
DICTIONARY
  5
A0B1
102
{ACAD_REACTORS
330
A0A7
102
}
330
A0A7
100
AcDbDictionary
281
     1
  3
STANDARD
350
A0B2
  0
DICTIONARY
  5
A0B3
102
{ACAD_REACTORS
330
A0A7
102
}
330
A0A7
100
AcDbDictionary
281
     1
  0
ACDBDICTIONARYWDFLT
  5
A27A
102
{ACAD_REACTORS
330
A0A7
102
}
330
A0A7
100
AcDbDictionary
281
     1
  3
Normal
350
A27B
100
AcDbDictionaryWithDefault
340
A27B
  0
DICTIONARY
  5
A2B1
102
{ACAD_REACTORS
330
A0A7
102
}
330
A0A7
100
AcDbDictionary
281
     1
  3
A0
350
A2B2
  3
A1
350
A2B3
  3
A2
350
A2B4
  3
A3
350
A2B5
  3
A4
350
A2B6
  3
A5
350
A2B7
  3
A6
350
A2B8
  3
A7
350
A2B9
  3
A8
350
A2BA
  3
A9
350
A2BB
  3
B0
350
A2BC
  3
B1
350
A2BD
  3
B2
350
A2BE
  3
B3
350
A2BF
  3
B4
350
A2C0
  3
B5
350
A2C1
  3
B6
350
A2C2
  0
DICTIONARY
  5
A2C5
102
{ACAD_REACTORS
330
A0A7
102
}
330
A0A7
100
AcDbDictionary
281
     1
  3
Imperial24
350
A2C6
  0
DICTIONARY
  5
A2AF
102
{ACAD_REACTORS
330
A0A7
102
}
330
A0A7
100
AcDbDictionary
281
     1
  3
Standard
350
A2B0
  0
DICTIONARY
  5
A295
102
{ACAD_REACTORS
330
A0A7
102
}
330
A0A7
100
AcDbDictionary
281
     1
  3
2dWireframe
350
A29B
  3
Basic
350
A29A
  3
Brighten
350
A2A1
  3
ColorChange
350
A2A5
  3
Conceptual
350
A29E
  3
Dim
350
A2A0
  3
EdgeColorOff
350
A2AD
  3
Facepattern
350
A2A4
  3
Flat
350
A296
  3
FlatWithEdges
350
A297
  3
Gouraud
350
A298
  3
GouraudWithEdges
350
A299
  3
Hidden
350
A29D
  3
JitterOff
350
A2AB
  3
Linepattern
350
A2A3
  3
OverhangOff
350
A2AC
  3
Realistic
350
A29F
  3
Shaded
350
A2AA
  3
Shaded with edges
350
A2A9
  3
Shades of Gray
350
A2A6
  3
Sketchy
350
A2A7
  3
Thicken
350
A2A2
  3
Wireframe
350
A29C
  3
X-Ray
350
A2A8
  0
XRECORD
  5
A2EA
102
{ACAD_REACTORS
330
A0A7
102
}
330
A0A7
100
AcDbXrecord
280
     1
 90
        1
330
A2B0
  0
DICTIONARY
  5
A2DD
102
{ACAD_REACTORS
330
A0A7
102
}
330
A0A7
100
AcDbDictionary
281
     1
  3
CANNOSCALE
350
A2E2
  3
CMLEADERSTYLE
350
A2DF
  3
CTABLESTYLE
350
A2DE
  3
CVIEWDETAILSTYLE
350
A2E0
  3
CVIEWSECTIONSTYLE
350
A2E1
  3
DIMASSOC
350
A2E5
  3
INDEXCTL
350
A2E4
  3
SORTENTS
350
A2E3
  3
XCLIPFRAME
350
A2E6
  0
XRECORD
  5
A2EB
102
{ACAD_REACTORS
330
A0A7
102
}
330
A0A7
100
AcDbXrecord
280
     1
  1
DWGPROPS COOKIE
  2

  3

  4

  6

  7

  8
Yoshitsune
  9

300
=
301
=
302
=
303
=
304
=
305
=
306
=
307
=
308
=
309
=
 40
0.0000137731481481
 41
2451344.671518171
 42
2457192.603568842
  1

 90
        0
  0
XRECORD
  5
A2CE
102
{ACAD_REACTORS
330
A2CD
102
}
330
A2CD
100
AcDbXrecord
280
     1
290
     1
  0
XRECORD
  5
A2D0
102
{ACAD_REACTORS
330
A2CF
102
}
330
A2CF
100
AcDbXrecord
280
     1
290
     1
  0
XRECORD
  5
A2D2
102
{ACAD_REACTORS
330
A2D1
102
}
330
A2D1
100
AcDbXrecord
280
     1
290
     1
  0
XRECORD
  5
A2D4
102
{ACAD_REACTORS
330
A2D3
102
}
330
A2D3
100
AcDbXrecord
280
     1
290
     1
  0
XRECORD
  5
A2D6
102
{ACAD_REACTORS
330
A2D5
102
}
330
A2D5
100
AcDbXrecord
280
     1
290
     1
  0
XRECORD
  5
A2D8
102
{ACAD_REACTORS
330
A2D7
102
}
330
A2D7
100
AcDbXrecord
280
     1
290
     1
  0
XRECORD
  5
A2DA
102
{ACAD_REACTORS
330
A2D9
102
}
330
A2D9
100
AcDbXrecord
280
     1
290
     1
  0
XRECORD
  5
A2DC
102
{ACAD_REACTORS
330
A2DB
102
}
330
A2DB
100
AcDbXrecord
280
     1
290
     1
  0
XRECORD
  5
A276
102
{ACAD_REACTORS
330
A275
102
}
330
A275
100
AcDbXrecord
280
     1
340
A0B9
  0
XRECORD
  5
A274
102
{ACAD_REACTORS
330
A273
102
}
330
A273
100
AcDbXrecord
280
     1
340
A0B5
  0
ACDBDETAILVIEWSTYLE
  5
A2C8
102
{ACAD_XDICTIONARY
360
A323
102
}
102
{ACAD_REACTORS
330
A2C7
102
}
330
A2C7
100
AcDbModelDocViewStyle
 70
     0
  3
Imperial24
290
     0
100
AcDbDetailViewStyle
 70
     0
 71
     0
 90
        3
 71
     1
340
A0AC
 40
0.24
340
0
 40
0.24
300

 40
0.36
280
     3
 71
     2
340
A0B0
 90
       25
 71
     3
340
A0AC
 40
0.24
 90
        1
 40
0.75
 90
        1
300
%<\AcVar ViewType \f "%tc1">% %<\AcVar ViewDetailId>%\PSCALE %<\AcVar ViewScale \f "%sn">%
 71
     4
340
A0B0
 90
       25
340
A0B0
 90
       25
280
     0
  0
LAYOUT
  5
A2C9
102
{ACAD_XDICTIONARY
360
A325
102
}
102
{ACAD_REACTORS
330
A0B4
102
}
330
A0B4
100
AcDbPlotSettings
  1

  2
Canon LBP9100C
  4

  6

 40
0.0
 41
0.0
 42
0.0
 43
0.0
 44
0.0
 45
0.0
 46
0.0
 47
0.0
 48
0.0
 49
0.0
140
0.0
141
0.0
142
1.0
143
1.0
 70
  1712
 72
     0
 73
     0
 74
     0
  7

 75
     0
147
1.0
148
0.0
149
0.0
100
AcDbLayout
  1
Model
 70
     1
 71
     0
 10
0.0
 20
0.0
 11
12.0
 21
9.0
 12
0.0
 22
0.0
 32
0.0
 14
0.0
 24
0.0
 34
0.0
 15
0.0
 25
0.0
 35
0.0
146
0.0
 13
0.0
 23
0.0
 33
0.0
 16
1.0
 26
0.0
 36
0.0
 17
0.0
 27
1.0
 37
0.0
 76
     0
330
A0B9
331
A272
  0
LAYOUT
  5
A2CA
102
{ACAD_XDICTIONARY
360
A327
102
}
102
{ACAD_REACTORS
330
A0B4
102
}
330
A0B4
100
AcDbPlotSettings
  1

  2
Canon LBP9100C
  4

  6

 40
0.0
 41
0.0
 42
0.0
 43
0.0
 44
0.0
 45
0.0
 46
0.0
 47
0.0
 48
0.0
 49
0.0
140
0.0
141
0.0
142
1.0
143
1.0
 70
   688
 72
     0
 73
     0
 74
     5
  7

 75
    16
147
1.0
148
0.0
149
0.0
100
AcDbLayout
  1
レイアウト1
 70
     0
 71
     1
 10
0.0
 20
0.0
 11
420.0
 21
297.0
 12
0.0
 22
0.0
 32
0.0
 14
1.000000000000000E+20
 24
1.000000000000000E+20
 34
1.000000000000000E+20
 15
-1.000000000000000E+20
 25
-1.000000000000000E+20
 35
-1.000000000000000E+20
146
0.0
 13
0.0
 23
0.0
 33
0.0
 16
1.0
 26
0.0
 36
0.0
 17
0.0
 27
1.0
 37
0.0
 76
     0
330
A0B5
  0
MATERIAL
  5
A285
102
{ACAD_XDICTIONARY
360
A286
102
}
102
{ACAD_REACTORS
330
A27C
102
}
330
A27C
100
AcDbMaterial
  1
ByBlock
 72
     0
 43
0.0208333333333333
 43
0.0
 43
0.0
 43
0.0
 43
0.0
 43
0.0208333333333333
 43
0.0
 43
0.0
 43
0.0
 43
0.0
 43
1.0
 43
0.0
 43
0.0
 43
0.0
 43
0.0
 43
1.0
 77
     0
 47
0.0208333333333333
 47
0.0
 47
0.0
 47
0.0
 47
0.0
 47
0.0208333333333333
 47
0.0
 47
0.0
 47
0.0
 47
0.0
 47
1.0
 47
0.0
 47
0.0
 47
0.0
 47
0.0
 47
1.0
171
     0
 49
0.0208333333333333
 49
0.0
 49
0.0
 49
0.0
 49
0.0
 49
0.0208333333333333
 49
0.0
 49
0.0
 49
0.0
 49
0.0
 49
1.0
 49
0.0
 49
0.0
 49
0.0
 49
0.0
 49
1.0
175
     0
142
0.0208333333333333
142
0.0
142
0.0
142
0.0
142
0.0
142
0.0208333333333333
142
0.0
142
0.0
142
0.0
142
0.0
142
1.0
142
0.0
142
0.0
142
0.0
142
0.0
142
1.0
179
     0
144
0.0208333333333333
144
0.0
144
0.0
144
0.0
144
0.0
144
0.0208333333333333
144
0.0
144
0.0
144
0.0
144
0.0
144
1.0
144
0.0
144
0.0
144
0.0
144
0.0
144
1.0
147
0.0208333333333333
147
0.0
147
0.0
147
0.0
147
0.0
147
0.0208333333333333
147
0.0
147
0.0
147
0.0
147
0.0
147
1.0
147
0.0
147
0.0
147
0.0
147
0.0
147
1.0
  0
MATERIAL
  5
A27D
102
{ACAD_XDICTIONARY
360
A27E
102
}
102
{ACAD_REACTORS
330
A27C
102
}
330
A27C
100
AcDbMaterial
  1
ByLayer
 72
     0
 43
0.0208333333333333
 43
0.0
 43
0.0
 43
0.0
 43
0.0
 43
0.0208333333333333
 43
0.0
 43
0.0
 43
0.0
 43
0.0
 43
1.0
 43
0.0
 43
0.0
 43
0.0
 43
0.0
 43
1.0
 77
     0
 47
0.0208333333333333
 47
0.0
 47
0.0
 47
0.0
 47
0.0
 47
0.0208333333333333
 47
0.0
 47
0.0
 47
0.0
 47
0.0
 47
1.0
 47
0.0
 47
0.0
 47
0.0
 47
0.0
 47
1.0
171
     0
 49
0.0208333333333333
 49
0.0
 49
0.0
 49
0.0
 49
0.0
 49
0.0208333333333333
 49
0.0
 49
0.0
 49
0.0
 49
0.0
 49
1.0
 49
0.0
 49
0.0
 49
0.0
 49
0.0
 49
1.0
175
     0
142
0.0208333333333333
142
0.0
142
0.0
142
0.0
142
0.0
142
0.0208333333333333
142
0.0
142
0.0
142
0.0
142
0.0
142
1.0
142
0.0
142
0.0
142
0.0
142
0.0
142
1.0
179
     0
144
0.0208333333333333
144
0.0
144
0.0
144
0.0
144
0.0
144
0.0208333333333333
144
0.0
144
0.0
144
0.0
144
0.0
144
1.0
144
0.0
144
0.0
144
0.0
144
0.0
144
1.0
147
0.0208333333333333
147
0.0
147
0.0
147
0.0
147
0.0
147
0.0208333333333333
147
0.0
147
0.0
147
0.0
147
0.0
147
1.0
147
0.0
147
0.0
147
0.0
147
0.0
147
1.0
  0
MATERIAL
  5
A28D
102
{ACAD_XDICTIONARY
360
A28E
102
}
102
{ACAD_REACTORS
330
A27C
102
}
330
A27C
100
AcDbMaterial
  1
Global
 72
     0
 43
0.0208333333333333
 43
0.0
 43
0.0
 43
0.0
 43
0.0
 43
0.0208333333333333
 43
0.0
 43
0.0
 43
0.0
 43
0.0
 43
1.0
 43
0.0
 43
0.0
 43
0.0
 43
0.0
 43
1.0
 77
     0
 47
0.0208333333333333
 47
0.0
 47
0.0
 47
0.0
 47
0.0
 47
0.0208333333333333
 47
0.0
 47
0.0
 47
0.0
 47
0.0
 47
1.0
 47
0.0
 47
0.0
 47
0.0
 47
0.0
 47
1.0
171
     0
 49
0.0208333333333333
 49
0.0
 49
0.0
 49
0.0
 49
0.0
 49
0.0208333333333333
 49
0.0
 49
0.0
 49
0.0
 49
0.0
 49
1.0
 49
0.0
 49
0.0
 49
0.0
 49
0.0
 49
1.0
175
     0
142
0.0208333333333333
142
0.0
142
0.0
142
0.0
142
0.0
142
0.0208333333333333
142
0.0
142
0.0
142
0.0
142
0.0
142
1.0
142
0.0
142
0.0
142
0.0
142
0.0
142
1.0
179
     0
144
0.0208333333333333
144
0.0
144
0.0
144
0.0
144
0.0
144
0.0208333333333333
144
0.0
144
0.0
144
0.0
144
0.0
144
1.0
144
0.0
144
0.0
144
0.0
144
0.0
144
1.0
147
0.0208333333333333
147
0.0
147
0.0
147
0.0
147
0.0
147
0.0208333333333333
147
0.0
147
0.0
147
0.0
147
0.0
147
1.0
147
0.0
147
0.0
147
0.0
147
0.0
147
1.0
  0
MLEADERSTYLE
  5
A2C4
102
{ACAD_REACTORS
330
A2C3
102
}
330
A2C3
100
AcDbMLeaderStyle
170
     2
171
     1
172
     0
 90
        2
 40
0.0
 41
0.0
173
     1
 91
-1056964608
340
A0AE
 92
       -2
290
     1
 42
0.09
291
     1
 43
0.36
  3
Standard
 44
0.18
300

342
A0AC
174
     1
178
     6
175
     1
176
     0
 93
-1056964608
 45
0.18
292
     0
297
     0
 46
0.18
 94
-1056964608
 47
1.0
 49
1.0
140
1.0
293
     1
141
0.0
294
     1
177
     0
142
1.0
295
     0
296
     0
143
0.125
1001
ACAD_MLEADERVER
1070
     2
  0
MLINESTYLE
  5
A0B2
102
{ACAD_REACTORS
330
A0B1
102
}
330
A0B1
100
AcDbMlineStyle
  2
STANDARD
 70
     0
  3

 62
   256
 51
90.0
 52
90.0
 71
     2
 49
0.5
 62
   256
  6
BYLAYER
 49
-0.5
 62
   256
  6
BYLAYER
  0
ACDBPLACEHOLDER
  5
A27B
102
{ACAD_REACTORS
330
A27A
102
}
330
A27A
  0
SCALE
  5
A2B2
102
{ACAD_REACTORS
330
A2B1
102
}
330
A2B1
100
AcDbScale
 70
     0
300
1:1
140
1.0
141
1.0
290
     1
  0
SCALE
  5
A2B3
102
{ACAD_REACTORS
330
A2B1
102
}
330
A2B1
100
AcDbScale
 70
     0
300
1/128" = 1'-0"
140
0.0078125
141
12.0
290
     0
  0
SCALE
  5
A2B4
102
{ACAD_REACTORS
330
A2B1
102
}
330
A2B1
100
AcDbScale
 70
     0
300
1/64" = 1'-0"
140
0.015625
141
12.0
290
     0
  0
SCALE
  5
A2B5
102
{ACAD_REACTORS
330
A2B1
102
}
330
A2B1
100
AcDbScale
 70
     0
300
1/32" = 1'-0"
140
0.03125
141
12.0
290
     0
  0
SCALE
  5
A2B6
102
{ACAD_REACTORS
330
A2B1
102
}
330
A2B1
100
AcDbScale
 70
     0
300
1/16" = 1'-0"
140
0.0625
141
12.0
290
     0
  0
SCALE
  5
A2B7
102
{ACAD_REACTORS
330
A2B1
102
}
330
A2B1
100
AcDbScale
 70
     0
300
3/32" = 1'-0"
140
0.09375
141
12.0
290
     0
  0
SCALE
  5
A2B8
102
{ACAD_REACTORS
330
A2B1
102
}
330
A2B1
100
AcDbScale
 70
     0
300
1/8" = 1'-0"
140
0.125
141
12.0
290
     0
  0
SCALE
  5
A2B9
102
{ACAD_REACTORS
330
A2B1
102
}
330
A2B1
100
AcDbScale
 70
     0
300
3/16" = 1'-0"
140
0.1875
141
12.0
290
     0
  0
SCALE
  5
A2BA
102
{ACAD_REACTORS
330
A2B1
102
}
330
A2B1
100
AcDbScale
 70
     0
300
1/4" = 1'-0"
140
0.25
141
12.0
290
     0
  0
SCALE
  5
A2BB
102
{ACAD_REACTORS
330
A2B1
102
}
330
A2B1
100
AcDbScale
 70
     0
300
3/8" = 1'-0"
140
0.375
141
12.0
290
     0
  0
SCALE
  5
A2BC
102
{ACAD_REACTORS
330
A2B1
102
}
330
A2B1
100
AcDbScale
 70
     0
300
1/2" = 1'-0"
140
0.5
141
12.0
290
     0
  0
SCALE
  5
A2BD
102
{ACAD_REACTORS
330
A2B1
102
}
330
A2B1
100
AcDbScale
 70
     0
300
3/4" = 1'-0"
140
0.75
141
12.0
290
     0
  0
SCALE
  5
A2BE
102
{ACAD_REACTORS
330
A2B1
102
}
330
A2B1
100
AcDbScale
 70
     0
300
1" = 1'-0"
140
1.0
141
12.0
290
     0
  0
SCALE
  5
A2BF
102
{ACAD_REACTORS
330
A2B1
102
}
330
A2B1
100
AcDbScale
 70
     0
300
1-1/2" = 1'-0"
140
1.5
141
12.0
290
     0
  0
SCALE
  5
A2C0
102
{ACAD_REACTORS
330
A2B1
102
}
330
A2B1
100
AcDbScale
 70
     0
300
3" = 1'-0"
140
3.0
141
12.0
290
     0
  0
SCALE
  5
A2C1
102
{ACAD_REACTORS
330
A2B1
102
}
330
A2B1
100
AcDbScale
 70
     0
300
6" = 1'-0"
140
6.0
141
12.0
290
     0
  0
SCALE
  5
A2C2
102
{ACAD_REACTORS
330
A2B1
102
}
330
A2B1
100
AcDbScale
 70
     0
300
1'-0" = 1'-0"
140
12.0
141
12.0
290
     0
  0
ACDBSECTIONVIEWSTYLE
  5
A2C6
102
{ACAD_XDICTIONARY
360
A321
102
}
102
{ACAD_REACTORS
330
A2C5
102
}
330
A2C5
100
AcDbModelDocViewStyle
 70
     0
  3
Imperial24
290
     0
100
AcDbSectionViewStyle
 70
     0
 71
     0
 90
       78
 71
     1
340
A0AC
 40
0.24
340
0
340
0
 40
0.24
300
I, O, Q, S, X, Z
 40
0.48
 90
        3
 40
0.18
 90
        1
 71
     2
340
A0B0
 90
       25
340
A0B0
 90
       50
 40
0.24
 40
0.0
 40
0.24
 71
     3
340
A0AC
 40
0.24
 90
        1
 40
0.75
 90
        1
300
%<\AcVar ViewType \f "%tc1">% %<\AcVar ViewSectionStartId>%-%<\AcVar ViewSectionEndId>%\PSCALE %<\AcVar ViewScale \f "%sn">%
 71
     4
300
ANSI31
 40
1.0
 90
        0
290
     0
290
     0
 90
        6
 40
0.0
 40
1.570796326794896
 40
0.2617993877991494
 40
1.308996938995747
 40
-0.2617993877991494
 40
1.832595714594046
  0
TABLESTYLE
  5
A2B0
102
{ACAD_XDICTIONARY
360
A2E8
102
}
102
{ACAD_REACTORS
330
A2AF
102
}
330
A2AF
100
AcDbTableStyle
  3
Standard
 70
     0
 71
     0
 40
0.06
 41
0.06
280
     0
281
     0
  7
STANDARD
140
0.18
170
     2
 62
     0
 63
     7
283
     0
274
    -2
284
     1
 64
     0
275
    -2
285
     1
 65
     0
276
    -2
286
     1
 66
     0
277
    -2
287
     1
 67
     0
278
    -2
288
     1
 68
     0
279
    -2
289
     1
 69
     0
  7
STANDARD
140
0.25
170
     5
 62
     0
 63
     7
283
     0
274
    -2
284
     1
 64
     0
275
    -2
285
     1
 65
     0
276
    -2
286
     1
 66
     0
277
    -2
287
     1
 67
     0
278
    -2
288
     1
 68
     0
279
    -2
289
     1
 69
     0
  7
STANDARD
140
0.18
170
     5
 62
     0
 63
     7
283
     0
274
    -2
284
     1
 64
     0
275
    -2
285
     1
 65
     0
276
    -2
286
     1
 66
     0
277
    -2
287
     1
 67
     0
278
    -2
288
     1
 68
     0
279
    -2
289
     1
 69
     0
  0
VISUALSTYLE
  5
A29B
102
{ACAD_XDICTIONARY
360
A2F9
102
}
102
{ACAD_REACTORS
330
A295
102
}
330
A295
100
AcDbVisualStyle
  2
2dWireframe
 70
     4
 71
     0
 72
     2
 73
     0
 90
        0
 40
-0.6
 41
-30.0
 62
     5
 63
     7
 74
     1
 91
        4
 64
     7
 65
   257
 75
     1
175
     1
 42
1.0
 92
        0
 66
   257
 43
1.0
 76
     1
 77
     6
 78
     2
 67
     7
 79
     5
170
     0
171
     0
290
     0
174
     0
 93
        1
 44
0.0
173
     0
291
     0
 45
0.0
1001
ACAD
1000
AcDbSavedByObjectVersion
1070
     0
  0
VISUALSTYLE
  5
A29A
102
{ACAD_XDICTIONARY
360
A2F7
102
}
102
{ACAD_REACTORS
330
A295
102
}
330
A295
100
AcDbVisualStyle
  2
Basic
 70
     7
 71
     1
 72
     0
 73
     1
 90
        0
 40
-0.6
 41
-30.0
 62
     5
 63
     7
 74
     0
 91
        4
 64
     7
 65
   257
 75
     1
175
     1
 42
1.0
 92
        8
 66
     7
 43
1.0
 76
     1
 77
     6
 78
     2
 67
     7
 79
     5
170
     0
171
     0
290
     0
174
     0
 93
        1
 44
0.0
173
     0
291
     1
 45
0.0
1001
ACAD
1000
AcDbSavedByObjectVersion
1070
     0
  0
VISUALSTYLE
  5
A2A1
102
{ACAD_XDICTIONARY
360
A305
102
}
102
{ACAD_REACTORS
330
A295
102
}
330
A295
100
AcDbVisualStyle
  2
Brighten
 70
    12
 71
     2
 72
     2
 73
     0
 90
        0
 40
-0.6
 41
-30.0
 62
     5
 63
     7
 74
     1
 91
        4
 64
     7
 65
   257
 75
     1
175
     1
 42
1.0
 92
        8
 66
     7
 43
1.0
 76
     1
 77
     6
 78
     2
 67
     7
 79
     5
170
     0
171
     0
290
     0
174
     0
 93
        1
 44
50.0
173
     0
291
     1
 45
0.0
1001
ACAD
1000
AcDbSavedByObjectVersion
1070
     0
  0
VISUALSTYLE
  5
A2A5
102
{ACAD_XDICTIONARY
360
A30D
102
}
102
{ACAD_REACTORS
330
A295
102
}
330
A295
100
AcDbVisualStyle
  2
ColorChange
 70
    16
 71
     2
 72
     2
 73
     3
 90
        0
 40
-0.6
 41
-30.0
 62
     5
 63
     8
 74
     1
 91
        4
 64
     7
 65
   257
 75
     1
175
     1
 42
1.0
 92
        8
 66
     8
 43
1.0
 76
     1
 77
     6
 78
     2
 67
     7
 79
     5
170
     0
171
     0
290
     0
174
     0
 93
        1
 44
0.0
173
     0
291
     1
 45
0.0
1001
ACAD
1000
AcDbSavedByObjectVersion
1070
     0
  0
VISUALSTYLE
  5
A29E
102
{ACAD_XDICTIONARY
360
A2FF
102
}
102
{ACAD_REACTORS
330
A295
102
}
330
A295
100
AcDbVisualStyle
  2
Conceptual
 70
     9
 71
     3
 72
     2
 73
     0
 90
        0
 40
-0.6
 41
-30.0
 62
     5
 63
     7
 74
     2
 91
        2
 64
     7
 65
   257
 75
     1
175
     1
 42
179.0
 92
        8
 66
     7
 43
1.0
 76
     1
 77
     6
 78
     2
 67
     7
 79
     3
170
     0
171
     0
290
     0
174
     0
 93
        1
 44
0.0
173
     0
291
     0
 45
0.0
1001
ACAD
1000
AcDbSavedByObjectVersion
1070
     0
  0
VISUALSTYLE
  5
A2A0
102
{ACAD_XDICTIONARY
360
A303
102
}
102
{ACAD_REACTORS
330
A295
102
}
330
A295
100
AcDbVisualStyle
  2
Dim
 70
    11
 71
     2
 72
     2
 73
     0
 90
        0
 40
-0.6
 41
-30.0
 62
     5
 63
     7
 74
     1
 91
        4
 64
     7
 65
   257
 75
     1
175
     1
 42
1.0
 92
        8
 66
     7
 43
1.0
 76
     1
 77
     6
 78
     2
 67
     7
 79
     5
170
     0
171
     0
290
     0
174
     0
 93
        1
 44
-50.0
173
     0
291
     1
 45
0.0
1001
ACAD
1000
AcDbSavedByObjectVersion
1070
     0
  0
VISUALSTYLE
  5
A2AD
102
{ACAD_XDICTIONARY
360
A31D
102
}
102
{ACAD_REACTORS
330
A295
102
}
330
A295
100
AcDbVisualStyle
  2
EdgeColorOff
 70
    22
 71
     2
 72
     2
 73
     0
 90
        0
 40
-0.6
 41
-30.0
 62
     5
 63
     7
 74
     1
 91
        4
 64
     7
 65
   257
 75
     1
175
     1
 42
1.0
 92
        8
 66
     7
 43
1.0
 76
     1
 77
     6
 78
     2
 67
     7
 79
     5
170
     0
171
     0
290
     0
174
     0
 93
        1
 44
0.0
173
     0
291
     1
 45
0.0
1001
ACAD
1000
AcDbSavedByObjectVersion
1070
     0
  0
VISUALSTYLE
  5
A2A4
102
{ACAD_XDICTIONARY
360
A30B
102
}
102
{ACAD_REACTORS
330
A295
102
}
330
A295
100
AcDbVisualStyle
  2
Facepattern
 70
    15
 71
     2
 72
     2
 73
     0
 90
        0
 40
-0.6
 41
-30.0
 62
     5
 63
     7
 74
     1
 91
        4
 64
     7
 65
   257
 75
     1
175
     1
 42
1.0
 92
        8
 66
     7
 43
1.0
 76
     1
 77
     6
 78
     2
 67
     7
 79
     5
170
     0
171
     0
290
     0
174
     0
 93
        1
 44
0.0
173
     0
291
     1
 45
0.0
1001
ACAD
1000
AcDbSavedByObjectVersion
1070
     0
  0
VISUALSTYLE
  5
A296
102
{ACAD_XDICTIONARY
360
A2EF
102
}
102
{ACAD_REACTORS
330
A295
102
}
330
A295
100
AcDbVisualStyle
  2
Flat
 70
     0
 71
     2
 72
     1
 73
     1
 90
        2
 40
-0.6
 41
30.0
 62
     5
 63
     7
 74
     0
 91
        0
 64
     7
 65
   257
 75
     1
175
     1
 42
1.0
 92
        8
 66
     7
 43
1.0
 76
     1
 77
     6
 78
     2
 67
     7
 79
     5
170
     0
171
     0
290
     0
174
     0
 93
       13
 44
0.0
173
     0
291
     1
 45
0.0
1001
ACAD
1000
AcDbSavedByObjectVersion
1070
     0
  0
VISUALSTYLE
  5
A297
102
{ACAD_XDICTIONARY
360
A2F1
102
}
102
{ACAD_REACTORS
330
A295
102
}
330
A295
100
AcDbVisualStyle
  2
FlatWithEdges
 70
     1
 71
     2
 72
     1
 73
     1
 90
        2
 40
-0.6
 41
30.0
 62
     5
 63
     7
 74
     1
 91
        0
 64
     7
 65
   257
 75
     1
175
     1
 42
1.0
 92
        0
 66
   257
 43
1.0
 76
     1
 77
     6
 78
     2
 67
     7
 79
     5
170
     0
171
     0
290
     0
174
     0
 93
       13
 44
0.0
173
     0
291
     1
 45
0.0
1001
ACAD
1000
AcDbSavedByObjectVersion
1070
     0
  0
VISUALSTYLE
  5
A298
102
{ACAD_XDICTIONARY
360
A2F3
102
}
102
{ACAD_REACTORS
330
A295
102
}
330
A295
100
AcDbVisualStyle
  2
Gouraud
 70
     2
 71
     2
 72
     2
 73
     1
 90
        2
 40
-0.6
 41
30.0
 62
     5
 63
     7
 74
     0
 91
        0
 64
     7
 65
   257
 75
     1
175
     1
 42
1.0
 92
        0
 66
     7
 43
1.0
 76
     1
 77
     6
 78
     2
 67
     7
 79
     5
170
     0
171
     0
290
     0
174
     0
 93
       13
 44
0.0
173
     0
291
     1
 45
0.0
1001
ACAD
1000
AcDbSavedByObjectVersion
1070
     0
  0
VISUALSTYLE
  5
A299
102
{ACAD_XDICTIONARY
360
A2F5
102
}
102
{ACAD_REACTORS
330
A295
102
}
330
A295
100
AcDbVisualStyle
  2
GouraudWithEdges
 70
     3
 71
     2
 72
     2
 73
     1
 90
        2
 40
-0.6
 41
30.0
 62
     5
 63
     7
 74
     1
 91
        0
 64
     7
 65
   257
 75
     1
175
     1
 42
1.0
 92
        0
 66
   257
 43
1.0
 76
     1
 77
     6
 78
     2
 67
     7
 79
     5
170
     0
171
     0
290
     0
174
     0
 93
       13
 44
0.0
173
     0
291
     1
 45
0.0
1001
ACAD
1000
AcDbSavedByObjectVersion
1070
     0
  0
VISUALSTYLE
  5
A29D
102
{ACAD_XDICTIONARY
360
A2FD
102
}
102
{ACAD_REACTORS
330
A295
102
}
330
A295
100
AcDbVisualStyle
  2
Hidden
 70
     6
 71
     1
 72
     2
 73
     2
 90
        0
 40
-0.6
 41
-30.0
 62
     5
 63
     7
 74
     2
 91
        2
 64
     7
 65
   257
 75
     2
175
     1
 42
40.0
 92
        0
 66
   257
 43
1.0
 76
     1
 77
     6
 78
     2
 67
     7
 79
     3
170
     0
171
     0
290
     0
174
     0
 93
        1
 44
0.0
173
     0
291
     0
 45
0.0
1001
ACAD
1000
AcDbSavedByObjectVersion
1070
     0
  0
VISUALSTYLE
  5
A2AB
102
{ACAD_XDICTIONARY
360
A319
102
}
102
{ACAD_REACTORS
330
A295
102
}
330
A295
100
AcDbVisualStyle
  2
JitterOff
 70
    20
 71
     2
 72
     2
 73
     0
 90
        0
 40
-0.6
 41
-30.0
 62
     5
 63
     7
 74
     1
 91
        4
 64
     7
 65
   257
 75
     1
175
     1
 42
1.0
 92
       10
 66
     7
 43
1.0
 76
     1
 77
     6
 78
     2
 67
     7
 79
     5
170
     0
171
     0
290
     0
174
     0
 93
        1
 44
0.0
173
     0
291
     1
 45
0.0
1001
ACAD
1000
AcDbSavedByObjectVersion
1070
     0
  0
VISUALSTYLE
  5
A2A3
102
{ACAD_XDICTIONARY
360
A309
102
}
102
{ACAD_REACTORS
330
A295
102
}
330
A295
100
AcDbVisualStyle
  2
Linepattern
 70
    14
 71
     2
 72
     2
 73
     0
 90
        0
 40
-0.6
 41
-30.0
 62
     5
 63
     7
 74
     1
 91
        4
 64
     7
 65
   257
 75
     7
175
     7
 42
1.0
 92
        8
 66
     7
 43
1.0
 76
     1
 77
     6
 78
     2
 67
     7
 79
     5
170
     0
171
     0
290
     0
174
     0
 93
        1
 44
0.0
173
     0
291
     1
 45
0.0
1001
ACAD
1000
AcDbSavedByObjectVersion
1070
     0
  0
VISUALSTYLE
  5
A2AC
102
{ACAD_XDICTIONARY
360
A31B
102
}
102
{ACAD_REACTORS
330
A295
102
}
330
A295
100
AcDbVisualStyle
  2
OverhangOff
 70
    21
 71
     2
 72
     2
 73
     0
 90
        0
 40
-0.6
 41
-30.0
 62
     5
 63
     7
 74
     1
 91
        4
 64
     7
 65
   257
 75
     1
175
     1
 42
1.0
 92
        9
 66
     7
 43
1.0
 76
     1
 77
     6
 78
     2
 67
     7
 79
     5
170
     0
171
     0
290
     0
174
     0
 93
        1
 44
0.0
173
     0
291
     1
 45
0.0
1001
ACAD
1000
AcDbSavedByObjectVersion
1070
     0
  0
VISUALSTYLE
  5
A29F
102
{ACAD_XDICTIONARY
360
A301
102
}
102
{ACAD_REACTORS
330
A295
102
}
330
A295
100
AcDbVisualStyle
  2
Realistic
 70
     8
 71
     2
 72
     3
 73
     0
 90
        2
 40
-0.6
 41
30.0
 62
     5
 63
     7
 74
     0
 91
        0
 64
     7
 65
   257
 75
     1
175
     1
 42
1.0
 92
        8
 66
   257
 43
1.0
 76
     1
 77
     6
 78
     2
 67
     7
 79
     3
170
     0
171
     0
290
     0
174
     0
 93
       13
 44
0.0
173
     0
291
     0
 45
0.0
1001
ACAD
1000
AcDbSavedByObjectVersion
1070
     0
  0
VISUALSTYLE
  5
A2AA
102
{ACAD_XDICTIONARY
360
A317
102
}
102
{ACAD_REACTORS
330
A295
102
}
330
A295
100
AcDbVisualStyle
  2
Shaded
 70
    27
 71
     2
 72
     2
 73
     1
 90
        2
 40
-0.6
 41
30.0
 62
     5
 63
     7
 74
     0
 91
        4
 64
     7
 65
   257
 75
     1
175
     1
 42
1.0
 92
        8
 66
   257
 43
1.0
 76
     1
 77
     6
 78
     2
 67
     8
 79
     3
170
     0
171
     0
290
     0
174
     0
 93
        5
 44
0.0
173
     0
291
     0
 45
0.0
1001
ACAD
1000
AcDbSavedByObjectVersion
1070
     0
  0
VISUALSTYLE
  5
A2A9
102
{ACAD_XDICTIONARY
360
A315
102
}
102
{ACAD_REACTORS
330
A295
102
}
330
A295
100
AcDbVisualStyle
  2
Shaded with edges
 70
    26
 71
     2
 72
     2
 73
     1
 90
        2
 40
-0.6
 41
30.0
 62
     5
 63
     7
 74
     1
 91
       10
 64
     7
 65
   257
 75
     2
175
     1
 42
1.0
 92
        8
 66
   257
 43
1.0
 76
     1
 77
     6
 78
     2
 67
     7
 79
     3
170
     0
171
     0
290
     0
174
     0
 93
        5
 44
0.0
173
     0
291
     0
 45
0.0
1001
ACAD
1000
AcDbSavedByObjectVersion
1070
     0
  0
VISUALSTYLE
  5
A2A6
102
{ACAD_XDICTIONARY
360
A30F
102
}
102
{ACAD_REACTORS
330
A295
102
}
330
A295
100
AcDbVisualStyle
  2
Shades of Gray
 70
    23
 71
     2
 72
     2
 73
     3
 90
        0
 40
-0.6
 41
-30.0
 62
     5
 63
     7
 74
     2
 91
        2
 64
     7
 65
     7
 75
     1
175
     1
 42
40.0
 92
        8
 66
     7
 43
1.0
 76
     1
 77
     6
 78
     2
 67
     7
 79
     3
170
     0
171
     0
290
     0
174
     0
 93
        1
 44
0.0
173
     0
291
     0
 45
0.0
1001
ACAD
1000
AcDbSavedByObjectVersion
1070
     0
  0
VISUALSTYLE
  5
A2A7
102
{ACAD_XDICTIONARY
360
A311
102
}
102
{ACAD_REACTORS
330
A295
102
}
330
A295
100
AcDbVisualStyle
  2
Sketchy
 70
    24
 71
     1
 72
     2
 73
     2
 90
        0
 40
-0.6
 41
-30.0
 62
     5
 63
     7
 74
     2
 91
        2
 64
     7
 65
     7
 75
     1
175
     1
 42
40.0
 92
       11
 66
     7
 43
1.0
 76
     1
 77
     6
 78
     2
 67
     7
 79
     6
170
     0
171
     0
290
     0
174
     0
 93
        1
 44
0.0
173
     0
291
     0
 45
0.0
1001
ACAD
1000
AcDbSavedByObjectVersion
1070
     0
  0
VISUALSTYLE
  5
A2A2
102
{ACAD_XDICTIONARY
360
A307
102
}
102
{ACAD_REACTORS
330
A295
102
}
330
A295
100
AcDbVisualStyle
  2
Thicken
 70
    13
 71
     2
 72
     2
 73
     0
 90
        0
 40
-0.6
 41
-30.0
 62
     5
 63
     7
 74
     1
 91
        4
 64
     7
 65
   257
 75
     1
175
     1
 42
1.0
 92
       12
 66
     7
 43
1.0
 76
     1
 77
     6
 78
     2
 67
     7
 79
     5
170
     0
171
     0
290
     0
174
     0
 93
        1
 44
0.0
173
     0
291
     1
 45
0.0
1001
ACAD
1000
AcDbSavedByObjectVersion
1070
     0
  0
VISUALSTYLE
  5
A29C
102
{ACAD_XDICTIONARY
360
A2FB
102
}
102
{ACAD_REACTORS
330
A295
102
}
330
A295
100
AcDbVisualStyle
  2
Wireframe
 70
     5
 71
     0
 72
     2
 73
     0
 90
        0
 40
-0.6
 41
-30.0
 62
     5
 63
     7
 74
     1
 91
        4
 64
     7
 65
   257
 75
     1
175
     1
 42
1.0
 92
        0
 66
   257
 43
1.0
 76
     1
 77
     6
 78
     2
 67
     7
 79
     3
170
     0
171
     0
290
     0
174
     0
 93
        1
 44
0.0
173
     0
291
     0
 45
0.0
1001
ACAD
1000
AcDbSavedByObjectVersion
1070
     0
  0
VISUALSTYLE
  5
A2A8
102
{ACAD_XDICTIONARY
360
A313
102
}
102
{ACAD_REACTORS
330
A295
102
}
330
A295
100
AcDbVisualStyle
  2
X-Ray
 70
    25
 71
     2
 72
     2
 73
     1
 90
        1
 40
0.5
 41
-30.0
 62
     5
 63
     7
 74
     1
 91
        0
 64
     7
 65
   257
 75
     1
175
     1
 42
1.0
 92
        8
 66
     7
 43
1.0
 76
     1
 77
     6
 78
     2
 67
     7
 79
     3
170
     0
171
     0
290
     0
174
     0
 93
       13
 44
0.0
173
     0
291
     0
 45
0.0
1001
ACAD
1000
AcDbSavedByObjectVersion
1070
     0
  0
DICTIONARYVAR
  5
A2E2
102
{ACAD_REACTORS
330
A2DD
102
}
330
A2DD
100
DictionaryVariables
280
     0
  1
1:1
  0
DICTIONARYVAR
  5
A2DF
102
{ACAD_REACTORS
330
A2DD
102
}
330
A2DD
100
DictionaryVariables
280
     0
  1
STANDARD
  0
DICTIONARYVAR
  5
A2DE
102
{ACAD_REACTORS
330
A2DD
102
}
330
A2DD
100
DictionaryVariables
280
     0
  1
STANDARD
  0
DICTIONARYVAR
  5
A2E0
102
{ACAD_REACTORS
330
A2DD
102
}
330
A2DD
100
DictionaryVariables
280
     0
  1
Imperial24
  0
DICTIONARYVAR
  5
A2E1
102
{ACAD_REACTORS
330
A2DD
102
}
330
A2DD
100
DictionaryVariables
280
     0
  1
Imperial24
  0
DICTIONARYVAR
  5
A2E5
102
{ACAD_REACTORS
330
A2DD
102
}
330
A2DD
100
DictionaryVariables
280
     0
  1
1
  0
DICTIONARYVAR
  5
A2E4
102
{ACAD_REACTORS
330
A2DD
102
}
330
A2DD
100
DictionaryVariables
280
     0
  1
0
  0
DICTIONARYVAR
  5
A2E3
102
{ACAD_REACTORS
330
A2DD
102
}
330
A2DD
100
DictionaryVariables
280
     0
  1
127
  0
DICTIONARYVAR
  5
A2E6
102
{ACAD_REACTORS
330
A2DD
102
}
330
A2DD
100
DictionaryVariables
280
     0
  1
2
  0
DICTIONARY
  5
A323
330
A2C8
100
AcDbDictionary
280
     1
281
     1
  3
ACAD_XREC_ROUNDTRIP
360
A324
  0
DICTIONARY
  5
A325
330
A2C9
100
AcDbDictionary
280
     1
281
     1
  3
ACAD_XREC_ROUNDTRIP
360
A326
  0
DICTIONARY
  5
A327
330
A2CA
100
AcDbDictionary
280
     1
281
     1
  3
ACAD_XREC_ROUNDTRIP
360
A328
  0
DICTIONARY
  5
A286
330
A285
100
AcDbDictionary
280
     1
281
     1
  3
ACAD_XREC_ROUNDTRIP
360
A2ED
  3
BUMPTILE
360
A288
  3
DIFFUSETILE
360
A287
  3
OPACITYTILE
360
A28B
  3
REFLECTIONTILE
360
A28A
  3
REFRACTIONTILE
360
A28C
  3
SPECULARTILE
360
A289
  0
DICTIONARY
  5
A27E
330
A27D
100
AcDbDictionary
280
     1
281
     1
  3
ACAD_XREC_ROUNDTRIP
360
A2EC
  3
BUMPTILE
360
A280
  3
DIFFUSETILE
360
A27F
  3
OPACITYTILE
360
A283
  3
REFLECTIONTILE
360
A282
  3
REFRACTIONTILE
360
A284
  3
SPECULARTILE
360
A281
  0
DICTIONARY
  5
A28E
330
A28D
100
AcDbDictionary
280
     1
281
     1
  3
ACAD_XREC_ROUNDTRIP
360
A2EE
  3
BUMPTILE
360
A290
  3
DIFFUSETILE
360
A28F
  3
OPACITYTILE
360
A293
  3
REFLECTIONTILE
360
A292
  3
REFRACTIONTILE
360
A294
  3
SPECULARTILE
360
A291
  0
DICTIONARY
  5
A321
330
A2C6
100
AcDbDictionary
280
     1
281
     1
  3
ACAD_XREC_ROUNDTRIP
360
A322
  0
DICTIONARY
  5
A2E8
330
A2B0
100
AcDbDictionary
280
     1
281
     1
  3
ACAD_ROUNDTRIP_2008_TABLESTYLE_CELLSTYLEMAP
360
A2E9
  3
ACAD_XREC_ROUNDTRIP
360
A31F
  0
DICTIONARY
  5
A2F9
330
A29B
100
AcDbDictionary
280
     1
281
     1
  3
ACAD_XREC_ROUNDTRIP
360
A2FA
  0
DICTIONARY
  5
A2F7
330
A29A
100
AcDbDictionary
280
     1
281
     1
  3
ACAD_XREC_ROUNDTRIP
360
A2F8
  0
DICTIONARY
  5
A305
330
A2A1
100
AcDbDictionary
280
     1
281
     1
  3
ACAD_XREC_ROUNDTRIP
360
A306
  0
DICTIONARY
  5
A30D
330
A2A5
100
AcDbDictionary
280
     1
281
     1
  3
ACAD_XREC_ROUNDTRIP
360
A30E
  0
DICTIONARY
  5
A2FF
330
A29E
100
AcDbDictionary
280
     1
281
     1
  3
ACAD_XREC_ROUNDTRIP
360
A300
  0
DICTIONARY
  5
A303
330
A2A0
100
AcDbDictionary
280
     1
281
     1
  3
ACAD_XREC_ROUNDTRIP
360
A304
  0
DICTIONARY
  5
A31D
330
A2AD
100
AcDbDictionary
280
     1
281
     1
  3
ACAD_XREC_ROUNDTRIP
360
A31E
  0
DICTIONARY
  5
A30B
330
A2A4
100
AcDbDictionary
280
     1
281
     1
  3
ACAD_XREC_ROUNDTRIP
360
A30C
  0
DICTIONARY
  5
A2EF
330
A296
100
AcDbDictionary
280
     1
281
     1
  3
ACAD_XREC_ROUNDTRIP
360
A2F0
  0
DICTIONARY
  5
A2F1
330
A297
100
AcDbDictionary
280
     1
281
     1
  3
ACAD_XREC_ROUNDTRIP
360
A2F2
  0
DICTIONARY
  5
A2F3
330
A298
100
AcDbDictionary
280
     1
281
     1
  3
ACAD_XREC_ROUNDTRIP
360
A2F4
  0
DICTIONARY
  5
A2F5
330
A299
100
AcDbDictionary
280
     1
281
     1
  3
ACAD_XREC_ROUNDTRIP
360
A2F6
  0
DICTIONARY
  5
A2FD
330
A29D
100
AcDbDictionary
280
     1
281
     1
  3
ACAD_XREC_ROUNDTRIP
360
A2FE
  0
DICTIONARY
  5
A319
330
A2AB
100
AcDbDictionary
280
     1
281
     1
  3
ACAD_XREC_ROUNDTRIP
360
A31A
  0
DICTIONARY
  5
A309
330
A2A3
100
AcDbDictionary
280
     1
281
     1
  3
ACAD_XREC_ROUNDTRIP
360
A30A
  0
DICTIONARY
  5
A31B
330
A2AC
100
AcDbDictionary
280
     1
281
     1
  3
ACAD_XREC_ROUNDTRIP
360
A31C
  0
DICTIONARY
  5
A301
330
A29F
100
AcDbDictionary
280
     1
281
     1
  3
ACAD_XREC_ROUNDTRIP
360
A302
  0
DICTIONARY
  5
A317
330
A2AA
100
AcDbDictionary
280
     1
281
     1
  3
ACAD_XREC_ROUNDTRIP
360
A318
  0
DICTIONARY
  5
A315
330
A2A9
100
AcDbDictionary
280
     1
281
     1
  3
ACAD_XREC_ROUNDTRIP
360
A316
  0
DICTIONARY
  5
A30F
330
A2A6
100
AcDbDictionary
280
     1
281
     1
  3
ACAD_XREC_ROUNDTRIP
360
A310
  0
DICTIONARY
  5
A311
330
A2A7
100
AcDbDictionary
280
     1
281
     1
  3
ACAD_XREC_ROUNDTRIP
360
A312
  0
DICTIONARY
  5
A307
330
A2A2
100
AcDbDictionary
280
     1
281
     1
  3
ACAD_XREC_ROUNDTRIP
360
A308
  0
DICTIONARY
  5
A2FB
330
A29C
100
AcDbDictionary
280
     1
281
     1
  3
ACAD_XREC_ROUNDTRIP
360
A2FC
  0
DICTIONARY
  5
A313
330
A2A8
100
AcDbDictionary
280
     1
281
     1
  3
ACAD_XREC_ROUNDTRIP
360
A314
  0
XRECORD
  5
A324
102
{ACAD_REACTORS
330
A323
102
}
330
A323
100
AcDbXrecord
280
     1
102
DISPLAYNAME
  1
Imperial24
102
FLAGS
 90
        0
  0
XRECORD
  5
A326
102
{ACAD_REACTORS
330
A325
102
}
330
A325
100
AcDbXrecord
280
     1
102
SHADEPLOT
 70
     0
102
SHADEPLOTRESLEVEL
 70
     2
102
SHADEPLOTCUSTOMDPI
 70
   300
  0
XRECORD
  5
A328
102
{ACAD_REACTORS
330
A327
102
}
330
A327
100
AcDbXrecord
280
     1
102
SHADEPLOT
 70
     0
102
SHADEPLOTRESLEVEL
 70
     2
102
SHADEPLOTCUSTOMDPI
 70
   300
  0
XRECORD
  5
A2ED
102
{ACAD_REACTORS
330
A286
102
}
330
A286
100
AcDbXrecord
280
     1
102
MATERIAL
148
0.0
149
0.0
149
0.0
 93
        0
 94
      127
282
     0
 72
     0
 77
     0
171
     0
175
     0
179
     0
273
     0
  0
XRECORD
  5
A288
102
{ACAD_REACTORS
330
A286
102
}
330
A286
100
AcDbXrecord
280
     1
270
     1
271
     1
  0
XRECORD
  5
A287
102
{ACAD_REACTORS
330
A286
102
}
330
A286
100
AcDbXrecord
280
     1
270
     1
271
     1
  0
XRECORD
  5
A28B
102
{ACAD_REACTORS
330
A286
102
}
330
A286
100
AcDbXrecord
280
     1
270
     1
271
     1
  0
XRECORD
  5
A28A
102
{ACAD_REACTORS
330
A286
102
}
330
A286
100
AcDbXrecord
280
     1
270
     1
271
     1
  0
XRECORD
  5
A28C
102
{ACAD_REACTORS
330
A286
102
}
330
A286
100
AcDbXrecord
280
     1
270
     1
271
     1
  0
XRECORD
  5
A289
102
{ACAD_REACTORS
330
A286
102
}
330
A286
100
AcDbXrecord
280
     1
270
     1
271
     1
  0
XRECORD
  5
A2EC
102
{ACAD_REACTORS
330
A27E
102
}
330
A27E
100
AcDbXrecord
280
     1
102
MATERIAL
148
0.0
149
0.0
149
0.0
 93
        0
 94
      127
282
     0
 72
     0
 77
     0
171
     0
175
     0
179
     0
273
     0
  0
XRECORD
  5
A280
102
{ACAD_REACTORS
330
A27E
102
}
330
A27E
100
AcDbXrecord
280
     1
270
     1
271
     1
  0
XRECORD
  5
A27F
102
{ACAD_REACTORS
330
A27E
102
}
330
A27E
100
AcDbXrecord
280
     1
270
     1
271
     1
  0
XRECORD
  5
A283
102
{ACAD_REACTORS
330
A27E
102
}
330
A27E
100
AcDbXrecord
280
     1
270
     1
271
     1
  0
XRECORD
  5
A282
102
{ACAD_REACTORS
330
A27E
102
}
330
A27E
100
AcDbXrecord
280
     1
270
     1
271
     1
  0
XRECORD
  5
A284
102
{ACAD_REACTORS
330
A27E
102
}
330
A27E
100
AcDbXrecord
280
     1
270
     1
271
     1
  0
XRECORD
  5
A281
102
{ACAD_REACTORS
330
A27E
102
}
330
A27E
100
AcDbXrecord
280
     1
270
     1
271
     1
  0
XRECORD
  5
A2EE
102
{ACAD_REACTORS
330
A28E
102
}
330
A28E
100
AcDbXrecord
280
     1
102
MATERIAL
148
0.0
149
0.0
149
0.0
 93
        0
 94
      127
282
     0
 72
     0
 77
     0
171
     0
175
     0
179
     0
273
     0
  0
XRECORD
  5
A290
102
{ACAD_REACTORS
330
A28E
102
}
330
A28E
100
AcDbXrecord
280
     1
270
     1
271
     1
  0
XRECORD
  5
A28F
102
{ACAD_REACTORS
330
A28E
102
}
330
A28E
100
AcDbXrecord
280
     1
270
     1
271
     1
  0
XRECORD
  5
A293
102
{ACAD_REACTORS
330
A28E
102
}
330
A28E
100
AcDbXrecord
280
     1
270
     1
271
     1
  0
XRECORD
  5
A292
102
{ACAD_REACTORS
330
A28E
102
}
330
A28E
100
AcDbXrecord
280
     1
270
     1
271
     1
  0
XRECORD
  5
A294
102
{ACAD_REACTORS
330
A28E
102
}
330
A28E
100
AcDbXrecord
280
     1
270
     1
271
     1
  0
XRECORD
  5
A291
102
{ACAD_REACTORS
330
A28E
102
}
330
A28E
100
AcDbXrecord
280
     1
270
     1
271
     1
  0
XRECORD
  5
A322
102
{ACAD_REACTORS
330
A321
102
}
330
A321
100
AcDbXrecord
280
     1
102
DISPLAYNAME
  1
Imperial24
102
FLAGS
 90
        0
  0
CELLSTYLEMAP
  5
A2E9
102
{ACAD_REACTORS
330
A2E8
102
}
330
A2E8
100
AcDbCellStyleMap
 90
        3
300
CELLSTYLE
  1
TABLEFORMAT_BEGIN
 90
        5
170
     1
 91
        0
 92
    32768
 62
   257
 93
        1
300
CONTENTFORMAT
  1
CONTENTFORMAT_BEGIN
 90
        0
 91
        0
 92
      512
 93
        0
300

 40
0.0
140
1.0
 94
        5
 62
     0
340
A0AC
144
0.25
309
CONTENTFORMAT_END
171
     0
 94
        0
309
TABLEFORMAT_END
  1
CELLSTYLE_BEGIN
 90
        1
 91
        1
300
_TITLE
309
CELLSTYLE_END
300
CELLSTYLE
  1
TABLEFORMAT_BEGIN
 90
        5
170
     1
 91
        0
 92
        0
 62
   257
 93
        1
300
CONTENTFORMAT
  1
CONTENTFORMAT_BEGIN
 90
        0
 91
        0
 92
      512
 93
        0
300

 40
0.0
140
1.0
 94
        5
 62
     0
340
A0AC
144
0.18
309
CONTENTFORMAT_END
171
     0
 94
        0
309
TABLEFORMAT_END
  1
CELLSTYLE_BEGIN
 90
        2
 91
        1
300
_HEADER
309
CELLSTYLE_END
300
CELLSTYLE
  1
TABLEFORMAT_BEGIN
 90
        5
170
     1
 91
        0
 92
        0
 62
   257
 93
        1
300
CONTENTFORMAT
  1
CONTENTFORMAT_BEGIN
 90
        0
 91
        0
 92
      512
 93
        0
300

 40
0.0
140
1.0
 94
        2
 62
     0
340
A0AC
144
0.18
309
CONTENTFORMAT_END
171
     0
 94
        0
309
TABLEFORMAT_END
  1
CELLSTYLE_BEGIN
 90
        3
 91
        2
300
_DATA
309
CELLSTYLE_END
  0
XRECORD
  5
A31F
102
{ACAD_REACTORS
330
A2E8
102
}
330
A2E8
100
AcDbXrecord
280
     1
102
ACAD_ROUNDTRIP_PRE2007_TABLESTYLE
 90
      512
 91
        0
  1

 92
      512
 93
        0
  2

 94
      512
 95
        0
  3

  0
XRECORD
  5
A2FA
102
{ACAD_REACTORS
330
A2F9
102
}
330
A2F9
100
AcDbXrecord
280
     1
102
RTVSPost2010Prop28
280
     1
102
RTVSPost2010PropOp28
 70
     1
102
RTVSPost2010Prop29
280
     1
102
RTVSPost2010PropOp29
 70
     1
102
RTVSPost2010Prop30
280
     0
102
RTVSPost2010PropOp30
 70
     1
102
RTVSPost2010Prop31
280
     0
102
RTVSPost2010PropOp31
 70
     1
102
RTVSPost2010Prop32
280
     0
102
RTVSPost2010PropOp32
 70
     1
102
RTVSPost2010Prop33
280
     0
102
RTVSPost2010PropOp33
 70
     1
102
RTVSPost2010Prop34
280
     0
102
RTVSPost2010PropOp34
 70
     1
102
RTVSPost2010Prop35
280
     0
102
RTVSPost2010PropOp35
 70
     1
102
RTVSPost2010Prop36
280
     0
102
RTVSPost2010PropOp36
 70
     1
102
RTVSPost2010Prop37
 90
       50
102
RTVSPost2010PropOp37
 70
     1
102
RTVSPost2010Prop38
140
0.0
102
RTVSPost2010PropOp38
 70
     1
102
RTVSPost2010Prop39
140
1.0
102
RTVSPost2010PropOp39
 70
     1
102
RTVSPost2010Prop40
 90
        0
102
RTVSPost2010PropOp40
 70
     1
102
RTVSPost2010Prop41ColorIndex
 90
       18
102
RTVSPost2010Prop41ColorRGB
 90
        0
102
RTVSPost2010PropOp41
 70
     1
102
RTVSPost2010Prop42
 90
       50
102
RTVSPost2010PropOp42
 70
     1
102
RTVSPost2010Prop43
 90
        3
102
RTVSPost2010PropOp43
 70
     1
102
RTVSPost2010Prop44ColorIndex
 90
        5
102
RTVSPost2010Prop44ColorRGB
 90
      255
102
RTVSPost2010PropOp44
 70
     1
102
RTVSPost2010Prop45
280
     0
102
RTVSPost2010PropOp45
 70
     1
102
RTVSPost2010Prop46
 90
       50
102
RTVSPost2010PropOp46
 70
     1
102
RTVSPost2010Prop47
 90
       50
102
RTVSPost2010PropOp47
 70
     1
102
RTVSPost2010Prop48
 90
       50
102
RTVSPost2010PropOp48
 70
     1
102
RTVSPost2010Prop49
280
     0
102
RTVSPost2010PropOp49
 70
     1
102
RTVSPost2010Prop50
 90
       50
102
RTVSPost2010PropOp50
 70
     1
102
RTVSPost2010Prop51ColorIndex
 90
      256
102
RTVSPost2010Prop51ColorRGB
 90
-16777216
102
RTVSPost2010PropOp51
 70
     0
102
RTVSPost2010Prop52
140
1.0
102
RTVSPost2010PropOp52
 70
     0
102
RTVSPost2010Prop53
 90
        2
102
RTVSPost2010PropOp53
 70
     1
102
RTVSPost2010Prop54
  1
strokes_ogs.tif
102
RTVSPost2010PropOp54
 70
     1
102
RTVSPost2010Prop55
280
     0
102
RTVSPost2010PropOp55
 70
     1
102
RTVSPost2010Prop56
140
1.0
102
RTVSPost2010PropOp56
 70
     1
102
RTVSPost2010Prop57
140
1.0
102
RTVSPost2010PropOp57
 70
     1
102
RTVSPropertyOp0
 70
     1
102
RTVSPropertyOp1
 70
     1
102
RTVSPropertyOp2
 70
     1
102
RTVSPropertyOp3
 70
     1
102
RTVSPropertyOp4
 70
     1
102
RTVSPropertyOp5
 70
     1
102
RTVSPropertyOp6
 70
     1
102
RTVSPropertyOp7
 70
     1
102
RTVSPropertyOp8
 70
     1
102
RTVSPropertyOp9
 70
     1
102
RTVSPropertyOp10
 70
     1
102
RTVSPropertyOp11
 70
     1
102
RTVSPropertyOp12
 70
     1
102
RTVSPropertyOp13
 70
     1
102
RTVSPropertyOp14
 70
     1
102
RTVSPropertyOp15
 70
     1
102
RTVSPropertyOp16
 70
     1
102
RTVSPropertyOp17
 70
     1
102
RTVSPropertyOp18
 70
     1
102
RTVSPropertyOp19
 70
     1
102
RTVSPropertyOp20
 70
     1
102
RTVSPropertyOp21
 70
     1
102
RTVSPropertyOp22
 70
     1
102
RTVSPropertyOp23
 70
     1
102
RTVSPropertyOp24
 70
     1
102
RTVSPropertyOp25
 70
     1
102
RTVSPropertyOp26
 70
     1
102
RTVSPropertyOp27
 70
     1
102
RTVSPropertyOp28
 70
     1
102
RTVSPropertyOp29
 70
     1
102
RTVSPropertyOp30
 70
     1
102
RTVSPropertyOp31
 70
     1
102
RTVSPropertyOp32
 70
     1
102
RTVSPropertyOp33
 70
     1
102
RTVSPropertyOp34
 70
     1
102
RTVSPropertyOp35
 70
     1
102
RTVSPropertyOp36
 70
     1
102
RTVSPropertyOp37
 70
     1
102
RTVSPropertyOp38
 70
     1
102
RTVSPropertyOp39
 70
     1
102
RTVSPropertyOp40
 70
     1
102
RTVSPropertyOp41
 70
     1
102
RTVSPropertyOp42
 70
     1
102
RTVSPropertyOp43
 70
     1
102
RTVSPropertyOp44
 70
     1
102
RTVSPropertyOp45
 70
     1
102
RTVSPropertyOp46
 70
     1
102
RTVSPropertyOp47
 70
     1
102
RTVSPropertyOp48
 70
     1
102
RTVSPropertyOp49
 70
     1
102
RTVSPropertyOp50
 70
     1
102
RTVSPropertyOp51
 70
     0
102
RTVSPropertyOp52
 70
     0
102
RTVSPropertyOp53
 70
     1
102
RTVSPropertyOp54
 70
     1
102
RTVSPropertyOp55
 70
     1
102
RTVSPropertyOp56
 70
     1
102
RTVSPropertyOp57
 70
     1
102
RTVSPropertyOp58
 70
     1
102
RTVSPropertyOp59
 70
     1
102
RTVSPropertyOp60
 70
     1
102
RTVSPropertyOp61
 70
     1
102
RTVSPropertyOp62
 70
     1
  0
XRECORD
  5
A2F8
102
{ACAD_REACTORS
330
A2F7
102
}
330
A2F7
100
AcDbXrecord
280
     1
102
RTVSPost2010Prop28
280
     0
102
RTVSPost2010PropOp28
 70
     1
102
RTVSPost2010Prop29
280
     1
102
RTVSPost2010PropOp29
 70
     1
102
RTVSPost2010Prop30
280
     1
102
RTVSPost2010PropOp30
 70
     1
102
RTVSPost2010Prop31
280
     0
102
RTVSPost2010PropOp31
 70
     1
102
RTVSPost2010Prop32
280
     0
102
RTVSPost2010PropOp32
 70
     1
102
RTVSPost2010Prop33
280
     0
102
RTVSPost2010PropOp33
 70
     1
102
RTVSPost2010Prop34
280
     0
102
RTVSPost2010PropOp34
 70
     1
102
RTVSPost2010Prop35
280
     0
102
RTVSPost2010PropOp35
 70
     1
102
RTVSPost2010Prop36
280
     0
102
RTVSPost2010PropOp36
 70
     1
102
RTVSPost2010Prop37
 90
       50
102
RTVSPost2010PropOp37
 70
     1
102
RTVSPost2010Prop38
140
0.0
102
RTVSPost2010PropOp38
 70
     1
102
RTVSPost2010Prop39
140
1.0
102
RTVSPost2010PropOp39
 70
     1
102
RTVSPost2010Prop40
 90
        0
102
RTVSPost2010PropOp40
 70
     1
102
RTVSPost2010Prop41ColorIndex
 90
       18
102
RTVSPost2010Prop41ColorRGB
 90
        0
102
RTVSPost2010PropOp41
 70
     1
102
RTVSPost2010Prop42
 90
       50
102
RTVSPost2010PropOp42
 70
     1
102
RTVSPost2010Prop43
 90
        3
102
RTVSPost2010PropOp43
 70
     1
102
RTVSPost2010Prop44ColorIndex
 90
        5
102
RTVSPost2010Prop44ColorRGB
 90
      255
102
RTVSPost2010PropOp44
 70
     1
102
RTVSPost2010Prop45
280
     0
102
RTVSPost2010PropOp45
 70
     1
102
RTVSPost2010Prop46
 90
       50
102
RTVSPost2010PropOp46
 70
     1
102
RTVSPost2010Prop47
 90
       50
102
RTVSPost2010PropOp47
 70
     1
102
RTVSPost2010Prop48
 90
       50
102
RTVSPost2010PropOp48
 70
     1
102
RTVSPost2010Prop49
280
     0
102
RTVSPost2010PropOp49
 70
     1
102
RTVSPost2010Prop50
 90
       50
102
RTVSPost2010PropOp50
 70
     1
102
RTVSPost2010Prop51ColorIndex
 90
      256
102
RTVSPost2010Prop51ColorRGB
 90
-16777216
102
RTVSPost2010PropOp51
 70
     0
102
RTVSPost2010Prop52
140
1.0
102
RTVSPost2010PropOp52
 70
     0
102
RTVSPost2010Prop53
 90
        2
102
RTVSPost2010PropOp53
 70
     1
102
RTVSPost2010Prop54
  1
strokes_ogs.tif
102
RTVSPost2010PropOp54
 70
     1
102
RTVSPost2010Prop55
280
     0
102
RTVSPost2010PropOp55
 70
     1
102
RTVSPost2010Prop56
140
1.0
102
RTVSPost2010PropOp56
 70
     1
102
RTVSPost2010Prop57
140
1.0
102
RTVSPost2010PropOp57
 70
     1
102
RTVSPropertyOp0
 70
     1
102
RTVSPropertyOp1
 70
     1
102
RTVSPropertyOp2
 70
     1
102
RTVSPropertyOp3
 70
     1
102
RTVSPropertyOp4
 70
     1
102
RTVSPropertyOp5
 70
     1
102
RTVSPropertyOp6
 70
     1
102
RTVSPropertyOp7
 70
     1
102
RTVSPropertyOp8
 70
     1
102
RTVSPropertyOp9
 70
     1
102
RTVSPropertyOp10
 70
     1
102
RTVSPropertyOp11
 70
     1
102
RTVSPropertyOp12
 70
     1
102
RTVSPropertyOp13
 70
     1
102
RTVSPropertyOp14
 70
     1
102
RTVSPropertyOp15
 70
     1
102
RTVSPropertyOp16
 70
     1
102
RTVSPropertyOp17
 70
     1
102
RTVSPropertyOp18
 70
     1
102
RTVSPropertyOp19
 70
     1
102
RTVSPropertyOp20
 70
     1
102
RTVSPropertyOp21
 70
     1
102
RTVSPropertyOp22
 70
     1
102
RTVSPropertyOp23
 70
     1
102
RTVSPropertyOp24
 70
     1
102
RTVSPropertyOp25
 70
     1
102
RTVSPropertyOp26
 70
     1
102
RTVSPropertyOp27
 70
     1
102
RTVSPropertyOp28
 70
     1
102
RTVSPropertyOp29
 70
     1
102
RTVSPropertyOp30
 70
     1
102
RTVSPropertyOp31
 70
     1
102
RTVSPropertyOp32
 70
     1
102
RTVSPropertyOp33
 70
     1
102
RTVSPropertyOp34
 70
     1
102
RTVSPropertyOp35
 70
     1
102
RTVSPropertyOp36
 70
     1
102
RTVSPropertyOp37
 70
     1
102
RTVSPropertyOp38
 70
     1
102
RTVSPropertyOp39
 70
     1
102
RTVSPropertyOp40
 70
     1
102
RTVSPropertyOp41
 70
     1
102
RTVSPropertyOp42
 70
     1
102
RTVSPropertyOp43
 70
     1
102
RTVSPropertyOp44
 70
     1
102
RTVSPropertyOp45
 70
     1
102
RTVSPropertyOp46
 70
     1
102
RTVSPropertyOp47
 70
     1
102
RTVSPropertyOp48
 70
     1
102
RTVSPropertyOp49
 70
     1
102
RTVSPropertyOp50
 70
     1
102
RTVSPropertyOp51
 70
     0
102
RTVSPropertyOp52
 70
     0
102
RTVSPropertyOp53
 70
     1
102
RTVSPropertyOp54
 70
     1
102
RTVSPropertyOp55
 70
     1
102
RTVSPropertyOp56
 70
     1
102
RTVSPropertyOp57
 70
     1
102
RTVSPropertyOp58
 70
     1
102
RTVSPropertyOp59
 70
     1
102
RTVSPropertyOp60
 70
     1
102
RTVSPropertyOp61
 70
     1
102
RTVSPropertyOp62
 70
     1
  0
XRECORD
  5
A306
102
{ACAD_REACTORS
330
A305
102
}
330
A305
100
AcDbXrecord
280
     1
102
RTVSPost2010Prop28
280
     0
102
RTVSPost2010PropOp28
 70
     1
102
RTVSPost2010Prop29
280
     1
102
RTVSPost2010PropOp29
 70
     1
102
RTVSPost2010Prop30
280
     1
102
RTVSPost2010PropOp30
 70
     1
102
RTVSPost2010Prop31
280
     0
102
RTVSPost2010PropOp31
 70
     1
102
RTVSPost2010Prop32
280
     0
102
RTVSPost2010PropOp32
 70
     1
102
RTVSPost2010Prop33
280
     0
102
RTVSPost2010PropOp33
 70
     1
102
RTVSPost2010Prop34
280
     0
102
RTVSPost2010PropOp34
 70
     1
102
RTVSPost2010Prop35
280
     0
102
RTVSPost2010PropOp35
 70
     1
102
RTVSPost2010Prop36
280
     0
102
RTVSPost2010PropOp36
 70
     1
102
RTVSPost2010Prop37
 90
       50
102
RTVSPost2010PropOp37
 70
     1
102
RTVSPost2010Prop38
140
0.0
102
RTVSPost2010PropOp38
 70
     1
102
RTVSPost2010Prop39
140
1.0
102
RTVSPost2010PropOp39
 70
     1
102
RTVSPost2010Prop40
 90
        0
102
RTVSPost2010PropOp40
 70
     1
102
RTVSPost2010Prop41ColorIndex
 90
       18
102
RTVSPost2010Prop41ColorRGB
 90
        0
102
RTVSPost2010PropOp41
 70
     1
102
RTVSPost2010Prop42
 90
       50
102
RTVSPost2010PropOp42
 70
     1
102
RTVSPost2010Prop43
 90
        3
102
RTVSPost2010PropOp43
 70
     1
102
RTVSPost2010Prop44ColorIndex
 90
        5
102
RTVSPost2010Prop44ColorRGB
 90
      255
102
RTVSPost2010PropOp44
 70
     1
102
RTVSPost2010Prop45
280
     0
102
RTVSPost2010PropOp45
 70
     1
102
RTVSPost2010Prop46
 90
       50
102
RTVSPost2010PropOp46
 70
     1
102
RTVSPost2010Prop47
 90
       50
102
RTVSPost2010PropOp47
 70
     1
102
RTVSPost2010Prop48
 90
       50
102
RTVSPost2010PropOp48
 70
     1
102
RTVSPost2010Prop49
280
     0
102
RTVSPost2010PropOp49
 70
     1
102
RTVSPost2010Prop50
 90
       50
102
RTVSPost2010PropOp50
 70
     1
102
RTVSPost2010Prop51ColorIndex
 90
      256
102
RTVSPost2010Prop51ColorRGB
 90
-16777216
102
RTVSPost2010PropOp51
 70
     0
102
RTVSPost2010Prop52
140
1.0
102
RTVSPost2010PropOp52
 70
     0
102
RTVSPost2010Prop53
 90
        2
102
RTVSPost2010PropOp53
 70
     1
102
RTVSPost2010Prop54
  1
strokes_ogs.tif
102
RTVSPost2010PropOp54
 70
     1
102
RTVSPost2010Prop55
280
     0
102
RTVSPost2010PropOp55
 70
     1
102
RTVSPost2010Prop56
140
1.0
102
RTVSPost2010PropOp56
 70
     1
102
RTVSPost2010Prop57
140
1.0
102
RTVSPost2010PropOp57
 70
     1
102
RTVSPropertyOp0
 70
     1
102
RTVSPropertyOp1
 70
     1
102
RTVSPropertyOp2
 70
     1
102
RTVSPropertyOp3
 70
     1
102
RTVSPropertyOp4
 70
     1
102
RTVSPropertyOp5
 70
     1
102
RTVSPropertyOp6
 70
     1
102
RTVSPropertyOp7
 70
     1
102
RTVSPropertyOp8
 70
     1
102
RTVSPropertyOp9
 70
     1
102
RTVSPropertyOp10
 70
     1
102
RTVSPropertyOp11
 70
     1
102
RTVSPropertyOp12
 70
     1
102
RTVSPropertyOp13
 70
     1
102
RTVSPropertyOp14
 70
     1
102
RTVSPropertyOp15
 70
     1
102
RTVSPropertyOp16
 70
     1
102
RTVSPropertyOp17
 70
     1
102
RTVSPropertyOp18
 70
     1
102
RTVSPropertyOp19
 70
     1
102
RTVSPropertyOp20
 70
     1
102
RTVSPropertyOp21
 70
     1
102
RTVSPropertyOp22
 70
     1
102
RTVSPropertyOp23
 70
     1
102
RTVSPropertyOp24
 70
     1
102
RTVSPropertyOp25
 70
     1
102
RTVSPropertyOp26
 70
     1
102
RTVSPropertyOp27
 70
     1
102
RTVSPropertyOp28
 70
     1
102
RTVSPropertyOp29
 70
     1
102
RTVSPropertyOp30
 70
     1
102
RTVSPropertyOp31
 70
     1
102
RTVSPropertyOp32
 70
     1
102
RTVSPropertyOp33
 70
     1
102
RTVSPropertyOp34
 70
     1
102
RTVSPropertyOp35
 70
     1
102
RTVSPropertyOp36
 70
     1
102
RTVSPropertyOp37
 70
     1
102
RTVSPropertyOp38
 70
     1
102
RTVSPropertyOp39
 70
     1
102
RTVSPropertyOp40
 70
     1
102
RTVSPropertyOp41
 70
     1
102
RTVSPropertyOp42
 70
     1
102
RTVSPropertyOp43
 70
     1
102
RTVSPropertyOp44
 70
     1
102
RTVSPropertyOp45
 70
     1
102
RTVSPropertyOp46
 70
     1
102
RTVSPropertyOp47
 70
     1
102
RTVSPropertyOp48
 70
     1
102
RTVSPropertyOp49
 70
     1
102
RTVSPropertyOp50
 70
     1
102
RTVSPropertyOp51
 70
     0
102
RTVSPropertyOp52
 70
     0
102
RTVSPropertyOp53
 70
     1
102
RTVSPropertyOp54
 70
     1
102
RTVSPropertyOp55
 70
     1
102
RTVSPropertyOp56
 70
     1
102
RTVSPropertyOp57
 70
     1
102
RTVSPropertyOp58
 70
     1
102
RTVSPropertyOp59
 70
     1
102
RTVSPropertyOp60
 70
     1
102
RTVSPropertyOp61
 70
     1
102
RTVSPropertyOp62
 70
     1
  0
XRECORD
  5
A30E
102
{ACAD_REACTORS
330
A30D
102
}
330
A30D
100
AcDbXrecord
280
     1
102
RTVSPost2010Prop28
280
     0
102
RTVSPost2010PropOp28
 70
     1
102
RTVSPost2010Prop29
280
     1
102
RTVSPost2010PropOp29
 70
     1
102
RTVSPost2010Prop30
280
     1
102
RTVSPost2010PropOp30
 70
     1
102
RTVSPost2010Prop31
280
     0
102
RTVSPost2010PropOp31
 70
     1
102
RTVSPost2010Prop32
280
     0
102
RTVSPost2010PropOp32
 70
     1
102
RTVSPost2010Prop33
280
     0
102
RTVSPost2010PropOp33
 70
     1
102
RTVSPost2010Prop34
280
     0
102
RTVSPost2010PropOp34
 70
     1
102
RTVSPost2010Prop35
280
     0
102
RTVSPost2010PropOp35
 70
     1
102
RTVSPost2010Prop36
280
     0
102
RTVSPost2010PropOp36
 70
     1
102
RTVSPost2010Prop37
 90
       50
102
RTVSPost2010PropOp37
 70
     1
102
RTVSPost2010Prop38
140
0.0
102
RTVSPost2010PropOp38
 70
     1
102
RTVSPost2010Prop39
140
1.0
102
RTVSPost2010PropOp39
 70
     1
102
RTVSPost2010Prop40
 90
        0
102
RTVSPost2010PropOp40
 70
     1
102
RTVSPost2010Prop41ColorIndex
 90
       18
102
RTVSPost2010Prop41ColorRGB
 90
        0
102
RTVSPost2010PropOp41
 70
     1
102
RTVSPost2010Prop42
 90
       50
102
RTVSPost2010PropOp42
 70
     1
102
RTVSPost2010Prop43
 90
        3
102
RTVSPost2010PropOp43
 70
     1
102
RTVSPost2010Prop44ColorIndex
 90
        5
102
RTVSPost2010Prop44ColorRGB
 90
      255
102
RTVSPost2010PropOp44
 70
     1
102
RTVSPost2010Prop45
280
     0
102
RTVSPost2010PropOp45
 70
     1
102
RTVSPost2010Prop46
 90
       50
102
RTVSPost2010PropOp46
 70
     1
102
RTVSPost2010Prop47
 90
       50
102
RTVSPost2010PropOp47
 70
     1
102
RTVSPost2010Prop48
 90
       50
102
RTVSPost2010PropOp48
 70
     1
102
RTVSPost2010Prop49
280
     0
102
RTVSPost2010PropOp49
 70
     1
102
RTVSPost2010Prop50
 90
       50
102
RTVSPost2010PropOp50
 70
     1
102
RTVSPost2010Prop51ColorIndex
 90
      256
102
RTVSPost2010Prop51ColorRGB
 90
-16777216
102
RTVSPost2010PropOp51
 70
     0
102
RTVSPost2010Prop52
140
1.0
102
RTVSPost2010PropOp52
 70
     0
102
RTVSPost2010Prop53
 90
        2
102
RTVSPost2010PropOp53
 70
     1
102
RTVSPost2010Prop54
  1
strokes_ogs.tif
102
RTVSPost2010PropOp54
 70
     1
102
RTVSPost2010Prop55
280
     0
102
RTVSPost2010PropOp55
 70
     1
102
RTVSPost2010Prop56
140
1.0
102
RTVSPost2010PropOp56
 70
     1
102
RTVSPost2010Prop57
140
1.0
102
RTVSPost2010PropOp57
 70
     1
102
RTVSPropertyOp0
 70
     1
102
RTVSPropertyOp1
 70
     1
102
RTVSPropertyOp2
 70
     1
102
RTVSPropertyOp3
 70
     1
102
RTVSPropertyOp4
 70
     1
102
RTVSPropertyOp5
 70
     1
102
RTVSPropertyOp6
 70
     1
102
RTVSPropertyOp7
 70
     1
102
RTVSPropertyOp8
 70
     1
102
RTVSPropertyOp9
 70
     1
102
RTVSPropertyOp10
 70
     1
102
RTVSPropertyOp11
 70
     1
102
RTVSPropertyOp12
 70
     1
102
RTVSPropertyOp13
 70
     1
102
RTVSPropertyOp14
 70
     1
102
RTVSPropertyOp15
 70
     1
102
RTVSPropertyOp16
 70
     1
102
RTVSPropertyOp17
 70
     1
102
RTVSPropertyOp18
 70
     1
102
RTVSPropertyOp19
 70
     1
102
RTVSPropertyOp20
 70
     1
102
RTVSPropertyOp21
 70
     1
102
RTVSPropertyOp22
 70
     1
102
RTVSPropertyOp23
 70
     1
102
RTVSPropertyOp24
 70
     1
102
RTVSPropertyOp25
 70
     1
102
RTVSPropertyOp26
 70
     1
102
RTVSPropertyOp27
 70
     1
102
RTVSPropertyOp28
 70
     1
102
RTVSPropertyOp29
 70
     1
102
RTVSPropertyOp30
 70
     1
102
RTVSPropertyOp31
 70
     1
102
RTVSPropertyOp32
 70
     1
102
RTVSPropertyOp33
 70
     1
102
RTVSPropertyOp34
 70
     1
102
RTVSPropertyOp35
 70
     1
102
RTVSPropertyOp36
 70
     1
102
RTVSPropertyOp37
 70
     1
102
RTVSPropertyOp38
 70
     1
102
RTVSPropertyOp39
 70
     1
102
RTVSPropertyOp40
 70
     1
102
RTVSPropertyOp41
 70
     1
102
RTVSPropertyOp42
 70
     1
102
RTVSPropertyOp43
 70
     1
102
RTVSPropertyOp44
 70
     1
102
RTVSPropertyOp45
 70
     1
102
RTVSPropertyOp46
 70
     1
102
RTVSPropertyOp47
 70
     1
102
RTVSPropertyOp48
 70
     1
102
RTVSPropertyOp49
 70
     1
102
RTVSPropertyOp50
 70
     1
102
RTVSPropertyOp51
 70
     0
102
RTVSPropertyOp52
 70
     0
102
RTVSPropertyOp53
 70
     1
102
RTVSPropertyOp54
 70
     1
102
RTVSPropertyOp55
 70
     1
102
RTVSPropertyOp56
 70
     1
102
RTVSPropertyOp57
 70
     1
102
RTVSPropertyOp58
 70
     1
102
RTVSPropertyOp59
 70
     1
102
RTVSPropertyOp60
 70
     1
102
RTVSPropertyOp61
 70
     1
102
RTVSPropertyOp62
 70
     1
  0
XRECORD
  5
A300
102
{ACAD_REACTORS
330
A2FF
102
}
330
A2FF
100
AcDbXrecord
280
     1
102
RTVSPost2010Prop28
280
     0
102
RTVSPost2010PropOp28
 70
     1
102
RTVSPost2010Prop29
280
     1
102
RTVSPost2010PropOp29
 70
     1
102
RTVSPost2010Prop30
280
     1
102
RTVSPost2010PropOp30
 70
     1
102
RTVSPost2010Prop31
280
     0
102
RTVSPost2010PropOp31
 70
     1
102
RTVSPost2010Prop32
280
     0
102
RTVSPost2010PropOp32
 70
     1
102
RTVSPost2010Prop33
280
     0
102
RTVSPost2010PropOp33
 70
     1
102
RTVSPost2010Prop34
280
     0
102
RTVSPost2010PropOp34
 70
     1
102
RTVSPost2010Prop35
280
     0
102
RTVSPost2010PropOp35
 70
     1
102
RTVSPost2010Prop36
280
     0
102
RTVSPost2010PropOp36
 70
     1
102
RTVSPost2010Prop37
 90
       50
102
RTVSPost2010PropOp37
 70
     1
102
RTVSPost2010Prop38
140
0.0
102
RTVSPost2010PropOp38
 70
     1
102
RTVSPost2010Prop39
140
1.0
102
RTVSPost2010PropOp39
 70
     1
102
RTVSPost2010Prop40
 90
        0
102
RTVSPost2010PropOp40
 70
     1
102
RTVSPost2010Prop41ColorIndex
 90
       18
102
RTVSPost2010Prop41ColorRGB
 90
        0
102
RTVSPost2010PropOp41
 70
     1
102
RTVSPost2010Prop42
 90
       50
102
RTVSPost2010PropOp42
 70
     1
102
RTVSPost2010Prop43
 90
        3
102
RTVSPost2010PropOp43
 70
     1
102
RTVSPost2010Prop44ColorIndex
 90
        5
102
RTVSPost2010Prop44ColorRGB
 90
      255
102
RTVSPost2010PropOp44
 70
     1
102
RTVSPost2010Prop45
280
     0
102
RTVSPost2010PropOp45
 70
     1
102
RTVSPost2010Prop46
 90
       50
102
RTVSPost2010PropOp46
 70
     1
102
RTVSPost2010Prop47
 90
       50
102
RTVSPost2010PropOp47
 70
     1
102
RTVSPost2010Prop48
 90
       50
102
RTVSPost2010PropOp48
 70
     1
102
RTVSPost2010Prop49
280
     0
102
RTVSPost2010PropOp49
 70
     1
102
RTVSPost2010Prop50
 90
       50
102
RTVSPost2010PropOp50
 70
     1
102
RTVSPost2010Prop51ColorIndex
 90
      256
102
RTVSPost2010Prop51ColorRGB
 90
-16777216
102
RTVSPost2010PropOp51
 70
     0
102
RTVSPost2010Prop52
140
1.0
102
RTVSPost2010PropOp52
 70
     0
102
RTVSPost2010Prop53
 90
        2
102
RTVSPost2010PropOp53
 70
     1
102
RTVSPost2010Prop54
  1
strokes_ogs.tif
102
RTVSPost2010PropOp54
 70
     1
102
RTVSPost2010Prop55
280
     0
102
RTVSPost2010PropOp55
 70
     1
102
RTVSPost2010Prop56
140
1.0
102
RTVSPost2010PropOp56
 70
     1
102
RTVSPost2010Prop57
140
1.0
102
RTVSPost2010PropOp57
 70
     1
102
RTVSPropertyOp0
 70
     1
102
RTVSPropertyOp1
 70
     1
102
RTVSPropertyOp2
 70
     1
102
RTVSPropertyOp3
 70
     1
102
RTVSPropertyOp4
 70
     1
102
RTVSPropertyOp5
 70
     1
102
RTVSPropertyOp6
 70
     1
102
RTVSPropertyOp7
 70
     1
102
RTVSPropertyOp8
 70
     1
102
RTVSPropertyOp9
 70
     1
102
RTVSPropertyOp10
 70
     1
102
RTVSPropertyOp11
 70
     1
102
RTVSPropertyOp12
 70
     1
102
RTVSPropertyOp13
 70
     1
102
RTVSPropertyOp14
 70
     1
102
RTVSPropertyOp15
 70
     1
102
RTVSPropertyOp16
 70
     1
102
RTVSPropertyOp17
 70
     1
102
RTVSPropertyOp18
 70
     1
102
RTVSPropertyOp19
 70
     1
102
RTVSPropertyOp20
 70
     1
102
RTVSPropertyOp21
 70
     1
102
RTVSPropertyOp22
 70
     1
102
RTVSPropertyOp23
 70
     1
102
RTVSPropertyOp24
 70
     1
102
RTVSPropertyOp25
 70
     1
102
RTVSPropertyOp26
 70
     1
102
RTVSPropertyOp27
 70
     1
102
RTVSPropertyOp28
 70
     1
102
RTVSPropertyOp29
 70
     1
102
RTVSPropertyOp30
 70
     1
102
RTVSPropertyOp31
 70
     1
102
RTVSPropertyOp32
 70
     1
102
RTVSPropertyOp33
 70
     1
102
RTVSPropertyOp34
 70
     1
102
RTVSPropertyOp35
 70
     1
102
RTVSPropertyOp36
 70
     1
102
RTVSPropertyOp37
 70
     1
102
RTVSPropertyOp38
 70
     1
102
RTVSPropertyOp39
 70
     1
102
RTVSPropertyOp40
 70
     1
102
RTVSPropertyOp41
 70
     1
102
RTVSPropertyOp42
 70
     1
102
RTVSPropertyOp43
 70
     1
102
RTVSPropertyOp44
 70
     1
102
RTVSPropertyOp45
 70
     1
102
RTVSPropertyOp46
 70
     1
102
RTVSPropertyOp47
 70
     1
102
RTVSPropertyOp48
 70
     1
102
RTVSPropertyOp49
 70
     1
102
RTVSPropertyOp50
 70
     1
102
RTVSPropertyOp51
 70
     0
102
RTVSPropertyOp52
 70
     0
102
RTVSPropertyOp53
 70
     1
102
RTVSPropertyOp54
 70
     1
102
RTVSPropertyOp55
 70
     1
102
RTVSPropertyOp56
 70
     1
102
RTVSPropertyOp57
 70
     1
102
RTVSPropertyOp58
 70
     1
102
RTVSPropertyOp59
 70
     1
102
RTVSPropertyOp60
 70
     1
102
RTVSPropertyOp61
 70
     1
102
RTVSPropertyOp62
 70
     1
  0
XRECORD
  5
A304
102
{ACAD_REACTORS
330
A303
102
}
330
A303
100
AcDbXrecord
280
     1
102
RTVSPost2010Prop28
280
     0
102
RTVSPost2010PropOp28
 70
     1
102
RTVSPost2010Prop29
280
     1
102
RTVSPost2010PropOp29
 70
     1
102
RTVSPost2010Prop30
280
     1
102
RTVSPost2010PropOp30
 70
     1
102
RTVSPost2010Prop31
280
     0
102
RTVSPost2010PropOp31
 70
     1
102
RTVSPost2010Prop32
280
     0
102
RTVSPost2010PropOp32
 70
     1
102
RTVSPost2010Prop33
280
     0
102
RTVSPost2010PropOp33
 70
     1
102
RTVSPost2010Prop34
280
     0
102
RTVSPost2010PropOp34
 70
     1
102
RTVSPost2010Prop35
280
     0
102
RTVSPost2010PropOp35
 70
     1
102
RTVSPost2010Prop36
280
     0
102
RTVSPost2010PropOp36
 70
     1
102
RTVSPost2010Prop37
 90
       50
102
RTVSPost2010PropOp37
 70
     1
102
RTVSPost2010Prop38
140
0.0
102
RTVSPost2010PropOp38
 70
     1
102
RTVSPost2010Prop39
140
1.0
102
RTVSPost2010PropOp39
 70
     1
102
RTVSPost2010Prop40
 90
        0
102
RTVSPost2010PropOp40
 70
     1
102
RTVSPost2010Prop41ColorIndex
 90
       18
102
RTVSPost2010Prop41ColorRGB
 90
        0
102
RTVSPost2010PropOp41
 70
     1
102
RTVSPost2010Prop42
 90
       50
102
RTVSPost2010PropOp42
 70
     1
102
RTVSPost2010Prop43
 90
        3
102
RTVSPost2010PropOp43
 70
     1
102
RTVSPost2010Prop44ColorIndex
 90
        5
102
RTVSPost2010Prop44ColorRGB
 90
      255
102
RTVSPost2010PropOp44
 70
     1
102
RTVSPost2010Prop45
280
     0
102
RTVSPost2010PropOp45
 70
     1
102
RTVSPost2010Prop46
 90
       50
102
RTVSPost2010PropOp46
 70
     1
102
RTVSPost2010Prop47
 90
       50
102
RTVSPost2010PropOp47
 70
     1
102
RTVSPost2010Prop48
 90
       50
102
RTVSPost2010PropOp48
 70
     1
102
RTVSPost2010Prop49
280
     0
102
RTVSPost2010PropOp49
 70
     1
102
RTVSPost2010Prop50
 90
       50
102
RTVSPost2010PropOp50
 70
     1
102
RTVSPost2010Prop51ColorIndex
 90
      256
102
RTVSPost2010Prop51ColorRGB
 90
-16777216
102
RTVSPost2010PropOp51
 70
     0
102
RTVSPost2010Prop52
140
1.0
102
RTVSPost2010PropOp52
 70
     0
102
RTVSPost2010Prop53
 90
        2
102
RTVSPost2010PropOp53
 70
     1
102
RTVSPost2010Prop54
  1
strokes_ogs.tif
102
RTVSPost2010PropOp54
 70
     1
102
RTVSPost2010Prop55
280
     0
102
RTVSPost2010PropOp55
 70
     1
102
RTVSPost2010Prop56
140
1.0
102
RTVSPost2010PropOp56
 70
     1
102
RTVSPost2010Prop57
140
1.0
102
RTVSPost2010PropOp57
 70
     1
102
RTVSPropertyOp0
 70
     1
102
RTVSPropertyOp1
 70
     1
102
RTVSPropertyOp2
 70
     1
102
RTVSPropertyOp3
 70
     1
102
RTVSPropertyOp4
 70
     1
102
RTVSPropertyOp5
 70
     1
102
RTVSPropertyOp6
 70
     1
102
RTVSPropertyOp7
 70
     1
102
RTVSPropertyOp8
 70
     1
102
RTVSPropertyOp9
 70
     1
102
RTVSPropertyOp10
 70
     1
102
RTVSPropertyOp11
 70
     1
102
RTVSPropertyOp12
 70
     1
102
RTVSPropertyOp13
 70
     1
102
RTVSPropertyOp14
 70
     1
102
RTVSPropertyOp15
 70
     1
102
RTVSPropertyOp16
 70
     1
102
RTVSPropertyOp17
 70
     1
102
RTVSPropertyOp18
 70
     1
102
RTVSPropertyOp19
 70
     1
102
RTVSPropertyOp20
 70
     1
102
RTVSPropertyOp21
 70
     1
102
RTVSPropertyOp22
 70
     1
102
RTVSPropertyOp23
 70
     1
102
RTVSPropertyOp24
 70
     1
102
RTVSPropertyOp25
 70
     1
102
RTVSPropertyOp26
 70
     1
102
RTVSPropertyOp27
 70
     1
102
RTVSPropertyOp28
 70
     1
102
RTVSPropertyOp29
 70
     1
102
RTVSPropertyOp30
 70
     1
102
RTVSPropertyOp31
 70
     1
102
RTVSPropertyOp32
 70
     1
102
RTVSPropertyOp33
 70
     1
102
RTVSPropertyOp34
 70
     1
102
RTVSPropertyOp35
 70
     1
102
RTVSPropertyOp36
 70
     1
102
RTVSPropertyOp37
 70
     1
102
RTVSPropertyOp38
 70
     1
102
RTVSPropertyOp39
 70
     1
102
RTVSPropertyOp40
 70
     1
102
RTVSPropertyOp41
 70
     1
102
RTVSPropertyOp42
 70
     1
102
RTVSPropertyOp43
 70
     1
102
RTVSPropertyOp44
 70
     1
102
RTVSPropertyOp45
 70
     1
102
RTVSPropertyOp46
 70
     1
102
RTVSPropertyOp47
 70
     1
102
RTVSPropertyOp48
 70
     1
102
RTVSPropertyOp49
 70
     1
102
RTVSPropertyOp50
 70
     1
102
RTVSPropertyOp51
 70
     0
102
RTVSPropertyOp52
 70
     0
102
RTVSPropertyOp53
 70
     1
102
RTVSPropertyOp54
 70
     1
102
RTVSPropertyOp55
 70
     1
102
RTVSPropertyOp56
 70
     1
102
RTVSPropertyOp57
 70
     1
102
RTVSPropertyOp58
 70
     1
102
RTVSPropertyOp59
 70
     1
102
RTVSPropertyOp60
 70
     1
102
RTVSPropertyOp61
 70
     1
102
RTVSPropertyOp62
 70
     1
  0
XRECORD
  5
A31E
102
{ACAD_REACTORS
330
A31D
102
}
330
A31D
100
AcDbXrecord
280
     1
102
RTVSPost2010Prop28
280
     0
102
RTVSPost2010PropOp28
 70
     1
102
RTVSPost2010Prop29
280
     1
102
RTVSPost2010PropOp29
 70
     1
102
RTVSPost2010Prop30
280
     1
102
RTVSPost2010PropOp30
 70
     1
102
RTVSPost2010Prop31
280
     0
102
RTVSPost2010PropOp31
 70
     1
102
RTVSPost2010Prop32
280
     0
102
RTVSPost2010PropOp32
 70
     1
102
RTVSPost2010Prop33
280
     0
102
RTVSPost2010PropOp33
 70
     1
102
RTVSPost2010Prop34
280
     0
102
RTVSPost2010PropOp34
 70
     1
102
RTVSPost2010Prop35
280
     0
102
RTVSPost2010PropOp35
 70
     1
102
RTVSPost2010Prop36
280
     0
102
RTVSPost2010PropOp36
 70
     1
102
RTVSPost2010Prop37
 90
       50
102
RTVSPost2010PropOp37
 70
     0
102
RTVSPost2010Prop38
140
0.0
102
RTVSPost2010PropOp38
 70
     0
102
RTVSPost2010Prop39
140
1.0
102
RTVSPost2010PropOp39
 70
     0
102
RTVSPost2010Prop40
 90
        0
102
RTVSPost2010PropOp40
 70
     0
102
RTVSPost2010Prop41ColorIndex
 90
       18
102
RTVSPost2010Prop41ColorRGB
 90
        0
102
RTVSPost2010PropOp41
 70
     0
102
RTVSPost2010Prop42
 90
       50
102
RTVSPost2010PropOp42
 70
     0
102
RTVSPost2010Prop43
 90
        3
102
RTVSPost2010PropOp43
 70
     0
102
RTVSPost2010Prop44ColorIndex
 90
        5
102
RTVSPost2010Prop44ColorRGB
 90
      255
102
RTVSPost2010PropOp44
 70
     0
102
RTVSPost2010Prop45
280
     0
102
RTVSPost2010PropOp45
 70
     1
102
RTVSPost2010Prop46
 90
       50
102
RTVSPost2010PropOp46
 70
     0
102
RTVSPost2010Prop47
 90
       50
102
RTVSPost2010PropOp47
 70
     0
102
RTVSPost2010Prop48
 90
       50
102
RTVSPost2010PropOp48
 70
     0
102
RTVSPost2010Prop49
280
     0
102
RTVSPost2010PropOp49
 70
     1
102
RTVSPost2010Prop50
 90
       50
102
RTVSPost2010PropOp50
 70
     0
102
RTVSPost2010Prop51ColorIndex
 90
      256
102
RTVSPost2010Prop51ColorRGB
 90
-16777216
102
RTVSPost2010PropOp51
 70
     0
102
RTVSPost2010Prop52
140
1.0
102
RTVSPost2010PropOp52
 70
     0
102
RTVSPost2010Prop53
 90
        2
102
RTVSPost2010PropOp53
 70
     0
102
RTVSPost2010Prop54
  1
strokes_ogs.tif
102
RTVSPost2010PropOp54
 70
     0
102
RTVSPost2010Prop55
280
     0
102
RTVSPost2010PropOp55
 70
     1
102
RTVSPost2010Prop56
140
1.0
102
RTVSPost2010PropOp56
 70
     0
102
RTVSPost2010Prop57
140
1.0
102
RTVSPost2010PropOp57
 70
     0
102
RTVSPropertyOp0
 70
     0
102
RTVSPropertyOp1
 70
     0
102
RTVSPropertyOp2
 70
     0
102
RTVSPropertyOp3
 70
     0
102
RTVSPropertyOp4
 70
     0
102
RTVSPropertyOp5
 70
     0
102
RTVSPropertyOp6
 70
     0
102
RTVSPropertyOp7
 70
     0
102
RTVSPropertyOp8
 70
     0
102
RTVSPropertyOp9
 70
     0
102
RTVSPropertyOp10
 70
     0
102
RTVSPropertyOp11
 70
     0
102
RTVSPropertyOp12
 70
     0
102
RTVSPropertyOp13
 70
     0
102
RTVSPropertyOp14
 70
     2
102
RTVSPropertyOp15
 70
     0
102
RTVSPropertyOp16
 70
     0
102
RTVSPropertyOp17
 70
     0
102
RTVSPropertyOp18
 70
     0
102
RTVSPropertyOp19
 70
     0
102
RTVSPropertyOp20
 70
     0
102
RTVSPropertyOp21
 70
     0
102
RTVSPropertyOp22
 70
     0
102
RTVSPropertyOp23
 70
     0
102
RTVSPropertyOp24
 70
     0
102
RTVSPropertyOp25
 70
     0
102
RTVSPropertyOp26
 70
     0
102
RTVSPropertyOp27
 70
     0
102
RTVSPropertyOp28
 70
     1
102
RTVSPropertyOp29
 70
     1
102
RTVSPropertyOp30
 70
     1
102
RTVSPropertyOp31
 70
     1
102
RTVSPropertyOp32
 70
     1
102
RTVSPropertyOp33
 70
     1
102
RTVSPropertyOp34
 70
     1
102
RTVSPropertyOp35
 70
     1
102
RTVSPropertyOp36
 70
     1
102
RTVSPropertyOp37
 70
     0
102
RTVSPropertyOp38
 70
     0
102
RTVSPropertyOp39
 70
     0
102
RTVSPropertyOp40
 70
     0
102
RTVSPropertyOp41
 70
     0
102
RTVSPropertyOp42
 70
     0
102
RTVSPropertyOp43
 70
     0
102
RTVSPropertyOp44
 70
     0
102
RTVSPropertyOp45
 70
     1
102
RTVSPropertyOp46
 70
     0
102
RTVSPropertyOp47
 70
     0
102
RTVSPropertyOp48
 70
     0
102
RTVSPropertyOp49
 70
     1
102
RTVSPropertyOp50
 70
     0
102
RTVSPropertyOp51
 70
     0
102
RTVSPropertyOp52
 70
     0
102
RTVSPropertyOp53
 70
     0
102
RTVSPropertyOp54
 70
     0
102
RTVSPropertyOp55
 70
     1
102
RTVSPropertyOp56
 70
     0
102
RTVSPropertyOp57
 70
     0
102
RTVSPropertyOp58
 70
     0
102
RTVSPropertyOp59
 70
     0
102
RTVSPropertyOp60
 70
     0
102
RTVSPropertyOp61
 70
     0
102
RTVSPropertyOp62
 70
     0
  0
XRECORD
  5
A30C
102
{ACAD_REACTORS
330
A30B
102
}
330
A30B
100
AcDbXrecord
280
     1
102
RTVSPost2010Prop28
280
     0
102
RTVSPost2010PropOp28
 70
     1
102
RTVSPost2010Prop29
280
     1
102
RTVSPost2010PropOp29
 70
     1
102
RTVSPost2010Prop30
280
     1
102
RTVSPost2010PropOp30
 70
     1
102
RTVSPost2010Prop31
280
     0
102
RTVSPost2010PropOp31
 70
     1
102
RTVSPost2010Prop32
280
     0
102
RTVSPost2010PropOp32
 70
     1
102
RTVSPost2010Prop33
280
     0
102
RTVSPost2010PropOp33
 70
     1
102
RTVSPost2010Prop34
280
     0
102
RTVSPost2010PropOp34
 70
     1
102
RTVSPost2010Prop35
280
     0
102
RTVSPost2010PropOp35
 70
     1
102
RTVSPost2010Prop36
280
     0
102
RTVSPost2010PropOp36
 70
     1
102
RTVSPost2010Prop37
 90
       50
102
RTVSPost2010PropOp37
 70
     1
102
RTVSPost2010Prop38
140
0.0
102
RTVSPost2010PropOp38
 70
     1
102
RTVSPost2010Prop39
140
1.0
102
RTVSPost2010PropOp39
 70
     1
102
RTVSPost2010Prop40
 90
        0
102
RTVSPost2010PropOp40
 70
     1
102
RTVSPost2010Prop41ColorIndex
 90
       18
102
RTVSPost2010Prop41ColorRGB
 90
        0
102
RTVSPost2010PropOp41
 70
     1
102
RTVSPost2010Prop42
 90
       50
102
RTVSPost2010PropOp42
 70
     1
102
RTVSPost2010Prop43
 90
        3
102
RTVSPost2010PropOp43
 70
     1
102
RTVSPost2010Prop44ColorIndex
 90
        5
102
RTVSPost2010Prop44ColorRGB
 90
      255
102
RTVSPost2010PropOp44
 70
     1
102
RTVSPost2010Prop45
280
     0
102
RTVSPost2010PropOp45
 70
     1
102
RTVSPost2010Prop46
 90
       50
102
RTVSPost2010PropOp46
 70
     1
102
RTVSPost2010Prop47
 90
       50
102
RTVSPost2010PropOp47
 70
     1
102
RTVSPost2010Prop48
 90
       50
102
RTVSPost2010PropOp48
 70
     1
102
RTVSPost2010Prop49
280
     0
102
RTVSPost2010PropOp49
 70
     1
102
RTVSPost2010Prop50
 90
       50
102
RTVSPost2010PropOp50
 70
     1
102
RTVSPost2010Prop51ColorIndex
 90
      256
102
RTVSPost2010Prop51ColorRGB
 90
-16777216
102
RTVSPost2010PropOp51
 70
     0
102
RTVSPost2010Prop52
140
1.0
102
RTVSPost2010PropOp52
 70
     0
102
RTVSPost2010Prop53
 90
        2
102
RTVSPost2010PropOp53
 70
     1
102
RTVSPost2010Prop54
  1
strokes_ogs.tif
102
RTVSPost2010PropOp54
 70
     1
102
RTVSPost2010Prop55
280
     0
102
RTVSPost2010PropOp55
 70
     1
102
RTVSPost2010Prop56
140
1.0
102
RTVSPost2010PropOp56
 70
     1
102
RTVSPost2010Prop57
140
1.0
102
RTVSPost2010PropOp57
 70
     1
102
RTVSPropertyOp0
 70
     1
102
RTVSPropertyOp1
 70
     1
102
RTVSPropertyOp2
 70
     1
102
RTVSPropertyOp3
 70
     1
102
RTVSPropertyOp4
 70
     1
102
RTVSPropertyOp5
 70
     1
102
RTVSPropertyOp6
 70
     1
102
RTVSPropertyOp7
 70
     1
102
RTVSPropertyOp8
 70
     1
102
RTVSPropertyOp9
 70
     1
102
RTVSPropertyOp10
 70
     1
102
RTVSPropertyOp11
 70
     1
102
RTVSPropertyOp12
 70
     1
102
RTVSPropertyOp13
 70
     1
102
RTVSPropertyOp14
 70
     1
102
RTVSPropertyOp15
 70
     1
102
RTVSPropertyOp16
 70
     1
102
RTVSPropertyOp17
 70
     1
102
RTVSPropertyOp18
 70
     1
102
RTVSPropertyOp19
 70
     1
102
RTVSPropertyOp20
 70
     1
102
RTVSPropertyOp21
 70
     1
102
RTVSPropertyOp22
 70
     1
102
RTVSPropertyOp23
 70
     1
102
RTVSPropertyOp24
 70
     1
102
RTVSPropertyOp25
 70
     1
102
RTVSPropertyOp26
 70
     1
102
RTVSPropertyOp27
 70
     1
102
RTVSPropertyOp28
 70
     1
102
RTVSPropertyOp29
 70
     1
102
RTVSPropertyOp30
 70
     1
102
RTVSPropertyOp31
 70
     1
102
RTVSPropertyOp32
 70
     1
102
RTVSPropertyOp33
 70
     1
102
RTVSPropertyOp34
 70
     1
102
RTVSPropertyOp35
 70
     1
102
RTVSPropertyOp36
 70
     1
102
RTVSPropertyOp37
 70
     1
102
RTVSPropertyOp38
 70
     1
102
RTVSPropertyOp39
 70
     1
102
RTVSPropertyOp40
 70
     1
102
RTVSPropertyOp41
 70
     1
102
RTVSPropertyOp42
 70
     1
102
RTVSPropertyOp43
 70
     1
102
RTVSPropertyOp44
 70
     1
102
RTVSPropertyOp45
 70
     1
102
RTVSPropertyOp46
 70
     1
102
RTVSPropertyOp47
 70
     1
102
RTVSPropertyOp48
 70
     1
102
RTVSPropertyOp49
 70
     1
102
RTVSPropertyOp50
 70
     1
102
RTVSPropertyOp51
 70
     0
102
RTVSPropertyOp52
 70
     0
102
RTVSPropertyOp53
 70
     1
102
RTVSPropertyOp54
 70
     1
102
RTVSPropertyOp55
 70
     1
102
RTVSPropertyOp56
 70
     1
102
RTVSPropertyOp57
 70
     1
102
RTVSPropertyOp58
 70
     1
102
RTVSPropertyOp59
 70
     1
102
RTVSPropertyOp60
 70
     1
102
RTVSPropertyOp61
 70
     1
102
RTVSPropertyOp62
 70
     1
  0
XRECORD
  5
A2F0
102
{ACAD_REACTORS
330
A2EF
102
}
330
A2EF
100
AcDbXrecord
280
     1
102
RTVSPost2010Prop28
280
     0
102
RTVSPost2010PropOp28
 70
     1
102
RTVSPost2010Prop29
280
     1
102
RTVSPost2010PropOp29
 70
     1
102
RTVSPost2010Prop30
280
     1
102
RTVSPost2010PropOp30
 70
     1
102
RTVSPost2010Prop31
280
     0
102
RTVSPost2010PropOp31
 70
     1
102
RTVSPost2010Prop32
280
     0
102
RTVSPost2010PropOp32
 70
     1
102
RTVSPost2010Prop33
280
     0
102
RTVSPost2010PropOp33
 70
     1
102
RTVSPost2010Prop34
280
     0
102
RTVSPost2010PropOp34
 70
     1
102
RTVSPost2010Prop35
280
     0
102
RTVSPost2010PropOp35
 70
     1
102
RTVSPost2010Prop36
280
     0
102
RTVSPost2010PropOp36
 70
     1
102
RTVSPost2010Prop37
 90
       50
102
RTVSPost2010PropOp37
 70
     1
102
RTVSPost2010Prop38
140
0.0
102
RTVSPost2010PropOp38
 70
     1
102
RTVSPost2010Prop39
140
1.0
102
RTVSPost2010PropOp39
 70
     1
102
RTVSPost2010Prop40
 90
        0
102
RTVSPost2010PropOp40
 70
     1
102
RTVSPost2010Prop41ColorIndex
 90
       18
102
RTVSPost2010Prop41ColorRGB
 90
        0
102
RTVSPost2010PropOp41
 70
     1
102
RTVSPost2010Prop42
 90
       50
102
RTVSPost2010PropOp42
 70
     1
102
RTVSPost2010Prop43
 90
        3
102
RTVSPost2010PropOp43
 70
     1
102
RTVSPost2010Prop44ColorIndex
 90
        5
102
RTVSPost2010Prop44ColorRGB
 90
      255
102
RTVSPost2010PropOp44
 70
     1
102
RTVSPost2010Prop45
280
     0
102
RTVSPost2010PropOp45
 70
     1
102
RTVSPost2010Prop46
 90
       50
102
RTVSPost2010PropOp46
 70
     1
102
RTVSPost2010Prop47
 90
       50
102
RTVSPost2010PropOp47
 70
     1
102
RTVSPost2010Prop48
 90
       50
102
RTVSPost2010PropOp48
 70
     1
102
RTVSPost2010Prop49
280
     0
102
RTVSPost2010PropOp49
 70
     1
102
RTVSPost2010Prop50
 90
       50
102
RTVSPost2010PropOp50
 70
     1
102
RTVSPost2010Prop51ColorIndex
 90
      256
102
RTVSPost2010Prop51ColorRGB
 90
-16777216
102
RTVSPost2010PropOp51
 70
     0
102
RTVSPost2010Prop52
140
1.0
102
RTVSPost2010PropOp52
 70
     0
102
RTVSPost2010Prop53
 90
        2
102
RTVSPost2010PropOp53
 70
     1
102
RTVSPost2010Prop54
  1
strokes_ogs.tif
102
RTVSPost2010PropOp54
 70
     1
102
RTVSPost2010Prop55
280
     0
102
RTVSPost2010PropOp55
 70
     1
102
RTVSPost2010Prop56
140
1.0
102
RTVSPost2010PropOp56
 70
     1
102
RTVSPost2010Prop57
140
1.0
102
RTVSPost2010PropOp57
 70
     1
102
RTVSPropertyOp0
 70
     1
102
RTVSPropertyOp1
 70
     1
102
RTVSPropertyOp2
 70
     1
102
RTVSPropertyOp3
 70
     1
102
RTVSPropertyOp4
 70
     1
102
RTVSPropertyOp5
 70
     1
102
RTVSPropertyOp6
 70
     1
102
RTVSPropertyOp7
 70
     1
102
RTVSPropertyOp8
 70
     1
102
RTVSPropertyOp9
 70
     1
102
RTVSPropertyOp10
 70
     1
102
RTVSPropertyOp11
 70
     1
102
RTVSPropertyOp12
 70
     1
102
RTVSPropertyOp13
 70
     1
102
RTVSPropertyOp14
 70
     1
102
RTVSPropertyOp15
 70
     1
102
RTVSPropertyOp16
 70
     1
102
RTVSPropertyOp17
 70
     1
102
RTVSPropertyOp18
 70
     1
102
RTVSPropertyOp19
 70
     1
102
RTVSPropertyOp20
 70
     1
102
RTVSPropertyOp21
 70
     1
102
RTVSPropertyOp22
 70
     1
102
RTVSPropertyOp23
 70
     1
102
RTVSPropertyOp24
 70
     1
102
RTVSPropertyOp25
 70
     1
102
RTVSPropertyOp26
 70
     1
102
RTVSPropertyOp27
 70
     1
102
RTVSPropertyOp28
 70
     1
102
RTVSPropertyOp29
 70
     1
102
RTVSPropertyOp30
 70
     1
102
RTVSPropertyOp31
 70
     1
102
RTVSPropertyOp32
 70
     1
102
RTVSPropertyOp33
 70
     1
102
RTVSPropertyOp34
 70
     1
102
RTVSPropertyOp35
 70
     1
102
RTVSPropertyOp36
 70
     1
102
RTVSPropertyOp37
 70
     1
102
RTVSPropertyOp38
 70
     1
102
RTVSPropertyOp39
 70
     1
102
RTVSPropertyOp40
 70
     1
102
RTVSPropertyOp41
 70
     1
102
RTVSPropertyOp42
 70
     1
102
RTVSPropertyOp43
 70
     1
102
RTVSPropertyOp44
 70
     1
102
RTVSPropertyOp45
 70
     1
102
RTVSPropertyOp46
 70
     1
102
RTVSPropertyOp47
 70
     1
102
RTVSPropertyOp48
 70
     1
102
RTVSPropertyOp49
 70
     1
102
RTVSPropertyOp50
 70
     1
102
RTVSPropertyOp51
 70
     0
102
RTVSPropertyOp52
 70
     0
102
RTVSPropertyOp53
 70
     1
102
RTVSPropertyOp54
 70
     1
102
RTVSPropertyOp55
 70
     1
102
RTVSPropertyOp56
 70
     1
102
RTVSPropertyOp57
 70
     1
102
RTVSPropertyOp58
 70
     1
102
RTVSPropertyOp59
 70
     1
102
RTVSPropertyOp60
 70
     1
102
RTVSPropertyOp61
 70
     1
102
RTVSPropertyOp62
 70
     1
  0
XRECORD
  5
A2F2
102
{ACAD_REACTORS
330
A2F1
102
}
330
A2F1
100
AcDbXrecord
280
     1
102
RTVSPost2010Prop28
280
     0
102
RTVSPost2010PropOp28
 70
     1
102
RTVSPost2010Prop29
280
     1
102
RTVSPost2010PropOp29
 70
     1
102
RTVSPost2010Prop30
280
     1
102
RTVSPost2010PropOp30
 70
     1
102
RTVSPost2010Prop31
280
     0
102
RTVSPost2010PropOp31
 70
     1
102
RTVSPost2010Prop32
280
     0
102
RTVSPost2010PropOp32
 70
     1
102
RTVSPost2010Prop33
280
     0
102
RTVSPost2010PropOp33
 70
     1
102
RTVSPost2010Prop34
280
     0
102
RTVSPost2010PropOp34
 70
     1
102
RTVSPost2010Prop35
280
     0
102
RTVSPost2010PropOp35
 70
     1
102
RTVSPost2010Prop36
280
     0
102
RTVSPost2010PropOp36
 70
     1
102
RTVSPost2010Prop37
 90
       50
102
RTVSPost2010PropOp37
 70
     1
102
RTVSPost2010Prop38
140
0.0
102
RTVSPost2010PropOp38
 70
     1
102
RTVSPost2010Prop39
140
1.0
102
RTVSPost2010PropOp39
 70
     1
102
RTVSPost2010Prop40
 90
        0
102
RTVSPost2010PropOp40
 70
     1
102
RTVSPost2010Prop41ColorIndex
 90
       18
102
RTVSPost2010Prop41ColorRGB
 90
        0
102
RTVSPost2010PropOp41
 70
     1
102
RTVSPost2010Prop42
 90
       50
102
RTVSPost2010PropOp42
 70
     1
102
RTVSPost2010Prop43
 90
        3
102
RTVSPost2010PropOp43
 70
     1
102
RTVSPost2010Prop44ColorIndex
 90
        5
102
RTVSPost2010Prop44ColorRGB
 90
      255
102
RTVSPost2010PropOp44
 70
     1
102
RTVSPost2010Prop45
280
     0
102
RTVSPost2010PropOp45
 70
     1
102
RTVSPost2010Prop46
 90
       50
102
RTVSPost2010PropOp46
 70
     1
102
RTVSPost2010Prop47
 90
       50
102
RTVSPost2010PropOp47
 70
     1
102
RTVSPost2010Prop48
 90
       50
102
RTVSPost2010PropOp48
 70
     1
102
RTVSPost2010Prop49
280
     0
102
RTVSPost2010PropOp49
 70
     1
102
RTVSPost2010Prop50
 90
       50
102
RTVSPost2010PropOp50
 70
     1
102
RTVSPost2010Prop51ColorIndex
 90
      256
102
RTVSPost2010Prop51ColorRGB
 90
-16777216
102
RTVSPost2010PropOp51
 70
     0
102
RTVSPost2010Prop52
140
1.0
102
RTVSPost2010PropOp52
 70
     0
102
RTVSPost2010Prop53
 90
        2
102
RTVSPost2010PropOp53
 70
     1
102
RTVSPost2010Prop54
  1
strokes_ogs.tif
102
RTVSPost2010PropOp54
 70
     1
102
RTVSPost2010Prop55
280
     0
102
RTVSPost2010PropOp55
 70
     1
102
RTVSPost2010Prop56
140
1.0
102
RTVSPost2010PropOp56
 70
     1
102
RTVSPost2010Prop57
140
1.0
102
RTVSPost2010PropOp57
 70
     1
102
RTVSPropertyOp0
 70
     1
102
RTVSPropertyOp1
 70
     1
102
RTVSPropertyOp2
 70
     1
102
RTVSPropertyOp3
 70
     1
102
RTVSPropertyOp4
 70
     1
102
RTVSPropertyOp5
 70
     1
102
RTVSPropertyOp6
 70
     1
102
RTVSPropertyOp7
 70
     1
102
RTVSPropertyOp8
 70
     1
102
RTVSPropertyOp9
 70
     1
102
RTVSPropertyOp10
 70
     1
102
RTVSPropertyOp11
 70
     1
102
RTVSPropertyOp12
 70
     1
102
RTVSPropertyOp13
 70
     1
102
RTVSPropertyOp14
 70
     1
102
RTVSPropertyOp15
 70
     1
102
RTVSPropertyOp16
 70
     1
102
RTVSPropertyOp17
 70
     1
102
RTVSPropertyOp18
 70
     1
102
RTVSPropertyOp19
 70
     1
102
RTVSPropertyOp20
 70
     1
102
RTVSPropertyOp21
 70
     1
102
RTVSPropertyOp22
 70
     1
102
RTVSPropertyOp23
 70
     1
102
RTVSPropertyOp24
 70
     1
102
RTVSPropertyOp25
 70
     1
102
RTVSPropertyOp26
 70
     1
102
RTVSPropertyOp27
 70
     1
102
RTVSPropertyOp28
 70
     1
102
RTVSPropertyOp29
 70
     1
102
RTVSPropertyOp30
 70
     1
102
RTVSPropertyOp31
 70
     1
102
RTVSPropertyOp32
 70
     1
102
RTVSPropertyOp33
 70
     1
102
RTVSPropertyOp34
 70
     1
102
RTVSPropertyOp35
 70
     1
102
RTVSPropertyOp36
 70
     1
102
RTVSPropertyOp37
 70
     1
102
RTVSPropertyOp38
 70
     1
102
RTVSPropertyOp39
 70
     1
102
RTVSPropertyOp40
 70
     1
102
RTVSPropertyOp41
 70
     1
102
RTVSPropertyOp42
 70
     1
102
RTVSPropertyOp43
 70
     1
102
RTVSPropertyOp44
 70
     1
102
RTVSPropertyOp45
 70
     1
102
RTVSPropertyOp46
 70
     1
102
RTVSPropertyOp47
 70
     1
102
RTVSPropertyOp48
 70
     1
102
RTVSPropertyOp49
 70
     1
102
RTVSPropertyOp50
 70
     1
102
RTVSPropertyOp51
 70
     0
102
RTVSPropertyOp52
 70
     0
102
RTVSPropertyOp53
 70
     1
102
RTVSPropertyOp54
 70
     1
102
RTVSPropertyOp55
 70
     1
102
RTVSPropertyOp56
 70
     1
102
RTVSPropertyOp57
 70
     1
102
RTVSPropertyOp58
 70
     1
102
RTVSPropertyOp59
 70
     1
102
RTVSPropertyOp60
 70
     1
102
RTVSPropertyOp61
 70
     1
102
RTVSPropertyOp62
 70
     1
  0
XRECORD
  5
A2F4
102
{ACAD_REACTORS
330
A2F3
102
}
330
A2F3
100
AcDbXrecord
280
     1
102
RTVSPost2010Prop28
280
     0
102
RTVSPost2010PropOp28
 70
     1
102
RTVSPost2010Prop29
280
     1
102
RTVSPost2010PropOp29
 70
     1
102
RTVSPost2010Prop30
280
     1
102
RTVSPost2010PropOp30
 70
     1
102
RTVSPost2010Prop31
280
     0
102
RTVSPost2010PropOp31
 70
     1
102
RTVSPost2010Prop32
280
     0
102
RTVSPost2010PropOp32
 70
     1
102
RTVSPost2010Prop33
280
     0
102
RTVSPost2010PropOp33
 70
     1
102
RTVSPost2010Prop34
280
     0
102
RTVSPost2010PropOp34
 70
     1
102
RTVSPost2010Prop35
280
     0
102
RTVSPost2010PropOp35
 70
     1
102
RTVSPost2010Prop36
280
     0
102
RTVSPost2010PropOp36
 70
     1
102
RTVSPost2010Prop37
 90
       50
102
RTVSPost2010PropOp37
 70
     1
102
RTVSPost2010Prop38
140
0.0
102
RTVSPost2010PropOp38
 70
     1
102
RTVSPost2010Prop39
140
1.0
102
RTVSPost2010PropOp39
 70
     1
102
RTVSPost2010Prop40
 90
        0
102
RTVSPost2010PropOp40
 70
     1
102
RTVSPost2010Prop41ColorIndex
 90
       18
102
RTVSPost2010Prop41ColorRGB
 90
        0
102
RTVSPost2010PropOp41
 70
     1
102
RTVSPost2010Prop42
 90
       50
102
RTVSPost2010PropOp42
 70
     1
102
RTVSPost2010Prop43
 90
        3
102
RTVSPost2010PropOp43
 70
     1
102
RTVSPost2010Prop44ColorIndex
 90
        5
102
RTVSPost2010Prop44ColorRGB
 90
      255
102
RTVSPost2010PropOp44
 70
     1
102
RTVSPost2010Prop45
280
     0
102
RTVSPost2010PropOp45
 70
     1
102
RTVSPost2010Prop46
 90
       50
102
RTVSPost2010PropOp46
 70
     1
102
RTVSPost2010Prop47
 90
       50
102
RTVSPost2010PropOp47
 70
     1
102
RTVSPost2010Prop48
 90
       50
102
RTVSPost2010PropOp48
 70
     1
102
RTVSPost2010Prop49
280
     0
102
RTVSPost2010PropOp49
 70
     1
102
RTVSPost2010Prop50
 90
       50
102
RTVSPost2010PropOp50
 70
     1
102
RTVSPost2010Prop51ColorIndex
 90
      256
102
RTVSPost2010Prop51ColorRGB
 90
-16777216
102
RTVSPost2010PropOp51
 70
     0
102
RTVSPost2010Prop52
140
1.0
102
RTVSPost2010PropOp52
 70
     0
102
RTVSPost2010Prop53
 90
        2
102
RTVSPost2010PropOp53
 70
     1
102
RTVSPost2010Prop54
  1
strokes_ogs.tif
102
RTVSPost2010PropOp54
 70
     1
102
RTVSPost2010Prop55
280
     0
102
RTVSPost2010PropOp55
 70
     1
102
RTVSPost2010Prop56
140
1.0
102
RTVSPost2010PropOp56
 70
     1
102
RTVSPost2010Prop57
140
1.0
102
RTVSPost2010PropOp57
 70
     1
102
RTVSPropertyOp0
 70
     1
102
RTVSPropertyOp1
 70
     1
102
RTVSPropertyOp2
 70
     1
102
RTVSPropertyOp3
 70
     1
102
RTVSPropertyOp4
 70
     1
102
RTVSPropertyOp5
 70
     1
102
RTVSPropertyOp6
 70
     1
102
RTVSPropertyOp7
 70
     1
102
RTVSPropertyOp8
 70
     1
102
RTVSPropertyOp9
 70
     1
102
RTVSPropertyOp10
 70
     1
102
RTVSPropertyOp11
 70
     1
102
RTVSPropertyOp12
 70
     1
102
RTVSPropertyOp13
 70
     1
102
RTVSPropertyOp14
 70
     1
102
RTVSPropertyOp15
 70
     1
102
RTVSPropertyOp16
 70
     1
102
RTVSPropertyOp17
 70
     1
102
RTVSPropertyOp18
 70
     1
102
RTVSPropertyOp19
 70
     1
102
RTVSPropertyOp20
 70
     1
102
RTVSPropertyOp21
 70
     1
102
RTVSPropertyOp22
 70
     1
102
RTVSPropertyOp23
 70
     1
102
RTVSPropertyOp24
 70
     1
102
RTVSPropertyOp25
 70
     1
102
RTVSPropertyOp26
 70
     1
102
RTVSPropertyOp27
 70
     1
102
RTVSPropertyOp28
 70
     1
102
RTVSPropertyOp29
 70
     1
102
RTVSPropertyOp30
 70
     1
102
RTVSPropertyOp31
 70
     1
102
RTVSPropertyOp32
 70
     1
102
RTVSPropertyOp33
 70
     1
102
RTVSPropertyOp34
 70
     1
102
RTVSPropertyOp35
 70
     1
102
RTVSPropertyOp36
 70
     1
102
RTVSPropertyOp37
 70
     1
102
RTVSPropertyOp38
 70
     1
102
RTVSPropertyOp39
 70
     1
102
RTVSPropertyOp40
 70
     1
102
RTVSPropertyOp41
 70
     1
102
RTVSPropertyOp42
 70
     1
102
RTVSPropertyOp43
 70
     1
102
RTVSPropertyOp44
 70
     1
102
RTVSPropertyOp45
 70
     1
102
RTVSPropertyOp46
 70
     1
102
RTVSPropertyOp47
 70
     1
102
RTVSPropertyOp48
 70
     1
102
RTVSPropertyOp49
 70
     1
102
RTVSPropertyOp50
 70
     1
102
RTVSPropertyOp51
 70
     0
102
RTVSPropertyOp52
 70
     0
102
RTVSPropertyOp53
 70
     1
102
RTVSPropertyOp54
 70
     1
102
RTVSPropertyOp55
 70
     1
102
RTVSPropertyOp56
 70
     1
102
RTVSPropertyOp57
 70
     1
102
RTVSPropertyOp58
 70
     1
102
RTVSPropertyOp59
 70
     1
102
RTVSPropertyOp60
 70
     1
102
RTVSPropertyOp61
 70
     1
102
RTVSPropertyOp62
 70
     1
  0
XRECORD
  5
A2F6
102
{ACAD_REACTORS
330
A2F5
102
}
330
A2F5
100
AcDbXrecord
280
     1
102
RTVSPost2010Prop28
280
     0
102
RTVSPost2010PropOp28
 70
     1
102
RTVSPost2010Prop29
280
     1
102
RTVSPost2010PropOp29
 70
     1
102
RTVSPost2010Prop30
280
     1
102
RTVSPost2010PropOp30
 70
     1
102
RTVSPost2010Prop31
280
     0
102
RTVSPost2010PropOp31
 70
     1
102
RTVSPost2010Prop32
280
     0
102
RTVSPost2010PropOp32
 70
     1
102
RTVSPost2010Prop33
280
     0
102
RTVSPost2010PropOp33
 70
     1
102
RTVSPost2010Prop34
280
     0
102
RTVSPost2010PropOp34
 70
     1
102
RTVSPost2010Prop35
280
     0
102
RTVSPost2010PropOp35
 70
     1
102
RTVSPost2010Prop36
280
     0
102
RTVSPost2010PropOp36
 70
     1
102
RTVSPost2010Prop37
 90
       50
102
RTVSPost2010PropOp37
 70
     1
102
RTVSPost2010Prop38
140
0.0
102
RTVSPost2010PropOp38
 70
     1
102
RTVSPost2010Prop39
140
1.0
102
RTVSPost2010PropOp39
 70
     1
102
RTVSPost2010Prop40
 90
        0
102
RTVSPost2010PropOp40
 70
     1
102
RTVSPost2010Prop41ColorIndex
 90
       18
102
RTVSPost2010Prop41ColorRGB
 90
        0
102
RTVSPost2010PropOp41
 70
     1
102
RTVSPost2010Prop42
 90
       50
102
RTVSPost2010PropOp42
 70
     1
102
RTVSPost2010Prop43
 90
        3
102
RTVSPost2010PropOp43
 70
     1
102
RTVSPost2010Prop44ColorIndex
 90
        5
102
RTVSPost2010Prop44ColorRGB
 90
      255
102
RTVSPost2010PropOp44
 70
     1
102
RTVSPost2010Prop45
280
     0
102
RTVSPost2010PropOp45
 70
     1
102
RTVSPost2010Prop46
 90
       50
102
RTVSPost2010PropOp46
 70
     1
102
RTVSPost2010Prop47
 90
       50
102
RTVSPost2010PropOp47
 70
     1
102
RTVSPost2010Prop48
 90
       50
102
RTVSPost2010PropOp48
 70
     1
102
RTVSPost2010Prop49
280
     0
102
RTVSPost2010PropOp49
 70
     1
102
RTVSPost2010Prop50
 90
       50
102
RTVSPost2010PropOp50
 70
     1
102
RTVSPost2010Prop51ColorIndex
 90
      256
102
RTVSPost2010Prop51ColorRGB
 90
-16777216
102
RTVSPost2010PropOp51
 70
     0
102
RTVSPost2010Prop52
140
1.0
102
RTVSPost2010PropOp52
 70
     0
102
RTVSPost2010Prop53
 90
        2
102
RTVSPost2010PropOp53
 70
     1
102
RTVSPost2010Prop54
  1
strokes_ogs.tif
102
RTVSPost2010PropOp54
 70
     1
102
RTVSPost2010Prop55
280
     0
102
RTVSPost2010PropOp55
 70
     1
102
RTVSPost2010Prop56
140
1.0
102
RTVSPost2010PropOp56
 70
     1
102
RTVSPost2010Prop57
140
1.0
102
RTVSPost2010PropOp57
 70
     1
102
RTVSPropertyOp0
 70
     1
102
RTVSPropertyOp1
 70
     1
102
RTVSPropertyOp2
 70
     1
102
RTVSPropertyOp3
 70
     1
102
RTVSPropertyOp4
 70
     1
102
RTVSPropertyOp5
 70
     1
102
RTVSPropertyOp6
 70
     1
102
RTVSPropertyOp7
 70
     1
102
RTVSPropertyOp8
 70
     1
102
RTVSPropertyOp9
 70
     1
102
RTVSPropertyOp10
 70
     1
102
RTVSPropertyOp11
 70
     1
102
RTVSPropertyOp12
 70
     1
102
RTVSPropertyOp13
 70
     1
102
RTVSPropertyOp14
 70
     1
102
RTVSPropertyOp15
 70
     1
102
RTVSPropertyOp16
 70
     1
102
RTVSPropertyOp17
 70
     1
102
RTVSPropertyOp18
 70
     1
102
RTVSPropertyOp19
 70
     1
102
RTVSPropertyOp20
 70
     1
102
RTVSPropertyOp21
 70
     1
102
RTVSPropertyOp22
 70
     1
102
RTVSPropertyOp23
 70
     1
102
RTVSPropertyOp24
 70
     1
102
RTVSPropertyOp25
 70
     1
102
RTVSPropertyOp26
 70
     1
102
RTVSPropertyOp27
 70
     1
102
RTVSPropertyOp28
 70
     1
102
RTVSPropertyOp29
 70
     1
102
RTVSPropertyOp30
 70
     1
102
RTVSPropertyOp31
 70
     1
102
RTVSPropertyOp32
 70
     1
102
RTVSPropertyOp33
 70
     1
102
RTVSPropertyOp34
 70
     1
102
RTVSPropertyOp35
 70
     1
102
RTVSPropertyOp36
 70
     1
102
RTVSPropertyOp37
 70
     1
102
RTVSPropertyOp38
 70
     1
102
RTVSPropertyOp39
 70
     1
102
RTVSPropertyOp40
 70
     1
102
RTVSPropertyOp41
 70
     1
102
RTVSPropertyOp42
 70
     1
102
RTVSPropertyOp43
 70
     1
102
RTVSPropertyOp44
 70
     1
102
RTVSPropertyOp45
 70
     1
102
RTVSPropertyOp46
 70
     1
102
RTVSPropertyOp47
 70
     1
102
RTVSPropertyOp48
 70
     1
102
RTVSPropertyOp49
 70
     1
102
RTVSPropertyOp50
 70
     1
102
RTVSPropertyOp51
 70
     0
102
RTVSPropertyOp52
 70
     0
102
RTVSPropertyOp53
 70
     1
102
RTVSPropertyOp54
 70
     1
102
RTVSPropertyOp55
 70
     1
102
RTVSPropertyOp56
 70
     1
102
RTVSPropertyOp57
 70
     1
102
RTVSPropertyOp58
 70
     1
102
RTVSPropertyOp59
 70
     1
102
RTVSPropertyOp60
 70
     1
102
RTVSPropertyOp61
 70
     1
102
RTVSPropertyOp62
 70
     1
  0
XRECORD
  5
A2FE
102
{ACAD_REACTORS
330
A2FD
102
}
330
A2FD
100
AcDbXrecord
280
     1
102
RTVSPost2010Prop28
280
     0
102
RTVSPost2010PropOp28
 70
     1
102
RTVSPost2010Prop29
280
     1
102
RTVSPost2010PropOp29
 70
     1
102
RTVSPost2010Prop30
280
     1
102
RTVSPost2010PropOp30
 70
     1
102
RTVSPost2010Prop31
280
     0
102
RTVSPost2010PropOp31
 70
     1
102
RTVSPost2010Prop32
280
     0
102
RTVSPost2010PropOp32
 70
     1
102
RTVSPost2010Prop33
280
     0
102
RTVSPost2010PropOp33
 70
     1
102
RTVSPost2010Prop34
280
     0
102
RTVSPost2010PropOp34
 70
     1
102
RTVSPost2010Prop35
280
     0
102
RTVSPost2010PropOp35
 70
     1
102
RTVSPost2010Prop36
280
     0
102
RTVSPost2010PropOp36
 70
     1
102
RTVSPost2010Prop37
 90
       50
102
RTVSPost2010PropOp37
 70
     1
102
RTVSPost2010Prop38
140
0.0
102
RTVSPost2010PropOp38
 70
     1
102
RTVSPost2010Prop39
140
1.0
102
RTVSPost2010PropOp39
 70
     1
102
RTVSPost2010Prop40
 90
        0
102
RTVSPost2010PropOp40
 70
     1
102
RTVSPost2010Prop41ColorIndex
 90
       18
102
RTVSPost2010Prop41ColorRGB
 90
        0
102
RTVSPost2010PropOp41
 70
     1
102
RTVSPost2010Prop42
 90
       50
102
RTVSPost2010PropOp42
 70
     1
102
RTVSPost2010Prop43
 90
        3
102
RTVSPost2010PropOp43
 70
     1
102
RTVSPost2010Prop44ColorIndex
 90
        5
102
RTVSPost2010Prop44ColorRGB
 90
      255
102
RTVSPost2010PropOp44
 70
     1
102
RTVSPost2010Prop45
280
     0
102
RTVSPost2010PropOp45
 70
     1
102
RTVSPost2010Prop46
 90
       50
102
RTVSPost2010PropOp46
 70
     1
102
RTVSPost2010Prop47
 90
       50
102
RTVSPost2010PropOp47
 70
     1
102
RTVSPost2010Prop48
 90
       50
102
RTVSPost2010PropOp48
 70
     1
102
RTVSPost2010Prop49
280
     0
102
RTVSPost2010PropOp49
 70
     1
102
RTVSPost2010Prop50
 90
       50
102
RTVSPost2010PropOp50
 70
     1
102
RTVSPost2010Prop51ColorIndex
 90
      256
102
RTVSPost2010Prop51ColorRGB
 90
-16777216
102
RTVSPost2010PropOp51
 70
     0
102
RTVSPost2010Prop52
140
1.0
102
RTVSPost2010PropOp52
 70
     0
102
RTVSPost2010Prop53
 90
        2
102
RTVSPost2010PropOp53
 70
     1
102
RTVSPost2010Prop54
  1
strokes_ogs.tif
102
RTVSPost2010PropOp54
 70
     1
102
RTVSPost2010Prop55
280
     0
102
RTVSPost2010PropOp55
 70
     1
102
RTVSPost2010Prop56
140
1.0
102
RTVSPost2010PropOp56
 70
     1
102
RTVSPost2010Prop57
140
1.0
102
RTVSPost2010PropOp57
 70
     1
102
RTVSPropertyOp0
 70
     1
102
RTVSPropertyOp1
 70
     1
102
RTVSPropertyOp2
 70
     1
102
RTVSPropertyOp3
 70
     1
102
RTVSPropertyOp4
 70
     1
102
RTVSPropertyOp5
 70
     1
102
RTVSPropertyOp6
 70
     1
102
RTVSPropertyOp7
 70
     1
102
RTVSPropertyOp8
 70
     1
102
RTVSPropertyOp9
 70
     1
102
RTVSPropertyOp10
 70
     1
102
RTVSPropertyOp11
 70
     1
102
RTVSPropertyOp12
 70
     1
102
RTVSPropertyOp13
 70
     1
102
RTVSPropertyOp14
 70
     1
102
RTVSPropertyOp15
 70
     1
102
RTVSPropertyOp16
 70
     1
102
RTVSPropertyOp17
 70
     1
102
RTVSPropertyOp18
 70
     1
102
RTVSPropertyOp19
 70
     1
102
RTVSPropertyOp20
 70
     1
102
RTVSPropertyOp21
 70
     1
102
RTVSPropertyOp22
 70
     1
102
RTVSPropertyOp23
 70
     1
102
RTVSPropertyOp24
 70
     1
102
RTVSPropertyOp25
 70
     1
102
RTVSPropertyOp26
 70
     1
102
RTVSPropertyOp27
 70
     1
102
RTVSPropertyOp28
 70
     1
102
RTVSPropertyOp29
 70
     1
102
RTVSPropertyOp30
 70
     1
102
RTVSPropertyOp31
 70
     1
102
RTVSPropertyOp32
 70
     1
102
RTVSPropertyOp33
 70
     1
102
RTVSPropertyOp34
 70
     1
102
RTVSPropertyOp35
 70
     1
102
RTVSPropertyOp36
 70
     1
102
RTVSPropertyOp37
 70
     1
102
RTVSPropertyOp38
 70
     1
102
RTVSPropertyOp39
 70
     1
102
RTVSPropertyOp40
 70
     1
102
RTVSPropertyOp41
 70
     1
102
RTVSPropertyOp42
 70
     1
102
RTVSPropertyOp43
 70
     1
102
RTVSPropertyOp44
 70
     1
102
RTVSPropertyOp45
 70
     1
102
RTVSPropertyOp46
 70
     1
102
RTVSPropertyOp47
 70
     1
102
RTVSPropertyOp48
 70
     1
102
RTVSPropertyOp49
 70
     1
102
RTVSPropertyOp50
 70
     1
102
RTVSPropertyOp51
 70
     0
102
RTVSPropertyOp52
 70
     0
102
RTVSPropertyOp53
 70
     1
102
RTVSPropertyOp54
 70
     1
102
RTVSPropertyOp55
 70
     1
102
RTVSPropertyOp56
 70
     1
102
RTVSPropertyOp57
 70
     1
102
RTVSPropertyOp58
 70
     1
102
RTVSPropertyOp59
 70
     1
102
RTVSPropertyOp60
 70
     1
102
RTVSPropertyOp61
 70
     1
102
RTVSPropertyOp62
 70
     1
  0
XRECORD
  5
A31A
102
{ACAD_REACTORS
330
A319
102
}
330
A319
100
AcDbXrecord
280
     1
102
RTVSPost2010Prop28
280
     0
102
RTVSPost2010PropOp28
 70
     1
102
RTVSPost2010Prop29
280
     1
102
RTVSPost2010PropOp29
 70
     1
102
RTVSPost2010Prop30
280
     1
102
RTVSPost2010PropOp30
 70
     1
102
RTVSPost2010Prop31
280
     0
102
RTVSPost2010PropOp31
 70
     1
102
RTVSPost2010Prop32
280
     0
102
RTVSPost2010PropOp32
 70
     1
102
RTVSPost2010Prop33
280
     0
102
RTVSPost2010PropOp33
 70
     1
102
RTVSPost2010Prop34
280
     0
102
RTVSPost2010PropOp34
 70
     1
102
RTVSPost2010Prop35
280
     0
102
RTVSPost2010PropOp35
 70
     1
102
RTVSPost2010Prop36
280
     0
102
RTVSPost2010PropOp36
 70
     1
102
RTVSPost2010Prop37
 90
       50
102
RTVSPost2010PropOp37
 70
     0
102
RTVSPost2010Prop38
140
0.0
102
RTVSPost2010PropOp38
 70
     0
102
RTVSPost2010Prop39
140
1.0
102
RTVSPost2010PropOp39
 70
     0
102
RTVSPost2010Prop40
 90
        0
102
RTVSPost2010PropOp40
 70
     0
102
RTVSPost2010Prop41ColorIndex
 90
       18
102
RTVSPost2010Prop41ColorRGB
 90
        0
102
RTVSPost2010PropOp41
 70
     0
102
RTVSPost2010Prop42
 90
       50
102
RTVSPost2010PropOp42
 70
     0
102
RTVSPost2010Prop43
 90
        3
102
RTVSPost2010PropOp43
 70
     0
102
RTVSPost2010Prop44ColorIndex
 90
        5
102
RTVSPost2010Prop44ColorRGB
 90
      255
102
RTVSPost2010PropOp44
 70
     0
102
RTVSPost2010Prop45
280
     0
102
RTVSPost2010PropOp45
 70
     1
102
RTVSPost2010Prop46
 90
       50
102
RTVSPost2010PropOp46
 70
     0
102
RTVSPost2010Prop47
 90
       50
102
RTVSPost2010PropOp47
 70
     0
102
RTVSPost2010Prop48
 90
       50
102
RTVSPost2010PropOp48
 70
     0
102
RTVSPost2010Prop49
280
     0
102
RTVSPost2010PropOp49
 70
     1
102
RTVSPost2010Prop50
 90
       50
102
RTVSPost2010PropOp50
 70
     0
102
RTVSPost2010Prop51ColorIndex
 90
      256
102
RTVSPost2010Prop51ColorRGB
 90
-16777216
102
RTVSPost2010PropOp51
 70
     0
102
RTVSPost2010Prop52
140
1.0
102
RTVSPost2010PropOp52
 70
     0
102
RTVSPost2010Prop53
 90
        2
102
RTVSPost2010PropOp53
 70
     0
102
RTVSPost2010Prop54
  1
strokes_ogs.tif
102
RTVSPost2010PropOp54
 70
     0
102
RTVSPost2010Prop55
280
     0
102
RTVSPost2010PropOp55
 70
     1
102
RTVSPost2010Prop56
140
1.0
102
RTVSPost2010PropOp56
 70
     0
102
RTVSPost2010Prop57
140
1.0
102
RTVSPost2010PropOp57
 70
     0
102
RTVSPropertyOp0
 70
     0
102
RTVSPropertyOp1
 70
     0
102
RTVSPropertyOp2
 70
     0
102
RTVSPropertyOp3
 70
     0
102
RTVSPropertyOp4
 70
     0
102
RTVSPropertyOp5
 70
     0
102
RTVSPropertyOp6
 70
     0
102
RTVSPropertyOp7
 70
     0
102
RTVSPropertyOp8
 70
     0
102
RTVSPropertyOp9
 70
     0
102
RTVSPropertyOp10
 70
     0
102
RTVSPropertyOp11
 70
     0
102
RTVSPropertyOp12
 70
     0
102
RTVSPropertyOp13
 70
     0
102
RTVSPropertyOp14
 70
     2
102
RTVSPropertyOp15
 70
     0
102
RTVSPropertyOp16
 70
     0
102
RTVSPropertyOp17
 70
     0
102
RTVSPropertyOp18
 70
     0
102
RTVSPropertyOp19
 70
     0
102
RTVSPropertyOp20
 70
     0
102
RTVSPropertyOp21
 70
     0
102
RTVSPropertyOp22
 70
     0
102
RTVSPropertyOp23
 70
     0
102
RTVSPropertyOp24
 70
     0
102
RTVSPropertyOp25
 70
     0
102
RTVSPropertyOp26
 70
     0
102
RTVSPropertyOp27
 70
     0
102
RTVSPropertyOp28
 70
     1
102
RTVSPropertyOp29
 70
     1
102
RTVSPropertyOp30
 70
     1
102
RTVSPropertyOp31
 70
     1
102
RTVSPropertyOp32
 70
     1
102
RTVSPropertyOp33
 70
     1
102
RTVSPropertyOp34
 70
     1
102
RTVSPropertyOp35
 70
     1
102
RTVSPropertyOp36
 70
     1
102
RTVSPropertyOp37
 70
     0
102
RTVSPropertyOp38
 70
     0
102
RTVSPropertyOp39
 70
     0
102
RTVSPropertyOp40
 70
     0
102
RTVSPropertyOp41
 70
     0
102
RTVSPropertyOp42
 70
     0
102
RTVSPropertyOp43
 70
     0
102
RTVSPropertyOp44
 70
     0
102
RTVSPropertyOp45
 70
     1
102
RTVSPropertyOp46
 70
     0
102
RTVSPropertyOp47
 70
     0
102
RTVSPropertyOp48
 70
     0
102
RTVSPropertyOp49
 70
     1
102
RTVSPropertyOp50
 70
     0
102
RTVSPropertyOp51
 70
     0
102
RTVSPropertyOp52
 70
     0
102
RTVSPropertyOp53
 70
     0
102
RTVSPropertyOp54
 70
     0
102
RTVSPropertyOp55
 70
     1
102
RTVSPropertyOp56
 70
     0
102
RTVSPropertyOp57
 70
     0
102
RTVSPropertyOp58
 70
     0
102
RTVSPropertyOp59
 70
     0
102
RTVSPropertyOp60
 70
     0
102
RTVSPropertyOp61
 70
     0
102
RTVSPropertyOp62
 70
     0
  0
XRECORD
  5
A30A
102
{ACAD_REACTORS
330
A309
102
}
330
A309
100
AcDbXrecord
280
     1
102
RTVSPost2010Prop28
280
     0
102
RTVSPost2010PropOp28
 70
     1
102
RTVSPost2010Prop29
280
     1
102
RTVSPost2010PropOp29
 70
     1
102
RTVSPost2010Prop30
280
     1
102
RTVSPost2010PropOp30
 70
     1
102
RTVSPost2010Prop31
280
     0
102
RTVSPost2010PropOp31
 70
     1
102
RTVSPost2010Prop32
280
     0
102
RTVSPost2010PropOp32
 70
     1
102
RTVSPost2010Prop33
280
     0
102
RTVSPost2010PropOp33
 70
     1
102
RTVSPost2010Prop34
280
     0
102
RTVSPost2010PropOp34
 70
     1
102
RTVSPost2010Prop35
280
     0
102
RTVSPost2010PropOp35
 70
     1
102
RTVSPost2010Prop36
280
     0
102
RTVSPost2010PropOp36
 70
     1
102
RTVSPost2010Prop37
 90
       50
102
RTVSPost2010PropOp37
 70
     1
102
RTVSPost2010Prop38
140
0.0
102
RTVSPost2010PropOp38
 70
     1
102
RTVSPost2010Prop39
140
1.0
102
RTVSPost2010PropOp39
 70
     1
102
RTVSPost2010Prop40
 90
        0
102
RTVSPost2010PropOp40
 70
     1
102
RTVSPost2010Prop41ColorIndex
 90
       18
102
RTVSPost2010Prop41ColorRGB
 90
        0
102
RTVSPost2010PropOp41
 70
     1
102
RTVSPost2010Prop42
 90
       50
102
RTVSPost2010PropOp42
 70
     1
102
RTVSPost2010Prop43
 90
        3
102
RTVSPost2010PropOp43
 70
     1
102
RTVSPost2010Prop44ColorIndex
 90
        5
102
RTVSPost2010Prop44ColorRGB
 90
      255
102
RTVSPost2010PropOp44
 70
     1
102
RTVSPost2010Prop45
280
     0
102
RTVSPost2010PropOp45
 70
     1
102
RTVSPost2010Prop46
 90
       50
102
RTVSPost2010PropOp46
 70
     1
102
RTVSPost2010Prop47
 90
       50
102
RTVSPost2010PropOp47
 70
     1
102
RTVSPost2010Prop48
 90
       50
102
RTVSPost2010PropOp48
 70
     1
102
RTVSPost2010Prop49
280
     0
102
RTVSPost2010PropOp49
 70
     1
102
RTVSPost2010Prop50
 90
       50
102
RTVSPost2010PropOp50
 70
     1
102
RTVSPost2010Prop51ColorIndex
 90
      256
102
RTVSPost2010Prop51ColorRGB
 90
-16777216
102
RTVSPost2010PropOp51
 70
     0
102
RTVSPost2010Prop52
140
1.0
102
RTVSPost2010PropOp52
 70
     0
102
RTVSPost2010Prop53
 90
        2
102
RTVSPost2010PropOp53
 70
     1
102
RTVSPost2010Prop54
  1
strokes_ogs.tif
102
RTVSPost2010PropOp54
 70
     1
102
RTVSPost2010Prop55
280
     0
102
RTVSPost2010PropOp55
 70
     1
102
RTVSPost2010Prop56
140
1.0
102
RTVSPost2010PropOp56
 70
     1
102
RTVSPost2010Prop57
140
1.0
102
RTVSPost2010PropOp57
 70
     1
102
RTVSPropertyOp0
 70
     1
102
RTVSPropertyOp1
 70
     1
102
RTVSPropertyOp2
 70
     1
102
RTVSPropertyOp3
 70
     1
102
RTVSPropertyOp4
 70
     1
102
RTVSPropertyOp5
 70
     1
102
RTVSPropertyOp6
 70
     1
102
RTVSPropertyOp7
 70
     1
102
RTVSPropertyOp8
 70
     1
102
RTVSPropertyOp9
 70
     1
102
RTVSPropertyOp10
 70
     1
102
RTVSPropertyOp11
 70
     1
102
RTVSPropertyOp12
 70
     1
102
RTVSPropertyOp13
 70
     1
102
RTVSPropertyOp14
 70
     1
102
RTVSPropertyOp15
 70
     1
102
RTVSPropertyOp16
 70
     1
102
RTVSPropertyOp17
 70
     1
102
RTVSPropertyOp18
 70
     1
102
RTVSPropertyOp19
 70
     1
102
RTVSPropertyOp20
 70
     1
102
RTVSPropertyOp21
 70
     1
102
RTVSPropertyOp22
 70
     1
102
RTVSPropertyOp23
 70
     1
102
RTVSPropertyOp24
 70
     1
102
RTVSPropertyOp25
 70
     1
102
RTVSPropertyOp26
 70
     1
102
RTVSPropertyOp27
 70
     1
102
RTVSPropertyOp28
 70
     1
102
RTVSPropertyOp29
 70
     1
102
RTVSPropertyOp30
 70
     1
102
RTVSPropertyOp31
 70
     1
102
RTVSPropertyOp32
 70
     1
102
RTVSPropertyOp33
 70
     1
102
RTVSPropertyOp34
 70
     1
102
RTVSPropertyOp35
 70
     1
102
RTVSPropertyOp36
 70
     1
102
RTVSPropertyOp37
 70
     1
102
RTVSPropertyOp38
 70
     1
102
RTVSPropertyOp39
 70
     1
102
RTVSPropertyOp40
 70
     1
102
RTVSPropertyOp41
 70
     1
102
RTVSPropertyOp42
 70
     1
102
RTVSPropertyOp43
 70
     1
102
RTVSPropertyOp44
 70
     1
102
RTVSPropertyOp45
 70
     1
102
RTVSPropertyOp46
 70
     1
102
RTVSPropertyOp47
 70
     1
102
RTVSPropertyOp48
 70
     1
102
RTVSPropertyOp49
 70
     1
102
RTVSPropertyOp50
 70
     1
102
RTVSPropertyOp51
 70
     0
102
RTVSPropertyOp52
 70
     0
102
RTVSPropertyOp53
 70
     1
102
RTVSPropertyOp54
 70
     1
102
RTVSPropertyOp55
 70
     1
102
RTVSPropertyOp56
 70
     1
102
RTVSPropertyOp57
 70
     1
102
RTVSPropertyOp58
 70
     1
102
RTVSPropertyOp59
 70
     1
102
RTVSPropertyOp60
 70
     1
102
RTVSPropertyOp61
 70
     1
102
RTVSPropertyOp62
 70
     1
  0
XRECORD
  5
A31C
102
{ACAD_REACTORS
330
A31B
102
}
330
A31B
100
AcDbXrecord
280
     1
102
RTVSPost2010Prop28
280
     0
102
RTVSPost2010PropOp28
 70
     1
102
RTVSPost2010Prop29
280
     1
102
RTVSPost2010PropOp29
 70
     1
102
RTVSPost2010Prop30
280
     1
102
RTVSPost2010PropOp30
 70
     1
102
RTVSPost2010Prop31
280
     0
102
RTVSPost2010PropOp31
 70
     1
102
RTVSPost2010Prop32
280
     0
102
RTVSPost2010PropOp32
 70
     1
102
RTVSPost2010Prop33
280
     0
102
RTVSPost2010PropOp33
 70
     1
102
RTVSPost2010Prop34
280
     0
102
RTVSPost2010PropOp34
 70
     1
102
RTVSPost2010Prop35
280
     0
102
RTVSPost2010PropOp35
 70
     1
102
RTVSPost2010Prop36
280
     0
102
RTVSPost2010PropOp36
 70
     1
102
RTVSPost2010Prop37
 90
       50
102
RTVSPost2010PropOp37
 70
     0
102
RTVSPost2010Prop38
140
0.0
102
RTVSPost2010PropOp38
 70
     0
102
RTVSPost2010Prop39
140
1.0
102
RTVSPost2010PropOp39
 70
     0
102
RTVSPost2010Prop40
 90
        0
102
RTVSPost2010PropOp40
 70
     0
102
RTVSPost2010Prop41ColorIndex
 90
       18
102
RTVSPost2010Prop41ColorRGB
 90
        0
102
RTVSPost2010PropOp41
 70
     0
102
RTVSPost2010Prop42
 90
       50
102
RTVSPost2010PropOp42
 70
     0
102
RTVSPost2010Prop43
 90
        3
102
RTVSPost2010PropOp43
 70
     0
102
RTVSPost2010Prop44ColorIndex
 90
        5
102
RTVSPost2010Prop44ColorRGB
 90
      255
102
RTVSPost2010PropOp44
 70
     0
102
RTVSPost2010Prop45
280
     0
102
RTVSPost2010PropOp45
 70
     1
102
RTVSPost2010Prop46
 90
       50
102
RTVSPost2010PropOp46
 70
     0
102
RTVSPost2010Prop47
 90
       50
102
RTVSPost2010PropOp47
 70
     0
102
RTVSPost2010Prop48
 90
       50
102
RTVSPost2010PropOp48
 70
     0
102
RTVSPost2010Prop49
280
     0
102
RTVSPost2010PropOp49
 70
     1
102
RTVSPost2010Prop50
 90
       50
102
RTVSPost2010PropOp50
 70
     0
102
RTVSPost2010Prop51ColorIndex
 90
      256
102
RTVSPost2010Prop51ColorRGB
 90
-16777216
102
RTVSPost2010PropOp51
 70
     0
102
RTVSPost2010Prop52
140
1.0
102
RTVSPost2010PropOp52
 70
     0
102
RTVSPost2010Prop53
 90
        2
102
RTVSPost2010PropOp53
 70
     0
102
RTVSPost2010Prop54
  1
strokes_ogs.tif
102
RTVSPost2010PropOp54
 70
     0
102
RTVSPost2010Prop55
280
     0
102
RTVSPost2010PropOp55
 70
     1
102
RTVSPost2010Prop56
140
1.0
102
RTVSPost2010PropOp56
 70
     0
102
RTVSPost2010Prop57
140
1.0
102
RTVSPost2010PropOp57
 70
     0
102
RTVSPropertyOp0
 70
     0
102
RTVSPropertyOp1
 70
     0
102
RTVSPropertyOp2
 70
     0
102
RTVSPropertyOp3
 70
     0
102
RTVSPropertyOp4
 70
     0
102
RTVSPropertyOp5
 70
     0
102
RTVSPropertyOp6
 70
     0
102
RTVSPropertyOp7
 70
     0
102
RTVSPropertyOp8
 70
     0
102
RTVSPropertyOp9
 70
     0
102
RTVSPropertyOp10
 70
     0
102
RTVSPropertyOp11
 70
     0
102
RTVSPropertyOp12
 70
     0
102
RTVSPropertyOp13
 70
     0
102
RTVSPropertyOp14
 70
     2
102
RTVSPropertyOp15
 70
     0
102
RTVSPropertyOp16
 70
     0
102
RTVSPropertyOp17
 70
     0
102
RTVSPropertyOp18
 70
     0
102
RTVSPropertyOp19
 70
     0
102
RTVSPropertyOp20
 70
     0
102
RTVSPropertyOp21
 70
     0
102
RTVSPropertyOp22
 70
     0
102
RTVSPropertyOp23
 70
     0
102
RTVSPropertyOp24
 70
     0
102
RTVSPropertyOp25
 70
     0
102
RTVSPropertyOp26
 70
     0
102
RTVSPropertyOp27
 70
     0
102
RTVSPropertyOp28
 70
     1
102
RTVSPropertyOp29
 70
     1
102
RTVSPropertyOp30
 70
     1
102
RTVSPropertyOp31
 70
     1
102
RTVSPropertyOp32
 70
     1
102
RTVSPropertyOp33
 70
     1
102
RTVSPropertyOp34
 70
     1
102
RTVSPropertyOp35
 70
     1
102
RTVSPropertyOp36
 70
     1
102
RTVSPropertyOp37
 70
     0
102
RTVSPropertyOp38
 70
     0
102
RTVSPropertyOp39
 70
     0
102
RTVSPropertyOp40
 70
     0
102
RTVSPropertyOp41
 70
     0
102
RTVSPropertyOp42
 70
     0
102
RTVSPropertyOp43
 70
     0
102
RTVSPropertyOp44
 70
     0
102
RTVSPropertyOp45
 70
     1
102
RTVSPropertyOp46
 70
     0
102
RTVSPropertyOp47
 70
     0
102
RTVSPropertyOp48
 70
     0
102
RTVSPropertyOp49
 70
     1
102
RTVSPropertyOp50
 70
     0
102
RTVSPropertyOp51
 70
     0
102
RTVSPropertyOp52
 70
     0
102
RTVSPropertyOp53
 70
     0
102
RTVSPropertyOp54
 70
     0
102
RTVSPropertyOp55
 70
     1
102
RTVSPropertyOp56
 70
     0
102
RTVSPropertyOp57
 70
     0
102
RTVSPropertyOp58
 70
     0
102
RTVSPropertyOp59
 70
     0
102
RTVSPropertyOp60
 70
     0
102
RTVSPropertyOp61
 70
     0
102
RTVSPropertyOp62
 70
     0
  0
XRECORD
  5
A302
102
{ACAD_REACTORS
330
A301
102
}
330
A301
100
AcDbXrecord
280
     1
102
RTVSPost2010Prop28
280
     0
102
RTVSPost2010PropOp28
 70
     1
102
RTVSPost2010Prop29
280
     1
102
RTVSPost2010PropOp29
 70
     1
102
RTVSPost2010Prop30
280
     1
102
RTVSPost2010PropOp30
 70
     1
102
RTVSPost2010Prop31
280
     0
102
RTVSPost2010PropOp31
 70
     1
102
RTVSPost2010Prop32
280
     0
102
RTVSPost2010PropOp32
 70
     1
102
RTVSPost2010Prop33
280
     0
102
RTVSPost2010PropOp33
 70
     1
102
RTVSPost2010Prop34
280
     0
102
RTVSPost2010PropOp34
 70
     1
102
RTVSPost2010Prop35
280
     0
102
RTVSPost2010PropOp35
 70
     1
102
RTVSPost2010Prop36
280
     0
102
RTVSPost2010PropOp36
 70
     1
102
RTVSPost2010Prop37
 90
       50
102
RTVSPost2010PropOp37
 70
     1
102
RTVSPost2010Prop38
140
0.0
102
RTVSPost2010PropOp38
 70
     1
102
RTVSPost2010Prop39
140
1.0
102
RTVSPost2010PropOp39
 70
     1
102
RTVSPost2010Prop40
 90
        0
102
RTVSPost2010PropOp40
 70
     1
102
RTVSPost2010Prop41ColorIndex
 90
       18
102
RTVSPost2010Prop41ColorRGB
 90
        0
102
RTVSPost2010PropOp41
 70
     1
102
RTVSPost2010Prop42
 90
       50
102
RTVSPost2010PropOp42
 70
     1
102
RTVSPost2010Prop43
 90
        3
102
RTVSPost2010PropOp43
 70
     1
102
RTVSPost2010Prop44ColorIndex
 90
        5
102
RTVSPost2010Prop44ColorRGB
 90
      255
102
RTVSPost2010PropOp44
 70
     1
102
RTVSPost2010Prop45
280
     0
102
RTVSPost2010PropOp45
 70
     1
102
RTVSPost2010Prop46
 90
       50
102
RTVSPost2010PropOp46
 70
     1
102
RTVSPost2010Prop47
 90
       50
102
RTVSPost2010PropOp47
 70
     1
102
RTVSPost2010Prop48
 90
       50
102
RTVSPost2010PropOp48
 70
     1
102
RTVSPost2010Prop49
280
     0
102
RTVSPost2010PropOp49
 70
     1
102
RTVSPost2010Prop50
 90
       50
102
RTVSPost2010PropOp50
 70
     1
102
RTVSPost2010Prop51ColorIndex
 90
      256
102
RTVSPost2010Prop51ColorRGB
 90
-16777216
102
RTVSPost2010PropOp51
 70
     0
102
RTVSPost2010Prop52
140
1.0
102
RTVSPost2010PropOp52
 70
     0
102
RTVSPost2010Prop53
 90
        2
102
RTVSPost2010PropOp53
 70
     1
102
RTVSPost2010Prop54
  1
strokes_ogs.tif
102
RTVSPost2010PropOp54
 70
     1
102
RTVSPost2010Prop55
280
     0
102
RTVSPost2010PropOp55
 70
     1
102
RTVSPost2010Prop56
140
1.0
102
RTVSPost2010PropOp56
 70
     1
102
RTVSPost2010Prop57
140
1.0
102
RTVSPost2010PropOp57
 70
     1
102
RTVSPropertyOp0
 70
     1
102
RTVSPropertyOp1
 70
     1
102
RTVSPropertyOp2
 70
     1
102
RTVSPropertyOp3
 70
     1
102
RTVSPropertyOp4
 70
     1
102
RTVSPropertyOp5
 70
     1
102
RTVSPropertyOp6
 70
     1
102
RTVSPropertyOp7
 70
     1
102
RTVSPropertyOp8
 70
     1
102
RTVSPropertyOp9
 70
     1
102
RTVSPropertyOp10
 70
     1
102
RTVSPropertyOp11
 70
     1
102
RTVSPropertyOp12
 70
     1
102
RTVSPropertyOp13
 70
     1
102
RTVSPropertyOp14
 70
     1
102
RTVSPropertyOp15
 70
     1
102
RTVSPropertyOp16
 70
     1
102
RTVSPropertyOp17
 70
     1
102
RTVSPropertyOp18
 70
     1
102
RTVSPropertyOp19
 70
     1
102
RTVSPropertyOp20
 70
     1
102
RTVSPropertyOp21
 70
     1
102
RTVSPropertyOp22
 70
     1
102
RTVSPropertyOp23
 70
     1
102
RTVSPropertyOp24
 70
     1
102
RTVSPropertyOp25
 70
     1
102
RTVSPropertyOp26
 70
     1
102
RTVSPropertyOp27
 70
     1
102
RTVSPropertyOp28
 70
     1
102
RTVSPropertyOp29
 70
     1
102
RTVSPropertyOp30
 70
     1
102
RTVSPropertyOp31
 70
     1
102
RTVSPropertyOp32
 70
     1
102
RTVSPropertyOp33
 70
     1
102
RTVSPropertyOp34
 70
     1
102
RTVSPropertyOp35
 70
     1
102
RTVSPropertyOp36
 70
     1
102
RTVSPropertyOp37
 70
     1
102
RTVSPropertyOp38
 70
     1
102
RTVSPropertyOp39
 70
     1
102
RTVSPropertyOp40
 70
     1
102
RTVSPropertyOp41
 70
     1
102
RTVSPropertyOp42
 70
     1
102
RTVSPropertyOp43
 70
     1
102
RTVSPropertyOp44
 70
     1
102
RTVSPropertyOp45
 70
     1
102
RTVSPropertyOp46
 70
     1
102
RTVSPropertyOp47
 70
     1
102
RTVSPropertyOp48
 70
     1
102
RTVSPropertyOp49
 70
     1
102
RTVSPropertyOp50
 70
     1
102
RTVSPropertyOp51
 70
     0
102
RTVSPropertyOp52
 70
     0
102
RTVSPropertyOp53
 70
     1
102
RTVSPropertyOp54
 70
     1
102
RTVSPropertyOp55
 70
     1
102
RTVSPropertyOp56
 70
     1
102
RTVSPropertyOp57
 70
     1
102
RTVSPropertyOp58
 70
     1
102
RTVSPropertyOp59
 70
     1
102
RTVSPropertyOp60
 70
     1
102
RTVSPropertyOp61
 70
     1
102
RTVSPropertyOp62
 70
     1
  0
XRECORD
  5
A318
102
{ACAD_REACTORS
330
A317
102
}
330
A317
100
AcDbXrecord
280
     1
102
RTVSPost2010Prop28
280
     0
102
RTVSPost2010PropOp28
 70
     1
102
RTVSPost2010Prop29
280
     1
102
RTVSPost2010PropOp29
 70
     1
102
RTVSPost2010Prop30
280
     1
102
RTVSPost2010PropOp30
 70
     1
102
RTVSPost2010Prop31
280
     0
102
RTVSPost2010PropOp31
 70
     1
102
RTVSPost2010Prop32
280
     0
102
RTVSPost2010PropOp32
 70
     1
102
RTVSPost2010Prop33
280
     0
102
RTVSPost2010PropOp33
 70
     1
102
RTVSPost2010Prop34
280
     0
102
RTVSPost2010PropOp34
 70
     1
102
RTVSPost2010Prop35
280
     0
102
RTVSPost2010PropOp35
 70
     1
102
RTVSPost2010Prop36
280
     0
102
RTVSPost2010PropOp36
 70
     1
102
RTVSPost2010Prop37
 90
       50
102
RTVSPost2010PropOp37
 70
     1
102
RTVSPost2010Prop38
140
0.0
102
RTVSPost2010PropOp38
 70
     1
102
RTVSPost2010Prop39
140
1.0
102
RTVSPost2010PropOp39
 70
     1
102
RTVSPost2010Prop40
 90
        0
102
RTVSPost2010PropOp40
 70
     1
102
RTVSPost2010Prop41ColorIndex
 90
       18
102
RTVSPost2010Prop41ColorRGB
 90
        0
102
RTVSPost2010PropOp41
 70
     1
102
RTVSPost2010Prop42
 90
       50
102
RTVSPost2010PropOp42
 70
     1
102
RTVSPost2010Prop43
 90
        3
102
RTVSPost2010PropOp43
 70
     1
102
RTVSPost2010Prop44ColorIndex
 90
        5
102
RTVSPost2010Prop44ColorRGB
 90
      255
102
RTVSPost2010PropOp44
 70
     1
102
RTVSPost2010Prop45
280
     0
102
RTVSPost2010PropOp45
 70
     1
102
RTVSPost2010Prop46
 90
       50
102
RTVSPost2010PropOp46
 70
     1
102
RTVSPost2010Prop47
 90
       50
102
RTVSPost2010PropOp47
 70
     1
102
RTVSPost2010Prop48
 90
       50
102
RTVSPost2010PropOp48
 70
     1
102
RTVSPost2010Prop49
280
     0
102
RTVSPost2010PropOp49
 70
     1
102
RTVSPost2010Prop50
 90
       50
102
RTVSPost2010PropOp50
 70
     1
102
RTVSPost2010Prop51ColorIndex
 90
      256
102
RTVSPost2010Prop51ColorRGB
 90
-16777216
102
RTVSPost2010PropOp51
 70
     0
102
RTVSPost2010Prop52
140
1.0
102
RTVSPost2010PropOp52
 70
     0
102
RTVSPost2010Prop53
 90
        2
102
RTVSPost2010PropOp53
 70
     1
102
RTVSPost2010Prop54
  1
strokes_ogs.tif
102
RTVSPost2010PropOp54
 70
     1
102
RTVSPost2010Prop55
280
     0
102
RTVSPost2010PropOp55
 70
     1
102
RTVSPost2010Prop56
140
1.0
102
RTVSPost2010PropOp56
 70
     1
102
RTVSPost2010Prop57
140
1.0
102
RTVSPost2010PropOp57
 70
     1
102
RTVSPropertyOp0
 70
     1
102
RTVSPropertyOp1
 70
     1
102
RTVSPropertyOp2
 70
     1
102
RTVSPropertyOp3
 70
     1
102
RTVSPropertyOp4
 70
     1
102
RTVSPropertyOp5
 70
     1
102
RTVSPropertyOp6
 70
     1
102
RTVSPropertyOp7
 70
     1
102
RTVSPropertyOp8
 70
     1
102
RTVSPropertyOp9
 70
     1
102
RTVSPropertyOp10
 70
     1
102
RTVSPropertyOp11
 70
     1
102
RTVSPropertyOp12
 70
     1
102
RTVSPropertyOp13
 70
     1
102
RTVSPropertyOp14
 70
     1
102
RTVSPropertyOp15
 70
     1
102
RTVSPropertyOp16
 70
     1
102
RTVSPropertyOp17
 70
     1
102
RTVSPropertyOp18
 70
     1
102
RTVSPropertyOp19
 70
     1
102
RTVSPropertyOp20
 70
     1
102
RTVSPropertyOp21
 70
     1
102
RTVSPropertyOp22
 70
     1
102
RTVSPropertyOp23
 70
     1
102
RTVSPropertyOp24
 70
     1
102
RTVSPropertyOp25
 70
     1
102
RTVSPropertyOp26
 70
     1
102
RTVSPropertyOp27
 70
     1
102
RTVSPropertyOp28
 70
     1
102
RTVSPropertyOp29
 70
     1
102
RTVSPropertyOp30
 70
     1
102
RTVSPropertyOp31
 70
     1
102
RTVSPropertyOp32
 70
     1
102
RTVSPropertyOp33
 70
     1
102
RTVSPropertyOp34
 70
     1
102
RTVSPropertyOp35
 70
     1
102
RTVSPropertyOp36
 70
     1
102
RTVSPropertyOp37
 70
     1
102
RTVSPropertyOp38
 70
     1
102
RTVSPropertyOp39
 70
     1
102
RTVSPropertyOp40
 70
     1
102
RTVSPropertyOp41
 70
     1
102
RTVSPropertyOp42
 70
     1
102
RTVSPropertyOp43
 70
     1
102
RTVSPropertyOp44
 70
     1
102
RTVSPropertyOp45
 70
     1
102
RTVSPropertyOp46
 70
     1
102
RTVSPropertyOp47
 70
     1
102
RTVSPropertyOp48
 70
     1
102
RTVSPropertyOp49
 70
     1
102
RTVSPropertyOp50
 70
     1
102
RTVSPropertyOp51
 70
     0
102
RTVSPropertyOp52
 70
     0
102
RTVSPropertyOp53
 70
     1
102
RTVSPropertyOp54
 70
     1
102
RTVSPropertyOp55
 70
     1
102
RTVSPropertyOp56
 70
     1
102
RTVSPropertyOp57
 70
     1
102
RTVSPropertyOp58
 70
     1
102
RTVSPropertyOp59
 70
     1
102
RTVSPropertyOp60
 70
     1
102
RTVSPropertyOp61
 70
     1
102
RTVSPropertyOp62
 70
     1
  0
XRECORD
  5
A316
102
{ACAD_REACTORS
330
A315
102
}
330
A315
100
AcDbXrecord
280
     1
102
RTVSPost2010Prop28
280
     0
102
RTVSPost2010PropOp28
 70
     1
102
RTVSPost2010Prop29
280
     1
102
RTVSPost2010PropOp29
 70
     1
102
RTVSPost2010Prop30
280
     1
102
RTVSPost2010PropOp30
 70
     1
102
RTVSPost2010Prop31
280
     0
102
RTVSPost2010PropOp31
 70
     1
102
RTVSPost2010Prop32
280
     0
102
RTVSPost2010PropOp32
 70
     1
102
RTVSPost2010Prop33
280
     0
102
RTVSPost2010PropOp33
 70
     1
102
RTVSPost2010Prop34
280
     0
102
RTVSPost2010PropOp34
 70
     1
102
RTVSPost2010Prop35
280
     0
102
RTVSPost2010PropOp35
 70
     1
102
RTVSPost2010Prop36
280
     0
102
RTVSPost2010PropOp36
 70
     1
102
RTVSPost2010Prop37
 90
       50
102
RTVSPost2010PropOp37
 70
     1
102
RTVSPost2010Prop38
140
0.0
102
RTVSPost2010PropOp38
 70
     1
102
RTVSPost2010Prop39
140
1.0
102
RTVSPost2010PropOp39
 70
     1
102
RTVSPost2010Prop40
 90
        0
102
RTVSPost2010PropOp40
 70
     1
102
RTVSPost2010Prop41ColorIndex
 90
       18
102
RTVSPost2010Prop41ColorRGB
 90
        0
102
RTVSPost2010PropOp41
 70
     1
102
RTVSPost2010Prop42
 90
       50
102
RTVSPost2010PropOp42
 70
     1
102
RTVSPost2010Prop43
 90
        3
102
RTVSPost2010PropOp43
 70
     1
102
RTVSPost2010Prop44ColorIndex
 90
        5
102
RTVSPost2010Prop44ColorRGB
 90
      255
102
RTVSPost2010PropOp44
 70
     1
102
RTVSPost2010Prop45
280
     0
102
RTVSPost2010PropOp45
 70
     1
102
RTVSPost2010Prop46
 90
       50
102
RTVSPost2010PropOp46
 70
     1
102
RTVSPost2010Prop47
 90
       50
102
RTVSPost2010PropOp47
 70
     1
102
RTVSPost2010Prop48
 90
       50
102
RTVSPost2010PropOp48
 70
     1
102
RTVSPost2010Prop49
280
     0
102
RTVSPost2010PropOp49
 70
     1
102
RTVSPost2010Prop50
 90
       50
102
RTVSPost2010PropOp50
 70
     1
102
RTVSPost2010Prop51ColorIndex
 90
      256
102
RTVSPost2010Prop51ColorRGB
 90
-16777216
102
RTVSPost2010PropOp51
 70
     0
102
RTVSPost2010Prop52
140
1.0
102
RTVSPost2010PropOp52
 70
     0
102
RTVSPost2010Prop53
 90
        2
102
RTVSPost2010PropOp53
 70
     1
102
RTVSPost2010Prop54
  1
strokes_ogs.tif
102
RTVSPost2010PropOp54
 70
     1
102
RTVSPost2010Prop55
280
     0
102
RTVSPost2010PropOp55
 70
     1
102
RTVSPost2010Prop56
140
1.0
102
RTVSPost2010PropOp56
 70
     1
102
RTVSPost2010Prop57
140
1.0
102
RTVSPost2010PropOp57
 70
     1
102
RTVSPropertyOp0
 70
     1
102
RTVSPropertyOp1
 70
     1
102
RTVSPropertyOp2
 70
     1
102
RTVSPropertyOp3
 70
     1
102
RTVSPropertyOp4
 70
     1
102
RTVSPropertyOp5
 70
     1
102
RTVSPropertyOp6
 70
     1
102
RTVSPropertyOp7
 70
     1
102
RTVSPropertyOp8
 70
     1
102
RTVSPropertyOp9
 70
     1
102
RTVSPropertyOp10
 70
     1
102
RTVSPropertyOp11
 70
     1
102
RTVSPropertyOp12
 70
     1
102
RTVSPropertyOp13
 70
     1
102
RTVSPropertyOp14
 70
     1
102
RTVSPropertyOp15
 70
     1
102
RTVSPropertyOp16
 70
     1
102
RTVSPropertyOp17
 70
     1
102
RTVSPropertyOp18
 70
     1
102
RTVSPropertyOp19
 70
     1
102
RTVSPropertyOp20
 70
     1
102
RTVSPropertyOp21
 70
     1
102
RTVSPropertyOp22
 70
     1
102
RTVSPropertyOp23
 70
     1
102
RTVSPropertyOp24
 70
     1
102
RTVSPropertyOp25
 70
     1
102
RTVSPropertyOp26
 70
     1
102
RTVSPropertyOp27
 70
     1
102
RTVSPropertyOp28
 70
     1
102
RTVSPropertyOp29
 70
     1
102
RTVSPropertyOp30
 70
     1
102
RTVSPropertyOp31
 70
     1
102
RTVSPropertyOp32
 70
     1
102
RTVSPropertyOp33
 70
     1
102
RTVSPropertyOp34
 70
     1
102
RTVSPropertyOp35
 70
     1
102
RTVSPropertyOp36
 70
     1
102
RTVSPropertyOp37
 70
     1
102
RTVSPropertyOp38
 70
     1
102
RTVSPropertyOp39
 70
     1
102
RTVSPropertyOp40
 70
     1
102
RTVSPropertyOp41
 70
     1
102
RTVSPropertyOp42
 70
     1
102
RTVSPropertyOp43
 70
     1
102
RTVSPropertyOp44
 70
     1
102
RTVSPropertyOp45
 70
     1
102
RTVSPropertyOp46
 70
     1
102
RTVSPropertyOp47
 70
     1
102
RTVSPropertyOp48
 70
     1
102
RTVSPropertyOp49
 70
     1
102
RTVSPropertyOp50
 70
     1
102
RTVSPropertyOp51
 70
     0
102
RTVSPropertyOp52
 70
     0
102
RTVSPropertyOp53
 70
     1
102
RTVSPropertyOp54
 70
     1
102
RTVSPropertyOp55
 70
     1
102
RTVSPropertyOp56
 70
     1
102
RTVSPropertyOp57
 70
     1
102
RTVSPropertyOp58
 70
     1
102
RTVSPropertyOp59
 70
     1
102
RTVSPropertyOp60
 70
     1
102
RTVSPropertyOp61
 70
     1
102
RTVSPropertyOp62
 70
     1
  0
XRECORD
  5
A310
102
{ACAD_REACTORS
330
A30F
102
}
330
A30F
100
AcDbXrecord
280
     1
102
RTVSPost2010Prop28
280
     0
102
RTVSPost2010PropOp28
 70
     1
102
RTVSPost2010Prop29
280
     1
102
RTVSPost2010PropOp29
 70
     1
102
RTVSPost2010Prop30
280
     1
102
RTVSPost2010PropOp30
 70
     1
102
RTVSPost2010Prop31
280
     0
102
RTVSPost2010PropOp31
 70
     1
102
RTVSPost2010Prop32
280
     0
102
RTVSPost2010PropOp32
 70
     1
102
RTVSPost2010Prop33
280
     0
102
RTVSPost2010PropOp33
 70
     1
102
RTVSPost2010Prop34
280
     0
102
RTVSPost2010PropOp34
 70
     1
102
RTVSPost2010Prop35
280
     0
102
RTVSPost2010PropOp35
 70
     1
102
RTVSPost2010Prop36
280
     0
102
RTVSPost2010PropOp36
 70
     1
102
RTVSPost2010Prop37
 90
       50
102
RTVSPost2010PropOp37
 70
     1
102
RTVSPost2010Prop38
140
0.0
102
RTVSPost2010PropOp38
 70
     1
102
RTVSPost2010Prop39
140
1.0
102
RTVSPost2010PropOp39
 70
     1
102
RTVSPost2010Prop40
 90
        0
102
RTVSPost2010PropOp40
 70
     1
102
RTVSPost2010Prop41ColorIndex
 90
       18
102
RTVSPost2010Prop41ColorRGB
 90
        0
102
RTVSPost2010PropOp41
 70
     1
102
RTVSPost2010Prop42
 90
       50
102
RTVSPost2010PropOp42
 70
     1
102
RTVSPost2010Prop43
 90
        3
102
RTVSPost2010PropOp43
 70
     1
102
RTVSPost2010Prop44ColorIndex
 90
        5
102
RTVSPost2010Prop44ColorRGB
 90
      255
102
RTVSPost2010PropOp44
 70
     1
102
RTVSPost2010Prop45
280
     0
102
RTVSPost2010PropOp45
 70
     1
102
RTVSPost2010Prop46
 90
       50
102
RTVSPost2010PropOp46
 70
     1
102
RTVSPost2010Prop47
 90
       50
102
RTVSPost2010PropOp47
 70
     1
102
RTVSPost2010Prop48
 90
       50
102
RTVSPost2010PropOp48
 70
     1
102
RTVSPost2010Prop49
280
     0
102
RTVSPost2010PropOp49
 70
     1
102
RTVSPost2010Prop50
 90
       50
102
RTVSPost2010PropOp50
 70
     1
102
RTVSPost2010Prop51ColorIndex
 90
      256
102
RTVSPost2010Prop51ColorRGB
 90
-16777216
102
RTVSPost2010PropOp51
 70
     0
102
RTVSPost2010Prop52
140
1.0
102
RTVSPost2010PropOp52
 70
     0
102
RTVSPost2010Prop53
 90
        2
102
RTVSPost2010PropOp53
 70
     1
102
RTVSPost2010Prop54
  1
strokes_ogs.tif
102
RTVSPost2010PropOp54
 70
     1
102
RTVSPost2010Prop55
280
     0
102
RTVSPost2010PropOp55
 70
     1
102
RTVSPost2010Prop56
140
1.0
102
RTVSPost2010PropOp56
 70
     1
102
RTVSPost2010Prop57
140
1.0
102
RTVSPost2010PropOp57
 70
     1
102
RTVSPropertyOp0
 70
     1
102
RTVSPropertyOp1
 70
     1
102
RTVSPropertyOp2
 70
     1
102
RTVSPropertyOp3
 70
     1
102
RTVSPropertyOp4
 70
     1
102
RTVSPropertyOp5
 70
     1
102
RTVSPropertyOp6
 70
     1
102
RTVSPropertyOp7
 70
     1
102
RTVSPropertyOp8
 70
     1
102
RTVSPropertyOp9
 70
     1
102
RTVSPropertyOp10
 70
     1
102
RTVSPropertyOp11
 70
     1
102
RTVSPropertyOp12
 70
     1
102
RTVSPropertyOp13
 70
     1
102
RTVSPropertyOp14
 70
     1
102
RTVSPropertyOp15
 70
     1
102
RTVSPropertyOp16
 70
     1
102
RTVSPropertyOp17
 70
     1
102
RTVSPropertyOp18
 70
     1
102
RTVSPropertyOp19
 70
     1
102
RTVSPropertyOp20
 70
     1
102
RTVSPropertyOp21
 70
     1
102
RTVSPropertyOp22
 70
     1
102
RTVSPropertyOp23
 70
     1
102
RTVSPropertyOp24
 70
     1
102
RTVSPropertyOp25
 70
     1
102
RTVSPropertyOp26
 70
     1
102
RTVSPropertyOp27
 70
     1
102
RTVSPropertyOp28
 70
     1
102
RTVSPropertyOp29
 70
     1
102
RTVSPropertyOp30
 70
     1
102
RTVSPropertyOp31
 70
     1
102
RTVSPropertyOp32
 70
     1
102
RTVSPropertyOp33
 70
     1
102
RTVSPropertyOp34
 70
     1
102
RTVSPropertyOp35
 70
     1
102
RTVSPropertyOp36
 70
     1
102
RTVSPropertyOp37
 70
     1
102
RTVSPropertyOp38
 70
     1
102
RTVSPropertyOp39
 70
     1
102
RTVSPropertyOp40
 70
     1
102
RTVSPropertyOp41
 70
     1
102
RTVSPropertyOp42
 70
     1
102
RTVSPropertyOp43
 70
     1
102
RTVSPropertyOp44
 70
     1
102
RTVSPropertyOp45
 70
     1
102
RTVSPropertyOp46
 70
     1
102
RTVSPropertyOp47
 70
     1
102
RTVSPropertyOp48
 70
     1
102
RTVSPropertyOp49
 70
     1
102
RTVSPropertyOp50
 70
     1
102
RTVSPropertyOp51
 70
     0
102
RTVSPropertyOp52
 70
     0
102
RTVSPropertyOp53
 70
     1
102
RTVSPropertyOp54
 70
     1
102
RTVSPropertyOp55
 70
     1
102
RTVSPropertyOp56
 70
     1
102
RTVSPropertyOp57
 70
     1
102
RTVSPropertyOp58
 70
     1
102
RTVSPropertyOp59
 70
     1
102
RTVSPropertyOp60
 70
     1
102
RTVSPropertyOp61
 70
     1
102
RTVSPropertyOp62
 70
     1
  0
XRECORD
  5
A312
102
{ACAD_REACTORS
330
A311
102
}
330
A311
100
AcDbXrecord
280
     1
102
RTVSPost2010Prop28
280
     0
102
RTVSPost2010PropOp28
 70
     1
102
RTVSPost2010Prop29
280
     1
102
RTVSPost2010PropOp29
 70
     1
102
RTVSPost2010Prop30
280
     1
102
RTVSPost2010PropOp30
 70
     1
102
RTVSPost2010Prop31
280
     0
102
RTVSPost2010PropOp31
 70
     1
102
RTVSPost2010Prop32
280
     0
102
RTVSPost2010PropOp32
 70
     1
102
RTVSPost2010Prop33
280
     0
102
RTVSPost2010PropOp33
 70
     1
102
RTVSPost2010Prop34
280
     0
102
RTVSPost2010PropOp34
 70
     1
102
RTVSPost2010Prop35
280
     0
102
RTVSPost2010PropOp35
 70
     1
102
RTVSPost2010Prop36
280
     0
102
RTVSPost2010PropOp36
 70
     1
102
RTVSPost2010Prop37
 90
       50
102
RTVSPost2010PropOp37
 70
     1
102
RTVSPost2010Prop38
140
0.0
102
RTVSPost2010PropOp38
 70
     1
102
RTVSPost2010Prop39
140
1.0
102
RTVSPost2010PropOp39
 70
     1
102
RTVSPost2010Prop40
 90
        0
102
RTVSPost2010PropOp40
 70
     1
102
RTVSPost2010Prop41ColorIndex
 90
       18
102
RTVSPost2010Prop41ColorRGB
 90
        0
102
RTVSPost2010PropOp41
 70
     1
102
RTVSPost2010Prop42
 90
       50
102
RTVSPost2010PropOp42
 70
     1
102
RTVSPost2010Prop43
 90
        3
102
RTVSPost2010PropOp43
 70
     1
102
RTVSPost2010Prop44ColorIndex
 90
        5
102
RTVSPost2010Prop44ColorRGB
 90
      255
102
RTVSPost2010PropOp44
 70
     1
102
RTVSPost2010Prop45
280
     0
102
RTVSPost2010PropOp45
 70
     1
102
RTVSPost2010Prop46
 90
       50
102
RTVSPost2010PropOp46
 70
     1
102
RTVSPost2010Prop47
 90
       50
102
RTVSPost2010PropOp47
 70
     1
102
RTVSPost2010Prop48
 90
       50
102
RTVSPost2010PropOp48
 70
     1
102
RTVSPost2010Prop49
280
     0
102
RTVSPost2010PropOp49
 70
     1
102
RTVSPost2010Prop50
 90
       50
102
RTVSPost2010PropOp50
 70
     1
102
RTVSPost2010Prop51ColorIndex
 90
      256
102
RTVSPost2010Prop51ColorRGB
 90
-16777216
102
RTVSPost2010PropOp51
 70
     0
102
RTVSPost2010Prop52
140
1.0
102
RTVSPost2010PropOp52
 70
     0
102
RTVSPost2010Prop53
 90
        2
102
RTVSPost2010PropOp53
 70
     1
102
RTVSPost2010Prop54
  1
strokes_ogs.tif
102
RTVSPost2010PropOp54
 70
     1
102
RTVSPost2010Prop55
280
     0
102
RTVSPost2010PropOp55
 70
     1
102
RTVSPost2010Prop56
140
1.0
102
RTVSPost2010PropOp56
 70
     1
102
RTVSPost2010Prop57
140
1.0
102
RTVSPost2010PropOp57
 70
     1
102
RTVSPropertyOp0
 70
     1
102
RTVSPropertyOp1
 70
     1
102
RTVSPropertyOp2
 70
     1
102
RTVSPropertyOp3
 70
     1
102
RTVSPropertyOp4
 70
     1
102
RTVSPropertyOp5
 70
     1
102
RTVSPropertyOp6
 70
     1
102
RTVSPropertyOp7
 70
     1
102
RTVSPropertyOp8
 70
     1
102
RTVSPropertyOp9
 70
     1
102
RTVSPropertyOp10
 70
     1
102
RTVSPropertyOp11
 70
     1
102
RTVSPropertyOp12
 70
     1
102
RTVSPropertyOp13
 70
     1
102
RTVSPropertyOp14
 70
     1
102
RTVSPropertyOp15
 70
     1
102
RTVSPropertyOp16
 70
     1
102
RTVSPropertyOp17
 70
     1
102
RTVSPropertyOp18
 70
     1
102
RTVSPropertyOp19
 70
     1
102
RTVSPropertyOp20
 70
     1
102
RTVSPropertyOp21
 70
     1
102
RTVSPropertyOp22
 70
     1
102
RTVSPropertyOp23
 70
     1
102
RTVSPropertyOp24
 70
     1
102
RTVSPropertyOp25
 70
     1
102
RTVSPropertyOp26
 70
     1
102
RTVSPropertyOp27
 70
     1
102
RTVSPropertyOp28
 70
     1
102
RTVSPropertyOp29
 70
     1
102
RTVSPropertyOp30
 70
     1
102
RTVSPropertyOp31
 70
     1
102
RTVSPropertyOp32
 70
     1
102
RTVSPropertyOp33
 70
     1
102
RTVSPropertyOp34
 70
     1
102
RTVSPropertyOp35
 70
     1
102
RTVSPropertyOp36
 70
     1
102
RTVSPropertyOp37
 70
     1
102
RTVSPropertyOp38
 70
     1
102
RTVSPropertyOp39
 70
     1
102
RTVSPropertyOp40
 70
     1
102
RTVSPropertyOp41
 70
     1
102
RTVSPropertyOp42
 70
     1
102
RTVSPropertyOp43
 70
     1
102
RTVSPropertyOp44
 70
     1
102
RTVSPropertyOp45
 70
     1
102
RTVSPropertyOp46
 70
     1
102
RTVSPropertyOp47
 70
     1
102
RTVSPropertyOp48
 70
     1
102
RTVSPropertyOp49
 70
     1
102
RTVSPropertyOp50
 70
     1
102
RTVSPropertyOp51
 70
     0
102
RTVSPropertyOp52
 70
     0
102
RTVSPropertyOp53
 70
     1
102
RTVSPropertyOp54
 70
     1
102
RTVSPropertyOp55
 70
     1
102
RTVSPropertyOp56
 70
     1
102
RTVSPropertyOp57
 70
     1
102
RTVSPropertyOp58
 70
     1
102
RTVSPropertyOp59
 70
     1
102
RTVSPropertyOp60
 70
     1
102
RTVSPropertyOp61
 70
     1
102
RTVSPropertyOp62
 70
     1
  0
XRECORD
  5
A308
102
{ACAD_REACTORS
330
A307
102
}
330
A307
100
AcDbXrecord
280
     1
102
RTVSPost2010Prop28
280
     0
102
RTVSPost2010PropOp28
 70
     1
102
RTVSPost2010Prop29
280
     1
102
RTVSPost2010PropOp29
 70
     1
102
RTVSPost2010Prop30
280
     1
102
RTVSPost2010PropOp30
 70
     1
102
RTVSPost2010Prop31
280
     0
102
RTVSPost2010PropOp31
 70
     1
102
RTVSPost2010Prop32
280
     0
102
RTVSPost2010PropOp32
 70
     1
102
RTVSPost2010Prop33
280
     0
102
RTVSPost2010PropOp33
 70
     1
102
RTVSPost2010Prop34
280
     0
102
RTVSPost2010PropOp34
 70
     1
102
RTVSPost2010Prop35
280
     0
102
RTVSPost2010PropOp35
 70
     1
102
RTVSPost2010Prop36
280
     0
102
RTVSPost2010PropOp36
 70
     1
102
RTVSPost2010Prop37
 90
       50
102
RTVSPost2010PropOp37
 70
     1
102
RTVSPost2010Prop38
140
0.0
102
RTVSPost2010PropOp38
 70
     1
102
RTVSPost2010Prop39
140
1.0
102
RTVSPost2010PropOp39
 70
     1
102
RTVSPost2010Prop40
 90
        0
102
RTVSPost2010PropOp40
 70
     1
102
RTVSPost2010Prop41ColorIndex
 90
       18
102
RTVSPost2010Prop41ColorRGB
 90
        0
102
RTVSPost2010PropOp41
 70
     1
102
RTVSPost2010Prop42
 90
       50
102
RTVSPost2010PropOp42
 70
     1
102
RTVSPost2010Prop43
 90
        3
102
RTVSPost2010PropOp43
 70
     1
102
RTVSPost2010Prop44ColorIndex
 90
        5
102
RTVSPost2010Prop44ColorRGB
 90
      255
102
RTVSPost2010PropOp44
 70
     1
102
RTVSPost2010Prop45
280
     0
102
RTVSPost2010PropOp45
 70
     1
102
RTVSPost2010Prop46
 90
       50
102
RTVSPost2010PropOp46
 70
     1
102
RTVSPost2010Prop47
 90
       50
102
RTVSPost2010PropOp47
 70
     1
102
RTVSPost2010Prop48
 90
       50
102
RTVSPost2010PropOp48
 70
     1
102
RTVSPost2010Prop49
280
     0
102
RTVSPost2010PropOp49
 70
     1
102
RTVSPost2010Prop50
 90
       50
102
RTVSPost2010PropOp50
 70
     1
102
RTVSPost2010Prop51ColorIndex
 90
      256
102
RTVSPost2010Prop51ColorRGB
 90
-16777216
102
RTVSPost2010PropOp51
 70
     0
102
RTVSPost2010Prop52
140
1.0
102
RTVSPost2010PropOp52
 70
     0
102
RTVSPost2010Prop53
 90
        2
102
RTVSPost2010PropOp53
 70
     1
102
RTVSPost2010Prop54
  1
strokes_ogs.tif
102
RTVSPost2010PropOp54
 70
     1
102
RTVSPost2010Prop55
280
     0
102
RTVSPost2010PropOp55
 70
     1
102
RTVSPost2010Prop56
140
1.0
102
RTVSPost2010PropOp56
 70
     1
102
RTVSPost2010Prop57
140
1.0
102
RTVSPost2010PropOp57
 70
     1
102
RTVSPropertyOp0
 70
     1
102
RTVSPropertyOp1
 70
     1
102
RTVSPropertyOp2
 70
     1
102
RTVSPropertyOp3
 70
     1
102
RTVSPropertyOp4
 70
     1
102
RTVSPropertyOp5
 70
     1
102
RTVSPropertyOp6
 70
     1
102
RTVSPropertyOp7
 70
     1
102
RTVSPropertyOp8
 70
     1
102
RTVSPropertyOp9
 70
     1
102
RTVSPropertyOp10
 70
     1
102
RTVSPropertyOp11
 70
     1
102
RTVSPropertyOp12
 70
     1
102
RTVSPropertyOp13
 70
     1
102
RTVSPropertyOp14
 70
     1
102
RTVSPropertyOp15
 70
     1
102
RTVSPropertyOp16
 70
     1
102
RTVSPropertyOp17
 70
     1
102
RTVSPropertyOp18
 70
     1
102
RTVSPropertyOp19
 70
     1
102
RTVSPropertyOp20
 70
     1
102
RTVSPropertyOp21
 70
     1
102
RTVSPropertyOp22
 70
     1
102
RTVSPropertyOp23
 70
     1
102
RTVSPropertyOp24
 70
     1
102
RTVSPropertyOp25
 70
     1
102
RTVSPropertyOp26
 70
     1
102
RTVSPropertyOp27
 70
     1
102
RTVSPropertyOp28
 70
     1
102
RTVSPropertyOp29
 70
     1
102
RTVSPropertyOp30
 70
     1
102
RTVSPropertyOp31
 70
     1
102
RTVSPropertyOp32
 70
     1
102
RTVSPropertyOp33
 70
     1
102
RTVSPropertyOp34
 70
     1
102
RTVSPropertyOp35
 70
     1
102
RTVSPropertyOp36
 70
     1
102
RTVSPropertyOp37
 70
     1
102
RTVSPropertyOp38
 70
     1
102
RTVSPropertyOp39
 70
     1
102
RTVSPropertyOp40
 70
     1
102
RTVSPropertyOp41
 70
     1
102
RTVSPropertyOp42
 70
     1
102
RTVSPropertyOp43
 70
     1
102
RTVSPropertyOp44
 70
     1
102
RTVSPropertyOp45
 70
     1
102
RTVSPropertyOp46
 70
     1
102
RTVSPropertyOp47
 70
     1
102
RTVSPropertyOp48
 70
     1
102
RTVSPropertyOp49
 70
     1
102
RTVSPropertyOp50
 70
     1
102
RTVSPropertyOp51
 70
     0
102
RTVSPropertyOp52
 70
     0
102
RTVSPropertyOp53
 70
     1
102
RTVSPropertyOp54
 70
     1
102
RTVSPropertyOp55
 70
     1
102
RTVSPropertyOp56
 70
     1
102
RTVSPropertyOp57
 70
     1
102
RTVSPropertyOp58
 70
     1
102
RTVSPropertyOp59
 70
     1
102
RTVSPropertyOp60
 70
     1
102
RTVSPropertyOp61
 70
     1
102
RTVSPropertyOp62
 70
     1
  0
XRECORD
  5
A2FC
102
{ACAD_REACTORS
330
A2FB
102
}
330
A2FB
100
AcDbXrecord
280
     1
102
RTVSPost2010Prop28
280
     0
102
RTVSPost2010PropOp28
 70
     1
102
RTVSPost2010Prop29
280
     1
102
RTVSPost2010PropOp29
 70
     1
102
RTVSPost2010Prop30
280
     1
102
RTVSPost2010PropOp30
 70
     1
102
RTVSPost2010Prop31
280
     0
102
RTVSPost2010PropOp31
 70
     1
102
RTVSPost2010Prop32
280
     0
102
RTVSPost2010PropOp32
 70
     1
102
RTVSPost2010Prop33
280
     0
102
RTVSPost2010PropOp33
 70
     1
102
RTVSPost2010Prop34
280
     0
102
RTVSPost2010PropOp34
 70
     1
102
RTVSPost2010Prop35
280
     0
102
RTVSPost2010PropOp35
 70
     1
102
RTVSPost2010Prop36
280
     0
102
RTVSPost2010PropOp36
 70
     1
102
RTVSPost2010Prop37
 90
       50
102
RTVSPost2010PropOp37
 70
     1
102
RTVSPost2010Prop38
140
0.0
102
RTVSPost2010PropOp38
 70
     1
102
RTVSPost2010Prop39
140
1.0
102
RTVSPost2010PropOp39
 70
     1
102
RTVSPost2010Prop40
 90
        0
102
RTVSPost2010PropOp40
 70
     1
102
RTVSPost2010Prop41ColorIndex
 90
       18
102
RTVSPost2010Prop41ColorRGB
 90
        0
102
RTVSPost2010PropOp41
 70
     1
102
RTVSPost2010Prop42
 90
       50
102
RTVSPost2010PropOp42
 70
     1
102
RTVSPost2010Prop43
 90
        3
102
RTVSPost2010PropOp43
 70
     1
102
RTVSPost2010Prop44ColorIndex
 90
        5
102
RTVSPost2010Prop44ColorRGB
 90
      255
102
RTVSPost2010PropOp44
 70
     1
102
RTVSPost2010Prop45
280
     0
102
RTVSPost2010PropOp45
 70
     1
102
RTVSPost2010Prop46
 90
       50
102
RTVSPost2010PropOp46
 70
     1
102
RTVSPost2010Prop47
 90
       50
102
RTVSPost2010PropOp47
 70
     1
102
RTVSPost2010Prop48
 90
       50
102
RTVSPost2010PropOp48
 70
     1
102
RTVSPost2010Prop49
280
     0
102
RTVSPost2010PropOp49
 70
     1
102
RTVSPost2010Prop50
 90
       50
102
RTVSPost2010PropOp50
 70
     1
102
RTVSPost2010Prop51ColorIndex
 90
      256
102
RTVSPost2010Prop51ColorRGB
 90
-16777216
102
RTVSPost2010PropOp51
 70
     0
102
RTVSPost2010Prop52
140
1.0
102
RTVSPost2010PropOp52
 70
     0
102
RTVSPost2010Prop53
 90
        2
102
RTVSPost2010PropOp53
 70
     1
102
RTVSPost2010Prop54
  1
strokes_ogs.tif
102
RTVSPost2010PropOp54
 70
     1
102
RTVSPost2010Prop55
280
     0
102
RTVSPost2010PropOp55
 70
     1
102
RTVSPost2010Prop56
140
1.0
102
RTVSPost2010PropOp56
 70
     1
102
RTVSPost2010Prop57
140
1.0
102
RTVSPost2010PropOp57
 70
     1
102
RTVSPropertyOp0
 70
     1
102
RTVSPropertyOp1
 70
     1
102
RTVSPropertyOp2
 70
     1
102
RTVSPropertyOp3
 70
     1
102
RTVSPropertyOp4
 70
     1
102
RTVSPropertyOp5
 70
     1
102
RTVSPropertyOp6
 70
     1
102
RTVSPropertyOp7
 70
     1
102
RTVSPropertyOp8
 70
     1
102
RTVSPropertyOp9
 70
     1
102
RTVSPropertyOp10
 70
     1
102
RTVSPropertyOp11
 70
     1
102
RTVSPropertyOp12
 70
     1
102
RTVSPropertyOp13
 70
     1
102
RTVSPropertyOp14
 70
     1
102
RTVSPropertyOp15
 70
     1
102
RTVSPropertyOp16
 70
     1
102
RTVSPropertyOp17
 70
     1
102
RTVSPropertyOp18
 70
     1
102
RTVSPropertyOp19
 70
     1
102
RTVSPropertyOp20
 70
     1
102
RTVSPropertyOp21
 70
     1
102
RTVSPropertyOp22
 70
     1
102
RTVSPropertyOp23
 70
     1
102
RTVSPropertyOp24
 70
     1
102
RTVSPropertyOp25
 70
     1
102
RTVSPropertyOp26
 70
     1
102
RTVSPropertyOp27
 70
     1
102
RTVSPropertyOp28
 70
     1
102
RTVSPropertyOp29
 70
     1
102
RTVSPropertyOp30
 70
     1
102
RTVSPropertyOp31
 70
     1
102
RTVSPropertyOp32
 70
     1
102
RTVSPropertyOp33
 70
     1
102
RTVSPropertyOp34
 70
     1
102
RTVSPropertyOp35
 70
     1
102
RTVSPropertyOp36
 70
     1
102
RTVSPropertyOp37
 70
     1
102
RTVSPropertyOp38
 70
     1
102
RTVSPropertyOp39
 70
     1
102
RTVSPropertyOp40
 70
     1
102
RTVSPropertyOp41
 70
     1
102
RTVSPropertyOp42
 70
     1
102
RTVSPropertyOp43
 70
     1
102
RTVSPropertyOp44
 70
     1
102
RTVSPropertyOp45
 70
     1
102
RTVSPropertyOp46
 70
     1
102
RTVSPropertyOp47
 70
     1
102
RTVSPropertyOp48
 70
     1
102
RTVSPropertyOp49
 70
     1
102
RTVSPropertyOp50
 70
     1
102
RTVSPropertyOp51
 70
     0
102
RTVSPropertyOp52
 70
     0
102
RTVSPropertyOp53
 70
     1
102
RTVSPropertyOp54
 70
     1
102
RTVSPropertyOp55
 70
     1
102
RTVSPropertyOp56
 70
     1
102
RTVSPropertyOp57
 70
     1
102
RTVSPropertyOp58
 70
     1
102
RTVSPropertyOp59
 70
     1
102
RTVSPropertyOp60
 70
     1
102
RTVSPropertyOp61
 70
     1
102
RTVSPropertyOp62
 70
     1
  0
XRECORD
  5
A314
102
{ACAD_REACTORS
330
A313
102
}
330
A313
100
AcDbXrecord
280
     1
102
RTVSPost2010Prop28
280
     0
102
RTVSPost2010PropOp28
 70
     1
102
RTVSPost2010Prop29
280
     1
102
RTVSPost2010PropOp29
 70
     1
102
RTVSPost2010Prop30
280
     1
102
RTVSPost2010PropOp30
 70
     1
102
RTVSPost2010Prop31
280
     0
102
RTVSPost2010PropOp31
 70
     1
102
RTVSPost2010Prop32
280
     0
102
RTVSPost2010PropOp32
 70
     1
102
RTVSPost2010Prop33
280
     0
102
RTVSPost2010PropOp33
 70
     1
102
RTVSPost2010Prop34
280
     0
102
RTVSPost2010PropOp34
 70
     1
102
RTVSPost2010Prop35
280
     0
102
RTVSPost2010PropOp35
 70
     1
102
RTVSPost2010Prop36
280
     0
102
RTVSPost2010PropOp36
 70
     1
102
RTVSPost2010Prop37
 90
       50
102
RTVSPost2010PropOp37
 70
     1
102
RTVSPost2010Prop38
140
0.0
102
RTVSPost2010PropOp38
 70
     1
102
RTVSPost2010Prop39
140
1.0
102
RTVSPost2010PropOp39
 70
     1
102
RTVSPost2010Prop40
 90
        0
102
RTVSPost2010PropOp40
 70
     1
102
RTVSPost2010Prop41ColorIndex
 90
       18
102
RTVSPost2010Prop41ColorRGB
 90
        0
102
RTVSPost2010PropOp41
 70
     1
102
RTVSPost2010Prop42
 90
       50
102
RTVSPost2010PropOp42
 70
     1
102
RTVSPost2010Prop43
 90
        3
102
RTVSPost2010PropOp43
 70
     1
102
RTVSPost2010Prop44ColorIndex
 90
        5
102
RTVSPost2010Prop44ColorRGB
 90
      255
102
RTVSPost2010PropOp44
 70
     1
102
RTVSPost2010Prop45
280
     0
102
RTVSPost2010PropOp45
 70
     1
102
RTVSPost2010Prop46
 90
       50
102
RTVSPost2010PropOp46
 70
     1
102
RTVSPost2010Prop47
 90
       50
102
RTVSPost2010PropOp47
 70
     1
102
RTVSPost2010Prop48
 90
       50
102
RTVSPost2010PropOp48
 70
     1
102
RTVSPost2010Prop49
280
     0
102
RTVSPost2010PropOp49
 70
     1
102
RTVSPost2010Prop50
 90
       50
102
RTVSPost2010PropOp50
 70
     1
102
RTVSPost2010Prop51ColorIndex
 90
      256
102
RTVSPost2010Prop51ColorRGB
 90
-16777216
102
RTVSPost2010PropOp51
 70
     0
102
RTVSPost2010Prop52
140
1.0
102
RTVSPost2010PropOp52
 70
     0
102
RTVSPost2010Prop53
 90
        2
102
RTVSPost2010PropOp53
 70
     1
102
RTVSPost2010Prop54
  1
strokes_ogs.tif
102
RTVSPost2010PropOp54
 70
     1
102
RTVSPost2010Prop55
280
     0
102
RTVSPost2010PropOp55
 70
     1
102
RTVSPost2010Prop56
140
1.0
102
RTVSPost2010PropOp56
 70
     1
102
RTVSPost2010Prop57
140
1.0
102
RTVSPost2010PropOp57
 70
     1
102
RTVSPropertyOp0
 70
     1
102
RTVSPropertyOp1
 70
     1
102
RTVSPropertyOp2
 70
     1
102
RTVSPropertyOp3
 70
     1
102
RTVSPropertyOp4
 70
     1
102
RTVSPropertyOp5
 70
     1
102
RTVSPropertyOp6
 70
     1
102
RTVSPropertyOp7
 70
     1
102
RTVSPropertyOp8
 70
     1
102
RTVSPropertyOp9
 70
     1
102
RTVSPropertyOp10
 70
     1
102
RTVSPropertyOp11
 70
     1
102
RTVSPropertyOp12
 70
     1
102
RTVSPropertyOp13
 70
     1
102
RTVSPropertyOp14
 70
     1
102
RTVSPropertyOp15
 70
     1
102
RTVSPropertyOp16
 70
     1
102
RTVSPropertyOp17
 70
     1
102
RTVSPropertyOp18
 70
     1
102
RTVSPropertyOp19
 70
     1
102
RTVSPropertyOp20
 70
     1
102
RTVSPropertyOp21
 70
     1
102
RTVSPropertyOp22
 70
     1
102
RTVSPropertyOp23
 70
     1
102
RTVSPropertyOp24
 70
     1
102
RTVSPropertyOp25
 70
     1
102
RTVSPropertyOp26
 70
     1
102
RTVSPropertyOp27
 70
     1
102
RTVSPropertyOp28
 70
     1
102
RTVSPropertyOp29
 70
     1
102
RTVSPropertyOp30
 70
     1
102
RTVSPropertyOp31
 70
     1
102
RTVSPropertyOp32
 70
     1
102
RTVSPropertyOp33
 70
     1
102
RTVSPropertyOp34
 70
     1
102
RTVSPropertyOp35
 70
     1
102
RTVSPropertyOp36
 70
     1
102
RTVSPropertyOp37
 70
     1
102
RTVSPropertyOp38
 70
     1
102
RTVSPropertyOp39
 70
     1
102
RTVSPropertyOp40
 70
     1
102
RTVSPropertyOp41
 70
     1
102
RTVSPropertyOp42
 70
     1
102
RTVSPropertyOp43
 70
     1
102
RTVSPropertyOp44
 70
     1
102
RTVSPropertyOp45
 70
     1
102
RTVSPropertyOp46
 70
     1
102
RTVSPropertyOp47
 70
     1
102
RTVSPropertyOp48
 70
     1
102
RTVSPropertyOp49
 70
     1
102
RTVSPropertyOp50
 70
     1
102
RTVSPropertyOp51
 70
     0
102
RTVSPropertyOp52
 70
     0
102
RTVSPropertyOp53
 70
     1
102
RTVSPropertyOp54
 70
     1
102
RTVSPropertyOp55
 70
     1
102
RTVSPropertyOp56
 70
     1
102
RTVSPropertyOp57
 70
     1
102
RTVSPropertyOp58
 70
     1
102
RTVSPropertyOp59
 70
     1
102
RTVSPropertyOp60
 70
     1
102
RTVSPropertyOp61
 70
     1
102
RTVSPropertyOp62
 70
     1
  0
ENDSEC
  0
EOF
