  0
SECTION
  2
HEADER
  9
$ACADVER
  1
AC1015
  9
$ACADMAINTVER
 70
    20
  9
$DWGCODEPAGE
  3
ANSI_932
  9
$INSBASE
 10
0.0
 20
0.0
 30
0.0
  9
$EXTMIN
 10
10.0
 20
9.999999999999998
 30
0.0
  9
$EXTMAX
 10
389.220117
 20
195.318532
 30
0.0
  9
$LIMMIN
 10
0.0
 20
0.0
  9
$LIMMAX
 10
396.0
 20
273.0
  9
$ORTHOMODE
 70
     1
  9
$REGENMODE
 70
     1
  9
$FILLMODE
 70
     1
  9
$QTEXTMODE
 70
     0
  9
$MIRRTEXT
 70
     1
  9
$LTSCALE
 40
20.0
  9
$ATTMODE
 70
     1
  9
$TEXTSIZE
 40
5.0
  9
$TRACEWID
 40
1.0
  9
$TEXTSTYLE
  7
STANDARD
  9
$CLAYER
  8
0
  9
$CELTYPE
  6
BYLAYER
  9
$CECOLOR
 62
   256
  9
$CELTSCALE
 40
1.0
  9
$DISPSILH
 70
     0
  9
$DIMSCALE
 40
1.0
  9
$DIMASZ
 40
3.0
  9
$DIMEXO
 40
1.0
  9
$DIMDLI
 40
10.0
  9
$DIMRND
 40
0.0
  9
$DIMDLE
 40
0.0
  9
$DIMEXE
 40
1.0
  9
$DIMTP
 40
0.0
  9
$DIMTM
 40
0.0
  9
$DIMTXT
 40
3.2
  9
$DIMCEN
 40
0.0
  9
$DIMTSZ
 40
0.0
  9
$DIMTOL
 70
     0
  9
$DIMLIM
 70
     0
  9
$DIMTIH
 70
     0
  9
$DIMTOH
 70
     0
  9
$DIMSE1
 70
     0
  9
$DIMSE2
 70
     0
  9
$DIMTAD
 70
     3
  9
$DIMZIN
 70
     8
  9
$DIMBLK
  1

  9
$DIMASO
 70
     1
  9
$DIMSHO
 70
     1
  9
$DIMPOST
  1

  9
$DIMAPOST
  1

  9
$DIMALT
 70
     0
  9
$DIMALTD
 70
     2
  9
$DIMALTF
 40
25.4
  9
$DIMLFAC
 40
1.0
  9
$DIMTOFL
 70
     1
  9
$DIMTVP
 40
0.0
  9
$DIMTIX
 70
     0
  9
$DIMSOXD
 70
     0
  9
$DIMSAH
 70
     1
  9
$DIMBLK1
  1

  9
$DIMBLK2
  1

  9
$DIMSTYLE
  2
STANDARD
  9
$DIMCLRD
 70
     0
  9
$DIMCLRE
 70
     0
  9
$DIMCLRT
 70
     0
  9
$DIMTFAC
 40
1.0
  9
$DIMGAP
 40
1.0
  9
$DIMJUST
 70
     0
  9
$DIMSD1
 70
     0
  9
$DIMSD2
 70
     0
  9
$DIMTOLJ
 70
     1
  9
$DIMTZIN
 70
     0
  9
$DIMALTZ
 70
     0
  9
$DIMALTTZ
 70
     0
  9
$DIMUPT
 70
     0
  9
$DIMDEC
 70
     4
  9
$DIMTDEC
 70
     4
  9
$DIMALTU
 70
     2
  9
$DIMALTTD
 70
     2
  9
$DIMTXSTY
  7
STANDARD
  9
$DIMAUNIT
 70
     0
  9
$DIMADEC
 70
     0
  9
$DIMALTRND
 40
0.0
  9
$DIMAZIN
 70
     0
  9
$DIMDSEP
 70
    46
  9
$DIMATFIT
 70
     3
  9
$DIMFRAC
 70
     0
  9
$DIMLDRBLK
  1

  9
$DIMLUNIT
 70
     2
  9
$DIMLWD
 70
    -2
  9
$DIMLWE
 70
    -2
  9
$DIMTMOVE
 70
     0
  9
$LUNITS
 70
     2
  9
$LUPREC
 70
     4
  9
$SKETCHINC
 40
1.0
  9
$FILLETRAD
 40
0.0
  9
$AUNITS
 70
     0
  9
$AUPREC
 70
     2
  9
$MENU
  1
.
  9
$ELEVATION
 40
0.0
  9
$PELEVATION
 40
0.0
  9
$THICKNESS
 40
0.0
  9
$LIMCHECK
 70
     0
  9
$CHAMFERA
 40
10.0
  9
$CHAMFERB
 40
10.0
  9
$CHAMFERC
 40
0.0
  9
$CHAMFERD
 40
0.0
  9
$SKPOLY
 70
     0
  9
$TDCREATE
 40
2450950.414101968
  9
$TDUCREATE
 40
2450950.039101968
  9
$TDUPDATE
 40
2457192.603760533
  9
$TDUUPDATE
 40
2457192.228760533
  9
$TDINDWG
 40
0.0000159954
  9
$TDUSRTIMER
 40
0.0000156713
  9
$USRTIMER
 70
     1
  9
$ANGBASE
 50
0.0
  9
$ANGDIR
 70
     0
  9
$PDMODE
 70
     0
  9
$PDSIZE
 40
0.0
  9
$PLINEWID
 40
0.0
  9
$SPLFRAME
 70
     0
  9
$SPLINETYPE
 70
     6
  9
$SPLINESEGS
 70
     8
  9
$HANDSEED
  5
9F4B
  9
$SURFTAB1
 70
     6
  9
$SURFTAB2
 70
     6
  9
$SURFTYPE
 70
     6
  9
$SURFU
 70
     6
  9
$SURFV
 70
     6
  9
$UCSBASE
  2

  9
$UCSNAME
  2

  9
$UCSORG
 10
0.0
 20
0.0
 30
0.0
  9
$UCSXDIR
 10
1.0
 20
0.0
 30
0.0
  9
$UCSYDIR
 10
0.0
 20
1.0
 30
0.0
  9
$UCSORTHOREF
  2

  9
$UCSORTHOVIEW
 70
     0
  9
$UCSORGTOP
 10
0.0
 20
0.0
 30
0.0
  9
$UCSORGBOTTOM
 10
0.0
 20
0.0
 30
0.0
  9
$UCSORGLEFT
 10
0.0
 20
0.0
 30
0.0
  9
$UCSORGRIGHT
 10
0.0
 20
0.0
 30
0.0
  9
$UCSORGFRONT
 10
0.0
 20
0.0
 30
0.0
  9
$UCSORGBACK
 10
0.0
 20
0.0
 30
0.0
  9
$PUCSBASE
  2

  9
$PUCSNAME
  2

  9
$PUCSORG
 10
0.0
 20
0.0
 30
0.0
  9
$PUCSXDIR
 10
1.0
 20
0.0
 30
0.0
  9
$PUCSYDIR
 10
0.0
 20
1.0
 30
0.0
  9
$PUCSORTHOREF
  2

  9
$PUCSORTHOVIEW
 70
     0
  9
$PUCSORGTOP
 10
0.0
 20
0.0
 30
0.0
  9
$PUCSORGBOTTOM
 10
0.0
 20
0.0
 30
0.0
  9
$PUCSORGLEFT
 10
0.0
 20
0.0
 30
0.0
  9
$PUCSORGRIGHT
 10
0.0
 20
0.0
 30
0.0
  9
$PUCSORGFRONT
 10
0.0
 20
0.0
 30
0.0
  9
$PUCSORGBACK
 10
0.0
 20
0.0
 30
0.0
  9
$USERI1
 70
     0
  9
$USERI2
 70
     0
  9
$USERI3
 70
     0
  9
$USERI4
 70
     0
  9
$USERI5
 70
     0
  9
$USERR1
 40
0.0
  9
$USERR2
 40
0.0
  9
$USERR3
 40
0.0
  9
$USERR4
 40
0.0
  9
$USERR5
 40
0.0
  9
$WORLDVIEW
 70
     1
  9
$SHADEDGE
 70
     3
  9
$SHADEDIF
 70
    70
  9
$TILEMODE
 70
     1
  9
$MAXACTVP
 70
    16
  9
$PINSBASE
 10
0.0
 20
0.0
 30
0.0
  9
$PLIMCHECK
 70
     0
  9
$PEXTMIN
 10
1.000000000000000E+20
 20
1.000000000000000E+20
 30
1.000000000000000E+20
  9
$PEXTMAX
 10
-1.000000000000000E+20
 20
-1.000000000000000E+20
 30
-1.000000000000000E+20
  9
$PLIMMIN
 10
0.0
 20
0.0
  9
$PLIMMAX
 10
420.0
 20
297.0
  9
$UNITMODE
 70
     0
  9
$VISRETAIN
 70
     0
  9
$PLINEGEN
 70
     0
  9
$PSLTSCALE
 70
     0
  9
$TREEDEPTH
 70
  3020
  9
$CMLSTYLE
  2
STANDARD
  9
$CMLJUST
 70
     0
  9
$CMLSCALE
 40
1.0
  9
$PROXYGRAPHICS
 70
     1
  9
$MEASUREMENT
 70
     0
  9
$CELWEIGHT
370
    -1
  9
$ENDCAPS
280
     0
  9
$JOINSTYLE
280
     0
  9
$LWDISPLAY
290
     0
  9
$INSUNITS
 70
     0
  9
$HYPERLINKBASE
  1

  9
$STYLESHEET
  1

  9
$XEDIT
290
     1
  9
$CEPSNTYPE
380
     0
  9
$PSTYLEMODE
290
     1
  9
$FINGERPRINTGUID
  2
{8BE78BF3-1929-4E28-A3BD-94930B6B02A4}
  9
$VERSIONGUID
  2
{32FA04E0-338F-48EA-BE9A-E0A81A6EB8F4}
  9
$EXTNAMES
290
     1
  9
$PSVPSCALE
 40
0.0
  9
$OLESTARTUP
290
     0
  0
ENDSEC
  0
SECTION
  2
CLASSES
  0
CLASS
  1
ACDBDICTIONARYWDFLT
  2
AcDbDictionaryWithDefault
  3
ObjectDBX Classes
 90
        0
280
     0
281
     0
  0
CLASS
  1
ACDBPLACEHOLDER
  2
AcDbPlaceHolder
  3
ObjectDBX Classes
 90
        0
280
     0
281
     0
  0
CLASS
  1
LAYOUT
  2
AcDbLayout
  3
ObjectDBX Classes
 90
        0
280
     0
281
     0
  0
CLASS
  1
DICTIONARYVAR
  2
AcDbDictionaryVar
  3
ObjectDBX Classes
 90
        0
280
     0
281
     0
  0
CLASS
  1
MATERIAL
  2
AcDbMaterial
  3
ObjectDBX Classes
 90
     1153
280
     0
281
     0
  0
CLASS
  1
VISUALSTYLE
  2
AcDbVisualStyle
  3
ObjectDBX Classes
 90
     4095
280
     0
281
     0
  0
CLASS
  1
TABLESTYLE
  2
AcDbTableStyle
  3
ObjectDBX Classes
 90
     4095
280
     0
281
     0
  0
CLASS
  1
SCALE
  2
AcDbScale
  3
ObjectDBX Classes
 90
     1153
280
     0
281
     0
  0
CLASS
  1
MLEADERSTYLE
  2
AcDbMLeaderStyle
  3
ACDB_MLEADERSTYLE_CLASS
 90
     4095
280
     0
281
     0
  0
CLASS
  1
ACDBSECTIONVIEWSTYLE
  2
AcDbSectionViewStyle
  3
ObjectDBX Classes
 90
     1025
280
     0
281
     0
  0
CLASS
  1
ACDBDETAILVIEWSTYLE
  2
AcDbDetailViewStyle
  3
ObjectDBX Classes
 90
     1025
280
     0
281
     0
  0
CLASS
  1
CELLSTYLEMAP
  2
AcDbCellStyleMap
  3
ObjectDBX Classes
 90
     1152
280
     0
281
     0
  0
ENDSEC
  0
SECTION
  2
TABLES
  0
TABLE
  2
VPORT
  5
9BE9
330
0
100
AcDbSymbolTable
 70
     1
  0
VPORT
  5
9E94
330
9BE9
100
AcDbSymbolTableRecord
100
AcDbViewportTableRecord
  2
*ACTIVE
 70
     0
 10
0.0
 20
0.0
 11
1.0
 21
1.0
 12
264.9142145910543
 22
102.6540991069679
 13
0.0
 23
0.0
 14
10.0
 24
10.0
 15
10.0
 25
10.0
 16
0.0
 26
0.0
 36
1.0
 17
0.0
 27
0.0
 37
0.0
 40
217.9996771281724
 41
1.899603698811096
 42
50.0
 43
0.0
 44
0.0
 50
0.0
 51
0.0
 71
     0
 72
   100
 73
     1
 74
     0
 75
     0
 76
     0
 77
     0
 78
     0
281
     0
 65
     1
110
0.0
120
0.0
130
0.0
111
1.0
121
0.0
131
0.0
112
0.0
122
1.0
132
0.0
 79
     0
146
0.0
1001
ACAD_NAV_VCDISPLAY
1070
     3
  0
ENDTAB
  0
TABLE
  2
LTYPE
  5
9BE6
330
0
100
AcDbSymbolTable
 70
     4
  0
LTYPE
  5
9BF4
330
9BE6
100
AcDbSymbolTableRecord
100
AcDbLinetypeTableRecord
  2
BYBLOCK
 70
     0
  3

 72
    65
 73
     0
 40
0.0
  0
LTYPE
  5
9BF5
330
9BE6
100
AcDbSymbolTableRecord
100
AcDbLinetypeTableRecord
  2
BYLAYER
 70
     0
  3

 72
    65
 73
     0
 40
0.0
  0
LTYPE
  5
9BF6
330
9BE6
100
AcDbSymbolTableRecord
100
AcDbLinetypeTableRecord
  2
CONTINUOUS
 70
     0
  3
Solid line
 72
    65
 73
     0
 40
0.0
  0
LTYPE
  5
9C04
330
9BE6
100
AcDbSymbolTableRecord
100
AcDbLinetypeTableRecord
  2
DASHED
 70
     0
  3
__ __ __ __ __ __ __ __ __ __ __ __ __ __ __ __
 72
    65
 73
     2
 40
0.75
 49
0.5
 74
     0
 49
-0.25
 74
     0
  0
LTYPE
  5
9C05
330
9BE6
100
AcDbSymbolTableRecord
100
AcDbLinetypeTableRecord
  2
CENTER
 70
     0
  3
____ _ ____ _ ____ _ ____ _ ____ _ ____ _ ____ 
 72
    65
 73
     4
 40
2.0
 49
1.25
 74
     0
 49
-0.25
 74
     0
 49
0.25
 74
     0
 49
-0.25
 74
     0
  0
LTYPE
  5
9C06
330
9BE6
100
AcDbSymbolTableRecord
100
AcDbLinetypeTableRecord
  2
PHANTOM
 70
     0
  3
______  __  __  ______  __  __  ______  __  __ 
 72
    65
 73
     6
 40
2.5
 49
1.25
 74
     0
 49
-0.25
 74
     0
 49
0.25
 74
     0
 49
-0.25
 74
     0
 49
0.25
 74
     0
 49
-0.25
 74
     0
  0
ENDTAB
  0
TABLE
  2
LAYER
  5
9BE3
330
0
100
AcDbSymbolTable
 70
     8
  0
LAYER
  5
9BF1
102
{ACAD_XDICTIONARY
360
9EEF
102
}
330
9BE3
100
AcDbSymbolTableRecord
100
AcDbLayerTableRecord
  2
0
 70
     0
 62
     7
  6
CONTINUOUS
370
    -3
390
9E9D
  0
LAYER
  5
9C07
102
{ACAD_XDICTIONARY
360
9EF1
102
}
330
9BE3
100
AcDbSymbolTableRecord
100
AcDbLayerTableRecord
  2
4
 70
     0
 62
     1
  6
CENTER
370
    -3
390
9E9D
  0
LAYER
  5
9C08
102
{ACAD_XDICTIONARY
360
9EF3
102
}
330
9BE3
100
AcDbSymbolTableRecord
100
AcDbLayerTableRecord
  2
5
 70
     0
 62
     6
  6
PHANTOM
370
    -3
390
9E9D
  0
LAYER
  5
9C09
102
{ACAD_XDICTIONARY
360
9EF5
102
}
330
9BE3
100
AcDbSymbolTableRecord
100
AcDbLayerTableRecord
  2
1
 70
     0
 62
     7
  6
CONTINUOUS
370
    -3
390
9E9D
  0
LAYER
  5
9C0A
102
{ACAD_XDICTIONARY
360
9EF7
102
}
330
9BE3
100
AcDbSymbolTableRecord
100
AcDbLayerTableRecord
  2
2
 70
     0
 62
     4
  6
CONTINUOUS
370
    -3
390
9E9D
  0
LAYER
  5
9C0B
102
{ACAD_XDICTIONARY
360
9EF9
102
}
330
9BE3
100
AcDbSymbolTableRecord
100
AcDbLayerTableRecord
  2
3
 70
     0
 62
     2
  6
DASHED
370
    -3
390
9E9D
  0
LAYER
  5
9C0C
102
{ACAD_XDICTIONARY
360
9EFB
102
}
330
9BE3
100
AcDbSymbolTableRecord
100
AcDbLayerTableRecord
  2
6
 70
     0
 62
     5
  6
CONTINUOUS
370
    -3
390
9E9D
  0
LAYER
  5
9C0D
102
{ACAD_XDICTIONARY
360
9EFD
102
}
330
9BE3
100
AcDbSymbolTableRecord
100
AcDbLayerTableRecord
  2
7
 70
     0
 62
     3
  6
CONTINUOUS
370
    -3
390
9E9D
  0
ENDTAB
  0
TABLE
  2
STYLE
  5
9BE4
330
0
100
AcDbSymbolTable
 70
     1
  0
STYLE
  5
9BF2
330
9BE4
100
AcDbSymbolTableRecord
100
AcDbTextStyleTableRecord
  2
STANDARD
 70
     0
 40
0.0
 41
1.0
 50
0.0
 71
     0
 42
5.0
  3
txt
  4

  0
ENDTAB
  0
TABLE
  2
VIEW
  5
9BE7
330
0
100
AcDbSymbolTable
 70
     0
  0
ENDTAB
  0
TABLE
  2
UCS
  5
9BE8
330
0
100
AcDbSymbolTable
 70
     0
  0
ENDTAB
  0
TABLE
  2
APPID
  5
9BEA
330
0
100
AcDbSymbolTable
 70
     3
  0
APPID
  5
9BF3
330
9BEA
100
AcDbSymbolTableRecord
100
AcDbRegAppTableRecord
  2
ACAD
 70
     0
  0
APPID
  5
9F09
330
9BEA
100
AcDbSymbolTableRecord
100
AcDbRegAppTableRecord
  2
ACAD_NAV_VCDISPLAY
 70
     0
  0
APPID
  5
9F42
330
9BEA
100
AcDbSymbolTableRecord
100
AcDbRegAppTableRecord
  2
ACAD_MLEADERVER
 70
     0
  0
ENDTAB
  0
TABLE
  2
DIMSTYLE
  5
9BEB
330
0
100
AcDbSymbolTable
 70
     1
100
AcDbDimStyleTable
 71
     0
  0
DIMSTYLE
105
9C0F
330
9BEB
100
AcDbSymbolTableRecord
100
AcDbDimStyleTableRecord
  2
STANDARD
 70
     0
 41
3.0
 42
1.0
 43
10.0
 44
1.0
 73
     0
 74
     0
 77
     3
 78
     8
140
3.2
141
0.0
147
1.0
172
     1
173
     1
284
     8
285
     8
286
     8
340
9BF2
  0
ENDTAB
  0
TABLE
  2
BLOCK_RECORD
  5
9BE2
330
0
100
AcDbSymbolTable
 70
     0
  0
BLOCK_RECORD
  5
9BFF
102
{ACAD_XDICTIONARY
360
9E97
102
}
330
9BE2
100
AcDbSymbolTableRecord
100
AcDbBlockTableRecord
  2
*MODEL_SPACE
340
9EEB
  0
BLOCK_RECORD
  5
9BFB
102
{ACAD_XDICTIONARY
360
9E95
102
}
330
9BE2
100
AcDbSymbolTableRecord
100
AcDbBlockTableRecord
  2
*PAPER_SPACE
340
9EEC
  0
ENDTAB
  0
ENDSEC
  0
SECTION
  2
BLOCKS
  0
BLOCK
  5
9C00
330
9BFF
100
AcDbEntity
  8
0
100
AcDbBlockBegin
  2
*MODEL_SPACE
 70
     0
 10
0.0
 20
0.0
 30
0.0
  3
*MODEL_SPACE
  1

  0
ENDBLK
  5
9C01
330
9BFF
100
AcDbEntity
  8
0
100
AcDbBlockEnd
  0
BLOCK
  5
9BFC
330
9BFB
100
AcDbEntity
 67
     1
  8
0
100
AcDbBlockBegin
  2
*PAPER_SPACE
 70
     0
 10
0.0
 20
0.0
 30
0.0
  3
*PAPER_SPACE
  1

  0
ENDBLK
  5
9BFD
330
9BFB
100
AcDbEntity
 67
     1
  8
0
100
AcDbBlockEnd
  0
ENDSEC
  0
SECTION
  2
ENTITIES
  0
TEXT
  5
9C17
330
9BFF
100
AcDbEntity
  8
7
  6
Continuous
100
AcDbText
 10
10.0
 20
18.0
 30
0.0
 40
3.0
  1
TYPE No.TL-96L
100
AcDbText
  0
TEXT
  5
9C18
330
9BFF
100
AcDbEntity
  8
7
  6
Continuous
100
AcDbText
 10
10.0
 20
26.0
 30
0.0
 40
3.0
  1
CODE No.1513
100
AcDbText
  0
TEXT
  5
9C19
330
9BFF
100
AcDbEntity
  8
1
  6
Continuous
100
AcDbText
 10
10.0
 20
10.0
 30
0.0
 40
1.399999999999999
  1
LAYER
100
AcDbText
  0
TEXT
  5
9C1A
330
9BFF
100
AcDbEntity
  8
1
  6
Continuous
100
AcDbText
 10
17.97951099999998
 20
10.04873699999998
 30
0.0
 40
1.399999999999999
  1
1
100
AcDbText
  0
TEXT
  5
9C1B
330
9BFF
100
AcDbEntity
  8
7
  6
Continuous
100
AcDbText
 10
29.97951099999999
 20
10.04873699999998
 30
0.0
 40
1.399999999999999
  1
7
100
AcDbText
  0
TEXT
  5
9C1C
330
9BFF
100
AcDbEntity
  8
4
  6
CENTER
100
AcDbText
 10
23.97951099999999
 20
10.04873699999998
 30
0.0
 40
1.399999999999999
  1
4
100
AcDbText
  0
TEXT
  5
9C1D
330
9BFF
100
AcDbEntity
  8
3
  6
DASHED
100
AcDbText
 10
21.979511
 20
10.04873699999998
 30
0.0
 40
1.399999999999999
  1
3
100
AcDbText
  0
TEXT
  5
9C1E
330
9BFF
100
AcDbEntity
  8
2
  6
Continuous
100
AcDbText
 10
19.97951099999999
 20
10.04873699999998
 30
0.0
 40
1.399999999999999
  1
2
100
AcDbText
  0
TEXT
  5
9C1F
330
9BFF
100
AcDbEntity
  8
6
  6
Continuous
100
AcDbText
 10
27.979511
 20
10.04873699999998
 30
0.0
 40
1.399999999999999
  1
6
100
AcDbText
  0
TEXT
  5
9C20
330
9BFF
100
AcDbEntity
  8
5
  6
PHANTOM
100
AcDbText
 10
25.97951099999999
 20
10.04873699999998
 30
0.0
 40
1.399999999999999
  1
5
100
AcDbText
  0
LINE
  5
9C21
330
9BFF
100
AcDbEntity
  8
4
  6
CENTER
100
AcDbLine
 10
43.45491899999998
 20
114.3185249999998
 30
0.0
 11
14.94542
 21
114.3185249999998
 31
0.0
  0
LINE
  5
9C22
330
9BFF
100
AcDbEntity
  8
4
  6
CENTER
100
AcDbLine
 10
29.400918
 20
129.394735
 30
0.0
 11
29.400918
 21
99.018125
 31
0.0
  0
LINE
  5
9C23
330
9BFF
100
AcDbEntity
  8
1
  6
Continuous
100
AcDbLine
 10
30.275918
 20
120.7185259999999
 30
0.0
 11
28.525918
 21
120.7185259999999
 31
0.0
  0
LINE
  5
9C24
330
9BFF
100
AcDbEntity
  8
1
  6
Continuous
100
AcDbLine
 10
30.275918
 20
119.1240289999999
 30
0.0
 11
30.275918
 21
120.7185259999999
 31
0.0
  0
LINE
  5
9C25
330
9BFF
100
AcDbEntity
  8
1
  6
Continuous
100
AcDbLine
 10
28.525918
 20
119.1240289999999
 30
0.0
 11
28.525918
 21
120.7185259999999
 31
0.0
  0
LINE
  5
9C26
330
9BFF
100
AcDbEntity
  8
1
  6
Continuous
100
AcDbLine
 10
28.525918
 20
118.119123
 30
0.0
 11
28.525918
 21
116.7185259999999
 31
0.0
  0
LINE
  5
9C27
330
9BFF
100
AcDbEntity
  8
1
  6
Continuous
100
AcDbLine
 10
30.275918
 20
118.119123
 30
0.0
 11
30.275918
 21
116.7185259999999
 31
0.0
  0
LINE
  5
9C28
330
9BFF
100
AcDbEntity
  8
1
  6
Continuous
100
AcDbLine
 10
28.525918
 20
116.7185259999999
 30
0.0
 11
30.275918
 21
116.7185259999999
 31
0.0
  0
LINE
  5
9C29
330
9BFF
100
AcDbEntity
  8
1
  6
Continuous
100
AcDbLine
 10
224.616029
 20
122.0185219999999
 30
0.0
 11
232.276323
 21
122.0185219999999
 31
0.0
  0
LINE
  5
9C2A
330
9BFF
100
AcDbEntity
  8
1
  6
Continuous
100
AcDbLine
 10
220.9244089999998
 20
118.4878969999999
 30
0.0
 11
222.76111
 21
117.4698389999998
 31
0.0
  0
LINE
  5
9C2B
330
9BFF
100
AcDbEntity
  8
1
  6
Continuous
100
AcDbLine
 10
232.615495
 20
106.796804
 30
0.0
 11
231.597383
 21
108.6334889999998
 31
0.0
  0
LINE
  5
9C2C
330
9BFF
100
AcDbEntity
  8
1
  6
Continuous
100
AcDbLine
 10
236.1461189999999
 20
118.148618
 30
0.0
 11
236.1461189999999
 21
110.488325
 31
0.0
  0
LINE
  5
9C2D
330
9BFF
100
AcDbEntity
  8
1
  6
Continuous
100
AcDbLine
 10
104.5512169999999
 20
192.018522
 30
0.0
 11
104.5512169999999
 21
176.7968119999999
 31
0.0
  0
LINE
  5
9C2E
330
9BFF
100
AcDbEntity
  8
1
  6
Continuous
100
AcDbLine
 10
106.1512229999999
 20
192.018522
 30
0.0
 11
106.1512229999999
 21
176.7968119999999
 31
0.0
  0
LINE
  5
9C2F
330
9BFF
100
AcDbEntity
  8
4
  6
CENTER
100
AcDbLine
 10
10.59331599999999
 20
184.318532
 30
0.0
 11
52.23661899999999
 21
184.318532
 31
0.0
  0
LINE
  5
9C30
330
9BFF
100
AcDbEntity
  8
1
  6
Continuous
100
AcDbLine
 10
13.000917
 20
187.318532
 30
0.0
 11
13.000917
 21
181.318532
 31
0.0
  0
LINE
  5
9C31
330
9BFF
100
AcDbEntity
  8
1
  6
Continuous
100
AcDbLine
 10
19.500917
 20
174.818532
 30
0.0
 11
28.500917
 21
174.818532
 31
0.0
  0
LINE
  5
9C32
330
9BFF
100
AcDbEntity
  8
1
  6
Continuous
100
AcDbLine
 10
32.500917
 20
193.818532
 30
0.0
 11
19.500917
 21
193.818532
 31
0.0
  0
LINE
  5
9C33
330
9BFF
100
AcDbEntity
  8
1
  6
Continuous
100
AcDbLine
 10
35.000917
 20
188.2185259999999
 30
0.0
 11
35.000917
 21
189.1185199999999
 31
0.0
  0
LINE
  5
9C34
330
9BFF
100
AcDbEntity
  8
1
  6
Continuous
100
AcDbLine
 10
32.500917
 20
193.818532
 30
0.0
 11
41.67082299999999
 21
191.701528
 31
0.0
  0
LINE
  5
9C35
330
9BFF
100
AcDbEntity
  8
1
  6
Continuous
100
AcDbLine
 10
35.000917
 20
189.1185199999999
 30
0.0
 11
49.000917
 21
189.1185199999999
 31
0.0
  0
LINE
  5
9C36
330
9BFF
100
AcDbEntity
  8
1
  6
Continuous
100
AcDbLine
 10
46.100915
 20
190.0185139999999
 30
0.0
 11
46.100915
 21
189.1185199999999
 31
0.0
  0
LINE
  5
9C37
330
9BFF
100
AcDbEntity
  8
1
  6
Continuous
100
AcDbLine
 10
46.100915
 20
190.0185139999999
 30
0.0
 11
48.000917
 21
190.0185139999999
 31
0.0
  0
LINE
  5
9C38
330
9BFF
100
AcDbEntity
  8
1
  6
Continuous
100
AcDbLine
 10
47.600923
 20
189.1185199999999
 30
0.0
 11
48.000932
 21
189.2257129999999
 31
0.0
  0
LINE
  5
9C39
330
9BFF
100
AcDbEntity
  8
1
  6
Continuous
100
AcDbLine
 10
48.000917
 20
189.225729
 30
0.0
 11
48.000917
 21
190.0185139999999
 31
0.0
  0
LINE
  5
9C3A
330
9BFF
100
AcDbEntity
  8
1
  6
Continuous
100
AcDbLine
 10
15.60091499999999
 20
186.818532
 30
0.0
 11
15.60091499999999
 21
181.8185319999998
 31
0.0
  0
LINE
  5
9C3B
330
9BFF
100
AcDbEntity
  8
1
  6
Continuous
100
AcDbLine
 10
19.400918
 20
181.8185319999998
 30
0.0
 11
19.400918
 21
186.818532
 31
0.0
  0
LINE
  5
9C3C
330
9BFF
100
AcDbEntity
  8
1
  6
Continuous
100
AcDbLine
 10
18.400918
 20
187.818532
 30
0.0
 11
16.600915
 21
187.818532
 31
0.0
  0
LINE
  5
9C3D
330
9BFF
100
AcDbEntity
  8
1
  6
Continuous
100
AcDbLine
 10
42.600915
 20
190.5322169999998
 30
0.0
 11
42.600915
 21
189.1185199999999
 31
0.0
  0
LINE
  5
9C3E
330
9BFF
100
AcDbEntity
  8
1
  6
Continuous
100
AcDbLine
 10
49.000917
 20
179.518529
 30
0.0
 11
36.20091399999999
 21
179.518529
 31
0.0
  0
LINE
  5
9C3F
330
9BFF
100
AcDbEntity
  8
1
  6
Continuous
100
AcDbLine
 10
29.200914
 20
182.598135
 30
0.0
 11
29.200914
 21
186.039022
 31
0.0
  0
LINE
  5
9C40
330
9BFF
100
AcDbEntity
  8
1
  6
Continuous
100
AcDbLine
 10
49.200914
 20
188.918523
 30
0.0
 11
49.200914
 21
179.718526
 31
0.0
  0
LINE
  5
9C41
330
9BFF
100
AcDbEntity
  8
1
  6
Continuous
100
AcDbLine
 10
36.000917
 20
188.2185259999999
 30
0.0
 11
36.000917
 21
180.4185229999999
 31
0.0
  0
LINE
  5
9C42
330
9BFF
100
AcDbEntity
  8
1
  6
Continuous
100
AcDbLine
 10
32.700914
 20
188.2185259999999
 30
0.0
 11
36.000917
 21
188.2185259999999
 31
0.0
  0
LINE
  5
9C43
330
9BFF
100
AcDbEntity
  8
1
  6
Continuous
100
AcDbLine
 10
32.700914
 20
180.4185229999999
 30
0.0
 11
36.000917
 21
180.4185229999999
 31
0.0
  0
LINE
  5
9C44
330
9BFF
100
AcDbEntity
  8
1
  6
Continuous
100
AcDbLine
 10
49.000924
 20
179.518529
 30
0.0
 11
49.200929
 21
179.718526
 31
0.0
  0
LINE
  5
9C45
330
9BFF
100
AcDbEntity
  8
1
  6
Continuous
100
AcDbLine
 10
49.000932
 20
189.118536
 30
0.0
 11
49.200929
 21
188.9185389999999
 31
0.0
  0
LINE
  5
9C46
330
9BFF
100
AcDbEntity
  8
1
  6
Continuous
100
AcDbLine
 10
36.000917
 20
179.718526
 30
0.0
 11
36.200925
 21
179.518529
 31
0.0
  0
LINE
  5
9C47
330
9BFF
100
AcDbEntity
  8
1
  6
Continuous
100
AcDbLine
 10
36.00092399999999
 20
188.9185389999999
 30
0.0
 11
36.20091699999999
 21
189.118536
 31
0.0
  0
LINE
  5
9C48
330
9BFF
100
AcDbEntity
  8
1
  6
Continuous
100
AcDbLine
 10
36.000917
 20
179.718526
 30
0.0
 11
36.000917
 21
180.4185229999999
 31
0.0
  0
LINE
  5
9C49
330
9BFF
100
AcDbEntity
  8
1
  6
Continuous
100
AcDbLine
 10
36.000917
 20
188.918523
 30
0.0
 11
36.000917
 21
188.2185259999999
 31
0.0
  0
LINE
  5
9C4A
330
9BFF
100
AcDbEntity
  8
1
  6
Continuous
100
AcDbLine
 10
16.600915
 20
180.8185319999998
 30
0.0
 11
18.400918
 21
180.8185319999998
 31
0.0
  0
LINE
  5
9C4B
330
9BFF
100
AcDbEntity
  8
1
  6
Continuous
100
AcDbLine
 10
70.85122
 20
105.323629
 30
0.0
 11
70.85122
 21
123.313428
 31
0.0
  0
LINE
  5
9C4C
330
9BFF
100
AcDbEntity
  8
1
  6
Continuous
100
AcDbLine
 10
76.15121600000001
 20
103.318525
 30
0.0
 11
75.151216
 21
103.318525
 31
0.0
  0
LINE
  5
9C4D
330
9BFF
100
AcDbEntity
  8
1
  6
Continuous
100
AcDbLine
 10
76.15121600000001
 20
104.818531
 30
0.0
 11
101.331217
 21
104.818531
 31
0.0
  0
LINE
  5
9C4E
330
9BFF
100
AcDbEntity
  8
1
  6
Continuous
100
AcDbLine
 10
102.551217
 20
105.618528
 30
0.0
 11
105.3512169999999
 21
105.618528
 31
0.0
  0
LINE
  5
9C4F
330
9BFF
100
AcDbEntity
  8
1
  6
Continuous
100
AcDbLine
 10
76.15121600000001
 20
125.318532
 30
0.0
 11
75.151216
 21
125.318532
 31
0.0
  0
LINE
  5
9C50
330
9BFF
100
AcDbEntity
  8
1
  6
Continuous
100
AcDbLine
 10
76.15121600000001
 20
123.818526
 30
0.0
 11
101.331217
 21
123.818526
 31
0.0
  0
LINE
  5
9C51
330
9BFF
100
AcDbEntity
  8
1
  6
Continuous
100
AcDbLine
 10
102.551217
 20
123.018529
 30
0.0
 11
103.7512219999999
 21
123.018529
 31
0.0
  0
LINE
  5
9C52
330
9BFF
100
AcDbEntity
  8
1
  6
Continuous
100
AcDbLine
 10
76.15121600000001
 20
103.318525
 30
0.0
 11
76.15121600000001
 21
125.318532
 31
0.0
  0
LINE
  5
9C53
330
9BFF
100
AcDbEntity
  8
1
  6
Continuous
100
AcDbLine
 10
75.151223
 20
103.3185319999999
 30
0.0
 11
70.85122
 21
105.323637
 31
0.0
  0
LINE
  5
9C54
330
9BFF
100
AcDbEntity
  8
1
  6
Continuous
100
AcDbLine
 10
75.151223
 20
125.318532
 30
0.0
 11
70.85122800000002
 21
123.313428
 31
0.0
  0
LINE
  5
9C55
330
9BFF
100
AcDbEntity
  8
4
  6
CENTER
100
AcDbLine
 10
67.67211999999999
 20
114.3185249999998
 30
0.0
 11
117.636033
 21
114.3185249999998
 31
0.0
  0
LINE
  5
9C56
330
9BFF
100
AcDbEntity
  8
1
  6
Continuous
100
AcDbLine
 10
105.8512169999999
 20
106.1185279999999
 30
0.0
 11
105.8512169999999
 21
107.7596259999999
 31
0.0
  0
LINE
  5
9C57
330
9BFF
100
AcDbEntity
  8
1
  6
Continuous
100
AcDbLine
 10
103.7512219999999
 20
106.541631
 30
0.0
 11
103.7512219999999
 21
123.018529
 31
0.0
  0
LINE
  5
9C58
330
9BFF
100
AcDbEntity
  8
1
  6
Continuous
100
AcDbLine
 10
105.3512169999999
 20
105.618528
 30
0.0
 11
105.8512169999999
 21
106.1185279999999
 31
0.0
  0
LINE
  5
9C59
330
9BFF
100
AcDbEntity
  8
1
  6
Continuous
100
AcDbLine
 10
115.851228
 20
116.818526
 30
0.0
 11
115.851228
 21
111.8185389999998
 31
0.0
  0
LINE
  5
9C5A
330
9BFF
100
AcDbEntity
  8
1
  6
Continuous
100
AcDbLine
 10
114.851228
 20
117.818526
 30
0.0
 11
106.1512229999999
 21
117.818526
 31
0.0
  0
LINE
  5
9C5B
330
9BFF
100
AcDbEntity
  8
1
  6
Continuous
100
AcDbLine
 10
106.3512199999999
 20
117.818526
 30
0.0
 11
106.3512199999999
 21
116.5456399999999
 31
0.0
  0
LINE
  5
9C5C
330
9BFF
100
AcDbEntity
  8
1
  6
Continuous
100
AcDbLine
 10
114.8512129999998
 20
117.818534
 30
0.0
 11
115.851228
 21
116.818526
 31
0.0
  0
LINE
  5
9C5D
330
9BFF
100
AcDbEntity
  8
1
  6
Continuous
100
AcDbLine
 10
114.851228
 20
110.8185229999999
 30
0.0
 11
106.1512229999999
 21
110.8185229999999
 31
0.0
  0
LINE
  5
9C5E
330
9BFF
100
AcDbEntity
  8
1
  6
Continuous
100
AcDbLine
 10
106.3512199999999
 20
110.8185229999999
 30
0.0
 11
106.3512199999999
 21
112.09141
 31
0.0
  0
LINE
  5
9C5F
330
9BFF
100
AcDbEntity
  8
1
  6
Continuous
100
AcDbLine
 10
114.851228
 20
110.8185389999998
 30
0.0
 11
115.851228
 21
111.8185389999998
 31
0.0
  0
LINE
  5
9C60
330
9BFF
100
AcDbEntity
  8
2
  6
Continuous
100
AcDbLine
 10
106.1512229999999
 20
115.91495
 30
0.0
 11
115.851228
 21
112.09141
 31
0.0
  0
LINE
  5
9C61
330
9BFF
100
AcDbEntity
  8
2
  6
Continuous
100
AcDbLine
 10
106.1512229999999
 20
112.722099
 30
0.0
 11
115.851228
 21
116.5456399999999
 31
0.0
  0
LINE
  5
9C62
330
9BFF
100
AcDbEntity
  8
1
  6
Continuous
100
AcDbLine
 10
75.151216
 20
125.318532
 30
0.0
 11
75.151216
 21
103.318525
 31
0.0
  0
LINE
  5
9C63
330
9BFF
100
AcDbEntity
  8
1
  6
Continuous
100
AcDbLine
 10
103.7512219999999
 20
106.541631
 30
0.0
 11
105.8512169999999
 21
106.541631
 31
0.0
  0
LINE
  5
9C64
330
9BFF
100
AcDbEntity
  8
1
  6
Continuous
100
AcDbLine
 10
103.7512219999999
 20
107.7596259999999
 30
0.0
 11
105.8512169999999
 21
107.7596259999999
 31
0.0
  0
LINE
  5
9C65
330
9BFF
100
AcDbEntity
  8
1
  6
Continuous
100
AcDbLine
 10
76.681216
 20
123.818526
 30
0.0
 11
76.681216
 21
119.5948959999999
 31
0.0
  0
LINE
  5
9C66
330
9BFF
100
AcDbEntity
  8
1
  6
Continuous
100
AcDbLine
 10
76.681216
 20
104.818531
 30
0.0
 11
76.681216
 21
109.042154
 31
0.0
  0
LINE
  5
9C67
330
9BFF
100
AcDbEntity
  8
1
  6
Continuous
100
AcDbLine
 10
102.551217
 20
123.018529
 30
0.0
 11
102.551217
 21
117.962711
 31
0.0
  0
LINE
  5
9C68
330
9BFF
100
AcDbEntity
  8
1
  6
Continuous
100
AcDbLine
 10
102.551217
 20
117.962711
 30
0.0
 11
101.331217
 21
119.5948959999999
 31
0.0
  0
LINE
  5
9C69
330
9BFF
100
AcDbEntity
  8
1
  6
Continuous
100
AcDbLine
 10
102.551217
 20
105.618528
 30
0.0
 11
102.551217
 21
110.6743389999998
 31
0.0
  0
LINE
  5
9C6A
330
9BFF
100
AcDbEntity
  8
1
  6
Continuous
100
AcDbLine
 10
102.551217
 20
110.6743389999998
 30
0.0
 11
101.331217
 21
109.042154
 31
0.0
  0
LINE
  5
9C6B
330
9BFF
100
AcDbEntity
  8
2
  6
Continuous
100
AcDbLine
 10
103.7512219999999
 20
117.962711
 30
0.0
 11
76.15121600000001
 21
109.042154
 31
0.0
  0
LINE
  5
9C6C
330
9BFF
100
AcDbEntity
  8
2
  6
Continuous
100
AcDbLine
 10
76.15121600000001
 20
119.5948959999999
 30
0.0
 11
103.7512219999999
 21
110.6743389999998
 31
0.0
  0
LINE
  5
9C6D
330
9BFF
100
AcDbEntity
  8
4
  6
CENTER
100
AcDbLine
 10
228.446122
 20
99.01637800000001
 30
0.0
 11
228.446122
 21
130.01859
 31
0.0
  0
LINE
  5
9C6E
330
9BFF
100
AcDbEntity
  8
1
  6
Continuous
100
AcDbLine
 10
220.5461279999999
 20
109.042154
 30
0.0
 11
220.5461279999999
 21
119.5948959999999
 31
0.0
  0
LINE
  5
9C6F
330
9BFF
100
AcDbEntity
  8
1
  6
Continuous
100
AcDbLine
 10
236.3461319999999
 20
109.042177
 30
0.0
 11
236.3461319999999
 21
119.594873
 31
0.0
  0
LINE
  5
9C70
330
9BFF
100
AcDbEntity
  8
4
  6
CENTER
100
AcDbLine
 10
214.967729
 20
114.3185249999998
 30
0.0
 11
242.1738289999999
 21
114.3185249999998
 31
0.0
  0
LINE
  5
9C71
330
9BFF
100
AcDbEntity
  8
1
  6
Continuous
100
AcDbLine
 10
225.74613
 20
116.5456399999999
 30
0.0
 11
225.74613
 21
112.09141
 31
0.0
  0
LINE
  5
9C72
330
9BFF
100
AcDbEntity
  8
1
  6
Continuous
100
AcDbLine
 10
231.1461299999999
 20
116.545621
 30
0.0
 11
231.1461299999999
 21
112.0914289999999
 31
0.0
  0
LINE
  5
9C73
330
9BFF
100
AcDbEntity
  8
1
  6
Continuous
100
AcDbLine
 10
70.85122
 20
193.313329
 30
0.0
 11
70.85122
 21
175.323629
 31
0.0
  0
LINE
  5
9C74
330
9BFF
100
AcDbEntity
  8
1
  6
Continuous
100
AcDbLine
 10
76.151223
 20
195.318532
 30
0.0
 11
75.151223
 21
195.318532
 31
0.0
  0
LINE
  5
9C75
330
9BFF
100
AcDbEntity
  8
1
  6
Continuous
100
AcDbLine
 10
76.151223
 20
173.3185169999999
 30
0.0
 11
76.151223
 21
195.3185169999999
 31
0.0
  0
LINE
  5
9C76
330
9BFF
100
AcDbEntity
  8
1
  6
Continuous
100
AcDbLine
 10
76.151223
 20
173.318532
 30
0.0
 11
75.151223
 21
173.318532
 31
0.0
  0
LINE
  5
9C77
330
9BFF
100
AcDbEntity
  8
1
  6
Continuous
100
AcDbLine
 10
75.15123100000002
 20
195.318532
 30
0.0
 11
70.85122
 21
193.313329
 31
0.0
  0
LINE
  5
9C78
330
9BFF
100
AcDbEntity
  8
1
  6
Continuous
100
AcDbLine
 10
75.151223
 20
173.3185169999999
 30
0.0
 11
70.85122800000002
 21
175.323614
 31
0.0
  0
LINE
  5
9C79
330
9BFF
100
AcDbEntity
  8
4
  6
CENTER
100
AcDbLine
 10
85.85122
 20
187.1869249999998
 30
0.0
 11
85.85122
 21
181.3241169999998
 31
0.0
  0
LINE
  5
9C7A
330
9BFF
100
AcDbEntity
  8
4
  6
CENTER
100
AcDbLine
 10
67.620126
 20
184.318532
 30
0.0
 11
117.695207
 21
184.318532
 31
0.0
  0
LINE
  5
9C7B
330
9BFF
100
AcDbEntity
  8
1
  6
Continuous
100
AcDbLine
 10
103.751214
 20
192.218526
 30
0.0
 11
103.751214
 21
176.418523
 31
0.0
  0
LINE
  5
9C7C
330
9BFF
100
AcDbEntity
  8
1
  6
Continuous
100
AcDbLine
 10
76.151223
 20
192.218526
 30
0.0
 11
103.751214
 21
192.218526
 31
0.0
  0
LINE
  5
9C7D
330
9BFF
100
AcDbEntity
  8
1
  6
Continuous
100
AcDbLine
 10
76.151223
 20
176.418523
 30
0.0
 11
103.751214
 21
176.418523
 31
0.0
  0
LINE
  5
9C7E
330
9BFF
100
AcDbEntity
  8
1
  6
Continuous
100
AcDbLine
 10
103.751214
 20
188.2185259999999
 30
0.0
 11
104.5512169999999
 21
188.2185259999999
 31
0.0
  0
LINE
  5
9C7F
330
9BFF
100
AcDbEntity
  8
1
  6
Continuous
100
AcDbLine
 10
104.5512169999999
 20
187.523321
 30
0.0
 11
103.751214
 21
187.523321
 31
0.0
  0
LINE
  5
9C80
330
9BFF
100
AcDbEntity
  8
1
  6
Continuous
100
AcDbLine
 10
104.5512169999999
 20
181.1136219999999
 30
0.0
 11
103.751214
 21
181.1136219999999
 31
0.0
  0
LINE
  5
9C81
330
9BFF
100
AcDbEntity
  8
1
  6
Continuous
100
AcDbLine
 10
104.5512169999999
 20
180.4185229999999
 30
0.0
 11
103.751214
 21
180.4185229999999
 31
0.0
  0
LINE
  5
9C82
330
9BFF
100
AcDbEntity
  8
1
  6
Continuous
100
AcDbLine
 10
115.851228
 20
186.018529
 30
0.0
 11
115.851228
 21
182.6185199999999
 31
0.0
  0
LINE
  5
9C83
330
9BFF
100
AcDbEntity
  8
1
  6
Continuous
100
AcDbLine
 10
103.751214
 20
187.018529
 30
0.0
 11
104.5512169999999
 21
187.018529
 31
0.0
  0
LINE
  5
9C84
330
9BFF
100
AcDbEntity
  8
1
  6
Continuous
100
AcDbLine
 10
103.751214
 20
181.6185199999999
 30
0.0
 11
104.5512169999999
 21
181.6185199999999
 31
0.0
  0
LINE
  5
9C85
330
9BFF
100
AcDbEntity
  8
1
  6
Continuous
100
AcDbLine
 10
75.151223
 20
173.3185169999999
 30
0.0
 11
75.151223
 21
195.3185169999999
 31
0.0
  0
LINE
  5
9C86
330
9BFF
100
AcDbEntity
  8
1
  6
Continuous
100
AcDbLine
 10
106.1512229999999
 20
187.018529
 30
0.0
 11
114.851228
 21
187.018529
 31
0.0
  0
LINE
  5
9C87
330
9BFF
100
AcDbEntity
  8
1
  6
Continuous
100
AcDbLine
 10
106.1512229999999
 20
181.6185199999999
 30
0.0
 11
114.851228
 21
181.6185199999999
 31
0.0
  0
LINE
  5
9C88
330
9BFF
100
AcDbEntity
  8
4
  6
CENTER
100
AcDbLine
 10
142.8588269999998
 20
44.31853199999999
 30
0.0
 11
182.054887
 21
44.31853199999999
 31
0.0
  0
LINE
  5
9C89
330
9BFF
100
AcDbEntity
  8
1
  6
Continuous
100
AcDbLine
 10
162.545213
 20
47.97293599999998
 30
0.0
 11
162.545213
 21
47.587728
 31
0.0
  0
LINE
  5
9C8A
330
9BFF
100
AcDbEntity
  8
1
  6
Continuous
100
AcDbLine
 10
164.5452129999999
 20
47.61522399999999
 30
0.0
 11
164.5452129999999
 21
47.23003099999998
 31
0.0
  0
LINE
  5
9C8B
330
9BFF
100
AcDbEntity
  8
1
  6
Continuous
100
AcDbLine
 10
163.145219
 20
50.818532
 30
0.0
 11
163.145219
 21
37.818532
 31
0.0
  0
LINE
  5
9C8C
330
9BFF
100
AcDbEntity
  8
1
  6
Continuous
100
AcDbLine
 10
163.945222
 20
50.818532
 30
0.0
 11
163.945222
 21
37.818532
 31
0.0
  0
LINE
  5
9C8D
330
9BFF
100
AcDbEntity
  8
1
  6
Continuous
100
AcDbLine
 10
163.145219
 20
50.818532
 30
0.0
 11
163.945222
 21
50.818532
 31
0.0
  0
LINE
  5
9C8E
330
9BFF
100
AcDbEntity
  8
1
  6
Continuous
100
AcDbLine
 10
163.145219
 20
37.818532
 30
0.0
 11
163.945222
 21
37.818532
 31
0.0
  0
LINE
  5
9C8F
330
9BFF
100
AcDbEntity
  8
1
  6
Continuous
100
AcDbLine
 10
162.545213
 20
47.972925
 30
0.0
 11
163.145204
 21
47.865625
 31
0.0
  0
LINE
  5
9C90
330
9BFF
100
AcDbEntity
  8
1
  6
Continuous
100
AcDbLine
 10
162.9441229999999
 20
46.835824
 30
0.0
 11
163.145219
 21
46.741628
 31
0.0
  0
LINE
  5
9C91
330
9BFF
100
AcDbEntity
  8
1
  6
Continuous
100
AcDbLine
 10
163.0239269999999
 20
45.017225
 30
0.0
 11
163.145219
 21
44.947031
 31
0.0
  0
LINE
  5
9C92
330
9BFF
100
AcDbEntity
  8
1
  6
Continuous
100
AcDbLine
 10
162.545228
 20
42.63875
 30
0.0
 11
163.145219
 21
42.357751
 31
0.0
  0
LINE
  5
9C93
330
9BFF
100
AcDbEntity
  8
1
  6
Continuous
100
AcDbLine
 10
162.545213
 20
41.02172999999999
 30
0.0
 11
163.145204
 21
40.914434
 31
0.0
  0
LINE
  5
9C94
330
9BFF
100
AcDbEntity
  8
1
  6
Continuous
100
AcDbLine
 10
162.545213
 20
47.587728
 30
0.0
 11
163.145204
 21
47.480428
 31
0.0
  0
LINE
  5
9C95
330
9BFF
100
AcDbEntity
  8
1
  6
Continuous
100
AcDbLine
 10
162.5482189999999
 20
46.39063
 30
0.0
 11
163.1452339999999
 21
46.111024
 31
0.0
  0
LINE
  5
9C96
330
9BFF
100
AcDbEntity
  8
1
  6
Continuous
100
AcDbLine
 10
162.6246199999999
 20
44.32403299999999
 30
0.0
 11
163.145219
 21
44.02263399999998
 31
0.0
  0
LINE
  5
9C97
330
9BFF
100
AcDbEntity
  8
1
  6
Continuous
100
AcDbLine
 10
162.545213
 20
42.17743399999998
 30
0.0
 11
163.145219
 21
41.896532
 31
0.0
  0
LINE
  5
9C98
330
9BFF
100
AcDbEntity
  8
1
  6
Continuous
100
AcDbLine
 10
162.545213
 20
40.643728
 30
0.0
 11
163.145204
 21
40.536428
 31
0.0
  0
LINE
  5
9C99
330
9BFF
100
AcDbEntity
  8
1
  6
Continuous
100
AcDbLine
 10
162.545213
 20
42.63873799999998
 30
0.0
 11
162.545213
 21
42.17743399999998
 31
0.0
  0
LINE
  5
9C9A
330
9BFF
100
AcDbEntity
  8
1
  6
Continuous
100
AcDbLine
 10
162.545213
 20
41.021734
 30
0.0
 11
162.545213
 21
40.643728
 31
0.0
  0
LINE
  5
9C9B
330
9BFF
100
AcDbEntity
  8
1
  6
Continuous
100
AcDbLine
 10
162.5599219999998
 20
46.403841
 30
0.0
 11
162.9558269999999
 21
46.848951
 31
0.0
  0
LINE
  5
9C9C
330
9BFF
100
AcDbEntity
  8
1
  6
Continuous
100
AcDbLine
 10
164.1493389999999
 20
45.640947
 30
0.0
 11
164.5452429999999
 21
46.08605299999999
 31
0.0
  0
LINE
  5
9C9D
330
9BFF
100
AcDbEntity
  8
1
  6
Continuous
100
AcDbLine
 10
162.6246199999999
 20
44.324037
 30
0.0
 11
163.0239269999999
 21
45.01724799999998
 31
0.0
  0
LINE
  5
9C9E
330
9BFF
100
AcDbEntity
  8
1
  6
Continuous
100
AcDbLine
 10
164.624604
 20
44.09073399999999
 30
0.0
 11
164.3201149999999
 21
43.34265300000001
 31
0.0
  0
LINE
  5
9C9F
330
9BFF
100
AcDbEntity
  8
1
  6
Continuous
100
AcDbLine
 10
163.945207
 20
47.72252799999999
 30
0.0
 11
164.5452129999999
 21
47.615228
 31
0.0
  0
LINE
  5
9CA0
330
9BFF
100
AcDbEntity
  8
1
  6
Continuous
100
AcDbLine
 10
163.945207
 20
47.337331
 30
0.0
 11
164.5452129999999
 21
47.23003099999998
 31
0.0
  0
LINE
  5
9CA1
330
9BFF
100
AcDbEntity
  8
1
  6
Continuous
100
AcDbLine
 10
163.945222
 20
46.36703599999999
 30
0.0
 11
164.5452129999999
 21
46.086038
 31
0.0
  0
LINE
  5
9CA2
330
9BFF
100
AcDbEntity
  8
1
  6
Continuous
100
AcDbLine
 10
163.945222
 20
45.73644
 30
0.0
 11
164.149324
 21
45.640939
 31
0.0
  0
LINE
  5
9CA3
330
9BFF
100
AcDbEntity
  8
1
  6
Continuous
100
AcDbLine
 10
163.945222
 20
44.483926
 30
0.0
 11
164.62462
 21
44.09073
 31
0.0
  0
LINE
  5
9CA4
330
9BFF
100
AcDbEntity
  8
1
  6
Continuous
100
AcDbLine
 10
163.945207
 20
43.55962499999999
 30
0.0
 11
164.3201149999999
 21
43.342622
 31
0.0
  0
LINE
  5
9CA5
330
9BFF
100
AcDbEntity
  8
1
  6
Continuous
100
AcDbLine
 10
163.945222
 20
41.98313699999999
 30
0.0
 11
164.545228
 21
41.702234
 31
0.0
  0
LINE
  5
9CA6
330
9BFF
100
AcDbEntity
  8
1
  6
Continuous
100
AcDbLine
 10
163.945222
 20
41.52193599999999
 30
0.0
 11
164.158525
 21
41.42203699999997
 31
0.0
  0
LINE
  5
9CA7
330
9BFF
100
AcDbEntity
  8
1
  6
Continuous
100
AcDbLine
 10
163.945207
 20
40.771318
 30
0.0
 11
164.5452129999999
 21
40.664018
 31
0.0
  0
LINE
  5
9CA8
330
9BFF
100
AcDbEntity
  8
1
  6
Continuous
100
AcDbLine
 10
163.945222
 20
40.393327
 30
0.0
 11
164.1361249999999
 21
40.359228
 31
0.0
  0
LINE
  5
9CA9
330
9BFF
100
AcDbEntity
  8
1
  6
Continuous
100
AcDbLine
 10
174.3342299999999
 20
49.81853199999999
 30
0.0
 11
174.3342299999999
 21
38.818532
 31
0.0
  0
LINE
  5
9CAA
330
9BFF
100
AcDbEntity
  8
1
  6
Continuous
100
AcDbLine
 10
178.5342269999999
 20
49.81853199999999
 30
0.0
 11
178.5342269999999
 21
38.818532
 31
0.0
  0
LINE
  5
9CAB
330
9BFF
100
AcDbEntity
  8
1
  6
Continuous
100
AcDbLine
 10
146.708024
 20
55.318532
 30
0.0
 11
146.708024
 21
33.31853199999999
 31
0.0
  0
LINE
  5
9CAC
330
9BFF
100
AcDbEntity
  8
1
  6
Continuous
100
AcDbLine
 10
150.2080239999999
 20
55.318532
 30
0.0
 11
150.2080239999999
 21
33.31853199999999
 31
0.0
  0
LINE
  5
9CAD
330
9BFF
100
AcDbEntity
  8
1
  6
Continuous
100
AcDbLine
 10
149.245729
 20
44.31853199999999
 30
0.0
 11
146.708024
 21
44.31853199999999
 31
0.0
  0
LINE
  5
9CAE
330
9BFF
100
AcDbEntity
  8
1
  6
Continuous
100
AcDbLine
 10
146.708024
 20
33.31853199999999
 30
0.0
 11
150.2080239999999
 21
33.31853199999999
 31
0.0
  0
LINE
  5
9CAF
330
9BFF
100
AcDbEntity
  8
1
  6
Continuous
100
AcDbLine
 10
146.708024
 20
55.318532
 30
0.0
 11
150.2080239999999
 21
55.318532
 31
0.0
  0
LINE
  5
9CB0
330
9BFF
100
AcDbEntity
  8
1
  6
Continuous
100
AcDbLine
 10
174.3342299999999
 20
49.81853199999999
 30
0.0
 11
178.5342269999999
 21
49.81853199999999
 31
0.0
  0
LINE
  5
9CB1
330
9BFF
100
AcDbEntity
  8
1
  6
Continuous
100
AcDbLine
 10
174.3342299999999
 20
38.818532
 30
0.0
 11
178.5342269999999
 21
38.818532
 31
0.0
  0
LINE
  5
9CB2
330
9BFF
100
AcDbEntity
  8
1
  6
Continuous
100
AcDbLine
 10
178.0429849999999
 20
44.31853199999999
 30
0.0
 11
174.8254709999999
 21
44.31853199999999
 31
0.0
  0
LINE
  5
9CB3
330
9BFF
100
AcDbEntity
  8
1
  6
Continuous
100
AcDbLine
 10
162.545228
 20
117.972929
 30
0.0
 11
162.545228
 21
117.587736
 31
0.0
  0
LINE
  5
9CB4
330
9BFF
100
AcDbEntity
  8
1
  6
Continuous
100
AcDbLine
 10
164.545228
 20
117.615232
 30
0.0
 11
164.545228
 21
117.2300239999999
 31
0.0
  0
LINE
  5
9CB5
330
9BFF
100
AcDbEntity
  8
1
  6
Continuous
100
AcDbLine
 10
163.145219
 20
120.8185249999998
 30
0.0
 11
163.145219
 21
107.8185249999998
 31
0.0
  0
LINE
  5
9CB6
330
9BFF
100
AcDbEntity
  8
1
  6
Continuous
100
AcDbLine
 10
163.945222
 20
120.8185249999998
 30
0.0
 11
163.945222
 21
107.8185249999998
 31
0.0
  0
LINE
  5
9CB7
330
9BFF
100
AcDbEntity
  8
1
  6
Continuous
100
AcDbLine
 10
163.145219
 20
120.8185249999998
 30
0.0
 11
163.945222
 21
120.8185249999998
 31
0.0
  0
LINE
  5
9CB8
330
9BFF
100
AcDbEntity
  8
1
  6
Continuous
100
AcDbLine
 10
163.145219
 20
107.8185249999998
 30
0.0
 11
163.945222
 21
107.8185249999998
 31
0.0
  0
LINE
  5
9CB9
330
9BFF
100
AcDbEntity
  8
1
  6
Continuous
100
AcDbLine
 10
162.545228
 20
117.972921
 30
0.0
 11
163.1452339999999
 21
117.8656209999999
 31
0.0
  0
LINE
  5
9CBA
330
9BFF
100
AcDbEntity
  8
1
  6
Continuous
100
AcDbLine
 10
162.9440469999998
 20
116.835828
 30
0.0
 11
163.1452339999999
 21
116.741628
 31
0.0
  0
LINE
  5
9CBB
330
9BFF
100
AcDbEntity
  8
1
  6
Continuous
100
AcDbLine
 10
163.0239269999999
 20
115.0172399999999
 30
0.0
 11
163.1452339999999
 21
114.9470419999999
 31
0.0
  0
LINE
  5
9CBC
330
9BFF
100
AcDbEntity
  8
1
  6
Continuous
100
AcDbLine
 10
162.545228
 20
112.6387079999999
 30
0.0
 11
163.145219
 21
112.357809
 31
0.0
  0
LINE
  5
9CBD
330
9BFF
100
AcDbEntity
  8
1
  6
Continuous
100
AcDbLine
 10
162.545228
 20
111.02181
 30
0.0
 11
163.145219
 21
110.914411
 31
0.0
  0
LINE
  5
9CBE
330
9BFF
100
AcDbEntity
  8
1
  6
Continuous
100
AcDbLine
 10
162.5452429999999
 20
117.5877279999999
 30
0.0
 11
163.1452339999999
 21
117.480428
 31
0.0
  0
LINE
  5
9CBF
330
9BFF
100
AcDbEntity
  8
1
  6
Continuous
100
AcDbLine
 10
162.5481269999999
 20
116.390623
 30
0.0
 11
163.145219
 21
116.1110209999998
 31
0.0
  0
LINE
  5
9CC0
330
9BFF
100
AcDbEntity
  8
1
  6
Continuous
100
AcDbLine
 10
162.624528
 20
114.324033
 30
0.0
 11
163.1452339999999
 21
114.022634
 31
0.0
  0
LINE
  5
9CC1
330
9BFF
100
AcDbEntity
  8
1
  6
Continuous
100
AcDbLine
 10
162.545228
 20
112.177404
 30
0.0
 11
163.1452339999999
 21
111.896505
 31
0.0
  0
LINE
  5
9CC2
330
9BFF
100
AcDbEntity
  8
1
  6
Continuous
100
AcDbLine
 10
162.545228
 20
110.6437279999999
 30
0.0
 11
163.1452499999998
 21
110.536428
 31
0.0
  0
LINE
  5
9CC3
330
9BFF
100
AcDbEntity
  8
1
  6
Continuous
100
AcDbLine
 10
162.545228
 20
112.6387229999999
 30
0.0
 11
162.545228
 21
112.1774269999999
 31
0.0
  0
LINE
  5
9CC4
330
9BFF
100
AcDbEntity
  8
1
  6
Continuous
100
AcDbLine
 10
162.545228
 20
111.021825
 30
0.0
 11
162.545228
 21
110.6437279999999
 31
0.0
  0
LINE
  5
9CC5
330
9BFF
100
AcDbEntity
  8
1
  6
Continuous
100
AcDbLine
 10
162.5599219999998
 20
116.4038209999998
 30
0.0
 11
162.9558269999999
 21
116.84892
 31
0.0
  0
LINE
  5
9CC6
330
9BFF
100
AcDbEntity
  8
1
  6
Continuous
100
AcDbLine
 10
164.149324
 20
115.6409199999998
 30
0.0
 11
164.545228
 21
116.086034
 31
0.0
  0
LINE
  5
9CC7
330
9BFF
100
AcDbEntity
  8
1
  6
Continuous
100
AcDbLine
 10
162.6245429999999
 20
114.3240409999998
 30
0.0
 11
163.023942
 21
115.0172399999999
 31
0.0
  0
LINE
  5
9CC8
330
9BFF
100
AcDbEntity
  8
1
  6
Continuous
100
AcDbLine
 10
164.6245129999998
 20
114.0907189999998
 30
0.0
 11
164.3201149999999
 21
113.3426339999999
 31
0.0
  0
LINE
  5
9CC9
330
9BFF
100
AcDbEntity
  8
1
  6
Continuous
100
AcDbLine
 10
163.9452369999999
 20
117.722524
 30
0.0
 11
164.5452429999999
 21
117.6152239999999
 31
0.0
  0
LINE
  5
9CCA
330
9BFF
100
AcDbEntity
  8
1
  6
Continuous
100
AcDbLine
 10
163.9452369999999
 20
117.337331
 30
0.0
 11
164.5452429999999
 21
117.230031
 31
0.0
  0
LINE
  5
9CCB
330
9BFF
100
AcDbEntity
  8
1
  6
Continuous
100
AcDbLine
 10
163.9452369999999
 20
116.367033
 30
0.0
 11
164.545228
 21
116.086034
 31
0.0
  0
LINE
  5
9CCC
330
9BFF
100
AcDbEntity
  8
1
  6
Continuous
100
AcDbLine
 10
163.9452369999999
 20
115.73641
 30
0.0
 11
164.1493389999999
 21
115.6409129999999
 31
0.0
  0
LINE
  5
9CCD
330
9BFF
100
AcDbEntity
  8
1
  6
Continuous
100
AcDbLine
 10
163.945222
 20
114.4839219999998
 30
0.0
 11
164.624528
 21
114.090726
 31
0.0
  0
LINE
  5
9CCE
330
9BFF
100
AcDbEntity
  8
1
  6
Continuous
100
AcDbLine
 10
163.945222
 20
113.5596209999998
 30
0.0
 11
164.320131
 21
113.3426179999998
 31
0.0
  0
LINE
  5
9CCF
330
9BFF
100
AcDbEntity
  8
1
  6
Continuous
100
AcDbLine
 10
163.945222
 20
111.983106
 30
0.0
 11
164.545228
 21
111.7022069999999
 31
0.0
  0
LINE
  5
9CD0
330
9BFF
100
AcDbEntity
  8
1
  6
Continuous
100
AcDbLine
 10
163.945222
 20
111.5219169999999
 30
0.0
 11
164.1584179999999
 21
111.422018
 31
0.0
  0
LINE
  5
9CD1
330
9BFF
100
AcDbEntity
  8
1
  6
Continuous
100
AcDbLine
 10
163.9452369999999
 20
110.7713139999999
 30
0.0
 11
164.545228
 21
110.6640139999999
 31
0.0
  0
LINE
  5
9CD2
330
9BFF
100
AcDbEntity
  8
1
  6
Continuous
100
AcDbLine
 10
163.945222
 20
110.393293
 30
0.0
 11
164.136018
 21
110.3591969999999
 31
0.0
  0
LINE
  5
9CD3
330
9BFF
100
AcDbEntity
  8
1
  6
Continuous
100
AcDbLine
 10
146.708024
 20
127.0202229999999
 30
0.0
 11
146.708024
 21
101.6168189999998
 31
0.0
  0
LINE
  5
9CD4
330
9BFF
100
AcDbEntity
  8
1
  6
Continuous
100
AcDbLine
 10
150.2080239999999
 20
125.318532
 30
0.0
 11
150.2080239999999
 21
103.318525
 31
0.0
  0
LINE
  5
9CD5
330
9BFF
100
AcDbEntity
  8
1
  6
Continuous
100
AcDbLine
 10
174.3342299999999
 20
119.8185249999998
 30
0.0
 11
174.3342299999999
 21
108.8185249999998
 31
0.0
  0
LINE
  5
9CD6
330
9BFF
100
AcDbEntity
  8
1
  6
Continuous
100
AcDbLine
 10
178.5342269999999
 20
119.8185249999998
 30
0.0
 11
178.5342269999999
 21
108.8185249999998
 31
0.0
  0
LINE
  5
9CD7
330
9BFF
100
AcDbEntity
  8
4
  6
CENTER
100
AcDbLine
 10
142.8588269999998
 20
114.3185249999998
 30
0.0
 11
182.054887
 21
114.3185249999998
 31
0.0
  0
LINE
  5
9CD8
330
9BFF
100
AcDbEntity
  8
1
  6
Continuous
100
AcDbLine
 10
146.708024
 20
101.6168189999998
 30
0.0
 11
149.225541
 21
101.6168189999998
 31
0.0
  0
LINE
  5
9CD9
330
9BFF
100
AcDbEntity
  8
1
  6
Continuous
100
AcDbLine
 10
146.708024
 20
127.0202229999999
 30
0.0
 11
149.225541
 21
127.0202229999999
 31
0.0
  0
LINE
  5
9CDA
330
9BFF
100
AcDbEntity
  8
1
  6
Continuous
100
AcDbLine
 10
146.708024
 20
120.6693699999999
 30
0.0
 11
149.225541
 21
120.6693699999999
 31
0.0
  0
LINE
  5
9CDB
330
9BFF
100
AcDbEntity
  8
1
  6
Continuous
100
AcDbLine
 10
146.708024
 20
107.9676719999998
 30
0.0
 11
149.225541
 21
107.9676719999998
 31
0.0
  0
LINE
  5
9CDC
330
9BFF
100
AcDbEntity
  8
1
  6
Continuous
100
AcDbLine
 10
149.225557
 20
101.616827
 30
0.0
 11
150.2080239999999
 21
103.318517
 31
0.0
  0
LINE
  5
9CDD
330
9BFF
100
AcDbEntity
  8
1
  6
Continuous
100
AcDbLine
 10
149.225541
 20
127.0202379999999
 30
0.0
 11
150.2080239999999
 21
125.318532
 31
0.0
  0
LINE
  5
9CDE
330
9BFF
100
AcDbEntity
  8
1
  6
Continuous
100
AcDbLine
 10
174.8254709999999
 20
120.6693699999999
 30
0.0
 11
178.0429849999999
 21
120.6693699999999
 31
0.0
  0
LINE
  5
9CDF
330
9BFF
100
AcDbEntity
  8
1
  6
Continuous
100
AcDbLine
 10
174.8254709999999
 20
117.4939549999999
 30
0.0
 11
178.0429849999999
 21
117.4939549999999
 31
0.0
  0
LINE
  5
9CE0
330
9BFF
100
AcDbEntity
  8
1
  6
Continuous
100
AcDbLine
 10
174.8254709999999
 20
111.143095
 30
0.0
 11
178.0429849999999
 21
111.143095
 31
0.0
  0
LINE
  5
9CE1
330
9BFF
100
AcDbEntity
  8
1
  6
Continuous
100
AcDbLine
 10
174.8254709999999
 20
107.9676639999999
 30
0.0
 11
178.0429849999999
 21
107.9676639999999
 31
0.0
  0
LINE
  5
9CE2
330
9BFF
100
AcDbEntity
  8
1
  6
Continuous
100
AcDbLine
 10
178.04297
 20
120.669385
 30
0.0
 11
178.5342269999999
 21
119.8185249999998
 31
0.0
  0
LINE
  5
9CE3
330
9BFF
100
AcDbEntity
  8
1
  6
Continuous
100
AcDbLine
 10
174.3342299999999
 20
119.8185249999998
 30
0.0
 11
174.825486
 21
120.6693929999999
 31
0.0
  0
LINE
  5
9CE4
330
9BFF
100
AcDbEntity
  8
1
  6
Continuous
100
AcDbLine
 10
174.334214
 20
108.8185169999998
 30
0.0
 11
174.825456
 21
107.9676639999999
 31
0.0
  0
LINE
  5
9CE5
330
9BFF
100
AcDbEntity
  8
1
  6
Continuous
100
AcDbLine
 10
178.0429849999999
 20
107.9676639999999
 30
0.0
 11
178.534242
 21
108.818532
 31
0.0
  0
LINE
  5
9CE6
330
9BFF
100
AcDbEntity
  8
1
  6
Continuous
100
AcDbLine
 10
114.851228
 20
187.018529
 30
0.0
 11
115.851228
 21
186.018529
 31
0.0
  0
LINE
  5
9CE7
330
9BFF
100
AcDbEntity
  8
1
  6
Continuous
100
AcDbLine
 10
115.851228
 20
182.6185199999999
 30
0.0
 11
114.851228
 21
181.6185199999999
 31
0.0
  0
LINE
  5
9CE8
330
9BFF
100
AcDbEntity
  8
1
  6
Continuous
100
AcDbLine
 10
114.851228
 20
187.018529
 30
0.0
 11
114.851228
 21
181.6185199999999
 31
0.0
  0
LINE
  5
9CE9
330
9BFF
100
AcDbEntity
  8
2
  6
Continuous
100
AcDbLine
 10
76.681216
 20
105.360021
 30
0.0
 11
102.156993
 21
105.360021
 31
0.0
  0
LINE
  5
9CEA
330
9BFF
100
AcDbEntity
  8
2
  6
Continuous
100
AcDbLine
 10
76.681216
 20
123.2770289999999
 30
0.0
 11
102.157005
 21
123.2770289999999
 31
0.0
  0
LINE
  5
9CEB
330
9BFF
100
AcDbEntity
  8
2
  6
Continuous
100
AcDbLine
 10
76.15121600000001
 20
105.054032
 30
0.0
 11
76.681216
 21
105.360021
 31
0.0
  0
LINE
  5
9CEC
330
9BFF
100
AcDbEntity
  8
2
  6
Continuous
100
AcDbLine
 10
76.15121600000001
 20
123.5830299999999
 30
0.0
 11
76.681216
 21
123.2770289999999
 31
0.0
  0
LINE
  5
9CED
330
9BFF
100
AcDbEntity
  8
1
  6
Continuous
100
AcDbLine
 10
104.5512169999999
 20
122.0185219999999
 30
0.0
 11
104.5512169999999
 21
107.7596259999999
 31
0.0
  0
LINE
  5
9CEE
330
9BFF
100
AcDbEntity
  8
1
  6
Continuous
100
AcDbLine
 10
106.1512229999999
 20
122.0185219999999
 30
0.0
 11
106.1512229999999
 21
106.796804
 31
0.0
  0
LINE
  5
9CEF
330
9BFF
100
AcDbEntity
  8
1
  6
Continuous
100
AcDbLine
 10
104.5512169999999
 20
110.918523
 30
0.0
 11
103.7512219999999
 21
110.918523
 31
0.0
  0
LINE
  5
9CF0
330
9BFF
100
AcDbEntity
  8
1
  6
Continuous
100
AcDbLine
 10
104.5512169999999
 20
117.7185259999999
 30
0.0
 11
103.7512219999999
 21
117.7185259999999
 31
0.0
  0
LINE
  5
9CF1
330
9BFF
100
AcDbEntity
  8
1
  6
Continuous
100
AcDbLine
 10
114.8511969999999
 20
117.818526
 30
0.0
 11
114.8511969999999
 21
116.5456399999999
 31
0.0
  0
LINE
  5
9CF2
330
9BFF
100
AcDbEntity
  8
1
  6
Continuous
100
AcDbLine
 10
114.8511969999999
 20
112.09141
 30
0.0
 11
114.8511969999999
 21
110.8185229999999
 31
0.0
  0
LINE
  5
9CF3
330
9BFF
100
AcDbEntity
  8
2
  6
Continuous
100
AcDbLine
 10
106.3512199999999
 20
117.4125269999999
 30
0.0
 11
115.257223
 21
117.4125269999999
 31
0.0
  0
LINE
  5
9CF4
330
9BFF
100
AcDbEntity
  8
2
  6
Continuous
100
AcDbLine
 10
106.3512199999999
 20
111.224523
 30
0.0
 11
115.257212
 21
111.224523
 31
0.0
  0
LINE
  5
9CF5
330
9BFF
100
AcDbEntity
  8
2
  6
Continuous
100
AcDbLine
 10
106.1512159999999
 20
111.0245259999999
 30
0.0
 11
106.351228
 21
111.224531
 31
0.0
  0
LINE
  5
9CF6
330
9BFF
100
AcDbEntity
  8
2
  6
Continuous
100
AcDbLine
 10
106.1512229999999
 20
117.6125159999999
 30
0.0
 11
106.3512199999999
 21
117.4125189999999
 31
0.0
  0
LINE
  5
9CF7
330
9BFF
100
AcDbEntity
  8
1
  6
Continuous
100
AcDbLine
 10
228.446122
 20
120.6693699999999
 30
0.0
 11
233.946122
 21
117.4939469999999
 31
0.0
  0
LINE
  5
9CF8
330
9BFF
100
AcDbEntity
  8
1
  6
Continuous
100
AcDbLine
 10
228.446122
 20
107.9676719999998
 30
0.0
 11
233.946122
 21
111.1431019999999
 31
0.0
  0
LINE
  5
9CF9
330
9BFF
100
AcDbEntity
  8
1
  6
Continuous
100
AcDbLine
 10
228.446122
 20
107.9676639999999
 30
0.0
 11
222.9461220000001
 21
111.1430869999999
 31
0.0
  0
LINE
  5
9CFA
330
9BFF
100
AcDbEntity
  8
1
  6
Continuous
100
AcDbLine
 10
233.946122
 20
111.1431019999999
 30
0.0
 11
233.946122
 21
117.4939469999999
 31
0.0
  0
LINE
  5
9CFB
330
9BFF
100
AcDbEntity
  8
1
  6
Continuous
100
AcDbLine
 10
228.446122
 20
120.669385
 30
0.0
 11
222.9461220000001
 21
117.4939549999999
 31
0.0
  0
LINE
  5
9CFC
330
9BFF
100
AcDbEntity
  8
1
  6
Continuous
100
AcDbLine
 10
222.9461220000001
 20
111.1431019999999
 30
0.0
 11
222.9461220000001
 21
117.4939469999999
 31
0.0
  0
LINE
  5
9CFD
330
9BFF
100
AcDbEntity
  8
1
  6
Continuous
100
AcDbLine
 10
239.4461069999999
 20
107.9676719999998
 30
0.0
 11
228.446122
 21
101.616827
 31
0.0
  0
LINE
  5
9CFE
330
9BFF
100
AcDbEntity
  8
1
  6
Continuous
100
AcDbLine
 10
228.446122
 20
127.0202229999999
 30
0.0
 11
217.446122
 21
120.669385
 31
0.0
  0
LINE
  5
9CFF
330
9BFF
100
AcDbEntity
  8
1
  6
Continuous
100
AcDbLine
 10
217.446122
 20
107.9676719999998
 30
0.0
 11
217.446122
 21
120.6693779999999
 31
0.0
  0
LINE
  5
9D00
330
9BFF
100
AcDbEntity
  8
1
  6
Continuous
100
AcDbLine
 10
239.446138
 20
107.9676719999998
 30
0.0
 11
239.446138
 21
120.6693779999999
 31
0.0
  0
LINE
  5
9D01
330
9BFF
100
AcDbEntity
  8
1
  6
Continuous
100
AcDbLine
 10
228.446122
 20
101.6168109999999
 30
0.0
 11
217.446122
 21
107.9676639999999
 31
0.0
  0
LINE
  5
9D02
330
9BFF
100
AcDbEntity
  8
1
  6
Continuous
100
AcDbLine
 10
239.4461069999999
 20
120.6693699999999
 30
0.0
 11
228.446122
 21
127.0202229999999
 31
0.0
  0
LINE
  5
9D03
330
9BFF
100
AcDbEntity
  8
1
  6
Continuous
100
AcDbLine
 10
104.5512169999999
 20
36.61852800000001
 30
0.0
 11
104.5512169999999
 21
40.418523
 31
0.0
  0
LINE
  5
9D04
330
9BFF
100
AcDbEntity
  8
1
  6
Continuous
100
AcDbLine
 10
106.1512229999999
 20
36.61852800000001
 30
0.0
 11
106.1512229999999
 21
51.840238
 31
0.0
  0
LINE
  5
9D05
330
9BFF
100
AcDbEntity
  8
1
  6
Continuous
100
AcDbLine
 10
70.85122
 20
35.32372
 30
0.0
 11
70.85122
 21
53.313421
 31
0.0
  0
LINE
  5
9D06
330
9BFF
100
AcDbEntity
  8
1
  6
Continuous
100
AcDbLine
 10
76.151223
 20
33.318517
 30
0.0
 11
75.151223
 21
33.318517
 31
0.0
  0
LINE
  5
9D07
330
9BFF
100
AcDbEntity
  8
1
  6
Continuous
100
AcDbLine
 10
76.151223
 20
55.318532
 30
0.0
 11
76.151223
 21
33.31853199999999
 31
0.0
  0
LINE
  5
9D08
330
9BFF
100
AcDbEntity
  8
1
  6
Continuous
100
AcDbLine
 10
76.151223
 20
55.318517
 30
0.0
 11
75.151223
 21
55.318517
 31
0.0
  0
LINE
  5
9D09
330
9BFF
100
AcDbEntity
  8
1
  6
Continuous
100
AcDbLine
 10
75.15123100000002
 20
33.318517
 30
0.0
 11
70.85122
 21
35.32372
 31
0.0
  0
LINE
  5
9D0A
330
9BFF
100
AcDbEntity
  8
1
  6
Continuous
100
AcDbLine
 10
75.151216
 20
55.318521
 30
0.0
 11
70.85122800000002
 21
53.313425
 31
0.0
  0
LINE
  5
9D0B
330
9BFF
100
AcDbEntity
  8
4
  6
CENTER
100
AcDbLine
 10
67.620126
 20
44.318517
 30
0.0
 11
117.695207
 21
44.318517
 31
0.0
  0
LINE
  5
9D0C
330
9BFF
100
AcDbEntity
  8
1
  6
Continuous
100
AcDbLine
 10
103.751214
 20
36.418523
 30
0.0
 11
103.751214
 21
40.418523
 31
0.0
  0
LINE
  5
9D0D
330
9BFF
100
AcDbEntity
  8
1
  6
Continuous
100
AcDbLine
 10
76.151223
 20
36.418523
 30
0.0
 11
103.751214
 21
36.418523
 31
0.0
  0
LINE
  5
9D0E
330
9BFF
100
AcDbEntity
  8
1
  6
Continuous
100
AcDbLine
 10
76.151223
 20
52.218526
 30
0.0
 11
103.751214
 21
52.218526
 31
0.0
  0
LINE
  5
9D0F
330
9BFF
100
AcDbEntity
  8
1
  6
Continuous
100
AcDbLine
 10
103.751214
 20
40.418523
 30
0.0
 11
105.8512169999999
 21
40.418523
 31
0.0
  0
LINE
  5
9D10
330
9BFF
100
AcDbEntity
  8
1
  6
Continuous
100
AcDbLine
 10
105.8512169999999
 20
48.21852599999999
 30
0.0
 11
103.751214
 21
48.21852599999999
 31
0.0
  0
LINE
  5
9D11
330
9BFF
100
AcDbEntity
  8
1
  6
Continuous
100
AcDbLine
 10
115.851228
 20
42.61852
 30
0.0
 11
115.851228
 21
46.01852899999999
 31
0.0
  0
LINE
  5
9D12
330
9BFF
100
AcDbEntity
  8
1
  6
Continuous
100
AcDbLine
 10
75.151223
 20
55.318532
 30
0.0
 11
75.151223
 21
33.31853199999999
 31
0.0
  0
LINE
  5
9D13
330
9BFF
100
AcDbEntity
  8
1
  6
Continuous
100
AcDbLine
 10
106.1512229999999
 20
41.61851999999998
 30
0.0
 11
114.851228
 21
41.61851999999998
 31
0.0
  0
LINE
  5
9D14
330
9BFF
100
AcDbEntity
  8
1
  6
Continuous
100
AcDbLine
 10
106.1512229999999
 20
47.018529
 30
0.0
 11
114.851228
 21
47.018529
 31
0.0
  0
LINE
  5
9D15
330
9BFF
100
AcDbEntity
  8
1
  6
Continuous
100
AcDbLine
 10
114.851228
 20
41.61852399999999
 30
0.0
 11
115.851228
 21
42.618524
 31
0.0
  0
LINE
  5
9D16
330
9BFF
100
AcDbEntity
  8
1
  6
Continuous
100
AcDbLine
 10
115.851228
 20
46.01852899999999
 30
0.0
 11
114.851228
 21
47.018529
 31
0.0
  0
LINE
  5
9D17
330
9BFF
100
AcDbEntity
  8
1
  6
Continuous
100
AcDbLine
 10
114.851228
 20
41.61851999999998
 30
0.0
 11
114.851228
 21
47.018529
 31
0.0
  0
LINE
  5
9D18
330
9BFF
100
AcDbEntity
  8
4
  6
CENTER
100
AcDbLine
 10
142.8588269999998
 20
184.318532
 30
0.0
 11
182.054887
 21
184.318532
 31
0.0
  0
LINE
  5
9D19
330
9BFF
100
AcDbEntity
  8
1
  6
Continuous
100
AcDbLine
 10
162.545213
 20
187.9729359999998
 30
0.0
 11
162.545213
 21
187.587728
 31
0.0
  0
LINE
  5
9D1A
330
9BFF
100
AcDbEntity
  8
1
  6
Continuous
100
AcDbLine
 10
164.5452129999999
 20
187.615224
 30
0.0
 11
164.5452129999999
 21
187.2300309999999
 31
0.0
  0
LINE
  5
9D1B
330
9BFF
100
AcDbEntity
  8
1
  6
Continuous
100
AcDbLine
 10
163.145219
 20
190.818532
 30
0.0
 11
163.145219
 21
177.818532
 31
0.0
  0
LINE
  5
9D1C
330
9BFF
100
AcDbEntity
  8
1
  6
Continuous
100
AcDbLine
 10
163.945222
 20
190.818532
 30
0.0
 11
163.945222
 21
177.818532
 31
0.0
  0
LINE
  5
9D1D
330
9BFF
100
AcDbEntity
  8
1
  6
Continuous
100
AcDbLine
 10
163.145219
 20
190.818532
 30
0.0
 11
163.945222
 21
190.818532
 31
0.0
  0
LINE
  5
9D1E
330
9BFF
100
AcDbEntity
  8
1
  6
Continuous
100
AcDbLine
 10
163.145219
 20
177.818532
 30
0.0
 11
163.945222
 21
177.818532
 31
0.0
  0
LINE
  5
9D1F
330
9BFF
100
AcDbEntity
  8
1
  6
Continuous
100
AcDbLine
 10
162.545228
 20
187.9729209999999
 30
0.0
 11
163.145219
 21
187.865621
 31
0.0
  0
LINE
  5
9D20
330
9BFF
100
AcDbEntity
  8
1
  6
Continuous
100
AcDbLine
 10
162.9441229999999
 20
186.835821
 30
0.0
 11
163.145219
 21
186.741628
 31
0.0
  0
LINE
  5
9D21
330
9BFF
100
AcDbEntity
  8
1
  6
Continuous
100
AcDbLine
 10
163.0239269999999
 20
185.017232
 30
0.0
 11
163.145219
 21
184.9470269999999
 31
0.0
  0
LINE
  5
9D22
330
9BFF
100
AcDbEntity
  8
1
  6
Continuous
100
AcDbLine
 10
162.545228
 20
182.638753
 30
0.0
 11
163.145219
 21
182.3577479999999
 31
0.0
  0
LINE
  5
9D23
330
9BFF
100
AcDbEntity
  8
1
  6
Continuous
100
AcDbLine
 10
162.545228
 20
181.021734
 30
0.0
 11
163.145219
 21
180.9144339999998
 31
0.0
  0
LINE
  5
9D24
330
9BFF
100
AcDbEntity
  8
1
  6
Continuous
100
AcDbLine
 10
162.545213
 20
187.587728
 30
0.0
 11
163.145219
 21
187.480428
 31
0.0
  0
LINE
  5
9D25
330
9BFF
100
AcDbEntity
  8
1
  6
Continuous
100
AcDbLine
 10
162.548204
 20
186.39063
 30
0.0
 11
163.145219
 21
186.111028
 31
0.0
  0
LINE
  5
9D26
330
9BFF
100
AcDbEntity
  8
1
  6
Continuous
100
AcDbLine
 10
162.6246199999999
 20
184.3240409999999
 30
0.0
 11
163.145219
 21
184.022634
 31
0.0
  0
LINE
  5
9D27
330
9BFF
100
AcDbEntity
  8
1
  6
Continuous
100
AcDbLine
 10
162.545213
 20
182.177434
 30
0.0
 11
163.145219
 21
181.896535
 31
0.0
  0
LINE
  5
9D28
330
9BFF
100
AcDbEntity
  8
1
  6
Continuous
100
AcDbLine
 10
162.545228
 20
180.643728
 30
0.0
 11
163.145219
 21
180.536428
 31
0.0
  0
LINE
  5
9D29
330
9BFF
100
AcDbEntity
  8
1
  6
Continuous
100
AcDbLine
 10
162.545213
 20
182.6387379999999
 30
0.0
 11
162.545213
 21
182.177434
 31
0.0
  0
LINE
  5
9D2A
330
9BFF
100
AcDbEntity
  8
1
  6
Continuous
100
AcDbLine
 10
162.545213
 20
181.021734
 30
0.0
 11
162.545213
 21
180.643728
 31
0.0
  0
LINE
  5
9D2B
330
9BFF
100
AcDbEntity
  8
1
  6
Continuous
100
AcDbLine
 10
162.5599379999998
 20
186.4038439999999
 30
0.0
 11
162.9558419999999
 21
186.848958
 31
0.0
  0
LINE
  5
9D2C
330
9BFF
100
AcDbEntity
  8
1
  6
Continuous
100
AcDbLine
 10
164.1493389999999
 20
185.6409509999998
 30
0.0
 11
164.5452589999999
 21
186.086065
 31
0.0
  0
LINE
  5
9D2D
330
9BFF
100
AcDbEntity
  8
1
  6
Continuous
100
AcDbLine
 10
162.6246199999999
 20
184.3240409999999
 30
0.0
 11
163.0239269999999
 21
185.0172479999999
 31
0.0
  0
LINE
  5
9D2E
330
9BFF
100
AcDbEntity
  8
1
  6
Continuous
100
AcDbLine
 10
164.624604
 20
184.090734
 30
0.0
 11
164.3201149999999
 21
183.3426409999999
 31
0.0
  0
LINE
  5
9D2F
330
9BFF
100
AcDbEntity
  8
1
  6
Continuous
100
AcDbLine
 10
163.945222
 20
187.7225239999999
 30
0.0
 11
164.545228
 21
187.615224
 31
0.0
  0
LINE
  5
9D30
330
9BFF
100
AcDbEntity
  8
1
  6
Continuous
100
AcDbLine
 10
163.945222
 20
187.337331
 30
0.0
 11
164.545228
 21
187.2300309999999
 31
0.0
  0
LINE
  5
9D31
330
9BFF
100
AcDbEntity
  8
1
  6
Continuous
100
AcDbLine
 10
163.945222
 20
186.36704
 30
0.0
 11
164.5452129999999
 21
186.086034
 31
0.0
  0
LINE
  5
9D32
330
9BFF
100
AcDbEntity
  8
1
  6
Continuous
100
AcDbLine
 10
163.945207
 20
185.7364399999999
 30
0.0
 11
164.149324
 21
185.640935
 31
0.0
  0
LINE
  5
9D33
330
9BFF
100
AcDbEntity
  8
1
  6
Continuous
100
AcDbLine
 10
163.945222
 20
184.483922
 30
0.0
 11
164.62462
 21
184.090719
 31
0.0
  0
LINE
  5
9D34
330
9BFF
100
AcDbEntity
  8
1
  6
Continuous
100
AcDbLine
 10
163.945222
 20
183.559621
 30
0.0
 11
164.3201149999999
 21
183.3426259999999
 31
0.0
  0
LINE
  5
9D35
330
9BFF
100
AcDbEntity
  8
1
  6
Continuous
100
AcDbLine
 10
163.945207
 20
181.9831289999999
 30
0.0
 11
164.5452129999999
 21
181.7022299999999
 31
0.0
  0
LINE
  5
9D36
330
9BFF
100
AcDbEntity
  8
1
  6
Continuous
100
AcDbLine
 10
163.945222
 20
181.5219319999999
 30
0.0
 11
164.158525
 21
181.4220329999999
 31
0.0
  0
LINE
  5
9D37
330
9BFF
100
AcDbEntity
  8
1
  6
Continuous
100
AcDbLine
 10
163.945222
 20
180.771322
 30
0.0
 11
164.545228
 21
180.664007
 31
0.0
  0
LINE
  5
9D38
330
9BFF
100
AcDbEntity
  8
1
  6
Continuous
100
AcDbLine
 10
163.9452369999999
 20
180.3933309999999
 30
0.0
 11
164.1361399999999
 21
180.359228
 31
0.0
  0
LINE
  5
9D39
330
9BFF
100
AcDbEntity
  8
1
  6
Continuous
100
AcDbLine
 10
174.3342299999999
 20
189.8185319999998
 30
0.0
 11
174.3342299999999
 21
178.818532
 31
0.0
  0
LINE
  5
9D3A
330
9BFF
100
AcDbEntity
  8
1
  6
Continuous
100
AcDbLine
 10
178.5342269999999
 20
189.8185319999998
 30
0.0
 11
178.5342269999999
 21
178.818532
 31
0.0
  0
LINE
  5
9D3B
330
9BFF
100
AcDbEntity
  8
1
  6
Continuous
100
AcDbLine
 10
146.708024
 20
195.318532
 30
0.0
 11
146.708024
 21
173.318532
 31
0.0
  0
LINE
  5
9D3C
330
9BFF
100
AcDbEntity
  8
1
  6
Continuous
100
AcDbLine
 10
150.2080239999999
 20
195.318532
 30
0.0
 11
150.2080239999999
 21
173.318532
 31
0.0
  0
LINE
  5
9D3D
330
9BFF
100
AcDbEntity
  8
1
  6
Continuous
100
AcDbLine
 10
149.245729
 20
184.318532
 30
0.0
 11
146.708024
 21
184.318532
 31
0.0
  0
LINE
  5
9D3E
330
9BFF
100
AcDbEntity
  8
1
  6
Continuous
100
AcDbLine
 10
146.708024
 20
173.318532
 30
0.0
 11
150.2080239999999
 21
173.318532
 31
0.0
  0
LINE
  5
9D3F
330
9BFF
100
AcDbEntity
  8
1
  6
Continuous
100
AcDbLine
 10
146.708024
 20
195.318532
 30
0.0
 11
150.2080239999999
 21
195.318532
 31
0.0
  0
LINE
  5
9D40
330
9BFF
100
AcDbEntity
  8
1
  6
Continuous
100
AcDbLine
 10
174.3342299999999
 20
189.8185319999998
 30
0.0
 11
178.5342269999999
 21
189.8185319999998
 31
0.0
  0
LINE
  5
9D41
330
9BFF
100
AcDbEntity
  8
1
  6
Continuous
100
AcDbLine
 10
174.3342299999999
 20
178.818532
 30
0.0
 11
178.5342269999999
 21
178.818532
 31
0.0
  0
LINE
  5
9D42
330
9BFF
100
AcDbEntity
  8
1
  6
Continuous
100
AcDbLine
 10
178.0429849999999
 20
184.318532
 30
0.0
 11
174.8254709999999
 21
184.318532
 31
0.0
  0
LINE
  5
9D43
330
9BFF
100
AcDbEntity
  8
1
  6
Continuous
100
AcDbLine
 10
105.8512169999999
 20
48.21852599999999
 30
0.0
 11
105.8512169999999
 21
40.418523
 31
0.0
  0
LINE
  5
9D44
330
9BFF
100
AcDbEntity
  8
1
  6
Continuous
100
AcDbLine
 10
104.5512169999999
 20
48.21852599999999
 30
0.0
 11
104.5512169999999
 21
51.840238
 31
0.0
  0
LINE
  5
9D45
330
9BFF
100
AcDbEntity
  8
1
  6
Continuous
100
AcDbLine
 10
103.751214
 20
48.21852599999999
 30
0.0
 11
103.751214
 21
52.218526
 31
0.0
  0
LINE
  5
9D46
330
9BFF
100
AcDbEntity
  8
1
  6
Continuous
100
AcDbLine
 10
29.400918
 20
101.6168189999998
 30
0.0
 11
40.40091799999999
 21
107.9676719999998
 31
0.0
  0
LINE
  5
9D47
330
9BFF
100
AcDbEntity
  8
1
  6
Continuous
100
AcDbLine
 10
18.400918
 20
107.9676719999998
 30
0.0
 11
29.400918
 21
101.6168189999998
 31
0.0
  0
LINE
  5
9D48
330
9BFF
100
AcDbEntity
  8
1
  6
Continuous
100
AcDbLine
 10
29.400918
 20
127.0202229999999
 30
0.0
 11
40.40091799999999
 21
120.6693779999999
 31
0.0
  0
LINE
  5
9D49
330
9BFF
100
AcDbEntity
  8
1
  6
Continuous
100
AcDbLine
 10
18.400918
 20
120.6693779999999
 30
0.0
 11
29.400918
 21
127.0202229999999
 31
0.0
  0
LINE
  5
9D4A
330
9BFF
100
AcDbEntity
  8
1
  6
Continuous
100
AcDbLine
 10
40.40091799999999
 20
107.9676719999998
 30
0.0
 11
40.40091799999999
 21
120.6693779999999
 31
0.0
  0
LINE
  5
9D4B
330
9BFF
100
AcDbEntity
  8
1
  6
Continuous
100
AcDbLine
 10
18.400918
 20
107.9676719999998
 30
0.0
 11
18.400918
 21
120.6693779999999
 31
0.0
  0
LINE
  5
9D4C
330
9BFF
100
AcDbEntity
  8
1
  6
Continuous
100
AcDbLine
 10
106.3512199999999
 20
47.018529
 30
0.0
 11
106.3512199999999
 21
41.61851999999998
 31
0.0
  0
LINE
  5
9D4D
330
9BFF
100
AcDbEntity
  8
1
  6
Continuous
100
AcDbLine
 10
106.3512199999999
 20
187.018529
 30
0.0
 11
106.3512199999999
 21
181.6185199999999
 31
0.0
  0
LINE
  5
9D4E
330
9BFF
100
AcDbEntity
  8
1
  6
Continuous
100
AcDbLine
 10
294.3470169999999
 20
117.972929
 30
0.0
 11
294.3470169999999
 21
117.587736
 31
0.0
  0
LINE
  5
9D4F
330
9BFF
100
AcDbEntity
  8
1
  6
Continuous
100
AcDbLine
 10
292.3470169999998
 20
117.615232
 30
0.0
 11
292.3470169999998
 21
117.2300239999999
 31
0.0
  0
LINE
  5
9D50
330
9BFF
100
AcDbEntity
  8
1
  6
Continuous
100
AcDbLine
 10
293.747041
 20
120.8185249999998
 30
0.0
 11
293.747041
 21
107.8185249999998
 31
0.0
  0
LINE
  5
9D51
330
9BFF
100
AcDbEntity
  8
1
  6
Continuous
100
AcDbLine
 10
292.947023
 20
120.8185249999998
 30
0.0
 11
292.947023
 21
107.8185249999998
 31
0.0
  0
LINE
  5
9D52
330
9BFF
100
AcDbEntity
  8
1
  6
Continuous
100
AcDbLine
 10
293.747041
 20
120.8185249999998
 30
0.0
 11
292.947023
 21
120.8185249999998
 31
0.0
  0
LINE
  5
9D53
330
9BFF
100
AcDbEntity
  8
1
  6
Continuous
100
AcDbLine
 10
293.747041
 20
107.8185249999998
 30
0.0
 11
292.947023
 21
107.8185249999998
 31
0.0
  0
LINE
  5
9D54
330
9BFF
100
AcDbEntity
  8
1
  6
Continuous
100
AcDbLine
 10
294.3470169999999
 20
117.972921
 30
0.0
 11
293.74701
 21
117.8656209999999
 31
0.0
  0
LINE
  5
9D55
330
9BFF
100
AcDbEntity
  8
1
  6
Continuous
100
AcDbLine
 10
293.948213
 20
116.835821
 30
0.0
 11
293.747041
 21
116.741628
 31
0.0
  0
LINE
  5
9D56
330
9BFF
100
AcDbEntity
  8
1
  6
Continuous
100
AcDbLine
 10
293.8683179999999
 20
115.017232
 30
0.0
 11
293.74701
 21
114.9470419999999
 31
0.0
  0
LINE
  5
9D57
330
9BFF
100
AcDbEntity
  8
1
  6
Continuous
100
AcDbLine
 10
294.3470169999999
 20
112.638715
 30
0.0
 11
293.74701
 21
112.357809
 31
0.0
  0
LINE
  5
9D58
330
9BFF
100
AcDbEntity
  8
1
  6
Continuous
100
AcDbLine
 10
294.3470169999999
 20
111.02181
 30
0.0
 11
293.74701
 21
110.914411
 31
0.0
  0
LINE
  5
9D59
330
9BFF
100
AcDbEntity
  8
1
  6
Continuous
100
AcDbLine
 10
294.3470169999999
 20
117.5877279999999
 30
0.0
 11
293.74701
 21
117.480428
 31
0.0
  0
LINE
  5
9D5A
330
9BFF
100
AcDbEntity
  8
1
  6
Continuous
100
AcDbLine
 10
294.3441169999999
 20
116.390615
 30
0.0
 11
293.74701
 21
116.1110129999999
 31
0.0
  0
LINE
  5
9D5B
330
9BFF
100
AcDbEntity
  8
1
  6
Continuous
100
AcDbLine
 10
294.2677319999999
 20
114.3240409999998
 30
0.0
 11
293.74701
 21
114.022634
 31
0.0
  0
LINE
  5
9D5C
330
9BFF
100
AcDbEntity
  8
1
  6
Continuous
100
AcDbLine
 10
294.3470169999999
 20
112.177412
 30
0.0
 11
293.74701
 21
111.8965129999998
 31
0.0
  0
LINE
  5
9D5D
330
9BFF
100
AcDbEntity
  8
1
  6
Continuous
100
AcDbLine
 10
294.3470169999999
 20
110.6437279999999
 30
0.0
 11
293.74701
 21
110.536428
 31
0.0
  0
LINE
  5
9D5E
330
9BFF
100
AcDbEntity
  8
1
  6
Continuous
100
AcDbLine
 10
294.3470169999999
 20
112.6387229999999
 30
0.0
 11
294.3470169999999
 21
112.1774269999999
 31
0.0
  0
LINE
  5
9D5F
330
9BFF
100
AcDbEntity
  8
1
  6
Continuous
100
AcDbLine
 10
294.3470169999999
 20
111.021825
 30
0.0
 11
294.3470169999999
 21
110.6437279999999
 31
0.0
  0
LINE
  5
9D60
330
9BFF
100
AcDbEntity
  8
1
  6
Continuous
100
AcDbLine
 10
294.3323069999999
 20
116.403829
 30
0.0
 11
293.9364029999999
 21
116.8489279999999
 31
0.0
  0
LINE
  5
9D61
330
9BFF
100
AcDbEntity
  8
1
  6
Continuous
100
AcDbLine
 10
292.742921
 20
115.640935
 30
0.0
 11
292.3470169999998
 21
116.0860419999999
 31
0.0
  0
LINE
  5
9D62
330
9BFF
100
AcDbEntity
  8
1
  6
Continuous
100
AcDbLine
 10
294.267701
 20
114.324033
 30
0.0
 11
293.868287
 21
115.0172399999999
 31
0.0
  0
LINE
  5
9D63
330
9BFF
100
AcDbEntity
  8
1
  6
Continuous
100
AcDbLine
 10
292.2677319999999
 20
114.0907189999998
 30
0.0
 11
292.5721449999999
 21
113.3426339999999
 31
0.0
  0
LINE
  5
9D64
330
9BFF
100
AcDbEntity
  8
1
  6
Continuous
100
AcDbLine
 10
292.947023
 20
117.722524
 30
0.0
 11
292.3470169999998
 21
117.6152239999999
 31
0.0
  0
LINE
  5
9D65
330
9BFF
100
AcDbEntity
  8
1
  6
Continuous
100
AcDbLine
 10
292.947023
 20
117.337331
 30
0.0
 11
292.3470169999998
 21
117.230031
 31
0.0
  0
LINE
  5
9D66
330
9BFF
100
AcDbEntity
  8
1
  6
Continuous
100
AcDbLine
 10
292.9469919999998
 20
116.367033
 30
0.0
 11
292.3470169999998
 21
116.086034
 31
0.0
  0
LINE
  5
9D67
330
9BFF
100
AcDbEntity
  8
1
  6
Continuous
100
AcDbLine
 10
292.947023
 20
115.73641
 30
0.0
 11
292.742921
 21
115.640905
 31
0.0
  0
LINE
  5
9D68
330
9BFF
100
AcDbEntity
  8
1
  6
Continuous
100
AcDbLine
 10
292.9469919999998
 20
114.4839219999998
 30
0.0
 11
292.267701
 21
114.090726
 31
0.0
  0
LINE
  5
9D69
330
9BFF
100
AcDbEntity
  8
1
  6
Continuous
100
AcDbLine
 10
292.947023
 20
113.559614
 30
0.0
 11
292.5721139999998
 21
113.3426179999998
 31
0.0
  0
LINE
  5
9D6A
330
9BFF
100
AcDbEntity
  8
1
  6
Continuous
100
AcDbLine
 10
292.947023
 20
111.9831139999998
 30
0.0
 11
292.3470169999998
 21
111.7022069999999
 31
0.0
  0
LINE
  5
9D6B
330
9BFF
100
AcDbEntity
  8
1
  6
Continuous
100
AcDbLine
 10
292.9470529999999
 20
111.5219169999999
 30
0.0
 11
292.733827
 21
111.422018
 31
0.0
  0
LINE
  5
9D6C
330
9BFF
100
AcDbEntity
  8
1
  6
Continuous
100
AcDbLine
 10
292.947023
 20
110.7713139999999
 30
0.0
 11
292.3470169999998
 21
110.6640139999999
 31
0.0
  0
LINE
  5
9D6D
330
9BFF
100
AcDbEntity
  8
1
  6
Continuous
100
AcDbLine
 10
292.947023
 20
110.3933009999998
 30
0.0
 11
292.756227
 21
110.359205
 31
0.0
  0
LINE
  5
9D6E
330
9BFF
100
AcDbEntity
  8
1
  6
Continuous
100
AcDbLine
 10
310.184236
 20
127.0202229999999
 30
0.0
 11
310.184236
 21
101.6168189999998
 31
0.0
  0
LINE
  5
9D6F
330
9BFF
100
AcDbEntity
  8
1
  6
Continuous
100
AcDbLine
 10
306.6842359999998
 20
125.318532
 30
0.0
 11
306.6842359999998
 21
103.318525
 31
0.0
  0
LINE
  5
9D70
330
9BFF
100
AcDbEntity
  8
1
  6
Continuous
100
AcDbLine
 10
282.558015
 20
119.8185249999998
 30
0.0
 11
282.558015
 21
108.8185249999998
 31
0.0
  0
LINE
  5
9D71
330
9BFF
100
AcDbEntity
  8
1
  6
Continuous
100
AcDbLine
 10
278.3580029999999
 20
119.8185249999998
 30
0.0
 11
278.3580029999999
 21
108.8185249999998
 31
0.0
  0
LINE
  5
9D72
330
9BFF
100
AcDbEntity
  8
4
  6
CENTER
100
AcDbLine
 10
314.0334179999999
 20
114.3185249999998
 30
0.0
 11
274.837373
 21
114.3185249999998
 31
0.0
  0
LINE
  5
9D73
330
9BFF
100
AcDbEntity
  8
1
  6
Continuous
100
AcDbLine
 10
310.184236
 20
101.6168189999998
 30
0.0
 11
307.666719
 21
101.6168189999998
 31
0.0
  0
LINE
  5
9D74
330
9BFF
100
AcDbEntity
  8
1
  6
Continuous
100
AcDbLine
 10
310.184236
 20
127.0202229999999
 30
0.0
 11
307.666719
 21
127.0202229999999
 31
0.0
  0
LINE
  5
9D75
330
9BFF
100
AcDbEntity
  8
1
  6
Continuous
100
AcDbLine
 10
310.184236
 20
120.6693699999999
 30
0.0
 11
307.666719
 21
120.6693699999999
 31
0.0
  0
LINE
  5
9D76
330
9BFF
100
AcDbEntity
  8
1
  6
Continuous
100
AcDbLine
 10
310.184236
 20
107.9676719999998
 30
0.0
 11
307.666719
 21
107.9676719999998
 31
0.0
  0
LINE
  5
9D77
330
9BFF
100
AcDbEntity
  8
1
  6
Continuous
100
AcDbLine
 10
307.6666879999998
 20
101.616827
 30
0.0
 11
306.6842359999998
 21
103.318517
 31
0.0
  0
LINE
  5
9D78
330
9BFF
100
AcDbEntity
  8
1
  6
Continuous
100
AcDbLine
 10
307.666719
 20
127.0202379999999
 30
0.0
 11
306.6842359999998
 21
125.3185169999998
 31
0.0
  0
LINE
  5
9D79
330
9BFF
100
AcDbEntity
  8
1
  6
Continuous
100
AcDbLine
 10
282.066774
 20
120.6693699999999
 30
0.0
 11
278.8492749999999
 21
120.6693699999999
 31
0.0
  0
LINE
  5
9D7A
330
9BFF
100
AcDbEntity
  8
1
  6
Continuous
100
AcDbLine
 10
282.066774
 20
117.4939549999999
 30
0.0
 11
278.8492749999999
 21
117.4939549999999
 31
0.0
  0
LINE
  5
9D7B
330
9BFF
100
AcDbEntity
  8
1
  6
Continuous
100
AcDbLine
 10
282.066774
 20
111.143095
 30
0.0
 11
278.8492749999999
 21
111.143095
 31
0.0
  0
LINE
  5
9D7C
330
9BFF
100
AcDbEntity
  8
1
  6
Continuous
100
AcDbLine
 10
282.066774
 20
107.9676639999999
 30
0.0
 11
278.8492749999999
 21
107.9676639999999
 31
0.0
  0
LINE
  5
9D7D
330
9BFF
100
AcDbEntity
  8
1
  6
Continuous
100
AcDbLine
 10
278.8492749999999
 20
120.669385
 30
0.0
 11
278.3580329999999
 21
119.8185249999998
 31
0.0
  0
LINE
  5
9D7E
330
9BFF
100
AcDbEntity
  8
1
  6
Continuous
100
AcDbLine
 10
282.558015
 20
119.8185169999999
 30
0.0
 11
282.0667429999998
 21
120.669385
 31
0.0
  0
LINE
  5
9D7F
330
9BFF
100
AcDbEntity
  8
1
  6
Continuous
100
AcDbLine
 10
282.558015
 20
108.8185169999998
 30
0.0
 11
282.066774
 21
107.9676639999999
 31
0.0
  0
LINE
  5
9D80
330
9BFF
100
AcDbEntity
  8
1
  6
Continuous
100
AcDbLine
 10
278.849244
 20
107.9676569999999
 30
0.0
 11
278.3580029999999
 21
108.8185249999998
 31
0.0
  0
ARC
  5
9D81
330
9BFF
100
AcDbEntity
  8
1
  6
Continuous
100
AcDbCircle
 10
29.400918
 20
114.3185249999998
 30
0.0
 40
4.9
100
AcDbArc
 50
100.2865879999999
 51
79.71339899999998
  0
CIRCLE
  5
9D82
330
9BFF
100
AcDbEntity
  8
1
  6
Continuous
100
AcDbCircle
 10
29.400918
 20
114.3185249999998
 30
0.0
 40
11.0
  0
CIRCLE
  5
9D83
330
9BFF
100
AcDbEntity
  8
1
  6
Continuous
100
AcDbCircle
 10
29.400918
 20
114.3185249999998
 30
0.0
 40
8.619999999999999
  0
ARC
  5
9D84
330
9BFF
100
AcDbEntity
  8
1
  6
Continuous
100
AcDbCircle
 10
29.400918
 20
114.3185249999998
 30
0.0
 40
3.9
100
AcDbArc
 50
102.965191
 51
77.03479
  0
ARC
  5
9D85
330
9BFF
100
AcDbEntity
  8
1
  6
Continuous
100
AcDbCircle
 10
33.04252
 20
117.960126
 30
0.0
 40
1.05
100
AcDbArc
 50
154.527388
 51
295.472563
  0
ARC
  5
9D86
330
9BFF
100
AcDbEntity
  8
1
  6
Continuous
100
AcDbCircle
 10
34.55092
 20
114.3185249999998
 30
0.0
 40
1.05
100
AcDbArc
 50
109.52739
 51
250.4725720000001
  0
ARC
  5
9D87
330
9BFF
100
AcDbEntity
  8
1
  6
Continuous
100
AcDbCircle
 10
33.04252
 20
110.676923
 30
0.0
 40
1.05
100
AcDbArc
 50
64.52739300000001
 51
205.4725809999999
  0
ARC
  5
9D88
330
9BFF
100
AcDbEntity
  8
1
  6
Continuous
100
AcDbCircle
 10
29.400918
 20
109.168531
 30
0.0
 40
1.05
100
AcDbArc
 50
19.527398
 51
160.472576
  0
ARC
  5
9D89
330
9BFF
100
AcDbEntity
  8
1
  6
Continuous
100
AcDbCircle
 10
25.75931999999999
 20
110.676923
 30
0.0
 40
1.05
100
AcDbArc
 50
334.527361
 51
115.472585
  0
ARC
  5
9D8A
330
9BFF
100
AcDbEntity
  8
1
  6
Continuous
100
AcDbCircle
 10
24.250921
 20
114.3185249999998
 30
0.0
 40
1.05
100
AcDbArc
 50
289.5273649999999
 51
70.47259400000001
  0
ARC
  5
9D8B
330
9BFF
100
AcDbEntity
  8
1
  6
Continuous
100
AcDbCircle
 10
25.75931999999999
 20
117.960126
 30
0.0
 40
1.05
100
AcDbArc
 50
244.527374
 51
25.47259599999998
  0
ARC
  5
9D8C
330
9BFF
100
AcDbEntity
  8
1
  6
Continuous
100
AcDbCircle
 10
228.446122
 20
114.3185249999998
 30
0.0
 40
8.599999999999997
100
AcDbArc
 50
116.446693
 51
150.999896
  0
ARC
  5
9D8D
330
9BFF
100
AcDbEntity
  8
1
  6
Continuous
100
AcDbCircle
 10
228.446122
 20
114.3185249999998
 30
0.0
 40
8.599999999999997
100
AcDbArc
 50
299.0001129999999
 51
333.553262
  0
ARC
  5
9D8E
330
9BFF
100
AcDbEntity
  8
1
  6
Continuous
100
AcDbCircle
 10
228.446122
 20
114.3185249999998
 30
0.0
 40
8.599999999999997
100
AcDbArc
 50
26.44669699999999
 51
63.553291
  0
CIRCLE
  5
9D8F
330
9BFF
100
AcDbEntity
  8
1
  6
Continuous
100
AcDbCircle
 10
228.446122
 20
114.3185249999998
 30
0.0
 40
6.5
  0
ARC
  5
9D90
330
9BFF
100
AcDbEntity
  8
1
  6
Continuous
100
AcDbCircle
 10
19.500917
 20
181.318532
 30
0.0
 40
6.5
100
AcDbArc
 50
179.999978
 51
270.000001
  0
ARC
  5
9D91
330
9BFF
100
AcDbEntity
  8
1
  6
Continuous
100
AcDbCircle
 10
19.500917
 20
187.318532
 30
0.0
 40
6.5
100
AcDbArc
 50
89.99998900000001
 51
179.999978
  0
ARC
  5
9D92
330
9BFF
100
AcDbEntity
  8
1
  6
Continuous
100
AcDbCircle
 10
28.500917
 20
181.318532
 30
0.0
 40
6.5
100
AcDbArc
 50
269.99997
 51
352.04116
  0
ARC
  5
9D93
330
9BFF
100
AcDbEntity
  8
1
  6
Continuous
100
AcDbCircle
 10
16.600915
 20
186.818532
 30
0.0
 40
1.0
100
AcDbArc
 50
89.99998900000001
 51
179.999978
  0
ARC
  5
9D94
330
9BFF
100
AcDbEntity
  8
1
  6
Continuous
100
AcDbCircle
 10
16.600915
 20
181.8185319999998
 30
0.0
 40
1.0
100
AcDbArc
 50
179.999978
 51
269.999973
  0
ARC
  5
9D95
330
9BFF
100
AcDbEntity
  8
1
  6
Continuous
100
AcDbCircle
 10
18.400918
 20
181.8185319999998
 30
0.0
 40
1.0
100
AcDbArc
 50
269.99997
 51
0.0
  0
ARC
  5
9D96
330
9BFF
100
AcDbEntity
  8
1
  6
Continuous
100
AcDbCircle
 10
18.400918
 20
186.818532
 30
0.0
 40
1.0
100
AcDbArc
 50
0.0
 51
89.99998900000001
  0
ARC
  5
9D97
330
9BFF
100
AcDbEntity
  8
1
  6
Continuous
100
AcDbCircle
 10
41.40091799999999
 20
190.5322169999998
 30
0.0
 40
1.199999999999999
100
AcDbArc
 50
0.0
 51
76.99999400000002
  0
ARC
  5
9D98
330
9BFF
100
AcDbEntity
  8
1
  6
Continuous
100
AcDbCircle
 10
32.700914
 20
184.318532
 30
0.0
 40
3.9
100
AcDbArc
 50
206.176982
 51
269.99997
  0
ARC
  5
9D99
330
9BFF
100
AcDbEntity
  8
1
  6
Continuous
100
AcDbCircle
 10
32.700914
 20
184.318532
 30
0.0
 40
3.9
100
AcDbArc
 50
89.99998900000001
 51
153.822977
  0
ARC
  5
9D9A
330
9BFF
100
AcDbEntity
  8
1
  6
Continuous
100
AcDbCircle
 10
228.446122
 20
114.3185249999998
 30
0.0
 40
7.299999999999998
100
AcDbArc
 50
150.9996769999998
 51
299.0000279999998
  0
ARC
  5
9D9B
330
9BFF
100
AcDbEntity
  8
1
  6
Continuous
100
AcDbCircle
 10
228.446122
 20
114.3185249999998
 30
0.0
 40
8.699999999999997
100
AcDbArc
 50
204.763283
 51
335.2366609999999
  0
ARC
  5
9D9C
330
9BFF
100
AcDbEntity
  8
1
  6
Continuous
100
AcDbCircle
 10
228.446122
 20
114.3185249999998
 30
0.0
 40
8.699999999999997
100
AcDbArc
 50
24.763297
 51
155.2366759999999
  0
ARC
  5
9D9D
330
9BFF
100
AcDbEntity
  8
1
  6
Continuous
100
AcDbCircle
 10
228.446122
 20
104.8140309999999
 30
0.0
 40
4.211599999999998
100
AcDbArc
 50
23.85899699999999
 51
43.179295
  0
ARC
  5
9D9E
330
9BFF
100
AcDbEntity
  8
1
  6
Continuous
100
AcDbCircle
 10
228.446122
 20
104.8140309999999
 30
0.0
 40
4.211599999999998
100
AcDbArc
 50
136.8207789999999
 51
156.1409789999999
  0
ARC
  5
9D9F
330
9BFF
100
AcDbEntity
  8
1
  6
Continuous
100
AcDbCircle
 10
228.446122
 20
114.3185249999998
 30
0.0
 40
7.0
100
AcDbArc
 50
150.999609
 51
299.0
  0
CIRCLE
  5
9DA0
330
9BFF
100
AcDbEntity
  8
1
  6
Continuous
100
AcDbCircle
 10
85.85122
 20
184.3185169999999
 30
0.0
 40
1.5
  0
ARC
  5
9DA1
330
9BFF
100
AcDbEntity
  8
1
  6
Continuous
100
AcDbCircle
 10
162.1084149999998
 20
49.757329
 30
0.0
 40
1.837099999999999
100
AcDbArc
 50
283.7564009999999
 51
304.360797
  0
ARC
  5
9DA2
330
9BFF
100
AcDbEntity
  8
1
  6
Continuous
100
AcDbCircle
 10
164.724321
 20
48.619329
 30
0.0
 40
1.02
100
AcDbArc
 50
220.197967
 51
259.8874579999999
  0
ARC
  5
9DA3
330
9BFF
100
AcDbEntity
  8
1
  6
Continuous
100
AcDbCircle
 10
162.079515
 20
49.811529
 30
0.0
 40
3.0987
100
AcDbArc
 50
286.2014999999999
 51
290.1163999999998
  0
ARC
  5
9DA4
330
9BFF
100
AcDbEntity
  8
1
  6
Continuous
100
AcDbCircle
 10
159.1059119999999
 20
48.979024
 30
0.0
 40
4.3083
100
AcDbArc
 50
323.293095
 51
339.6457919999999
  0
ARC
  5
9DA5
330
9BFF
100
AcDbEntity
  8
1
  6
Continuous
100
AcDbCircle
 10
163.0122079999999
 20
45.605932
 30
0.0
 40
0.9421000000000001
100
AcDbArc
 50
352.033188
 51
7.966789999999998
  0
ARC
  5
9DA6
330
9BFF
100
AcDbEntity
  8
1
  6
Continuous
100
AcDbCircle
 10
158.8580179999999
 20
46.160924
 30
0.0
 40
4.287499999999997
100
AcDbArc
 50
342.6549889999999
 51
359.333888
  0
ARC
  5
9DA7
330
9BFF
100
AcDbEntity
  8
1
  6
Continuous
100
AcDbCircle
 10
161.923921
 20
41.10823599999998
 30
0.0
 40
1.236599999999999
100
AcDbArc
 50
350.982889
 51
59.83788700000001
  0
ARC
  5
9DA8
330
9BFF
100
AcDbEntity
  8
1
  6
Continuous
100
AcDbCircle
 10
164.8874219999999
 20
40.82283499999999
 30
0.0
 40
0.9435999999999999
100
AcDbArc
 50
111.260872
 51
183.128764
  0
ARC
  5
9DA9
330
9BFF
100
AcDbEntity
  8
1
  6
Continuous
100
AcDbCircle
 10
164.877015
 20
39.79182999999999
 30
0.0
 40
0.9332
100
AcDbArc
 50
110.826171
 51
183.12397
  0
ARC
  5
9DAA
330
9BFF
100
AcDbEntity
  8
1
  6
Continuous
100
AcDbCircle
 10
165.2136089999999
 20
38.57162999999999
 30
0.0
 40
2.0872
100
AcDbArc
 50
121.080976
 51
127.4232709999999
  0
ARC
  5
9DAB
330
9BFF
100
AcDbEntity
  8
1
  6
Continuous
100
AcDbCircle
 10
160.737718
 20
39.042028
 30
0.0
 40
2.415099999999998
100
AcDbArc
 50
355.4672909999999
 51
41.544786
  0
ARC
  5
9DAC
330
9BFF
100
AcDbEntity
  8
1
  6
Continuous
100
AcDbCircle
 10
164.178621
 20
42.318227
 30
0.0
 40
1.0341
100
AcDbArc
 50
82.13137900000003
 51
103.0404729999999
  0
ARC
  5
9DAD
330
9BFF
100
AcDbEntity
  8
1
  6
Continuous
100
AcDbCircle
 10
134.1673439999998
 20
49.79088400000001
 30
0.0
 40
16.04068599999999
100
AcDbArc
 50
340.0528149999999
 51
20.157459
  0
ARC
  5
9DAE
330
9BFF
100
AcDbEntity
  8
1
  6
Continuous
100
AcDbCircle
 10
134.1673439999998
 20
38.846181
 30
0.0
 40
16.04068599999999
100
AcDbArc
 50
339.8425409999999
 51
19.947185
  0
ARC
  5
9DAF
330
9BFF
100
AcDbEntity
  8
1
  6
Continuous
100
AcDbCircle
 10
170.59131
 20
47.068532
 30
0.0
 40
7.942914999999997
100
AcDbArc
 50
339.7436819999999
 51
20.256318
  0
ARC
  5
9DB0
330
9BFF
100
AcDbEntity
  8
1
  6
Continuous
100
AcDbCircle
 10
170.59131
 20
41.56853199999999
 30
0.0
 40
7.942914999999997
100
AcDbArc
 50
339.7436819999999
 51
20.256318
  0
ARC
  5
9DB1
330
9BFF
100
AcDbEntity
  8
1
  6
Continuous
100
AcDbCircle
 10
182.2771469999999
 20
41.56853199999999
 30
0.0
 40
7.942914999999997
100
AcDbArc
 50
159.743686
 51
200.256311
  0
ARC
  5
9DB2
330
9BFF
100
AcDbEntity
  8
1
  6
Continuous
100
AcDbCircle
 10
182.2771469999999
 20
47.068532
 30
0.0
 40
7.942914999999997
100
AcDbArc
 50
159.743686
 51
200.256311
  0
ARC
  5
9DB3
330
9BFF
100
AcDbEntity
  8
1
  6
Continuous
100
AcDbCircle
 10
162.1083229999999
 20
119.7573219999999
 30
0.0
 40
1.837099999999999
100
AcDbArc
 50
283.756367
 51
304.360767
  0
ARC
  5
9DB4
330
9BFF
100
AcDbEntity
  8
1
  6
Continuous
100
AcDbCircle
 10
164.724321
 20
118.619321
 30
0.0
 40
1.02
100
AcDbArc
 50
220.1979809999999
 51
259.8874719999999
  0
ARC
  5
9DB5
330
9BFF
100
AcDbEntity
  8
1
  6
Continuous
100
AcDbCircle
 10
162.079423
 20
119.811521
 30
0.0
 40
3.0987
100
AcDbArc
 50
286.2014659999999
 51
290.116366
  0
ARC
  5
9DB6
330
9BFF
100
AcDbEntity
  8
1
  6
Continuous
100
AcDbCircle
 10
159.105928
 20
118.9790319999999
 30
0.0
 40
4.3083
100
AcDbArc
 50
323.293064
 51
339.645761
  0
ARC
  5
9DB7
330
9BFF
100
AcDbEntity
  8
1
  6
Continuous
100
AcDbCircle
 10
163.012132
 20
115.605924
 30
0.0
 40
0.9421000000000001
100
AcDbArc
 50
352.03316
 51
7.966799
  0
ARC
  5
9DB8
330
9BFF
100
AcDbEntity
  8
1
  6
Continuous
100
AcDbCircle
 10
158.858033
 20
116.1609169999999
 30
0.0
 40
4.287499999999997
100
AcDbArc
 50
342.65496
 51
359.3338589999998
  0
ARC
  5
9DB9
330
9BFF
100
AcDbEntity
  8
1
  6
Continuous
100
AcDbCircle
 10
161.923829
 20
111.1082279999999
 30
0.0
 40
1.236599999999999
100
AcDbArc
 50
350.98286
 51
59.83789399999999
  0
ARC
  5
9DBA
330
9BFF
100
AcDbEntity
  8
1
  6
Continuous
100
AcDbCircle
 10
164.8873299999999
 20
110.822828
 30
0.0
 40
0.9435999999999999
100
AcDbArc
 50
111.260886
 51
183.128778
  0
ARC
  5
9DBB
330
9BFF
100
AcDbEntity
  8
1
  6
Continuous
100
AcDbCircle
 10
164.876924
 20
109.7918219999999
 30
0.0
 40
0.9332
100
AcDbArc
 50
110.826185
 51
183.1239829999999
  0
ARC
  5
9DBC
330
9BFF
100
AcDbEntity
  8
1
  6
Continuous
100
AcDbCircle
 10
165.213533
 20
108.5716219999999
 30
0.0
 40
2.0872
100
AcDbArc
 50
121.08099
 51
127.4232849999998
  0
ARC
  5
9DBD
330
9BFF
100
AcDbEntity
  8
1
  6
Continuous
100
AcDbCircle
 10
160.737626
 20
109.04202
 30
0.0
 40
2.415099999999998
100
AcDbArc
 50
355.467259
 51
41.54479600000001
  0
ARC
  5
9DBE
330
9BFF
100
AcDbEntity
  8
1
  6
Continuous
100
AcDbCircle
 10
164.178529
 20
112.318227
 30
0.0
 40
1.0341
100
AcDbArc
 50
82.131392
 51
103.040487
  0
ARC
  5
9DBF
330
9BFF
100
AcDbEntity
  8
1
  6
Continuous
100
AcDbCircle
 10
144.5852219999999
 20
123.8447999999999
 30
0.0
 40
5.622809999999999
100
AcDbArc
 50
325.6157519999998
 51
25.615752
  0
ARC
  5
9DC0
330
9BFF
100
AcDbEntity
  8
1
  6
Continuous
100
AcDbCircle
 10
129.190507
 20
114.3185249999998
 30
0.0
 40
21.017519
100
AcDbArc
 50
342.4120459999999
 51
17.587954
  0
ARC
  5
9DC1
330
9BFF
100
AcDbEntity
  8
1
  6
Continuous
100
AcDbCircle
 10
144.5852219999999
 20
104.7922489999999
 30
0.0
 40
5.622809999999999
100
AcDbArc
 50
334.384248
 51
34.38424799999999
  0
ARC
  5
9DC2
330
9BFF
100
AcDbEntity
  8
1
  6
Continuous
100
AcDbCircle
 10
168.0255139999998
 20
114.3185249999998
 30
0.0
 40
10.50871499999999
100
AcDbArc
 50
342.411937
 51
17.58806299999999
  0
ARC
  5
9DC3
330
9BFF
100
AcDbEntity
  8
1
  6
Continuous
100
AcDbCircle
 10
175.7228409999999
 20
109.555379
 30
0.0
 40
2.811392999999998
100
AcDbArc
 50
334.3844680000001
 51
34.384467
  0
ARC
  5
9DC4
330
9BFF
100
AcDbEntity
  8
1
  6
Continuous
100
AcDbCircle
 10
175.7228409999999
 20
119.081663
 30
0.0
 40
2.811392999999998
100
AcDbArc
 50
325.615533
 51
25.615532
  0
ARC
  5
9DC5
330
9BFF
100
AcDbEntity
  8
1
  6
Continuous
100
AcDbCircle
 10
177.1456159999999
 20
109.555379
 30
0.0
 40
2.811392999999998
100
AcDbArc
 50
145.6155349999999
 51
205.615537
  0
ARC
  5
9DC6
330
9BFF
100
AcDbEntity
  8
1
  6
Continuous
100
AcDbCircle
 10
177.1456159999999
 20
119.081663
 30
0.0
 40
2.811392999999998
100
AcDbArc
 50
154.3844729999999
 51
214.3844749999999
  0
ARC
  5
9DC7
330
9BFF
100
AcDbEntity
  8
1
  6
Continuous
100
AcDbCircle
 10
184.842942
 20
114.3185249999998
 30
0.0
 40
10.50871499999999
100
AcDbArc
 50
162.4119399999998
 51
197.5880699999999
  0
CIRCLE
  5
9DC8
330
9BFF
100
AcDbEntity
  8
1
  6
Continuous
100
AcDbCircle
 10
228.446122
 20
114.3185249999998
 30
0.0
 40
11.0
  0
ARC
  5
9DC9
330
9BFF
100
AcDbEntity
  8
1
  6
Continuous
100
AcDbCircle
 10
228.446122
 20
114.3185249999998
 30
0.0
 40
3.093999999999998
100
AcDbArc
 50
330.769152
 51
29.230848
  0
ARC
  5
9DCA
330
9BFF
100
AcDbEntity
  8
2
  6
Continuous
100
AcDbCircle
 10
228.446122
 20
114.3185249999998
 30
0.0
 40
3.093999999999998
100
AcDbArc
 50
209.231426
 51
330.769152
  0
ARC
  5
9DCB
330
9BFF
100
AcDbEntity
  8
2
  6
Continuous
100
AcDbCircle
 10
228.446122
 20
114.3185249999998
 30
0.0
 40
3.093999999999998
100
AcDbArc
 50
29.230848
 51
150.768574
  0
ARC
  5
9DCC
330
9BFF
100
AcDbEntity
  8
1
  6
Continuous
100
AcDbCircle
 10
228.446122
 20
114.3185249999998
 30
0.0
 40
8.9585
100
AcDbArc
 50
331.865742
 51
28.134258
  0
ARC
  5
9DCD
330
9BFF
100
AcDbEntity
  8
1
  6
Continuous
100
AcDbCircle
 10
228.446122
 20
114.3185249999998
 30
0.0
 40
8.9585
100
AcDbArc
 50
151.8655409999998
 51
208.1344689999999
  0
ARC
  5
9DCE
330
9BFF
100
AcDbEntity
  8
2
  6
Continuous
100
AcDbCircle
 10
228.446122
 20
114.3185249999998
 30
0.0
 40
8.9585
100
AcDbArc
 50
28.134258
 51
151.8655409999998
  0
ARC
  5
9DCF
330
9BFF
100
AcDbEntity
  8
2
  6
Continuous
100
AcDbCircle
 10
228.446122
 20
114.3185249999998
 30
0.0
 40
8.9585
100
AcDbArc
 50
208.134459
 51
331.865742
  0
ARC
  5
9DD0
330
9BFF
100
AcDbEntity
  8
1
  6
Continuous
100
AcDbCircle
 10
162.1084149999998
 20
189.757329
 30
0.0
 40
1.837099999999999
100
AcDbArc
 50
283.7564009999999
 51
304.360797
  0
ARC
  5
9DD1
330
9BFF
100
AcDbEntity
  8
1
  6
Continuous
100
AcDbCircle
 10
164.724321
 20
188.6193289999999
 30
0.0
 40
1.02
100
AcDbArc
 50
220.197967
 51
259.8874579999999
  0
ARC
  5
9DD2
330
9BFF
100
AcDbEntity
  8
1
  6
Continuous
100
AcDbCircle
 10
162.079515
 20
189.8115289999998
 30
0.0
 40
3.0987
100
AcDbArc
 50
286.2014999999999
 51
290.1163999999998
  0
ARC
  5
9DD3
330
9BFF
100
AcDbEntity
  8
1
  6
Continuous
100
AcDbCircle
 10
159.1059119999999
 20
188.979024
 30
0.0
 40
4.3083
100
AcDbArc
 50
323.293095
 51
339.6457919999999
  0
ARC
  5
9DD4
330
9BFF
100
AcDbEntity
  8
1
  6
Continuous
100
AcDbCircle
 10
163.0122079999999
 20
185.6059319999999
 30
0.0
 40
0.9421000000000001
100
AcDbArc
 50
352.033188
 51
7.966789999999998
  0
ARC
  5
9DD5
330
9BFF
100
AcDbEntity
  8
1
  6
Continuous
100
AcDbCircle
 10
158.8580179999999
 20
186.1609239999999
 30
0.0
 40
4.287499999999997
100
AcDbArc
 50
342.6549889999999
 51
359.333888
  0
ARC
  5
9DD6
330
9BFF
100
AcDbEntity
  8
1
  6
Continuous
100
AcDbCircle
 10
161.923921
 20
181.108236
 30
0.0
 40
1.236599999999999
100
AcDbArc
 50
350.982889
 51
59.83788700000001
  0
ARC
  5
9DD7
330
9BFF
100
AcDbEntity
  8
1
  6
Continuous
100
AcDbCircle
 10
164.8874219999999
 20
180.822835
 30
0.0
 40
0.9435999999999999
100
AcDbArc
 50
111.260872
 51
183.128764
  0
ARC
  5
9DD8
330
9BFF
100
AcDbEntity
  8
1
  6
Continuous
100
AcDbCircle
 10
164.877015
 20
179.79183
 30
0.0
 40
0.9332
100
AcDbArc
 50
110.826171
 51
183.12397
  0
ARC
  5
9DD9
330
9BFF
100
AcDbEntity
  8
1
  6
Continuous
100
AcDbCircle
 10
165.2136089999999
 20
178.5716299999999
 30
0.0
 40
2.0872
100
AcDbArc
 50
121.080976
 51
127.4232709999999
  0
ARC
  5
9DDA
330
9BFF
100
AcDbEntity
  8
1
  6
Continuous
100
AcDbCircle
 10
160.737718
 20
179.042028
 30
0.0
 40
2.415099999999998
100
AcDbArc
 50
355.4672909999999
 51
41.544786
  0
ARC
  5
9DDB
330
9BFF
100
AcDbEntity
  8
1
  6
Continuous
100
AcDbCircle
 10
164.178621
 20
182.318227
 30
0.0
 40
1.0341
100
AcDbArc
 50
82.13137900000003
 51
103.0404729999999
  0
ARC
  5
9DDC
330
9BFF
100
AcDbEntity
  8
1
  6
Continuous
100
AcDbCircle
 10
134.1673439999998
 20
189.790884
 30
0.0
 40
16.04068599999999
100
AcDbArc
 50
340.0528149999999
 51
20.157459
  0
ARC
  5
9DDD
330
9BFF
100
AcDbEntity
  8
1
  6
Continuous
100
AcDbCircle
 10
134.1673439999998
 20
178.846181
 30
0.0
 40
16.04068599999999
100
AcDbArc
 50
339.8425409999999
 51
19.947185
  0
ARC
  5
9DDE
330
9BFF
100
AcDbEntity
  8
1
  6
Continuous
100
AcDbCircle
 10
170.59131
 20
187.0685319999998
 30
0.0
 40
7.942914999999997
100
AcDbArc
 50
339.7436819999999
 51
20.256318
  0
ARC
  5
9DDF
330
9BFF
100
AcDbEntity
  8
1
  6
Continuous
100
AcDbCircle
 10
170.59131
 20
181.568532
 30
0.0
 40
7.942914999999997
100
AcDbArc
 50
339.7436819999999
 51
20.256318
  0
ARC
  5
9DE0
330
9BFF
100
AcDbEntity
  8
1
  6
Continuous
100
AcDbCircle
 10
182.2771469999999
 20
181.568532
 30
0.0
 40
7.942914999999997
100
AcDbArc
 50
159.743686
 51
200.256311
  0
ARC
  5
9DE1
330
9BFF
100
AcDbEntity
  8
1
  6
Continuous
100
AcDbCircle
 10
182.2771469999999
 20
187.0685319999998
 30
0.0
 40
7.942914999999997
100
AcDbArc
 50
159.743686
 51
200.256311
  0
ARC
  5
9DE2
330
9BFF
100
AcDbEntity
  8
1
  6
Continuous
100
AcDbCircle
 10
294.783906
 20
119.7573219999999
 30
0.0
 40
1.837099999999999
100
AcDbArc
 50
235.639235
 51
256.243635
  0
ARC
  5
9DE3
330
9BFF
100
AcDbEntity
  8
1
  6
Continuous
100
AcDbCircle
 10
292.1679389999998
 20
118.619321
 30
0.0
 40
1.02
100
AcDbArc
 50
280.1125299999999
 51
319.8020179999998
  0
ARC
  5
9DE4
330
9BFF
100
AcDbEntity
  8
1
  6
Continuous
100
AcDbCircle
 10
294.812837
 20
119.811521
 30
0.0
 40
3.0987
100
AcDbArc
 50
249.8836359999998
 51
253.7985359999999
  0
ARC
  5
9DE5
330
9BFF
100
AcDbEntity
  8
1
  6
Continuous
100
AcDbCircle
 10
297.786317
 20
118.9790319999999
 30
0.0
 40
4.3083
100
AcDbArc
 50
200.3542319999999
 51
216.7069339999999
  0
ARC
  5
9DE6
330
9BFF
100
AcDbEntity
  8
1
  6
Continuous
100
AcDbCircle
 10
293.8800979999999
 20
115.605924
 30
0.0
 40
0.9421000000000001
100
AcDbArc
 50
172.033204
 51
187.966847
  0
ARC
  5
9DE7
330
9BFF
100
AcDbEntity
  8
1
  6
Continuous
100
AcDbCircle
 10
298.0342109999999
 20
116.1609169999999
 30
0.0
 40
4.287499999999997
100
AcDbArc
 50
180.666143
 51
197.3450419999999
  0
ARC
  5
9DE8
330
9BFF
100
AcDbEntity
  8
1
  6
Continuous
100
AcDbCircle
 10
294.9684149999999
 20
111.1082279999999
 30
0.0
 40
1.236599999999999
100
AcDbArc
 50
120.162111
 51
189.0171389999999
  0
ARC
  5
9DE9
330
9BFF
100
AcDbEntity
  8
1
  6
Continuous
100
AcDbCircle
 10
292.004915
 20
110.822828
 30
0.0
 40
0.9435999999999999
100
AcDbArc
 50
356.871222
 51
68.739113
  0
ARC
  5
9DEA
330
9BFF
100
AcDbEntity
  8
1
  6
Continuous
100
AcDbCircle
 10
292.0153209999999
 20
109.7918219999999
 30
0.0
 40
0.9332
100
AcDbArc
 50
356.876017
 51
69.17381299999999
  0
ARC
  5
9DEB
330
9BFF
100
AcDbEntity
  8
1
  6
Continuous
100
AcDbCircle
 10
291.678712
 20
108.5716219999999
 30
0.0
 40
2.0872
100
AcDbArc
 50
52.576716
 51
58.919008
  0
ARC
  5
9DEC
330
9BFF
100
AcDbEntity
  8
1
  6
Continuous
100
AcDbCircle
 10
296.1546339999998
 20
109.04202
 30
0.0
 40
2.415099999999998
100
AcDbArc
 50
138.455202
 51
184.532737
  0
ARC
  5
9DED
330
9BFF
100
AcDbEntity
  8
1
  6
Continuous
100
AcDbCircle
 10
292.713716
 20
112.318227
 30
0.0
 40
1.0341
100
AcDbArc
 50
76.959512
 51
97.868606
  0
ARC
  5
9DEE
330
9BFF
100
AcDbEntity
  8
1
  6
Continuous
100
AcDbCircle
 10
312.3070389999999
 20
123.8447999999999
 30
0.0
 40
5.622809999999999
100
AcDbArc
 50
154.3842549999999
 51
214.384243
  0
ARC
  5
9DEF
330
9BFF
100
AcDbEntity
  8
1
  6
Continuous
100
AcDbCircle
 10
327.701753
 20
114.3185249999998
 30
0.0
 40
21.017519
100
AcDbArc
 50
162.4120489999999
 51
197.5879609999998
  0
ARC
  5
9DF0
330
9BFF
100
AcDbEntity
  8
1
  6
Continuous
100
AcDbCircle
 10
312.3070389999999
 20
104.7922489999999
 30
0.0
 40
5.622809999999999
100
AcDbArc
 50
145.615754
 51
205.615755
  0
ARC
  5
9DF1
330
9BFF
100
AcDbEntity
  8
1
  6
Continuous
100
AcDbCircle
 10
288.866731
 20
114.3185249999998
 30
0.0
 40
10.50871499999999
100
AcDbArc
 50
162.4119399999998
 51
197.5880699999999
  0
ARC
  5
9DF2
330
9BFF
100
AcDbEntity
  8
1
  6
Continuous
100
AcDbCircle
 10
281.1694039999998
 20
109.555379
 30
0.0
 40
2.811392999999998
100
AcDbArc
 50
145.6155349999999
 51
205.615537
  0
ARC
  5
9DF3
330
9BFF
100
AcDbEntity
  8
1
  6
Continuous
100
AcDbCircle
 10
281.1694039999998
 20
119.081663
 30
0.0
 40
2.811392999999998
100
AcDbArc
 50
154.3844729999999
 51
214.384461
  0
ARC
  5
9DF4
330
9BFF
100
AcDbEntity
  8
1
  6
Continuous
100
AcDbCircle
 10
279.746614
 20
109.555379
 30
0.0
 40
2.811392999999998
100
AcDbArc
 50
334.3844629999999
 51
34.384467
  0
ARC
  5
9DF5
330
9BFF
100
AcDbEntity
  8
1
  6
Continuous
100
AcDbCircle
 10
279.746614
 20
119.081663
 30
0.0
 40
2.811392999999998
100
AcDbArc
 50
325.6155269999998
 51
25.615527
  0
ARC
  5
9DF6
330
9BFF
100
AcDbEntity
  8
1
  6
Continuous
100
AcDbCircle
 10
272.049287
 20
114.3185249999998
 30
0.0
 40
10.50871499999999
100
AcDbArc
 50
342.41193
 51
17.58805999999999
  0
ARC
  5
9DF7
330
9BFF
100
AcDbEntity
  8
1
  6
Continuous
100
AcDbCircle
 10
27.06707999999999
 20
184.318532
 30
0.0
 40
7.166163
100
AcDbArc
 50
144.462
 51
215.5377
  0
ARC
  5
9DF8
330
9BFF
100
AcDbEntity
  8
1
  6
Continuous
100
AcDbCircle
 10
17.734773
 20
184.318532
 30
0.0
 40
7.166163
100
AcDbArc
 50
324.4619999999998
 51
35.53799999999999
  0
LINE
  5
9DF9
330
9BFF
100
AcDbEntity
  8
1
  6
Continuous
100
AcDbLine
 10
20.574501
 20
186.26281
 30
0.0
 11
24.052547
 21
186.26281
 31
0.0
  0
LINE
  5
9DFA
330
9BFF
100
AcDbEntity
  8
1
  6
Continuous
100
AcDbLine
 10
23.969092
 20
185.707947
 30
0.0
 11
22.400362
 21
185.707947
 31
0.0
  0
ARC
  5
9DFB
330
9BFF
100
AcDbEntity
  8
1
  6
Continuous
100
AcDbCircle
 10
23.969092
 20
185.4305149999999
 30
0.0
 40
0.277826
100
AcDbArc
 50
10.10399999999999
 51
90.0
  0
ARC
  5
9DFC
330
9BFF
100
AcDbEntity
  8
1
  6
Continuous
100
AcDbCircle
 10
20.83276
 20
185.4305149999999
 30
0.0
 40
0.277826
100
AcDbArc
 50
90.0
 51
169.896
  0
ARC
  5
9DFD
330
9BFF
100
AcDbEntity
  8
1
  6
Continuous
100
AcDbCircle
 10
22.400362
 20
187.6522239999999
 30
0.0
 40
1.431648999999999
100
AcDbArc
 50
35.53799999999999
 51
45.69899999999999
  0
ARC
  5
9DFE
330
9BFF
100
AcDbEntity
  8
1
  6
Continuous
100
AcDbCircle
 10
22.400362
 20
187.6522239999999
 30
0.0
 40
1.431648999999999
100
AcDbArc
 50
62.24999999999999
 51
144.462
  0
ARC
  5
9DFF
330
9BFF
100
AcDbEntity
  8
1
  6
Continuous
100
AcDbCircle
 10
22.122931
 20
187.096233
 30
0.0
 40
0.277826
100
AcDbArc
 50
270.0
 51
90.0
  0
LINE
  5
9E00
330
9BFF
100
AcDbEntity
  8
1
  6
Continuous
100
AcDbLine
 10
22.400362
 20
189.083366
 30
0.0
 11
22.400362
 21
187.9352949999999
 31
0.0
  0
LINE
  5
9E01
330
9BFF
100
AcDbEntity
  8
1
  6
Continuous
100
AcDbLine
 10
23.440167
 20
187.656735
 30
0.0
 11
21.09891399999998
 21
188.284904
 31
0.0
  0
LINE
  5
9E02
330
9BFF
100
AcDbEntity
  8
1
  6
Continuous
100
AcDbLine
 10
22.400362
 20
187.096233
 30
0.0
 11
23.733388
 21
187.096233
 31
0.0
  0
LINE
  5
9E03
330
9BFF
100
AcDbEntity
  8
1
  6
Continuous
100
AcDbLine
 10
22.122931
 20
187.374793
 30
0.0
 11
20.93651499999999
 21
187.374793
 31
0.0
  0
LINE
  5
9E04
330
9BFF
100
AcDbEntity
  8
1
  6
Continuous
100
AcDbLine
 10
20.836144
 20
186.818801
 30
0.0
 11
22.122931
 21
186.818801
 31
0.0
  0
LINE
  5
9E05
330
9BFF
100
AcDbEntity
  8
1
  6
Continuous
100
AcDbLine
 10
22.400362
 20
185.707947
 30
0.0
 11
22.400362
 21
185.4305149999999
 31
0.0
  0
LINE
  5
9E06
330
9BFF
100
AcDbEntity
  8
1
  6
Continuous
100
AcDbLine
 10
21.73384899999999
 20
185.707947
 30
0.0
 11
20.83276
 21
185.707947
 31
0.0
  0
LINE
  5
9E07
330
9BFF
100
AcDbEntity
  8
1
  6
Continuous
100
AcDbLine
 10
20.57224499999999
 20
185.1519549999999
 30
0.0
 11
24.229607
 21
185.1519549999999
 31
0.0
  0
LINE
  5
9E08
330
9BFF
100
AcDbEntity
  8
1
  6
Continuous
100
AcDbLine
 10
20.46285099999998
 20
184.597092
 30
0.0
 11
24.339001
 21
184.597092
 31
0.0
  0
ARC
  5
9E09
330
9BFF
100
AcDbEntity
  8
1
  6
Continuous
100
AcDbCircle
 10
24.229607
 20
185.2083439999999
 30
0.0
 40
0.055565
100
AcDbArc
 50
270.0
 51
7.792999999999999
  0
ARC
  5
9E0A
330
9BFF
100
AcDbEntity
  8
1
  6
Continuous
100
AcDbCircle
 10
20.57224499999999
 20
185.2083439999999
 30
0.0
 40
0.055565
100
AcDbArc
 50
172.2069999999999
 51
270.0
  0
ARC
  5
9E0B
330
9BFF
100
AcDbEntity
  8
1
  6
Continuous
100
AcDbCircle
 10
17.734773
 20
184.318532
 30
0.0
 40
6.610656999999998
100
AcDbArc
 50
7.792999999999999
 51
10.10399999999999
  0
ARC
  5
9E0C
330
9BFF
100
AcDbEntity
  8
1
  6
Continuous
100
AcDbCircle
 10
27.06707999999999
 20
184.318532
 30
0.0
 40
6.610656999999998
100
AcDbArc
 50
169.896
 51
172.2069999999999
  0
ARC
  5
9E0D
330
9BFF
100
AcDbEntity
  8
1
  6
Continuous
100
AcDbCircle
 10
17.734773
 20
184.318532
 30
0.0
 40
6.610656999999998
100
AcDbArc
 50
333.9859999999998
 51
337.0559999999999
  0
ARC
  5
9E0E
330
9BFF
100
AcDbEntity
  8
1
  6
Continuous
100
AcDbCircle
 10
23.77060399999999
 20
181.7641309999999
 30
0.0
 40
0.055565
100
AcDbArc
 50
337.0559999999999
 51
90.0
  0
LINE
  5
9E0F
330
9BFF
100
AcDbEntity
  8
1
  6
Continuous
100
AcDbLine
 10
20.46285099999998
 20
184.041101
 30
0.0
 11
24.339001
 21
184.041101
 31
0.0
  0
LINE
  5
9E10
330
9BFF
100
AcDbEntity
  8
1
  6
Continuous
100
AcDbLine
 10
20.50909
 20
183.4862369999999
 30
0.0
 11
24.292762
 21
183.4862369999999
 31
0.0
  0
LINE
  5
9E11
330
9BFF
100
AcDbEntity
  8
1
  6
Continuous
100
AcDbLine
 10
24.12810799999999
 20
182.9302459999999
 30
0.0
 11
23.066875
 21
182.9302459999999
 31
0.0
  0
LINE
  5
9E12
330
9BFF
100
AcDbEntity
  8
1
  6
Continuous
100
AcDbLine
 10
20.957943
 20
182.374255
 30
0.0
 11
23.843909
 21
182.374255
 31
0.0
  0
ARC
  5
9E13
330
9BFF
100
AcDbEntity
  8
1
  6
Continuous
100
AcDbCircle
 10
24.12810799999999
 20
182.874985
 30
0.0
 40
0.055565
100
AcDbArc
 50
347.2709999999998
 51
90.0
  0
ARC
  5
9E14
330
9BFF
100
AcDbEntity
  8
1
  6
Continuous
100
AcDbCircle
 10
17.734773
 20
184.318532
 30
0.0
 40
6.610656999999998
100
AcDbArc
 50
344.794
 51
347.2709999999998
  0
ARC
  5
9E15
330
9BFF
100
AcDbEntity
  8
1
  6
Continuous
100
AcDbCircle
 10
17.734773
 20
184.318532
 30
0.0
 40
6.610656999999998
100
AcDbArc
 50
344.7419999999998
 51
344.794
  0
ARC
  5
9E16
330
9BFF
100
AcDbEntity
  8
1
  6
Continuous
100
AcDbCircle
 10
23.843909
 20
182.6528139999998
 30
0.0
 40
0.277826
100
AcDbArc
 50
270.0
 51
344.7419999999998
  0
ARC
  5
9E17
330
9BFF
100
AcDbEntity
  8
1
  6
Continuous
100
AcDbCircle
 10
20.957943
 20
182.6528139999998
 30
0.0
 40
0.277826
100
AcDbArc
 50
195.2574999999999
 51
270.0
  0
ARC
  5
9E18
330
9BFF
100
AcDbEntity
  8
1
  6
Continuous
100
AcDbCircle
 10
27.06707999999999
 20
184.318532
 30
0.0
 40
6.610656999999998
100
AcDbArc
 50
193.2680999999999
 51
195.2574999999999
  0
ARC
  5
9E19
330
9BFF
100
AcDbEntity
  8
1
  6
Continuous
100
AcDbCircle
 10
27.06707999999999
 20
184.318532
 30
0.0
 40
6.610656999999998
100
AcDbArc
 50
192.7289
 51
193.2680999999999
  0
ARC
  5
9E1A
330
9BFF
100
AcDbEntity
  8
1
  6
Continuous
100
AcDbCircle
 10
20.673745
 20
182.874985
 30
0.0
 40
0.055565
100
AcDbArc
 50
90.0
 51
192.7289
  0
ARC
  5
9E1B
330
9BFF
100
AcDbEntity
  8
1
  6
Continuous
100
AcDbCircle
 10
23.425506
 20
181.54196
 30
0.0
 40
0.277826
100
AcDbArc
 50
270.0
 51
333.9859999999998
  0
ARC
  5
9E1C
330
9BFF
100
AcDbEntity
  8
1
  6
Continuous
100
AcDbCircle
 10
21.03012
 20
181.7641309999999
 30
0.0
 40
0.055565
100
AcDbArc
 50
90.0
 51
202.944
  0
ARC
  5
9E1D
330
9BFF
100
AcDbEntity
  8
1
  6
Continuous
100
AcDbCircle
 10
27.06707999999999
 20
184.318532
 30
0.0
 40
6.610656999999998
100
AcDbArc
 50
202.944
 51
206.0144
  0
ARC
  5
9E1E
330
9BFF
100
AcDbEntity
  8
1
  6
Continuous
100
AcDbCircle
 10
21.37634599999999
 20
181.54196
 30
0.0
 40
0.277826
100
AcDbArc
 50
206.0144
 51
270.0
  0
ARC
  5
9E1F
330
9BFF
100
AcDbEntity
  8
1
  6
Continuous
100
AcDbCircle
 10
22.400362
 20
180.9859679999999
 30
0.0
 40
1.431648999999999
100
AcDbArc
 50
270.0
 51
324.4619999999998
  0
ARC
  5
9E20
330
9BFF
100
AcDbEntity
  8
1
  6
Continuous
100
AcDbCircle
 10
22.400362
 20
180.9859679999999
 30
0.0
 40
1.431648999999999
100
AcDbArc
 50
215.5377
 51
256.5374
  0
LINE
  5
9E21
330
9BFF
100
AcDbEntity
  8
1
  6
Continuous
100
AcDbLine
 10
22.400362
 20
184.041101
 30
0.0
 11
22.400362
 21
183.4862369999999
 31
0.0
  0
LINE
  5
9E22
330
9BFF
100
AcDbEntity
  8
1
  6
Continuous
100
AcDbLine
 10
21.73384899999999
 20
182.9302459999999
 30
0.0
 11
20.673745
 21
182.9302459999999
 31
0.0
  0
LINE
  5
9E23
330
9BFF
100
AcDbEntity
  8
1
  6
Continuous
100
AcDbLine
 10
21.03012
 20
181.8193909999999
 30
0.0
 11
23.77060399999999
 21
181.8193909999999
 31
0.0
  0
LINE
  5
9E24
330
9BFF
100
AcDbEntity
  8
1
  6
Continuous
100
AcDbLine
 10
23.425506
 20
181.2633999999999
 30
0.0
 11
21.37634599999999
 21
181.2633999999999
 31
0.0
  0
LINE
  5
9E25
330
9BFF
100
AcDbEntity
  8
1
  6
Continuous
100
AcDbLine
 10
20.87674299999999
 20
180.708537
 30
0.0
 11
23.272129
 21
180.708537
 31
0.0
  0
ARC
  5
9E26
330
9BFF
100
AcDbEntity
  8
1
  6
Continuous
100
AcDbCircle
 10
228.446122
 20
114.3185249999998
 30
0.0
 40
3.093999999999998
100
AcDbArc
 50
150.7691519999999
 51
209.230848
  0
ARC
  5
9E27
330
9BFF
100
AcDbEntity
  8
2
  6
Continuous
100
AcDbCircle
 10
228.446122
 20
114.3185249999998
 30
0.0
 40
3.5
100
AcDbArc
 50
320.482549
 51
39.517451
  0
ARC
  5
9E28
330
9BFF
100
AcDbEntity
  8
1
  6
Continuous
100
AcDbCircle
 10
228.446122
 20
114.3185249999998
 30
0.0
 40
3.5
100
AcDbArc
 50
39.517451
 51
140.482157
  0
ARC
  5
9E29
330
9BFF
100
AcDbEntity
  8
2
  6
Continuous
100
AcDbCircle
 10
228.446122
 20
114.3185249999998
 30
0.0
 40
3.5
100
AcDbArc
 50
140.482157
 51
219.5178429999999
  0
ARC
  5
9E2A
330
9BFF
100
AcDbEntity
  8
1
  6
Continuous
100
AcDbCircle
 10
228.446122
 20
114.3185249999998
 30
0.0
 40
3.5
100
AcDbArc
 50
219.5178429999999
 51
320.482549
  0
ARC
  5
9E2B
330
9BFF
100
AcDbEntity
  8
1
  6
Continuous
100
AcDbCircle
 10
228.446122
 20
114.3185249999998
 30
0.0
 40
9.5
100
AcDbArc
 50
33.73862000000001
 51
146.2612149999999
  0
ARC
  5
9E2C
330
9BFF
100
AcDbEntity
  8
2
  6
Continuous
100
AcDbCircle
 10
228.446122
 20
114.3185249999998
 30
0.0
 40
9.5
100
AcDbArc
 50
326.26138
 51
33.73862000000001
  0
ARC
  5
9E2D
330
9BFF
100
AcDbEntity
  8
1
  6
Continuous
100
AcDbCircle
 10
228.446122
 20
114.3185249999998
 30
0.0
 40
9.5
100
AcDbArc
 50
213.7387849999999
 51
326.26138
  0
ARC
  5
9E2E
330
9BFF
100
AcDbEntity
  8
2
  6
Continuous
100
AcDbCircle
 10
228.446122
 20
114.3185249999998
 30
0.0
 40
9.5
100
AcDbArc
 50
146.2612149999999
 51
213.7387849999999
  0
LINE
  5
9E2F
330
9BFF
100
AcDbEntity
  8
1
  6
Continuous
100
AcDbLine
 10
101.331217
 20
119.5948959999999
 30
0.0
 11
76.15121600000001
 21
119.5948959999999
 31
0.0
  0
LINE
  5
9E30
330
9BFF
100
AcDbEntity
  8
1
  6
Continuous
100
AcDbLine
 10
103.7512219999999
 20
117.962711
 30
0.0
 11
102.551217
 21
117.962711
 31
0.0
  0
LINE
  5
9E31
330
9BFF
100
AcDbEntity
  8
1
  6
Continuous
100
AcDbLine
 10
103.7512219999999
 20
110.6743389999998
 30
0.0
 11
102.551217
 21
110.6743389999998
 31
0.0
  0
LINE
  5
9E32
330
9BFF
100
AcDbEntity
  8
1
  6
Continuous
100
AcDbLine
 10
101.331217
 20
109.042154
 30
0.0
 11
76.15121600000001
 21
109.042154
 31
0.0
  0
LINE
  5
9E33
330
9BFF
100
AcDbEntity
  8
1
  6
Continuous
100
AcDbLine
 10
115.851228
 20
116.5456399999999
 30
0.0
 11
106.1512229999999
 21
116.5456399999999
 31
0.0
  0
LINE
  5
9E34
330
9BFF
100
AcDbEntity
  8
1
  6
Continuous
100
AcDbLine
 10
115.851228
 20
112.09141
 30
0.0
 11
106.1512229999999
 21
112.09141
 31
0.0
  0
LINE
  5
9E35
330
9BFF
100
AcDbEntity
  8
1
  6
Continuous
100
AcDbLine
 10
101.331217
 20
123.818526
 30
0.0
 11
101.331217
 21
119.5948959999999
 31
0.0
  0
LINE
  5
9E36
330
9BFF
100
AcDbEntity
  8
1
  6
Continuous
100
AcDbLine
 10
101.331217
 20
104.818531
 30
0.0
 11
101.331217
 21
109.042154
 31
0.0
  0
LINE
  5
9E37
330
9BFF
100
AcDbEntity
  8
1
  6
Continuous
100
AcDbLine
 10
101.331217
 20
123.818526
 30
0.0
 11
102.551217
 21
123.018529
 31
0.0
  0
LINE
  5
9E38
330
9BFF
100
AcDbEntity
  8
1
  6
Continuous
100
AcDbLine
 10
102.551217
 20
105.618528
 30
0.0
 11
101.331217
 21
104.818531
 31
0.0
  0
LINE
  5
9E39
330
9BFF
100
AcDbEntity
  8
1
  6
Continuous
100
AcDbLine
 10
106.1512229999999
 20
122.0185219999999
 30
0.0
 11
104.5512169999999
 21
122.0185219999999
 31
0.0
  0
LINE
  5
9E3A
330
9BFF
100
AcDbEntity
  8
1
  6
Continuous
100
AcDbLine
 10
106.1512229999999
 20
118.4878969999999
 30
0.0
 11
104.5512169999999
 21
118.4878969999999
 31
0.0
  0
LINE
  5
9E3B
330
9BFF
100
AcDbEntity
  8
1
  6
Continuous
100
AcDbLine
 10
106.1512229999999
 20
117.4698389999998
 30
0.0
 11
104.5512169999999
 21
117.4698389999998
 31
0.0
  0
LINE
  5
9E3C
330
9BFF
100
AcDbEntity
  8
1
  6
Continuous
100
AcDbLine
 10
106.1512229999999
 20
108.6334889999998
 30
0.0
 11
104.5512169999999
 21
108.6334889999998
 31
0.0
  0
LINE
  5
9E3D
330
9BFF
100
AcDbEntity
  8
1
  6
Continuous
100
AcDbLine
 10
106.1512229999999
 20
106.796804
 30
0.0
 11
105.8512169999999
 21
106.796804
 31
0.0
  0
LINE
  5
9E3E
330
9BFF
100
AcDbEntity
  8
1
  6
Continuous
100
AcDbLine
 10
380.741021
 20
104.818531
 30
0.0
 11
355.5610199999999
 21
104.818531
 31
0.0
  0
LINE
  5
9E3F
330
9BFF
100
AcDbEntity
  8
2
  6
Continuous
100
AcDbLine
 10
380.211021
 20
123.2770289999999
 30
0.0
 11
354.7352329999998
 21
123.2770289999999
 31
0.0
  0
LINE
  5
9E40
330
9BFF
100
AcDbEntity
  8
1
  6
Continuous
100
AcDbLine
 10
380.741021
 20
123.818526
 30
0.0
 11
355.5610199999999
 21
123.818526
 31
0.0
  0
LINE
  5
9E41
330
9BFF
100
AcDbEntity
  8
2
  6
Continuous
100
AcDbLine
 10
353.1410149999999
 20
117.962711
 30
0.0
 11
380.741021
 21
109.042154
 31
0.0
  0
LINE
  5
9E42
330
9BFF
100
AcDbEntity
  8
2
  6
Continuous
100
AcDbLine
 10
380.741021
 20
119.5948959999999
 30
0.0
 11
353.1410149999999
 21
110.6743389999998
 31
0.0
  0
LINE
  5
9E43
330
9BFF
100
AcDbEntity
  8
1
  6
Continuous
100
AcDbLine
 10
355.5610199999999
 20
119.5948959999999
 30
0.0
 11
380.741021
 21
119.5948959999999
 31
0.0
  0
LINE
  5
9E44
330
9BFF
100
AcDbEntity
  8
1
  6
Continuous
100
AcDbLine
 10
355.5610199999999
 20
109.042154
 30
0.0
 11
380.741021
 21
109.042154
 31
0.0
  0
LINE
  5
9E45
330
9BFF
100
AcDbEntity
  8
4
  6
CENTER
100
AcDbLine
 10
389.220117
 20
114.3185249999998
 30
0.0
 11
339.256204
 21
114.3185249999998
 31
0.0
  0
LINE
  5
9E46
330
9BFF
100
AcDbEntity
  8
1
  6
Continuous
100
AcDbLine
 10
381.7410209999999
 20
125.318532
 30
0.0
 11
381.7410209999999
 21
103.318525
 31
0.0
  0
LINE
  5
9E47
330
9BFF
100
AcDbEntity
  8
1
  6
Continuous
100
AcDbLine
 10
380.741021
 20
103.318525
 30
0.0
 11
380.741021
 21
125.318532
 31
0.0
  0
LINE
  5
9E48
330
9BFF
100
AcDbEntity
  8
1
  6
Continuous
100
AcDbLine
 10
386.041017
 20
105.323629
 30
0.0
 11
386.041017
 21
123.313428
 31
0.0
  0
LINE
  5
9E49
330
9BFF
100
AcDbEntity
  8
1
  6
Continuous
100
AcDbLine
 10
380.211021
 20
104.818531
 30
0.0
 11
380.211021
 21
109.042154
 31
0.0
  0
LINE
  5
9E4A
330
9BFF
100
AcDbEntity
  8
1
  6
Continuous
100
AcDbLine
 10
381.741014
 20
103.3185319999999
 30
0.0
 11
386.041017
 21
105.323637
 31
0.0
  0
LINE
  5
9E4B
330
9BFF
100
AcDbEntity
  8
1
  6
Continuous
100
AcDbLine
 10
380.741021
 20
103.318525
 30
0.0
 11
381.7410209999999
 21
103.318525
 31
0.0
  0
LINE
  5
9E4C
330
9BFF
100
AcDbEntity
  8
2
  6
Continuous
100
AcDbLine
 10
380.741021
 20
123.5830299999999
 30
0.0
 11
380.211021
 21
123.2770289999999
 31
0.0
  0
LINE
  5
9E4D
330
9BFF
100
AcDbEntity
  8
1
  6
Continuous
100
AcDbLine
 10
380.211021
 20
123.818526
 30
0.0
 11
380.211021
 21
119.5948959999999
 31
0.0
  0
LINE
  5
9E4E
330
9BFF
100
AcDbEntity
  8
1
  6
Continuous
100
AcDbLine
 10
381.741014
 20
125.318532
 30
0.0
 11
386.0410089999999
 21
123.313428
 31
0.0
  0
LINE
  5
9E4F
330
9BFF
100
AcDbEntity
  8
1
  6
Continuous
100
AcDbLine
 10
380.741021
 20
125.318532
 30
0.0
 11
381.7410209999999
 21
125.318532
 31
0.0
  0
LINE
  5
9E50
330
9BFF
100
AcDbEntity
  8
1
  6
Continuous
100
AcDbLine
 10
350.741014
 20
122.0185219999999
 30
0.0
 11
350.741014
 21
106.796804
 31
0.0
  0
LINE
  5
9E51
330
9BFF
100
AcDbEntity
  8
1
  6
Continuous
100
AcDbLine
 10
352.34102
 20
122.0185219999999
 30
0.0
 11
352.34102
 21
106.796804
 31
0.0
  0
LINE
  5
9E52
330
9BFF
100
AcDbEntity
  8
1
  6
Continuous
100
AcDbLine
 10
354.34102
 20
110.6743389999998
 30
0.0
 11
355.5610199999999
 21
109.042154
 31
0.0
  0
LINE
  5
9E53
330
9BFF
100
AcDbEntity
  8
1
  6
Continuous
100
AcDbLine
 10
354.34102
 20
105.618528
 30
0.0
 11
354.34102
 21
110.6743389999998
 31
0.0
  0
LINE
  5
9E54
330
9BFF
100
AcDbEntity
  8
1
  6
Continuous
100
AcDbLine
 10
353.1410149999999
 20
106.541631
 30
0.0
 11
353.1410149999999
 21
123.018529
 31
0.0
  0
LINE
  5
9E55
330
9BFF
100
AcDbEntity
  8
1
  6
Continuous
100
AcDbLine
 10
354.34102
 20
105.618528
 30
0.0
 11
355.5610199999999
 21
104.818531
 31
0.0
  0
LINE
  5
9E56
330
9BFF
100
AcDbEntity
  8
1
  6
Continuous
100
AcDbLine
 10
355.5610199999999
 20
104.818531
 30
0.0
 11
355.5610199999999
 21
109.042154
 31
0.0
  0
LINE
  5
9E57
330
9BFF
100
AcDbEntity
  8
1
  6
Continuous
100
AcDbLine
 10
350.741014
 20
106.796804
 30
0.0
 11
352.34102
 21
106.796804
 31
0.0
  0
LINE
  5
9E58
330
9BFF
100
AcDbEntity
  8
1
  6
Continuous
100
AcDbLine
 10
351.0410199999999
 20
106.1185279999999
 30
0.0
 11
351.0410199999999
 21
106.796804
 31
0.0
  0
LINE
  5
9E59
330
9BFF
100
AcDbEntity
  8
1
  6
Continuous
100
AcDbLine
 10
353.1410149999999
 20
107.7596259999999
 30
0.0
 11
352.34102
 21
107.7596259999999
 31
0.0
  0
LINE
  5
9E5A
330
9BFF
100
AcDbEntity
  8
1
  6
Continuous
100
AcDbLine
 10
351.54102
 20
105.618528
 30
0.0
 11
351.0410199999999
 21
106.1185279999999
 31
0.0
  0
LINE
  5
9E5B
330
9BFF
100
AcDbEntity
  8
1
  6
Continuous
100
AcDbLine
 10
353.1410149999999
 20
106.541631
 30
0.0
 11
351.0410199999999
 21
106.541631
 31
0.0
  0
LINE
  5
9E5C
330
9BFF
100
AcDbEntity
  8
1
  6
Continuous
100
AcDbLine
 10
354.34102
 20
105.618528
 30
0.0
 11
351.54102
 21
105.618528
 31
0.0
  0
LINE
  5
9E5D
330
9BFF
100
AcDbEntity
  8
2
  6
Continuous
100
AcDbLine
 10
350.541017
 20
111.224523
 30
0.0
 11
341.6350249999999
 21
111.224523
 31
0.0
  0
LINE
  5
9E5E
330
9BFF
100
AcDbEntity
  8
2
  6
Continuous
100
AcDbLine
 10
350.541017
 20
117.4125269999999
 30
0.0
 11
341.635014
 21
117.4125269999999
 31
0.0
  0
LINE
  5
9E5F
330
9BFF
100
AcDbEntity
  8
1
  6
Continuous
100
AcDbLine
 10
341.0410089999999
 20
112.09141
 30
0.0
 11
350.741014
 21
112.09141
 31
0.0
  0
LINE
  5
9E60
330
9BFF
100
AcDbEntity
  8
2
  6
Continuous
100
AcDbLine
 10
350.741014
 20
112.722099
 30
0.0
 11
341.0410089999999
 21
116.5456399999999
 31
0.0
  0
LINE
  5
9E61
330
9BFF
100
AcDbEntity
  8
1
  6
Continuous
100
AcDbLine
 10
341.0410089999999
 20
116.5456399999999
 30
0.0
 11
350.741014
 21
116.5456399999999
 31
0.0
  0
LINE
  5
9E62
330
9BFF
100
AcDbEntity
  8
2
  6
Continuous
100
AcDbLine
 10
350.741014
 20
115.91495
 30
0.0
 11
341.0410089999999
 21
112.09141
 31
0.0
  0
LINE
  5
9E63
330
9BFF
100
AcDbEntity
  8
1
  6
Continuous
100
AcDbLine
 10
342.0410089999998
 20
117.818526
 30
0.0
 11
350.741014
 21
117.818526
 31
0.0
  0
LINE
  5
9E64
330
9BFF
100
AcDbEntity
  8
1
  6
Continuous
100
AcDbLine
 10
342.0410089999998
 20
110.8185229999999
 30
0.0
 11
350.741014
 21
110.8185229999999
 31
0.0
  0
LINE
  5
9E65
330
9BFF
100
AcDbEntity
  8
1
  6
Continuous
100
AcDbLine
 10
355.5610199999999
 20
123.818526
 30
0.0
 11
354.34102
 21
123.018529
 31
0.0
  0
LINE
  5
9E66
330
9BFF
100
AcDbEntity
  8
1
  6
Continuous
100
AcDbLine
 10
355.5610199999999
 20
123.818526
 30
0.0
 11
355.5610199999999
 21
119.5948959999999
 31
0.0
  0
LINE
  5
9E67
330
9BFF
100
AcDbEntity
  8
1
  6
Continuous
100
AcDbLine
 10
350.741014
 20
122.0185219999999
 30
0.0
 11
352.34102
 21
122.0185219999999
 31
0.0
  0
LINE
  5
9E68
330
9BFF
100
AcDbEntity
  8
1
  6
Continuous
100
AcDbLine
 10
354.34102
 20
117.962711
 30
0.0
 11
355.5610199999999
 21
119.5948959999999
 31
0.0
  0
LINE
  5
9E69
330
9BFF
100
AcDbEntity
  8
1
  6
Continuous
100
AcDbLine
 10
354.34102
 20
123.018529
 30
0.0
 11
354.34102
 21
117.962711
 31
0.0
  0
LINE
  5
9E6A
330
9BFF
100
AcDbEntity
  8
1
  6
Continuous
100
AcDbLine
 10
354.34102
 20
123.018529
 30
0.0
 11
353.1410149999999
 21
123.018529
 31
0.0
  0
LINE
  5
9E6B
330
9BFF
100
AcDbEntity
  8
1
  6
Continuous
100
AcDbLine
 10
353.1410149999999
 20
110.6743389999998
 30
0.0
 11
354.34102
 21
110.6743389999998
 31
0.0
  0
LINE
  5
9E6C
330
9BFF
100
AcDbEntity
  8
1
  6
Continuous
100
AcDbLine
 10
353.1410149999999
 20
117.962711
 30
0.0
 11
354.34102
 21
117.962711
 31
0.0
  0
LINE
  5
9E6D
330
9BFF
100
AcDbEntity
  8
1
  6
Continuous
100
AcDbLine
 10
350.541017
 20
117.818526
 30
0.0
 11
350.541017
 21
116.5456399999999
 31
0.0
  0
LINE
  5
9E6E
330
9BFF
100
AcDbEntity
  8
1
  6
Continuous
100
AcDbLine
 10
350.541017
 20
110.8185229999999
 30
0.0
 11
350.541017
 21
112.09141
 31
0.0
  0
LINE
  5
9E6F
330
9BFF
100
AcDbEntity
  8
2
  6
Continuous
100
AcDbLine
 10
350.741014
 20
117.6125159999999
 30
0.0
 11
350.541017
 21
117.4125189999999
 31
0.0
  0
LINE
  5
9E70
330
9BFF
100
AcDbEntity
  8
2
  6
Continuous
100
AcDbLine
 10
350.7410209999999
 20
111.0245259999999
 30
0.0
 11
350.5410089999998
 21
111.224531
 31
0.0
  0
LINE
  5
9E71
330
9BFF
100
AcDbEntity
  8
1
  6
Continuous
100
AcDbLine
 10
352.34102
 20
117.7185259999999
 30
0.0
 11
353.1410149999999
 21
117.7185259999999
 31
0.0
  0
LINE
  5
9E72
330
9BFF
100
AcDbEntity
  8
1
  6
Continuous
100
AcDbLine
 10
352.34102
 20
110.918523
 30
0.0
 11
353.1410149999999
 21
110.918523
 31
0.0
  0
LINE
  5
9E73
330
9BFF
100
AcDbEntity
  8
1
  6
Continuous
100
AcDbLine
 10
342.04104
 20
117.818526
 30
0.0
 11
342.04104
 21
116.5456399999999
 31
0.0
  0
LINE
  5
9E74
330
9BFF
100
AcDbEntity
  8
1
  6
Continuous
100
AcDbLine
 10
342.04104
 20
112.09141
 30
0.0
 11
342.04104
 21
110.8185229999999
 31
0.0
  0
LINE
  5
9E75
330
9BFF
100
AcDbEntity
  8
1
  6
Continuous
100
AcDbLine
 10
341.0410089999999
 20
116.818526
 30
0.0
 11
341.0410089999999
 21
111.8185389999998
 31
0.0
  0
LINE
  5
9E76
330
9BFF
100
AcDbEntity
  8
1
  6
Continuous
100
AcDbLine
 10
342.0410239999999
 20
117.818534
 30
0.0
 11
341.0410089999999
 21
116.818526
 31
0.0
  0
LINE
  5
9E77
330
9BFF
100
AcDbEntity
  8
1
  6
Continuous
100
AcDbLine
 10
342.0410089999998
 20
110.8185389999998
 30
0.0
 11
341.0410089999999
 21
111.8185389999998
 31
0.0
  0
LINE
  5
9E78
330
9BFF
100
AcDbEntity
  8
1
  6
Continuous
100
AcDbLine
 10
350.741014
 20
118.148618
 30
0.0
 11
352.34102
 21
118.148618
 31
0.0
  0
LINE
  5
9E79
330
9BFF
100
AcDbEntity
  8
1
  6
Continuous
100
AcDbLine
 10
350.741014
 20
110.488325
 30
0.0
 11
352.34102
 21
110.488325
 31
0.0
  0
LINE
  5
9E7A
330
9BFF
100
AcDbEntity
  8
1
  6
Continuous
100
AcDbLine
 10
76.681216
 20
52.218526
 30
0.0
 11
76.681216
 21
36.418523
 31
0.0
  0
LINE
  5
9E7B
330
9BFF
100
AcDbEntity
  8
1
  6
Continuous
100
AcDbLine
 10
101.331217
 20
52.218526
 30
0.0
 11
101.331217
 21
36.418523
 31
0.0
  0
LINE
  5
9E7C
330
9BFF
100
AcDbEntity
  8
1
  6
Continuous
100
AcDbLine
 10
102.551217
 20
52.218526
 30
0.0
 11
102.551217
 21
36.418523
 31
0.0
  0
LINE
  5
9E7D
330
9BFF
100
AcDbEntity
  8
1
  6
Continuous
100
AcDbLine
 10
106.1512229999999
 20
51.840238
 30
0.0
 11
104.5512169999999
 21
51.840238
 31
0.0
  0
LINE
  5
9E7E
330
9BFF
100
AcDbEntity
  8
1
  6
Continuous
100
AcDbLine
 10
106.1512229999999
 20
50.003538
 30
0.0
 11
104.5512169999999
 21
50.003538
 31
0.0
  0
LINE
  5
9E7F
330
9BFF
100
AcDbEntity
  8
1
  6
Continuous
100
AcDbLine
 10
106.1512229999999
 20
41.167264
 30
0.0
 11
105.8512169999999
 21
41.167264
 31
0.0
  0
LINE
  5
9E80
330
9BFF
100
AcDbEntity
  8
1
  6
Continuous
100
AcDbLine
 10
106.1512229999999
 20
40.14915199999999
 30
0.0
 11
104.5512169999999
 21
40.14915199999999
 31
0.0
  0
LINE
  5
9E81
330
9BFF
100
AcDbEntity
  8
1
  6
Continuous
100
AcDbLine
 10
106.1512229999999
 20
36.61852800000001
 30
0.0
 11
104.5512169999999
 21
36.61852800000001
 31
0.0
  0
LINE
  5
9E82
330
9BFF
100
AcDbEntity
  8
1
  6
Continuous
100
AcDbLine
 10
76.681216
 20
176.418523
 30
0.0
 11
76.681216
 21
192.218526
 31
0.0
  0
LINE
  5
9E83
330
9BFF
100
AcDbEntity
  8
1
  6
Continuous
100
AcDbLine
 10
102.551217
 20
176.418523
 30
0.0
 11
102.551217
 21
192.218526
 31
0.0
  0
LINE
  5
9E84
330
9BFF
100
AcDbEntity
  8
1
  6
Continuous
100
AcDbLine
 10
101.331217
 20
176.418523
 30
0.0
 11
101.331217
 21
192.218526
 31
0.0
  0
LINE
  5
9E85
330
9BFF
100
AcDbEntity
  8
1
  6
Continuous
100
AcDbLine
 10
106.1512229999999
 20
192.018522
 30
0.0
 11
104.5512169999999
 21
192.018522
 31
0.0
  0
LINE
  5
9E86
330
9BFF
100
AcDbEntity
  8
1
  6
Continuous
100
AcDbLine
 10
106.1512229999999
 20
188.148725
 30
0.0
 11
104.5512169999999
 21
188.148725
 31
0.0
  0
LINE
  5
9E87
330
9BFF
100
AcDbEntity
  8
1
  6
Continuous
100
AcDbLine
 10
106.1512229999999
 20
180.488431
 30
0.0
 11
104.5512169999999
 21
180.488431
 31
0.0
  0
LINE
  5
9E88
330
9BFF
100
AcDbEntity
  8
1
  6
Continuous
100
AcDbLine
 10
106.1512229999999
 20
176.7968119999999
 30
0.0
 11
104.5512169999999
 21
176.7968119999999
 31
0.0
  0
LINE
  5
9E89
330
9BFF
100
AcDbEntity
  8
2
  6
Continuous
100
AcDbLine
 10
380.741021
 20
105.0540189999999
 30
0.0
 11
380.211021
 21
105.360021
 31
0.0
  0
LINE
  5
9E8A
330
9BFF
100
AcDbEntity
  8
2
  6
Continuous
100
AcDbLine
 10
380.211021
 20
105.360021
 30
0.0
 11
354.7352329999998
 21
105.360021
 31
0.0
  0
ENDSEC
  0
SECTION
  2
OBJECTS
  0
DICTIONARY
  5
9BED
330
0
100
AcDbDictionary
281
     1
  3
ACAD_CIP_PREVIOUS_PRODUCT_INFO
350
9EEE
  3
ACAD_COLOR
350
9ED0
  3
ACAD_DETAILVIEWSTYLE
350
9EE9
  3
ACAD_GROUP
350
9BEE
  3
ACAD_LAYOUT
350
9BFA
  3
ACAD_MATERIAL
350
9E9E
  3
ACAD_MLEADERSTYLE
350
9EE5
  3
ACAD_MLINESTYLE
350
9BF7
  3
ACAD_PLOTSETTINGS
350
9BF9
  3
ACAD_PLOTSTYLENAME
350
9E9C
  3
ACAD_SCALELIST
350
9ED3
  3
ACAD_SECTIONVIEWSTYLE
350
9EE7
  3
ACAD_TABLESTYLE
350
9ED1
  3
ACAD_VISUALSTYLE
350
9EB7
  3
ACDB_RECOMPOSE_DATA
350
9F0C
  3
AcDbVariableDictionary
350
9EFF
  3
DWGPROPS
350
9F0D
  0
DICTIONARY
  5
9EEF
330
9BF1
100
AcDbDictionary
280
     1
281
     1
  3
ADSK_XREC_LAYER_RECONCILED
360
9EF0
  0
DICTIONARY
  5
9EF1
330
9C07
100
AcDbDictionary
280
     1
281
     1
  3
ADSK_XREC_LAYER_RECONCILED
360
9EF2
  0
DICTIONARY
  5
9EF3
330
9C08
100
AcDbDictionary
280
     1
281
     1
  3
ADSK_XREC_LAYER_RECONCILED
360
9EF4
  0
DICTIONARY
  5
9EF5
330
9C09
100
AcDbDictionary
280
     1
281
     1
  3
ADSK_XREC_LAYER_RECONCILED
360
9EF6
  0
DICTIONARY
  5
9EF7
330
9C0A
100
AcDbDictionary
280
     1
281
     1
  3
ADSK_XREC_LAYER_RECONCILED
360
9EF8
  0
DICTIONARY
  5
9EF9
330
9C0B
100
AcDbDictionary
280
     1
281
     1
  3
ADSK_XREC_LAYER_RECONCILED
360
9EFA
  0
DICTIONARY
  5
9EFB
330
9C0C
100
AcDbDictionary
280
     1
281
     1
  3
ADSK_XREC_LAYER_RECONCILED
360
9EFC
  0
DICTIONARY
  5
9EFD
330
9C0D
100
AcDbDictionary
280
     1
281
     1
  3
ADSK_XREC_LAYER_RECONCILED
360
9EFE
  0
DICTIONARY
  5
9E97
330
9BFF
100
AcDbDictionary
281
     1
  3
ACAD_LAYOUTSELFREF
350
9E98
  0
DICTIONARY
  5
9E95
330
9BFB
100
AcDbDictionary
281
     1
  3
ACAD_LAYOUTSELFREF
350
9E96
  0
XRECORD
  5
9EEE
102
{ACAD_REACTORS
330
9BED
102
}
330
9BED
100
AcDbXrecord
280
     1
300
ACDLT
300
2014
300
ACDLT_F_S
  0
DICTIONARY
  5
9ED0
102
{ACAD_REACTORS
330
9BED
102
}
330
9BED
100
AcDbDictionary
281
     1
  0
DICTIONARY
  5
9EE9
102
{ACAD_REACTORS
330
9BED
102
}
330
9BED
100
AcDbDictionary
281
     1
  3
Imperial24
350
9EEA
  0
DICTIONARY
  5
9BEE
102
{ACAD_REACTORS
330
9BED
102
}
330
9BED
100
AcDbDictionary
281
     1
  0
DICTIONARY
  5
9BFA
102
{ACAD_REACTORS
330
9BED
102
}
330
9BED
100
AcDbDictionary
281
     1
  3
Model
350
9EEB
  3
レイアウト1
350
9EEC
  0
DICTIONARY
  5
9E9E
102
{ACAD_REACTORS
330
9BED
102
}
330
9BED
100
AcDbDictionary
281
     1
  3
ByBlock
350
9EA7
  3
ByLayer
350
9E9F
  3
Global
350
9EAF
  0
DICTIONARY
  5
9EE5
102
{ACAD_REACTORS
330
9BED
102
}
330
9BED
100
AcDbDictionary
281
     1
  3
Standard
350
9EE6
  0
DICTIONARY
  5
9BF7
102
{ACAD_REACTORS
330
9BED
102
}
330
9BED
100
AcDbDictionary
281
     1
  3
STANDARD
350
9BF8
  0
DICTIONARY
  5
9BF9
102
{ACAD_REACTORS
330
9BED
102
}
330
9BED
100
AcDbDictionary
281
     1
  0
ACDBDICTIONARYWDFLT
  5
9E9C
102
{ACAD_REACTORS
330
9BED
102
}
330
9BED
100
AcDbDictionary
281
     1
  3
Normal
350
9E9D
100
AcDbDictionaryWithDefault
340
9E9D
  0
DICTIONARY
  5
9ED3
102
{ACAD_REACTORS
330
9BED
102
}
330
9BED
100
AcDbDictionary
281
     1
  3
A0
350
9ED4
  3
A1
350
9ED5
  3
A2
350
9ED6
  3
A3
350
9ED7
  3
A4
350
9ED8
  3
A5
350
9ED9
  3
A6
350
9EDA
  3
A7
350
9EDB
  3
A8
350
9EDC
  3
A9
350
9EDD
  3
B0
350
9EDE
  3
B1
350
9EDF
  3
B2
350
9EE0
  3
B3
350
9EE1
  3
B4
350
9EE2
  3
B5
350
9EE3
  3
B6
350
9EE4
  0
DICTIONARY
  5
9EE7
102
{ACAD_REACTORS
330
9BED
102
}
330
9BED
100
AcDbDictionary
281
     1
  3
Imperial24
350
9EE8
  0
DICTIONARY
  5
9ED1
102
{ACAD_REACTORS
330
9BED
102
}
330
9BED
100
AcDbDictionary
281
     1
  3
Standard
350
9ED2
  0
DICTIONARY
  5
9EB7
102
{ACAD_REACTORS
330
9BED
102
}
330
9BED
100
AcDbDictionary
281
     1
  3
2dWireframe
350
9EBD
  3
Basic
350
9EBC
  3
Brighten
350
9EC3
  3
ColorChange
350
9EC7
  3
Conceptual
350
9EC0
  3
Dim
350
9EC2
  3
EdgeColorOff
350
9ECF
  3
Facepattern
350
9EC6
  3
Flat
350
9EB8
  3
FlatWithEdges
350
9EB9
  3
Gouraud
350
9EBA
  3
GouraudWithEdges
350
9EBB
  3
Hidden
350
9EBF
  3
JitterOff
350
9ECD
  3
Linepattern
350
9EC5
  3
OverhangOff
350
9ECE
  3
Realistic
350
9EC1
  3
Shaded
350
9ECC
  3
Shaded with edges
350
9ECB
  3
Shades of Gray
350
9EC8
  3
Sketchy
350
9EC9
  3
Thicken
350
9EC4
  3
Wireframe
350
9EBE
  3
X-Ray
350
9ECA
  0
XRECORD
  5
9F0C
102
{ACAD_REACTORS
330
9BED
102
}
330
9BED
100
AcDbXrecord
280
     1
 90
        1
330
9ED2
  0
DICTIONARY
  5
9EFF
102
{ACAD_REACTORS
330
9BED
102
}
330
9BED
100
AcDbDictionary
281
     1
  3
CANNOSCALE
350
9F04
  3
CMLEADERSTYLE
350
9F01
  3
CTABLESTYLE
350
9F00
  3
CVIEWDETAILSTYLE
350
9F02
  3
CVIEWSECTIONSTYLE
350
9F03
  3
DIMASSOC
350
9F07
  3
INDEXCTL
350
9F06
  3
SORTENTS
350
9F05
  3
XCLIPFRAME
350
9F08
  0
XRECORD
  5
9F0D
102
{ACAD_REACTORS
330
9BED
102
}
330
9BED
100
AcDbXrecord
280
     1
  1
DWGPROPS COOKIE
  2

  3

  4

  6

  7

  8
Yoshitsune
  9

300
=
301
=
302
=
303
=
304
=
305
=
306
=
307
=
308
=
309
=
 40
0.0000153240740741
 41
2450950.414101968
 42
2457192.603760533
  1

 90
        0
  0
XRECORD
  5
9EF0
102
{ACAD_REACTORS
330
9EEF
102
}
330
9EEF
100
AcDbXrecord
280
     1
290
     1
  0
XRECORD
  5
9EF2
102
{ACAD_REACTORS
330
9EF1
102
}
330
9EF1
100
AcDbXrecord
280
     1
290
     1
  0
XRECORD
  5
9EF4
102
{ACAD_REACTORS
330
9EF3
102
}
330
9EF3
100
AcDbXrecord
280
     1
290
     1
  0
XRECORD
  5
9EF6
102
{ACAD_REACTORS
330
9EF5
102
}
330
9EF5
100
AcDbXrecord
280
     1
290
     1
  0
XRECORD
  5
9EF8
102
{ACAD_REACTORS
330
9EF7
102
}
330
9EF7
100
AcDbXrecord
280
     1
290
     1
  0
XRECORD
  5
9EFA
102
{ACAD_REACTORS
330
9EF9
102
}
330
9EF9
100
AcDbXrecord
280
     1
290
     1
  0
XRECORD
  5
9EFC
102
{ACAD_REACTORS
330
9EFB
102
}
330
9EFB
100
AcDbXrecord
280
     1
290
     1
  0
XRECORD
  5
9EFE
102
{ACAD_REACTORS
330
9EFD
102
}
330
9EFD
100
AcDbXrecord
280
     1
290
     1
  0
XRECORD
  5
9E98
102
{ACAD_REACTORS
330
9E97
102
}
330
9E97
100
AcDbXrecord
280
     1
340
9BFF
  0
XRECORD
  5
9E96
102
{ACAD_REACTORS
330
9E95
102
}
330
9E95
100
AcDbXrecord
280
     1
340
9BFB
  0
ACDBDETAILVIEWSTYLE
  5
9EEA
102
{ACAD_XDICTIONARY
360
9F45
102
}
102
{ACAD_REACTORS
330
9EE9
102
}
330
9EE9
100
AcDbModelDocViewStyle
 70
     0
  3
Imperial24
290
     0
100
AcDbDetailViewStyle
 70
     0
 71
     0
 90
        3
 71
     1
340
9BF2
 40
0.24
340
0
 40
0.24
300

 40
0.36
280
     3
 71
     2
340
9BF6
 90
       25
 71
     3
340
9BF2
 40
0.24
 90
        1
 40
0.75
 90
        1
300
%<\AcVar ViewType \f "%tc1">% %<\AcVar ViewDetailId>%\PSCALE %<\AcVar ViewScale \f "%sn">%
 71
     4
340
9BF6
 90
       25
340
9BF6
 90
       25
280
     0
  0
LAYOUT
  5
9EEB
102
{ACAD_XDICTIONARY
360
9F47
102
}
102
{ACAD_REACTORS
330
9BFA
102
}
330
9BFA
100
AcDbPlotSettings
  1

  2
Canon LBP9100C
  4

  6

 40
0.0
 41
0.0
 42
0.0
 43
0.0
 44
0.0
 45
0.0
 46
0.0
 47
0.0
 48
0.0
 49
0.0
140
0.0
141
0.0
142
1.0
143
1.0
 70
  1712
 72
     0
 73
     0
 74
     0
  7

 75
     0
147
1.0
148
0.0
149
0.0
100
AcDbLayout
  1
Model
 70
     1
 71
     0
 10
0.0
 20
0.0
 11
12.0
 21
9.0
 12
0.0
 22
0.0
 32
0.0
 14
0.0
 24
0.0
 34
0.0
 15
0.0
 25
0.0
 35
0.0
146
0.0
 13
0.0
 23
0.0
 33
0.0
 16
1.0
 26
0.0
 36
0.0
 17
0.0
 27
1.0
 37
0.0
 76
     0
330
9BFF
331
9E94
  0
LAYOUT
  5
9EEC
102
{ACAD_XDICTIONARY
360
9F49
102
}
102
{ACAD_REACTORS
330
9BFA
102
}
330
9BFA
100
AcDbPlotSettings
  1

  2
Canon LBP9100C
  4

  6

 40
0.0
 41
0.0
 42
0.0
 43
0.0
 44
0.0
 45
0.0
 46
0.0
 47
0.0
 48
0.0
 49
0.0
140
0.0
141
0.0
142
1.0
143
1.0
 70
   688
 72
     0
 73
     0
 74
     5
  7

 75
    16
147
1.0
148
0.0
149
0.0
100
AcDbLayout
  1
レイアウト1
 70
     0
 71
     1
 10
0.0
 20
0.0
 11
420.0
 21
297.0
 12
0.0
 22
0.0
 32
0.0
 14
1.000000000000000E+20
 24
1.000000000000000E+20
 34
1.000000000000000E+20
 15
-1.000000000000000E+20
 25
-1.000000000000000E+20
 35
-1.000000000000000E+20
146
0.0
 13
0.0
 23
0.0
 33
0.0
 16
1.0
 26
0.0
 36
0.0
 17
0.0
 27
1.0
 37
0.0
 76
     0
330
9BFB
  0
MATERIAL
  5
9EA7
102
{ACAD_XDICTIONARY
360
9EA8
102
}
102
{ACAD_REACTORS
330
9E9E
102
}
330
9E9E
100
AcDbMaterial
  1
ByBlock
 72
     0
 43
0.0208333333333333
 43
0.0
 43
0.0
 43
0.0
 43
0.0
 43
0.0208333333333333
 43
0.0
 43
0.0
 43
0.0
 43
0.0
 43
1.0
 43
0.0
 43
0.0
 43
0.0
 43
0.0
 43
1.0
 77
     0
 47
0.0208333333333333
 47
0.0
 47
0.0
 47
0.0
 47
0.0
 47
0.0208333333333333
 47
0.0
 47
0.0
 47
0.0
 47
0.0
 47
1.0
 47
0.0
 47
0.0
 47
0.0
 47
0.0
 47
1.0
171
     0
 49
0.0208333333333333
 49
0.0
 49
0.0
 49
0.0
 49
0.0
 49
0.0208333333333333
 49
0.0
 49
0.0
 49
0.0
 49
0.0
 49
1.0
 49
0.0
 49
0.0
 49
0.0
 49
0.0
 49
1.0
175
     0
142
0.0208333333333333
142
0.0
142
0.0
142
0.0
142
0.0
142
0.0208333333333333
142
0.0
142
0.0
142
0.0
142
0.0
142
1.0
142
0.0
142
0.0
142
0.0
142
0.0
142
1.0
179
     0
144
0.0208333333333333
144
0.0
144
0.0
144
0.0
144
0.0
144
0.0208333333333333
144
0.0
144
0.0
144
0.0
144
0.0
144
1.0
144
0.0
144
0.0
144
0.0
144
0.0
144
1.0
147
0.0208333333333333
147
0.0
147
0.0
147
0.0
147
0.0
147
0.0208333333333333
147
0.0
147
0.0
147
0.0
147
0.0
147
1.0
147
0.0
147
0.0
147
0.0
147
0.0
147
1.0
  0
MATERIAL
  5
9E9F
102
{ACAD_XDICTIONARY
360
9EA0
102
}
102
{ACAD_REACTORS
330
9E9E
102
}
330
9E9E
100
AcDbMaterial
  1
ByLayer
 72
     0
 43
0.0208333333333333
 43
0.0
 43
0.0
 43
0.0
 43
0.0
 43
0.0208333333333333
 43
0.0
 43
0.0
 43
0.0
 43
0.0
 43
1.0
 43
0.0
 43
0.0
 43
0.0
 43
0.0
 43
1.0
 77
     0
 47
0.0208333333333333
 47
0.0
 47
0.0
 47
0.0
 47
0.0
 47
0.0208333333333333
 47
0.0
 47
0.0
 47
0.0
 47
0.0
 47
1.0
 47
0.0
 47
0.0
 47
0.0
 47
0.0
 47
1.0
171
     0
 49
0.0208333333333333
 49
0.0
 49
0.0
 49
0.0
 49
0.0
 49
0.0208333333333333
 49
0.0
 49
0.0
 49
0.0
 49
0.0
 49
1.0
 49
0.0
 49
0.0
 49
0.0
 49
0.0
 49
1.0
175
     0
142
0.0208333333333333
142
0.0
142
0.0
142
0.0
142
0.0
142
0.0208333333333333
142
0.0
142
0.0
142
0.0
142
0.0
142
1.0
142
0.0
142
0.0
142
0.0
142
0.0
142
1.0
179
     0
144
0.0208333333333333
144
0.0
144
0.0
144
0.0
144
0.0
144
0.0208333333333333
144
0.0
144
0.0
144
0.0
144
0.0
144
1.0
144
0.0
144
0.0
144
0.0
144
0.0
144
1.0
147
0.0208333333333333
147
0.0
147
0.0
147
0.0
147
0.0
147
0.0208333333333333
147
0.0
147
0.0
147
0.0
147
0.0
147
1.0
147
0.0
147
0.0
147
0.0
147
0.0
147
1.0
  0
MATERIAL
  5
9EAF
102
{ACAD_XDICTIONARY
360
9EB0
102
}
102
{ACAD_REACTORS
330
9E9E
102
}
330
9E9E
100
AcDbMaterial
  1
Global
 72
     0
 43
0.0208333333333333
 43
0.0
 43
0.0
 43
0.0
 43
0.0
 43
0.0208333333333333
 43
0.0
 43
0.0
 43
0.0
 43
0.0
 43
1.0
 43
0.0
 43
0.0
 43
0.0
 43
0.0
 43
1.0
 77
     0
 47
0.0208333333333333
 47
0.0
 47
0.0
 47
0.0
 47
0.0
 47
0.0208333333333333
 47
0.0
 47
0.0
 47
0.0
 47
0.0
 47
1.0
 47
0.0
 47
0.0
 47
0.0
 47
0.0
 47
1.0
171
     0
 49
0.0208333333333333
 49
0.0
 49
0.0
 49
0.0
 49
0.0
 49
0.0208333333333333
 49
0.0
 49
0.0
 49
0.0
 49
0.0
 49
1.0
 49
0.0
 49
0.0
 49
0.0
 49
0.0
 49
1.0
175
     0
142
0.0208333333333333
142
0.0
142
0.0
142
0.0
142
0.0
142
0.0208333333333333
142
0.0
142
0.0
142
0.0
142
0.0
142
1.0
142
0.0
142
0.0
142
0.0
142
0.0
142
1.0
179
     0
144
0.0208333333333333
144
0.0
144
0.0
144
0.0
144
0.0
144
0.0208333333333333
144
0.0
144
0.0
144
0.0
144
0.0
144
1.0
144
0.0
144
0.0
144
0.0
144
0.0
144
1.0
147
0.0208333333333333
147
0.0
147
0.0
147
0.0
147
0.0
147
0.0208333333333333
147
0.0
147
0.0
147
0.0
147
0.0
147
1.0
147
0.0
147
0.0
147
0.0
147
0.0
147
1.0
  0
MLEADERSTYLE
  5
9EE6
102
{ACAD_REACTORS
330
9EE5
102
}
330
9EE5
100
AcDbMLeaderStyle
170
     2
171
     1
172
     0
 90
        2
 40
0.0
 41
0.0
173
     1
 91
-1056964608
340
9BF4
 92
       -2
290
     1
 42
0.09
291
     1
 43
0.36
  3
Standard
 44
0.18
300

342
9BF2
174
     1
178
     6
175
     1
176
     0
 93
-1056964608
 45
0.18
292
     0
297
     0
 46
0.18
 94
-1056964608
 47
1.0
 49
1.0
140
1.0
293
     1
141
0.0
294
     1
177
     0
142
1.0
295
     0
296
     0
143
0.125
1001
ACAD_MLEADERVER
1070
     2
  0
MLINESTYLE
  5
9BF8
102
{ACAD_REACTORS
330
9BF7
102
}
330
9BF7
100
AcDbMlineStyle
  2
STANDARD
 70
     0
  3

 62
   256
 51
90.0
 52
90.0
 71
     2
 49
0.5
 62
   256
  6
BYLAYER
 49
-0.5
 62
   256
  6
BYLAYER
  0
ACDBPLACEHOLDER
  5
9E9D
102
{ACAD_REACTORS
330
9E9C
102
}
330
9E9C
  0
SCALE
  5
9ED4
102
{ACAD_REACTORS
330
9ED3
102
}
330
9ED3
100
AcDbScale
 70
     0
300
1:1
140
1.0
141
1.0
290
     1
  0
SCALE
  5
9ED5
102
{ACAD_REACTORS
330
9ED3
102
}
330
9ED3
100
AcDbScale
 70
     0
300
1/128" = 1'-0"
140
0.0078125
141
12.0
290
     0
  0
SCALE
  5
9ED6
102
{ACAD_REACTORS
330
9ED3
102
}
330
9ED3
100
AcDbScale
 70
     0
300
1/64" = 1'-0"
140
0.015625
141
12.0
290
     0
  0
SCALE
  5
9ED7
102
{ACAD_REACTORS
330
9ED3
102
}
330
9ED3
100
AcDbScale
 70
     0
300
1/32" = 1'-0"
140
0.03125
141
12.0
290
     0
  0
SCALE
  5
9ED8
102
{ACAD_REACTORS
330
9ED3
102
}
330
9ED3
100
AcDbScale
 70
     0
300
1/16" = 1'-0"
140
0.0625
141
12.0
290
     0
  0
SCALE
  5
9ED9
102
{ACAD_REACTORS
330
9ED3
102
}
330
9ED3
100
AcDbScale
 70
     0
300
3/32" = 1'-0"
140
0.09375
141
12.0
290
     0
  0
SCALE
  5
9EDA
102
{ACAD_REACTORS
330
9ED3
102
}
330
9ED3
100
AcDbScale
 70
     0
300
1/8" = 1'-0"
140
0.125
141
12.0
290
     0
  0
SCALE
  5
9EDB
102
{ACAD_REACTORS
330
9ED3
102
}
330
9ED3
100
AcDbScale
 70
     0
300
3/16" = 1'-0"
140
0.1875
141
12.0
290
     0
  0
SCALE
  5
9EDC
102
{ACAD_REACTORS
330
9ED3
102
}
330
9ED3
100
AcDbScale
 70
     0
300
1/4" = 1'-0"
140
0.25
141
12.0
290
     0
  0
SCALE
  5
9EDD
102
{ACAD_REACTORS
330
9ED3
102
}
330
9ED3
100
AcDbScale
 70
     0
300
3/8" = 1'-0"
140
0.375
141
12.0
290
     0
  0
SCALE
  5
9EDE
102
{ACAD_REACTORS
330
9ED3
102
}
330
9ED3
100
AcDbScale
 70
     0
300
1/2" = 1'-0"
140
0.5
141
12.0
290
     0
  0
SCALE
  5
9EDF
102
{ACAD_REACTORS
330
9ED3
102
}
330
9ED3
100
AcDbScale
 70
     0
300
3/4" = 1'-0"
140
0.75
141
12.0
290
     0
  0
SCALE
  5
9EE0
102
{ACAD_REACTORS
330
9ED3
102
}
330
9ED3
100
AcDbScale
 70
     0
300
1" = 1'-0"
140
1.0
141
12.0
290
     0
  0
SCALE
  5
9EE1
102
{ACAD_REACTORS
330
9ED3
102
}
330
9ED3
100
AcDbScale
 70
     0
300
1-1/2" = 1'-0"
140
1.5
141
12.0
290
     0
  0
SCALE
  5
9EE2
102
{ACAD_REACTORS
330
9ED3
102
}
330
9ED3
100
AcDbScale
 70
     0
300
3" = 1'-0"
140
3.0
141
12.0
290
     0
  0
SCALE
  5
9EE3
102
{ACAD_REACTORS
330
9ED3
102
}
330
9ED3
100
AcDbScale
 70
     0
300
6" = 1'-0"
140
6.0
141
12.0
290
     0
  0
SCALE
  5
9EE4
102
{ACAD_REACTORS
330
9ED3
102
}
330
9ED3
100
AcDbScale
 70
     0
300
1'-0" = 1'-0"
140
12.0
141
12.0
290
     0
  0
ACDBSECTIONVIEWSTYLE
  5
9EE8
102
{ACAD_XDICTIONARY
360
9F43
102
}
102
{ACAD_REACTORS
330
9EE7
102
}
330
9EE7
100
AcDbModelDocViewStyle
 70
     0
  3
Imperial24
290
     0
100
AcDbSectionViewStyle
 70
     0
 71
     0
 90
       78
 71
     1
340
9BF2
 40
0.24
340
0
340
0
 40
0.24
300
I, O, Q, S, X, Z
 40
0.48
 90
        3
 40
0.18
 90
        1
 71
     2
340
9BF6
 90
       25
340
9BF6
 90
       50
 40
0.24
 40
0.0
 40
0.24
 71
     3
340
9BF2
 40
0.24
 90
        1
 40
0.75
 90
        1
300
%<\AcVar ViewType \f "%tc1">% %<\AcVar ViewSectionStartId>%-%<\AcVar ViewSectionEndId>%\PSCALE %<\AcVar ViewScale \f "%sn">%
 71
     4
300
ANSI31
 40
1.0
 90
        0
290
     0
290
     0
 90
        6
 40
0.0
 40
1.570796326794896
 40
0.2617993877991494
 40
1.308996938995747
 40
-0.2617993877991494
 40
1.832595714594046
  0
TABLESTYLE
  5
9ED2
102
{ACAD_XDICTIONARY
360
9F0A
102
}
102
{ACAD_REACTORS
330
9ED1
102
}
330
9ED1
100
AcDbTableStyle
  3
Standard
 70
     0
 71
     0
 40
0.06
 41
0.06
280
     0
281
     0
  7
STANDARD
140
0.18
170
     2
 62
     0
 63
     7
283
     0
274
    -2
284
     1
 64
     0
275
    -2
285
     1
 65
     0
276
    -2
286
     1
 66
     0
277
    -2
287
     1
 67
     0
278
    -2
288
     1
 68
     0
279
    -2
289
     1
 69
     0
  7
STANDARD
140
0.25
170
     5
 62
     0
 63
     7
283
     0
274
    -2
284
     1
 64
     0
275
    -2
285
     1
 65
     0
276
    -2
286
     1
 66
     0
277
    -2
287
     1
 67
     0
278
    -2
288
     1
 68
     0
279
    -2
289
     1
 69
     0
  7
STANDARD
140
0.18
170
     5
 62
     0
 63
     7
283
     0
274
    -2
284
     1
 64
     0
275
    -2
285
     1
 65
     0
276
    -2
286
     1
 66
     0
277
    -2
287
     1
 67
     0
278
    -2
288
     1
 68
     0
279
    -2
289
     1
 69
     0
  0
VISUALSTYLE
  5
9EBD
102
{ACAD_XDICTIONARY
360
9F1B
102
}
102
{ACAD_REACTORS
330
9EB7
102
}
330
9EB7
100
AcDbVisualStyle
  2
2dWireframe
 70
     4
 71
     0
 72
     2
 73
     0
 90
        0
 40
-0.6
 41
-30.0
 62
     5
 63
     7
 74
     1
 91
        4
 64
     7
 65
   257
 75
     1
175
     1
 42
1.0
 92
        0
 66
   257
 43
1.0
 76
     1
 77
     6
 78
     2
 67
     7
 79
     5
170
     0
171
     0
290
     0
174
     0
 93
        1
 44
0.0
173
     0
291
     0
 45
0.0
1001
ACAD
1000
AcDbSavedByObjectVersion
1070
     0
  0
VISUALSTYLE
  5
9EBC
102
{ACAD_XDICTIONARY
360
9F19
102
}
102
{ACAD_REACTORS
330
9EB7
102
}
330
9EB7
100
AcDbVisualStyle
  2
Basic
 70
     7
 71
     1
 72
     0
 73
     1
 90
        0
 40
-0.6
 41
-30.0
 62
     5
 63
     7
 74
     0
 91
        4
 64
     7
 65
   257
 75
     1
175
     1
 42
1.0
 92
        8
 66
     7
 43
1.0
 76
     1
 77
     6
 78
     2
 67
     7
 79
     5
170
     0
171
     0
290
     0
174
     0
 93
        1
 44
0.0
173
     0
291
     1
 45
0.0
1001
ACAD
1000
AcDbSavedByObjectVersion
1070
     0
  0
VISUALSTYLE
  5
9EC3
102
{ACAD_XDICTIONARY
360
9F27
102
}
102
{ACAD_REACTORS
330
9EB7
102
}
330
9EB7
100
AcDbVisualStyle
  2
Brighten
 70
    12
 71
     2
 72
     2
 73
     0
 90
        0
 40
-0.6
 41
-30.0
 62
     5
 63
     7
 74
     1
 91
        4
 64
     7
 65
   257
 75
     1
175
     1
 42
1.0
 92
        8
 66
     7
 43
1.0
 76
     1
 77
     6
 78
     2
 67
     7
 79
     5
170
     0
171
     0
290
     0
174
     0
 93
        1
 44
50.0
173
     0
291
     1
 45
0.0
1001
ACAD
1000
AcDbSavedByObjectVersion
1070
     0
  0
VISUALSTYLE
  5
9EC7
102
{ACAD_XDICTIONARY
360
9F2F
102
}
102
{ACAD_REACTORS
330
9EB7
102
}
330
9EB7
100
AcDbVisualStyle
  2
ColorChange
 70
    16
 71
     2
 72
     2
 73
     3
 90
        0
 40
-0.6
 41
-30.0
 62
     5
 63
     8
 74
     1
 91
        4
 64
     7
 65
   257
 75
     1
175
     1
 42
1.0
 92
        8
 66
     8
 43
1.0
 76
     1
 77
     6
 78
     2
 67
     7
 79
     5
170
     0
171
     0
290
     0
174
     0
 93
        1
 44
0.0
173
     0
291
     1
 45
0.0
1001
ACAD
1000
AcDbSavedByObjectVersion
1070
     0
  0
VISUALSTYLE
  5
9EC0
102
{ACAD_XDICTIONARY
360
9F21
102
}
102
{ACAD_REACTORS
330
9EB7
102
}
330
9EB7
100
AcDbVisualStyle
  2
Conceptual
 70
     9
 71
     3
 72
     2
 73
     0
 90
        0
 40
-0.6
 41
-30.0
 62
     5
 63
     7
 74
     2
 91
        2
 64
     7
 65
   257
 75
     1
175
     1
 42
179.0
 92
        8
 66
     7
 43
1.0
 76
     1
 77
     6
 78
     2
 67
     7
 79
     3
170
     0
171
     0
290
     0
174
     0
 93
        1
 44
0.0
173
     0
291
     0
 45
0.0
1001
ACAD
1000
AcDbSavedByObjectVersion
1070
     0
  0
VISUALSTYLE
  5
9EC2
102
{ACAD_XDICTIONARY
360
9F25
102
}
102
{ACAD_REACTORS
330
9EB7
102
}
330
9EB7
100
AcDbVisualStyle
  2
Dim
 70
    11
 71
     2
 72
     2
 73
     0
 90
        0
 40
-0.6
 41
-30.0
 62
     5
 63
     7
 74
     1
 91
        4
 64
     7
 65
   257
 75
     1
175
     1
 42
1.0
 92
        8
 66
     7
 43
1.0
 76
     1
 77
     6
 78
     2
 67
     7
 79
     5
170
     0
171
     0
290
     0
174
     0
 93
        1
 44
-50.0
173
     0
291
     1
 45
0.0
1001
ACAD
1000
AcDbSavedByObjectVersion
1070
     0
  0
VISUALSTYLE
  5
9ECF
102
{ACAD_XDICTIONARY
360
9F3F
102
}
102
{ACAD_REACTORS
330
9EB7
102
}
330
9EB7
100
AcDbVisualStyle
  2
EdgeColorOff
 70
    22
 71
     2
 72
     2
 73
     0
 90
        0
 40
-0.6
 41
-30.0
 62
     5
 63
     7
 74
     1
 91
        4
 64
     7
 65
   257
 75
     1
175
     1
 42
1.0
 92
        8
 66
     7
 43
1.0
 76
     1
 77
     6
 78
     2
 67
     7
 79
     5
170
     0
171
     0
290
     0
174
     0
 93
        1
 44
0.0
173
     0
291
     1
 45
0.0
1001
ACAD
1000
AcDbSavedByObjectVersion
1070
     0
  0
VISUALSTYLE
  5
9EC6
102
{ACAD_XDICTIONARY
360
9F2D
102
}
102
{ACAD_REACTORS
330
9EB7
102
}
330
9EB7
100
AcDbVisualStyle
  2
Facepattern
 70
    15
 71
     2
 72
     2
 73
     0
 90
        0
 40
-0.6
 41
-30.0
 62
     5
 63
     7
 74
     1
 91
        4
 64
     7
 65
   257
 75
     1
175
     1
 42
1.0
 92
        8
 66
     7
 43
1.0
 76
     1
 77
     6
 78
     2
 67
     7
 79
     5
170
     0
171
     0
290
     0
174
     0
 93
        1
 44
0.0
173
     0
291
     1
 45
0.0
1001
ACAD
1000
AcDbSavedByObjectVersion
1070
     0
  0
VISUALSTYLE
  5
9EB8
102
{ACAD_XDICTIONARY
360
9F11
102
}
102
{ACAD_REACTORS
330
9EB7
102
}
330
9EB7
100
AcDbVisualStyle
  2
Flat
 70
     0
 71
     2
 72
     1
 73
     1
 90
        2
 40
-0.6
 41
30.0
 62
     5
 63
     7
 74
     0
 91
        0
 64
     7
 65
   257
 75
     1
175
     1
 42
1.0
 92
        8
 66
     7
 43
1.0
 76
     1
 77
     6
 78
     2
 67
     7
 79
     5
170
     0
171
     0
290
     0
174
     0
 93
       13
 44
0.0
173
     0
291
     1
 45
0.0
1001
ACAD
1000
AcDbSavedByObjectVersion
1070
     0
  0
VISUALSTYLE
  5
9EB9
102
{ACAD_XDICTIONARY
360
9F13
102
}
102
{ACAD_REACTORS
330
9EB7
102
}
330
9EB7
100
AcDbVisualStyle
  2
FlatWithEdges
 70
     1
 71
     2
 72
     1
 73
     1
 90
        2
 40
-0.6
 41
30.0
 62
     5
 63
     7
 74
     1
 91
        0
 64
     7
 65
   257
 75
     1
175
     1
 42
1.0
 92
        0
 66
   257
 43
1.0
 76
     1
 77
     6
 78
     2
 67
     7
 79
     5
170
     0
171
     0
290
     0
174
     0
 93
       13
 44
0.0
173
     0
291
     1
 45
0.0
1001
ACAD
1000
AcDbSavedByObjectVersion
1070
     0
  0
VISUALSTYLE
  5
9EBA
102
{ACAD_XDICTIONARY
360
9F15
102
}
102
{ACAD_REACTORS
330
9EB7
102
}
330
9EB7
100
AcDbVisualStyle
  2
Gouraud
 70
     2
 71
     2
 72
     2
 73
     1
 90
        2
 40
-0.6
 41
30.0
 62
     5
 63
     7
 74
     0
 91
        0
 64
     7
 65
   257
 75
     1
175
     1
 42
1.0
 92
        0
 66
     7
 43
1.0
 76
     1
 77
     6
 78
     2
 67
     7
 79
     5
170
     0
171
     0
290
     0
174
     0
 93
       13
 44
0.0
173
     0
291
     1
 45
0.0
1001
ACAD
1000
AcDbSavedByObjectVersion
1070
     0
  0
VISUALSTYLE
  5
9EBB
102
{ACAD_XDICTIONARY
360
9F17
102
}
102
{ACAD_REACTORS
330
9EB7
102
}
330
9EB7
100
AcDbVisualStyle
  2
GouraudWithEdges
 70
     3
 71
     2
 72
     2
 73
     1
 90
        2
 40
-0.6
 41
30.0
 62
     5
 63
     7
 74
     1
 91
        0
 64
     7
 65
   257
 75
     1
175
     1
 42
1.0
 92
        0
 66
   257
 43
1.0
 76
     1
 77
     6
 78
     2
 67
     7
 79
     5
170
     0
171
     0
290
     0
174
     0
 93
       13
 44
0.0
173
     0
291
     1
 45
0.0
1001
ACAD
1000
AcDbSavedByObjectVersion
1070
     0
  0
VISUALSTYLE
  5
9EBF
102
{ACAD_XDICTIONARY
360
9F1F
102
}
102
{ACAD_REACTORS
330
9EB7
102
}
330
9EB7
100
AcDbVisualStyle
  2
Hidden
 70
     6
 71
     1
 72
     2
 73
     2
 90
        0
 40
-0.6
 41
-30.0
 62
     5
 63
     7
 74
     2
 91
        2
 64
     7
 65
   257
 75
     2
175
     1
 42
40.0
 92
        0
 66
   257
 43
1.0
 76
     1
 77
     6
 78
     2
 67
     7
 79
     3
170
     0
171
     0
290
     0
174
     0
 93
        1
 44
0.0
173
     0
291
     0
 45
0.0
1001
ACAD
1000
AcDbSavedByObjectVersion
1070
     0
  0
VISUALSTYLE
  5
9ECD
102
{ACAD_XDICTIONARY
360
9F3B
102
}
102
{ACAD_REACTORS
330
9EB7
102
}
330
9EB7
100
AcDbVisualStyle
  2
JitterOff
 70
    20
 71
     2
 72
     2
 73
     0
 90
        0
 40
-0.6
 41
-30.0
 62
     5
 63
     7
 74
     1
 91
        4
 64
     7
 65
   257
 75
     1
175
     1
 42
1.0
 92
       10
 66
     7
 43
1.0
 76
     1
 77
     6
 78
     2
 67
     7
 79
     5
170
     0
171
     0
290
     0
174
     0
 93
        1
 44
0.0
173
     0
291
     1
 45
0.0
1001
ACAD
1000
AcDbSavedByObjectVersion
1070
     0
  0
VISUALSTYLE
  5
9EC5
102
{ACAD_XDICTIONARY
360
9F2B
102
}
102
{ACAD_REACTORS
330
9EB7
102
}
330
9EB7
100
AcDbVisualStyle
  2
Linepattern
 70
    14
 71
     2
 72
     2
 73
     0
 90
        0
 40
-0.6
 41
-30.0
 62
     5
 63
     7
 74
     1
 91
        4
 64
     7
 65
   257
 75
     7
175
     7
 42
1.0
 92
        8
 66
     7
 43
1.0
 76
     1
 77
     6
 78
     2
 67
     7
 79
     5
170
     0
171
     0
290
     0
174
     0
 93
        1
 44
0.0
173
     0
291
     1
 45
0.0
1001
ACAD
1000
AcDbSavedByObjectVersion
1070
     0
  0
VISUALSTYLE
  5
9ECE
102
{ACAD_XDICTIONARY
360
9F3D
102
}
102
{ACAD_REACTORS
330
9EB7
102
}
330
9EB7
100
AcDbVisualStyle
  2
OverhangOff
 70
    21
 71
     2
 72
     2
 73
     0
 90
        0
 40
-0.6
 41
-30.0
 62
     5
 63
     7
 74
     1
 91
        4
 64
     7
 65
   257
 75
     1
175
     1
 42
1.0
 92
        9
 66
     7
 43
1.0
 76
     1
 77
     6
 78
     2
 67
     7
 79
     5
170
     0
171
     0
290
     0
174
     0
 93
        1
 44
0.0
173
     0
291
     1
 45
0.0
1001
ACAD
1000
AcDbSavedByObjectVersion
1070
     0
  0
VISUALSTYLE
  5
9EC1
102
{ACAD_XDICTIONARY
360
9F23
102
}
102
{ACAD_REACTORS
330
9EB7
102
}
330
9EB7
100
AcDbVisualStyle
  2
Realistic
 70
     8
 71
     2
 72
     3
 73
     0
 90
        2
 40
-0.6
 41
30.0
 62
     5
 63
     7
 74
     0
 91
        0
 64
     7
 65
   257
 75
     1
175
     1
 42
1.0
 92
        8
 66
   257
 43
1.0
 76
     1
 77
     6
 78
     2
 67
     7
 79
     3
170
     0
171
     0
290
     0
174
     0
 93
       13
 44
0.0
173
     0
291
     0
 45
0.0
1001
ACAD
1000
AcDbSavedByObjectVersion
1070
     0
  0
VISUALSTYLE
  5
9ECC
102
{ACAD_XDICTIONARY
360
9F39
102
}
102
{ACAD_REACTORS
330
9EB7
102
}
330
9EB7
100
AcDbVisualStyle
  2
Shaded
 70
    27
 71
     2
 72
     2
 73
     1
 90
        2
 40
-0.6
 41
30.0
 62
     5
 63
     7
 74
     0
 91
        4
 64
     7
 65
   257
 75
     1
175
     1
 42
1.0
 92
        8
 66
   257
 43
1.0
 76
     1
 77
     6
 78
     2
 67
     8
 79
     3
170
     0
171
     0
290
     0
174
     0
 93
        5
 44
0.0
173
     0
291
     0
 45
0.0
1001
ACAD
1000
AcDbSavedByObjectVersion
1070
     0
  0
VISUALSTYLE
  5
9ECB
102
{ACAD_XDICTIONARY
360
9F37
102
}
102
{ACAD_REACTORS
330
9EB7
102
}
330
9EB7
100
AcDbVisualStyle
  2
Shaded with edges
 70
    26
 71
     2
 72
     2
 73
     1
 90
        2
 40
-0.6
 41
30.0
 62
     5
 63
     7
 74
     1
 91
       10
 64
     7
 65
   257
 75
     2
175
     1
 42
1.0
 92
        8
 66
   257
 43
1.0
 76
     1
 77
     6
 78
     2
 67
     7
 79
     3
170
     0
171
     0
290
     0
174
     0
 93
        5
 44
0.0
173
     0
291
     0
 45
0.0
1001
ACAD
1000
AcDbSavedByObjectVersion
1070
     0
  0
VISUALSTYLE
  5
9EC8
102
{ACAD_XDICTIONARY
360
9F31
102
}
102
{ACAD_REACTORS
330
9EB7
102
}
330
9EB7
100
AcDbVisualStyle
  2
Shades of Gray
 70
    23
 71
     2
 72
     2
 73
     3
 90
        0
 40
-0.6
 41
-30.0
 62
     5
 63
     7
 74
     2
 91
        2
 64
     7
 65
     7
 75
     1
175
     1
 42
40.0
 92
        8
 66
     7
 43
1.0
 76
     1
 77
     6
 78
     2
 67
     7
 79
     3
170
     0
171
     0
290
     0
174
     0
 93
        1
 44
0.0
173
     0
291
     0
 45
0.0
1001
ACAD
1000
AcDbSavedByObjectVersion
1070
     0
  0
VISUALSTYLE
  5
9EC9
102
{ACAD_XDICTIONARY
360
9F33
102
}
102
{ACAD_REACTORS
330
9EB7
102
}
330
9EB7
100
AcDbVisualStyle
  2
Sketchy
 70
    24
 71
     1
 72
     2
 73
     2
 90
        0
 40
-0.6
 41
-30.0
 62
     5
 63
     7
 74
     2
 91
        2
 64
     7
 65
     7
 75
     1
175
     1
 42
40.0
 92
       11
 66
     7
 43
1.0
 76
     1
 77
     6
 78
     2
 67
     7
 79
     6
170
     0
171
     0
290
     0
174
     0
 93
        1
 44
0.0
173
     0
291
     0
 45
0.0
1001
ACAD
1000
AcDbSavedByObjectVersion
1070
     0
  0
VISUALSTYLE
  5
9EC4
102
{ACAD_XDICTIONARY
360
9F29
102
}
102
{ACAD_REACTORS
330
9EB7
102
}
330
9EB7
100
AcDbVisualStyle
  2
Thicken
 70
    13
 71
     2
 72
     2
 73
     0
 90
        0
 40
-0.6
 41
-30.0
 62
     5
 63
     7
 74
     1
 91
        4
 64
     7
 65
   257
 75
     1
175
     1
 42
1.0
 92
       12
 66
     7
 43
1.0
 76
     1
 77
     6
 78
     2
 67
     7
 79
     5
170
     0
171
     0
290
     0
174
     0
 93
        1
 44
0.0
173
     0
291
     1
 45
0.0
1001
ACAD
1000
AcDbSavedByObjectVersion
1070
     0
  0
VISUALSTYLE
  5
9EBE
102
{ACAD_XDICTIONARY
360
9F1D
102
}
102
{ACAD_REACTORS
330
9EB7
102
}
330
9EB7
100
AcDbVisualStyle
  2
Wireframe
 70
     5
 71
     0
 72
     2
 73
     0
 90
        0
 40
-0.6
 41
-30.0
 62
     5
 63
     7
 74
     1
 91
        4
 64
     7
 65
   257
 75
     1
175
     1
 42
1.0
 92
        0
 66
   257
 43
1.0
 76
     1
 77
     6
 78
     2
 67
     7
 79
     3
170
     0
171
     0
290
     0
174
     0
 93
        1
 44
0.0
173
     0
291
     0
 45
0.0
1001
ACAD
1000
AcDbSavedByObjectVersion
1070
     0
  0
VISUALSTYLE
  5
9ECA
102
{ACAD_XDICTIONARY
360
9F35
102
}
102
{ACAD_REACTORS
330
9EB7
102
}
330
9EB7
100
AcDbVisualStyle
  2
X-Ray
 70
    25
 71
     2
 72
     2
 73
     1
 90
        1
 40
0.5
 41
-30.0
 62
     5
 63
     7
 74
     1
 91
        0
 64
     7
 65
   257
 75
     1
175
     1
 42
1.0
 92
        8
 66
     7
 43
1.0
 76
     1
 77
     6
 78
     2
 67
     7
 79
     3
170
     0
171
     0
290
     0
174
     0
 93
       13
 44
0.0
173
     0
291
     0
 45
0.0
1001
ACAD
1000
AcDbSavedByObjectVersion
1070
     0
  0
DICTIONARYVAR
  5
9F04
102
{ACAD_REACTORS
330
9EFF
102
}
330
9EFF
100
DictionaryVariables
280
     0
  1
1:1
  0
DICTIONARYVAR
  5
9F01
102
{ACAD_REACTORS
330
9EFF
102
}
330
9EFF
100
DictionaryVariables
280
     0
  1
STANDARD
  0
DICTIONARYVAR
  5
9F00
102
{ACAD_REACTORS
330
9EFF
102
}
330
9EFF
100
DictionaryVariables
280
     0
  1
STANDARD
  0
DICTIONARYVAR
  5
9F02
102
{ACAD_REACTORS
330
9EFF
102
}
330
9EFF
100
DictionaryVariables
280
     0
  1
Imperial24
  0
DICTIONARYVAR
  5
9F03
102
{ACAD_REACTORS
330
9EFF
102
}
330
9EFF
100
DictionaryVariables
280
     0
  1
Imperial24
  0
DICTIONARYVAR
  5
9F07
102
{ACAD_REACTORS
330
9EFF
102
}
330
9EFF
100
DictionaryVariables
280
     0
  1
1
  0
DICTIONARYVAR
  5
9F06
102
{ACAD_REACTORS
330
9EFF
102
}
330
9EFF
100
DictionaryVariables
280
     0
  1
0
  0
DICTIONARYVAR
  5
9F05
102
{ACAD_REACTORS
330
9EFF
102
}
330
9EFF
100
DictionaryVariables
280
     0
  1
127
  0
DICTIONARYVAR
  5
9F08
102
{ACAD_REACTORS
330
9EFF
102
}
330
9EFF
100
DictionaryVariables
280
     0
  1
2
  0
DICTIONARY
  5
9F45
330
9EEA
100
AcDbDictionary
280
     1
281
     1
  3
ACAD_XREC_ROUNDTRIP
360
9F46
  0
DICTIONARY
  5
9F47
330
9EEB
100
AcDbDictionary
280
     1
281
     1
  3
ACAD_XREC_ROUNDTRIP
360
9F48
  0
DICTIONARY
  5
9F49
330
9EEC
100
AcDbDictionary
280
     1
281
     1
  3
ACAD_XREC_ROUNDTRIP
360
9F4A
  0
DICTIONARY
  5
9EA8
330
9EA7
100
AcDbDictionary
280
     1
281
     1
  3
ACAD_XREC_ROUNDTRIP
360
9F0F
  3
BUMPTILE
360
9EAA
  3
DIFFUSETILE
360
9EA9
  3
OPACITYTILE
360
9EAD
  3
REFLECTIONTILE
360
9EAC
  3
REFRACTIONTILE
360
9EAE
  3
SPECULARTILE
360
9EAB
  0
DICTIONARY
  5
9EA0
330
9E9F
100
AcDbDictionary
280
     1
281
     1
  3
ACAD_XREC_ROUNDTRIP
360
9F0E
  3
BUMPTILE
360
9EA2
  3
DIFFUSETILE
360
9EA1
  3
OPACITYTILE
360
9EA5
  3
REFLECTIONTILE
360
9EA4
  3
REFRACTIONTILE
360
9EA6
  3
SPECULARTILE
360
9EA3
  0
DICTIONARY
  5
9EB0
330
9EAF
100
AcDbDictionary
280
     1
281
     1
  3
ACAD_XREC_ROUNDTRIP
360
9F10
  3
BUMPTILE
360
9EB2
  3
DIFFUSETILE
360
9EB1
  3
OPACITYTILE
360
9EB5
  3
REFLECTIONTILE
360
9EB4
  3
REFRACTIONTILE
360
9EB6
  3
SPECULARTILE
360
9EB3
  0
DICTIONARY
  5
9F43
330
9EE8
100
AcDbDictionary
280
     1
281
     1
  3
ACAD_XREC_ROUNDTRIP
360
9F44
  0
DICTIONARY
  5
9F0A
330
9ED2
100
AcDbDictionary
280
     1
281
     1
  3
ACAD_ROUNDTRIP_2008_TABLESTYLE_CELLSTYLEMAP
360
9F0B
  3
ACAD_XREC_ROUNDTRIP
360
9F41
  0
DICTIONARY
  5
9F1B
330
9EBD
100
AcDbDictionary
280
     1
281
     1
  3
ACAD_XREC_ROUNDTRIP
360
9F1C
  0
DICTIONARY
  5
9F19
330
9EBC
100
AcDbDictionary
280
     1
281
     1
  3
ACAD_XREC_ROUNDTRIP
360
9F1A
  0
DICTIONARY
  5
9F27
330
9EC3
100
AcDbDictionary
280
     1
281
     1
  3
ACAD_XREC_ROUNDTRIP
360
9F28
  0
DICTIONARY
  5
9F2F
330
9EC7
100
AcDbDictionary
280
     1
281
     1
  3
ACAD_XREC_ROUNDTRIP
360
9F30
  0
DICTIONARY
  5
9F21
330
9EC0
100
AcDbDictionary
280
     1
281
     1
  3
ACAD_XREC_ROUNDTRIP
360
9F22
  0
DICTIONARY
  5
9F25
330
9EC2
100
AcDbDictionary
280
     1
281
     1
  3
ACAD_XREC_ROUNDTRIP
360
9F26
  0
DICTIONARY
  5
9F3F
330
9ECF
100
AcDbDictionary
280
     1
281
     1
  3
ACAD_XREC_ROUNDTRIP
360
9F40
  0
DICTIONARY
  5
9F2D
330
9EC6
100
AcDbDictionary
280
     1
281
     1
  3
ACAD_XREC_ROUNDTRIP
360
9F2E
  0
DICTIONARY
  5
9F11
330
9EB8
100
AcDbDictionary
280
     1
281
     1
  3
ACAD_XREC_ROUNDTRIP
360
9F12
  0
DICTIONARY
  5
9F13
330
9EB9
100
AcDbDictionary
280
     1
281
     1
  3
ACAD_XREC_ROUNDTRIP
360
9F14
  0
DICTIONARY
  5
9F15
330
9EBA
100
AcDbDictionary
280
     1
281
     1
  3
ACAD_XREC_ROUNDTRIP
360
9F16
  0
DICTIONARY
  5
9F17
330
9EBB
100
AcDbDictionary
280
     1
281
     1
  3
ACAD_XREC_ROUNDTRIP
360
9F18
  0
DICTIONARY
  5
9F1F
330
9EBF
100
AcDbDictionary
280
     1
281
     1
  3
ACAD_XREC_ROUNDTRIP
360
9F20
  0
DICTIONARY
  5
9F3B
330
9ECD
100
AcDbDictionary
280
     1
281
     1
  3
ACAD_XREC_ROUNDTRIP
360
9F3C
  0
DICTIONARY
  5
9F2B
330
9EC5
100
AcDbDictionary
280
     1
281
     1
  3
ACAD_XREC_ROUNDTRIP
360
9F2C
  0
DICTIONARY
  5
9F3D
330
9ECE
100
AcDbDictionary
280
     1
281
     1
  3
ACAD_XREC_ROUNDTRIP
360
9F3E
  0
DICTIONARY
  5
9F23
330
9EC1
100
AcDbDictionary
280
     1
281
     1
  3
ACAD_XREC_ROUNDTRIP
360
9F24
  0
DICTIONARY
  5
9F39
330
9ECC
100
AcDbDictionary
280
     1
281
     1
  3
ACAD_XREC_ROUNDTRIP
360
9F3A
  0
DICTIONARY
  5
9F37
330
9ECB
100
AcDbDictionary
280
     1
281
     1
  3
ACAD_XREC_ROUNDTRIP
360
9F38
  0
DICTIONARY
  5
9F31
330
9EC8
100
AcDbDictionary
280
     1
281
     1
  3
ACAD_XREC_ROUNDTRIP
360
9F32
  0
DICTIONARY
  5
9F33
330
9EC9
100
AcDbDictionary
280
     1
281
     1
  3
ACAD_XREC_ROUNDTRIP
360
9F34
  0
DICTIONARY
  5
9F29
330
9EC4
100
AcDbDictionary
280
     1
281
     1
  3
ACAD_XREC_ROUNDTRIP
360
9F2A
  0
DICTIONARY
  5
9F1D
330
9EBE
100
AcDbDictionary
280
     1
281
     1
  3
ACAD_XREC_ROUNDTRIP
360
9F1E
  0
DICTIONARY
  5
9F35
330
9ECA
100
AcDbDictionary
280
     1
281
     1
  3
ACAD_XREC_ROUNDTRIP
360
9F36
  0
XRECORD
  5
9F46
102
{ACAD_REACTORS
330
9F45
102
}
330
9F45
100
AcDbXrecord
280
     1
102
DISPLAYNAME
  1
Imperial24
102
FLAGS
 90
        0
  0
XRECORD
  5
9F48
102
{ACAD_REACTORS
330
9F47
102
}
330
9F47
100
AcDbXrecord
280
     1
102
SHADEPLOT
 70
     0
102
SHADEPLOTRESLEVEL
 70
     2
102
SHADEPLOTCUSTOMDPI
 70
   300
  0
XRECORD
  5
9F4A
102
{ACAD_REACTORS
330
9F49
102
}
330
9F49
100
AcDbXrecord
280
     1
102
SHADEPLOT
 70
     0
102
SHADEPLOTRESLEVEL
 70
     2
102
SHADEPLOTCUSTOMDPI
 70
   300
  0
XRECORD
  5
9F0F
102
{ACAD_REACTORS
330
9EA8
102
}
330
9EA8
100
AcDbXrecord
280
     1
102
MATERIAL
148
0.0
149
0.0
149
0.0
 93
        0
 94
      127
282
     0
 72
     0
 77
     0
171
     0
175
     0
179
     0
273
     0
  0
XRECORD
  5
9EAA
102
{ACAD_REACTORS
330
9EA8
102
}
330
9EA8
100
AcDbXrecord
280
     1
270
     1
271
     1
  0
XRECORD
  5
9EA9
102
{ACAD_REACTORS
330
9EA8
102
}
330
9EA8
100
AcDbXrecord
280
     1
270
     1
271
     1
  0
XRECORD
  5
9EAD
102
{ACAD_REACTORS
330
9EA8
102
}
330
9EA8
100
AcDbXrecord
280
     1
270
     1
271
     1
  0
XRECORD
  5
9EAC
102
{ACAD_REACTORS
330
9EA8
102
}
330
9EA8
100
AcDbXrecord
280
     1
270
     1
271
     1
  0
XRECORD
  5
9EAE
102
{ACAD_REACTORS
330
9EA8
102
}
330
9EA8
100
AcDbXrecord
280
     1
270
     1
271
     1
  0
XRECORD
  5
9EAB
102
{ACAD_REACTORS
330
9EA8
102
}
330
9EA8
100
AcDbXrecord
280
     1
270
     1
271
     1
  0
XRECORD
  5
9F0E
102
{ACAD_REACTORS
330
9EA0
102
}
330
9EA0
100
AcDbXrecord
280
     1
102
MATERIAL
148
0.0
149
0.0
149
0.0
 93
        0
 94
      127
282
     0
 72
     0
 77
     0
171
     0
175
     0
179
     0
273
     0
  0
XRECORD
  5
9EA2
102
{ACAD_REACTORS
330
9EA0
102
}
330
9EA0
100
AcDbXrecord
280
     1
270
     1
271
     1
  0
XRECORD
  5
9EA1
102
{ACAD_REACTORS
330
9EA0
102
}
330
9EA0
100
AcDbXrecord
280
     1
270
     1
271
     1
  0
XRECORD
  5
9EA5
102
{ACAD_REACTORS
330
9EA0
102
}
330
9EA0
100
AcDbXrecord
280
     1
270
     1
271
     1
  0
XRECORD
  5
9EA4
102
{ACAD_REACTORS
330
9EA0
102
}
330
9EA0
100
AcDbXrecord
280
     1
270
     1
271
     1
  0
XRECORD
  5
9EA6
102
{ACAD_REACTORS
330
9EA0
102
}
330
9EA0
100
AcDbXrecord
280
     1
270
     1
271
     1
  0
XRECORD
  5
9EA3
102
{ACAD_REACTORS
330
9EA0
102
}
330
9EA0
100
AcDbXrecord
280
     1
270
     1
271
     1
  0
XRECORD
  5
9F10
102
{ACAD_REACTORS
330
9EB0
102
}
330
9EB0
100
AcDbXrecord
280
     1
102
MATERIAL
148
0.0
149
0.0
149
0.0
 93
        0
 94
      127
282
     0
 72
     0
 77
     0
171
     0
175
     0
179
     0
273
     0
  0
XRECORD
  5
9EB2
102
{ACAD_REACTORS
330
9EB0
102
}
330
9EB0
100
AcDbXrecord
280
     1
270
     1
271
     1
  0
XRECORD
  5
9EB1
102
{ACAD_REACTORS
330
9EB0
102
}
330
9EB0
100
AcDbXrecord
280
     1
270
     1
271
     1
  0
XRECORD
  5
9EB5
102
{ACAD_REACTORS
330
9EB0
102
}
330
9EB0
100
AcDbXrecord
280
     1
270
     1
271
     1
  0
XRECORD
  5
9EB4
102
{ACAD_REACTORS
330
9EB0
102
}
330
9EB0
100
AcDbXrecord
280
     1
270
     1
271
     1
  0
XRECORD
  5
9EB6
102
{ACAD_REACTORS
330
9EB0
102
}
330
9EB0
100
AcDbXrecord
280
     1
270
     1
271
     1
  0
XRECORD
  5
9EB3
102
{ACAD_REACTORS
330
9EB0
102
}
330
9EB0
100
AcDbXrecord
280
     1
270
     1
271
     1
  0
XRECORD
  5
9F44
102
{ACAD_REACTORS
330
9F43
102
}
330
9F43
100
AcDbXrecord
280
     1
102
DISPLAYNAME
  1
Imperial24
102
FLAGS
 90
        0
  0
CELLSTYLEMAP
  5
9F0B
102
{ACAD_REACTORS
330
9F0A
102
}
330
9F0A
100
AcDbCellStyleMap
 90
        3
300
CELLSTYLE
  1
TABLEFORMAT_BEGIN
 90
        5
170
     1
 91
        0
 92
    32768
 62
   257
 93
        1
300
CONTENTFORMAT
  1
CONTENTFORMAT_BEGIN
 90
        0
 91
        0
 92
      512
 93
        0
300

 40
0.0
140
1.0
 94
        5
 62
     0
340
9BF2
144
0.25
309
CONTENTFORMAT_END
171
     0
 94
        0
309
TABLEFORMAT_END
  1
CELLSTYLE_BEGIN
 90
        1
 91
        1
300
_TITLE
309
CELLSTYLE_END
300
CELLSTYLE
  1
TABLEFORMAT_BEGIN
 90
        5
170
     1
 91
        0
 92
        0
 62
   257
 93
        1
300
CONTENTFORMAT
  1
CONTENTFORMAT_BEGIN
 90
        0
 91
        0
 92
      512
 93
        0
300

 40
0.0
140
1.0
 94
        5
 62
     0
340
9BF2
144
0.18
309
CONTENTFORMAT_END
171
     0
 94
        0
309
TABLEFORMAT_END
  1
CELLSTYLE_BEGIN
 90
        2
 91
        1
300
_HEADER
309
CELLSTYLE_END
300
CELLSTYLE
  1
TABLEFORMAT_BEGIN
 90
        5
170
     1
 91
        0
 92
        0
 62
   257
 93
        1
300
CONTENTFORMAT
  1
CONTENTFORMAT_BEGIN
 90
        0
 91
        0
 92
      512
 93
        0
300

 40
0.0
140
1.0
 94
        2
 62
     0
340
9BF2
144
0.18
309
CONTENTFORMAT_END
171
     0
 94
        0
309
TABLEFORMAT_END
  1
CELLSTYLE_BEGIN
 90
        3
 91
        2
300
_DATA
309
CELLSTYLE_END
  0
XRECORD
  5
9F41
102
{ACAD_REACTORS
330
9F0A
102
}
330
9F0A
100
AcDbXrecord
280
     1
102
ACAD_ROUNDTRIP_PRE2007_TABLESTYLE
 90
      512
 91
        0
  1

 92
      512
 93
        0
  2

 94
      512
 95
        0
  3

  0
XRECORD
  5
9F1C
102
{ACAD_REACTORS
330
9F1B
102
}
330
9F1B
100
AcDbXrecord
280
     1
102
RTVSPost2010Prop28
280
     1
102
RTVSPost2010PropOp28
 70
     1
102
RTVSPost2010Prop29
280
     1
102
RTVSPost2010PropOp29
 70
     1
102
RTVSPost2010Prop30
280
     0
102
RTVSPost2010PropOp30
 70
     1
102
RTVSPost2010Prop31
280
     0
102
RTVSPost2010PropOp31
 70
     1
102
RTVSPost2010Prop32
280
     0
102
RTVSPost2010PropOp32
 70
     1
102
RTVSPost2010Prop33
280
     0
102
RTVSPost2010PropOp33
 70
     1
102
RTVSPost2010Prop34
280
     0
102
RTVSPost2010PropOp34
 70
     1
102
RTVSPost2010Prop35
280
     0
102
RTVSPost2010PropOp35
 70
     1
102
RTVSPost2010Prop36
280
     0
102
RTVSPost2010PropOp36
 70
     1
102
RTVSPost2010Prop37
 90
       50
102
RTVSPost2010PropOp37
 70
     1
102
RTVSPost2010Prop38
140
0.0
102
RTVSPost2010PropOp38
 70
     1
102
RTVSPost2010Prop39
140
1.0
102
RTVSPost2010PropOp39
 70
     1
102
RTVSPost2010Prop40
 90
        0
102
RTVSPost2010PropOp40
 70
     1
102
RTVSPost2010Prop41ColorIndex
 90
       18
102
RTVSPost2010Prop41ColorRGB
 90
        0
102
RTVSPost2010PropOp41
 70
     1
102
RTVSPost2010Prop42
 90
       50
102
RTVSPost2010PropOp42
 70
     1
102
RTVSPost2010Prop43
 90
        3
102
RTVSPost2010PropOp43
 70
     1
102
RTVSPost2010Prop44ColorIndex
 90
        5
102
RTVSPost2010Prop44ColorRGB
 90
      255
102
RTVSPost2010PropOp44
 70
     1
102
RTVSPost2010Prop45
280
     0
102
RTVSPost2010PropOp45
 70
     1
102
RTVSPost2010Prop46
 90
       50
102
RTVSPost2010PropOp46
 70
     1
102
RTVSPost2010Prop47
 90
       50
102
RTVSPost2010PropOp47
 70
     1
102
RTVSPost2010Prop48
 90
       50
102
RTVSPost2010PropOp48
 70
     1
102
RTVSPost2010Prop49
280
     0
102
RTVSPost2010PropOp49
 70
     1
102
RTVSPost2010Prop50
 90
       50
102
RTVSPost2010PropOp50
 70
     1
102
RTVSPost2010Prop51ColorIndex
 90
      256
102
RTVSPost2010Prop51ColorRGB
 90
-16777216
102
RTVSPost2010PropOp51
 70
     0
102
RTVSPost2010Prop52
140
1.0
102
RTVSPost2010PropOp52
 70
     0
102
RTVSPost2010Prop53
 90
        2
102
RTVSPost2010PropOp53
 70
     1
102
RTVSPost2010Prop54
  1
strokes_ogs.tif
102
RTVSPost2010PropOp54
 70
     1
102
RTVSPost2010Prop55
280
     0
102
RTVSPost2010PropOp55
 70
     1
102
RTVSPost2010Prop56
140
1.0
102
RTVSPost2010PropOp56
 70
     1
102
RTVSPost2010Prop57
140
1.0
102
RTVSPost2010PropOp57
 70
     1
102
RTVSPropertyOp0
 70
     1
102
RTVSPropertyOp1
 70
     1
102
RTVSPropertyOp2
 70
     1
102
RTVSPropertyOp3
 70
     1
102
RTVSPropertyOp4
 70
     1
102
RTVSPropertyOp5
 70
     1
102
RTVSPropertyOp6
 70
     1
102
RTVSPropertyOp7
 70
     1
102
RTVSPropertyOp8
 70
     1
102
RTVSPropertyOp9
 70
     1
102
RTVSPropertyOp10
 70
     1
102
RTVSPropertyOp11
 70
     1
102
RTVSPropertyOp12
 70
     1
102
RTVSPropertyOp13
 70
     1
102
RTVSPropertyOp14
 70
     1
102
RTVSPropertyOp15
 70
     1
102
RTVSPropertyOp16
 70
     1
102
RTVSPropertyOp17
 70
     1
102
RTVSPropertyOp18
 70
     1
102
RTVSPropertyOp19
 70
     1
102
RTVSPropertyOp20
 70
     1
102
RTVSPropertyOp21
 70
     1
102
RTVSPropertyOp22
 70
     1
102
RTVSPropertyOp23
 70
     1
102
RTVSPropertyOp24
 70
     1
102
RTVSPropertyOp25
 70
     1
102
RTVSPropertyOp26
 70
     1
102
RTVSPropertyOp27
 70
     1
102
RTVSPropertyOp28
 70
     1
102
RTVSPropertyOp29
 70
     1
102
RTVSPropertyOp30
 70
     1
102
RTVSPropertyOp31
 70
     1
102
RTVSPropertyOp32
 70
     1
102
RTVSPropertyOp33
 70
     1
102
RTVSPropertyOp34
 70
     1
102
RTVSPropertyOp35
 70
     1
102
RTVSPropertyOp36
 70
     1
102
RTVSPropertyOp37
 70
     1
102
RTVSPropertyOp38
 70
     1
102
RTVSPropertyOp39
 70
     1
102
RTVSPropertyOp40
 70
     1
102
RTVSPropertyOp41
 70
     1
102
RTVSPropertyOp42
 70
     1
102
RTVSPropertyOp43
 70
     1
102
RTVSPropertyOp44
 70
     1
102
RTVSPropertyOp45
 70
     1
102
RTVSPropertyOp46
 70
     1
102
RTVSPropertyOp47
 70
     1
102
RTVSPropertyOp48
 70
     1
102
RTVSPropertyOp49
 70
     1
102
RTVSPropertyOp50
 70
     1
102
RTVSPropertyOp51
 70
     0
102
RTVSPropertyOp52
 70
     0
102
RTVSPropertyOp53
 70
     1
102
RTVSPropertyOp54
 70
     1
102
RTVSPropertyOp55
 70
     1
102
RTVSPropertyOp56
 70
     1
102
RTVSPropertyOp57
 70
     1
102
RTVSPropertyOp58
 70
     1
102
RTVSPropertyOp59
 70
     1
102
RTVSPropertyOp60
 70
     1
102
RTVSPropertyOp61
 70
     1
102
RTVSPropertyOp62
 70
     1
  0
XRECORD
  5
9F1A
102
{ACAD_REACTORS
330
9F19
102
}
330
9F19
100
AcDbXrecord
280
     1
102
RTVSPost2010Prop28
280
     0
102
RTVSPost2010PropOp28
 70
     1
102
RTVSPost2010Prop29
280
     1
102
RTVSPost2010PropOp29
 70
     1
102
RTVSPost2010Prop30
280
     1
102
RTVSPost2010PropOp30
 70
     1
102
RTVSPost2010Prop31
280
     0
102
RTVSPost2010PropOp31
 70
     1
102
RTVSPost2010Prop32
280
     0
102
RTVSPost2010PropOp32
 70
     1
102
RTVSPost2010Prop33
280
     0
102
RTVSPost2010PropOp33
 70
     1
102
RTVSPost2010Prop34
280
     0
102
RTVSPost2010PropOp34
 70
     1
102
RTVSPost2010Prop35
280
     0
102
RTVSPost2010PropOp35
 70
     1
102
RTVSPost2010Prop36
280
     0
102
RTVSPost2010PropOp36
 70
     1
102
RTVSPost2010Prop37
 90
       50
102
RTVSPost2010PropOp37
 70
     1
102
RTVSPost2010Prop38
140
0.0
102
RTVSPost2010PropOp38
 70
     1
102
RTVSPost2010Prop39
140
1.0
102
RTVSPost2010PropOp39
 70
     1
102
RTVSPost2010Prop40
 90
        0
102
RTVSPost2010PropOp40
 70
     1
102
RTVSPost2010Prop41ColorIndex
 90
       18
102
RTVSPost2010Prop41ColorRGB
 90
        0
102
RTVSPost2010PropOp41
 70
     1
102
RTVSPost2010Prop42
 90
       50
102
RTVSPost2010PropOp42
 70
     1
102
RTVSPost2010Prop43
 90
        3
102
RTVSPost2010PropOp43
 70
     1
102
RTVSPost2010Prop44ColorIndex
 90
        5
102
RTVSPost2010Prop44ColorRGB
 90
      255
102
RTVSPost2010PropOp44
 70
     1
102
RTVSPost2010Prop45
280
     0
102
RTVSPost2010PropOp45
 70
     1
102
RTVSPost2010Prop46
 90
       50
102
RTVSPost2010PropOp46
 70
     1
102
RTVSPost2010Prop47
 90
       50
102
RTVSPost2010PropOp47
 70
     1
102
RTVSPost2010Prop48
 90
       50
102
RTVSPost2010PropOp48
 70
     1
102
RTVSPost2010Prop49
280
     0
102
RTVSPost2010PropOp49
 70
     1
102
RTVSPost2010Prop50
 90
       50
102
RTVSPost2010PropOp50
 70
     1
102
RTVSPost2010Prop51ColorIndex
 90
      256
102
RTVSPost2010Prop51ColorRGB
 90
-16777216
102
RTVSPost2010PropOp51
 70
     0
102
RTVSPost2010Prop52
140
1.0
102
RTVSPost2010PropOp52
 70
     0
102
RTVSPost2010Prop53
 90
        2
102
RTVSPost2010PropOp53
 70
     1
102
RTVSPost2010Prop54
  1
strokes_ogs.tif
102
RTVSPost2010PropOp54
 70
     1
102
RTVSPost2010Prop55
280
     0
102
RTVSPost2010PropOp55
 70
     1
102
RTVSPost2010Prop56
140
1.0
102
RTVSPost2010PropOp56
 70
     1
102
RTVSPost2010Prop57
140
1.0
102
RTVSPost2010PropOp57
 70
     1
102
RTVSPropertyOp0
 70
     1
102
RTVSPropertyOp1
 70
     1
102
RTVSPropertyOp2
 70
     1
102
RTVSPropertyOp3
 70
     1
102
RTVSPropertyOp4
 70
     1
102
RTVSPropertyOp5
 70
     1
102
RTVSPropertyOp6
 70
     1
102
RTVSPropertyOp7
 70
     1
102
RTVSPropertyOp8
 70
     1
102
RTVSPropertyOp9
 70
     1
102
RTVSPropertyOp10
 70
     1
102
RTVSPropertyOp11
 70
     1
102
RTVSPropertyOp12
 70
     1
102
RTVSPropertyOp13
 70
     1
102
RTVSPropertyOp14
 70
     1
102
RTVSPropertyOp15
 70
     1
102
RTVSPropertyOp16
 70
     1
102
RTVSPropertyOp17
 70
     1
102
RTVSPropertyOp18
 70
     1
102
RTVSPropertyOp19
 70
     1
102
RTVSPropertyOp20
 70
     1
102
RTVSPropertyOp21
 70
     1
102
RTVSPropertyOp22
 70
     1
102
RTVSPropertyOp23
 70
     1
102
RTVSPropertyOp24
 70
     1
102
RTVSPropertyOp25
 70
     1
102
RTVSPropertyOp26
 70
     1
102
RTVSPropertyOp27
 70
     1
102
RTVSPropertyOp28
 70
     1
102
RTVSPropertyOp29
 70
     1
102
RTVSPropertyOp30
 70
     1
102
RTVSPropertyOp31
 70
     1
102
RTVSPropertyOp32
 70
     1
102
RTVSPropertyOp33
 70
     1
102
RTVSPropertyOp34
 70
     1
102
RTVSPropertyOp35
 70
     1
102
RTVSPropertyOp36
 70
     1
102
RTVSPropertyOp37
 70
     1
102
RTVSPropertyOp38
 70
     1
102
RTVSPropertyOp39
 70
     1
102
RTVSPropertyOp40
 70
     1
102
RTVSPropertyOp41
 70
     1
102
RTVSPropertyOp42
 70
     1
102
RTVSPropertyOp43
 70
     1
102
RTVSPropertyOp44
 70
     1
102
RTVSPropertyOp45
 70
     1
102
RTVSPropertyOp46
 70
     1
102
RTVSPropertyOp47
 70
     1
102
RTVSPropertyOp48
 70
     1
102
RTVSPropertyOp49
 70
     1
102
RTVSPropertyOp50
 70
     1
102
RTVSPropertyOp51
 70
     0
102
RTVSPropertyOp52
 70
     0
102
RTVSPropertyOp53
 70
     1
102
RTVSPropertyOp54
 70
     1
102
RTVSPropertyOp55
 70
     1
102
RTVSPropertyOp56
 70
     1
102
RTVSPropertyOp57
 70
     1
102
RTVSPropertyOp58
 70
     1
102
RTVSPropertyOp59
 70
     1
102
RTVSPropertyOp60
 70
     1
102
RTVSPropertyOp61
 70
     1
102
RTVSPropertyOp62
 70
     1
  0
XRECORD
  5
9F28
102
{ACAD_REACTORS
330
9F27
102
}
330
9F27
100
AcDbXrecord
280
     1
102
RTVSPost2010Prop28
280
     0
102
RTVSPost2010PropOp28
 70
     1
102
RTVSPost2010Prop29
280
     1
102
RTVSPost2010PropOp29
 70
     1
102
RTVSPost2010Prop30
280
     1
102
RTVSPost2010PropOp30
 70
     1
102
RTVSPost2010Prop31
280
     0
102
RTVSPost2010PropOp31
 70
     1
102
RTVSPost2010Prop32
280
     0
102
RTVSPost2010PropOp32
 70
     1
102
RTVSPost2010Prop33
280
     0
102
RTVSPost2010PropOp33
 70
     1
102
RTVSPost2010Prop34
280
     0
102
RTVSPost2010PropOp34
 70
     1
102
RTVSPost2010Prop35
280
     0
102
RTVSPost2010PropOp35
 70
     1
102
RTVSPost2010Prop36
280
     0
102
RTVSPost2010PropOp36
 70
     1
102
RTVSPost2010Prop37
 90
       50
102
RTVSPost2010PropOp37
 70
     1
102
RTVSPost2010Prop38
140
0.0
102
RTVSPost2010PropOp38
 70
     1
102
RTVSPost2010Prop39
140
1.0
102
RTVSPost2010PropOp39
 70
     1
102
RTVSPost2010Prop40
 90
        0
102
RTVSPost2010PropOp40
 70
     1
102
RTVSPost2010Prop41ColorIndex
 90
       18
102
RTVSPost2010Prop41ColorRGB
 90
        0
102
RTVSPost2010PropOp41
 70
     1
102
RTVSPost2010Prop42
 90
       50
102
RTVSPost2010PropOp42
 70
     1
102
RTVSPost2010Prop43
 90
        3
102
RTVSPost2010PropOp43
 70
     1
102
RTVSPost2010Prop44ColorIndex
 90
        5
102
RTVSPost2010Prop44ColorRGB
 90
      255
102
RTVSPost2010PropOp44
 70
     1
102
RTVSPost2010Prop45
280
     0
102
RTVSPost2010PropOp45
 70
     1
102
RTVSPost2010Prop46
 90
       50
102
RTVSPost2010PropOp46
 70
     1
102
RTVSPost2010Prop47
 90
       50
102
RTVSPost2010PropOp47
 70
     1
102
RTVSPost2010Prop48
 90
       50
102
RTVSPost2010PropOp48
 70
     1
102
RTVSPost2010Prop49
280
     0
102
RTVSPost2010PropOp49
 70
     1
102
RTVSPost2010Prop50
 90
       50
102
RTVSPost2010PropOp50
 70
     1
102
RTVSPost2010Prop51ColorIndex
 90
      256
102
RTVSPost2010Prop51ColorRGB
 90
-16777216
102
RTVSPost2010PropOp51
 70
     0
102
RTVSPost2010Prop52
140
1.0
102
RTVSPost2010PropOp52
 70
     0
102
RTVSPost2010Prop53
 90
        2
102
RTVSPost2010PropOp53
 70
     1
102
RTVSPost2010Prop54
  1
strokes_ogs.tif
102
RTVSPost2010PropOp54
 70
     1
102
RTVSPost2010Prop55
280
     0
102
RTVSPost2010PropOp55
 70
     1
102
RTVSPost2010Prop56
140
1.0
102
RTVSPost2010PropOp56
 70
     1
102
RTVSPost2010Prop57
140
1.0
102
RTVSPost2010PropOp57
 70
     1
102
RTVSPropertyOp0
 70
     1
102
RTVSPropertyOp1
 70
     1
102
RTVSPropertyOp2
 70
     1
102
RTVSPropertyOp3
 70
     1
102
RTVSPropertyOp4
 70
     1
102
RTVSPropertyOp5
 70
     1
102
RTVSPropertyOp6
 70
     1
102
RTVSPropertyOp7
 70
     1
102
RTVSPropertyOp8
 70
     1
102
RTVSPropertyOp9
 70
     1
102
RTVSPropertyOp10
 70
     1
102
RTVSPropertyOp11
 70
     1
102
RTVSPropertyOp12
 70
     1
102
RTVSPropertyOp13
 70
     1
102
RTVSPropertyOp14
 70
     1
102
RTVSPropertyOp15
 70
     1
102
RTVSPropertyOp16
 70
     1
102
RTVSPropertyOp17
 70
     1
102
RTVSPropertyOp18
 70
     1
102
RTVSPropertyOp19
 70
     1
102
RTVSPropertyOp20
 70
     1
102
RTVSPropertyOp21
 70
     1
102
RTVSPropertyOp22
 70
     1
102
RTVSPropertyOp23
 70
     1
102
RTVSPropertyOp24
 70
     1
102
RTVSPropertyOp25
 70
     1
102
RTVSPropertyOp26
 70
     1
102
RTVSPropertyOp27
 70
     1
102
RTVSPropertyOp28
 70
     1
102
RTVSPropertyOp29
 70
     1
102
RTVSPropertyOp30
 70
     1
102
RTVSPropertyOp31
 70
     1
102
RTVSPropertyOp32
 70
     1
102
RTVSPropertyOp33
 70
     1
102
RTVSPropertyOp34
 70
     1
102
RTVSPropertyOp35
 70
     1
102
RTVSPropertyOp36
 70
     1
102
RTVSPropertyOp37
 70
     1
102
RTVSPropertyOp38
 70
     1
102
RTVSPropertyOp39
 70
     1
102
RTVSPropertyOp40
 70
     1
102
RTVSPropertyOp41
 70
     1
102
RTVSPropertyOp42
 70
     1
102
RTVSPropertyOp43
 70
     1
102
RTVSPropertyOp44
 70
     1
102
RTVSPropertyOp45
 70
     1
102
RTVSPropertyOp46
 70
     1
102
RTVSPropertyOp47
 70
     1
102
RTVSPropertyOp48
 70
     1
102
RTVSPropertyOp49
 70
     1
102
RTVSPropertyOp50
 70
     1
102
RTVSPropertyOp51
 70
     0
102
RTVSPropertyOp52
 70
     0
102
RTVSPropertyOp53
 70
     1
102
RTVSPropertyOp54
 70
     1
102
RTVSPropertyOp55
 70
     1
102
RTVSPropertyOp56
 70
     1
102
RTVSPropertyOp57
 70
     1
102
RTVSPropertyOp58
 70
     1
102
RTVSPropertyOp59
 70
     1
102
RTVSPropertyOp60
 70
     1
102
RTVSPropertyOp61
 70
     1
102
RTVSPropertyOp62
 70
     1
  0
XRECORD
  5
9F30
102
{ACAD_REACTORS
330
9F2F
102
}
330
9F2F
100
AcDbXrecord
280
     1
102
RTVSPost2010Prop28
280
     0
102
RTVSPost2010PropOp28
 70
     1
102
RTVSPost2010Prop29
280
     1
102
RTVSPost2010PropOp29
 70
     1
102
RTVSPost2010Prop30
280
     1
102
RTVSPost2010PropOp30
 70
     1
102
RTVSPost2010Prop31
280
     0
102
RTVSPost2010PropOp31
 70
     1
102
RTVSPost2010Prop32
280
     0
102
RTVSPost2010PropOp32
 70
     1
102
RTVSPost2010Prop33
280
     0
102
RTVSPost2010PropOp33
 70
     1
102
RTVSPost2010Prop34
280
     0
102
RTVSPost2010PropOp34
 70
     1
102
RTVSPost2010Prop35
280
     0
102
RTVSPost2010PropOp35
 70
     1
102
RTVSPost2010Prop36
280
     0
102
RTVSPost2010PropOp36
 70
     1
102
RTVSPost2010Prop37
 90
       50
102
RTVSPost2010PropOp37
 70
     1
102
RTVSPost2010Prop38
140
0.0
102
RTVSPost2010PropOp38
 70
     1
102
RTVSPost2010Prop39
140
1.0
102
RTVSPost2010PropOp39
 70
     1
102
RTVSPost2010Prop40
 90
        0
102
RTVSPost2010PropOp40
 70
     1
102
RTVSPost2010Prop41ColorIndex
 90
       18
102
RTVSPost2010Prop41ColorRGB
 90
        0
102
RTVSPost2010PropOp41
 70
     1
102
RTVSPost2010Prop42
 90
       50
102
RTVSPost2010PropOp42
 70
     1
102
RTVSPost2010Prop43
 90
        3
102
RTVSPost2010PropOp43
 70
     1
102
RTVSPost2010Prop44ColorIndex
 90
        5
102
RTVSPost2010Prop44ColorRGB
 90
      255
102
RTVSPost2010PropOp44
 70
     1
102
RTVSPost2010Prop45
280
     0
102
RTVSPost2010PropOp45
 70
     1
102
RTVSPost2010Prop46
 90
       50
102
RTVSPost2010PropOp46
 70
     1
102
RTVSPost2010Prop47
 90
       50
102
RTVSPost2010PropOp47
 70
     1
102
RTVSPost2010Prop48
 90
       50
102
RTVSPost2010PropOp48
 70
     1
102
RTVSPost2010Prop49
280
     0
102
RTVSPost2010PropOp49
 70
     1
102
RTVSPost2010Prop50
 90
       50
102
RTVSPost2010PropOp50
 70
     1
102
RTVSPost2010Prop51ColorIndex
 90
      256
102
RTVSPost2010Prop51ColorRGB
 90
-16777216
102
RTVSPost2010PropOp51
 70
     0
102
RTVSPost2010Prop52
140
1.0
102
RTVSPost2010PropOp52
 70
     0
102
RTVSPost2010Prop53
 90
        2
102
RTVSPost2010PropOp53
 70
     1
102
RTVSPost2010Prop54
  1
strokes_ogs.tif
102
RTVSPost2010PropOp54
 70
     1
102
RTVSPost2010Prop55
280
     0
102
RTVSPost2010PropOp55
 70
     1
102
RTVSPost2010Prop56
140
1.0
102
RTVSPost2010PropOp56
 70
     1
102
RTVSPost2010Prop57
140
1.0
102
RTVSPost2010PropOp57
 70
     1
102
RTVSPropertyOp0
 70
     1
102
RTVSPropertyOp1
 70
     1
102
RTVSPropertyOp2
 70
     1
102
RTVSPropertyOp3
 70
     1
102
RTVSPropertyOp4
 70
     1
102
RTVSPropertyOp5
 70
     1
102
RTVSPropertyOp6
 70
     1
102
RTVSPropertyOp7
 70
     1
102
RTVSPropertyOp8
 70
     1
102
RTVSPropertyOp9
 70
     1
102
RTVSPropertyOp10
 70
     1
102
RTVSPropertyOp11
 70
     1
102
RTVSPropertyOp12
 70
     1
102
RTVSPropertyOp13
 70
     1
102
RTVSPropertyOp14
 70
     1
102
RTVSPropertyOp15
 70
     1
102
RTVSPropertyOp16
 70
     1
102
RTVSPropertyOp17
 70
     1
102
RTVSPropertyOp18
 70
     1
102
RTVSPropertyOp19
 70
     1
102
RTVSPropertyOp20
 70
     1
102
RTVSPropertyOp21
 70
     1
102
RTVSPropertyOp22
 70
     1
102
RTVSPropertyOp23
 70
     1
102
RTVSPropertyOp24
 70
     1
102
RTVSPropertyOp25
 70
     1
102
RTVSPropertyOp26
 70
     1
102
RTVSPropertyOp27
 70
     1
102
RTVSPropertyOp28
 70
     1
102
RTVSPropertyOp29
 70
     1
102
RTVSPropertyOp30
 70
     1
102
RTVSPropertyOp31
 70
     1
102
RTVSPropertyOp32
 70
     1
102
RTVSPropertyOp33
 70
     1
102
RTVSPropertyOp34
 70
     1
102
RTVSPropertyOp35
 70
     1
102
RTVSPropertyOp36
 70
     1
102
RTVSPropertyOp37
 70
     1
102
RTVSPropertyOp38
 70
     1
102
RTVSPropertyOp39
 70
     1
102
RTVSPropertyOp40
 70
     1
102
RTVSPropertyOp41
 70
     1
102
RTVSPropertyOp42
 70
     1
102
RTVSPropertyOp43
 70
     1
102
RTVSPropertyOp44
 70
     1
102
RTVSPropertyOp45
 70
     1
102
RTVSPropertyOp46
 70
     1
102
RTVSPropertyOp47
 70
     1
102
RTVSPropertyOp48
 70
     1
102
RTVSPropertyOp49
 70
     1
102
RTVSPropertyOp50
 70
     1
102
RTVSPropertyOp51
 70
     0
102
RTVSPropertyOp52
 70
     0
102
RTVSPropertyOp53
 70
     1
102
RTVSPropertyOp54
 70
     1
102
RTVSPropertyOp55
 70
     1
102
RTVSPropertyOp56
 70
     1
102
RTVSPropertyOp57
 70
     1
102
RTVSPropertyOp58
 70
     1
102
RTVSPropertyOp59
 70
     1
102
RTVSPropertyOp60
 70
     1
102
RTVSPropertyOp61
 70
     1
102
RTVSPropertyOp62
 70
     1
  0
XRECORD
  5
9F22
102
{ACAD_REACTORS
330
9F21
102
}
330
9F21
100
AcDbXrecord
280
     1
102
RTVSPost2010Prop28
280
     0
102
RTVSPost2010PropOp28
 70
     1
102
RTVSPost2010Prop29
280
     1
102
RTVSPost2010PropOp29
 70
     1
102
RTVSPost2010Prop30
280
     1
102
RTVSPost2010PropOp30
 70
     1
102
RTVSPost2010Prop31
280
     0
102
RTVSPost2010PropOp31
 70
     1
102
RTVSPost2010Prop32
280
     0
102
RTVSPost2010PropOp32
 70
     1
102
RTVSPost2010Prop33
280
     0
102
RTVSPost2010PropOp33
 70
     1
102
RTVSPost2010Prop34
280
     0
102
RTVSPost2010PropOp34
 70
     1
102
RTVSPost2010Prop35
280
     0
102
RTVSPost2010PropOp35
 70
     1
102
RTVSPost2010Prop36
280
     0
102
RTVSPost2010PropOp36
 70
     1
102
RTVSPost2010Prop37
 90
       50
102
RTVSPost2010PropOp37
 70
     1
102
RTVSPost2010Prop38
140
0.0
102
RTVSPost2010PropOp38
 70
     1
102
RTVSPost2010Prop39
140
1.0
102
RTVSPost2010PropOp39
 70
     1
102
RTVSPost2010Prop40
 90
        0
102
RTVSPost2010PropOp40
 70
     1
102
RTVSPost2010Prop41ColorIndex
 90
       18
102
RTVSPost2010Prop41ColorRGB
 90
        0
102
RTVSPost2010PropOp41
 70
     1
102
RTVSPost2010Prop42
 90
       50
102
RTVSPost2010PropOp42
 70
     1
102
RTVSPost2010Prop43
 90
        3
102
RTVSPost2010PropOp43
 70
     1
102
RTVSPost2010Prop44ColorIndex
 90
        5
102
RTVSPost2010Prop44ColorRGB
 90
      255
102
RTVSPost2010PropOp44
 70
     1
102
RTVSPost2010Prop45
280
     0
102
RTVSPost2010PropOp45
 70
     1
102
RTVSPost2010Prop46
 90
       50
102
RTVSPost2010PropOp46
 70
     1
102
RTVSPost2010Prop47
 90
       50
102
RTVSPost2010PropOp47
 70
     1
102
RTVSPost2010Prop48
 90
       50
102
RTVSPost2010PropOp48
 70
     1
102
RTVSPost2010Prop49
280
     0
102
RTVSPost2010PropOp49
 70
     1
102
RTVSPost2010Prop50
 90
       50
102
RTVSPost2010PropOp50
 70
     1
102
RTVSPost2010Prop51ColorIndex
 90
      256
102
RTVSPost2010Prop51ColorRGB
 90
-16777216
102
RTVSPost2010PropOp51
 70
     0
102
RTVSPost2010Prop52
140
1.0
102
RTVSPost2010PropOp52
 70
     0
102
RTVSPost2010Prop53
 90
        2
102
RTVSPost2010PropOp53
 70
     1
102
RTVSPost2010Prop54
  1
strokes_ogs.tif
102
RTVSPost2010PropOp54
 70
     1
102
RTVSPost2010Prop55
280
     0
102
RTVSPost2010PropOp55
 70
     1
102
RTVSPost2010Prop56
140
1.0
102
RTVSPost2010PropOp56
 70
     1
102
RTVSPost2010Prop57
140
1.0
102
RTVSPost2010PropOp57
 70
     1
102
RTVSPropertyOp0
 70
     1
102
RTVSPropertyOp1
 70
     1
102
RTVSPropertyOp2
 70
     1
102
RTVSPropertyOp3
 70
     1
102
RTVSPropertyOp4
 70
     1
102
RTVSPropertyOp5
 70
     1
102
RTVSPropertyOp6
 70
     1
102
RTVSPropertyOp7
 70
     1
102
RTVSPropertyOp8
 70
     1
102
RTVSPropertyOp9
 70
     1
102
RTVSPropertyOp10
 70
     1
102
RTVSPropertyOp11
 70
     1
102
RTVSPropertyOp12
 70
     1
102
RTVSPropertyOp13
 70
     1
102
RTVSPropertyOp14
 70
     1
102
RTVSPropertyOp15
 70
     1
102
RTVSPropertyOp16
 70
     1
102
RTVSPropertyOp17
 70
     1
102
RTVSPropertyOp18
 70
     1
102
RTVSPropertyOp19
 70
     1
102
RTVSPropertyOp20
 70
     1
102
RTVSPropertyOp21
 70
     1
102
RTVSPropertyOp22
 70
     1
102
RTVSPropertyOp23
 70
     1
102
RTVSPropertyOp24
 70
     1
102
RTVSPropertyOp25
 70
     1
102
RTVSPropertyOp26
 70
     1
102
RTVSPropertyOp27
 70
     1
102
RTVSPropertyOp28
 70
     1
102
RTVSPropertyOp29
 70
     1
102
RTVSPropertyOp30
 70
     1
102
RTVSPropertyOp31
 70
     1
102
RTVSPropertyOp32
 70
     1
102
RTVSPropertyOp33
 70
     1
102
RTVSPropertyOp34
 70
     1
102
RTVSPropertyOp35
 70
     1
102
RTVSPropertyOp36
 70
     1
102
RTVSPropertyOp37
 70
     1
102
RTVSPropertyOp38
 70
     1
102
RTVSPropertyOp39
 70
     1
102
RTVSPropertyOp40
 70
     1
102
RTVSPropertyOp41
 70
     1
102
RTVSPropertyOp42
 70
     1
102
RTVSPropertyOp43
 70
     1
102
RTVSPropertyOp44
 70
     1
102
RTVSPropertyOp45
 70
     1
102
RTVSPropertyOp46
 70
     1
102
RTVSPropertyOp47
 70
     1
102
RTVSPropertyOp48
 70
     1
102
RTVSPropertyOp49
 70
     1
102
RTVSPropertyOp50
 70
     1
102
RTVSPropertyOp51
 70
     0
102
RTVSPropertyOp52
 70
     0
102
RTVSPropertyOp53
 70
     1
102
RTVSPropertyOp54
 70
     1
102
RTVSPropertyOp55
 70
     1
102
RTVSPropertyOp56
 70
     1
102
RTVSPropertyOp57
 70
     1
102
RTVSPropertyOp58
 70
     1
102
RTVSPropertyOp59
 70
     1
102
RTVSPropertyOp60
 70
     1
102
RTVSPropertyOp61
 70
     1
102
RTVSPropertyOp62
 70
     1
  0
XRECORD
  5
9F26
102
{ACAD_REACTORS
330
9F25
102
}
330
9F25
100
AcDbXrecord
280
     1
102
RTVSPost2010Prop28
280
     0
102
RTVSPost2010PropOp28
 70
     1
102
RTVSPost2010Prop29
280
     1
102
RTVSPost2010PropOp29
 70
     1
102
RTVSPost2010Prop30
280
     1
102
RTVSPost2010PropOp30
 70
     1
102
RTVSPost2010Prop31
280
     0
102
RTVSPost2010PropOp31
 70
     1
102
RTVSPost2010Prop32
280
     0
102
RTVSPost2010PropOp32
 70
     1
102
RTVSPost2010Prop33
280
     0
102
RTVSPost2010PropOp33
 70
     1
102
RTVSPost2010Prop34
280
     0
102
RTVSPost2010PropOp34
 70
     1
102
RTVSPost2010Prop35
280
     0
102
RTVSPost2010PropOp35
 70
     1
102
RTVSPost2010Prop36
280
     0
102
RTVSPost2010PropOp36
 70
     1
102
RTVSPost2010Prop37
 90
       50
102
RTVSPost2010PropOp37
 70
     1
102
RTVSPost2010Prop38
140
0.0
102
RTVSPost2010PropOp38
 70
     1
102
RTVSPost2010Prop39
140
1.0
102
RTVSPost2010PropOp39
 70
     1
102
RTVSPost2010Prop40
 90
        0
102
RTVSPost2010PropOp40
 70
     1
102
RTVSPost2010Prop41ColorIndex
 90
       18
102
RTVSPost2010Prop41ColorRGB
 90
        0
102
RTVSPost2010PropOp41
 70
     1
102
RTVSPost2010Prop42
 90
       50
102
RTVSPost2010PropOp42
 70
     1
102
RTVSPost2010Prop43
 90
        3
102
RTVSPost2010PropOp43
 70
     1
102
RTVSPost2010Prop44ColorIndex
 90
        5
102
RTVSPost2010Prop44ColorRGB
 90
      255
102
RTVSPost2010PropOp44
 70
     1
102
RTVSPost2010Prop45
280
     0
102
RTVSPost2010PropOp45
 70
     1
102
RTVSPost2010Prop46
 90
       50
102
RTVSPost2010PropOp46
 70
     1
102
RTVSPost2010Prop47
 90
       50
102
RTVSPost2010PropOp47
 70
     1
102
RTVSPost2010Prop48
 90
       50
102
RTVSPost2010PropOp48
 70
     1
102
RTVSPost2010Prop49
280
     0
102
RTVSPost2010PropOp49
 70
     1
102
RTVSPost2010Prop50
 90
       50
102
RTVSPost2010PropOp50
 70
     1
102
RTVSPost2010Prop51ColorIndex
 90
      256
102
RTVSPost2010Prop51ColorRGB
 90
-16777216
102
RTVSPost2010PropOp51
 70
     0
102
RTVSPost2010Prop52
140
1.0
102
RTVSPost2010PropOp52
 70
     0
102
RTVSPost2010Prop53
 90
        2
102
RTVSPost2010PropOp53
 70
     1
102
RTVSPost2010Prop54
  1
strokes_ogs.tif
102
RTVSPost2010PropOp54
 70
     1
102
RTVSPost2010Prop55
280
     0
102
RTVSPost2010PropOp55
 70
     1
102
RTVSPost2010Prop56
140
1.0
102
RTVSPost2010PropOp56
 70
     1
102
RTVSPost2010Prop57
140
1.0
102
RTVSPost2010PropOp57
 70
     1
102
RTVSPropertyOp0
 70
     1
102
RTVSPropertyOp1
 70
     1
102
RTVSPropertyOp2
 70
     1
102
RTVSPropertyOp3
 70
     1
102
RTVSPropertyOp4
 70
     1
102
RTVSPropertyOp5
 70
     1
102
RTVSPropertyOp6
 70
     1
102
RTVSPropertyOp7
 70
     1
102
RTVSPropertyOp8
 70
     1
102
RTVSPropertyOp9
 70
     1
102
RTVSPropertyOp10
 70
     1
102
RTVSPropertyOp11
 70
     1
102
RTVSPropertyOp12
 70
     1
102
RTVSPropertyOp13
 70
     1
102
RTVSPropertyOp14
 70
     1
102
RTVSPropertyOp15
 70
     1
102
RTVSPropertyOp16
 70
     1
102
RTVSPropertyOp17
 70
     1
102
RTVSPropertyOp18
 70
     1
102
RTVSPropertyOp19
 70
     1
102
RTVSPropertyOp20
 70
     1
102
RTVSPropertyOp21
 70
     1
102
RTVSPropertyOp22
 70
     1
102
RTVSPropertyOp23
 70
     1
102
RTVSPropertyOp24
 70
     1
102
RTVSPropertyOp25
 70
     1
102
RTVSPropertyOp26
 70
     1
102
RTVSPropertyOp27
 70
     1
102
RTVSPropertyOp28
 70
     1
102
RTVSPropertyOp29
 70
     1
102
RTVSPropertyOp30
 70
     1
102
RTVSPropertyOp31
 70
     1
102
RTVSPropertyOp32
 70
     1
102
RTVSPropertyOp33
 70
     1
102
RTVSPropertyOp34
 70
     1
102
RTVSPropertyOp35
 70
     1
102
RTVSPropertyOp36
 70
     1
102
RTVSPropertyOp37
 70
     1
102
RTVSPropertyOp38
 70
     1
102
RTVSPropertyOp39
 70
     1
102
RTVSPropertyOp40
 70
     1
102
RTVSPropertyOp41
 70
     1
102
RTVSPropertyOp42
 70
     1
102
RTVSPropertyOp43
 70
     1
102
RTVSPropertyOp44
 70
     1
102
RTVSPropertyOp45
 70
     1
102
RTVSPropertyOp46
 70
     1
102
RTVSPropertyOp47
 70
     1
102
RTVSPropertyOp48
 70
     1
102
RTVSPropertyOp49
 70
     1
102
RTVSPropertyOp50
 70
     1
102
RTVSPropertyOp51
 70
     0
102
RTVSPropertyOp52
 70
     0
102
RTVSPropertyOp53
 70
     1
102
RTVSPropertyOp54
 70
     1
102
RTVSPropertyOp55
 70
     1
102
RTVSPropertyOp56
 70
     1
102
RTVSPropertyOp57
 70
     1
102
RTVSPropertyOp58
 70
     1
102
RTVSPropertyOp59
 70
     1
102
RTVSPropertyOp60
 70
     1
102
RTVSPropertyOp61
 70
     1
102
RTVSPropertyOp62
 70
     1
  0
XRECORD
  5
9F40
102
{ACAD_REACTORS
330
9F3F
102
}
330
9F3F
100
AcDbXrecord
280
     1
102
RTVSPost2010Prop28
280
     0
102
RTVSPost2010PropOp28
 70
     1
102
RTVSPost2010Prop29
280
     1
102
RTVSPost2010PropOp29
 70
     1
102
RTVSPost2010Prop30
280
     1
102
RTVSPost2010PropOp30
 70
     1
102
RTVSPost2010Prop31
280
     0
102
RTVSPost2010PropOp31
 70
     1
102
RTVSPost2010Prop32
280
     0
102
RTVSPost2010PropOp32
 70
     1
102
RTVSPost2010Prop33
280
     0
102
RTVSPost2010PropOp33
 70
     1
102
RTVSPost2010Prop34
280
     0
102
RTVSPost2010PropOp34
 70
     1
102
RTVSPost2010Prop35
280
     0
102
RTVSPost2010PropOp35
 70
     1
102
RTVSPost2010Prop36
280
     0
102
RTVSPost2010PropOp36
 70
     1
102
RTVSPost2010Prop37
 90
       50
102
RTVSPost2010PropOp37
 70
     0
102
RTVSPost2010Prop38
140
0.0
102
RTVSPost2010PropOp38
 70
     0
102
RTVSPost2010Prop39
140
1.0
102
RTVSPost2010PropOp39
 70
     0
102
RTVSPost2010Prop40
 90
        0
102
RTVSPost2010PropOp40
 70
     0
102
RTVSPost2010Prop41ColorIndex
 90
       18
102
RTVSPost2010Prop41ColorRGB
 90
        0
102
RTVSPost2010PropOp41
 70
     0
102
RTVSPost2010Prop42
 90
       50
102
RTVSPost2010PropOp42
 70
     0
102
RTVSPost2010Prop43
 90
        3
102
RTVSPost2010PropOp43
 70
     0
102
RTVSPost2010Prop44ColorIndex
 90
        5
102
RTVSPost2010Prop44ColorRGB
 90
      255
102
RTVSPost2010PropOp44
 70
     0
102
RTVSPost2010Prop45
280
     0
102
RTVSPost2010PropOp45
 70
     1
102
RTVSPost2010Prop46
 90
       50
102
RTVSPost2010PropOp46
 70
     0
102
RTVSPost2010Prop47
 90
       50
102
RTVSPost2010PropOp47
 70
     0
102
RTVSPost2010Prop48
 90
       50
102
RTVSPost2010PropOp48
 70
     0
102
RTVSPost2010Prop49
280
     0
102
RTVSPost2010PropOp49
 70
     1
102
RTVSPost2010Prop50
 90
       50
102
RTVSPost2010PropOp50
 70
     0
102
RTVSPost2010Prop51ColorIndex
 90
      256
102
RTVSPost2010Prop51ColorRGB
 90
-16777216
102
RTVSPost2010PropOp51
 70
     0
102
RTVSPost2010Prop52
140
1.0
102
RTVSPost2010PropOp52
 70
     0
102
RTVSPost2010Prop53
 90
        2
102
RTVSPost2010PropOp53
 70
     0
102
RTVSPost2010Prop54
  1
strokes_ogs.tif
102
RTVSPost2010PropOp54
 70
     0
102
RTVSPost2010Prop55
280
     0
102
RTVSPost2010PropOp55
 70
     1
102
RTVSPost2010Prop56
140
1.0
102
RTVSPost2010PropOp56
 70
     0
102
RTVSPost2010Prop57
140
1.0
102
RTVSPost2010PropOp57
 70
     0
102
RTVSPropertyOp0
 70
     0
102
RTVSPropertyOp1
 70
     0
102
RTVSPropertyOp2
 70
     0
102
RTVSPropertyOp3
 70
     0
102
RTVSPropertyOp4
 70
     0
102
RTVSPropertyOp5
 70
     0
102
RTVSPropertyOp6
 70
     0
102
RTVSPropertyOp7
 70
     0
102
RTVSPropertyOp8
 70
     0
102
RTVSPropertyOp9
 70
     0
102
RTVSPropertyOp10
 70
     0
102
RTVSPropertyOp11
 70
     0
102
RTVSPropertyOp12
 70
     0
102
RTVSPropertyOp13
 70
     0
102
RTVSPropertyOp14
 70
     2
102
RTVSPropertyOp15
 70
     0
102
RTVSPropertyOp16
 70
     0
102
RTVSPropertyOp17
 70
     0
102
RTVSPropertyOp18
 70
     0
102
RTVSPropertyOp19
 70
     0
102
RTVSPropertyOp20
 70
     0
102
RTVSPropertyOp21
 70
     0
102
RTVSPropertyOp22
 70
     0
102
RTVSPropertyOp23
 70
     0
102
RTVSPropertyOp24
 70
     0
102
RTVSPropertyOp25
 70
     0
102
RTVSPropertyOp26
 70
     0
102
RTVSPropertyOp27
 70
     0
102
RTVSPropertyOp28
 70
     1
102
RTVSPropertyOp29
 70
     1
102
RTVSPropertyOp30
 70
     1
102
RTVSPropertyOp31
 70
     1
102
RTVSPropertyOp32
 70
     1
102
RTVSPropertyOp33
 70
     1
102
RTVSPropertyOp34
 70
     1
102
RTVSPropertyOp35
 70
     1
102
RTVSPropertyOp36
 70
     1
102
RTVSPropertyOp37
 70
     0
102
RTVSPropertyOp38
 70
     0
102
RTVSPropertyOp39
 70
     0
102
RTVSPropertyOp40
 70
     0
102
RTVSPropertyOp41
 70
     0
102
RTVSPropertyOp42
 70
     0
102
RTVSPropertyOp43
 70
     0
102
RTVSPropertyOp44
 70
     0
102
RTVSPropertyOp45
 70
     1
102
RTVSPropertyOp46
 70
     0
102
RTVSPropertyOp47
 70
     0
102
RTVSPropertyOp48
 70
     0
102
RTVSPropertyOp49
 70
     1
102
RTVSPropertyOp50
 70
     0
102
RTVSPropertyOp51
 70
     0
102
RTVSPropertyOp52
 70
     0
102
RTVSPropertyOp53
 70
     0
102
RTVSPropertyOp54
 70
     0
102
RTVSPropertyOp55
 70
     1
102
RTVSPropertyOp56
 70
     0
102
RTVSPropertyOp57
 70
     0
102
RTVSPropertyOp58
 70
     0
102
RTVSPropertyOp59
 70
     0
102
RTVSPropertyOp60
 70
     0
102
RTVSPropertyOp61
 70
     0
102
RTVSPropertyOp62
 70
     0
  0
XRECORD
  5
9F2E
102
{ACAD_REACTORS
330
9F2D
102
}
330
9F2D
100
AcDbXrecord
280
     1
102
RTVSPost2010Prop28
280
     0
102
RTVSPost2010PropOp28
 70
     1
102
RTVSPost2010Prop29
280
     1
102
RTVSPost2010PropOp29
 70
     1
102
RTVSPost2010Prop30
280
     1
102
RTVSPost2010PropOp30
 70
     1
102
RTVSPost2010Prop31
280
     0
102
RTVSPost2010PropOp31
 70
     1
102
RTVSPost2010Prop32
280
     0
102
RTVSPost2010PropOp32
 70
     1
102
RTVSPost2010Prop33
280
     0
102
RTVSPost2010PropOp33
 70
     1
102
RTVSPost2010Prop34
280
     0
102
RTVSPost2010PropOp34
 70
     1
102
RTVSPost2010Prop35
280
     0
102
RTVSPost2010PropOp35
 70
     1
102
RTVSPost2010Prop36
280
     0
102
RTVSPost2010PropOp36
 70
     1
102
RTVSPost2010Prop37
 90
       50
102
RTVSPost2010PropOp37
 70
     1
102
RTVSPost2010Prop38
140
0.0
102
RTVSPost2010PropOp38
 70
     1
102
RTVSPost2010Prop39
140
1.0
102
RTVSPost2010PropOp39
 70
     1
102
RTVSPost2010Prop40
 90
        0
102
RTVSPost2010PropOp40
 70
     1
102
RTVSPost2010Prop41ColorIndex
 90
       18
102
RTVSPost2010Prop41ColorRGB
 90
        0
102
RTVSPost2010PropOp41
 70
     1
102
RTVSPost2010Prop42
 90
       50
102
RTVSPost2010PropOp42
 70
     1
102
RTVSPost2010Prop43
 90
        3
102
RTVSPost2010PropOp43
 70
     1
102
RTVSPost2010Prop44ColorIndex
 90
        5
102
RTVSPost2010Prop44ColorRGB
 90
      255
102
RTVSPost2010PropOp44
 70
     1
102
RTVSPost2010Prop45
280
     0
102
RTVSPost2010PropOp45
 70
     1
102
RTVSPost2010Prop46
 90
       50
102
RTVSPost2010PropOp46
 70
     1
102
RTVSPost2010Prop47
 90
       50
102
RTVSPost2010PropOp47
 70
     1
102
RTVSPost2010Prop48
 90
       50
102
RTVSPost2010PropOp48
 70
     1
102
RTVSPost2010Prop49
280
     0
102
RTVSPost2010PropOp49
 70
     1
102
RTVSPost2010Prop50
 90
       50
102
RTVSPost2010PropOp50
 70
     1
102
RTVSPost2010Prop51ColorIndex
 90
      256
102
RTVSPost2010Prop51ColorRGB
 90
-16777216
102
RTVSPost2010PropOp51
 70
     0
102
RTVSPost2010Prop52
140
1.0
102
RTVSPost2010PropOp52
 70
     0
102
RTVSPost2010Prop53
 90
        2
102
RTVSPost2010PropOp53
 70
     1
102
RTVSPost2010Prop54
  1
strokes_ogs.tif
102
RTVSPost2010PropOp54
 70
     1
102
RTVSPost2010Prop55
280
     0
102
RTVSPost2010PropOp55
 70
     1
102
RTVSPost2010Prop56
140
1.0
102
RTVSPost2010PropOp56
 70
     1
102
RTVSPost2010Prop57
140
1.0
102
RTVSPost2010PropOp57
 70
     1
102
RTVSPropertyOp0
 70
     1
102
RTVSPropertyOp1
 70
     1
102
RTVSPropertyOp2
 70
     1
102
RTVSPropertyOp3
 70
     1
102
RTVSPropertyOp4
 70
     1
102
RTVSPropertyOp5
 70
     1
102
RTVSPropertyOp6
 70
     1
102
RTVSPropertyOp7
 70
     1
102
RTVSPropertyOp8
 70
     1
102
RTVSPropertyOp9
 70
     1
102
RTVSPropertyOp10
 70
     1
102
RTVSPropertyOp11
 70
     1
102
RTVSPropertyOp12
 70
     1
102
RTVSPropertyOp13
 70
     1
102
RTVSPropertyOp14
 70
     1
102
RTVSPropertyOp15
 70
     1
102
RTVSPropertyOp16
 70
     1
102
RTVSPropertyOp17
 70
     1
102
RTVSPropertyOp18
 70
     1
102
RTVSPropertyOp19
 70
     1
102
RTVSPropertyOp20
 70
     1
102
RTVSPropertyOp21
 70
     1
102
RTVSPropertyOp22
 70
     1
102
RTVSPropertyOp23
 70
     1
102
RTVSPropertyOp24
 70
     1
102
RTVSPropertyOp25
 70
     1
102
RTVSPropertyOp26
 70
     1
102
RTVSPropertyOp27
 70
     1
102
RTVSPropertyOp28
 70
     1
102
RTVSPropertyOp29
 70
     1
102
RTVSPropertyOp30
 70
     1
102
RTVSPropertyOp31
 70
     1
102
RTVSPropertyOp32
 70
     1
102
RTVSPropertyOp33
 70
     1
102
RTVSPropertyOp34
 70
     1
102
RTVSPropertyOp35
 70
     1
102
RTVSPropertyOp36
 70
     1
102
RTVSPropertyOp37
 70
     1
102
RTVSPropertyOp38
 70
     1
102
RTVSPropertyOp39
 70
     1
102
RTVSPropertyOp40
 70
     1
102
RTVSPropertyOp41
 70
     1
102
RTVSPropertyOp42
 70
     1
102
RTVSPropertyOp43
 70
     1
102
RTVSPropertyOp44
 70
     1
102
RTVSPropertyOp45
 70
     1
102
RTVSPropertyOp46
 70
     1
102
RTVSPropertyOp47
 70
     1
102
RTVSPropertyOp48
 70
     1
102
RTVSPropertyOp49
 70
     1
102
RTVSPropertyOp50
 70
     1
102
RTVSPropertyOp51
 70
     0
102
RTVSPropertyOp52
 70
     0
102
RTVSPropertyOp53
 70
     1
102
RTVSPropertyOp54
 70
     1
102
RTVSPropertyOp55
 70
     1
102
RTVSPropertyOp56
 70
     1
102
RTVSPropertyOp57
 70
     1
102
RTVSPropertyOp58
 70
     1
102
RTVSPropertyOp59
 70
     1
102
RTVSPropertyOp60
 70
     1
102
RTVSPropertyOp61
 70
     1
102
RTVSPropertyOp62
 70
     1
  0
XRECORD
  5
9F12
102
{ACAD_REACTORS
330
9F11
102
}
330
9F11
100
AcDbXrecord
280
     1
102
RTVSPost2010Prop28
280
     0
102
RTVSPost2010PropOp28
 70
     1
102
RTVSPost2010Prop29
280
     1
102
RTVSPost2010PropOp29
 70
     1
102
RTVSPost2010Prop30
280
     1
102
RTVSPost2010PropOp30
 70
     1
102
RTVSPost2010Prop31
280
     0
102
RTVSPost2010PropOp31
 70
     1
102
RTVSPost2010Prop32
280
     0
102
RTVSPost2010PropOp32
 70
     1
102
RTVSPost2010Prop33
280
     0
102
RTVSPost2010PropOp33
 70
     1
102
RTVSPost2010Prop34
280
     0
102
RTVSPost2010PropOp34
 70
     1
102
RTVSPost2010Prop35
280
     0
102
RTVSPost2010PropOp35
 70
     1
102
RTVSPost2010Prop36
280
     0
102
RTVSPost2010PropOp36
 70
     1
102
RTVSPost2010Prop37
 90
       50
102
RTVSPost2010PropOp37
 70
     1
102
RTVSPost2010Prop38
140
0.0
102
RTVSPost2010PropOp38
 70
     1
102
RTVSPost2010Prop39
140
1.0
102
RTVSPost2010PropOp39
 70
     1
102
RTVSPost2010Prop40
 90
        0
102
RTVSPost2010PropOp40
 70
     1
102
RTVSPost2010Prop41ColorIndex
 90
       18
102
RTVSPost2010Prop41ColorRGB
 90
        0
102
RTVSPost2010PropOp41
 70
     1
102
RTVSPost2010Prop42
 90
       50
102
RTVSPost2010PropOp42
 70
     1
102
RTVSPost2010Prop43
 90
        3
102
RTVSPost2010PropOp43
 70
     1
102
RTVSPost2010Prop44ColorIndex
 90
        5
102
RTVSPost2010Prop44ColorRGB
 90
      255
102
RTVSPost2010PropOp44
 70
     1
102
RTVSPost2010Prop45
280
     0
102
RTVSPost2010PropOp45
 70
     1
102
RTVSPost2010Prop46
 90
       50
102
RTVSPost2010PropOp46
 70
     1
102
RTVSPost2010Prop47
 90
       50
102
RTVSPost2010PropOp47
 70
     1
102
RTVSPost2010Prop48
 90
       50
102
RTVSPost2010PropOp48
 70
     1
102
RTVSPost2010Prop49
280
     0
102
RTVSPost2010PropOp49
 70
     1
102
RTVSPost2010Prop50
 90
       50
102
RTVSPost2010PropOp50
 70
     1
102
RTVSPost2010Prop51ColorIndex
 90
      256
102
RTVSPost2010Prop51ColorRGB
 90
-16777216
102
RTVSPost2010PropOp51
 70
     0
102
RTVSPost2010Prop52
140
1.0
102
RTVSPost2010PropOp52
 70
     0
102
RTVSPost2010Prop53
 90
        2
102
RTVSPost2010PropOp53
 70
     1
102
RTVSPost2010Prop54
  1
strokes_ogs.tif
102
RTVSPost2010PropOp54
 70
     1
102
RTVSPost2010Prop55
280
     0
102
RTVSPost2010PropOp55
 70
     1
102
RTVSPost2010Prop56
140
1.0
102
RTVSPost2010PropOp56
 70
     1
102
RTVSPost2010Prop57
140
1.0
102
RTVSPost2010PropOp57
 70
     1
102
RTVSPropertyOp0
 70
     1
102
RTVSPropertyOp1
 70
     1
102
RTVSPropertyOp2
 70
     1
102
RTVSPropertyOp3
 70
     1
102
RTVSPropertyOp4
 70
     1
102
RTVSPropertyOp5
 70
     1
102
RTVSPropertyOp6
 70
     1
102
RTVSPropertyOp7
 70
     1
102
RTVSPropertyOp8
 70
     1
102
RTVSPropertyOp9
 70
     1
102
RTVSPropertyOp10
 70
     1
102
RTVSPropertyOp11
 70
     1
102
RTVSPropertyOp12
 70
     1
102
RTVSPropertyOp13
 70
     1
102
RTVSPropertyOp14
 70
     1
102
RTVSPropertyOp15
 70
     1
102
RTVSPropertyOp16
 70
     1
102
RTVSPropertyOp17
 70
     1
102
RTVSPropertyOp18
 70
     1
102
RTVSPropertyOp19
 70
     1
102
RTVSPropertyOp20
 70
     1
102
RTVSPropertyOp21
 70
     1
102
RTVSPropertyOp22
 70
     1
102
RTVSPropertyOp23
 70
     1
102
RTVSPropertyOp24
 70
     1
102
RTVSPropertyOp25
 70
     1
102
RTVSPropertyOp26
 70
     1
102
RTVSPropertyOp27
 70
     1
102
RTVSPropertyOp28
 70
     1
102
RTVSPropertyOp29
 70
     1
102
RTVSPropertyOp30
 70
     1
102
RTVSPropertyOp31
 70
     1
102
RTVSPropertyOp32
 70
     1
102
RTVSPropertyOp33
 70
     1
102
RTVSPropertyOp34
 70
     1
102
RTVSPropertyOp35
 70
     1
102
RTVSPropertyOp36
 70
     1
102
RTVSPropertyOp37
 70
     1
102
RTVSPropertyOp38
 70
     1
102
RTVSPropertyOp39
 70
     1
102
RTVSPropertyOp40
 70
     1
102
RTVSPropertyOp41
 70
     1
102
RTVSPropertyOp42
 70
     1
102
RTVSPropertyOp43
 70
     1
102
RTVSPropertyOp44
 70
     1
102
RTVSPropertyOp45
 70
     1
102
RTVSPropertyOp46
 70
     1
102
RTVSPropertyOp47
 70
     1
102
RTVSPropertyOp48
 70
     1
102
RTVSPropertyOp49
 70
     1
102
RTVSPropertyOp50
 70
     1
102
RTVSPropertyOp51
 70
     0
102
RTVSPropertyOp52
 70
     0
102
RTVSPropertyOp53
 70
     1
102
RTVSPropertyOp54
 70
     1
102
RTVSPropertyOp55
 70
     1
102
RTVSPropertyOp56
 70
     1
102
RTVSPropertyOp57
 70
     1
102
RTVSPropertyOp58
 70
     1
102
RTVSPropertyOp59
 70
     1
102
RTVSPropertyOp60
 70
     1
102
RTVSPropertyOp61
 70
     1
102
RTVSPropertyOp62
 70
     1
  0
XRECORD
  5
9F14
102
{ACAD_REACTORS
330
9F13
102
}
330
9F13
100
AcDbXrecord
280
     1
102
RTVSPost2010Prop28
280
     0
102
RTVSPost2010PropOp28
 70
     1
102
RTVSPost2010Prop29
280
     1
102
RTVSPost2010PropOp29
 70
     1
102
RTVSPost2010Prop30
280
     1
102
RTVSPost2010PropOp30
 70
     1
102
RTVSPost2010Prop31
280
     0
102
RTVSPost2010PropOp31
 70
     1
102
RTVSPost2010Prop32
280
     0
102
RTVSPost2010PropOp32
 70
     1
102
RTVSPost2010Prop33
280
     0
102
RTVSPost2010PropOp33
 70
     1
102
RTVSPost2010Prop34
280
     0
102
RTVSPost2010PropOp34
 70
     1
102
RTVSPost2010Prop35
280
     0
102
RTVSPost2010PropOp35
 70
     1
102
RTVSPost2010Prop36
280
     0
102
RTVSPost2010PropOp36
 70
     1
102
RTVSPost2010Prop37
 90
       50
102
RTVSPost2010PropOp37
 70
     1
102
RTVSPost2010Prop38
140
0.0
102
RTVSPost2010PropOp38
 70
     1
102
RTVSPost2010Prop39
140
1.0
102
RTVSPost2010PropOp39
 70
     1
102
RTVSPost2010Prop40
 90
        0
102
RTVSPost2010PropOp40
 70
     1
102
RTVSPost2010Prop41ColorIndex
 90
       18
102
RTVSPost2010Prop41ColorRGB
 90
        0
102
RTVSPost2010PropOp41
 70
     1
102
RTVSPost2010Prop42
 90
       50
102
RTVSPost2010PropOp42
 70
     1
102
RTVSPost2010Prop43
 90
        3
102
RTVSPost2010PropOp43
 70
     1
102
RTVSPost2010Prop44ColorIndex
 90
        5
102
RTVSPost2010Prop44ColorRGB
 90
      255
102
RTVSPost2010PropOp44
 70
     1
102
RTVSPost2010Prop45
280
     0
102
RTVSPost2010PropOp45
 70
     1
102
RTVSPost2010Prop46
 90
       50
102
RTVSPost2010PropOp46
 70
     1
102
RTVSPost2010Prop47
 90
       50
102
RTVSPost2010PropOp47
 70
     1
102
RTVSPost2010Prop48
 90
       50
102
RTVSPost2010PropOp48
 70
     1
102
RTVSPost2010Prop49
280
     0
102
RTVSPost2010PropOp49
 70
     1
102
RTVSPost2010Prop50
 90
       50
102
RTVSPost2010PropOp50
 70
     1
102
RTVSPost2010Prop51ColorIndex
 90
      256
102
RTVSPost2010Prop51ColorRGB
 90
-16777216
102
RTVSPost2010PropOp51
 70
     0
102
RTVSPost2010Prop52
140
1.0
102
RTVSPost2010PropOp52
 70
     0
102
RTVSPost2010Prop53
 90
        2
102
RTVSPost2010PropOp53
 70
     1
102
RTVSPost2010Prop54
  1
strokes_ogs.tif
102
RTVSPost2010PropOp54
 70
     1
102
RTVSPost2010Prop55
280
     0
102
RTVSPost2010PropOp55
 70
     1
102
RTVSPost2010Prop56
140
1.0
102
RTVSPost2010PropOp56
 70
     1
102
RTVSPost2010Prop57
140
1.0
102
RTVSPost2010PropOp57
 70
     1
102
RTVSPropertyOp0
 70
     1
102
RTVSPropertyOp1
 70
     1
102
RTVSPropertyOp2
 70
     1
102
RTVSPropertyOp3
 70
     1
102
RTVSPropertyOp4
 70
     1
102
RTVSPropertyOp5
 70
     1
102
RTVSPropertyOp6
 70
     1
102
RTVSPropertyOp7
 70
     1
102
RTVSPropertyOp8
 70
     1
102
RTVSPropertyOp9
 70
     1
102
RTVSPropertyOp10
 70
     1
102
RTVSPropertyOp11
 70
     1
102
RTVSPropertyOp12
 70
     1
102
RTVSPropertyOp13
 70
     1
102
RTVSPropertyOp14
 70
     1
102
RTVSPropertyOp15
 70
     1
102
RTVSPropertyOp16
 70
     1
102
RTVSPropertyOp17
 70
     1
102
RTVSPropertyOp18
 70
     1
102
RTVSPropertyOp19
 70
     1
102
RTVSPropertyOp20
 70
     1
102
RTVSPropertyOp21
 70
     1
102
RTVSPropertyOp22
 70
     1
102
RTVSPropertyOp23
 70
     1
102
RTVSPropertyOp24
 70
     1
102
RTVSPropertyOp25
 70
     1
102
RTVSPropertyOp26
 70
     1
102
RTVSPropertyOp27
 70
     1
102
RTVSPropertyOp28
 70
     1
102
RTVSPropertyOp29
 70
     1
102
RTVSPropertyOp30
 70
     1
102
RTVSPropertyOp31
 70
     1
102
RTVSPropertyOp32
 70
     1
102
RTVSPropertyOp33
 70
     1
102
RTVSPropertyOp34
 70
     1
102
RTVSPropertyOp35
 70
     1
102
RTVSPropertyOp36
 70
     1
102
RTVSPropertyOp37
 70
     1
102
RTVSPropertyOp38
 70
     1
102
RTVSPropertyOp39
 70
     1
102
RTVSPropertyOp40
 70
     1
102
RTVSPropertyOp41
 70
     1
102
RTVSPropertyOp42
 70
     1
102
RTVSPropertyOp43
 70
     1
102
RTVSPropertyOp44
 70
     1
102
RTVSPropertyOp45
 70
     1
102
RTVSPropertyOp46
 70
     1
102
RTVSPropertyOp47
 70
     1
102
RTVSPropertyOp48
 70
     1
102
RTVSPropertyOp49
 70
     1
102
RTVSPropertyOp50
 70
     1
102
RTVSPropertyOp51
 70
     0
102
RTVSPropertyOp52
 70
     0
102
RTVSPropertyOp53
 70
     1
102
RTVSPropertyOp54
 70
     1
102
RTVSPropertyOp55
 70
     1
102
RTVSPropertyOp56
 70
     1
102
RTVSPropertyOp57
 70
     1
102
RTVSPropertyOp58
 70
     1
102
RTVSPropertyOp59
 70
     1
102
RTVSPropertyOp60
 70
     1
102
RTVSPropertyOp61
 70
     1
102
RTVSPropertyOp62
 70
     1
  0
XRECORD
  5
9F16
102
{ACAD_REACTORS
330
9F15
102
}
330
9F15
100
AcDbXrecord
280
     1
102
RTVSPost2010Prop28
280
     0
102
RTVSPost2010PropOp28
 70
     1
102
RTVSPost2010Prop29
280
     1
102
RTVSPost2010PropOp29
 70
     1
102
RTVSPost2010Prop30
280
     1
102
RTVSPost2010PropOp30
 70
     1
102
RTVSPost2010Prop31
280
     0
102
RTVSPost2010PropOp31
 70
     1
102
RTVSPost2010Prop32
280
     0
102
RTVSPost2010PropOp32
 70
     1
102
RTVSPost2010Prop33
280
     0
102
RTVSPost2010PropOp33
 70
     1
102
RTVSPost2010Prop34
280
     0
102
RTVSPost2010PropOp34
 70
     1
102
RTVSPost2010Prop35
280
     0
102
RTVSPost2010PropOp35
 70
     1
102
RTVSPost2010Prop36
280
     0
102
RTVSPost2010PropOp36
 70
     1
102
RTVSPost2010Prop37
 90
       50
102
RTVSPost2010PropOp37
 70
     1
102
RTVSPost2010Prop38
140
0.0
102
RTVSPost2010PropOp38
 70
     1
102
RTVSPost2010Prop39
140
1.0
102
RTVSPost2010PropOp39
 70
     1
102
RTVSPost2010Prop40
 90
        0
102
RTVSPost2010PropOp40
 70
     1
102
RTVSPost2010Prop41ColorIndex
 90
       18
102
RTVSPost2010Prop41ColorRGB
 90
        0
102
RTVSPost2010PropOp41
 70
     1
102
RTVSPost2010Prop42
 90
       50
102
RTVSPost2010PropOp42
 70
     1
102
RTVSPost2010Prop43
 90
        3
102
RTVSPost2010PropOp43
 70
     1
102
RTVSPost2010Prop44ColorIndex
 90
        5
102
RTVSPost2010Prop44ColorRGB
 90
      255
102
RTVSPost2010PropOp44
 70
     1
102
RTVSPost2010Prop45
280
     0
102
RTVSPost2010PropOp45
 70
     1
102
RTVSPost2010Prop46
 90
       50
102
RTVSPost2010PropOp46
 70
     1
102
RTVSPost2010Prop47
 90
       50
102
RTVSPost2010PropOp47
 70
     1
102
RTVSPost2010Prop48
 90
       50
102
RTVSPost2010PropOp48
 70
     1
102
RTVSPost2010Prop49
280
     0
102
RTVSPost2010PropOp49
 70
     1
102
RTVSPost2010Prop50
 90
       50
102
RTVSPost2010PropOp50
 70
     1
102
RTVSPost2010Prop51ColorIndex
 90
      256
102
RTVSPost2010Prop51ColorRGB
 90
-16777216
102
RTVSPost2010PropOp51
 70
     0
102
RTVSPost2010Prop52
140
1.0
102
RTVSPost2010PropOp52
 70
     0
102
RTVSPost2010Prop53
 90
        2
102
RTVSPost2010PropOp53
 70
     1
102
RTVSPost2010Prop54
  1
strokes_ogs.tif
102
RTVSPost2010PropOp54
 70
     1
102
RTVSPost2010Prop55
280
     0
102
RTVSPost2010PropOp55
 70
     1
102
RTVSPost2010Prop56
140
1.0
102
RTVSPost2010PropOp56
 70
     1
102
RTVSPost2010Prop57
140
1.0
102
RTVSPost2010PropOp57
 70
     1
102
RTVSPropertyOp0
 70
     1
102
RTVSPropertyOp1
 70
     1
102
RTVSPropertyOp2
 70
     1
102
RTVSPropertyOp3
 70
     1
102
RTVSPropertyOp4
 70
     1
102
RTVSPropertyOp5
 70
     1
102
RTVSPropertyOp6
 70
     1
102
RTVSPropertyOp7
 70
     1
102
RTVSPropertyOp8
 70
     1
102
RTVSPropertyOp9
 70
     1
102
RTVSPropertyOp10
 70
     1
102
RTVSPropertyOp11
 70
     1
102
RTVSPropertyOp12
 70
     1
102
RTVSPropertyOp13
 70
     1
102
RTVSPropertyOp14
 70
     1
102
RTVSPropertyOp15
 70
     1
102
RTVSPropertyOp16
 70
     1
102
RTVSPropertyOp17
 70
     1
102
RTVSPropertyOp18
 70
     1
102
RTVSPropertyOp19
 70
     1
102
RTVSPropertyOp20
 70
     1
102
RTVSPropertyOp21
 70
     1
102
RTVSPropertyOp22
 70
     1
102
RTVSPropertyOp23
 70
     1
102
RTVSPropertyOp24
 70
     1
102
RTVSPropertyOp25
 70
     1
102
RTVSPropertyOp26
 70
     1
102
RTVSPropertyOp27
 70
     1
102
RTVSPropertyOp28
 70
     1
102
RTVSPropertyOp29
 70
     1
102
RTVSPropertyOp30
 70
     1
102
RTVSPropertyOp31
 70
     1
102
RTVSPropertyOp32
 70
     1
102
RTVSPropertyOp33
 70
     1
102
RTVSPropertyOp34
 70
     1
102
RTVSPropertyOp35
 70
     1
102
RTVSPropertyOp36
 70
     1
102
RTVSPropertyOp37
 70
     1
102
RTVSPropertyOp38
 70
     1
102
RTVSPropertyOp39
 70
     1
102
RTVSPropertyOp40
 70
     1
102
RTVSPropertyOp41
 70
     1
102
RTVSPropertyOp42
 70
     1
102
RTVSPropertyOp43
 70
     1
102
RTVSPropertyOp44
 70
     1
102
RTVSPropertyOp45
 70
     1
102
RTVSPropertyOp46
 70
     1
102
RTVSPropertyOp47
 70
     1
102
RTVSPropertyOp48
 70
     1
102
RTVSPropertyOp49
 70
     1
102
RTVSPropertyOp50
 70
     1
102
RTVSPropertyOp51
 70
     0
102
RTVSPropertyOp52
 70
     0
102
RTVSPropertyOp53
 70
     1
102
RTVSPropertyOp54
 70
     1
102
RTVSPropertyOp55
 70
     1
102
RTVSPropertyOp56
 70
     1
102
RTVSPropertyOp57
 70
     1
102
RTVSPropertyOp58
 70
     1
102
RTVSPropertyOp59
 70
     1
102
RTVSPropertyOp60
 70
     1
102
RTVSPropertyOp61
 70
     1
102
RTVSPropertyOp62
 70
     1
  0
XRECORD
  5
9F18
102
{ACAD_REACTORS
330
9F17
102
}
330
9F17
100
AcDbXrecord
280
     1
102
RTVSPost2010Prop28
280
     0
102
RTVSPost2010PropOp28
 70
     1
102
RTVSPost2010Prop29
280
     1
102
RTVSPost2010PropOp29
 70
     1
102
RTVSPost2010Prop30
280
     1
102
RTVSPost2010PropOp30
 70
     1
102
RTVSPost2010Prop31
280
     0
102
RTVSPost2010PropOp31
 70
     1
102
RTVSPost2010Prop32
280
     0
102
RTVSPost2010PropOp32
 70
     1
102
RTVSPost2010Prop33
280
     0
102
RTVSPost2010PropOp33
 70
     1
102
RTVSPost2010Prop34
280
     0
102
RTVSPost2010PropOp34
 70
     1
102
RTVSPost2010Prop35
280
     0
102
RTVSPost2010PropOp35
 70
     1
102
RTVSPost2010Prop36
280
     0
102
RTVSPost2010PropOp36
 70
     1
102
RTVSPost2010Prop37
 90
       50
102
RTVSPost2010PropOp37
 70
     1
102
RTVSPost2010Prop38
140
0.0
102
RTVSPost2010PropOp38
 70
     1
102
RTVSPost2010Prop39
140
1.0
102
RTVSPost2010PropOp39
 70
     1
102
RTVSPost2010Prop40
 90
        0
102
RTVSPost2010PropOp40
 70
     1
102
RTVSPost2010Prop41ColorIndex
 90
       18
102
RTVSPost2010Prop41ColorRGB
 90
        0
102
RTVSPost2010PropOp41
 70
     1
102
RTVSPost2010Prop42
 90
       50
102
RTVSPost2010PropOp42
 70
     1
102
RTVSPost2010Prop43
 90
        3
102
RTVSPost2010PropOp43
 70
     1
102
RTVSPost2010Prop44ColorIndex
 90
        5
102
RTVSPost2010Prop44ColorRGB
 90
      255
102
RTVSPost2010PropOp44
 70
     1
102
RTVSPost2010Prop45
280
     0
102
RTVSPost2010PropOp45
 70
     1
102
RTVSPost2010Prop46
 90
       50
102
RTVSPost2010PropOp46
 70
     1
102
RTVSPost2010Prop47
 90
       50
102
RTVSPost2010PropOp47
 70
     1
102
RTVSPost2010Prop48
 90
       50
102
RTVSPost2010PropOp48
 70
     1
102
RTVSPost2010Prop49
280
     0
102
RTVSPost2010PropOp49
 70
     1
102
RTVSPost2010Prop50
 90
       50
102
RTVSPost2010PropOp50
 70
     1
102
RTVSPost2010Prop51ColorIndex
 90
      256
102
RTVSPost2010Prop51ColorRGB
 90
-16777216
102
RTVSPost2010PropOp51
 70
     0
102
RTVSPost2010Prop52
140
1.0
102
RTVSPost2010PropOp52
 70
     0
102
RTVSPost2010Prop53
 90
        2
102
RTVSPost2010PropOp53
 70
     1
102
RTVSPost2010Prop54
  1
strokes_ogs.tif
102
RTVSPost2010PropOp54
 70
     1
102
RTVSPost2010Prop55
280
     0
102
RTVSPost2010PropOp55
 70
     1
102
RTVSPost2010Prop56
140
1.0
102
RTVSPost2010PropOp56
 70
     1
102
RTVSPost2010Prop57
140
1.0
102
RTVSPost2010PropOp57
 70
     1
102
RTVSPropertyOp0
 70
     1
102
RTVSPropertyOp1
 70
     1
102
RTVSPropertyOp2
 70
     1
102
RTVSPropertyOp3
 70
     1
102
RTVSPropertyOp4
 70
     1
102
RTVSPropertyOp5
 70
     1
102
RTVSPropertyOp6
 70
     1
102
RTVSPropertyOp7
 70
     1
102
RTVSPropertyOp8
 70
     1
102
RTVSPropertyOp9
 70
     1
102
RTVSPropertyOp10
 70
     1
102
RTVSPropertyOp11
 70
     1
102
RTVSPropertyOp12
 70
     1
102
RTVSPropertyOp13
 70
     1
102
RTVSPropertyOp14
 70
     1
102
RTVSPropertyOp15
 70
     1
102
RTVSPropertyOp16
 70
     1
102
RTVSPropertyOp17
 70
     1
102
RTVSPropertyOp18
 70
     1
102
RTVSPropertyOp19
 70
     1
102
RTVSPropertyOp20
 70
     1
102
RTVSPropertyOp21
 70
     1
102
RTVSPropertyOp22
 70
     1
102
RTVSPropertyOp23
 70
     1
102
RTVSPropertyOp24
 70
     1
102
RTVSPropertyOp25
 70
     1
102
RTVSPropertyOp26
 70
     1
102
RTVSPropertyOp27
 70
     1
102
RTVSPropertyOp28
 70
     1
102
RTVSPropertyOp29
 70
     1
102
RTVSPropertyOp30
 70
     1
102
RTVSPropertyOp31
 70
     1
102
RTVSPropertyOp32
 70
     1
102
RTVSPropertyOp33
 70
     1
102
RTVSPropertyOp34
 70
     1
102
RTVSPropertyOp35
 70
     1
102
RTVSPropertyOp36
 70
     1
102
RTVSPropertyOp37
 70
     1
102
RTVSPropertyOp38
 70
     1
102
RTVSPropertyOp39
 70
     1
102
RTVSPropertyOp40
 70
     1
102
RTVSPropertyOp41
 70
     1
102
RTVSPropertyOp42
 70
     1
102
RTVSPropertyOp43
 70
     1
102
RTVSPropertyOp44
 70
     1
102
RTVSPropertyOp45
 70
     1
102
RTVSPropertyOp46
 70
     1
102
RTVSPropertyOp47
 70
     1
102
RTVSPropertyOp48
 70
     1
102
RTVSPropertyOp49
 70
     1
102
RTVSPropertyOp50
 70
     1
102
RTVSPropertyOp51
 70
     0
102
RTVSPropertyOp52
 70
     0
102
RTVSPropertyOp53
 70
     1
102
RTVSPropertyOp54
 70
     1
102
RTVSPropertyOp55
 70
     1
102
RTVSPropertyOp56
 70
     1
102
RTVSPropertyOp57
 70
     1
102
RTVSPropertyOp58
 70
     1
102
RTVSPropertyOp59
 70
     1
102
RTVSPropertyOp60
 70
     1
102
RTVSPropertyOp61
 70
     1
102
RTVSPropertyOp62
 70
     1
  0
XRECORD
  5
9F20
102
{ACAD_REACTORS
330
9F1F
102
}
330
9F1F
100
AcDbXrecord
280
     1
102
RTVSPost2010Prop28
280
     0
102
RTVSPost2010PropOp28
 70
     1
102
RTVSPost2010Prop29
280
     1
102
RTVSPost2010PropOp29
 70
     1
102
RTVSPost2010Prop30
280
     1
102
RTVSPost2010PropOp30
 70
     1
102
RTVSPost2010Prop31
280
     0
102
RTVSPost2010PropOp31
 70
     1
102
RTVSPost2010Prop32
280
     0
102
RTVSPost2010PropOp32
 70
     1
102
RTVSPost2010Prop33
280
     0
102
RTVSPost2010PropOp33
 70
     1
102
RTVSPost2010Prop34
280
     0
102
RTVSPost2010PropOp34
 70
     1
102
RTVSPost2010Prop35
280
     0
102
RTVSPost2010PropOp35
 70
     1
102
RTVSPost2010Prop36
280
     0
102
RTVSPost2010PropOp36
 70
     1
102
RTVSPost2010Prop37
 90
       50
102
RTVSPost2010PropOp37
 70
     1
102
RTVSPost2010Prop38
140
0.0
102
RTVSPost2010PropOp38
 70
     1
102
RTVSPost2010Prop39
140
1.0
102
RTVSPost2010PropOp39
 70
     1
102
RTVSPost2010Prop40
 90
        0
102
RTVSPost2010PropOp40
 70
     1
102
RTVSPost2010Prop41ColorIndex
 90
       18
102
RTVSPost2010Prop41ColorRGB
 90
        0
102
RTVSPost2010PropOp41
 70
     1
102
RTVSPost2010Prop42
 90
       50
102
RTVSPost2010PropOp42
 70
     1
102
RTVSPost2010Prop43
 90
        3
102
RTVSPost2010PropOp43
 70
     1
102
RTVSPost2010Prop44ColorIndex
 90
        5
102
RTVSPost2010Prop44ColorRGB
 90
      255
102
RTVSPost2010PropOp44
 70
     1
102
RTVSPost2010Prop45
280
     0
102
RTVSPost2010PropOp45
 70
     1
102
RTVSPost2010Prop46
 90
       50
102
RTVSPost2010PropOp46
 70
     1
102
RTVSPost2010Prop47
 90
       50
102
RTVSPost2010PropOp47
 70
     1
102
RTVSPost2010Prop48
 90
       50
102
RTVSPost2010PropOp48
 70
     1
102
RTVSPost2010Prop49
280
     0
102
RTVSPost2010PropOp49
 70
     1
102
RTVSPost2010Prop50
 90
       50
102
RTVSPost2010PropOp50
 70
     1
102
RTVSPost2010Prop51ColorIndex
 90
      256
102
RTVSPost2010Prop51ColorRGB
 90
-16777216
102
RTVSPost2010PropOp51
 70
     0
102
RTVSPost2010Prop52
140
1.0
102
RTVSPost2010PropOp52
 70
     0
102
RTVSPost2010Prop53
 90
        2
102
RTVSPost2010PropOp53
 70
     1
102
RTVSPost2010Prop54
  1
strokes_ogs.tif
102
RTVSPost2010PropOp54
 70
     1
102
RTVSPost2010Prop55
280
     0
102
RTVSPost2010PropOp55
 70
     1
102
RTVSPost2010Prop56
140
1.0
102
RTVSPost2010PropOp56
 70
     1
102
RTVSPost2010Prop57
140
1.0
102
RTVSPost2010PropOp57
 70
     1
102
RTVSPropertyOp0
 70
     1
102
RTVSPropertyOp1
 70
     1
102
RTVSPropertyOp2
 70
     1
102
RTVSPropertyOp3
 70
     1
102
RTVSPropertyOp4
 70
     1
102
RTVSPropertyOp5
 70
     1
102
RTVSPropertyOp6
 70
     1
102
RTVSPropertyOp7
 70
     1
102
RTVSPropertyOp8
 70
     1
102
RTVSPropertyOp9
 70
     1
102
RTVSPropertyOp10
 70
     1
102
RTVSPropertyOp11
 70
     1
102
RTVSPropertyOp12
 70
     1
102
RTVSPropertyOp13
 70
     1
102
RTVSPropertyOp14
 70
     1
102
RTVSPropertyOp15
 70
     1
102
RTVSPropertyOp16
 70
     1
102
RTVSPropertyOp17
 70
     1
102
RTVSPropertyOp18
 70
     1
102
RTVSPropertyOp19
 70
     1
102
RTVSPropertyOp20
 70
     1
102
RTVSPropertyOp21
 70
     1
102
RTVSPropertyOp22
 70
     1
102
RTVSPropertyOp23
 70
     1
102
RTVSPropertyOp24
 70
     1
102
RTVSPropertyOp25
 70
     1
102
RTVSPropertyOp26
 70
     1
102
RTVSPropertyOp27
 70
     1
102
RTVSPropertyOp28
 70
     1
102
RTVSPropertyOp29
 70
     1
102
RTVSPropertyOp30
 70
     1
102
RTVSPropertyOp31
 70
     1
102
RTVSPropertyOp32
 70
     1
102
RTVSPropertyOp33
 70
     1
102
RTVSPropertyOp34
 70
     1
102
RTVSPropertyOp35
 70
     1
102
RTVSPropertyOp36
 70
     1
102
RTVSPropertyOp37
 70
     1
102
RTVSPropertyOp38
 70
     1
102
RTVSPropertyOp39
 70
     1
102
RTVSPropertyOp40
 70
     1
102
RTVSPropertyOp41
 70
     1
102
RTVSPropertyOp42
 70
     1
102
RTVSPropertyOp43
 70
     1
102
RTVSPropertyOp44
 70
     1
102
RTVSPropertyOp45
 70
     1
102
RTVSPropertyOp46
 70
     1
102
RTVSPropertyOp47
 70
     1
102
RTVSPropertyOp48
 70
     1
102
RTVSPropertyOp49
 70
     1
102
RTVSPropertyOp50
 70
     1
102
RTVSPropertyOp51
 70
     0
102
RTVSPropertyOp52
 70
     0
102
RTVSPropertyOp53
 70
     1
102
RTVSPropertyOp54
 70
     1
102
RTVSPropertyOp55
 70
     1
102
RTVSPropertyOp56
 70
     1
102
RTVSPropertyOp57
 70
     1
102
RTVSPropertyOp58
 70
     1
102
RTVSPropertyOp59
 70
     1
102
RTVSPropertyOp60
 70
     1
102
RTVSPropertyOp61
 70
     1
102
RTVSPropertyOp62
 70
     1
  0
XRECORD
  5
9F3C
102
{ACAD_REACTORS
330
9F3B
102
}
330
9F3B
100
AcDbXrecord
280
     1
102
RTVSPost2010Prop28
280
     0
102
RTVSPost2010PropOp28
 70
     1
102
RTVSPost2010Prop29
280
     1
102
RTVSPost2010PropOp29
 70
     1
102
RTVSPost2010Prop30
280
     1
102
RTVSPost2010PropOp30
 70
     1
102
RTVSPost2010Prop31
280
     0
102
RTVSPost2010PropOp31
 70
     1
102
RTVSPost2010Prop32
280
     0
102
RTVSPost2010PropOp32
 70
     1
102
RTVSPost2010Prop33
280
     0
102
RTVSPost2010PropOp33
 70
     1
102
RTVSPost2010Prop34
280
     0
102
RTVSPost2010PropOp34
 70
     1
102
RTVSPost2010Prop35
280
     0
102
RTVSPost2010PropOp35
 70
     1
102
RTVSPost2010Prop36
280
     0
102
RTVSPost2010PropOp36
 70
     1
102
RTVSPost2010Prop37
 90
       50
102
RTVSPost2010PropOp37
 70
     0
102
RTVSPost2010Prop38
140
0.0
102
RTVSPost2010PropOp38
 70
     0
102
RTVSPost2010Prop39
140
1.0
102
RTVSPost2010PropOp39
 70
     0
102
RTVSPost2010Prop40
 90
        0
102
RTVSPost2010PropOp40
 70
     0
102
RTVSPost2010Prop41ColorIndex
 90
       18
102
RTVSPost2010Prop41ColorRGB
 90
        0
102
RTVSPost2010PropOp41
 70
     0
102
RTVSPost2010Prop42
 90
       50
102
RTVSPost2010PropOp42
 70
     0
102
RTVSPost2010Prop43
 90
        3
102
RTVSPost2010PropOp43
 70
     0
102
RTVSPost2010Prop44ColorIndex
 90
        5
102
RTVSPost2010Prop44ColorRGB
 90
      255
102
RTVSPost2010PropOp44
 70
     0
102
RTVSPost2010Prop45
280
     0
102
RTVSPost2010PropOp45
 70
     1
102
RTVSPost2010Prop46
 90
       50
102
RTVSPost2010PropOp46
 70
     0
102
RTVSPost2010Prop47
 90
       50
102
RTVSPost2010PropOp47
 70
     0
102
RTVSPost2010Prop48
 90
       50
102
RTVSPost2010PropOp48
 70
     0
102
RTVSPost2010Prop49
280
     0
102
RTVSPost2010PropOp49
 70
     1
102
RTVSPost2010Prop50
 90
       50
102
RTVSPost2010PropOp50
 70
     0
102
RTVSPost2010Prop51ColorIndex
 90
      256
102
RTVSPost2010Prop51ColorRGB
 90
-16777216
102
RTVSPost2010PropOp51
 70
     0
102
RTVSPost2010Prop52
140
1.0
102
RTVSPost2010PropOp52
 70
     0
102
RTVSPost2010Prop53
 90
        2
102
RTVSPost2010PropOp53
 70
     0
102
RTVSPost2010Prop54
  1
strokes_ogs.tif
102
RTVSPost2010PropOp54
 70
     0
102
RTVSPost2010Prop55
280
     0
102
RTVSPost2010PropOp55
 70
     1
102
RTVSPost2010Prop56
140
1.0
102
RTVSPost2010PropOp56
 70
     0
102
RTVSPost2010Prop57
140
1.0
102
RTVSPost2010PropOp57
 70
     0
102
RTVSPropertyOp0
 70
     0
102
RTVSPropertyOp1
 70
     0
102
RTVSPropertyOp2
 70
     0
102
RTVSPropertyOp3
 70
     0
102
RTVSPropertyOp4
 70
     0
102
RTVSPropertyOp5
 70
     0
102
RTVSPropertyOp6
 70
     0
102
RTVSPropertyOp7
 70
     0
102
RTVSPropertyOp8
 70
     0
102
RTVSPropertyOp9
 70
     0
102
RTVSPropertyOp10
 70
     0
102
RTVSPropertyOp11
 70
     0
102
RTVSPropertyOp12
 70
     0
102
RTVSPropertyOp13
 70
     0
102
RTVSPropertyOp14
 70
     2
102
RTVSPropertyOp15
 70
     0
102
RTVSPropertyOp16
 70
     0
102
RTVSPropertyOp17
 70
     0
102
RTVSPropertyOp18
 70
     0
102
RTVSPropertyOp19
 70
     0
102
RTVSPropertyOp20
 70
     0
102
RTVSPropertyOp21
 70
     0
102
RTVSPropertyOp22
 70
     0
102
RTVSPropertyOp23
 70
     0
102
RTVSPropertyOp24
 70
     0
102
RTVSPropertyOp25
 70
     0
102
RTVSPropertyOp26
 70
     0
102
RTVSPropertyOp27
 70
     0
102
RTVSPropertyOp28
 70
     1
102
RTVSPropertyOp29
 70
     1
102
RTVSPropertyOp30
 70
     1
102
RTVSPropertyOp31
 70
     1
102
RTVSPropertyOp32
 70
     1
102
RTVSPropertyOp33
 70
     1
102
RTVSPropertyOp34
 70
     1
102
RTVSPropertyOp35
 70
     1
102
RTVSPropertyOp36
 70
     1
102
RTVSPropertyOp37
 70
     0
102
RTVSPropertyOp38
 70
     0
102
RTVSPropertyOp39
 70
     0
102
RTVSPropertyOp40
 70
     0
102
RTVSPropertyOp41
 70
     0
102
RTVSPropertyOp42
 70
     0
102
RTVSPropertyOp43
 70
     0
102
RTVSPropertyOp44
 70
     0
102
RTVSPropertyOp45
 70
     1
102
RTVSPropertyOp46
 70
     0
102
RTVSPropertyOp47
 70
     0
102
RTVSPropertyOp48
 70
     0
102
RTVSPropertyOp49
 70
     1
102
RTVSPropertyOp50
 70
     0
102
RTVSPropertyOp51
 70
     0
102
RTVSPropertyOp52
 70
     0
102
RTVSPropertyOp53
 70
     0
102
RTVSPropertyOp54
 70
     0
102
RTVSPropertyOp55
 70
     1
102
RTVSPropertyOp56
 70
     0
102
RTVSPropertyOp57
 70
     0
102
RTVSPropertyOp58
 70
     0
102
RTVSPropertyOp59
 70
     0
102
RTVSPropertyOp60
 70
     0
102
RTVSPropertyOp61
 70
     0
102
RTVSPropertyOp62
 70
     0
  0
XRECORD
  5
9F2C
102
{ACAD_REACTORS
330
9F2B
102
}
330
9F2B
100
AcDbXrecord
280
     1
102
RTVSPost2010Prop28
280
     0
102
RTVSPost2010PropOp28
 70
     1
102
RTVSPost2010Prop29
280
     1
102
RTVSPost2010PropOp29
 70
     1
102
RTVSPost2010Prop30
280
     1
102
RTVSPost2010PropOp30
 70
     1
102
RTVSPost2010Prop31
280
     0
102
RTVSPost2010PropOp31
 70
     1
102
RTVSPost2010Prop32
280
     0
102
RTVSPost2010PropOp32
 70
     1
102
RTVSPost2010Prop33
280
     0
102
RTVSPost2010PropOp33
 70
     1
102
RTVSPost2010Prop34
280
     0
102
RTVSPost2010PropOp34
 70
     1
102
RTVSPost2010Prop35
280
     0
102
RTVSPost2010PropOp35
 70
     1
102
RTVSPost2010Prop36
280
     0
102
RTVSPost2010PropOp36
 70
     1
102
RTVSPost2010Prop37
 90
       50
102
RTVSPost2010PropOp37
 70
     1
102
RTVSPost2010Prop38
140
0.0
102
RTVSPost2010PropOp38
 70
     1
102
RTVSPost2010Prop39
140
1.0
102
RTVSPost2010PropOp39
 70
     1
102
RTVSPost2010Prop40
 90
        0
102
RTVSPost2010PropOp40
 70
     1
102
RTVSPost2010Prop41ColorIndex
 90
       18
102
RTVSPost2010Prop41ColorRGB
 90
        0
102
RTVSPost2010PropOp41
 70
     1
102
RTVSPost2010Prop42
 90
       50
102
RTVSPost2010PropOp42
 70
     1
102
RTVSPost2010Prop43
 90
        3
102
RTVSPost2010PropOp43
 70
     1
102
RTVSPost2010Prop44ColorIndex
 90
        5
102
RTVSPost2010Prop44ColorRGB
 90
      255
102
RTVSPost2010PropOp44
 70
     1
102
RTVSPost2010Prop45
280
     0
102
RTVSPost2010PropOp45
 70
     1
102
RTVSPost2010Prop46
 90
       50
102
RTVSPost2010PropOp46
 70
     1
102
RTVSPost2010Prop47
 90
       50
102
RTVSPost2010PropOp47
 70
     1
102
RTVSPost2010Prop48
 90
       50
102
RTVSPost2010PropOp48
 70
     1
102
RTVSPost2010Prop49
280
     0
102
RTVSPost2010PropOp49
 70
     1
102
RTVSPost2010Prop50
 90
       50
102
RTVSPost2010PropOp50
 70
     1
102
RTVSPost2010Prop51ColorIndex
 90
      256
102
RTVSPost2010Prop51ColorRGB
 90
-16777216
102
RTVSPost2010PropOp51
 70
     0
102
RTVSPost2010Prop52
140
1.0
102
RTVSPost2010PropOp52
 70
     0
102
RTVSPost2010Prop53
 90
        2
102
RTVSPost2010PropOp53
 70
     1
102
RTVSPost2010Prop54
  1
strokes_ogs.tif
102
RTVSPost2010PropOp54
 70
     1
102
RTVSPost2010Prop55
280
     0
102
RTVSPost2010PropOp55
 70
     1
102
RTVSPost2010Prop56
140
1.0
102
RTVSPost2010PropOp56
 70
     1
102
RTVSPost2010Prop57
140
1.0
102
RTVSPost2010PropOp57
 70
     1
102
RTVSPropertyOp0
 70
     1
102
RTVSPropertyOp1
 70
     1
102
RTVSPropertyOp2
 70
     1
102
RTVSPropertyOp3
 70
     1
102
RTVSPropertyOp4
 70
     1
102
RTVSPropertyOp5
 70
     1
102
RTVSPropertyOp6
 70
     1
102
RTVSPropertyOp7
 70
     1
102
RTVSPropertyOp8
 70
     1
102
RTVSPropertyOp9
 70
     1
102
RTVSPropertyOp10
 70
     1
102
RTVSPropertyOp11
 70
     1
102
RTVSPropertyOp12
 70
     1
102
RTVSPropertyOp13
 70
     1
102
RTVSPropertyOp14
 70
     1
102
RTVSPropertyOp15
 70
     1
102
RTVSPropertyOp16
 70
     1
102
RTVSPropertyOp17
 70
     1
102
RTVSPropertyOp18
 70
     1
102
RTVSPropertyOp19
 70
     1
102
RTVSPropertyOp20
 70
     1
102
RTVSPropertyOp21
 70
     1
102
RTVSPropertyOp22
 70
     1
102
RTVSPropertyOp23
 70
     1
102
RTVSPropertyOp24
 70
     1
102
RTVSPropertyOp25
 70
     1
102
RTVSPropertyOp26
 70
     1
102
RTVSPropertyOp27
 70
     1
102
RTVSPropertyOp28
 70
     1
102
RTVSPropertyOp29
 70
     1
102
RTVSPropertyOp30
 70
     1
102
RTVSPropertyOp31
 70
     1
102
RTVSPropertyOp32
 70
     1
102
RTVSPropertyOp33
 70
     1
102
RTVSPropertyOp34
 70
     1
102
RTVSPropertyOp35
 70
     1
102
RTVSPropertyOp36
 70
     1
102
RTVSPropertyOp37
 70
     1
102
RTVSPropertyOp38
 70
     1
102
RTVSPropertyOp39
 70
     1
102
RTVSPropertyOp40
 70
     1
102
RTVSPropertyOp41
 70
     1
102
RTVSPropertyOp42
 70
     1
102
RTVSPropertyOp43
 70
     1
102
RTVSPropertyOp44
 70
     1
102
RTVSPropertyOp45
 70
     1
102
RTVSPropertyOp46
 70
     1
102
RTVSPropertyOp47
 70
     1
102
RTVSPropertyOp48
 70
     1
102
RTVSPropertyOp49
 70
     1
102
RTVSPropertyOp50
 70
     1
102
RTVSPropertyOp51
 70
     0
102
RTVSPropertyOp52
 70
     0
102
RTVSPropertyOp53
 70
     1
102
RTVSPropertyOp54
 70
     1
102
RTVSPropertyOp55
 70
     1
102
RTVSPropertyOp56
 70
     1
102
RTVSPropertyOp57
 70
     1
102
RTVSPropertyOp58
 70
     1
102
RTVSPropertyOp59
 70
     1
102
RTVSPropertyOp60
 70
     1
102
RTVSPropertyOp61
 70
     1
102
RTVSPropertyOp62
 70
     1
  0
XRECORD
  5
9F3E
102
{ACAD_REACTORS
330
9F3D
102
}
330
9F3D
100
AcDbXrecord
280
     1
102
RTVSPost2010Prop28
280
     0
102
RTVSPost2010PropOp28
 70
     1
102
RTVSPost2010Prop29
280
     1
102
RTVSPost2010PropOp29
 70
     1
102
RTVSPost2010Prop30
280
     1
102
RTVSPost2010PropOp30
 70
     1
102
RTVSPost2010Prop31
280
     0
102
RTVSPost2010PropOp31
 70
     1
102
RTVSPost2010Prop32
280
     0
102
RTVSPost2010PropOp32
 70
     1
102
RTVSPost2010Prop33
280
     0
102
RTVSPost2010PropOp33
 70
     1
102
RTVSPost2010Prop34
280
     0
102
RTVSPost2010PropOp34
 70
     1
102
RTVSPost2010Prop35
280
     0
102
RTVSPost2010PropOp35
 70
     1
102
RTVSPost2010Prop36
280
     0
102
RTVSPost2010PropOp36
 70
     1
102
RTVSPost2010Prop37
 90
       50
102
RTVSPost2010PropOp37
 70
     0
102
RTVSPost2010Prop38
140
0.0
102
RTVSPost2010PropOp38
 70
     0
102
RTVSPost2010Prop39
140
1.0
102
RTVSPost2010PropOp39
 70
     0
102
RTVSPost2010Prop40
 90
        0
102
RTVSPost2010PropOp40
 70
     0
102
RTVSPost2010Prop41ColorIndex
 90
       18
102
RTVSPost2010Prop41ColorRGB
 90
        0
102
RTVSPost2010PropOp41
 70
     0
102
RTVSPost2010Prop42
 90
       50
102
RTVSPost2010PropOp42
 70
     0
102
RTVSPost2010Prop43
 90
        3
102
RTVSPost2010PropOp43
 70
     0
102
RTVSPost2010Prop44ColorIndex
 90
        5
102
RTVSPost2010Prop44ColorRGB
 90
      255
102
RTVSPost2010PropOp44
 70
     0
102
RTVSPost2010Prop45
280
     0
102
RTVSPost2010PropOp45
 70
     1
102
RTVSPost2010Prop46
 90
       50
102
RTVSPost2010PropOp46
 70
     0
102
RTVSPost2010Prop47
 90
       50
102
RTVSPost2010PropOp47
 70
     0
102
RTVSPost2010Prop48
 90
       50
102
RTVSPost2010PropOp48
 70
     0
102
RTVSPost2010Prop49
280
     0
102
RTVSPost2010PropOp49
 70
     1
102
RTVSPost2010Prop50
 90
       50
102
RTVSPost2010PropOp50
 70
     0
102
RTVSPost2010Prop51ColorIndex
 90
      256
102
RTVSPost2010Prop51ColorRGB
 90
-16777216
102
RTVSPost2010PropOp51
 70
     0
102
RTVSPost2010Prop52
140
1.0
102
RTVSPost2010PropOp52
 70
     0
102
RTVSPost2010Prop53
 90
        2
102
RTVSPost2010PropOp53
 70
     0
102
RTVSPost2010Prop54
  1
strokes_ogs.tif
102
RTVSPost2010PropOp54
 70
     0
102
RTVSPost2010Prop55
280
     0
102
RTVSPost2010PropOp55
 70
     1
102
RTVSPost2010Prop56
140
1.0
102
RTVSPost2010PropOp56
 70
     0
102
RTVSPost2010Prop57
140
1.0
102
RTVSPost2010PropOp57
 70
     0
102
RTVSPropertyOp0
 70
     0
102
RTVSPropertyOp1
 70
     0
102
RTVSPropertyOp2
 70
     0
102
RTVSPropertyOp3
 70
     0
102
RTVSPropertyOp4
 70
     0
102
RTVSPropertyOp5
 70
     0
102
RTVSPropertyOp6
 70
     0
102
RTVSPropertyOp7
 70
     0
102
RTVSPropertyOp8
 70
     0
102
RTVSPropertyOp9
 70
     0
102
RTVSPropertyOp10
 70
     0
102
RTVSPropertyOp11
 70
     0
102
RTVSPropertyOp12
 70
     0
102
RTVSPropertyOp13
 70
     0
102
RTVSPropertyOp14
 70
     2
102
RTVSPropertyOp15
 70
     0
102
RTVSPropertyOp16
 70
     0
102
RTVSPropertyOp17
 70
     0
102
RTVSPropertyOp18
 70
     0
102
RTVSPropertyOp19
 70
     0
102
RTVSPropertyOp20
 70
     0
102
RTVSPropertyOp21
 70
     0
102
RTVSPropertyOp22
 70
     0
102
RTVSPropertyOp23
 70
     0
102
RTVSPropertyOp24
 70
     0
102
RTVSPropertyOp25
 70
     0
102
RTVSPropertyOp26
 70
     0
102
RTVSPropertyOp27
 70
     0
102
RTVSPropertyOp28
 70
     1
102
RTVSPropertyOp29
 70
     1
102
RTVSPropertyOp30
 70
     1
102
RTVSPropertyOp31
 70
     1
102
RTVSPropertyOp32
 70
     1
102
RTVSPropertyOp33
 70
     1
102
RTVSPropertyOp34
 70
     1
102
RTVSPropertyOp35
 70
     1
102
RTVSPropertyOp36
 70
     1
102
RTVSPropertyOp37
 70
     0
102
RTVSPropertyOp38
 70
     0
102
RTVSPropertyOp39
 70
     0
102
RTVSPropertyOp40
 70
     0
102
RTVSPropertyOp41
 70
     0
102
RTVSPropertyOp42
 70
     0
102
RTVSPropertyOp43
 70
     0
102
RTVSPropertyOp44
 70
     0
102
RTVSPropertyOp45
 70
     1
102
RTVSPropertyOp46
 70
     0
102
RTVSPropertyOp47
 70
     0
102
RTVSPropertyOp48
 70
     0
102
RTVSPropertyOp49
 70
     1
102
RTVSPropertyOp50
 70
     0
102
RTVSPropertyOp51
 70
     0
102
RTVSPropertyOp52
 70
     0
102
RTVSPropertyOp53
 70
     0
102
RTVSPropertyOp54
 70
     0
102
RTVSPropertyOp55
 70
     1
102
RTVSPropertyOp56
 70
     0
102
RTVSPropertyOp57
 70
     0
102
RTVSPropertyOp58
 70
     0
102
RTVSPropertyOp59
 70
     0
102
RTVSPropertyOp60
 70
     0
102
RTVSPropertyOp61
 70
     0
102
RTVSPropertyOp62
 70
     0
  0
XRECORD
  5
9F24
102
{ACAD_REACTORS
330
9F23
102
}
330
9F23
100
AcDbXrecord
280
     1
102
RTVSPost2010Prop28
280
     0
102
RTVSPost2010PropOp28
 70
     1
102
RTVSPost2010Prop29
280
     1
102
RTVSPost2010PropOp29
 70
     1
102
RTVSPost2010Prop30
280
     1
102
RTVSPost2010PropOp30
 70
     1
102
RTVSPost2010Prop31
280
     0
102
RTVSPost2010PropOp31
 70
     1
102
RTVSPost2010Prop32
280
     0
102
RTVSPost2010PropOp32
 70
     1
102
RTVSPost2010Prop33
280
     0
102
RTVSPost2010PropOp33
 70
     1
102
RTVSPost2010Prop34
280
     0
102
RTVSPost2010PropOp34
 70
     1
102
RTVSPost2010Prop35
280
     0
102
RTVSPost2010PropOp35
 70
     1
102
RTVSPost2010Prop36
280
     0
102
RTVSPost2010PropOp36
 70
     1
102
RTVSPost2010Prop37
 90
       50
102
RTVSPost2010PropOp37
 70
     1
102
RTVSPost2010Prop38
140
0.0
102
RTVSPost2010PropOp38
 70
     1
102
RTVSPost2010Prop39
140
1.0
102
RTVSPost2010PropOp39
 70
     1
102
RTVSPost2010Prop40
 90
        0
102
RTVSPost2010PropOp40
 70
     1
102
RTVSPost2010Prop41ColorIndex
 90
       18
102
RTVSPost2010Prop41ColorRGB
 90
        0
102
RTVSPost2010PropOp41
 70
     1
102
RTVSPost2010Prop42
 90
       50
102
RTVSPost2010PropOp42
 70
     1
102
RTVSPost2010Prop43
 90
        3
102
RTVSPost2010PropOp43
 70
     1
102
RTVSPost2010Prop44ColorIndex
 90
        5
102
RTVSPost2010Prop44ColorRGB
 90
      255
102
RTVSPost2010PropOp44
 70
     1
102
RTVSPost2010Prop45
280
     0
102
RTVSPost2010PropOp45
 70
     1
102
RTVSPost2010Prop46
 90
       50
102
RTVSPost2010PropOp46
 70
     1
102
RTVSPost2010Prop47
 90
       50
102
RTVSPost2010PropOp47
 70
     1
102
RTVSPost2010Prop48
 90
       50
102
RTVSPost2010PropOp48
 70
     1
102
RTVSPost2010Prop49
280
     0
102
RTVSPost2010PropOp49
 70
     1
102
RTVSPost2010Prop50
 90
       50
102
RTVSPost2010PropOp50
 70
     1
102
RTVSPost2010Prop51ColorIndex
 90
      256
102
RTVSPost2010Prop51ColorRGB
 90
-16777216
102
RTVSPost2010PropOp51
 70
     0
102
RTVSPost2010Prop52
140
1.0
102
RTVSPost2010PropOp52
 70
     0
102
RTVSPost2010Prop53
 90
        2
102
RTVSPost2010PropOp53
 70
     1
102
RTVSPost2010Prop54
  1
strokes_ogs.tif
102
RTVSPost2010PropOp54
 70
     1
102
RTVSPost2010Prop55
280
     0
102
RTVSPost2010PropOp55
 70
     1
102
RTVSPost2010Prop56
140
1.0
102
RTVSPost2010PropOp56
 70
     1
102
RTVSPost2010Prop57
140
1.0
102
RTVSPost2010PropOp57
 70
     1
102
RTVSPropertyOp0
 70
     1
102
RTVSPropertyOp1
 70
     1
102
RTVSPropertyOp2
 70
     1
102
RTVSPropertyOp3
 70
     1
102
RTVSPropertyOp4
 70
     1
102
RTVSPropertyOp5
 70
     1
102
RTVSPropertyOp6
 70
     1
102
RTVSPropertyOp7
 70
     1
102
RTVSPropertyOp8
 70
     1
102
RTVSPropertyOp9
 70
     1
102
RTVSPropertyOp10
 70
     1
102
RTVSPropertyOp11
 70
     1
102
RTVSPropertyOp12
 70
     1
102
RTVSPropertyOp13
 70
     1
102
RTVSPropertyOp14
 70
     1
102
RTVSPropertyOp15
 70
     1
102
RTVSPropertyOp16
 70
     1
102
RTVSPropertyOp17
 70
     1
102
RTVSPropertyOp18
 70
     1
102
RTVSPropertyOp19
 70
     1
102
RTVSPropertyOp20
 70
     1
102
RTVSPropertyOp21
 70
     1
102
RTVSPropertyOp22
 70
     1
102
RTVSPropertyOp23
 70
     1
102
RTVSPropertyOp24
 70
     1
102
RTVSPropertyOp25
 70
     1
102
RTVSPropertyOp26
 70
     1
102
RTVSPropertyOp27
 70
     1
102
RTVSPropertyOp28
 70
     1
102
RTVSPropertyOp29
 70
     1
102
RTVSPropertyOp30
 70
     1
102
RTVSPropertyOp31
 70
     1
102
RTVSPropertyOp32
 70
     1
102
RTVSPropertyOp33
 70
     1
102
RTVSPropertyOp34
 70
     1
102
RTVSPropertyOp35
 70
     1
102
RTVSPropertyOp36
 70
     1
102
RTVSPropertyOp37
 70
     1
102
RTVSPropertyOp38
 70
     1
102
RTVSPropertyOp39
 70
     1
102
RTVSPropertyOp40
 70
     1
102
RTVSPropertyOp41
 70
     1
102
RTVSPropertyOp42
 70
     1
102
RTVSPropertyOp43
 70
     1
102
RTVSPropertyOp44
 70
     1
102
RTVSPropertyOp45
 70
     1
102
RTVSPropertyOp46
 70
     1
102
RTVSPropertyOp47
 70
     1
102
RTVSPropertyOp48
 70
     1
102
RTVSPropertyOp49
 70
     1
102
RTVSPropertyOp50
 70
     1
102
RTVSPropertyOp51
 70
     0
102
RTVSPropertyOp52
 70
     0
102
RTVSPropertyOp53
 70
     1
102
RTVSPropertyOp54
 70
     1
102
RTVSPropertyOp55
 70
     1
102
RTVSPropertyOp56
 70
     1
102
RTVSPropertyOp57
 70
     1
102
RTVSPropertyOp58
 70
     1
102
RTVSPropertyOp59
 70
     1
102
RTVSPropertyOp60
 70
     1
102
RTVSPropertyOp61
 70
     1
102
RTVSPropertyOp62
 70
     1
  0
XRECORD
  5
9F3A
102
{ACAD_REACTORS
330
9F39
102
}
330
9F39
100
AcDbXrecord
280
     1
102
RTVSPost2010Prop28
280
     0
102
RTVSPost2010PropOp28
 70
     1
102
RTVSPost2010Prop29
280
     1
102
RTVSPost2010PropOp29
 70
     1
102
RTVSPost2010Prop30
280
     1
102
RTVSPost2010PropOp30
 70
     1
102
RTVSPost2010Prop31
280
     0
102
RTVSPost2010PropOp31
 70
     1
102
RTVSPost2010Prop32
280
     0
102
RTVSPost2010PropOp32
 70
     1
102
RTVSPost2010Prop33
280
     0
102
RTVSPost2010PropOp33
 70
     1
102
RTVSPost2010Prop34
280
     0
102
RTVSPost2010PropOp34
 70
     1
102
RTVSPost2010Prop35
280
     0
102
RTVSPost2010PropOp35
 70
     1
102
RTVSPost2010Prop36
280
     0
102
RTVSPost2010PropOp36
 70
     1
102
RTVSPost2010Prop37
 90
       50
102
RTVSPost2010PropOp37
 70
     1
102
RTVSPost2010Prop38
140
0.0
102
RTVSPost2010PropOp38
 70
     1
102
RTVSPost2010Prop39
140
1.0
102
RTVSPost2010PropOp39
 70
     1
102
RTVSPost2010Prop40
 90
        0
102
RTVSPost2010PropOp40
 70
     1
102
RTVSPost2010Prop41ColorIndex
 90
       18
102
RTVSPost2010Prop41ColorRGB
 90
        0
102
RTVSPost2010PropOp41
 70
     1
102
RTVSPost2010Prop42
 90
       50
102
RTVSPost2010PropOp42
 70
     1
102
RTVSPost2010Prop43
 90
        3
102
RTVSPost2010PropOp43
 70
     1
102
RTVSPost2010Prop44ColorIndex
 90
        5
102
RTVSPost2010Prop44ColorRGB
 90
      255
102
RTVSPost2010PropOp44
 70
     1
102
RTVSPost2010Prop45
280
     0
102
RTVSPost2010PropOp45
 70
     1
102
RTVSPost2010Prop46
 90
       50
102
RTVSPost2010PropOp46
 70
     1
102
RTVSPost2010Prop47
 90
       50
102
RTVSPost2010PropOp47
 70
     1
102
RTVSPost2010Prop48
 90
       50
102
RTVSPost2010PropOp48
 70
     1
102
RTVSPost2010Prop49
280
     0
102
RTVSPost2010PropOp49
 70
     1
102
RTVSPost2010Prop50
 90
       50
102
RTVSPost2010PropOp50
 70
     1
102
RTVSPost2010Prop51ColorIndex
 90
      256
102
RTVSPost2010Prop51ColorRGB
 90
-16777216
102
RTVSPost2010PropOp51
 70
     0
102
RTVSPost2010Prop52
140
1.0
102
RTVSPost2010PropOp52
 70
     0
102
RTVSPost2010Prop53
 90
        2
102
RTVSPost2010PropOp53
 70
     1
102
RTVSPost2010Prop54
  1
strokes_ogs.tif
102
RTVSPost2010PropOp54
 70
     1
102
RTVSPost2010Prop55
280
     0
102
RTVSPost2010PropOp55
 70
     1
102
RTVSPost2010Prop56
140
1.0
102
RTVSPost2010PropOp56
 70
     1
102
RTVSPost2010Prop57
140
1.0
102
RTVSPost2010PropOp57
 70
     1
102
RTVSPropertyOp0
 70
     1
102
RTVSPropertyOp1
 70
     1
102
RTVSPropertyOp2
 70
     1
102
RTVSPropertyOp3
 70
     1
102
RTVSPropertyOp4
 70
     1
102
RTVSPropertyOp5
 70
     1
102
RTVSPropertyOp6
 70
     1
102
RTVSPropertyOp7
 70
     1
102
RTVSPropertyOp8
 70
     1
102
RTVSPropertyOp9
 70
     1
102
RTVSPropertyOp10
 70
     1
102
RTVSPropertyOp11
 70
     1
102
RTVSPropertyOp12
 70
     1
102
RTVSPropertyOp13
 70
     1
102
RTVSPropertyOp14
 70
     1
102
RTVSPropertyOp15
 70
     1
102
RTVSPropertyOp16
 70
     1
102
RTVSPropertyOp17
 70
     1
102
RTVSPropertyOp18
 70
     1
102
RTVSPropertyOp19
 70
     1
102
RTVSPropertyOp20
 70
     1
102
RTVSPropertyOp21
 70
     1
102
RTVSPropertyOp22
 70
     1
102
RTVSPropertyOp23
 70
     1
102
RTVSPropertyOp24
 70
     1
102
RTVSPropertyOp25
 70
     1
102
RTVSPropertyOp26
 70
     1
102
RTVSPropertyOp27
 70
     1
102
RTVSPropertyOp28
 70
     1
102
RTVSPropertyOp29
 70
     1
102
RTVSPropertyOp30
 70
     1
102
RTVSPropertyOp31
 70
     1
102
RTVSPropertyOp32
 70
     1
102
RTVSPropertyOp33
 70
     1
102
RTVSPropertyOp34
 70
     1
102
RTVSPropertyOp35
 70
     1
102
RTVSPropertyOp36
 70
     1
102
RTVSPropertyOp37
 70
     1
102
RTVSPropertyOp38
 70
     1
102
RTVSPropertyOp39
 70
     1
102
RTVSPropertyOp40
 70
     1
102
RTVSPropertyOp41
 70
     1
102
RTVSPropertyOp42
 70
     1
102
RTVSPropertyOp43
 70
     1
102
RTVSPropertyOp44
 70
     1
102
RTVSPropertyOp45
 70
     1
102
RTVSPropertyOp46
 70
     1
102
RTVSPropertyOp47
 70
     1
102
RTVSPropertyOp48
 70
     1
102
RTVSPropertyOp49
 70
     1
102
RTVSPropertyOp50
 70
     1
102
RTVSPropertyOp51
 70
     0
102
RTVSPropertyOp52
 70
     0
102
RTVSPropertyOp53
 70
     1
102
RTVSPropertyOp54
 70
     1
102
RTVSPropertyOp55
 70
     1
102
RTVSPropertyOp56
 70
     1
102
RTVSPropertyOp57
 70
     1
102
RTVSPropertyOp58
 70
     1
102
RTVSPropertyOp59
 70
     1
102
RTVSPropertyOp60
 70
     1
102
RTVSPropertyOp61
 70
     1
102
RTVSPropertyOp62
 70
     1
  0
XRECORD
  5
9F38
102
{ACAD_REACTORS
330
9F37
102
}
330
9F37
100
AcDbXrecord
280
     1
102
RTVSPost2010Prop28
280
     0
102
RTVSPost2010PropOp28
 70
     1
102
RTVSPost2010Prop29
280
     1
102
RTVSPost2010PropOp29
 70
     1
102
RTVSPost2010Prop30
280
     1
102
RTVSPost2010PropOp30
 70
     1
102
RTVSPost2010Prop31
280
     0
102
RTVSPost2010PropOp31
 70
     1
102
RTVSPost2010Prop32
280
     0
102
RTVSPost2010PropOp32
 70
     1
102
RTVSPost2010Prop33
280
     0
102
RTVSPost2010PropOp33
 70
     1
102
RTVSPost2010Prop34
280
     0
102
RTVSPost2010PropOp34
 70
     1
102
RTVSPost2010Prop35
280
     0
102
RTVSPost2010PropOp35
 70
     1
102
RTVSPost2010Prop36
280
     0
102
RTVSPost2010PropOp36
 70
     1
102
RTVSPost2010Prop37
 90
       50
102
RTVSPost2010PropOp37
 70
     1
102
RTVSPost2010Prop38
140
0.0
102
RTVSPost2010PropOp38
 70
     1
102
RTVSPost2010Prop39
140
1.0
102
RTVSPost2010PropOp39
 70
     1
102
RTVSPost2010Prop40
 90
        0
102
RTVSPost2010PropOp40
 70
     1
102
RTVSPost2010Prop41ColorIndex
 90
       18
102
RTVSPost2010Prop41ColorRGB
 90
        0
102
RTVSPost2010PropOp41
 70
     1
102
RTVSPost2010Prop42
 90
       50
102
RTVSPost2010PropOp42
 70
     1
102
RTVSPost2010Prop43
 90
        3
102
RTVSPost2010PropOp43
 70
     1
102
RTVSPost2010Prop44ColorIndex
 90
        5
102
RTVSPost2010Prop44ColorRGB
 90
      255
102
RTVSPost2010PropOp44
 70
     1
102
RTVSPost2010Prop45
280
     0
102
RTVSPost2010PropOp45
 70
     1
102
RTVSPost2010Prop46
 90
       50
102
RTVSPost2010PropOp46
 70
     1
102
RTVSPost2010Prop47
 90
       50
102
RTVSPost2010PropOp47
 70
     1
102
RTVSPost2010Prop48
 90
       50
102
RTVSPost2010PropOp48
 70
     1
102
RTVSPost2010Prop49
280
     0
102
RTVSPost2010PropOp49
 70
     1
102
RTVSPost2010Prop50
 90
       50
102
RTVSPost2010PropOp50
 70
     1
102
RTVSPost2010Prop51ColorIndex
 90
      256
102
RTVSPost2010Prop51ColorRGB
 90
-16777216
102
RTVSPost2010PropOp51
 70
     0
102
RTVSPost2010Prop52
140
1.0
102
RTVSPost2010PropOp52
 70
     0
102
RTVSPost2010Prop53
 90
        2
102
RTVSPost2010PropOp53
 70
     1
102
RTVSPost2010Prop54
  1
strokes_ogs.tif
102
RTVSPost2010PropOp54
 70
     1
102
RTVSPost2010Prop55
280
     0
102
RTVSPost2010PropOp55
 70
     1
102
RTVSPost2010Prop56
140
1.0
102
RTVSPost2010PropOp56
 70
     1
102
RTVSPost2010Prop57
140
1.0
102
RTVSPost2010PropOp57
 70
     1
102
RTVSPropertyOp0
 70
     1
102
RTVSPropertyOp1
 70
     1
102
RTVSPropertyOp2
 70
     1
102
RTVSPropertyOp3
 70
     1
102
RTVSPropertyOp4
 70
     1
102
RTVSPropertyOp5
 70
     1
102
RTVSPropertyOp6
 70
     1
102
RTVSPropertyOp7
 70
     1
102
RTVSPropertyOp8
 70
     1
102
RTVSPropertyOp9
 70
     1
102
RTVSPropertyOp10
 70
     1
102
RTVSPropertyOp11
 70
     1
102
RTVSPropertyOp12
 70
     1
102
RTVSPropertyOp13
 70
     1
102
RTVSPropertyOp14
 70
     1
102
RTVSPropertyOp15
 70
     1
102
RTVSPropertyOp16
 70
     1
102
RTVSPropertyOp17
 70
     1
102
RTVSPropertyOp18
 70
     1
102
RTVSPropertyOp19
 70
     1
102
RTVSPropertyOp20
 70
     1
102
RTVSPropertyOp21
 70
     1
102
RTVSPropertyOp22
 70
     1
102
RTVSPropertyOp23
 70
     1
102
RTVSPropertyOp24
 70
     1
102
RTVSPropertyOp25
 70
     1
102
RTVSPropertyOp26
 70
     1
102
RTVSPropertyOp27
 70
     1
102
RTVSPropertyOp28
 70
     1
102
RTVSPropertyOp29
 70
     1
102
RTVSPropertyOp30
 70
     1
102
RTVSPropertyOp31
 70
     1
102
RTVSPropertyOp32
 70
     1
102
RTVSPropertyOp33
 70
     1
102
RTVSPropertyOp34
 70
     1
102
RTVSPropertyOp35
 70
     1
102
RTVSPropertyOp36
 70
     1
102
RTVSPropertyOp37
 70
     1
102
RTVSPropertyOp38
 70
     1
102
RTVSPropertyOp39
 70
     1
102
RTVSPropertyOp40
 70
     1
102
RTVSPropertyOp41
 70
     1
102
RTVSPropertyOp42
 70
     1
102
RTVSPropertyOp43
 70
     1
102
RTVSPropertyOp44
 70
     1
102
RTVSPropertyOp45
 70
     1
102
RTVSPropertyOp46
 70
     1
102
RTVSPropertyOp47
 70
     1
102
RTVSPropertyOp48
 70
     1
102
RTVSPropertyOp49
 70
     1
102
RTVSPropertyOp50
 70
     1
102
RTVSPropertyOp51
 70
     0
102
RTVSPropertyOp52
 70
     0
102
RTVSPropertyOp53
 70
     1
102
RTVSPropertyOp54
 70
     1
102
RTVSPropertyOp55
 70
     1
102
RTVSPropertyOp56
 70
     1
102
RTVSPropertyOp57
 70
     1
102
RTVSPropertyOp58
 70
     1
102
RTVSPropertyOp59
 70
     1
102
RTVSPropertyOp60
 70
     1
102
RTVSPropertyOp61
 70
     1
102
RTVSPropertyOp62
 70
     1
  0
XRECORD
  5
9F32
102
{ACAD_REACTORS
330
9F31
102
}
330
9F31
100
AcDbXrecord
280
     1
102
RTVSPost2010Prop28
280
     0
102
RTVSPost2010PropOp28
 70
     1
102
RTVSPost2010Prop29
280
     1
102
RTVSPost2010PropOp29
 70
     1
102
RTVSPost2010Prop30
280
     1
102
RTVSPost2010PropOp30
 70
     1
102
RTVSPost2010Prop31
280
     0
102
RTVSPost2010PropOp31
 70
     1
102
RTVSPost2010Prop32
280
     0
102
RTVSPost2010PropOp32
 70
     1
102
RTVSPost2010Prop33
280
     0
102
RTVSPost2010PropOp33
 70
     1
102
RTVSPost2010Prop34
280
     0
102
RTVSPost2010PropOp34
 70
     1
102
RTVSPost2010Prop35
280
     0
102
RTVSPost2010PropOp35
 70
     1
102
RTVSPost2010Prop36
280
     0
102
RTVSPost2010PropOp36
 70
     1
102
RTVSPost2010Prop37
 90
       50
102
RTVSPost2010PropOp37
 70
     1
102
RTVSPost2010Prop38
140
0.0
102
RTVSPost2010PropOp38
 70
     1
102
RTVSPost2010Prop39
140
1.0
102
RTVSPost2010PropOp39
 70
     1
102
RTVSPost2010Prop40
 90
        0
102
RTVSPost2010PropOp40
 70
     1
102
RTVSPost2010Prop41ColorIndex
 90
       18
102
RTVSPost2010Prop41ColorRGB
 90
        0
102
RTVSPost2010PropOp41
 70
     1
102
RTVSPost2010Prop42
 90
       50
102
RTVSPost2010PropOp42
 70
     1
102
RTVSPost2010Prop43
 90
        3
102
RTVSPost2010PropOp43
 70
     1
102
RTVSPost2010Prop44ColorIndex
 90
        5
102
RTVSPost2010Prop44ColorRGB
 90
      255
102
RTVSPost2010PropOp44
 70
     1
102
RTVSPost2010Prop45
280
     0
102
RTVSPost2010PropOp45
 70
     1
102
RTVSPost2010Prop46
 90
       50
102
RTVSPost2010PropOp46
 70
     1
102
RTVSPost2010Prop47
 90
       50
102
RTVSPost2010PropOp47
 70
     1
102
RTVSPost2010Prop48
 90
       50
102
RTVSPost2010PropOp48
 70
     1
102
RTVSPost2010Prop49
280
     0
102
RTVSPost2010PropOp49
 70
     1
102
RTVSPost2010Prop50
 90
       50
102
RTVSPost2010PropOp50
 70
     1
102
RTVSPost2010Prop51ColorIndex
 90
      256
102
RTVSPost2010Prop51ColorRGB
 90
-16777216
102
RTVSPost2010PropOp51
 70
     0
102
RTVSPost2010Prop52
140
1.0
102
RTVSPost2010PropOp52
 70
     0
102
RTVSPost2010Prop53
 90
        2
102
RTVSPost2010PropOp53
 70
     1
102
RTVSPost2010Prop54
  1
strokes_ogs.tif
102
RTVSPost2010PropOp54
 70
     1
102
RTVSPost2010Prop55
280
     0
102
RTVSPost2010PropOp55
 70
     1
102
RTVSPost2010Prop56
140
1.0
102
RTVSPost2010PropOp56
 70
     1
102
RTVSPost2010Prop57
140
1.0
102
RTVSPost2010PropOp57
 70
     1
102
RTVSPropertyOp0
 70
     1
102
RTVSPropertyOp1
 70
     1
102
RTVSPropertyOp2
 70
     1
102
RTVSPropertyOp3
 70
     1
102
RTVSPropertyOp4
 70
     1
102
RTVSPropertyOp5
 70
     1
102
RTVSPropertyOp6
 70
     1
102
RTVSPropertyOp7
 70
     1
102
RTVSPropertyOp8
 70
     1
102
RTVSPropertyOp9
 70
     1
102
RTVSPropertyOp10
 70
     1
102
RTVSPropertyOp11
 70
     1
102
RTVSPropertyOp12
 70
     1
102
RTVSPropertyOp13
 70
     1
102
RTVSPropertyOp14
 70
     1
102
RTVSPropertyOp15
 70
     1
102
RTVSPropertyOp16
 70
     1
102
RTVSPropertyOp17
 70
     1
102
RTVSPropertyOp18
 70
     1
102
RTVSPropertyOp19
 70
     1
102
RTVSPropertyOp20
 70
     1
102
RTVSPropertyOp21
 70
     1
102
RTVSPropertyOp22
 70
     1
102
RTVSPropertyOp23
 70
     1
102
RTVSPropertyOp24
 70
     1
102
RTVSPropertyOp25
 70
     1
102
RTVSPropertyOp26
 70
     1
102
RTVSPropertyOp27
 70
     1
102
RTVSPropertyOp28
 70
     1
102
RTVSPropertyOp29
 70
     1
102
RTVSPropertyOp30
 70
     1
102
RTVSPropertyOp31
 70
     1
102
RTVSPropertyOp32
 70
     1
102
RTVSPropertyOp33
 70
     1
102
RTVSPropertyOp34
 70
     1
102
RTVSPropertyOp35
 70
     1
102
RTVSPropertyOp36
 70
     1
102
RTVSPropertyOp37
 70
     1
102
RTVSPropertyOp38
 70
     1
102
RTVSPropertyOp39
 70
     1
102
RTVSPropertyOp40
 70
     1
102
RTVSPropertyOp41
 70
     1
102
RTVSPropertyOp42
 70
     1
102
RTVSPropertyOp43
 70
     1
102
RTVSPropertyOp44
 70
     1
102
RTVSPropertyOp45
 70
     1
102
RTVSPropertyOp46
 70
     1
102
RTVSPropertyOp47
 70
     1
102
RTVSPropertyOp48
 70
     1
102
RTVSPropertyOp49
 70
     1
102
RTVSPropertyOp50
 70
     1
102
RTVSPropertyOp51
 70
     0
102
RTVSPropertyOp52
 70
     0
102
RTVSPropertyOp53
 70
     1
102
RTVSPropertyOp54
 70
     1
102
RTVSPropertyOp55
 70
     1
102
RTVSPropertyOp56
 70
     1
102
RTVSPropertyOp57
 70
     1
102
RTVSPropertyOp58
 70
     1
102
RTVSPropertyOp59
 70
     1
102
RTVSPropertyOp60
 70
     1
102
RTVSPropertyOp61
 70
     1
102
RTVSPropertyOp62
 70
     1
  0
XRECORD
  5
9F34
102
{ACAD_REACTORS
330
9F33
102
}
330
9F33
100
AcDbXrecord
280
     1
102
RTVSPost2010Prop28
280
     0
102
RTVSPost2010PropOp28
 70
     1
102
RTVSPost2010Prop29
280
     1
102
RTVSPost2010PropOp29
 70
     1
102
RTVSPost2010Prop30
280
     1
102
RTVSPost2010PropOp30
 70
     1
102
RTVSPost2010Prop31
280
     0
102
RTVSPost2010PropOp31
 70
     1
102
RTVSPost2010Prop32
280
     0
102
RTVSPost2010PropOp32
 70
     1
102
RTVSPost2010Prop33
280
     0
102
RTVSPost2010PropOp33
 70
     1
102
RTVSPost2010Prop34
280
     0
102
RTVSPost2010PropOp34
 70
     1
102
RTVSPost2010Prop35
280
     0
102
RTVSPost2010PropOp35
 70
     1
102
RTVSPost2010Prop36
280
     0
102
RTVSPost2010PropOp36
 70
     1
102
RTVSPost2010Prop37
 90
       50
102
RTVSPost2010PropOp37
 70
     1
102
RTVSPost2010Prop38
140
0.0
102
RTVSPost2010PropOp38
 70
     1
102
RTVSPost2010Prop39
140
1.0
102
RTVSPost2010PropOp39
 70
     1
102
RTVSPost2010Prop40
 90
        0
102
RTVSPost2010PropOp40
 70
     1
102
RTVSPost2010Prop41ColorIndex
 90
       18
102
RTVSPost2010Prop41ColorRGB
 90
        0
102
RTVSPost2010PropOp41
 70
     1
102
RTVSPost2010Prop42
 90
       50
102
RTVSPost2010PropOp42
 70
     1
102
RTVSPost2010Prop43
 90
        3
102
RTVSPost2010PropOp43
 70
     1
102
RTVSPost2010Prop44ColorIndex
 90
        5
102
RTVSPost2010Prop44ColorRGB
 90
      255
102
RTVSPost2010PropOp44
 70
     1
102
RTVSPost2010Prop45
280
     0
102
RTVSPost2010PropOp45
 70
     1
102
RTVSPost2010Prop46
 90
       50
102
RTVSPost2010PropOp46
 70
     1
102
RTVSPost2010Prop47
 90
       50
102
RTVSPost2010PropOp47
 70
     1
102
RTVSPost2010Prop48
 90
       50
102
RTVSPost2010PropOp48
 70
     1
102
RTVSPost2010Prop49
280
     0
102
RTVSPost2010PropOp49
 70
     1
102
RTVSPost2010Prop50
 90
       50
102
RTVSPost2010PropOp50
 70
     1
102
RTVSPost2010Prop51ColorIndex
 90
      256
102
RTVSPost2010Prop51ColorRGB
 90
-16777216
102
RTVSPost2010PropOp51
 70
     0
102
RTVSPost2010Prop52
140
1.0
102
RTVSPost2010PropOp52
 70
     0
102
RTVSPost2010Prop53
 90
        2
102
RTVSPost2010PropOp53
 70
     1
102
RTVSPost2010Prop54
  1
strokes_ogs.tif
102
RTVSPost2010PropOp54
 70
     1
102
RTVSPost2010Prop55
280
     0
102
RTVSPost2010PropOp55
 70
     1
102
RTVSPost2010Prop56
140
1.0
102
RTVSPost2010PropOp56
 70
     1
102
RTVSPost2010Prop57
140
1.0
102
RTVSPost2010PropOp57
 70
     1
102
RTVSPropertyOp0
 70
     1
102
RTVSPropertyOp1
 70
     1
102
RTVSPropertyOp2
 70
     1
102
RTVSPropertyOp3
 70
     1
102
RTVSPropertyOp4
 70
     1
102
RTVSPropertyOp5
 70
     1
102
RTVSPropertyOp6
 70
     1
102
RTVSPropertyOp7
 70
     1
102
RTVSPropertyOp8
 70
     1
102
RTVSPropertyOp9
 70
     1
102
RTVSPropertyOp10
 70
     1
102
RTVSPropertyOp11
 70
     1
102
RTVSPropertyOp12
 70
     1
102
RTVSPropertyOp13
 70
     1
102
RTVSPropertyOp14
 70
     1
102
RTVSPropertyOp15
 70
     1
102
RTVSPropertyOp16
 70
     1
102
RTVSPropertyOp17
 70
     1
102
RTVSPropertyOp18
 70
     1
102
RTVSPropertyOp19
 70
     1
102
RTVSPropertyOp20
 70
     1
102
RTVSPropertyOp21
 70
     1
102
RTVSPropertyOp22
 70
     1
102
RTVSPropertyOp23
 70
     1
102
RTVSPropertyOp24
 70
     1
102
RTVSPropertyOp25
 70
     1
102
RTVSPropertyOp26
 70
     1
102
RTVSPropertyOp27
 70
     1
102
RTVSPropertyOp28
 70
     1
102
RTVSPropertyOp29
 70
     1
102
RTVSPropertyOp30
 70
     1
102
RTVSPropertyOp31
 70
     1
102
RTVSPropertyOp32
 70
     1
102
RTVSPropertyOp33
 70
     1
102
RTVSPropertyOp34
 70
     1
102
RTVSPropertyOp35
 70
     1
102
RTVSPropertyOp36
 70
     1
102
RTVSPropertyOp37
 70
     1
102
RTVSPropertyOp38
 70
     1
102
RTVSPropertyOp39
 70
     1
102
RTVSPropertyOp40
 70
     1
102
RTVSPropertyOp41
 70
     1
102
RTVSPropertyOp42
 70
     1
102
RTVSPropertyOp43
 70
     1
102
RTVSPropertyOp44
 70
     1
102
RTVSPropertyOp45
 70
     1
102
RTVSPropertyOp46
 70
     1
102
RTVSPropertyOp47
 70
     1
102
RTVSPropertyOp48
 70
     1
102
RTVSPropertyOp49
 70
     1
102
RTVSPropertyOp50
 70
     1
102
RTVSPropertyOp51
 70
     0
102
RTVSPropertyOp52
 70
     0
102
RTVSPropertyOp53
 70
     1
102
RTVSPropertyOp54
 70
     1
102
RTVSPropertyOp55
 70
     1
102
RTVSPropertyOp56
 70
     1
102
RTVSPropertyOp57
 70
     1
102
RTVSPropertyOp58
 70
     1
102
RTVSPropertyOp59
 70
     1
102
RTVSPropertyOp60
 70
     1
102
RTVSPropertyOp61
 70
     1
102
RTVSPropertyOp62
 70
     1
  0
XRECORD
  5
9F2A
102
{ACAD_REACTORS
330
9F29
102
}
330
9F29
100
AcDbXrecord
280
     1
102
RTVSPost2010Prop28
280
     0
102
RTVSPost2010PropOp28
 70
     1
102
RTVSPost2010Prop29
280
     1
102
RTVSPost2010PropOp29
 70
     1
102
RTVSPost2010Prop30
280
     1
102
RTVSPost2010PropOp30
 70
     1
102
RTVSPost2010Prop31
280
     0
102
RTVSPost2010PropOp31
 70
     1
102
RTVSPost2010Prop32
280
     0
102
RTVSPost2010PropOp32
 70
     1
102
RTVSPost2010Prop33
280
     0
102
RTVSPost2010PropOp33
 70
     1
102
RTVSPost2010Prop34
280
     0
102
RTVSPost2010PropOp34
 70
     1
102
RTVSPost2010Prop35
280
     0
102
RTVSPost2010PropOp35
 70
     1
102
RTVSPost2010Prop36
280
     0
102
RTVSPost2010PropOp36
 70
     1
102
RTVSPost2010Prop37
 90
       50
102
RTVSPost2010PropOp37
 70
     1
102
RTVSPost2010Prop38
140
0.0
102
RTVSPost2010PropOp38
 70
     1
102
RTVSPost2010Prop39
140
1.0
102
RTVSPost2010PropOp39
 70
     1
102
RTVSPost2010Prop40
 90
        0
102
RTVSPost2010PropOp40
 70
     1
102
RTVSPost2010Prop41ColorIndex
 90
       18
102
RTVSPost2010Prop41ColorRGB
 90
        0
102
RTVSPost2010PropOp41
 70
     1
102
RTVSPost2010Prop42
 90
       50
102
RTVSPost2010PropOp42
 70
     1
102
RTVSPost2010Prop43
 90
        3
102
RTVSPost2010PropOp43
 70
     1
102
RTVSPost2010Prop44ColorIndex
 90
        5
102
RTVSPost2010Prop44ColorRGB
 90
      255
102
RTVSPost2010PropOp44
 70
     1
102
RTVSPost2010Prop45
280
     0
102
RTVSPost2010PropOp45
 70
     1
102
RTVSPost2010Prop46
 90
       50
102
RTVSPost2010PropOp46
 70
     1
102
RTVSPost2010Prop47
 90
       50
102
RTVSPost2010PropOp47
 70
     1
102
RTVSPost2010Prop48
 90
       50
102
RTVSPost2010PropOp48
 70
     1
102
RTVSPost2010Prop49
280
     0
102
RTVSPost2010PropOp49
 70
     1
102
RTVSPost2010Prop50
 90
       50
102
RTVSPost2010PropOp50
 70
     1
102
RTVSPost2010Prop51ColorIndex
 90
      256
102
RTVSPost2010Prop51ColorRGB
 90
-16777216
102
RTVSPost2010PropOp51
 70
     0
102
RTVSPost2010Prop52
140
1.0
102
RTVSPost2010PropOp52
 70
     0
102
RTVSPost2010Prop53
 90
        2
102
RTVSPost2010PropOp53
 70
     1
102
RTVSPost2010Prop54
  1
strokes_ogs.tif
102
RTVSPost2010PropOp54
 70
     1
102
RTVSPost2010Prop55
280
     0
102
RTVSPost2010PropOp55
 70
     1
102
RTVSPost2010Prop56
140
1.0
102
RTVSPost2010PropOp56
 70
     1
102
RTVSPost2010Prop57
140
1.0
102
RTVSPost2010PropOp57
 70
     1
102
RTVSPropertyOp0
 70
     1
102
RTVSPropertyOp1
 70
     1
102
RTVSPropertyOp2
 70
     1
102
RTVSPropertyOp3
 70
     1
102
RTVSPropertyOp4
 70
     1
102
RTVSPropertyOp5
 70
     1
102
RTVSPropertyOp6
 70
     1
102
RTVSPropertyOp7
 70
     1
102
RTVSPropertyOp8
 70
     1
102
RTVSPropertyOp9
 70
     1
102
RTVSPropertyOp10
 70
     1
102
RTVSPropertyOp11
 70
     1
102
RTVSPropertyOp12
 70
     1
102
RTVSPropertyOp13
 70
     1
102
RTVSPropertyOp14
 70
     1
102
RTVSPropertyOp15
 70
     1
102
RTVSPropertyOp16
 70
     1
102
RTVSPropertyOp17
 70
     1
102
RTVSPropertyOp18
 70
     1
102
RTVSPropertyOp19
 70
     1
102
RTVSPropertyOp20
 70
     1
102
RTVSPropertyOp21
 70
     1
102
RTVSPropertyOp22
 70
     1
102
RTVSPropertyOp23
 70
     1
102
RTVSPropertyOp24
 70
     1
102
RTVSPropertyOp25
 70
     1
102
RTVSPropertyOp26
 70
     1
102
RTVSPropertyOp27
 70
     1
102
RTVSPropertyOp28
 70
     1
102
RTVSPropertyOp29
 70
     1
102
RTVSPropertyOp30
 70
     1
102
RTVSPropertyOp31
 70
     1
102
RTVSPropertyOp32
 70
     1
102
RTVSPropertyOp33
 70
     1
102
RTVSPropertyOp34
 70
     1
102
RTVSPropertyOp35
 70
     1
102
RTVSPropertyOp36
 70
     1
102
RTVSPropertyOp37
 70
     1
102
RTVSPropertyOp38
 70
     1
102
RTVSPropertyOp39
 70
     1
102
RTVSPropertyOp40
 70
     1
102
RTVSPropertyOp41
 70
     1
102
RTVSPropertyOp42
 70
     1
102
RTVSPropertyOp43
 70
     1
102
RTVSPropertyOp44
 70
     1
102
RTVSPropertyOp45
 70
     1
102
RTVSPropertyOp46
 70
     1
102
RTVSPropertyOp47
 70
     1
102
RTVSPropertyOp48
 70
     1
102
RTVSPropertyOp49
 70
     1
102
RTVSPropertyOp50
 70
     1
102
RTVSPropertyOp51
 70
     0
102
RTVSPropertyOp52
 70
     0
102
RTVSPropertyOp53
 70
     1
102
RTVSPropertyOp54
 70
     1
102
RTVSPropertyOp55
 70
     1
102
RTVSPropertyOp56
 70
     1
102
RTVSPropertyOp57
 70
     1
102
RTVSPropertyOp58
 70
     1
102
RTVSPropertyOp59
 70
     1
102
RTVSPropertyOp60
 70
     1
102
RTVSPropertyOp61
 70
     1
102
RTVSPropertyOp62
 70
     1
  0
XRECORD
  5
9F1E
102
{ACAD_REACTORS
330
9F1D
102
}
330
9F1D
100
AcDbXrecord
280
     1
102
RTVSPost2010Prop28
280
     0
102
RTVSPost2010PropOp28
 70
     1
102
RTVSPost2010Prop29
280
     1
102
RTVSPost2010PropOp29
 70
     1
102
RTVSPost2010Prop30
280
     1
102
RTVSPost2010PropOp30
 70
     1
102
RTVSPost2010Prop31
280
     0
102
RTVSPost2010PropOp31
 70
     1
102
RTVSPost2010Prop32
280
     0
102
RTVSPost2010PropOp32
 70
     1
102
RTVSPost2010Prop33
280
     0
102
RTVSPost2010PropOp33
 70
     1
102
RTVSPost2010Prop34
280
     0
102
RTVSPost2010PropOp34
 70
     1
102
RTVSPost2010Prop35
280
     0
102
RTVSPost2010PropOp35
 70
     1
102
RTVSPost2010Prop36
280
     0
102
RTVSPost2010PropOp36
 70
     1
102
RTVSPost2010Prop37
 90
       50
102
RTVSPost2010PropOp37
 70
     1
102
RTVSPost2010Prop38
140
0.0
102
RTVSPost2010PropOp38
 70
     1
102
RTVSPost2010Prop39
140
1.0
102
RTVSPost2010PropOp39
 70
     1
102
RTVSPost2010Prop40
 90
        0
102
RTVSPost2010PropOp40
 70
     1
102
RTVSPost2010Prop41ColorIndex
 90
       18
102
RTVSPost2010Prop41ColorRGB
 90
        0
102
RTVSPost2010PropOp41
 70
     1
102
RTVSPost2010Prop42
 90
       50
102
RTVSPost2010PropOp42
 70
     1
102
RTVSPost2010Prop43
 90
        3
102
RTVSPost2010PropOp43
 70
     1
102
RTVSPost2010Prop44ColorIndex
 90
        5
102
RTVSPost2010Prop44ColorRGB
 90
      255
102
RTVSPost2010PropOp44
 70
     1
102
RTVSPost2010Prop45
280
     0
102
RTVSPost2010PropOp45
 70
     1
102
RTVSPost2010Prop46
 90
       50
102
RTVSPost2010PropOp46
 70
     1
102
RTVSPost2010Prop47
 90
       50
102
RTVSPost2010PropOp47
 70
     1
102
RTVSPost2010Prop48
 90
       50
102
RTVSPost2010PropOp48
 70
     1
102
RTVSPost2010Prop49
280
     0
102
RTVSPost2010PropOp49
 70
     1
102
RTVSPost2010Prop50
 90
       50
102
RTVSPost2010PropOp50
 70
     1
102
RTVSPost2010Prop51ColorIndex
 90
      256
102
RTVSPost2010Prop51ColorRGB
 90
-16777216
102
RTVSPost2010PropOp51
 70
     0
102
RTVSPost2010Prop52
140
1.0
102
RTVSPost2010PropOp52
 70
     0
102
RTVSPost2010Prop53
 90
        2
102
RTVSPost2010PropOp53
 70
     1
102
RTVSPost2010Prop54
  1
strokes_ogs.tif
102
RTVSPost2010PropOp54
 70
     1
102
RTVSPost2010Prop55
280
     0
102
RTVSPost2010PropOp55
 70
     1
102
RTVSPost2010Prop56
140
1.0
102
RTVSPost2010PropOp56
 70
     1
102
RTVSPost2010Prop57
140
1.0
102
RTVSPost2010PropOp57
 70
     1
102
RTVSPropertyOp0
 70
     1
102
RTVSPropertyOp1
 70
     1
102
RTVSPropertyOp2
 70
     1
102
RTVSPropertyOp3
 70
     1
102
RTVSPropertyOp4
 70
     1
102
RTVSPropertyOp5
 70
     1
102
RTVSPropertyOp6
 70
     1
102
RTVSPropertyOp7
 70
     1
102
RTVSPropertyOp8
 70
     1
102
RTVSPropertyOp9
 70
     1
102
RTVSPropertyOp10
 70
     1
102
RTVSPropertyOp11
 70
     1
102
RTVSPropertyOp12
 70
     1
102
RTVSPropertyOp13
 70
     1
102
RTVSPropertyOp14
 70
     1
102
RTVSPropertyOp15
 70
     1
102
RTVSPropertyOp16
 70
     1
102
RTVSPropertyOp17
 70
     1
102
RTVSPropertyOp18
 70
     1
102
RTVSPropertyOp19
 70
     1
102
RTVSPropertyOp20
 70
     1
102
RTVSPropertyOp21
 70
     1
102
RTVSPropertyOp22
 70
     1
102
RTVSPropertyOp23
 70
     1
102
RTVSPropertyOp24
 70
     1
102
RTVSPropertyOp25
 70
     1
102
RTVSPropertyOp26
 70
     1
102
RTVSPropertyOp27
 70
     1
102
RTVSPropertyOp28
 70
     1
102
RTVSPropertyOp29
 70
     1
102
RTVSPropertyOp30
 70
     1
102
RTVSPropertyOp31
 70
     1
102
RTVSPropertyOp32
 70
     1
102
RTVSPropertyOp33
 70
     1
102
RTVSPropertyOp34
 70
     1
102
RTVSPropertyOp35
 70
     1
102
RTVSPropertyOp36
 70
     1
102
RTVSPropertyOp37
 70
     1
102
RTVSPropertyOp38
 70
     1
102
RTVSPropertyOp39
 70
     1
102
RTVSPropertyOp40
 70
     1
102
RTVSPropertyOp41
 70
     1
102
RTVSPropertyOp42
 70
     1
102
RTVSPropertyOp43
 70
     1
102
RTVSPropertyOp44
 70
     1
102
RTVSPropertyOp45
 70
     1
102
RTVSPropertyOp46
 70
     1
102
RTVSPropertyOp47
 70
     1
102
RTVSPropertyOp48
 70
     1
102
RTVSPropertyOp49
 70
     1
102
RTVSPropertyOp50
 70
     1
102
RTVSPropertyOp51
 70
     0
102
RTVSPropertyOp52
 70
     0
102
RTVSPropertyOp53
 70
     1
102
RTVSPropertyOp54
 70
     1
102
RTVSPropertyOp55
 70
     1
102
RTVSPropertyOp56
 70
     1
102
RTVSPropertyOp57
 70
     1
102
RTVSPropertyOp58
 70
     1
102
RTVSPropertyOp59
 70
     1
102
RTVSPropertyOp60
 70
     1
102
RTVSPropertyOp61
 70
     1
102
RTVSPropertyOp62
 70
     1
  0
XRECORD
  5
9F36
102
{ACAD_REACTORS
330
9F35
102
}
330
9F35
100
AcDbXrecord
280
     1
102
RTVSPost2010Prop28
280
     0
102
RTVSPost2010PropOp28
 70
     1
102
RTVSPost2010Prop29
280
     1
102
RTVSPost2010PropOp29
 70
     1
102
RTVSPost2010Prop30
280
     1
102
RTVSPost2010PropOp30
 70
     1
102
RTVSPost2010Prop31
280
     0
102
RTVSPost2010PropOp31
 70
     1
102
RTVSPost2010Prop32
280
     0
102
RTVSPost2010PropOp32
 70
     1
102
RTVSPost2010Prop33
280
     0
102
RTVSPost2010PropOp33
 70
     1
102
RTVSPost2010Prop34
280
     0
102
RTVSPost2010PropOp34
 70
     1
102
RTVSPost2010Prop35
280
     0
102
RTVSPost2010PropOp35
 70
     1
102
RTVSPost2010Prop36
280
     0
102
RTVSPost2010PropOp36
 70
     1
102
RTVSPost2010Prop37
 90
       50
102
RTVSPost2010PropOp37
 70
     1
102
RTVSPost2010Prop38
140
0.0
102
RTVSPost2010PropOp38
 70
     1
102
RTVSPost2010Prop39
140
1.0
102
RTVSPost2010PropOp39
 70
     1
102
RTVSPost2010Prop40
 90
        0
102
RTVSPost2010PropOp40
 70
     1
102
RTVSPost2010Prop41ColorIndex
 90
       18
102
RTVSPost2010Prop41ColorRGB
 90
        0
102
RTVSPost2010PropOp41
 70
     1
102
RTVSPost2010Prop42
 90
       50
102
RTVSPost2010PropOp42
 70
     1
102
RTVSPost2010Prop43
 90
        3
102
RTVSPost2010PropOp43
 70
     1
102
RTVSPost2010Prop44ColorIndex
 90
        5
102
RTVSPost2010Prop44ColorRGB
 90
      255
102
RTVSPost2010PropOp44
 70
     1
102
RTVSPost2010Prop45
280
     0
102
RTVSPost2010PropOp45
 70
     1
102
RTVSPost2010Prop46
 90
       50
102
RTVSPost2010PropOp46
 70
     1
102
RTVSPost2010Prop47
 90
       50
102
RTVSPost2010PropOp47
 70
     1
102
RTVSPost2010Prop48
 90
       50
102
RTVSPost2010PropOp48
 70
     1
102
RTVSPost2010Prop49
280
     0
102
RTVSPost2010PropOp49
 70
     1
102
RTVSPost2010Prop50
 90
       50
102
RTVSPost2010PropOp50
 70
     1
102
RTVSPost2010Prop51ColorIndex
 90
      256
102
RTVSPost2010Prop51ColorRGB
 90
-16777216
102
RTVSPost2010PropOp51
 70
     0
102
RTVSPost2010Prop52
140
1.0
102
RTVSPost2010PropOp52
 70
     0
102
RTVSPost2010Prop53
 90
        2
102
RTVSPost2010PropOp53
 70
     1
102
RTVSPost2010Prop54
  1
strokes_ogs.tif
102
RTVSPost2010PropOp54
 70
     1
102
RTVSPost2010Prop55
280
     0
102
RTVSPost2010PropOp55
 70
     1
102
RTVSPost2010Prop56
140
1.0
102
RTVSPost2010PropOp56
 70
     1
102
RTVSPost2010Prop57
140
1.0
102
RTVSPost2010PropOp57
 70
     1
102
RTVSPropertyOp0
 70
     1
102
RTVSPropertyOp1
 70
     1
102
RTVSPropertyOp2
 70
     1
102
RTVSPropertyOp3
 70
     1
102
RTVSPropertyOp4
 70
     1
102
RTVSPropertyOp5
 70
     1
102
RTVSPropertyOp6
 70
     1
102
RTVSPropertyOp7
 70
     1
102
RTVSPropertyOp8
 70
     1
102
RTVSPropertyOp9
 70
     1
102
RTVSPropertyOp10
 70
     1
102
RTVSPropertyOp11
 70
     1
102
RTVSPropertyOp12
 70
     1
102
RTVSPropertyOp13
 70
     1
102
RTVSPropertyOp14
 70
     1
102
RTVSPropertyOp15
 70
     1
102
RTVSPropertyOp16
 70
     1
102
RTVSPropertyOp17
 70
     1
102
RTVSPropertyOp18
 70
     1
102
RTVSPropertyOp19
 70
     1
102
RTVSPropertyOp20
 70
     1
102
RTVSPropertyOp21
 70
     1
102
RTVSPropertyOp22
 70
     1
102
RTVSPropertyOp23
 70
     1
102
RTVSPropertyOp24
 70
     1
102
RTVSPropertyOp25
 70
     1
102
RTVSPropertyOp26
 70
     1
102
RTVSPropertyOp27
 70
     1
102
RTVSPropertyOp28
 70
     1
102
RTVSPropertyOp29
 70
     1
102
RTVSPropertyOp30
 70
     1
102
RTVSPropertyOp31
 70
     1
102
RTVSPropertyOp32
 70
     1
102
RTVSPropertyOp33
 70
     1
102
RTVSPropertyOp34
 70
     1
102
RTVSPropertyOp35
 70
     1
102
RTVSPropertyOp36
 70
     1
102
RTVSPropertyOp37
 70
     1
102
RTVSPropertyOp38
 70
     1
102
RTVSPropertyOp39
 70
     1
102
RTVSPropertyOp40
 70
     1
102
RTVSPropertyOp41
 70
     1
102
RTVSPropertyOp42
 70
     1
102
RTVSPropertyOp43
 70
     1
102
RTVSPropertyOp44
 70
     1
102
RTVSPropertyOp45
 70
     1
102
RTVSPropertyOp46
 70
     1
102
RTVSPropertyOp47
 70
     1
102
RTVSPropertyOp48
 70
     1
102
RTVSPropertyOp49
 70
     1
102
RTVSPropertyOp50
 70
     1
102
RTVSPropertyOp51
 70
     0
102
RTVSPropertyOp52
 70
     0
102
RTVSPropertyOp53
 70
     1
102
RTVSPropertyOp54
 70
     1
102
RTVSPropertyOp55
 70
     1
102
RTVSPropertyOp56
 70
     1
102
RTVSPropertyOp57
 70
     1
102
RTVSPropertyOp58
 70
     1
102
RTVSPropertyOp59
 70
     1
102
RTVSPropertyOp60
 70
     1
102
RTVSPropertyOp61
 70
     1
102
RTVSPropertyOp62
 70
     1
  0
ENDSEC
  0
EOF
