  0
SECTION
  2
HEADER
  9
$ACADVER
  1
AC1015
  9
$ACADMAINTVER
 70
    20
  9
$DWGCODEPAGE
  3
ANSI_932
  9
$INSBASE
 10
0.0
 20
0.0
 30
0.0
  9
$EXTMIN
 10
10.0
 20
9.999999999999998
 30
0.0
  9
$EXTMAX
 10
380.646202
 20
194.246327
 30
0.0
  9
$LIMMIN
 10
0.0
 20
0.0
  9
$LIMMAX
 10
396.0
 20
273.0
  9
$ORTHOMODE
 70
     1
  9
$REGENMODE
 70
     1
  9
$FILLMODE
 70
     1
  9
$QTEXTMODE
 70
     0
  9
$MIRRTEXT
 70
     1
  9
$LTSCALE
 40
20.0
  9
$ATTMODE
 70
     1
  9
$TEXTSIZE
 40
5.0
  9
$TRACEWID
 40
1.0
  9
$TEXTSTYLE
  7
STANDARD
  9
$CLAYER
  8
0
  9
$CELTYPE
  6
BYLAYER
  9
$CECOLOR
 62
   256
  9
$CELTSCALE
 40
1.0
  9
$DISPSILH
 70
     0
  9
$DIMSCALE
 40
1.0
  9
$DIMASZ
 40
3.0
  9
$DIMEXO
 40
1.0
  9
$DIMDLI
 40
10.0
  9
$DIMRND
 40
0.0
  9
$DIMDLE
 40
0.0
  9
$DIMEXE
 40
1.0
  9
$DIMTP
 40
0.0
  9
$DIMTM
 40
0.0
  9
$DIMTXT
 40
3.2
  9
$DIMCEN
 40
0.0
  9
$DIMTSZ
 40
0.0
  9
$DIMTOL
 70
     0
  9
$DIMLIM
 70
     0
  9
$DIMTIH
 70
     0
  9
$DIMTOH
 70
     0
  9
$DIMSE1
 70
     0
  9
$DIMSE2
 70
     0
  9
$DIMTAD
 70
     3
  9
$DIMZIN
 70
     8
  9
$DIMBLK
  1

  9
$DIMASO
 70
     1
  9
$DIMSHO
 70
     1
  9
$DIMPOST
  1

  9
$DIMAPOST
  1

  9
$DIMALT
 70
     0
  9
$DIMALTD
 70
     2
  9
$DIMALTF
 40
25.4
  9
$DIMLFAC
 40
1.0
  9
$DIMTOFL
 70
     1
  9
$DIMTVP
 40
0.0
  9
$DIMTIX
 70
     0
  9
$DIMSOXD
 70
     0
  9
$DIMSAH
 70
     1
  9
$DIMBLK1
  1

  9
$DIMBLK2
  1

  9
$DIMSTYLE
  2
STANDARD
  9
$DIMCLRD
 70
     0
  9
$DIMCLRE
 70
     0
  9
$DIMCLRT
 70
     0
  9
$DIMTFAC
 40
1.0
  9
$DIMGAP
 40
1.0
  9
$DIMJUST
 70
     0
  9
$DIMSD1
 70
     0
  9
$DIMSD2
 70
     0
  9
$DIMTOLJ
 70
     1
  9
$DIMTZIN
 70
     0
  9
$DIMALTZ
 70
     0
  9
$DIMALTTZ
 70
     0
  9
$DIMUPT
 70
     0
  9
$DIMDEC
 70
     4
  9
$DIMTDEC
 70
     4
  9
$DIMALTU
 70
     2
  9
$DIMALTTD
 70
     2
  9
$DIMTXSTY
  7
STANDARD
  9
$DIMAUNIT
 70
     0
  9
$DIMADEC
 70
     0
  9
$DIMALTRND
 40
0.0
  9
$DIMAZIN
 70
     0
  9
$DIMDSEP
 70
    46
  9
$DIMATFIT
 70
     3
  9
$DIMFRAC
 70
     0
  9
$DIMLDRBLK
  1

  9
$DIMLUNIT
 70
     2
  9
$DIMLWD
 70
    -2
  9
$DIMLWE
 70
    -2
  9
$DIMTMOVE
 70
     0
  9
$LUNITS
 70
     2
  9
$LUPREC
 70
     4
  9
$SKETCHINC
 40
1.0
  9
$FILLETRAD
 40
0.0
  9
$AUNITS
 70
     0
  9
$AUPREC
 70
     2
  9
$MENU
  1
.
  9
$ELEVATION
 40
0.0
  9
$PELEVATION
 40
0.0
  9
$THICKNESS
 40
0.0
  9
$LIMCHECK
 70
     0
  9
$CHAMFERA
 40
10.0
  9
$CHAMFERB
 40
10.0
  9
$CHAMFERC
 40
0.0
  9
$CHAMFERD
 40
0.0
  9
$SKPOLY
 70
     0
  9
$TDCREATE
 40
2450950.416127894
  9
$TDUCREATE
 40
2450950.041127894
  9
$TDUPDATE
 40
2457192.603774236
  9
$TDUUPDATE
 40
2457192.228774236
  9
$TDINDWG
 40
0.0000164699
  9
$TDUSRTIMER
 40
0.0000159606
  9
$USRTIMER
 70
     1
  9
$ANGBASE
 50
0.0
  9
$ANGDIR
 70
     0
  9
$PDMODE
 70
     0
  9
$PDSIZE
 40
0.0
  9
$PLINEWID
 40
0.0
  9
$SPLFRAME
 70
     0
  9
$SPLINETYPE
 70
     6
  9
$SPLINESEGS
 70
     8
  9
$HANDSEED
  5
A2DC
  9
$SURFTAB1
 70
     6
  9
$SURFTAB2
 70
     6
  9
$SURFTYPE
 70
     6
  9
$SURFU
 70
     6
  9
$SURFV
 70
     6
  9
$UCSBASE
  2

  9
$UCSNAME
  2

  9
$UCSORG
 10
0.0
 20
0.0
 30
0.0
  9
$UCSXDIR
 10
1.0
 20
0.0
 30
0.0
  9
$UCSYDIR
 10
0.0
 20
1.0
 30
0.0
  9
$UCSORTHOREF
  2

  9
$UCSORTHOVIEW
 70
     0
  9
$UCSORGTOP
 10
0.0
 20
0.0
 30
0.0
  9
$UCSORGBOTTOM
 10
0.0
 20
0.0
 30
0.0
  9
$UCSORGLEFT
 10
0.0
 20
0.0
 30
0.0
  9
$UCSORGRIGHT
 10
0.0
 20
0.0
 30
0.0
  9
$UCSORGFRONT
 10
0.0
 20
0.0
 30
0.0
  9
$UCSORGBACK
 10
0.0
 20
0.0
 30
0.0
  9
$PUCSBASE
  2

  9
$PUCSNAME
  2

  9
$PUCSORG
 10
0.0
 20
0.0
 30
0.0
  9
$PUCSXDIR
 10
1.0
 20
0.0
 30
0.0
  9
$PUCSYDIR
 10
0.0
 20
1.0
 30
0.0
  9
$PUCSORTHOREF
  2

  9
$PUCSORTHOVIEW
 70
     0
  9
$PUCSORGTOP
 10
0.0
 20
0.0
 30
0.0
  9
$PUCSORGBOTTOM
 10
0.0
 20
0.0
 30
0.0
  9
$PUCSORGLEFT
 10
0.0
 20
0.0
 30
0.0
  9
$PUCSORGRIGHT
 10
0.0
 20
0.0
 30
0.0
  9
$PUCSORGFRONT
 10
0.0
 20
0.0
 30
0.0
  9
$PUCSORGBACK
 10
0.0
 20
0.0
 30
0.0
  9
$USERI1
 70
     0
  9
$USERI2
 70
     0
  9
$USERI3
 70
     0
  9
$USERI4
 70
     0
  9
$USERI5
 70
     0
  9
$USERR1
 40
0.0
  9
$USERR2
 40
0.0
  9
$USERR3
 40
0.0
  9
$USERR4
 40
0.0
  9
$USERR5
 40
0.0
  9
$WORLDVIEW
 70
     1
  9
$SHADEDGE
 70
     3
  9
$SHADEDIF
 70
    70
  9
$TILEMODE
 70
     1
  9
$MAXACTVP
 70
    16
  9
$PINSBASE
 10
0.0
 20
0.0
 30
0.0
  9
$PLIMCHECK
 70
     0
  9
$PEXTMIN
 10
1.000000000000000E+20
 20
1.000000000000000E+20
 30
1.000000000000000E+20
  9
$PEXTMAX
 10
-1.000000000000000E+20
 20
-1.000000000000000E+20
 30
-1.000000000000000E+20
  9
$PLIMMIN
 10
0.0
 20
0.0
  9
$PLIMMAX
 10
420.0
 20
297.0
  9
$UNITMODE
 70
     0
  9
$VISRETAIN
 70
     0
  9
$PLINEGEN
 70
     0
  9
$PSLTSCALE
 70
     0
  9
$TREEDEPTH
 70
  3020
  9
$CMLSTYLE
  2
STANDARD
  9
$CMLJUST
 70
     0
  9
$CMLSCALE
 40
1.0
  9
$PROXYGRAPHICS
 70
     1
  9
$MEASUREMENT
 70
     0
  9
$CELWEIGHT
370
    -1
  9
$ENDCAPS
280
     0
  9
$JOINSTYLE
280
     0
  9
$LWDISPLAY
290
     0
  9
$INSUNITS
 70
     0
  9
$HYPERLINKBASE
  1

  9
$STYLESHEET
  1

  9
$XEDIT
290
     1
  9
$CEPSNTYPE
380
     0
  9
$PSTYLEMODE
290
     1
  9
$FINGERPRINTGUID
  2
{88908B1A-8C9C-4EB4-87EC-419B1E394590}
  9
$VERSIONGUID
  2
{AF0F91D7-F3E5-47BA-BBEE-78D05D2B1316}
  9
$EXTNAMES
290
     1
  9
$PSVPSCALE
 40
0.0
  9
$OLESTARTUP
290
     0
  0
ENDSEC
  0
SECTION
  2
CLASSES
  0
CLASS
  1
ACDBDICTIONARYWDFLT
  2
AcDbDictionaryWithDefault
  3
ObjectDBX Classes
 90
        0
280
     0
281
     0
  0
CLASS
  1
ACDBPLACEHOLDER
  2
AcDbPlaceHolder
  3
ObjectDBX Classes
 90
        0
280
     0
281
     0
  0
CLASS
  1
LAYOUT
  2
AcDbLayout
  3
ObjectDBX Classes
 90
        0
280
     0
281
     0
  0
CLASS
  1
DICTIONARYVAR
  2
AcDbDictionaryVar
  3
ObjectDBX Classes
 90
        0
280
     0
281
     0
  0
CLASS
  1
MATERIAL
  2
AcDbMaterial
  3
ObjectDBX Classes
 90
     1153
280
     0
281
     0
  0
CLASS
  1
VISUALSTYLE
  2
AcDbVisualStyle
  3
ObjectDBX Classes
 90
     4095
280
     0
281
     0
  0
CLASS
  1
TABLESTYLE
  2
AcDbTableStyle
  3
ObjectDBX Classes
 90
     4095
280
     0
281
     0
  0
CLASS
  1
SCALE
  2
AcDbScale
  3
ObjectDBX Classes
 90
     1153
280
     0
281
     0
  0
CLASS
  1
MLEADERSTYLE
  2
AcDbMLeaderStyle
  3
ACDB_MLEADERSTYLE_CLASS
 90
     4095
280
     0
281
     0
  0
CLASS
  1
ACDBSECTIONVIEWSTYLE
  2
AcDbSectionViewStyle
  3
ObjectDBX Classes
 90
     1025
280
     0
281
     0
  0
CLASS
  1
ACDBDETAILVIEWSTYLE
  2
AcDbDetailViewStyle
  3
ObjectDBX Classes
 90
     1025
280
     0
281
     0
  0
CLASS
  1
CELLSTYLEMAP
  2
AcDbCellStyleMap
  3
ObjectDBX Classes
 90
     1152
280
     0
281
     0
  0
ENDSEC
  0
SECTION
  2
TABLES
  0
TABLE
  2
VPORT
  5
9F62
330
0
100
AcDbSymbolTable
 70
     1
  0
VPORT
  5
A225
330
9F62
100
AcDbSymbolTableRecord
100
AcDbViewportTableRecord
  2
*ACTIVE
 70
     0
 10
0.0
 20
0.0
 11
1.0
 21
1.0
 12
259.1467500625994
 22
102.1229788060566
 13
0.0
 23
0.0
 14
10.0
 24
10.0
 15
10.0
 25
10.0
 16
0.0
 26
0.0
 36
1.0
 17
0.0
 27
0.0
 37
0.0
 40
213.0676363108652
 41
1.899603698811096
 42
50.0
 43
0.0
 44
0.0
 50
0.0
 51
0.0
 71
     0
 72
   100
 73
     1
 74
     0
 75
     0
 76
     0
 77
     0
 78
     0
281
     0
 65
     1
110
0.0
120
0.0
130
0.0
111
1.0
121
0.0
131
0.0
112
0.0
122
1.0
132
0.0
 79
     0
146
0.0
1001
ACAD_NAV_VCDISPLAY
1070
     3
  0
ENDTAB
  0
TABLE
  2
LTYPE
  5
9F5F
330
0
100
AcDbSymbolTable
 70
     4
  0
LTYPE
  5
9F6D
330
9F5F
100
AcDbSymbolTableRecord
100
AcDbLinetypeTableRecord
  2
BYBLOCK
 70
     0
  3

 72
    65
 73
     0
 40
0.0
  0
LTYPE
  5
9F6E
330
9F5F
100
AcDbSymbolTableRecord
100
AcDbLinetypeTableRecord
  2
BYLAYER
 70
     0
  3

 72
    65
 73
     0
 40
0.0
  0
LTYPE
  5
9F6F
330
9F5F
100
AcDbSymbolTableRecord
100
AcDbLinetypeTableRecord
  2
CONTINUOUS
 70
     0
  3
Solid line
 72
    65
 73
     0
 40
0.0
  0
LTYPE
  5
9F7D
330
9F5F
100
AcDbSymbolTableRecord
100
AcDbLinetypeTableRecord
  2
DASHED
 70
     0
  3
__ __ __ __ __ __ __ __ __ __ __ __ __ __ __ __
 72
    65
 73
     2
 40
0.75
 49
0.5
 74
     0
 49
-0.25
 74
     0
  0
LTYPE
  5
9F7E
330
9F5F
100
AcDbSymbolTableRecord
100
AcDbLinetypeTableRecord
  2
CENTER
 70
     0
  3
____ _ ____ _ ____ _ ____ _ ____ _ ____ _ ____ 
 72
    65
 73
     4
 40
2.0
 49
1.25
 74
     0
 49
-0.25
 74
     0
 49
0.25
 74
     0
 49
-0.25
 74
     0
  0
LTYPE
  5
9F7F
330
9F5F
100
AcDbSymbolTableRecord
100
AcDbLinetypeTableRecord
  2
PHANTOM
 70
     0
  3
______  __  __  ______  __  __  ______  __  __ 
 72
    65
 73
     6
 40
2.5
 49
1.25
 74
     0
 49
-0.25
 74
     0
 49
0.25
 74
     0
 49
-0.25
 74
     0
 49
0.25
 74
     0
 49
-0.25
 74
     0
  0
ENDTAB
  0
TABLE
  2
LAYER
  5
9F5C
330
0
100
AcDbSymbolTable
 70
     8
  0
LAYER
  5
9F6A
102
{ACAD_XDICTIONARY
360
A280
102
}
330
9F5C
100
AcDbSymbolTableRecord
100
AcDbLayerTableRecord
  2
0
 70
     0
 62
     7
  6
CONTINUOUS
370
    -3
390
A22E
  0
LAYER
  5
9F80
102
{ACAD_XDICTIONARY
360
A282
102
}
330
9F5C
100
AcDbSymbolTableRecord
100
AcDbLayerTableRecord
  2
4
 70
     0
 62
     1
  6
CENTER
370
    -3
390
A22E
  0
LAYER
  5
9F81
102
{ACAD_XDICTIONARY
360
A284
102
}
330
9F5C
100
AcDbSymbolTableRecord
100
AcDbLayerTableRecord
  2
5
 70
     0
 62
     6
  6
PHANTOM
370
    -3
390
A22E
  0
LAYER
  5
9F82
102
{ACAD_XDICTIONARY
360
A286
102
}
330
9F5C
100
AcDbSymbolTableRecord
100
AcDbLayerTableRecord
  2
1
 70
     0
 62
     7
  6
CONTINUOUS
370
    -3
390
A22E
  0
LAYER
  5
9F83
102
{ACAD_XDICTIONARY
360
A288
102
}
330
9F5C
100
AcDbSymbolTableRecord
100
AcDbLayerTableRecord
  2
2
 70
     0
 62
     4
  6
CONTINUOUS
370
    -3
390
A22E
  0
LAYER
  5
9F84
102
{ACAD_XDICTIONARY
360
A28A
102
}
330
9F5C
100
AcDbSymbolTableRecord
100
AcDbLayerTableRecord
  2
3
 70
     0
 62
     2
  6
DASHED
370
    -3
390
A22E
  0
LAYER
  5
9F85
102
{ACAD_XDICTIONARY
360
A28C
102
}
330
9F5C
100
AcDbSymbolTableRecord
100
AcDbLayerTableRecord
  2
6
 70
     0
 62
     5
  6
CONTINUOUS
370
    -3
390
A22E
  0
LAYER
  5
9F86
102
{ACAD_XDICTIONARY
360
A28E
102
}
330
9F5C
100
AcDbSymbolTableRecord
100
AcDbLayerTableRecord
  2
7
 70
     0
 62
     3
  6
CONTINUOUS
370
    -3
390
A22E
  0
ENDTAB
  0
TABLE
  2
STYLE
  5
9F5D
330
0
100
AcDbSymbolTable
 70
     1
  0
STYLE
  5
9F6B
330
9F5D
100
AcDbSymbolTableRecord
100
AcDbTextStyleTableRecord
  2
STANDARD
 70
     0
 40
0.0
 41
1.0
 50
0.0
 71
     0
 42
5.0
  3
txt
  4

  0
ENDTAB
  0
TABLE
  2
VIEW
  5
9F60
330
0
100
AcDbSymbolTable
 70
     0
  0
ENDTAB
  0
TABLE
  2
UCS
  5
9F61
330
0
100
AcDbSymbolTable
 70
     0
  0
ENDTAB
  0
TABLE
  2
APPID
  5
9F63
330
0
100
AcDbSymbolTable
 70
     3
  0
APPID
  5
9F6C
330
9F63
100
AcDbSymbolTableRecord
100
AcDbRegAppTableRecord
  2
ACAD
 70
     0
  0
APPID
  5
A29A
330
9F63
100
AcDbSymbolTableRecord
100
AcDbRegAppTableRecord
  2
ACAD_NAV_VCDISPLAY
 70
     0
  0
APPID
  5
A2D3
330
9F63
100
AcDbSymbolTableRecord
100
AcDbRegAppTableRecord
  2
ACAD_MLEADERVER
 70
     0
  0
ENDTAB
  0
TABLE
  2
DIMSTYLE
  5
9F64
330
0
100
AcDbSymbolTable
 70
     1
100
AcDbDimStyleTable
 71
     0
  0
DIMSTYLE
105
9F88
330
9F64
100
AcDbSymbolTableRecord
100
AcDbDimStyleTableRecord
  2
STANDARD
 70
     0
 41
3.0
 42
1.0
 43
10.0
 44
1.0
 73
     0
 74
     0
 77
     3
 78
     8
140
3.2
141
0.0
147
1.0
172
     1
173
     1
284
     8
285
     8
286
     8
340
9F6B
  0
ENDTAB
  0
TABLE
  2
BLOCK_RECORD
  5
9F5B
330
0
100
AcDbSymbolTable
 70
     0
  0
BLOCK_RECORD
  5
9F78
102
{ACAD_XDICTIONARY
360
A228
102
}
330
9F5B
100
AcDbSymbolTableRecord
100
AcDbBlockTableRecord
  2
*MODEL_SPACE
340
A27C
  0
BLOCK_RECORD
  5
9F74
102
{ACAD_XDICTIONARY
360
A226
102
}
330
9F5B
100
AcDbSymbolTableRecord
100
AcDbBlockTableRecord
  2
*PAPER_SPACE
340
A27D
  0
ENDTAB
  0
ENDSEC
  0
SECTION
  2
BLOCKS
  0
BLOCK
  5
9F79
330
9F78
100
AcDbEntity
  8
0
100
AcDbBlockBegin
  2
*MODEL_SPACE
 70
     0
 10
0.0
 20
0.0
 30
0.0
  3
*MODEL_SPACE
  1

  0
ENDBLK
  5
9F7A
330
9F78
100
AcDbEntity
  8
0
100
AcDbBlockEnd
  0
BLOCK
  5
9F75
330
9F74
100
AcDbEntity
 67
     1
  8
0
100
AcDbBlockBegin
  2
*PAPER_SPACE
 70
     0
 10
0.0
 20
0.0
 30
0.0
  3
*PAPER_SPACE
  1

  0
ENDBLK
  5
9F76
330
9F74
100
AcDbEntity
 67
     1
  8
0
100
AcDbBlockEnd
  0
ENDSEC
  0
SECTION
  2
ENTITIES
  0
TEXT
  5
9F90
330
9F78
100
AcDbEntity
  8
7
  6
Continuous
100
AcDbText
 10
10.0
 20
18.0
 30
0.0
 40
3.0
  1
TYPE No.TL-96N-1
100
AcDbText
  0
TEXT
  5
9F91
330
9F78
100
AcDbEntity
  8
7
  6
Continuous
100
AcDbText
 10
10.0
 20
26.0
 30
0.0
 40
3.0
  1
CODE No.1835
100
AcDbText
  0
TEXT
  5
9F92
330
9F78
100
AcDbEntity
  8
1
  6
Continuous
100
AcDbText
 10
10.0
 20
10.0
 30
0.0
 40
1.399999999999999
  1
LAYER
100
AcDbText
  0
TEXT
  5
9F93
330
9F78
100
AcDbEntity
  8
1
  6
Continuous
100
AcDbText
 10
17.97951099999998
 20
10.04873699999998
 30
0.0
 40
1.399999999999999
  1
1
100
AcDbText
  0
TEXT
  5
9F94
330
9F78
100
AcDbEntity
  8
7
  6
Continuous
100
AcDbText
 10
29.97951099999999
 20
10.04873699999998
 30
0.0
 40
1.399999999999999
  1
7
100
AcDbText
  0
TEXT
  5
9F95
330
9F78
100
AcDbEntity
  8
4
  6
CENTER
100
AcDbText
 10
23.97951099999999
 20
10.04873699999998
 30
0.0
 40
1.399999999999999
  1
4
100
AcDbText
  0
TEXT
  5
9F96
330
9F78
100
AcDbEntity
  8
3
  6
DASHED
100
AcDbText
 10
21.979511
 20
10.04873699999998
 30
0.0
 40
1.399999999999999
  1
3
100
AcDbText
  0
TEXT
  5
9F97
330
9F78
100
AcDbEntity
  8
2
  6
Continuous
100
AcDbText
 10
19.97951099999999
 20
10.04873699999998
 30
0.0
 40
1.399999999999999
  1
2
100
AcDbText
  0
TEXT
  5
9F98
330
9F78
100
AcDbEntity
  8
6
  6
Continuous
100
AcDbText
 10
27.979511
 20
10.04873699999998
 30
0.0
 40
1.399999999999999
  1
6
100
AcDbText
  0
TEXT
  5
9F99
330
9F78
100
AcDbEntity
  8
5
  6
PHANTOM
100
AcDbText
 10
25.97951099999999
 20
10.04873699999998
 30
0.0
 40
1.399999999999999
  1
5
100
AcDbText
  0
LINE
  5
9F9A
330
9F78
100
AcDbEntity
  8
4
  6
CENTER
100
AcDbLine
 10
43.583099
 20
113.2463199999999
 30
0.0
 11
15.840607
 21
113.2463199999999
 31
0.0
  0
LINE
  5
9F9B
330
9F78
100
AcDbEntity
  8
4
  6
CENTER
100
AcDbLine
 10
29.712208
 20
128.7731369999999
 30
0.0
 11
29.712208
 21
98.312558
 31
0.0
  0
LINE
  5
9F9C
330
9F78
100
AcDbEntity
  8
1
  6
Continuous
100
AcDbLine
 10
30.587208
 20
119.646321
 30
0.0
 11
28.837208
 21
119.646321
 31
0.0
  0
LINE
  5
9F9D
330
9F78
100
AcDbEntity
  8
1
  6
Continuous
100
AcDbLine
 10
30.587208
 20
118.051824
 30
0.0
 11
30.587208
 21
119.646321
 31
0.0
  0
LINE
  5
9F9E
330
9F78
100
AcDbEntity
  8
1
  6
Continuous
100
AcDbLine
 10
28.837208
 20
118.051824
 30
0.0
 11
28.837208
 21
119.646321
 31
0.0
  0
LINE
  5
9F9F
330
9F78
100
AcDbEntity
  8
1
  6
Continuous
100
AcDbLine
 10
28.837208
 20
117.0469259999999
 30
0.0
 11
28.837208
 21
115.646321
 31
0.0
  0
LINE
  5
9FA0
330
9F78
100
AcDbEntity
  8
1
  6
Continuous
100
AcDbLine
 10
30.587208
 20
117.0469259999999
 30
0.0
 11
30.587208
 21
115.646321
 31
0.0
  0
LINE
  5
9FA1
330
9F78
100
AcDbEntity
  8
1
  6
Continuous
100
AcDbLine
 10
28.837208
 20
115.646321
 30
0.0
 11
30.587208
 21
115.646321
 31
0.0
  0
LINE
  5
9FA2
330
9F78
100
AcDbEntity
  8
1
  6
Continuous
100
AcDbLine
 10
79.66390199999998
 20
104.6244249999999
 30
0.0
 11
79.66390199999998
 21
121.868123
 31
0.0
  0
LINE
  5
9FA3
330
9F78
100
AcDbEntity
  8
1
  6
Continuous
100
AcDbLine
 10
85.96390500000003
 20
102.24632
 30
0.0
 11
84.76390100000001
 21
102.24632
 31
0.0
  0
LINE
  5
9FA4
330
9F78
100
AcDbEntity
  8
1
  6
Continuous
100
AcDbLine
 10
84.76390100000001
 20
102.246312
 30
0.0
 11
79.66390199999998
 21
104.62441
 31
0.0
  0
LINE
  5
9FA5
330
9F78
100
AcDbEntity
  8
1
  6
Continuous
100
AcDbLine
 10
103.063904
 20
105.046323
 30
0.0
 11
103.063904
 21
106.6874209999999
 31
0.0
  0
LINE
  5
9FA6
330
9F78
100
AcDbEntity
  8
1
  6
Continuous
100
AcDbLine
 10
85.96390500000003
 20
124.246327
 30
0.0
 11
85.96390500000003
 21
102.24632
 31
0.0
  0
LINE
  5
9FA7
330
9F78
100
AcDbEntity
  8
1
  6
Continuous
100
AcDbLine
 10
101.263901
 20
105.4694259999999
 30
0.0
 11
101.263901
 21
121.946324
 31
0.0
  0
LINE
  5
9FA8
330
9F78
100
AcDbEntity
  8
1
  6
Continuous
100
AcDbLine
 10
102.5639189999999
 20
104.546331
 30
0.0
 11
103.063919
 21
105.046331
 31
0.0
  0
LINE
  5
9FA9
330
9F78
100
AcDbEntity
  8
1
  6
Continuous
100
AcDbLine
 10
85.96390500000003
 20
124.246327
 30
0.0
 11
84.76390100000001
 21
124.246327
 31
0.0
  0
LINE
  5
9FAA
330
9F78
100
AcDbEntity
  8
1
  6
Continuous
100
AcDbLine
 10
84.76389300000002
 20
124.246312
 30
0.0
 11
79.66389499999998
 21
121.868123
 31
0.0
  0
LINE
  5
9FAB
330
9F78
100
AcDbEntity
  8
4
  6
CENTER
100
AcDbLine
 10
76.915604
 20
113.2463199999999
 30
0.0
 11
115.0370019999999
 21
113.2463199999999
 31
0.0
  0
LINE
  5
9FAC
330
9F78
100
AcDbEntity
  8
1
  6
Continuous
100
AcDbLine
 10
95.46390499999999
 20
104.5463229999999
 30
0.0
 11
102.5639039999999
 21
104.5463229999999
 31
0.0
  0
LINE
  5
9FAD
330
9F78
100
AcDbEntity
  8
1
  6
Continuous
100
AcDbLine
 10
95.46390499999999
 20
121.946324
 30
0.0
 11
101.263901
 21
121.946324
 31
0.0
  0
LINE
  5
9FAE
330
9F78
100
AcDbEntity
  8
1
  6
Continuous
100
AcDbLine
 10
113.363907
 20
115.74632
 30
0.0
 11
113.363907
 21
110.7463269999998
 31
0.0
  0
LINE
  5
9FAF
330
9F78
100
AcDbEntity
  8
1
  6
Continuous
100
AcDbLine
 10
104.0639039999999
 20
116.821324
 30
0.0
 11
104.0639039999999
 21
115.473434
 31
0.0
  0
LINE
  5
9FB0
330
9F78
100
AcDbEntity
  8
1
  6
Continuous
100
AcDbLine
 10
101.413902
 20
109.6713229999999
 30
0.0
 11
101.7638959999999
 21
109.6713229999999
 31
0.0
  0
LINE
  5
9FB1
330
9F78
100
AcDbEntity
  8
1
  6
Continuous
100
AcDbLine
 10
101.413902
 20
116.821324
 30
0.0
 11
101.7638959999999
 21
116.821324
 31
0.0
  0
LINE
  5
9FB2
330
9F78
100
AcDbEntity
  8
1
  6
Continuous
100
AcDbLine
 10
103.363902
 20
116.821324
 30
0.0
 11
104.0639039999999
 21
116.821324
 31
0.0
  0
LINE
  5
9FB3
330
9F78
100
AcDbEntity
  8
1
  6
Continuous
100
AcDbLine
 10
103.363902
 20
109.6713229999999
 30
0.0
 11
104.0639039999999
 21
109.6713229999999
 31
0.0
  0
LINE
  5
9FB4
330
9F78
100
AcDbEntity
  8
1
  6
Continuous
100
AcDbLine
 10
104.0639039999999
 20
111.0192239999998
 30
0.0
 11
104.0639039999999
 21
109.6713229999999
 31
0.0
  0
LINE
  5
9FB5
330
9F78
100
AcDbEntity
  8
2
  6
Continuous
100
AcDbLine
 10
113.363907
 20
115.473434
 30
0.0
 11
103.363902
 21
111.6354199999999
 31
0.0
  0
LINE
  5
9FB6
330
9F78
100
AcDbEntity
  8
2
  6
Continuous
100
AcDbLine
 10
103.363902
 20
114.8571259999998
 30
0.0
 11
113.363907
 21
111.0192239999998
 31
0.0
  0
LINE
  5
9FB7
330
9F78
100
AcDbEntity
  8
1
  6
Continuous
100
AcDbLine
 10
101.413902
 20
106.746274
 30
0.0
 11
101.413902
 21
119.7463269999999
 31
0.0
  0
LINE
  5
9FB8
330
9F78
100
AcDbEntity
  8
1
  6
Continuous
100
AcDbLine
 10
101.2639239999999
 20
119.896337
 30
0.0
 11
101.413925
 21
119.7463429999999
 31
0.0
  0
LINE
  5
9FB9
330
9F78
100
AcDbEntity
  8
1
  6
Continuous
100
AcDbLine
 10
84.76390100000001
 20
124.246327
 30
0.0
 11
84.76390100000001
 21
102.24632
 31
0.0
  0
LINE
  5
9FBA
330
9F78
100
AcDbEntity
  8
1
  6
Continuous
100
AcDbLine
 10
101.263901
 20
105.4694259999999
 30
0.0
 11
103.063904
 21
105.4694259999999
 31
0.0
  0
LINE
  5
9FBB
330
9F78
100
AcDbEntity
  8
1
  6
Continuous
100
AcDbLine
 10
103.063904
 20
106.6874209999999
 30
0.0
 11
101.263901
 21
106.6874209999999
 31
0.0
  0
LINE
  5
9FBC
330
9F78
100
AcDbEntity
  8
2
  6
Continuous
100
AcDbLine
 10
101.263901
 20
116.8905059999999
 30
0.0
 11
85.96390500000003
 21
107.969949
 31
0.0
  0
LINE
  5
9FBD
330
9F78
100
AcDbEntity
  8
2
  6
Continuous
100
AcDbLine
 10
85.96390500000003
 20
118.5226909999999
 30
0.0
 11
101.263901
 21
109.602149
 31
0.0
  0
LINE
  5
9FBE
330
9F78
100
AcDbEntity
  8
1
  6
Continuous
100
AcDbLine
 10
101.7638959999999
 20
120.946324
 30
0.0
 11
103.363902
 21
120.946324
 31
0.0
  0
LINE
  5
9FBF
330
9F78
100
AcDbEntity
  8
1
  6
Continuous
100
AcDbLine
 10
101.7638959999999
 20
120.946324
 30
0.0
 11
101.7638959999999
 21
106.6874209999999
 31
0.0
  0
LINE
  5
9FC0
330
9F78
100
AcDbEntity
  8
1
  6
Continuous
100
AcDbLine
 10
103.363902
 20
120.946324
 30
0.0
 11
103.363902
 21
105.724607
 31
0.0
  0
LINE
  5
9FC1
330
9F78
100
AcDbEntity
  8
4
  6
CENTER
100
AcDbLine
 10
226.2808989999999
 20
98.312558
 30
0.0
 11
226.2808989999999
 21
128.7731369999999
 31
0.0
  0
LINE
  5
9FC2
330
9F78
100
AcDbEntity
  8
1
  6
Continuous
100
AcDbLine
 10
218.3809049999999
 20
107.969949
 30
0.0
 11
218.3809049999999
 21
118.5226909999999
 31
0.0
  0
LINE
  5
9FC3
330
9F78
100
AcDbEntity
  8
1
  6
Continuous
100
AcDbLine
 10
234.1809079999999
 20
107.969972
 30
0.0
 11
234.1809079999999
 21
118.5226679999999
 31
0.0
  0
LINE
  5
9FC4
330
9F78
100
AcDbEntity
  8
4
  6
CENTER
100
AcDbLine
 10
212.0944059999999
 20
113.2463199999999
 30
0.0
 11
240.332016
 21
113.2463199999999
 31
0.0
  0
LINE
  5
9FC5
330
9F78
100
AcDbEntity
  8
1
  6
Continuous
100
AcDbLine
 10
223.580906
 20
115.473434
 30
0.0
 11
223.580906
 21
111.0192049999999
 31
0.0
  0
LINE
  5
9FC6
330
9F78
100
AcDbEntity
  8
1
  6
Continuous
100
AcDbLine
 10
228.980907
 20
115.4734159999998
 30
0.0
 11
228.980907
 21
111.0192239999998
 31
0.0
  0
LINE
  5
9FC7
330
9F78
100
AcDbEntity
  8
1
  6
Continuous
100
AcDbLine
 10
222.450806
 20
120.946309
 30
0.0
 11
230.111099
 21
120.946309
 31
0.0
  0
LINE
  5
9FC8
330
9F78
100
AcDbEntity
  8
1
  6
Continuous
100
AcDbLine
 10
218.75917
 20
117.4157
 30
0.0
 11
220.5959009999999
 21
116.397634
 31
0.0
  0
LINE
  5
9FC9
330
9F78
100
AcDbEntity
  8
1
  6
Continuous
100
AcDbLine
 10
230.4502869999998
 20
105.724607
 30
0.0
 11
229.4321749999999
 21
107.5612989999999
 31
0.0
  0
LINE
  5
9FCA
330
9F78
100
AcDbEntity
  8
1
  6
Continuous
100
AcDbLine
 10
233.980896
 20
117.0764059999999
 30
0.0
 11
233.980896
 21
109.41612
 31
0.0
  0
LINE
  5
9FCB
330
9F78
100
AcDbEntity
  8
1
  6
Continuous
100
AcDbLine
 10
79.66390199999998
 20
191.8681229999999
 30
0.0
 11
79.66390199999998
 21
174.624425
 31
0.0
  0
LINE
  5
9FCC
330
9F78
100
AcDbEntity
  8
1
  6
Continuous
100
AcDbLine
 10
85.96390500000003
 20
194.246327
 30
0.0
 11
84.763908
 21
194.246327
 31
0.0
  0
LINE
  5
9FCD
330
9F78
100
AcDbEntity
  8
1
  6
Continuous
100
AcDbLine
 10
84.763908
 20
194.246312
 30
0.0
 11
79.66390199999998
 21
191.8681079999998
 31
0.0
  0
LINE
  5
9FCE
330
9F78
100
AcDbEntity
  8
1
  6
Continuous
100
AcDbLine
 10
101.263908
 20
191.1463209999998
 30
0.0
 11
101.263908
 21
175.3463179999999
 31
0.0
  0
LINE
  5
9FCF
330
9F78
100
AcDbEntity
  8
1
  6
Continuous
100
AcDbLine
 10
85.96390500000003
 20
172.246327
 30
0.0
 11
84.763908
 21
172.246327
 31
0.0
  0
LINE
  5
9FD0
330
9F78
100
AcDbEntity
  8
1
  6
Continuous
100
AcDbLine
 10
84.763908
 20
172.246312
 30
0.0
 11
79.66389499999998
 21
174.624425
 31
0.0
  0
LINE
  5
9FD1
330
9F78
100
AcDbEntity
  8
1
  6
Continuous
100
AcDbLine
 10
85.96390500000003
 20
172.246312
 30
0.0
 11
85.96390500000003
 21
194.246312
 31
0.0
  0
LINE
  5
9FD2
330
9F78
100
AcDbEntity
  8
1
  6
Continuous
100
AcDbLine
 10
84.763908
 20
194.246312
 30
0.0
 11
84.763908
 21
172.246312
 31
0.0
  0
LINE
  5
9FD3
330
9F78
100
AcDbEntity
  8
1
  6
Continuous
100
AcDbLine
 10
101.7638959999999
 20
187.1463209999998
 30
0.0
 11
101.413902
 21
187.1463209999998
 31
0.0
  0
LINE
  5
9FD4
330
9F78
100
AcDbEntity
  8
1
  6
Continuous
100
AcDbLine
 10
101.7638959999999
 20
186.4511159999999
 30
0.0
 11
101.413902
 21
186.4511159999999
 31
0.0
  0
LINE
  5
9FD5
330
9F78
100
AcDbEntity
  8
1
  6
Continuous
100
AcDbLine
 10
101.7638959999999
 20
180.041524
 30
0.0
 11
101.413902
 21
180.041524
 31
0.0
  0
LINE
  5
9FD6
330
9F78
100
AcDbEntity
  8
1
  6
Continuous
100
AcDbLine
 10
101.7638959999999
 20
179.346318
 30
0.0
 11
101.413902
 21
179.346318
 31
0.0
  0
LINE
  5
9FD7
330
9F78
100
AcDbEntity
  8
1
  6
Continuous
100
AcDbLine
 10
113.363907
 20
184.9463199999999
 30
0.0
 11
113.363907
 21
181.54632
 31
0.0
  0
LINE
  5
9FD8
330
9F78
100
AcDbEntity
  8
4
  6
CENTER
100
AcDbLine
 10
77.929512
 20
183.246327
 30
0.0
 11
115.2554929999999
 21
183.246327
 31
0.0
  0
LINE
  5
9FD9
330
9F78
100
AcDbEntity
  8
1
  6
Continuous
100
AcDbLine
 10
101.413902
 20
185.92632
 30
0.0
 11
101.7638959999999
 21
185.92632
 31
0.0
  0
LINE
  5
9FDA
330
9F78
100
AcDbEntity
  8
1
  6
Continuous
100
AcDbLine
 10
101.413902
 20
180.5663199999999
 30
0.0
 11
101.7638959999999
 21
180.5663199999999
 31
0.0
  0
LINE
  5
9FDB
330
9F78
100
AcDbEntity
  8
1
  6
Continuous
100
AcDbLine
 10
101.413902
 20
176.7463119999999
 30
0.0
 11
101.413902
 21
189.7463119999999
 31
0.0
  0
LINE
  5
9FDC
330
9F78
100
AcDbEntity
  8
1
  6
Continuous
100
AcDbLine
 10
101.263908
 20
189.8963209999998
 30
0.0
 11
101.4139099999999
 21
189.746327
 31
0.0
  0
LINE
  5
9FDD
330
9F78
100
AcDbEntity
  8
1
  6
Continuous
100
AcDbLine
 10
101.4139169999999
 20
176.746327
 30
0.0
 11
101.263908
 21
176.5963179999999
 31
0.0
  0
LINE
  5
9FDE
330
9F78
100
AcDbEntity
  8
1
  6
Continuous
100
AcDbLine
 10
103.363902
 20
190.946324
 30
0.0
 11
101.7638959999999
 21
190.946324
 31
0.0
  0
LINE
  5
9FDF
330
9F78
100
AcDbEntity
  8
1
  6
Continuous
100
AcDbLine
 10
101.7638959999999
 20
190.946324
 30
0.0
 11
101.7638959999999
 21
175.7245979999999
 31
0.0
  0
LINE
  5
9FE0
330
9F78
100
AcDbEntity
  8
1
  6
Continuous
100
AcDbLine
 10
103.363902
 20
190.946324
 30
0.0
 11
103.363902
 21
175.7245979999999
 31
0.0
  0
LINE
  5
9FE1
330
9F78
100
AcDbEntity
  8
1
  6
Continuous
100
AcDbLine
 10
85.96390500000003
 20
191.1463209999998
 30
0.0
 11
101.263908
 21
191.1463209999998
 31
0.0
  0
LINE
  5
9FE2
330
9F78
100
AcDbEntity
  8
1
  6
Continuous
100
AcDbLine
 10
85.96390500000003
 20
175.3463179999999
 30
0.0
 11
101.263908
 21
175.3463179999999
 31
0.0
  0
LINE
  5
9FE3
330
9F78
100
AcDbEntity
  8
1
  6
Continuous
100
AcDbLine
 10
103.363902
 20
180.54632
 30
0.0
 11
112.363907
 21
180.54632
 31
0.0
  0
LINE
  5
9FE4
330
9F78
100
AcDbEntity
  8
1
  6
Continuous
100
AcDbLine
 10
103.363902
 20
185.94632
 30
0.0
 11
112.363907
 21
185.94632
 31
0.0
  0
LINE
  5
9FE5
330
9F78
100
AcDbEntity
  8
4
  6
CENTER
100
AcDbLine
 10
10.90460599999999
 20
183.246327
 30
0.0
 11
52.54789699999999
 21
183.246327
 31
0.0
  0
LINE
  5
9FE6
330
9F78
100
AcDbEntity
  8
1
  6
Continuous
100
AcDbLine
 10
13.31220599999999
 20
186.246327
 30
0.0
 11
13.31220599999999
 21
180.246327
 31
0.0
  0
LINE
  5
9FE7
330
9F78
100
AcDbEntity
  8
1
  6
Continuous
100
AcDbLine
 10
19.812206
 20
173.746327
 30
0.0
 11
28.812206
 21
173.746327
 31
0.0
  0
LINE
  5
9FE8
330
9F78
100
AcDbEntity
  8
1
  6
Continuous
100
AcDbLine
 10
32.81220600000001
 20
192.746327
 30
0.0
 11
19.812206
 21
192.746327
 31
0.0
  0
LINE
  5
9FE9
330
9F78
100
AcDbEntity
  8
1
  6
Continuous
100
AcDbLine
 10
35.31220600000001
 20
187.1463209999998
 30
0.0
 11
35.31220600000001
 21
188.0463149999999
 31
0.0
  0
LINE
  5
9FEA
330
9F78
100
AcDbEntity
  8
1
  6
Continuous
100
AcDbLine
 10
32.81221399999999
 20
192.7463119999999
 30
0.0
 11
41.98221199999998
 21
190.6293229999999
 31
0.0
  0
LINE
  5
9FEB
330
9F78
100
AcDbEntity
  8
1
  6
Continuous
100
AcDbLine
 10
35.31220600000001
 20
188.0463149999999
 30
0.0
 11
49.31221
 21
188.0463149999999
 31
0.0
  0
LINE
  5
9FEC
330
9F78
100
AcDbEntity
  8
1
  6
Continuous
100
AcDbLine
 10
46.412201
 20
188.946309
 30
0.0
 11
46.412201
 21
188.0463149999999
 31
0.0
  0
LINE
  5
9FED
330
9F78
100
AcDbEntity
  8
1
  6
Continuous
100
AcDbLine
 10
46.412201
 20
188.946309
 30
0.0
 11
48.31221
 21
188.946309
 31
0.0
  0
LINE
  5
9FEE
330
9F78
100
AcDbEntity
  8
1
  6
Continuous
100
AcDbLine
 10
47.912208
 20
188.0463149999999
 30
0.0
 11
48.312202
 21
188.153524
 31
0.0
  0
LINE
  5
9FEF
330
9F78
100
AcDbEntity
  8
1
  6
Continuous
100
AcDbLine
 10
48.31221
 20
188.153524
 30
0.0
 11
48.31221
 21
188.946309
 31
0.0
  0
LINE
  5
9FF0
330
9F78
100
AcDbEntity
  8
1
  6
Continuous
100
AcDbLine
 10
15.91220499999998
 20
185.746327
 30
0.0
 11
15.91220499999998
 21
180.746327
 31
0.0
  0
LINE
  5
9FF1
330
9F78
100
AcDbEntity
  8
1
  6
Continuous
100
AcDbLine
 10
19.712208
 20
180.746327
 30
0.0
 11
19.712208
 21
185.746327
 31
0.0
  0
LINE
  5
9FF2
330
9F78
100
AcDbEntity
  8
1
  6
Continuous
100
AcDbLine
 10
18.712208
 20
186.746327
 30
0.0
 11
16.912205
 21
186.746327
 31
0.0
  0
LINE
  5
9FF3
330
9F78
100
AcDbEntity
  8
1
  6
Continuous
100
AcDbLine
 10
42.912205
 20
189.4600119999998
 30
0.0
 11
42.912205
 21
188.0463149999999
 31
0.0
  0
LINE
  5
9FF4
330
9F78
100
AcDbEntity
  8
1
  6
Continuous
100
AcDbLine
 10
49.31221
 20
178.446309
 30
0.0
 11
36.512203
 21
178.446309
 31
0.0
  0
LINE
  5
9FF5
330
9F78
100
AcDbEntity
  8
1
  6
Continuous
100
AcDbLine
 10
29.51220300000001
 20
181.5259299999999
 30
0.0
 11
29.51220300000001
 21
184.9668169999999
 31
0.0
  0
LINE
  5
9FF6
330
9F78
100
AcDbEntity
  8
1
  6
Continuous
100
AcDbLine
 10
49.512207
 20
187.8463179999999
 30
0.0
 11
49.512207
 21
178.6463209999998
 31
0.0
  0
LINE
  5
9FF7
330
9F78
100
AcDbEntity
  8
1
  6
Continuous
100
AcDbLine
 10
36.31220600000001
 20
187.1463209999998
 30
0.0
 11
36.31220600000001
 21
179.346318
 31
0.0
  0
LINE
  5
9FF8
330
9F78
100
AcDbEntity
  8
1
  6
Continuous
100
AcDbLine
 10
33.012203
 20
187.1463209999998
 30
0.0
 11
36.31220600000001
 21
187.1463209999998
 31
0.0
  0
LINE
  5
9FF9
330
9F78
100
AcDbEntity
  8
1
  6
Continuous
100
AcDbLine
 10
33.012203
 20
179.346318
 30
0.0
 11
36.31220600000001
 21
179.346318
 31
0.0
  0
LINE
  5
9FFA
330
9F78
100
AcDbEntity
  8
1
  6
Continuous
100
AcDbLine
 10
49.312218
 20
178.4463399999999
 30
0.0
 11
49.51221499999999
 21
178.6463369999999
 31
0.0
  0
LINE
  5
9FFB
330
9F78
100
AcDbEntity
  8
1
  6
Continuous
100
AcDbLine
 10
49.312218
 20
188.046331
 30
0.0
 11
49.512222
 21
187.846334
 31
0.0
  0
LINE
  5
9FFC
330
9F78
100
AcDbEntity
  8
1
  6
Continuous
100
AcDbLine
 10
36.312218
 20
178.6463209999998
 30
0.0
 11
36.51221500000001
 21
178.446324
 31
0.0
  0
LINE
  5
9FFD
330
9F78
100
AcDbEntity
  8
1
  6
Continuous
100
AcDbLine
 10
36.312218
 20
187.846334
 30
0.0
 11
36.51222199999998
 21
188.046331
 31
0.0
  0
LINE
  5
9FFE
330
9F78
100
AcDbEntity
  8
1
  6
Continuous
100
AcDbLine
 10
36.31220600000001
 20
178.6463209999998
 30
0.0
 11
36.31220600000001
 21
179.346318
 31
0.0
  0
LINE
  5
9FFF
330
9F78
100
AcDbEntity
  8
1
  6
Continuous
100
AcDbLine
 10
36.31220600000001
 20
187.8463179999999
 30
0.0
 11
36.31220600000001
 21
187.1463209999998
 31
0.0
  0
LINE
  5
A000
330
9F78
100
AcDbEntity
  8
1
  6
Continuous
100
AcDbLine
 10
16.912205
 20
179.746327
 30
0.0
 11
18.712208
 21
179.746327
 31
0.0
  0
LINE
  5
A001
330
9F78
100
AcDbEntity
  8
1
  6
Continuous
100
AcDbLine
 10
95.46390499999999
 20
121.946324
 30
0.0
 11
95.46390499999999
 21
116.8905059999999
 31
0.0
  0
LINE
  5
A002
330
9F78
100
AcDbEntity
  8
1
  6
Continuous
100
AcDbLine
 10
95.46390499999999
 20
104.5463229999999
 30
0.0
 11
95.46390499999999
 21
109.602149
 31
0.0
  0
LINE
  5
A003
330
9F78
100
AcDbEntity
  8
4
  6
CENTER
100
AcDbLine
 10
141.139069
 20
183.246327
 30
0.0
 11
180.3351289999999
 21
183.246327
 31
0.0
  0
LINE
  5
A004
330
9F78
100
AcDbEntity
  8
1
  6
Continuous
100
AcDbLine
 10
160.825455
 20
186.900731
 30
0.0
 11
160.825455
 21
186.515523
 31
0.0
  0
LINE
  5
A005
330
9F78
100
AcDbEntity
  8
1
  6
Continuous
100
AcDbLine
 10
162.825455
 20
186.5430189999999
 30
0.0
 11
162.825455
 21
186.157827
 31
0.0
  0
LINE
  5
A006
330
9F78
100
AcDbEntity
  8
1
  6
Continuous
100
AcDbLine
 10
161.425461
 20
189.746327
 30
0.0
 11
161.425461
 21
176.746327
 31
0.0
  0
LINE
  5
A007
330
9F78
100
AcDbEntity
  8
1
  6
Continuous
100
AcDbLine
 10
162.2254639999999
 20
189.746327
 30
0.0
 11
162.2254639999999
 21
176.746327
 31
0.0
  0
LINE
  5
A008
330
9F78
100
AcDbEntity
  8
1
  6
Continuous
100
AcDbLine
 10
161.425461
 20
189.746327
 30
0.0
 11
162.2254639999999
 21
189.746327
 31
0.0
  0
LINE
  5
A009
330
9F78
100
AcDbEntity
  8
1
  6
Continuous
100
AcDbLine
 10
161.425461
 20
176.746327
 30
0.0
 11
162.2254639999999
 21
176.746327
 31
0.0
  0
LINE
  5
A00A
330
9F78
100
AcDbEntity
  8
1
  6
Continuous
100
AcDbLine
 10
160.825455
 20
186.9007159999999
 30
0.0
 11
161.4254449999999
 21
186.7934159999999
 31
0.0
  0
LINE
  5
A00B
330
9F78
100
AcDbEntity
  8
1
  6
Continuous
100
AcDbLine
 10
161.2243649999998
 20
185.763616
 30
0.0
 11
161.4254449999999
 21
185.669423
 31
0.0
  0
LINE
  5
A00C
330
9F78
100
AcDbEntity
  8
1
  6
Continuous
100
AcDbLine
 10
161.3041839999999
 20
183.945027
 30
0.0
 11
161.425461
 21
183.874837
 31
0.0
  0
LINE
  5
A00D
330
9F78
100
AcDbEntity
  8
1
  6
Continuous
100
AcDbLine
 10
160.8254699999999
 20
181.566548
 30
0.0
 11
161.425461
 21
181.2855429999999
 31
0.0
  0
LINE
  5
A00E
330
9F78
100
AcDbEntity
  8
1
  6
Continuous
100
AcDbLine
 10
160.825455
 20
179.9495139999999
 30
0.0
 11
161.4254449999999
 21
179.8422139999999
 31
0.0
  0
LINE
  5
A00F
330
9F78
100
AcDbEntity
  8
1
  6
Continuous
100
AcDbLine
 10
160.825455
 20
186.515523
 30
0.0
 11
161.4254449999999
 21
186.4082229999999
 31
0.0
  0
LINE
  5
A010
330
9F78
100
AcDbEntity
  8
1
  6
Continuous
100
AcDbLine
 10
160.828461
 20
185.3184249999999
 30
0.0
 11
161.425461
 21
185.038823
 31
0.0
  0
LINE
  5
A011
330
9F78
100
AcDbEntity
  8
1
  6
Continuous
100
AcDbLine
 10
160.904861
 20
183.2518359999999
 30
0.0
 11
161.425461
 21
182.950429
 31
0.0
  0
LINE
  5
A012
330
9F78
100
AcDbEntity
  8
1
  6
Continuous
100
AcDbLine
 10
160.825455
 20
181.105229
 30
0.0
 11
161.425461
 21
180.8243299999998
 31
0.0
  0
LINE
  5
A013
330
9F78
100
AcDbEntity
  8
1
  6
Continuous
100
AcDbLine
 10
160.825455
 20
179.5715229999999
 30
0.0
 11
161.4254449999999
 21
179.464223
 31
0.0
  0
LINE
  5
A014
330
9F78
100
AcDbEntity
  8
1
  6
Continuous
100
AcDbLine
 10
160.825455
 20
181.5665329999999
 30
0.0
 11
160.825455
 21
181.105229
 31
0.0
  0
LINE
  5
A015
330
9F78
100
AcDbEntity
  8
1
  6
Continuous
100
AcDbLine
 10
160.825455
 20
179.949529
 30
0.0
 11
160.825455
 21
179.5715229999999
 31
0.0
  0
LINE
  5
A016
330
9F78
100
AcDbEntity
  8
1
  6
Continuous
100
AcDbLine
 10
160.8401639999998
 20
185.331624
 30
0.0
 11
161.2360689999999
 21
185.776738
 31
0.0
  0
LINE
  5
A017
330
9F78
100
AcDbEntity
  8
1
  6
Continuous
100
AcDbLine
 10
162.429565
 20
184.5687299999999
 30
0.0
 11
162.8254849999999
 21
185.013845
 31
0.0
  0
LINE
  5
A018
330
9F78
100
AcDbEntity
  8
1
  6
Continuous
100
AcDbLine
 10
160.904861
 20
183.2518359999999
 30
0.0
 11
161.304169
 21
183.945043
 31
0.0
  0
LINE
  5
A019
330
9F78
100
AcDbEntity
  8
1
  6
Continuous
100
AcDbLine
 10
162.904861
 20
183.018529
 30
0.0
 11
162.6003719999999
 21
182.270452
 31
0.0
  0
LINE
  5
A01A
330
9F78
100
AcDbEntity
  8
1
  6
Continuous
100
AcDbLine
 10
162.2254489999999
 20
186.6503189999999
 30
0.0
 11
162.825455
 21
186.5430189999999
 31
0.0
  0
LINE
  5
A01B
330
9F78
100
AcDbEntity
  8
1
  6
Continuous
100
AcDbLine
 10
162.2254489999999
 20
186.2651259999999
 30
0.0
 11
162.825455
 21
186.157811
 31
0.0
  0
LINE
  5
A01C
330
9F78
100
AcDbEntity
  8
1
  6
Continuous
100
AcDbLine
 10
162.2254639999999
 20
185.294835
 30
0.0
 11
162.825455
 21
185.0138289999999
 31
0.0
  0
LINE
  5
A01D
330
9F78
100
AcDbEntity
  8
1
  6
Continuous
100
AcDbLine
 10
162.2254489999999
 20
184.6642199999998
 30
0.0
 11
162.429565
 21
184.5687299999999
 31
0.0
  0
LINE
  5
A01E
330
9F78
100
AcDbEntity
  8
1
  6
Continuous
100
AcDbLine
 10
162.2254639999999
 20
183.4117169999999
 30
0.0
 11
162.904861
 21
183.0185139999999
 31
0.0
  0
LINE
  5
A01F
330
9F78
100
AcDbEntity
  8
1
  6
Continuous
100
AcDbLine
 10
162.2254489999999
 20
182.487416
 30
0.0
 11
162.6003569999998
 21
182.2704209999999
 31
0.0
  0
LINE
  5
A020
330
9F78
100
AcDbEntity
  8
1
  6
Continuous
100
AcDbLine
 10
162.2254639999999
 20
180.9109389999999
 30
0.0
 11
162.82547
 21
180.6300399999998
 31
0.0
  0
LINE
  5
A021
330
9F78
100
AcDbEntity
  8
1
  6
Continuous
100
AcDbLine
 10
162.2254639999999
 20
180.4497269999998
 30
0.0
 11
162.438751
 21
180.349828
 31
0.0
  0
LINE
  5
A022
330
9F78
100
AcDbEntity
  8
1
  6
Continuous
100
AcDbLine
 10
162.2254489999999
 20
179.699102
 30
0.0
 11
162.825455
 21
179.591802
 31
0.0
  0
LINE
  5
A023
330
9F78
100
AcDbEntity
  8
1
  6
Continuous
100
AcDbLine
 10
162.2254639999999
 20
179.321111
 30
0.0
 11
162.4163669999998
 21
179.287023
 31
0.0
  0
LINE
  5
A024
330
9F78
100
AcDbEntity
  8
1
  6
Continuous
100
AcDbLine
 10
172.6144709999999
 20
188.7463269999998
 30
0.0
 11
172.6144709999999
 21
177.746327
 31
0.0
  0
LINE
  5
A025
330
9F78
100
AcDbEntity
  8
1
  6
Continuous
100
AcDbLine
 10
176.8144679999998
 20
188.7463269999998
 30
0.0
 11
176.8144679999998
 21
177.746327
 31
0.0
  0
LINE
  5
A026
330
9F78
100
AcDbEntity
  8
1
  6
Continuous
100
AcDbLine
 10
144.9882659999999
 20
194.246327
 30
0.0
 11
144.9882659999999
 21
172.246327
 31
0.0
  0
LINE
  5
A027
330
9F78
100
AcDbEntity
  8
1
  6
Continuous
100
AcDbLine
 10
148.4882659999998
 20
194.246327
 30
0.0
 11
148.4882659999998
 21
172.246327
 31
0.0
  0
LINE
  5
A028
330
9F78
100
AcDbEntity
  8
1
  6
Continuous
100
AcDbLine
 10
147.52597
 20
183.246327
 30
0.0
 11
144.9882659999999
 21
183.246327
 31
0.0
  0
LINE
  5
A029
330
9F78
100
AcDbEntity
  8
1
  6
Continuous
100
AcDbLine
 10
144.9882659999999
 20
172.246327
 30
0.0
 11
148.4882659999998
 21
172.246327
 31
0.0
  0
LINE
  5
A02A
330
9F78
100
AcDbEntity
  8
1
  6
Continuous
100
AcDbLine
 10
144.9882659999999
 20
194.246327
 30
0.0
 11
148.4882659999998
 21
194.246327
 31
0.0
  0
LINE
  5
A02B
330
9F78
100
AcDbEntity
  8
1
  6
Continuous
100
AcDbLine
 10
172.6144709999999
 20
188.7463269999998
 30
0.0
 11
176.8144679999998
 21
188.7463269999998
 31
0.0
  0
LINE
  5
A02C
330
9F78
100
AcDbEntity
  8
1
  6
Continuous
100
AcDbLine
 10
172.6144709999999
 20
177.746327
 30
0.0
 11
176.8144679999998
 21
177.746327
 31
0.0
  0
LINE
  5
A02D
330
9F78
100
AcDbEntity
  8
1
  6
Continuous
100
AcDbLine
 10
176.323227
 20
183.246327
 30
0.0
 11
173.1057129999999
 21
183.246327
 31
0.0
  0
LINE
  5
A02E
330
9F78
100
AcDbEntity
  8
1
  6
Continuous
100
AcDbLine
 10
160.8254699999999
 20
116.9007159999999
 30
0.0
 11
160.8254699999999
 21
116.515523
 31
0.0
  0
LINE
  5
A02F
330
9F78
100
AcDbEntity
  8
1
  6
Continuous
100
AcDbLine
 10
162.82547
 20
116.543019
 30
0.0
 11
162.82547
 21
116.1578269999999
 31
0.0
  0
LINE
  5
A030
330
9F78
100
AcDbEntity
  8
1
  6
Continuous
100
AcDbLine
 10
161.425461
 20
119.7463269999999
 30
0.0
 11
161.425461
 21
106.7463199999999
 31
0.0
  0
LINE
  5
A031
330
9F78
100
AcDbEntity
  8
1
  6
Continuous
100
AcDbLine
 10
162.2254639999999
 20
119.7463269999999
 30
0.0
 11
162.2254639999999
 21
106.7463199999999
 31
0.0
  0
LINE
  5
A032
330
9F78
100
AcDbEntity
  8
1
  6
Continuous
100
AcDbLine
 10
161.425461
 20
119.7463269999999
 30
0.0
 11
162.2254639999999
 21
119.7463269999999
 31
0.0
  0
LINE
  5
A033
330
9F78
100
AcDbEntity
  8
1
  6
Continuous
100
AcDbLine
 10
161.425461
 20
106.7463199999999
 30
0.0
 11
162.2254639999999
 21
106.7463199999999
 31
0.0
  0
LINE
  5
A034
330
9F78
100
AcDbEntity
  8
1
  6
Continuous
100
AcDbLine
 10
160.8254699999999
 20
116.9007159999999
 30
0.0
 11
161.425476
 21
116.7934159999998
 31
0.0
  0
LINE
  5
A035
330
9F78
100
AcDbEntity
  8
1
  6
Continuous
100
AcDbLine
 10
161.224274
 20
115.7636159999998
 30
0.0
 11
161.425476
 21
115.669423
 31
0.0
  0
LINE
  5
A036
330
9F78
100
AcDbEntity
  8
1
  6
Continuous
100
AcDbLine
 10
161.304169
 20
113.945035
 30
0.0
 11
161.425476
 21
113.874837
 31
0.0
  0
LINE
  5
A037
330
9F78
100
AcDbEntity
  8
1
  6
Continuous
100
AcDbLine
 10
160.8254849999999
 20
111.5665099999999
 30
0.0
 11
161.425476
 21
111.285611
 31
0.0
  0
LINE
  5
A038
330
9F78
100
AcDbEntity
  8
1
  6
Continuous
100
AcDbLine
 10
160.8254849999999
 20
109.9496129999999
 30
0.0
 11
161.425476
 21
109.8422139999998
 31
0.0
  0
LINE
  5
A039
330
9F78
100
AcDbEntity
  8
1
  6
Continuous
100
AcDbLine
 10
160.8254849999999
 20
116.515523
 30
0.0
 11
161.425476
 21
116.4082229999998
 31
0.0
  0
LINE
  5
A03A
330
9F78
100
AcDbEntity
  8
1
  6
Continuous
100
AcDbLine
 10
160.8283689999999
 20
115.318425
 30
0.0
 11
161.425476
 21
115.0388229999998
 31
0.0
  0
LINE
  5
A03B
330
9F78
100
AcDbEntity
  8
1
  6
Continuous
100
AcDbLine
 10
160.904785
 20
113.2518279999999
 30
0.0
 11
161.425476
 21
112.950429
 31
0.0
  0
LINE
  5
A03C
330
9F78
100
AcDbEntity
  8
1
  6
Continuous
100
AcDbLine
 10
160.8254699999999
 20
111.1052069999999
 30
0.0
 11
161.425476
 21
110.824308
 31
0.0
  0
LINE
  5
A03D
330
9F78
100
AcDbEntity
  8
1
  6
Continuous
100
AcDbLine
 10
160.8254699999999
 20
109.5715149999999
 30
0.0
 11
161.425476
 21
109.464215
 31
0.0
  0
LINE
  5
A03E
330
9F78
100
AcDbEntity
  8
1
  6
Continuous
100
AcDbLine
 10
160.8254699999999
 20
111.5665179999999
 30
0.0
 11
160.8254699999999
 21
111.1052219999999
 31
0.0
  0
LINE
  5
A03F
330
9F78
100
AcDbEntity
  8
1
  6
Continuous
100
AcDbLine
 10
160.8254699999999
 20
109.9496199999999
 30
0.0
 11
160.8254699999999
 21
109.5715229999999
 31
0.0
  0
LINE
  5
A040
330
9F78
100
AcDbEntity
  8
1
  6
Continuous
100
AcDbLine
 10
160.840179
 20
115.331624
 30
0.0
 11
161.2360689999999
 21
115.776723
 31
0.0
  0
LINE
  5
A041
330
9F78
100
AcDbEntity
  8
1
  6
Continuous
100
AcDbLine
 10
162.429581
 20
114.5687229999999
 30
0.0
 11
162.8254849999999
 21
115.013829
 31
0.0
  0
LINE
  5
A042
330
9F78
100
AcDbEntity
  8
1
  6
Continuous
100
AcDbLine
 10
160.904785
 20
113.2518279999999
 30
0.0
 11
161.3041839999999
 21
113.9450269999999
 31
0.0
  0
LINE
  5
A043
330
9F78
100
AcDbEntity
  8
1
  6
Continuous
100
AcDbLine
 10
162.9047549999999
 20
113.018514
 30
0.0
 11
162.6003569999998
 21
112.2704209999999
 31
0.0
  0
LINE
  5
A044
330
9F78
100
AcDbEntity
  8
1
  6
Continuous
100
AcDbLine
 10
162.225479
 20
116.650319
 30
0.0
 11
162.82547
 21
116.543019
 31
0.0
  0
LINE
  5
A045
330
9F78
100
AcDbEntity
  8
1
  6
Continuous
100
AcDbLine
 10
162.225479
 20
116.265126
 30
0.0
 11
162.82547
 21
116.1578269999999
 31
0.0
  0
LINE
  5
A046
330
9F78
100
AcDbEntity
  8
1
  6
Continuous
100
AcDbLine
 10
162.225479
 20
115.294835
 30
0.0
 11
162.8254849999999
 21
115.0138449999999
 31
0.0
  0
LINE
  5
A047
330
9F78
100
AcDbEntity
  8
1
  6
Continuous
100
AcDbLine
 10
162.225479
 20
114.664212
 30
0.0
 11
162.429581
 21
114.568708
 31
0.0
  0
LINE
  5
A048
330
9F78
100
AcDbEntity
  8
1
  6
Continuous
100
AcDbLine
 10
162.2254639999999
 20
113.411725
 30
0.0
 11
162.9047699999999
 21
113.018521
 31
0.0
  0
LINE
  5
A049
330
9F78
100
AcDbEntity
  8
1
  6
Continuous
100
AcDbLine
 10
162.2254639999999
 20
112.487409
 30
0.0
 11
162.6003719999999
 21
112.270413
 31
0.0
  0
LINE
  5
A04A
330
9F78
100
AcDbEntity
  8
1
  6
Continuous
100
AcDbLine
 10
162.225479
 20
110.910909
 30
0.0
 11
162.8254849999999
 21
110.63001
 31
0.0
  0
LINE
  5
A04B
330
9F78
100
AcDbEntity
  8
1
  6
Continuous
100
AcDbLine
 10
162.2254639999999
 20
110.4497199999999
 30
0.0
 11
162.43866
 21
110.3498199999998
 31
0.0
  0
LINE
  5
A04C
330
9F78
100
AcDbEntity
  8
1
  6
Continuous
100
AcDbLine
 10
162.225479
 20
109.699109
 30
0.0
 11
162.82547
 21
109.591809
 31
0.0
  0
LINE
  5
A04D
330
9F78
100
AcDbEntity
  8
1
  6
Continuous
100
AcDbLine
 10
162.2254489999999
 20
109.3210959999999
 30
0.0
 11
162.416244
 21
109.287
 31
0.0
  0
LINE
  5
A04E
330
9F78
100
AcDbEntity
  8
1
  6
Continuous
100
AcDbLine
 10
144.9882659999999
 20
125.9480179999999
 30
0.0
 11
144.9882659999999
 21
100.5446139999999
 31
0.0
  0
LINE
  5
A04F
330
9F78
100
AcDbEntity
  8
1
  6
Continuous
100
AcDbLine
 10
148.4882659999998
 20
124.246327
 30
0.0
 11
148.4882659999998
 21
102.24632
 31
0.0
  0
LINE
  5
A050
330
9F78
100
AcDbEntity
  8
1
  6
Continuous
100
AcDbLine
 10
172.6144709999999
 20
118.746327
 30
0.0
 11
172.6144709999999
 21
107.7463199999999
 31
0.0
  0
LINE
  5
A051
330
9F78
100
AcDbEntity
  8
1
  6
Continuous
100
AcDbLine
 10
176.8144679999998
 20
118.746327
 30
0.0
 11
176.8144679999998
 21
107.7463199999999
 31
0.0
  0
LINE
  5
A052
330
9F78
100
AcDbEntity
  8
4
  6
CENTER
100
AcDbLine
 10
140.687668
 20
113.2463199999999
 30
0.0
 11
180.3351289999999
 21
113.2463199999999
 31
0.0
  0
LINE
  5
A053
330
9F78
100
AcDbEntity
  8
1
  6
Continuous
100
AcDbLine
 10
144.9882659999999
 20
100.5446139999999
 30
0.0
 11
147.505783
 21
100.5446139999999
 31
0.0
  0
LINE
  5
A054
330
9F78
100
AcDbEntity
  8
1
  6
Continuous
100
AcDbLine
 10
144.9882659999999
 20
125.9480179999999
 30
0.0
 11
147.505783
 21
125.9480179999999
 31
0.0
  0
LINE
  5
A055
330
9F78
100
AcDbEntity
  8
1
  6
Continuous
100
AcDbLine
 10
144.9882659999999
 20
119.5971579999999
 30
0.0
 11
147.505783
 21
119.5971579999999
 31
0.0
  0
LINE
  5
A056
330
9F78
100
AcDbEntity
  8
1
  6
Continuous
100
AcDbLine
 10
144.9882659999999
 20
106.8954669999999
 30
0.0
 11
147.505783
 21
106.8954669999999
 31
0.0
  0
LINE
  5
A057
330
9F78
100
AcDbEntity
  8
1
  6
Continuous
100
AcDbLine
 10
147.505783
 20
100.5446139999999
 30
0.0
 11
148.4882659999998
 21
102.246305
 31
0.0
  0
LINE
  5
A058
330
9F78
100
AcDbEntity
  8
1
  6
Continuous
100
AcDbLine
 10
147.505783
 20
125.948033
 30
0.0
 11
148.4882659999998
 21
124.246327
 31
0.0
  0
LINE
  5
A059
330
9F78
100
AcDbEntity
  8
1
  6
Continuous
100
AcDbLine
 10
173.1057129999999
 20
119.5971579999999
 30
0.0
 11
176.323227
 21
119.5971579999999
 31
0.0
  0
LINE
  5
A05A
330
9F78
100
AcDbEntity
  8
1
  6
Continuous
100
AcDbLine
 10
173.1057129999999
 20
116.4217429999999
 30
0.0
 11
176.323227
 21
116.4217429999999
 31
0.0
  0
LINE
  5
A05B
330
9F78
100
AcDbEntity
  8
1
  6
Continuous
100
AcDbLine
 10
173.1057129999999
 20
110.0708899999999
 30
0.0
 11
176.323227
 21
110.0708899999999
 31
0.0
  0
LINE
  5
A05C
330
9F78
100
AcDbEntity
  8
1
  6
Continuous
100
AcDbLine
 10
173.1057129999999
 20
106.895459
 30
0.0
 11
176.323227
 21
106.895459
 31
0.0
  0
LINE
  5
A05D
330
9F78
100
AcDbEntity
  8
1
  6
Continuous
100
AcDbLine
 10
176.323227
 20
119.5971879999998
 30
0.0
 11
176.8144679999998
 21
118.746327
 31
0.0
  0
LINE
  5
A05E
330
9F78
100
AcDbEntity
  8
1
  6
Continuous
100
AcDbLine
 10
172.6144709999999
 20
118.746312
 30
0.0
 11
173.1057129999999
 21
119.5971729999999
 31
0.0
  0
LINE
  5
A05F
330
9F78
100
AcDbEntity
  8
1
  6
Continuous
100
AcDbLine
 10
172.6144709999999
 20
107.7463199999999
 30
0.0
 11
173.1057129999999
 21
106.895459
 31
0.0
  0
LINE
  5
A060
330
9F78
100
AcDbEntity
  8
1
  6
Continuous
100
AcDbLine
 10
176.323227
 20
106.895452
 30
0.0
 11
176.8144679999998
 21
107.7463199999999
 31
0.0
  0
LINE
  5
A061
330
9F78
100
AcDbEntity
  8
1
  6
Continuous
100
AcDbLine
 10
112.363907
 20
185.94632
 30
0.0
 11
113.363907
 21
184.9463199999999
 31
0.0
  0
LINE
  5
A062
330
9F78
100
AcDbEntity
  8
1
  6
Continuous
100
AcDbLine
 10
113.3638919999998
 20
181.546304
 30
0.0
 11
112.3638919999998
 21
180.546304
 31
0.0
  0
LINE
  5
A063
330
9F78
100
AcDbEntity
  8
1
  6
Continuous
100
AcDbLine
 10
112.363907
 20
185.94632
 30
0.0
 11
112.363907
 21
180.54632
 31
0.0
  0
LINE
  5
A064
330
9F78
100
AcDbEntity
  8
1
  6
Continuous
100
AcDbLine
 10
112.363907
 20
116.74632
 30
0.0
 11
113.363907
 21
115.74632
 31
0.0
  0
LINE
  5
A065
330
9F78
100
AcDbEntity
  8
1
  6
Continuous
100
AcDbLine
 10
113.363907
 20
110.7463269999998
 30
0.0
 11
112.363907
 21
109.7463199999999
 31
0.0
  0
LINE
  5
A066
330
9F78
100
AcDbEntity
  8
1
  6
Continuous
100
AcDbLine
 10
112.363907
 20
116.74632
 30
0.0
 11
112.363907
 21
115.473434
 31
0.0
  0
LINE
  5
A067
330
9F78
100
AcDbEntity
  8
1
  6
Continuous
100
AcDbLine
 10
104.3917009999999
 20
116.74632
 30
0.0
 11
104.3917009999999
 21
115.473434
 31
0.0
  0
LINE
  5
A068
330
9F78
100
AcDbEntity
  8
2
  6
Continuous
100
AcDbLine
 10
104.3917009999999
 20
116.3403219999999
 30
0.0
 11
112.7699049999999
 21
116.3403219999999
 31
0.0
  0
LINE
  5
A069
330
9F78
100
AcDbEntity
  8
2
  6
Continuous
100
AcDbLine
 10
104.3917009999999
 20
110.152318
 30
0.0
 11
112.769902
 21
110.152318
 31
0.0
  0
LINE
  5
A06A
330
9F78
100
AcDbEntity
  8
2
  6
Continuous
100
AcDbLine
 10
104.0639039999999
 20
109.9630639999999
 30
0.0
 11
104.3917009999999
 21
110.152318
 31
0.0
  0
LINE
  5
A06B
330
9F78
100
AcDbEntity
  8
2
  6
Continuous
100
AcDbLine
 10
104.0639039999999
 20
116.5295739999999
 30
0.0
 11
104.3917079999998
 21
116.3403219999999
 31
0.0
  0
LINE
  5
A06C
330
9F78
100
AcDbEntity
  8
1
  6
Continuous
100
AcDbLine
 10
104.3917009999999
 20
111.0192239999998
 30
0.0
 11
104.3917009999999
 21
109.7463199999999
 31
0.0
  0
LINE
  5
A06D
330
9F78
100
AcDbEntity
  8
1
  6
Continuous
100
AcDbLine
 10
112.363907
 20
111.0192239999998
 30
0.0
 11
112.363907
 21
109.7463199999999
 31
0.0
  0
LINE
  5
A06E
330
9F78
100
AcDbEntity
  8
2
  6
Continuous
100
AcDbLine
 10
86.493905
 20
122.204824
 30
0.0
 11
95.069692
 21
122.204824
 31
0.0
  0
LINE
  5
A06F
330
9F78
100
AcDbEntity
  8
2
  6
Continuous
100
AcDbLine
 10
86.493905
 20
104.287816
 30
0.0
 11
95.06968399999999
 21
104.287816
 31
0.0
  0
LINE
  5
A070
330
9F78
100
AcDbEntity
  8
2
  6
Continuous
100
AcDbLine
 10
85.96390500000003
 20
103.9818139999999
 30
0.0
 11
86.493905
 21
104.287816
 31
0.0
  0
LINE
  5
A071
330
9F78
100
AcDbEntity
  8
2
  6
Continuous
100
AcDbLine
 10
85.96390500000003
 20
122.510831
 30
0.0
 11
86.493905
 21
122.204824
 31
0.0
  0
LINE
  5
A072
330
9F78
100
AcDbEntity
  8
1
  6
Continuous
100
AcDbLine
 10
104.0639039999999
 20
185.94632
 30
0.0
 11
104.0639039999999
 21
180.54632
 31
0.0
  0
LINE
  5
A073
330
9F78
100
AcDbEntity
  8
1
  6
Continuous
100
AcDbLine
 10
104.3917009999999
 20
185.94632
 30
0.0
 11
104.3917009999999
 21
180.54632
 31
0.0
  0
LINE
  5
A074
330
9F78
100
AcDbEntity
  8
1
  6
Continuous
100
AcDbLine
 10
231.780914
 20
110.070905
 30
0.0
 11
226.2808989999999
 21
106.895475
 31
0.0
  0
LINE
  5
A075
330
9F78
100
AcDbEntity
  8
1
  6
Continuous
100
AcDbLine
 10
226.280914
 20
119.5971879999998
 30
0.0
 11
220.780899
 21
116.421758
 31
0.0
  0
LINE
  5
A076
330
9F78
100
AcDbEntity
  8
1
  6
Continuous
100
AcDbLine
 10
220.780899
 20
110.070897
 30
0.0
 11
220.780899
 21
116.4217429999999
 31
0.0
  0
LINE
  5
A077
330
9F78
100
AcDbEntity
  8
1
  6
Continuous
100
AcDbLine
 10
231.780899
 20
110.070897
 30
0.0
 11
231.780899
 21
116.4217429999999
 31
0.0
  0
LINE
  5
A078
330
9F78
100
AcDbEntity
  8
1
  6
Continuous
100
AcDbLine
 10
226.2808989999999
 20
106.895459
 30
0.0
 11
220.780899
 21
110.0708899999999
 31
0.0
  0
LINE
  5
A079
330
9F78
100
AcDbEntity
  8
1
  6
Continuous
100
AcDbLine
 10
231.780899
 20
116.4217429999999
 30
0.0
 11
226.2808989999999
 21
119.5971729999999
 31
0.0
  0
LINE
  5
A07A
330
9F78
100
AcDbEntity
  8
1
  6
Continuous
100
AcDbLine
 10
237.280899
 20
106.8954669999999
 30
0.0
 11
226.2808839999999
 21
100.544606
 31
0.0
  0
LINE
  5
A07B
330
9F78
100
AcDbEntity
  8
1
  6
Continuous
100
AcDbLine
 10
226.2808989999999
 20
125.948033
 30
0.0
 11
215.280884
 21
119.5971729999999
 31
0.0
  0
LINE
  5
A07C
330
9F78
100
AcDbEntity
  8
1
  6
Continuous
100
AcDbLine
 10
215.280899
 20
106.8954669999999
 30
0.0
 11
215.280899
 21
119.5971729999999
 31
0.0
  0
LINE
  5
A07D
330
9F78
100
AcDbEntity
  8
1
  6
Continuous
100
AcDbLine
 10
237.280899
 20
106.8954669999999
 30
0.0
 11
237.280899
 21
119.5971729999999
 31
0.0
  0
LINE
  5
A07E
330
9F78
100
AcDbEntity
  8
1
  6
Continuous
100
AcDbLine
 10
226.2808989999999
 20
100.5446139999999
 30
0.0
 11
215.280899
 21
106.8954669999999
 31
0.0
  0
LINE
  5
A07F
330
9F78
100
AcDbEntity
  8
1
  6
Continuous
100
AcDbLine
 10
237.280899
 20
119.5971729999999
 30
0.0
 11
226.2808989999999
 21
125.9480179999999
 31
0.0
  0
LINE
  5
A080
330
9F78
100
AcDbEntity
  8
1
  6
Continuous
100
AcDbLine
 10
79.66390199999998
 20
34.62451699999999
 30
0.0
 11
79.66390199999998
 21
51.868215
 31
0.0
  0
LINE
  5
A081
330
9F78
100
AcDbEntity
  8
1
  6
Continuous
100
AcDbLine
 10
85.96390500000003
 20
32.24631199999999
 30
0.0
 11
84.763908
 21
32.24631199999999
 31
0.0
  0
LINE
  5
A082
330
9F78
100
AcDbEntity
  8
1
  6
Continuous
100
AcDbLine
 10
84.763908
 20
32.24631999999999
 30
0.0
 11
79.66390199999998
 21
34.62451999999999
 31
0.0
  0
LINE
  5
A083
330
9F78
100
AcDbEntity
  8
1
  6
Continuous
100
AcDbLine
 10
101.263908
 20
35.34631799999999
 30
0.0
 11
101.263908
 21
39.346318
 31
0.0
  0
LINE
  5
A084
330
9F78
100
AcDbEntity
  8
1
  6
Continuous
100
AcDbLine
 10
85.96390500000003
 20
54.246312
 30
0.0
 11
84.763908
 21
54.246312
 31
0.0
  0
LINE
  5
A085
330
9F78
100
AcDbEntity
  8
1
  6
Continuous
100
AcDbLine
 10
84.763908
 20
54.246327
 30
0.0
 11
79.66389499999998
 21
51.86822199999999
 31
0.0
  0
LINE
  5
A086
330
9F78
100
AcDbEntity
  8
1
  6
Continuous
100
AcDbLine
 10
85.96390500000003
 20
54.246327
 30
0.0
 11
85.96390500000003
 21
32.246327
 31
0.0
  0
LINE
  5
A087
330
9F78
100
AcDbEntity
  8
1
  6
Continuous
100
AcDbLine
 10
84.763908
 20
32.246327
 30
0.0
 11
84.763908
 21
54.246327
 31
0.0
  0
LINE
  5
A088
330
9F78
100
AcDbEntity
  8
1
  6
Continuous
100
AcDbLine
 10
103.063904
 20
39.326318
 30
0.0
 11
101.263908
 21
39.346318
 31
0.0
  0
LINE
  5
A089
330
9F78
100
AcDbEntity
  8
1
  6
Continuous
100
AcDbLine
 10
103.063904
 20
47.166321
 30
0.0
 11
101.263908
 21
47.146321
 31
0.0
  0
LINE
  5
A08A
330
9F78
100
AcDbEntity
  8
1
  6
Continuous
100
AcDbLine
 10
113.363907
 20
41.54632
 30
0.0
 11
113.363907
 21
44.94632
 31
0.0
  0
LINE
  5
A08B
330
9F78
100
AcDbEntity
  8
4
  6
CENTER
100
AcDbLine
 10
77.929512
 20
43.24631199999998
 30
0.0
 11
115.2554929999999
 21
43.24631199999998
 31
0.0
  0
LINE
  5
A08C
330
9F78
100
AcDbEntity
  8
1
  6
Continuous
100
AcDbLine
 10
101.413902
 20
49.746327
 30
0.0
 11
101.413902
 21
47.146321
 31
0.0
  0
LINE
  5
A08D
330
9F78
100
AcDbEntity
  8
1
  6
Continuous
100
AcDbLine
 10
101.263901
 20
36.59631499999999
 30
0.0
 11
101.4138949999999
 21
36.74631199999998
 31
0.0
  0
LINE
  5
A08E
330
9F78
100
AcDbEntity
  8
1
  6
Continuous
100
AcDbLine
 10
101.4139169999999
 20
49.74631999999999
 30
0.0
 11
101.263908
 21
49.896329
 31
0.0
  0
LINE
  5
A08F
330
9F78
100
AcDbEntity
  8
1
  6
Continuous
100
AcDbLine
 10
103.363902
 20
35.546315
 30
0.0
 11
101.7638959999999
 21
35.546315
 31
0.0
  0
LINE
  5
A090
330
9F78
100
AcDbEntity
  8
1
  6
Continuous
100
AcDbLine
 10
101.7638959999999
 20
35.546315
 30
0.0
 11
101.7638959999999
 21
39.346318
 31
0.0
  0
LINE
  5
A091
330
9F78
100
AcDbEntity
  8
1
  6
Continuous
100
AcDbLine
 10
103.363902
 20
35.546315
 30
0.0
 11
103.363902
 21
50.768038
 31
0.0
  0
LINE
  5
A092
330
9F78
100
AcDbEntity
  8
1
  6
Continuous
100
AcDbLine
 10
85.96390500000003
 20
35.34631799999999
 30
0.0
 11
101.263908
 21
35.34631799999999
 31
0.0
  0
LINE
  5
A093
330
9F78
100
AcDbEntity
  8
1
  6
Continuous
100
AcDbLine
 10
85.96390500000003
 20
51.146321
 30
0.0
 11
101.263908
 21
51.146321
 31
0.0
  0
LINE
  5
A094
330
9F78
100
AcDbEntity
  8
1
  6
Continuous
100
AcDbLine
 10
103.363902
 20
45.94631999999999
 30
0.0
 11
112.363907
 21
45.94631999999999
 31
0.0
  0
LINE
  5
A095
330
9F78
100
AcDbEntity
  8
1
  6
Continuous
100
AcDbLine
 10
103.363902
 20
40.54632
 30
0.0
 11
112.363907
 21
40.54632
 31
0.0
  0
LINE
  5
A096
330
9F78
100
AcDbEntity
  8
4
  6
CENTER
100
AcDbLine
 10
141.139069
 20
43.24631199999998
 30
0.0
 11
180.3351289999999
 21
43.24631199999998
 31
0.0
  0
LINE
  5
A097
330
9F78
100
AcDbEntity
  8
1
  6
Continuous
100
AcDbLine
 10
160.825455
 20
39.591909
 30
0.0
 11
160.825455
 21
39.97711699999999
 31
0.0
  0
LINE
  5
A098
330
9F78
100
AcDbEntity
  8
1
  6
Continuous
100
AcDbLine
 10
162.825455
 20
39.94962000000001
 30
0.0
 11
162.825455
 21
40.334813
 31
0.0
  0
LINE
  5
A099
330
9F78
100
AcDbEntity
  8
1
  6
Continuous
100
AcDbLine
 10
161.425461
 20
36.74631199999998
 30
0.0
 11
161.425461
 21
49.74631200000001
 31
0.0
  0
LINE
  5
A09A
330
9F78
100
AcDbEntity
  8
1
  6
Continuous
100
AcDbLine
 10
162.2254639999999
 20
36.74631199999998
 30
0.0
 11
162.2254639999999
 21
49.74631200000001
 31
0.0
  0
LINE
  5
A09B
330
9F78
100
AcDbEntity
  8
1
  6
Continuous
100
AcDbLine
 10
161.425461
 20
36.74631199999998
 30
0.0
 11
162.2254639999999
 21
36.74631199999998
 31
0.0
  0
LINE
  5
A09C
330
9F78
100
AcDbEntity
  8
1
  6
Continuous
100
AcDbLine
 10
161.425461
 20
49.74631200000001
 30
0.0
 11
162.2254639999999
 21
49.74631200000001
 31
0.0
  0
LINE
  5
A09D
330
9F78
100
AcDbEntity
  8
1
  6
Continuous
100
AcDbLine
 10
160.825455
 20
39.591924
 30
0.0
 11
161.4254449999999
 21
39.699224
 31
0.0
  0
LINE
  5
A09E
330
9F78
100
AcDbEntity
  8
1
  6
Continuous
100
AcDbLine
 10
161.2243499999999
 20
40.729024
 30
0.0
 11
161.4254449999999
 21
40.82322
 31
0.0
  0
LINE
  5
A09F
330
9F78
100
AcDbEntity
  8
1
  6
Continuous
100
AcDbLine
 10
161.304169
 20
42.54761199999999
 30
0.0
 11
161.425461
 21
42.617807
 31
0.0
  0
LINE
  5
A0A0
330
9F78
100
AcDbEntity
  8
1
  6
Continuous
100
AcDbLine
 10
160.8254699999999
 20
44.926099
 30
0.0
 11
161.425461
 21
45.207097
 31
0.0
  0
LINE
  5
A0A1
330
9F78
100
AcDbEntity
  8
1
  6
Continuous
100
AcDbLine
 10
160.825455
 20
46.54311899999998
 30
0.0
 11
161.4254449999999
 21
46.650418
 31
0.0
  0
LINE
  5
A0A2
330
9F78
100
AcDbEntity
  8
1
  6
Continuous
100
AcDbLine
 10
160.825455
 20
39.97711999999999
 30
0.0
 11
161.4254449999999
 21
40.08442
 31
0.0
  0
LINE
  5
A0A3
330
9F78
100
AcDbEntity
  8
1
  6
Continuous
100
AcDbLine
 10
160.828461
 20
41.174211
 30
0.0
 11
161.425476
 21
41.45381299999999
 31
0.0
  0
LINE
  5
A0A4
330
9F78
100
AcDbEntity
  8
1
  6
Continuous
100
AcDbLine
 10
160.904861
 20
43.240819
 30
0.0
 11
161.425461
 21
43.542218
 31
0.0
  0
LINE
  5
A0A5
330
9F78
100
AcDbEntity
  8
1
  6
Continuous
100
AcDbLine
 10
160.825455
 20
45.38740999999999
 30
0.0
 11
161.425461
 21
45.66831299999999
 31
0.0
  0
LINE
  5
A0A6
330
9F78
100
AcDbEntity
  8
1
  6
Continuous
100
AcDbLine
 10
160.825455
 20
46.921121
 30
0.0
 11
161.4254449999999
 21
47.028421
 31
0.0
  0
LINE
  5
A0A7
330
9F78
100
AcDbEntity
  8
1
  6
Continuous
100
AcDbLine
 10
160.825455
 20
44.926107
 30
0.0
 11
160.825455
 21
45.38740999999999
 31
0.0
  0
LINE
  5
A0A8
330
9F78
100
AcDbEntity
  8
1
  6
Continuous
100
AcDbLine
 10
160.825455
 20
46.543111
 30
0.0
 11
160.825455
 21
46.92111699999998
 31
0.0
  0
LINE
  5
A0A9
330
9F78
100
AcDbEntity
  8
1
  6
Continuous
100
AcDbLine
 10
160.8401639999998
 20
41.16100399999999
 30
0.0
 11
161.2360689999999
 21
40.71589799999999
 31
0.0
  0
LINE
  5
A0AA
330
9F78
100
AcDbEntity
  8
1
  6
Continuous
100
AcDbLine
 10
162.429581
 20
41.92389799999999
 30
0.0
 11
162.8254849999999
 21
41.47879099999999
 31
0.0
  0
LINE
  5
A0AB
330
9F78
100
AcDbEntity
  8
1
  6
Continuous
100
AcDbLine
 10
160.904861
 20
43.24081500000001
 30
0.0
 11
161.304169
 21
42.54760499999997
 31
0.0
  0
LINE
  5
A0AC
330
9F78
100
AcDbEntity
  8
1
  6
Continuous
100
AcDbLine
 10
162.904861
 20
43.474111
 30
0.0
 11
162.6003569999998
 21
44.22219199999999
 31
0.0
  0
LINE
  5
A0AD
330
9F78
100
AcDbEntity
  8
1
  6
Continuous
100
AcDbLine
 10
162.2254489999999
 20
39.84232099999999
 30
0.0
 11
162.825455
 21
39.94962000000001
 31
0.0
  0
LINE
  5
A0AE
330
9F78
100
AcDbEntity
  8
1
  6
Continuous
100
AcDbLine
 10
162.2254489999999
 20
40.22751699999999
 30
0.0
 11
162.825455
 21
40.334817
 31
0.0
  0
LINE
  5
A0AF
330
9F78
100
AcDbEntity
  8
1
  6
Continuous
100
AcDbLine
 10
162.2254639999999
 20
41.197812
 30
0.0
 11
162.825455
 21
41.47880999999999
 31
0.0
  0
LINE
  5
A0B0
330
9F78
100
AcDbEntity
  8
1
  6
Continuous
100
AcDbLine
 10
162.2254489999999
 20
41.828405
 30
0.0
 11
162.42955
 21
41.923905
 31
0.0
  0
LINE
  5
A0B1
330
9F78
100
AcDbEntity
  8
1
  6
Continuous
100
AcDbLine
 10
162.2254639999999
 20
43.08091499999998
 30
0.0
 11
162.904861
 21
43.474114
 31
0.0
  0
LINE
  5
A0B2
330
9F78
100
AcDbEntity
  8
1
  6
Continuous
100
AcDbLine
 10
162.2254489999999
 20
44.00522
 30
0.0
 11
162.6003569999998
 21
44.22222199999999
 31
0.0
  0
LINE
  5
A0B3
330
9F78
100
AcDbEntity
  8
1
  6
Continuous
100
AcDbLine
 10
162.2254639999999
 20
45.581708
 30
0.0
 11
162.82547
 21
45.862611
 31
0.0
  0
LINE
  5
A0B4
330
9F78
100
AcDbEntity
  8
1
  6
Continuous
100
AcDbLine
 10
162.2254639999999
 20
46.04291299999998
 30
0.0
 11
162.438766
 21
46.14281199999999
 31
0.0
  0
LINE
  5
A0B5
330
9F78
100
AcDbEntity
  8
1
  6
Continuous
100
AcDbLine
 10
162.2254489999999
 20
46.793531
 30
0.0
 11
162.825455
 21
46.90083
 31
0.0
  0
LINE
  5
A0B6
330
9F78
100
AcDbEntity
  8
1
  6
Continuous
100
AcDbLine
 10
162.2254639999999
 20
47.17152099999998
 30
0.0
 11
162.4163669999998
 21
47.205621
 31
0.0
  0
LINE
  5
A0B7
330
9F78
100
AcDbEntity
  8
1
  6
Continuous
100
AcDbLine
 10
172.6144709999999
 20
37.74631199999999
 30
0.0
 11
172.6144709999999
 21
48.74631199999999
 31
0.0
  0
LINE
  5
A0B8
330
9F78
100
AcDbEntity
  8
1
  6
Continuous
100
AcDbLine
 10
176.8144679999998
 20
37.74631199999999
 30
0.0
 11
176.8144679999998
 21
48.74631199999999
 31
0.0
  0
LINE
  5
A0B9
330
9F78
100
AcDbEntity
  8
1
  6
Continuous
100
AcDbLine
 10
144.9882659999999
 20
32.24631199999999
 30
0.0
 11
144.9882659999999
 21
54.246312
 31
0.0
  0
LINE
  5
A0BA
330
9F78
100
AcDbEntity
  8
1
  6
Continuous
100
AcDbLine
 10
148.4882659999998
 20
32.24631199999999
 30
0.0
 11
148.4882659999998
 21
54.246312
 31
0.0
  0
LINE
  5
A0BB
330
9F78
100
AcDbEntity
  8
1
  6
Continuous
100
AcDbLine
 10
147.52597
 20
43.24631199999998
 30
0.0
 11
144.9882659999999
 21
43.24631199999998
 31
0.0
  0
LINE
  5
A0BC
330
9F78
100
AcDbEntity
  8
1
  6
Continuous
100
AcDbLine
 10
144.9882659999999
 20
54.246312
 30
0.0
 11
148.4882659999998
 21
54.246312
 31
0.0
  0
LINE
  5
A0BD
330
9F78
100
AcDbEntity
  8
1
  6
Continuous
100
AcDbLine
 10
144.9882659999999
 20
32.24631199999999
 30
0.0
 11
148.4882659999998
 21
32.24631199999999
 31
0.0
  0
LINE
  5
A0BE
330
9F78
100
AcDbEntity
  8
1
  6
Continuous
100
AcDbLine
 10
172.6144709999999
 20
37.74631199999999
 30
0.0
 11
176.8144679999998
 21
37.74631199999999
 31
0.0
  0
LINE
  5
A0BF
330
9F78
100
AcDbEntity
  8
1
  6
Continuous
100
AcDbLine
 10
172.6144709999999
 20
48.74631199999999
 30
0.0
 11
176.8144679999998
 21
48.74631199999999
 31
0.0
  0
LINE
  5
A0C0
330
9F78
100
AcDbEntity
  8
1
  6
Continuous
100
AcDbLine
 10
176.323227
 20
43.24631199999998
 30
0.0
 11
173.1057129999999
 21
43.24631199999998
 31
0.0
  0
LINE
  5
A0C1
330
9F78
100
AcDbEntity
  8
1
  6
Continuous
100
AcDbLine
 10
112.363907
 20
40.54632
 30
0.0
 11
113.363907
 21
41.54632
 31
0.0
  0
LINE
  5
A0C2
330
9F78
100
AcDbEntity
  8
1
  6
Continuous
100
AcDbLine
 10
113.3638919999998
 20
44.94632
 30
0.0
 11
112.3638919999998
 21
45.94631999999999
 31
0.0
  0
LINE
  5
A0C3
330
9F78
100
AcDbEntity
  8
1
  6
Continuous
100
AcDbLine
 10
112.363907
 20
40.54632
 30
0.0
 11
112.363907
 21
45.94631999999999
 31
0.0
  0
LINE
  5
A0C4
330
9F78
100
AcDbEntity
  8
1
  6
Continuous
100
AcDbLine
 10
104.0639039999999
 20
40.54632
 30
0.0
 11
104.0639039999999
 21
45.94631999999999
 31
0.0
  0
LINE
  5
A0C5
330
9F78
100
AcDbEntity
  8
1
  6
Continuous
100
AcDbLine
 10
104.3917009999999
 20
40.54632
 30
0.0
 11
104.3917009999999
 21
45.94631999999999
 31
0.0
  0
LINE
  5
A0C6
330
9F78
100
AcDbEntity
  8
1
  6
Continuous
100
AcDbLine
 10
103.063904
 20
47.166321
 30
0.0
 11
103.063904
 21
39.326318
 31
0.0
  0
LINE
  5
A0C7
330
9F78
100
AcDbEntity
  8
1
  6
Continuous
100
AcDbLine
 10
101.7638959999999
 20
47.146321
 30
0.0
 11
101.7638959999999
 21
50.768038
 31
0.0
  0
LINE
  5
A0C8
330
9F78
100
AcDbEntity
  8
1
  6
Continuous
100
AcDbLine
 10
101.413902
 20
39.346318
 30
0.0
 11
101.413902
 21
36.746327
 31
0.0
  0
LINE
  5
A0C9
330
9F78
100
AcDbEntity
  8
1
  6
Continuous
100
AcDbLine
 10
101.263908
 20
47.146321
 30
0.0
 11
101.263908
 21
51.146321
 31
0.0
  0
LINE
  5
A0CA
330
9F78
100
AcDbEntity
  8
1
  6
Continuous
100
AcDbLine
 10
18.712208
 20
106.8954669999999
 30
0.0
 11
29.712208
 21
100.5446139999999
 31
0.0
  0
LINE
  5
A0CB
330
9F78
100
AcDbEntity
  8
1
  6
Continuous
100
AcDbLine
 10
29.712208
 20
100.5446139999999
 30
0.0
 11
40.71220799999998
 21
106.8954669999999
 31
0.0
  0
LINE
  5
A0CC
330
9F78
100
AcDbEntity
  8
1
  6
Continuous
100
AcDbLine
 10
40.71220799999998
 20
106.8954669999999
 30
0.0
 11
40.71220799999998
 21
119.5971729999999
 31
0.0
  0
LINE
  5
A0CD
330
9F78
100
AcDbEntity
  8
1
  6
Continuous
100
AcDbLine
 10
29.712208
 20
125.9480179999999
 30
0.0
 11
40.71220799999998
 21
119.5971729999999
 31
0.0
  0
LINE
  5
A0CE
330
9F78
100
AcDbEntity
  8
1
  6
Continuous
100
AcDbLine
 10
18.712208
 20
119.5971729999999
 30
0.0
 11
29.712208
 21
125.948033
 31
0.0
  0
LINE
  5
A0CF
330
9F78
100
AcDbEntity
  8
1
  6
Continuous
100
AcDbLine
 10
18.712208
 20
106.8954669999999
 30
0.0
 11
18.712208
 21
119.5971729999999
 31
0.0
  0
LINE
  5
A0D0
330
9F78
100
AcDbEntity
  8
1
  6
Continuous
100
AcDbLine
 10
355.7979089999999
 20
117.0764209999999
 30
0.0
 11
354.197903
 21
117.0764209999999
 31
0.0
  0
LINE
  5
A0D1
330
9F78
100
AcDbEntity
  8
1
  6
Continuous
100
AcDbLine
 10
355.7979089999999
 20
109.41612
 30
0.0
 11
354.197903
 21
109.41612
 31
0.0
  0
LINE
  5
A0D2
330
9F78
100
AcDbEntity
  8
1
  6
Continuous
100
AcDbLine
 10
296.7363129999998
 20
116.9007159999999
 30
0.0
 11
296.7363129999998
 21
116.515523
 31
0.0
  0
LINE
  5
A0D3
330
9F78
100
AcDbEntity
  8
1
  6
Continuous
100
AcDbLine
 10
294.7363129999999
 20
116.543019
 30
0.0
 11
294.7363129999999
 21
116.1578269999999
 31
0.0
  0
LINE
  5
A0D4
330
9F78
100
AcDbEntity
  8
1
  6
Continuous
100
AcDbLine
 10
296.136337
 20
119.7463269999999
 30
0.0
 11
296.136337
 21
106.7463199999999
 31
0.0
  0
LINE
  5
A0D5
330
9F78
100
AcDbEntity
  8
1
  6
Continuous
100
AcDbLine
 10
295.336349
 20
119.7463269999999
 30
0.0
 11
295.336349
 21
106.7463199999999
 31
0.0
  0
LINE
  5
A0D6
330
9F78
100
AcDbEntity
  8
1
  6
Continuous
100
AcDbLine
 10
296.136337
 20
119.7463269999999
 30
0.0
 11
295.336349
 21
119.7463269999999
 31
0.0
  0
LINE
  5
A0D7
330
9F78
100
AcDbEntity
  8
1
  6
Continuous
100
AcDbLine
 10
296.136337
 20
106.7463199999999
 30
0.0
 11
295.336349
 21
106.7463199999999
 31
0.0
  0
LINE
  5
A0D8
330
9F78
100
AcDbEntity
  8
1
  6
Continuous
100
AcDbLine
 10
296.7363129999998
 20
116.9007159999999
 30
0.0
 11
296.1363069999998
 21
116.7934159999998
 31
0.0
  0
LINE
  5
A0D9
330
9F78
100
AcDbEntity
  8
1
  6
Continuous
100
AcDbLine
 10
296.3375399999998
 20
115.763631
 30
0.0
 11
296.1363069999998
 21
115.669423
 31
0.0
  0
LINE
  5
A0DA
330
9F78
100
AcDbEntity
  8
1
  6
Continuous
100
AcDbLine
 10
296.257645
 20
113.9450499999999
 30
0.0
 11
296.136337
 21
113.874837
 31
0.0
  0
LINE
  5
A0DB
330
9F78
100
AcDbEntity
  8
1
  6
Continuous
100
AcDbLine
 10
296.7363129999998
 20
111.5665029999999
 30
0.0
 11
296.136337
 21
111.285611
 31
0.0
  0
LINE
  5
A0DC
330
9F78
100
AcDbEntity
  8
1
  6
Continuous
100
AcDbLine
 10
296.7363129999998
 20
109.9495969999999
 30
0.0
 11
296.136337
 21
109.842206
 31
0.0
  0
LINE
  5
A0DD
330
9F78
100
AcDbEntity
  8
1
  6
Continuous
100
AcDbLine
 10
296.7363129999998
 20
116.515523
 30
0.0
 11
296.1363069999998
 21
116.4082229999998
 31
0.0
  0
LINE
  5
A0DE
330
9F78
100
AcDbEntity
  8
1
  6
Continuous
100
AcDbLine
 10
296.733444
 20
115.318425
 30
0.0
 11
296.136337
 21
115.038816
 31
0.0
  0
LINE
  5
A0DF
330
9F78
100
AcDbEntity
  8
1
  6
Continuous
100
AcDbLine
 10
296.6570279999999
 20
113.251836
 30
0.0
 11
296.1363069999998
 21
112.950429
 31
0.0
  0
LINE
  5
A0E0
330
9F78
100
AcDbEntity
  8
1
  6
Continuous
100
AcDbLine
 10
296.7363129999998
 20
111.1051989999999
 30
0.0
 11
296.1363069999998
 21
110.8242999999998
 31
0.0
  0
LINE
  5
A0E1
330
9F78
100
AcDbEntity
  8
1
  6
Continuous
100
AcDbLine
 10
296.7363429999998
 20
109.5715149999999
 30
0.0
 11
296.1363069999998
 21
109.464215
 31
0.0
  0
LINE
  5
A0E2
330
9F78
100
AcDbEntity
  8
1
  6
Continuous
100
AcDbLine
 10
296.7363129999998
 20
111.5665179999999
 30
0.0
 11
296.7363129999998
 21
111.1052219999999
 31
0.0
  0
LINE
  5
A0E3
330
9F78
100
AcDbEntity
  8
1
  6
Continuous
100
AcDbLine
 10
296.7363129999998
 20
109.9496199999999
 30
0.0
 11
296.7363129999998
 21
109.5715229999999
 31
0.0
  0
LINE
  5
A0E4
330
9F78
100
AcDbEntity
  8
1
  6
Continuous
100
AcDbLine
 10
296.7216339999998
 20
115.331609
 30
0.0
 11
296.3257290000001
 21
115.776708
 31
0.0
  0
LINE
  5
A0E5
330
9F78
100
AcDbEntity
  8
1
  6
Continuous
100
AcDbLine
 10
295.1322169999999
 20
114.5687229999999
 30
0.0
 11
294.7363129999999
 21
115.013829
 31
0.0
  0
LINE
  5
A0E6
330
9F78
100
AcDbEntity
  8
1
  6
Continuous
100
AcDbLine
 10
296.6570279999999
 20
113.2518279999999
 30
0.0
 11
296.2576139999999
 21
113.945035
 31
0.0
  0
LINE
  5
A0E7
330
9F78
100
AcDbEntity
  8
1
  6
Continuous
100
AcDbLine
 10
294.6570589999998
 20
113.018514
 30
0.0
 11
294.9614409999999
 21
112.2704289999999
 31
0.0
  0
LINE
  5
A0E8
330
9F78
100
AcDbEntity
  8
1
  6
Continuous
100
AcDbLine
 10
295.336319
 20
116.650319
 30
0.0
 11
294.7363129999999
 21
116.543019
 31
0.0
  0
LINE
  5
A0E9
330
9F78
100
AcDbEntity
  8
1
  6
Continuous
100
AcDbLine
 10
295.336319
 20
116.265126
 30
0.0
 11
294.7363129999999
 21
116.1578269999999
 31
0.0
  0
LINE
  5
A0EA
330
9F78
100
AcDbEntity
  8
1
  6
Continuous
100
AcDbLine
 10
295.336319
 20
115.294835
 30
0.0
 11
294.7363129999999
 21
115.013837
 31
0.0
  0
LINE
  5
A0EB
330
9F78
100
AcDbEntity
  8
1
  6
Continuous
100
AcDbLine
 10
295.336319
 20
114.664205
 30
0.0
 11
295.1322169999999
 21
114.568708
 31
0.0
  0
LINE
  5
A0EC
330
9F78
100
AcDbEntity
  8
1
  6
Continuous
100
AcDbLine
 10
295.336319
 20
113.4117169999999
 30
0.0
 11
294.6570279999999
 21
113.018521
 31
0.0
  0
LINE
  5
A0ED
330
9F78
100
AcDbEntity
  8
1
  6
Continuous
100
AcDbLine
 10
295.336349
 20
112.487409
 30
0.0
 11
294.9614409999999
 21
112.270413
 31
0.0
  0
LINE
  5
A0EE
330
9F78
100
AcDbEntity
  8
1
  6
Continuous
100
AcDbLine
 10
295.336319
 20
110.910901
 30
0.0
 11
294.7363129999999
 21
110.6299939999999
 31
0.0
  0
LINE
  5
A0EF
330
9F78
100
AcDbEntity
  8
1
  6
Continuous
100
AcDbLine
 10
295.336319
 20
110.449704
 30
0.0
 11
295.123123
 21
110.349805
 31
0.0
  0
LINE
  5
A0F0
330
9F78
100
AcDbEntity
  8
1
  6
Continuous
100
AcDbLine
 10
295.336319
 20
109.699109
 30
0.0
 11
294.7363129999999
 21
109.591809
 31
0.0
  0
LINE
  5
A0F1
330
9F78
100
AcDbEntity
  8
1
  6
Continuous
100
AcDbLine
 10
295.336349
 20
109.3210879999999
 30
0.0
 11
295.1455539999999
 21
109.286992
 31
0.0
  0
LINE
  5
A0F2
330
9F78
100
AcDbEntity
  8
1
  6
Continuous
100
AcDbLine
 10
312.5735319999999
 20
125.9480179999999
 30
0.0
 11
312.5735319999999
 21
100.5446139999999
 31
0.0
  0
LINE
  5
A0F3
330
9F78
100
AcDbEntity
  8
1
  6
Continuous
100
AcDbLine
 10
309.073532
 20
124.246327
 30
0.0
 11
309.073532
 21
102.24632
 31
0.0
  0
LINE
  5
A0F4
330
9F78
100
AcDbEntity
  8
1
  6
Continuous
100
AcDbLine
 10
284.947311
 20
118.746327
 30
0.0
 11
284.947311
 21
107.7463199999999
 31
0.0
  0
LINE
  5
A0F5
330
9F78
100
AcDbEntity
  8
1
  6
Continuous
100
AcDbLine
 10
280.7473299999999
 20
118.746327
 30
0.0
 11
280.7473299999999
 21
107.7463199999999
 31
0.0
  0
LINE
  5
A0F6
330
9F78
100
AcDbEntity
  8
4
  6
CENTER
100
AcDbLine
 10
316.8741299999999
 20
113.2463199999999
 30
0.0
 11
277.226669
 21
113.2463199999999
 31
0.0
  0
LINE
  5
A0F7
330
9F78
100
AcDbEntity
  8
1
  6
Continuous
100
AcDbLine
 10
312.5735319999999
 20
100.5446139999999
 30
0.0
 11
310.056015
 21
100.5446139999999
 31
0.0
  0
LINE
  5
A0F8
330
9F78
100
AcDbEntity
  8
1
  6
Continuous
100
AcDbLine
 10
312.5735319999999
 20
125.9480179999999
 30
0.0
 11
310.056015
 21
125.9480179999999
 31
0.0
  0
LINE
  5
A0F9
330
9F78
100
AcDbEntity
  8
1
  6
Continuous
100
AcDbLine
 10
312.5735319999999
 20
119.5971579999999
 30
0.0
 11
310.056015
 21
119.5971579999999
 31
0.0
  0
LINE
  5
A0FA
330
9F78
100
AcDbEntity
  8
1
  6
Continuous
100
AcDbLine
 10
312.5735319999999
 20
106.8954669999999
 30
0.0
 11
310.056015
 21
106.8954669999999
 31
0.0
  0
LINE
  5
A0FB
330
9F78
100
AcDbEntity
  8
1
  6
Continuous
100
AcDbLine
 10
310.056015
 20
100.5446139999999
 30
0.0
 11
309.073532
 21
102.246312
 31
0.0
  0
LINE
  5
A0FC
330
9F78
100
AcDbEntity
  8
1
  6
Continuous
100
AcDbLine
 10
310.056015
 20
125.948033
 30
0.0
 11
309.073532
 21
124.246327
 31
0.0
  0
LINE
  5
A0FD
330
9F78
100
AcDbEntity
  8
1
  6
Continuous
100
AcDbLine
 10
284.4561
 20
119.5971579999999
 30
0.0
 11
281.238571
 21
119.5971579999999
 31
0.0
  0
LINE
  5
A0FE
330
9F78
100
AcDbEntity
  8
1
  6
Continuous
100
AcDbLine
 10
284.4561
 20
116.4217429999999
 30
0.0
 11
281.238571
 21
116.4217429999999
 31
0.0
  0
LINE
  5
A0FF
330
9F78
100
AcDbEntity
  8
1
  6
Continuous
100
AcDbLine
 10
284.4561
 20
110.0708899999999
 30
0.0
 11
281.238571
 21
110.0708899999999
 31
0.0
  0
LINE
  5
A100
330
9F78
100
AcDbEntity
  8
1
  6
Continuous
100
AcDbLine
 10
284.4561
 20
106.895459
 30
0.0
 11
281.238571
 21
106.895459
 31
0.0
  0
LINE
  5
A101
330
9F78
100
AcDbEntity
  8
1
  6
Continuous
100
AcDbLine
 10
281.238571
 20
119.5971879999998
 30
0.0
 11
280.7473299999999
 21
118.746327
 31
0.0
  0
LINE
  5
A102
330
9F78
100
AcDbEntity
  8
1
  6
Continuous
100
AcDbLine
 10
284.947311
 20
118.746312
 30
0.0
 11
284.45607
 21
119.5971729999999
 31
0.0
  0
LINE
  5
A103
330
9F78
100
AcDbEntity
  8
1
  6
Continuous
100
AcDbLine
 10
284.947311
 20
107.746312
 30
0.0
 11
284.45607
 21
106.895459
 31
0.0
  0
LINE
  5
A104
330
9F78
100
AcDbEntity
  8
1
  6
Continuous
100
AcDbLine
 10
281.238571
 20
106.895452
 30
0.0
 11
280.7473299999999
 21
107.7463199999999
 31
0.0
  0
ARC
  5
A105
330
9F78
100
AcDbEntity
  8
1
  6
Continuous
100
AcDbCircle
 10
29.712208
 20
113.2463199999999
 30
0.0
 40
4.9
100
AcDbArc
 50
100.2865879999999
 51
79.71339899999998
  0
CIRCLE
  5
A106
330
9F78
100
AcDbEntity
  8
1
  6
Continuous
100
AcDbCircle
 10
29.712208
 20
113.2463199999999
 30
0.0
 40
11.0
  0
CIRCLE
  5
A107
330
9F78
100
AcDbEntity
  8
1
  6
Continuous
100
AcDbCircle
 10
29.712208
 20
113.2463199999999
 30
0.0
 40
8.619999999999999
  0
ARC
  5
A108
330
9F78
100
AcDbEntity
  8
1
  6
Continuous
100
AcDbCircle
 10
29.712208
 20
113.2463199999999
 30
0.0
 40
3.9
100
AcDbArc
 50
102.965191
 51
77.03479
  0
ARC
  5
A109
330
9F78
100
AcDbEntity
  8
1
  6
Continuous
100
AcDbCircle
 10
33.353805
 20
116.887929
 30
0.0
 40
1.05
100
AcDbArc
 50
154.527388
 51
295.472563
  0
ARC
  5
A10A
330
9F78
100
AcDbEntity
  8
1
  6
Continuous
100
AcDbCircle
 10
34.86220499999999
 20
113.2463199999999
 30
0.0
 40
1.05
100
AcDbArc
 50
109.52739
 51
250.4725720000001
  0
ARC
  5
A10B
330
9F78
100
AcDbEntity
  8
1
  6
Continuous
100
AcDbCircle
 10
33.353805
 20
109.604718
 30
0.0
 40
1.05
100
AcDbArc
 50
64.52739300000001
 51
205.4725809999999
  0
ARC
  5
A10C
330
9F78
100
AcDbEntity
  8
1
  6
Continuous
100
AcDbCircle
 10
29.712208
 20
108.096326
 30
0.0
 40
1.05
100
AcDbArc
 50
19.527398
 51
160.472576
  0
ARC
  5
A10D
330
9F78
100
AcDbEntity
  8
1
  6
Continuous
100
AcDbCircle
 10
26.070606
 20
109.604718
 30
0.0
 40
1.05
100
AcDbArc
 50
334.527361
 51
115.472585
  0
ARC
  5
A10E
330
9F78
100
AcDbEntity
  8
1
  6
Continuous
100
AcDbCircle
 10
24.56220599999999
 20
113.2463199999999
 30
0.0
 40
1.05
100
AcDbArc
 50
289.5273649999999
 51
70.47259400000001
  0
ARC
  5
A10F
330
9F78
100
AcDbEntity
  8
1
  6
Continuous
100
AcDbCircle
 10
26.070606
 20
116.887929
 30
0.0
 40
1.05
100
AcDbArc
 50
244.527374
 51
25.47259599999998
  0
ARC
  5
A110
330
9F78
100
AcDbEntity
  8
1
  6
Continuous
100
AcDbCircle
 10
226.2808989999999
 20
113.2463199999999
 30
0.0
 40
7.299999999999998
100
AcDbArc
 50
150.999609
 51
299.000164
  0
ARC
  5
A111
330
9F78
100
AcDbEntity
  8
1
  6
Continuous
100
AcDbCircle
 10
226.2808989999999
 20
113.2463199999999
 30
0.0
 40
8.699999999999997
100
AcDbArc
 50
204.763283
 51
335.2366609999999
  0
ARC
  5
A112
330
9F78
100
AcDbEntity
  8
1
  6
Continuous
100
AcDbCircle
 10
226.2808989999999
 20
113.2463199999999
 30
0.0
 40
8.699999999999997
100
AcDbArc
 50
24.763297
 51
155.2366759999999
  0
ARC
  5
A113
330
9F78
100
AcDbEntity
  8
1
  6
Continuous
100
AcDbCircle
 10
226.2808989999999
 20
104.050824
 30
0.0
 40
4.15
100
AcDbArc
 50
140.55569
 51
160.011088
  0
ARC
  5
A114
330
9F78
100
AcDbEntity
  8
1
  6
Continuous
100
AcDbCircle
 10
226.2808989999999
 20
104.050824
 30
0.0
 40
4.15
100
AcDbArc
 50
19.988897
 51
39.444295
  0
ARC
  5
A115
330
9F78
100
AcDbEntity
  8
1
  6
Continuous
100
AcDbCircle
 10
226.2808989999999
 20
113.2463199999999
 30
0.0
 40
7.0
100
AcDbArc
 50
150.999555
 51
299.0001369999998
  0
ARC
  5
A116
330
9F78
100
AcDbEntity
  8
1
  6
Continuous
100
AcDbCircle
 10
226.2808989999999
 20
113.2463199999999
 30
0.0
 40
8.599999999999997
100
AcDbArc
 50
116.446693
 51
150.999841
  0
ARC
  5
A117
330
9F78
100
AcDbEntity
  8
1
  6
Continuous
100
AcDbCircle
 10
226.2808989999999
 20
113.2463199999999
 30
0.0
 40
8.599999999999997
100
AcDbArc
 50
299.0002229999999
 51
333.553262
  0
ARC
  5
A118
330
9F78
100
AcDbEntity
  8
1
  6
Continuous
100
AcDbCircle
 10
226.2808989999999
 20
113.2463199999999
 30
0.0
 40
8.599999999999997
100
AcDbArc
 50
26.44669699999999
 51
63.553291
  0
CIRCLE
  5
A119
330
9F78
100
AcDbEntity
  8
1
  6
Continuous
100
AcDbCircle
 10
226.2808989999999
 20
113.2463199999999
 30
0.0
 40
6.5
  0
CIRCLE
  5
A11A
330
9F78
100
AcDbEntity
  8
1
  6
Continuous
100
AcDbCircle
 10
94.66390199999999
 20
183.2463119999999
 30
0.0
 40
1.5
  0
ARC
  5
A11B
330
9F78
100
AcDbEntity
  8
1
  6
Continuous
100
AcDbCircle
 10
19.812206
 20
180.246327
 30
0.0
 40
6.5
100
AcDbArc
 50
179.999978
 51
270.000001
  0
ARC
  5
A11C
330
9F78
100
AcDbEntity
  8
1
  6
Continuous
100
AcDbCircle
 10
19.812206
 20
186.246327
 30
0.0
 40
6.5
100
AcDbArc
 50
89.99998900000001
 51
179.999978
  0
ARC
  5
A11D
330
9F78
100
AcDbEntity
  8
1
  6
Continuous
100
AcDbCircle
 10
28.812206
 20
180.246327
 30
0.0
 40
6.5
100
AcDbArc
 50
269.99997
 51
352.04116
  0
ARC
  5
A11E
330
9F78
100
AcDbEntity
  8
1
  6
Continuous
100
AcDbCircle
 10
16.912205
 20
185.746327
 30
0.0
 40
1.0
100
AcDbArc
 50
89.99998900000001
 51
179.999978
  0
ARC
  5
A11F
330
9F78
100
AcDbEntity
  8
1
  6
Continuous
100
AcDbCircle
 10
16.912205
 20
180.746327
 30
0.0
 40
1.0
100
AcDbArc
 50
179.999978
 51
269.999973
  0
ARC
  5
A120
330
9F78
100
AcDbEntity
  8
1
  6
Continuous
100
AcDbCircle
 10
18.712208
 20
180.746327
 30
0.0
 40
1.0
100
AcDbArc
 50
269.99997
 51
0.0
  0
ARC
  5
A121
330
9F78
100
AcDbEntity
  8
1
  6
Continuous
100
AcDbCircle
 10
18.712208
 20
185.746327
 30
0.0
 40
1.0
100
AcDbArc
 50
0.0
 51
89.99998900000001
  0
ARC
  5
A122
330
9F78
100
AcDbEntity
  8
1
  6
Continuous
100
AcDbCircle
 10
41.71220799999999
 20
189.4600119999998
 30
0.0
 40
1.199999999999999
100
AcDbArc
 50
0.0
 51
76.99999400000002
  0
ARC
  5
A123
330
9F78
100
AcDbEntity
  8
1
  6
Continuous
100
AcDbCircle
 10
33.012203
 20
183.246327
 30
0.0
 40
3.9
100
AcDbArc
 50
206.176982
 51
269.99997
  0
ARC
  5
A124
330
9F78
100
AcDbEntity
  8
1
  6
Continuous
100
AcDbCircle
 10
33.012203
 20
183.246327
 30
0.0
 40
3.9
100
AcDbArc
 50
89.99998900000001
 51
153.822977
  0
ARC
  5
A125
330
9F78
100
AcDbEntity
  8
1
  6
Continuous
100
AcDbCircle
 10
160.388657
 20
188.685124
 30
0.0
 40
1.837099999999999
100
AcDbArc
 50
283.7564009999999
 51
304.360797
  0
ARC
  5
A126
330
9F78
100
AcDbEntity
  8
1
  6
Continuous
100
AcDbCircle
 10
163.0045619999999
 20
187.5471239999999
 30
0.0
 40
1.02
100
AcDbArc
 50
220.197967
 51
259.8874579999999
  0
ARC
  5
A127
330
9F78
100
AcDbEntity
  8
1
  6
Continuous
100
AcDbCircle
 10
160.359756
 20
188.739324
 30
0.0
 40
3.0987
100
AcDbArc
 50
286.2014999999999
 51
290.1163999999998
  0
ARC
  5
A128
330
9F78
100
AcDbEntity
  8
1
  6
Continuous
100
AcDbCircle
 10
157.386154
 20
187.9068189999999
 30
0.0
 40
4.3083
100
AcDbArc
 50
323.293095
 51
339.6457919999999
  0
ARC
  5
A129
330
9F78
100
AcDbEntity
  8
1
  6
Continuous
100
AcDbCircle
 10
161.29245
 20
184.5337269999999
 30
0.0
 40
0.9421000000000001
100
AcDbArc
 50
352.033188
 51
7.966789999999998
  0
ARC
  5
A12A
330
9F78
100
AcDbEntity
  8
1
  6
Continuous
100
AcDbCircle
 10
157.1382599999998
 20
185.0887189999999
 30
0.0
 40
4.287499999999997
100
AcDbArc
 50
342.6549889999999
 51
359.333888
  0
ARC
  5
A12B
330
9F78
100
AcDbEntity
  8
1
  6
Continuous
100
AcDbCircle
 10
160.2041629999999
 20
180.036031
 30
0.0
 40
1.236599999999999
100
AcDbArc
 50
350.982889
 51
59.83788700000001
  0
ARC
  5
A12C
330
9F78
100
AcDbEntity
  8
1
  6
Continuous
100
AcDbCircle
 10
163.1676629999998
 20
179.75063
 30
0.0
 40
0.9435999999999999
100
AcDbArc
 50
111.260872
 51
183.128764
  0
ARC
  5
A12D
330
9F78
100
AcDbEntity
  8
1
  6
Continuous
100
AcDbCircle
 10
163.1572569999999
 20
178.719625
 30
0.0
 40
0.9332
100
AcDbArc
 50
110.826171
 51
183.12397
  0
ARC
  5
A12E
330
9F78
100
AcDbEntity
  8
1
  6
Continuous
100
AcDbCircle
 10
163.493851
 20
177.4994249999998
 30
0.0
 40
2.0872
100
AcDbArc
 50
121.080976
 51
127.4232709999999
  0
ARC
  5
A12F
330
9F78
100
AcDbEntity
  8
1
  6
Continuous
100
AcDbCircle
 10
159.0179599999999
 20
177.9698229999999
 30
0.0
 40
2.415099999999998
100
AcDbArc
 50
355.4672909999999
 51
41.544786
  0
ARC
  5
A130
330
9F78
100
AcDbEntity
  8
1
  6
Continuous
100
AcDbCircle
 10
162.458862
 20
181.246022
 30
0.0
 40
1.0341
100
AcDbArc
 50
82.13137900000003
 51
103.0404729999999
  0
ARC
  5
A131
330
9F78
100
AcDbEntity
  8
1
  6
Continuous
100
AcDbCircle
 10
132.4475859999998
 20
188.718679
 30
0.0
 40
16.04068599999999
100
AcDbArc
 50
340.0528149999999
 51
20.157459
  0
ARC
  5
A132
330
9F78
100
AcDbEntity
  8
1
  6
Continuous
100
AcDbCircle
 10
132.4475859999998
 20
177.773976
 30
0.0
 40
16.04068599999999
100
AcDbArc
 50
339.8425409999999
 51
19.947185
  0
ARC
  5
A133
330
9F78
100
AcDbEntity
  8
1
  6
Continuous
100
AcDbCircle
 10
168.871551
 20
185.996327
 30
0.0
 40
7.942914999999997
100
AcDbArc
 50
339.7436819999999
 51
20.256318
  0
ARC
  5
A134
330
9F78
100
AcDbEntity
  8
1
  6
Continuous
100
AcDbCircle
 10
168.871551
 20
180.496327
 30
0.0
 40
7.942914999999997
100
AcDbArc
 50
339.7436819999999
 51
20.256318
  0
ARC
  5
A135
330
9F78
100
AcDbEntity
  8
1
  6
Continuous
100
AcDbCircle
 10
180.5573879999998
 20
180.496327
 30
0.0
 40
7.942914999999997
100
AcDbArc
 50
159.743686
 51
200.256311
  0
ARC
  5
A136
330
9F78
100
AcDbEntity
  8
1
  6
Continuous
100
AcDbCircle
 10
180.5573879999998
 20
185.996327
 30
0.0
 40
7.942914999999997
100
AcDbArc
 50
159.743686
 51
200.256311
  0
ARC
  5
A137
330
9F78
100
AcDbEntity
  8
1
  6
Continuous
100
AcDbCircle
 10
160.388565
 20
118.685109
 30
0.0
 40
1.837099999999999
100
AcDbArc
 50
283.756367
 51
304.360767
  0
ARC
  5
A138
330
9F78
100
AcDbEntity
  8
1
  6
Continuous
100
AcDbCircle
 10
163.0045619999999
 20
117.547109
 30
0.0
 40
1.02
100
AcDbArc
 50
220.1979809999999
 51
259.8874719999999
  0
ARC
  5
A139
330
9F78
100
AcDbEntity
  8
1
  6
Continuous
100
AcDbCircle
 10
160.3596649999998
 20
118.7393079999999
 30
0.0
 40
3.0987
100
AcDbArc
 50
286.2014659999999
 51
290.116366
  0
ARC
  5
A13A
330
9F78
100
AcDbEntity
  8
1
  6
Continuous
100
AcDbCircle
 10
157.386169
 20
117.9068189999999
 30
0.0
 40
4.3083
100
AcDbArc
 50
323.293064
 51
339.645761
  0
ARC
  5
A13B
330
9F78
100
AcDbEntity
  8
1
  6
Continuous
100
AcDbCircle
 10
161.292374
 20
114.533719
 30
0.0
 40
0.9421000000000001
100
AcDbArc
 50
352.03316
 51
7.966799
  0
ARC
  5
A13C
330
9F78
100
AcDbEntity
  8
1
  6
Continuous
100
AcDbCircle
 10
157.1382749999999
 20
115.088712
 30
0.0
 40
4.287499999999997
100
AcDbArc
 50
342.65496
 51
359.3338589999998
  0
ARC
  5
A13D
330
9F78
100
AcDbEntity
  8
1
  6
Continuous
100
AcDbCircle
 10
160.2040709999999
 20
110.0360229999999
 30
0.0
 40
1.236599999999999
100
AcDbArc
 50
350.98286
 51
59.83789399999999
  0
ARC
  5
A13E
330
9F78
100
AcDbEntity
  8
1
  6
Continuous
100
AcDbCircle
 10
163.167572
 20
109.750623
 30
0.0
 40
0.9435999999999999
100
AcDbArc
 50
111.260886
 51
183.128778
  0
ARC
  5
A13F
330
9F78
100
AcDbEntity
  8
1
  6
Continuous
100
AcDbCircle
 10
163.1571649999998
 20
108.719617
 30
0.0
 40
0.9332
100
AcDbArc
 50
110.826185
 51
183.1239829999999
  0
ARC
  5
A140
330
9F78
100
AcDbEntity
  8
1
  6
Continuous
100
AcDbCircle
 10
163.4937739999998
 20
107.4994169999998
 30
0.0
 40
2.0872
100
AcDbArc
 50
121.08099
 51
127.4232849999998
  0
ARC
  5
A141
330
9F78
100
AcDbEntity
  8
1
  6
Continuous
100
AcDbCircle
 10
159.0178679999999
 20
107.969815
 30
0.0
 40
2.415099999999998
100
AcDbArc
 50
355.467259
 51
41.54479600000001
  0
ARC
  5
A142
330
9F78
100
AcDbEntity
  8
1
  6
Continuous
100
AcDbCircle
 10
162.4587709999999
 20
111.2460219999999
 30
0.0
 40
1.0341
100
AcDbArc
 50
82.131392
 51
103.040487
  0
ARC
  5
A143
330
9F78
100
AcDbEntity
  8
1
  6
Continuous
100
AcDbCircle
 10
142.8654629999998
 20
122.772603
 30
0.0
 40
5.622809999999999
100
AcDbArc
 50
325.6157519999998
 51
25.615752
  0
ARC
  5
A144
330
9F78
100
AcDbEntity
  8
1
  6
Continuous
100
AcDbCircle
 10
127.4707489999999
 20
113.2463199999999
 30
0.0
 40
21.017519
100
AcDbArc
 50
342.4120459999999
 51
17.587954
  0
ARC
  5
A145
330
9F78
100
AcDbEntity
  8
1
  6
Continuous
100
AcDbCircle
 10
142.8654629999998
 20
103.720044
 30
0.0
 40
5.622809999999999
100
AcDbArc
 50
334.384248
 51
34.38424799999999
  0
ARC
  5
A146
330
9F78
100
AcDbEntity
  8
1
  6
Continuous
100
AcDbCircle
 10
166.305756
 20
113.2463199999999
 30
0.0
 40
10.50871499999999
100
AcDbArc
 50
342.411937
 51
17.58806299999999
  0
ARC
  5
A147
330
9F78
100
AcDbEntity
  8
1
  6
Continuous
100
AcDbCircle
 10
174.003082
 20
108.483174
 30
0.0
 40
2.811392999999998
100
AcDbArc
 50
334.3844680000001
 51
34.384467
  0
ARC
  5
A148
330
9F78
100
AcDbEntity
  8
1
  6
Continuous
100
AcDbCircle
 10
174.003082
 20
118.00945
 30
0.0
 40
2.811392999999998
100
AcDbArc
 50
325.615533
 51
25.615532
  0
ARC
  5
A149
330
9F78
100
AcDbEntity
  8
1
  6
Continuous
100
AcDbCircle
 10
175.425857
 20
108.483174
 30
0.0
 40
2.811392999999998
100
AcDbArc
 50
145.6155349999999
 51
205.615537
  0
ARC
  5
A14A
330
9F78
100
AcDbEntity
  8
1
  6
Continuous
100
AcDbCircle
 10
175.425857
 20
118.00945
 30
0.0
 40
2.811392999999998
100
AcDbArc
 50
154.3844729999999
 51
214.3844749999999
  0
ARC
  5
A14B
330
9F78
100
AcDbEntity
  8
1
  6
Continuous
100
AcDbCircle
 10
183.123184
 20
113.2463199999999
 30
0.0
 40
10.50871499999999
100
AcDbArc
 50
162.4119399999998
 51
197.5880699999999
  0
CIRCLE
  5
A14C
330
9F78
100
AcDbEntity
  8
1
  6
Continuous
100
AcDbCircle
 10
226.2808989999999
 20
113.2463199999999
 30
0.0
 40
11.0
  0
ARC
  5
A14D
330
9F78
100
AcDbEntity
  8
1
  6
Continuous
100
AcDbCircle
 10
226.2808989999999
 20
113.2463199999999
 30
0.0
 40
3.093999999999998
100
AcDbArc
 50
330.769152
 51
29.230848
  0
ARC
  5
A14E
330
9F78
100
AcDbEntity
  8
2
  6
Continuous
100
AcDbCircle
 10
226.2808989999999
 20
113.2463199999999
 30
0.0
 40
3.093999999999998
100
AcDbArc
 50
29.230848
 51
150.768574
  0
ARC
  5
A14F
330
9F78
100
AcDbEntity
  8
1
  6
Continuous
100
AcDbCircle
 10
226.2808989999999
 20
113.2463199999999
 30
0.0
 40
3.093999999999998
100
AcDbArc
 50
150.768574
 51
209.231426
  0
ARC
  5
A150
330
9F78
100
AcDbEntity
  8
2
  6
Continuous
100
AcDbCircle
 10
226.2808989999999
 20
113.2463199999999
 30
0.0
 40
3.093999999999998
100
AcDbArc
 50
209.231426
 51
330.769152
  0
ARC
  5
A151
330
9F78
100
AcDbEntity
  8
1
  6
Continuous
100
AcDbCircle
 10
226.2808989999999
 20
113.2463199999999
 30
0.0
 40
8.9585
100
AcDbArc
 50
331.865742
 51
28.134258
  0
ARC
  5
A152
330
9F78
100
AcDbEntity
  8
2
  6
Continuous
100
AcDbCircle
 10
226.2808989999999
 20
113.2463199999999
 30
0.0
 40
8.9585
100
AcDbArc
 50
27.641268
 51
151.8655409999998
  0
ARC
  5
A153
330
9F78
100
AcDbEntity
  8
1
  6
Continuous
100
AcDbCircle
 10
226.2808989999999
 20
113.2463199999999
 30
0.0
 40
8.9585
100
AcDbArc
 50
151.8655409999998
 51
208.1344689999999
  0
ARC
  5
A154
330
9F78
100
AcDbEntity
  8
2
  6
Continuous
100
AcDbCircle
 10
226.2808989999999
 20
113.2463199999999
 30
0.0
 40
8.9585
100
AcDbArc
 50
208.134459
 51
331.865742
  0
ARC
  5
A155
330
9F78
100
AcDbEntity
  8
1
  6
Continuous
100
AcDbCircle
 10
160.388657
 20
37.807515
 30
0.0
 40
1.837099999999999
100
AcDbArc
 50
55.639203
 51
76.243599
  0
ARC
  5
A156
330
9F78
100
AcDbEntity
  8
1
  6
Continuous
100
AcDbCircle
 10
163.0045619999999
 20
38.94551599999999
 30
0.0
 40
1.02
100
AcDbArc
 50
100.1125419999999
 51
139.802033
  0
ARC
  5
A157
330
9F78
100
AcDbEntity
  8
1
  6
Continuous
100
AcDbCircle
 10
160.359756
 20
37.75331599999999
 30
0.0
 40
3.0987
100
AcDbArc
 50
69.8836
 51
73.79850000000002
  0
ARC
  5
A158
330
9F78
100
AcDbEntity
  8
1
  6
Continuous
100
AcDbCircle
 10
157.386154
 20
38.58582
 30
0.0
 40
4.3083
100
AcDbArc
 50
20.354208
 51
36.706905
  0
ARC
  5
A159
330
9F78
100
AcDbEntity
  8
1
  6
Continuous
100
AcDbCircle
 10
161.29245
 20
41.958913
 30
0.0
 40
0.9421000000000001
100
AcDbArc
 50
352.03321
 51
7.966812
  0
ARC
  5
A15A
330
9F78
100
AcDbEntity
  8
1
  6
Continuous
100
AcDbCircle
 10
157.1382599999998
 20
41.40392
 30
0.0
 40
4.287499999999997
100
AcDbArc
 50
0.6661120000000002
 51
17.345011
  0
ARC
  5
A15B
330
9F78
100
AcDbEntity
  8
1
  6
Continuous
100
AcDbCircle
 10
160.2041629999999
 20
46.456609
 30
0.0
 40
1.236599999999999
100
AcDbArc
 50
300.1621129999999
 51
9.017110999999999
  0
ARC
  5
A15C
330
9F78
100
AcDbEntity
  8
1
  6
Continuous
100
AcDbCircle
 10
163.1676629999998
 20
46.742009
 30
0.0
 40
0.9435999999999999
100
AcDbArc
 50
176.8712319999999
 51
248.739124
  0
ARC
  5
A15D
330
9F78
100
AcDbEntity
  8
1
  6
Continuous
100
AcDbCircle
 10
163.1572569999999
 20
47.773015
 30
0.0
 40
0.9332
100
AcDbArc
 50
176.876027
 51
249.173825
  0
ARC
  5
A15E
330
9F78
100
AcDbEntity
  8
1
  6
Continuous
100
AcDbCircle
 10
163.493851
 20
48.993215
 30
0.0
 40
2.0872
100
AcDbArc
 50
232.5767289999999
 51
238.9190240000001
  0
ARC
  5
A15F
330
9F78
100
AcDbEntity
  8
1
  6
Continuous
100
AcDbCircle
 10
159.0179599999999
 20
48.52281699999998
 30
0.0
 40
2.415099999999998
100
AcDbArc
 50
318.455214
 51
4.532708999999997
  0
ARC
  5
A160
330
9F78
100
AcDbEntity
  8
1
  6
Continuous
100
AcDbCircle
 10
162.458862
 20
45.246617
 30
0.0
 40
1.0341
100
AcDbArc
 50
256.9595269999999
 51
277.868621
  0
ARC
  5
A161
330
9F78
100
AcDbEntity
  8
1
  6
Continuous
100
AcDbCircle
 10
132.4475859999998
 20
37.773961
 30
0.0
 40
16.04068599999999
100
AcDbArc
 50
339.8425409999999
 51
19.947185
  0
ARC
  5
A162
330
9F78
100
AcDbEntity
  8
1
  6
Continuous
100
AcDbCircle
 10
132.4475859999998
 20
48.718663
 30
0.0
 40
16.04068599999999
100
AcDbArc
 50
340.0528149999999
 51
20.157459
  0
ARC
  5
A163
330
9F78
100
AcDbEntity
  8
1
  6
Continuous
100
AcDbCircle
 10
168.871551
 20
40.49631199999999
 30
0.0
 40
7.942914999999997
100
AcDbArc
 50
339.7436819999999
 51
20.256318
  0
ARC
  5
A164
330
9F78
100
AcDbEntity
  8
1
  6
Continuous
100
AcDbCircle
 10
168.871551
 20
45.996312
 30
0.0
 40
7.942914999999997
100
AcDbArc
 50
339.7436819999999
 51
20.256318
  0
ARC
  5
A165
330
9F78
100
AcDbEntity
  8
1
  6
Continuous
100
AcDbCircle
 10
180.5573879999998
 20
45.996312
 30
0.0
 40
7.942914999999997
100
AcDbArc
 50
159.743686
 51
200.256311
  0
ARC
  5
A166
330
9F78
100
AcDbEntity
  8
1
  6
Continuous
100
AcDbCircle
 10
180.5573879999998
 20
40.49631199999999
 30
0.0
 40
7.942914999999997
100
AcDbArc
 50
159.743686
 51
200.256311
  0
ARC
  5
A167
330
9F78
100
AcDbEntity
  8
1
  6
Continuous
100
AcDbCircle
 10
297.173233
 20
118.685109
 30
0.0
 40
1.837099999999999
100
AcDbArc
 50
235.639235
 51
256.243635
  0
ARC
  5
A168
330
9F78
100
AcDbEntity
  8
1
  6
Continuous
100
AcDbCircle
 10
294.5572359999999
 20
117.547109
 30
0.0
 40
1.02
100
AcDbArc
 50
280.1125299999999
 51
319.8020179999998
  0
ARC
  5
A169
330
9F78
100
AcDbEntity
  8
1
  6
Continuous
100
AcDbCircle
 10
297.202133
 20
118.7393079999999
 30
0.0
 40
3.0987
100
AcDbArc
 50
249.8836359999998
 51
253.7985359999999
  0
ARC
  5
A16A
330
9F78
100
AcDbEntity
  8
1
  6
Continuous
100
AcDbCircle
 10
300.1756439999998
 20
117.9068189999999
 30
0.0
 40
4.3083
100
AcDbArc
 50
200.3542319999999
 51
216.7069339999999
  0
ARC
  5
A16B
330
9F78
100
AcDbEntity
  8
1
  6
Continuous
100
AcDbCircle
 10
296.269424
 20
114.533719
 30
0.0
 40
0.9421000000000001
100
AcDbArc
 50
172.033204
 51
187.966847
  0
ARC
  5
A16C
330
9F78
100
AcDbEntity
  8
1
  6
Continuous
100
AcDbCircle
 10
300.423508
 20
115.088712
 30
0.0
 40
4.287499999999997
100
AcDbArc
 50
180.666143
 51
197.3450419999999
  0
ARC
  5
A16D
330
9F78
100
AcDbEntity
  8
1
  6
Continuous
100
AcDbCircle
 10
297.3577119999998
 20
110.0360229999999
 30
0.0
 40
1.236599999999999
100
AcDbArc
 50
120.162111
 51
189.0171389999999
  0
ARC
  5
A16E
330
9F78
100
AcDbEntity
  8
1
  6
Continuous
100
AcDbCircle
 10
294.394211
 20
109.750623
 30
0.0
 40
0.9435999999999999
100
AcDbArc
 50
356.871222
 51
68.739113
  0
ARC
  5
A16F
330
9F78
100
AcDbEntity
  8
1
  6
Continuous
100
AcDbCircle
 10
294.404648
 20
108.719617
 30
0.0
 40
0.9332
100
AcDbArc
 50
356.876017
 51
69.17381299999999
  0
ARC
  5
A170
330
9F78
100
AcDbEntity
  8
1
  6
Continuous
100
AcDbCircle
 10
294.068039
 20
107.4994169999998
 30
0.0
 40
2.0872
100
AcDbArc
 50
52.576716
 51
58.919008
  0
ARC
  5
A171
330
9F78
100
AcDbEntity
  8
1
  6
Continuous
100
AcDbCircle
 10
298.5439299999999
 20
107.969815
 30
0.0
 40
2.415099999999998
100
AcDbArc
 50
138.455202
 51
184.532737
  0
ARC
  5
A172
330
9F78
100
AcDbEntity
  8
1
  6
Continuous
100
AcDbCircle
 10
295.103012
 20
111.2460219999999
 30
0.0
 40
1.0341
100
AcDbArc
 50
76.959512
 51
97.868606
  0
ARC
  5
A173
330
9F78
100
AcDbEntity
  8
1
  6
Continuous
100
AcDbCircle
 10
314.696335
 20
122.772603
 30
0.0
 40
5.622809999999999
100
AcDbArc
 50
154.3842549999999
 51
214.384243
  0
ARC
  5
A174
330
9F78
100
AcDbEntity
  8
1
  6
Continuous
100
AcDbCircle
 10
330.091049
 20
113.2463199999999
 30
0.0
 40
21.017519
100
AcDbArc
 50
162.4120489999999
 51
197.5879609999998
  0
ARC
  5
A175
330
9F78
100
AcDbEntity
  8
1
  6
Continuous
100
AcDbCircle
 10
314.696335
 20
103.720044
 30
0.0
 40
5.622809999999999
100
AcDbArc
 50
145.615754
 51
205.615755
  0
ARC
  5
A176
330
9F78
100
AcDbEntity
  8
1
  6
Continuous
100
AcDbCircle
 10
291.256027
 20
113.2463199999999
 30
0.0
 40
10.50871499999999
100
AcDbArc
 50
162.4119399999998
 51
197.5880699999999
  0
ARC
  5
A177
330
9F78
100
AcDbEntity
  8
1
  6
Continuous
100
AcDbCircle
 10
283.5586999999998
 20
108.483174
 30
0.0
 40
2.811392999999998
100
AcDbArc
 50
145.6155349999999
 51
205.615537
  0
ARC
  5
A178
330
9F78
100
AcDbEntity
  8
1
  6
Continuous
100
AcDbCircle
 10
283.5586999999998
 20
118.00945
 30
0.0
 40
2.811392999999998
100
AcDbArc
 50
154.3844729999999
 51
214.384461
  0
ARC
  5
A179
330
9F78
100
AcDbEntity
  8
1
  6
Continuous
100
AcDbCircle
 10
282.13594
 20
108.483174
 30
0.0
 40
2.811392999999998
100
AcDbArc
 50
334.3844629999999
 51
34.384467
  0
ARC
  5
A17A
330
9F78
100
AcDbEntity
  8
1
  6
Continuous
100
AcDbCircle
 10
282.13594
 20
118.00945
 30
0.0
 40
2.811392999999998
100
AcDbArc
 50
325.6155269999998
 51
25.615527
  0
ARC
  5
A17B
330
9F78
100
AcDbEntity
  8
1
  6
Continuous
100
AcDbCircle
 10
274.4386139999999
 20
113.2463199999999
 30
0.0
 40
10.50871499999999
100
AcDbArc
 50
342.41193
 51
17.58805999999999
  0
ARC
  5
A17C
330
9F78
100
AcDbEntity
  8
1
  6
Continuous
100
AcDbCircle
 10
27.378369
 20
183.246327
 30
0.0
 40
7.166163
100
AcDbArc
 50
144.462
 51
215.5377
  0
ARC
  5
A17D
330
9F78
100
AcDbEntity
  8
1
  6
Continuous
100
AcDbCircle
 10
18.046062
 20
183.246327
 30
0.0
 40
7.166163
100
AcDbArc
 50
324.4619999999998
 51
35.53799999999999
  0
LINE
  5
A17E
330
9F78
100
AcDbEntity
  8
1
  6
Continuous
100
AcDbLine
 10
20.88579
 20
185.190605
 30
0.0
 11
24.363837
 21
185.190605
 31
0.0
  0
LINE
  5
A17F
330
9F78
100
AcDbEntity
  8
1
  6
Continuous
100
AcDbLine
 10
24.280382
 20
184.635742
 30
0.0
 11
22.71165199999999
 21
184.635742
 31
0.0
  0
ARC
  5
A180
330
9F78
100
AcDbEntity
  8
1
  6
Continuous
100
AcDbCircle
 10
24.280382
 20
184.35831
 30
0.0
 40
0.277826
100
AcDbArc
 50
10.10399999999999
 51
90.0
  0
ARC
  5
A181
330
9F78
100
AcDbEntity
  8
1
  6
Continuous
100
AcDbCircle
 10
21.14405
 20
184.35831
 30
0.0
 40
0.277826
100
AcDbArc
 50
90.0
 51
169.896
  0
ARC
  5
A182
330
9F78
100
AcDbEntity
  8
1
  6
Continuous
100
AcDbCircle
 10
22.71165199999999
 20
186.5800189999999
 30
0.0
 40
1.431648999999999
100
AcDbArc
 50
35.53799999999999
 51
45.69899999999999
  0
ARC
  5
A183
330
9F78
100
AcDbEntity
  8
1
  6
Continuous
100
AcDbCircle
 10
22.71165199999999
 20
186.5800189999999
 30
0.0
 40
1.431648999999999
100
AcDbArc
 50
62.24999999999999
 51
144.462
  0
ARC
  5
A184
330
9F78
100
AcDbEntity
  8
1
  6
Continuous
100
AcDbCircle
 10
22.43422
 20
186.024028
 30
0.0
 40
0.277826
100
AcDbArc
 50
270.0
 51
90.0
  0
LINE
  5
A185
330
9F78
100
AcDbEntity
  8
1
  6
Continuous
100
AcDbLine
 10
22.71165199999999
 20
188.0111609999999
 30
0.0
 11
22.71165199999999
 21
186.86309
 31
0.0
  0
LINE
  5
A186
330
9F78
100
AcDbEntity
  8
1
  6
Continuous
100
AcDbLine
 10
23.751457
 20
186.58453
 30
0.0
 11
21.41020399999999
 21
187.2126989999999
 31
0.0
  0
LINE
  5
A187
330
9F78
100
AcDbEntity
  8
1
  6
Continuous
100
AcDbLine
 10
22.71165199999999
 20
186.024028
 30
0.0
 11
24.044677
 21
186.024028
 31
0.0
  0
LINE
  5
A188
330
9F78
100
AcDbEntity
  8
1
  6
Continuous
100
AcDbLine
 10
22.43422
 20
186.302588
 30
0.0
 11
21.24780499999999
 21
186.302588
 31
0.0
  0
LINE
  5
A189
330
9F78
100
AcDbEntity
  8
1
  6
Continuous
100
AcDbLine
 10
21.147433
 20
185.7465959999999
 30
0.0
 11
22.43422
 21
185.7465959999999
 31
0.0
  0
LINE
  5
A18A
330
9F78
100
AcDbEntity
  8
1
  6
Continuous
100
AcDbLine
 10
22.71165199999999
 20
184.635742
 30
0.0
 11
22.71165199999999
 21
184.35831
 31
0.0
  0
LINE
  5
A18B
330
9F78
100
AcDbEntity
  8
1
  6
Continuous
100
AcDbLine
 10
22.04513899999999
 20
184.635742
 30
0.0
 11
21.14405
 21
184.635742
 31
0.0
  0
LINE
  5
A18C
330
9F78
100
AcDbEntity
  8
1
  6
Continuous
100
AcDbLine
 10
20.88353499999999
 20
184.0797499999999
 30
0.0
 11
24.540897
 21
184.0797499999999
 31
0.0
  0
LINE
  5
A18D
330
9F78
100
AcDbEntity
  8
1
  6
Continuous
100
AcDbLine
 10
20.77414099999999
 20
183.524887
 30
0.0
 11
24.650291
 21
183.524887
 31
0.0
  0
ARC
  5
A18E
330
9F78
100
AcDbEntity
  8
1
  6
Continuous
100
AcDbCircle
 10
24.540897
 20
184.1361389999999
 30
0.0
 40
0.055565
100
AcDbArc
 50
270.0
 51
7.792999999999999
  0
ARC
  5
A18F
330
9F78
100
AcDbEntity
  8
1
  6
Continuous
100
AcDbCircle
 10
20.88353499999999
 20
184.1361389999999
 30
0.0
 40
0.055565
100
AcDbArc
 50
172.2069999999999
 51
270.0
  0
ARC
  5
A190
330
9F78
100
AcDbEntity
  8
1
  6
Continuous
100
AcDbCircle
 10
18.046062
 20
183.246327
 30
0.0
 40
6.610656999999998
100
AcDbArc
 50
7.792999999999999
 51
10.10399999999999
  0
ARC
  5
A191
330
9F78
100
AcDbEntity
  8
1
  6
Continuous
100
AcDbCircle
 10
27.378369
 20
183.246327
 30
0.0
 40
6.610656999999998
100
AcDbArc
 50
169.896
 51
172.2069999999999
  0
ARC
  5
A192
330
9F78
100
AcDbEntity
  8
1
  6
Continuous
100
AcDbCircle
 10
18.046062
 20
183.246327
 30
0.0
 40
6.610656999999998
100
AcDbArc
 50
333.9859999999998
 51
337.0559999999999
  0
ARC
  5
A193
330
9F78
100
AcDbEntity
  8
1
  6
Continuous
100
AcDbCircle
 10
24.08189399999999
 20
180.6919259999999
 30
0.0
 40
0.055565
100
AcDbArc
 50
337.0559999999999
 51
90.0
  0
LINE
  5
A194
330
9F78
100
AcDbEntity
  8
1
  6
Continuous
100
AcDbLine
 10
20.77414099999999
 20
182.968896
 30
0.0
 11
24.650291
 21
182.968896
 31
0.0
  0
LINE
  5
A195
330
9F78
100
AcDbEntity
  8
1
  6
Continuous
100
AcDbLine
 10
20.82037899999999
 20
182.4140319999999
 30
0.0
 11
24.604052
 21
182.4140319999999
 31
0.0
  0
LINE
  5
A196
330
9F78
100
AcDbEntity
  8
1
  6
Continuous
100
AcDbLine
 10
24.439397
 20
181.8580409999999
 30
0.0
 11
23.378165
 21
181.8580409999999
 31
0.0
  0
LINE
  5
A197
330
9F78
100
AcDbEntity
  8
1
  6
Continuous
100
AcDbLine
 10
21.26923199999999
 20
181.30205
 30
0.0
 11
24.155199
 21
181.30205
 31
0.0
  0
ARC
  5
A198
330
9F78
100
AcDbEntity
  8
1
  6
Continuous
100
AcDbCircle
 10
24.439397
 20
181.80278
 30
0.0
 40
0.055565
100
AcDbArc
 50
347.2709999999998
 51
90.0
  0
ARC
  5
A199
330
9F78
100
AcDbEntity
  8
1
  6
Continuous
100
AcDbCircle
 10
18.046062
 20
183.246327
 30
0.0
 40
6.610656999999998
100
AcDbArc
 50
344.794
 51
347.2709999999998
  0
ARC
  5
A19A
330
9F78
100
AcDbEntity
  8
1
  6
Continuous
100
AcDbCircle
 10
18.046062
 20
183.246327
 30
0.0
 40
6.610656999999998
100
AcDbArc
 50
344.7419999999998
 51
344.794
  0
ARC
  5
A19B
330
9F78
100
AcDbEntity
  8
1
  6
Continuous
100
AcDbCircle
 10
24.155199
 20
181.580609
 30
0.0
 40
0.277826
100
AcDbArc
 50
270.0
 51
344.7419999999998
  0
ARC
  5
A19C
330
9F78
100
AcDbEntity
  8
1
  6
Continuous
100
AcDbCircle
 10
21.26923199999999
 20
181.580609
 30
0.0
 40
0.277826
100
AcDbArc
 50
195.2574999999999
 51
270.0
  0
ARC
  5
A19D
330
9F78
100
AcDbEntity
  8
1
  6
Continuous
100
AcDbCircle
 10
27.378369
 20
183.246327
 30
0.0
 40
6.610656999999998
100
AcDbArc
 50
193.2680999999999
 51
195.2574999999999
  0
ARC
  5
A19E
330
9F78
100
AcDbEntity
  8
1
  6
Continuous
100
AcDbCircle
 10
27.378369
 20
183.246327
 30
0.0
 40
6.610656999999998
100
AcDbArc
 50
192.7289
 51
193.2680999999999
  0
ARC
  5
A19F
330
9F78
100
AcDbEntity
  8
1
  6
Continuous
100
AcDbCircle
 10
20.98503399999999
 20
181.80278
 30
0.0
 40
0.055565
100
AcDbArc
 50
90.0
 51
192.7289
  0
ARC
  5
A1A0
330
9F78
100
AcDbEntity
  8
1
  6
Continuous
100
AcDbCircle
 10
23.736796
 20
180.469755
 30
0.0
 40
0.277826
100
AcDbArc
 50
270.0
 51
333.9859999999998
  0
ARC
  5
A1A1
330
9F78
100
AcDbEntity
  8
1
  6
Continuous
100
AcDbCircle
 10
21.34141
 20
180.6919259999999
 30
0.0
 40
0.055565
100
AcDbArc
 50
90.0
 51
202.944
  0
ARC
  5
A1A2
330
9F78
100
AcDbEntity
  8
1
  6
Continuous
100
AcDbCircle
 10
27.378369
 20
183.246327
 30
0.0
 40
6.610656999999998
100
AcDbArc
 50
202.944
 51
206.0144
  0
ARC
  5
A1A3
330
9F78
100
AcDbEntity
  8
1
  6
Continuous
100
AcDbCircle
 10
21.687635
 20
180.469755
 30
0.0
 40
0.277826
100
AcDbArc
 50
206.0144
 51
270.0
  0
ARC
  5
A1A4
330
9F78
100
AcDbEntity
  8
1
  6
Continuous
100
AcDbCircle
 10
22.71165199999999
 20
179.9137629999999
 30
0.0
 40
1.431648999999999
100
AcDbArc
 50
270.0
 51
324.4619999999998
  0
ARC
  5
A1A5
330
9F78
100
AcDbEntity
  8
1
  6
Continuous
100
AcDbCircle
 10
22.71165199999999
 20
179.9137629999999
 30
0.0
 40
1.431648999999999
100
AcDbArc
 50
215.5377
 51
256.5374
  0
LINE
  5
A1A6
330
9F78
100
AcDbEntity
  8
1
  6
Continuous
100
AcDbLine
 10
22.71165199999999
 20
182.968896
 30
0.0
 11
22.71165199999999
 21
182.4140319999999
 31
0.0
  0
LINE
  5
A1A7
330
9F78
100
AcDbEntity
  8
1
  6
Continuous
100
AcDbLine
 10
22.04513899999999
 20
181.8580409999999
 30
0.0
 11
20.98503399999999
 21
181.8580409999999
 31
0.0
  0
LINE
  5
A1A8
330
9F78
100
AcDbEntity
  8
1
  6
Continuous
100
AcDbLine
 10
21.34141
 20
180.7471859999999
 30
0.0
 11
24.08189399999999
 21
180.7471859999999
 31
0.0
  0
LINE
  5
A1A9
330
9F78
100
AcDbEntity
  8
1
  6
Continuous
100
AcDbLine
 10
23.736796
 20
180.191195
 30
0.0
 11
21.687635
 21
180.191195
 31
0.0
  0
LINE
  5
A1AA
330
9F78
100
AcDbEntity
  8
1
  6
Continuous
100
AcDbLine
 10
21.18803299999998
 20
179.636332
 30
0.0
 11
23.583419
 21
179.636332
 31
0.0
  0
LINE
  5
A1AB
330
9F78
100
AcDbEntity
  8
1
  6
Continuous
100
AcDbLine
 10
86.493905
 20
175.3463179999999
 30
0.0
 11
86.493905
 21
191.1463209999998
 31
0.0
  0
LINE
  5
A1AC
330
9F78
100
AcDbEntity
  8
1
  6
Continuous
100
AcDbLine
 10
86.493905
 20
122.74632
 30
0.0
 11
86.493905
 21
118.5226909999999
 31
0.0
  0
LINE
  5
A1AD
330
9F78
100
AcDbEntity
  8
1
  6
Continuous
100
AcDbLine
 10
86.493905
 20
107.969949
 30
0.0
 11
86.493905
 21
103.7463199999999
 31
0.0
  0
LINE
  5
A1AE
330
9F78
100
AcDbEntity
  8
1
  6
Continuous
100
AcDbLine
 10
86.493905
 20
51.146321
 30
0.0
 11
86.493905
 21
35.34631799999999
 31
0.0
  0
LINE
  5
A1AF
330
9F78
100
AcDbEntity
  8
1
  6
Continuous
100
AcDbLine
 10
94.24390499999999
 20
103.7463199999999
 30
0.0
 11
94.24390499999999
 21
107.969949
 31
0.0
  0
LINE
  5
A1B0
330
9F78
100
AcDbEntity
  8
1
  6
Continuous
100
AcDbLine
 10
94.24390499999999
 20
122.74632
 30
0.0
 11
94.24390499999999
 21
118.5226909999999
 31
0.0
  0
LINE
  5
A1B1
330
9F78
100
AcDbEntity
  8
1
  6
Continuous
100
AcDbLine
 10
94.24390499999999
 20
118.5226909999999
 30
0.0
 11
95.46390499999999
 21
116.8905059999999
 31
0.0
  0
LINE
  5
A1B2
330
9F78
100
AcDbEntity
  8
1
  6
Continuous
100
AcDbLine
 10
85.96390500000003
 20
122.74632
 30
0.0
 11
94.24390499999999
 21
122.74632
 31
0.0
  0
LINE
  5
A1B3
330
9F78
100
AcDbEntity
  8
1
  6
Continuous
100
AcDbLine
 10
85.96390500000003
 20
103.7463199999999
 30
0.0
 11
94.24390499999999
 21
103.7463199999999
 31
0.0
  0
LINE
  5
A1B4
330
9F78
100
AcDbEntity
  8
1
  6
Continuous
100
AcDbLine
 10
95.46390499999999
 20
109.602149
 30
0.0
 11
94.24390499999999
 21
107.969949
 31
0.0
  0
LINE
  5
A1B5
330
9F78
100
AcDbEntity
  8
1
  6
Continuous
100
AcDbLine
 10
95.46390499999999
 20
104.5463229999999
 30
0.0
 11
94.24390499999999
 21
103.7463199999999
 31
0.0
  0
LINE
  5
A1B6
330
9F78
100
AcDbEntity
  8
1
  6
Continuous
100
AcDbLine
 10
94.24390499999999
 20
122.74632
 30
0.0
 11
95.46390499999999
 21
121.946324
 31
0.0
  0
LINE
  5
A1B7
330
9F78
100
AcDbEntity
  8
1
  6
Continuous
100
AcDbLine
 10
101.263901
 20
109.602149
 30
0.0
 11
95.46390499999999
 21
109.602149
 31
0.0
  0
LINE
  5
A1B8
330
9F78
100
AcDbEntity
  8
1
  6
Continuous
100
AcDbLine
 10
101.263901
 20
116.8905059999999
 30
0.0
 11
95.46390499999999
 21
116.8905059999999
 31
0.0
  0
LINE
  5
A1B9
330
9F78
100
AcDbEntity
  8
1
  6
Continuous
100
AcDbLine
 10
104.0639039999999
 20
109.7463199999999
 30
0.0
 11
112.363907
 21
109.7463199999999
 31
0.0
  0
LINE
  5
A1BA
330
9F78
100
AcDbEntity
  8
1
  6
Continuous
100
AcDbLine
 10
104.0639039999999
 20
116.74632
 30
0.0
 11
112.363907
 21
116.74632
 31
0.0
  0
LINE
  5
A1BB
330
9F78
100
AcDbEntity
  8
1
  6
Continuous
100
AcDbLine
 10
103.363902
 20
105.724607
 30
0.0
 11
103.063904
 21
105.724607
 31
0.0
  0
LINE
  5
A1BC
330
9F78
100
AcDbEntity
  8
1
  6
Continuous
100
AcDbLine
 10
103.363902
 20
117.415697
 30
0.0
 11
101.7638959999999
 21
117.415697
 31
0.0
  0
LINE
  5
A1BD
330
9F78
100
AcDbEntity
  8
1
  6
Continuous
100
AcDbLine
 10
103.363902
 20
116.3976349999999
 30
0.0
 11
101.7638959999999
 21
116.3976349999999
 31
0.0
  0
LINE
  5
A1BE
330
9F78
100
AcDbEntity
  8
1
  6
Continuous
100
AcDbLine
 10
103.363902
 20
107.5612989999999
 30
0.0
 11
101.7638959999999
 21
107.5612989999999
 31
0.0
  0
LINE
  5
A1BF
330
9F78
100
AcDbEntity
  8
1
  6
Continuous
100
AcDbLine
 10
356.2979049999999
 20
116.8905059999999
 30
0.0
 11
362.0978999999999
 21
116.8905059999999
 31
0.0
  0
LINE
  5
A1C0
330
9F78
100
AcDbEntity
  8
1
  6
Continuous
100
AcDbLine
 10
356.2979049999999
 20
109.602149
 30
0.0
 11
362.0978999999999
 21
109.602149
 31
0.0
  0
LINE
  5
A1C1
330
9F78
100
AcDbEntity
  8
2
  6
Continuous
100
AcDbLine
 10
371.5978929999999
 20
118.3404279999999
 30
0.0
 11
356.2979049999999
 21
109.602149
 31
0.0
  0
LINE
  5
A1C2
330
9F78
100
AcDbEntity
  8
2
  6
Continuous
100
AcDbLine
 10
356.2979049999999
 20
116.8905059999999
 30
0.0
 11
371.5978999999999
 21
108.1522189999999
 31
0.0
  0
LINE
  5
A1C3
330
9F78
100
AcDbEntity
  8
1
  6
Continuous
100
AcDbLine
 10
362.0978999999999
 20
121.946324
 30
0.0
 11
356.2979049999999
 21
121.946324
 31
0.0
  0
LINE
  5
A1C4
330
9F78
100
AcDbEntity
  8
1
  6
Continuous
100
AcDbLine
 10
362.0978999999999
 20
104.5463229999999
 30
0.0
 11
354.997902
 21
104.5463229999999
 31
0.0
  0
LINE
  5
A1C5
330
9F78
100
AcDbEntity
  8
4
  6
CENTER
100
AcDbLine
 10
380.646202
 20
113.2463199999999
 30
0.0
 11
342.5248029999999
 21
113.2463199999999
 31
0.0
  0
LINE
  5
A1C6
330
9F78
100
AcDbEntity
  8
1
  6
Continuous
100
AcDbLine
 10
372.7979049999998
 20
124.246327
 30
0.0
 11
372.7979049999998
 21
102.24632
 31
0.0
  0
LINE
  5
A1C7
330
9F78
100
AcDbEntity
  8
1
  6
Continuous
100
AcDbLine
 10
371.5978999999999
 20
124.246327
 30
0.0
 11
371.5978999999999
 21
102.24632
 31
0.0
  0
LINE
  5
A1C8
330
9F78
100
AcDbEntity
  8
1
  6
Continuous
100
AcDbLine
 10
377.8979029999999
 20
104.6244249999999
 30
0.0
 11
377.8979029999999
 21
121.868123
 31
0.0
  0
LINE
  5
A1C9
330
9F78
100
AcDbEntity
  8
1
  6
Continuous
100
AcDbLine
 10
372.7979049999998
 20
102.246312
 30
0.0
 11
377.8979029999999
 21
104.62441
 31
0.0
  0
LINE
  5
A1CA
330
9F78
100
AcDbEntity
  8
1
  6
Continuous
100
AcDbLine
 10
362.0978999999999
 20
104.5463229999999
 30
0.0
 11
363.3179
 21
103.7463199999999
 31
0.0
  0
LINE
  5
A1CB
330
9F78
100
AcDbEntity
  8
1
  6
Continuous
100
AcDbLine
 10
362.0978999999999
 20
109.602149
 30
0.0
 11
363.3179
 21
107.969949
 31
0.0
  0
LINE
  5
A1CC
330
9F78
100
AcDbEntity
  8
1
  6
Continuous
100
AcDbLine
 10
371.5978999999999
 20
103.7463199999999
 30
0.0
 11
363.3179
 21
103.7463199999999
 31
0.0
  0
LINE
  5
A1CD
330
9F78
100
AcDbEntity
  8
1
  6
Continuous
100
AcDbLine
 10
363.3179
 20
103.7463199999999
 30
0.0
 11
363.3179
 21
107.969949
 31
0.0
  0
LINE
  5
A1CE
330
9F78
100
AcDbEntity
  8
1
  6
Continuous
100
AcDbLine
 10
371.0679
 20
107.969949
 30
0.0
 11
371.0679
 21
103.7463199999999
 31
0.0
  0
LINE
  5
A1CF
330
9F78
100
AcDbEntity
  8
2
  6
Continuous
100
AcDbLine
 10
371.5978999999999
 20
103.9818139999999
 30
0.0
 11
371.0679
 21
104.287816
 31
0.0
  0
LINE
  5
A1D0
330
9F78
100
AcDbEntity
  8
2
  6
Continuous
100
AcDbLine
 10
371.0679
 20
104.287816
 30
0.0
 11
362.492122
 21
104.287816
 31
0.0
  0
LINE
  5
A1D1
330
9F78
100
AcDbEntity
  8
1
  6
Continuous
100
AcDbLine
 10
362.0978999999999
 20
104.5463229999999
 30
0.0
 11
362.0978999999999
 21
109.602149
 31
0.0
  0
LINE
  5
A1D2
330
9F78
100
AcDbEntity
  8
1
  6
Continuous
100
AcDbLine
 10
371.5978999999999
 20
102.24632
 30
0.0
 11
372.7979049999998
 21
102.24632
 31
0.0
  0
LINE
  5
A1D3
330
9F78
100
AcDbEntity
  8
1
  6
Continuous
100
AcDbLine
 10
372.797913
 20
124.246312
 30
0.0
 11
377.8979109999998
 21
121.868123
 31
0.0
  0
LINE
  5
A1D4
330
9F78
100
AcDbEntity
  8
1
  6
Continuous
100
AcDbLine
 10
363.3179
 20
122.74632
 30
0.0
 11
362.0978999999999
 21
121.946324
 31
0.0
  0
LINE
  5
A1D5
330
9F78
100
AcDbEntity
  8
1
  6
Continuous
100
AcDbLine
 10
371.5978999999999
 20
122.74632
 30
0.0
 11
363.3179
 21
122.74632
 31
0.0
  0
LINE
  5
A1D6
330
9F78
100
AcDbEntity
  8
1
  6
Continuous
100
AcDbLine
 10
363.3179
 20
118.5226909999999
 30
0.0
 11
362.0978999999999
 21
116.8905059999999
 31
0.0
  0
LINE
  5
A1D7
330
9F78
100
AcDbEntity
  8
1
  6
Continuous
100
AcDbLine
 10
363.3179
 20
122.74632
 30
0.0
 11
363.3179
 21
118.5226909999999
 31
0.0
  0
LINE
  5
A1D8
330
9F78
100
AcDbEntity
  8
1
  6
Continuous
100
AcDbLine
 10
371.0679
 20
122.74632
 30
0.0
 11
371.0679
 21
118.5226909999999
 31
0.0
  0
LINE
  5
A1D9
330
9F78
100
AcDbEntity
  8
2
  6
Continuous
100
AcDbLine
 10
371.5978999999999
 20
122.510831
 30
0.0
 11
371.0679
 21
122.204824
 31
0.0
  0
LINE
  5
A1DA
330
9F78
100
AcDbEntity
  8
2
  6
Continuous
100
AcDbLine
 10
371.0679
 20
122.204824
 30
0.0
 11
362.492114
 21
122.204824
 31
0.0
  0
LINE
  5
A1DB
330
9F78
100
AcDbEntity
  8
1
  6
Continuous
100
AcDbLine
 10
362.0978999999999
 20
121.946324
 30
0.0
 11
362.0978999999999
 21
116.8905059999999
 31
0.0
  0
LINE
  5
A1DC
330
9F78
100
AcDbEntity
  8
1
  6
Continuous
100
AcDbLine
 10
371.5978999999999
 20
124.246327
 30
0.0
 11
372.7979049999998
 21
124.246327
 31
0.0
  0
LINE
  5
A1DD
330
9F78
100
AcDbEntity
  8
1
  6
Continuous
100
AcDbLine
 10
345.197899
 20
111.0192239999998
 30
0.0
 11
345.197899
 21
109.7463199999999
 31
0.0
  0
LINE
  5
A1DE
330
9F78
100
AcDbEntity
  8
1
  6
Continuous
100
AcDbLine
 10
353.1701049999999
 20
111.0192239999998
 30
0.0
 11
353.1701049999999
 21
109.7463199999999
 31
0.0
  0
LINE
  5
A1DF
330
9F78
100
AcDbEntity
  8
2
  6
Continuous
100
AcDbLine
 10
353.497902
 20
109.9630639999999
 30
0.0
 11
353.1701049999999
 21
110.152318
 31
0.0
  0
LINE
  5
A1E0
330
9F78
100
AcDbEntity
  8
1
  6
Continuous
100
AcDbLine
 10
344.1978989999999
 20
110.7463269999998
 30
0.0
 11
345.197899
 21
109.7463199999999
 31
0.0
  0
LINE
  5
A1E1
330
9F78
100
AcDbEntity
  8
1
  6
Continuous
100
AcDbLine
 10
354.197903
 20
120.946324
 30
0.0
 11
354.197903
 21
105.724607
 31
0.0
  0
LINE
  5
A1E2
330
9F78
100
AcDbEntity
  8
1
  6
Continuous
100
AcDbLine
 10
355.7979089999999
 20
120.946324
 30
0.0
 11
355.7979089999999
 21
105.724607
 31
0.0
  0
LINE
  5
A1E3
330
9F78
100
AcDbEntity
  8
1
  6
Continuous
100
AcDbLine
 10
356.147903
 20
106.746274
 30
0.0
 11
356.147903
 21
119.7463269999999
 31
0.0
  0
LINE
  5
A1E4
330
9F78
100
AcDbEntity
  8
1
  6
Continuous
100
AcDbLine
 10
353.497902
 20
111.0192239999998
 30
0.0
 11
353.497902
 21
109.6713229999999
 31
0.0
  0
LINE
  5
A1E5
330
9F78
100
AcDbEntity
  8
1
  6
Continuous
100
AcDbLine
 10
356.2979049999999
 20
105.4694259999999
 30
0.0
 11
356.2979049999999
 21
121.946324
 31
0.0
  0
LINE
  5
A1E6
330
9F78
100
AcDbEntity
  8
1
  6
Continuous
100
AcDbLine
 10
353.497902
 20
109.7463199999999
 30
0.0
 11
345.197899
 21
109.7463199999999
 31
0.0
  0
LINE
  5
A1E7
330
9F78
100
AcDbEntity
  8
1
  6
Continuous
100
AcDbLine
 10
354.197903
 20
105.724607
 30
0.0
 11
355.7979089999999
 21
105.724607
 31
0.0
  0
LINE
  5
A1E8
330
9F78
100
AcDbEntity
  8
1
  6
Continuous
100
AcDbLine
 10
355.7979089999999
 20
106.6874209999999
 30
0.0
 11
356.2979049999999
 21
106.6874209999999
 31
0.0
  0
LINE
  5
A1E9
330
9F78
100
AcDbEntity
  8
1
  6
Continuous
100
AcDbLine
 10
356.2979049999999
 20
105.4694259999999
 30
0.0
 11
354.4979019999999
 21
105.4694259999999
 31
0.0
  0
LINE
  5
A1EA
330
9F78
100
AcDbEntity
  8
1
  6
Continuous
100
AcDbLine
 10
354.197903
 20
109.6713229999999
 30
0.0
 11
353.497902
 21
109.6713229999999
 31
0.0
  0
LINE
  5
A1EB
330
9F78
100
AcDbEntity
  8
1
  6
Continuous
100
AcDbLine
 10
356.147903
 20
109.6713229999999
 30
0.0
 11
355.7979089999999
 21
109.6713229999999
 31
0.0
  0
LINE
  5
A1EC
330
9F78
100
AcDbEntity
  8
1
  6
Continuous
100
AcDbLine
 10
354.9978869999998
 20
104.546331
 30
0.0
 11
354.497887
 21
105.046331
 31
0.0
  0
LINE
  5
A1ED
330
9F78
100
AcDbEntity
  8
1
  6
Continuous
100
AcDbLine
 10
354.4979019999999
 20
105.046323
 30
0.0
 11
354.4979019999999
 21
105.724607
 31
0.0
  0
LINE
  5
A1EE
330
9F78
100
AcDbEntity
  8
1
  6
Continuous
100
AcDbLine
 10
353.497902
 20
116.74632
 30
0.0
 11
345.197899
 21
116.74632
 31
0.0
  0
LINE
  5
A1EF
330
9F78
100
AcDbEntity
  8
2
  6
Continuous
100
AcDbLine
 10
353.1701049999999
 20
110.152318
 30
0.0
 11
344.7919039999999
 21
110.152318
 31
0.0
  0
LINE
  5
A1F0
330
9F78
100
AcDbEntity
  8
2
  6
Continuous
100
AcDbLine
 10
353.1701049999999
 20
116.3403219999999
 30
0.0
 11
344.791901
 21
116.3403219999999
 31
0.0
  0
LINE
  5
A1F1
330
9F78
100
AcDbEntity
  8
2
  6
Continuous
100
AcDbLine
 10
354.197903
 20
114.8571259999998
 30
0.0
 11
344.1978989999999
 21
111.0192239999998
 31
0.0
  0
LINE
  5
A1F2
330
9F78
100
AcDbEntity
  8
2
  6
Continuous
100
AcDbLine
 10
344.1978989999999
 20
115.4734159999998
 30
0.0
 11
354.197903
 21
111.6354199999999
 31
0.0
  0
LINE
  5
A1F3
330
9F78
100
AcDbEntity
  8
2
  6
Continuous
100
AcDbLine
 10
353.497902
 20
116.5295739999999
 30
0.0
 11
353.170097
 21
116.3403219999999
 31
0.0
  0
LINE
  5
A1F4
330
9F78
100
AcDbEntity
  8
1
  6
Continuous
100
AcDbLine
 10
353.1701049999999
 20
116.74632
 30
0.0
 11
353.1701049999999
 21
115.4734159999998
 31
0.0
  0
LINE
  5
A1F5
330
9F78
100
AcDbEntity
  8
1
  6
Continuous
100
AcDbLine
 10
355.7979089999999
 20
120.946324
 30
0.0
 11
354.197903
 21
120.946324
 31
0.0
  0
LINE
  5
A1F6
330
9F78
100
AcDbEntity
  8
1
  6
Continuous
100
AcDbLine
 10
356.2978819999998
 20
119.896337
 30
0.0
 11
356.1478799999999
 21
119.7463429999999
 31
0.0
  0
LINE
  5
A1F7
330
9F78
100
AcDbEntity
  8
1
  6
Continuous
100
AcDbLine
 10
354.197903
 20
116.821324
 30
0.0
 11
353.497902
 21
116.821324
 31
0.0
  0
LINE
  5
A1F8
330
9F78
100
AcDbEntity
  8
1
  6
Continuous
100
AcDbLine
 10
356.147903
 20
116.821324
 30
0.0
 11
355.7979089999999
 21
116.821324
 31
0.0
  0
LINE
  5
A1F9
330
9F78
100
AcDbEntity
  8
1
  6
Continuous
100
AcDbLine
 10
353.497902
 20
116.821324
 30
0.0
 11
353.497902
 21
115.4734159999998
 31
0.0
  0
LINE
  5
A1FA
330
9F78
100
AcDbEntity
  8
1
  6
Continuous
100
AcDbLine
 10
345.197899
 20
116.74632
 30
0.0
 11
345.197899
 21
115.4734159999998
 31
0.0
  0
LINE
  5
A1FB
330
9F78
100
AcDbEntity
  8
1
  6
Continuous
100
AcDbLine
 10
345.197899
 20
116.74632
 30
0.0
 11
344.1978989999999
 21
115.74632
 31
0.0
  0
LINE
  5
A1FC
330
9F78
100
AcDbEntity
  8
1
  6
Continuous
100
AcDbLine
 10
344.1978989999999
 20
115.74632
 30
0.0
 11
344.1978989999999
 21
110.7463269999998
 31
0.0
  0
LINE
  5
A1FD
330
9F78
100
AcDbEntity
  8
1
  6
Continuous
100
AcDbLine
 10
94.24390499999999
 20
175.3463179999999
 30
0.0
 11
94.24390499999999
 21
181.8063109999999
 31
0.0
  0
LINE
  5
A1FE
330
9F78
100
AcDbEntity
  8
1
  6
Continuous
100
AcDbLine
 10
95.46390499999999
 20
175.3463179999999
 30
0.0
 11
95.46390499999999
 21
181.9774559999999
 31
0.0
  0
LINE
  5
A1FF
330
9F78
100
AcDbEntity
  8
1
  6
Continuous
100
AcDbLine
 10
95.46390499999999
 20
184.5151679999999
 30
0.0
 11
95.46390499999999
 21
191.1463209999998
 31
0.0
  0
LINE
  5
A200
330
9F78
100
AcDbEntity
  8
1
  6
Continuous
100
AcDbLine
 10
94.24390499999999
 20
184.6863129999999
 30
0.0
 11
94.24390499999999
 21
191.1463209999998
 31
0.0
  0
ARC
  5
A201
330
9F78
100
AcDbEntity
  8
1
  6
Continuous
100
AcDbCircle
 10
226.2808989999999
 20
113.2463199999999
 30
0.0
 40
3.5
100
AcDbArc
 50
39.51744899999999
 51
140.482159
  0
ARC
  5
A202
330
9F78
100
AcDbEntity
  8
2
  6
Continuous
100
AcDbCircle
 10
226.2808989999999
 20
113.2463199999999
 30
0.0
 40
3.5
100
AcDbArc
 50
140.482159
 51
219.517841
  0
ARC
  5
A203
330
9F78
100
AcDbEntity
  8
1
  6
Continuous
100
AcDbCircle
 10
226.2808989999999
 20
113.2463199999999
 30
0.0
 40
3.5
100
AcDbArc
 50
219.517449
 51
320.4821589999998
  0
ARC
  5
A204
330
9F78
100
AcDbEntity
  8
2
  6
Continuous
100
AcDbCircle
 10
226.2808989999999
 20
113.2463199999999
 30
0.0
 40
3.5
100
AcDbArc
 50
320.4821589999998
 51
39.51784099999999
  0
LINE
  5
A205
330
9F78
100
AcDbEntity
  8
1
  6
Continuous
100
AcDbLine
 10
113.363907
 20
115.473434
 30
0.0
 11
103.363902
 21
115.473434
 31
0.0
  0
LINE
  5
A206
330
9F78
100
AcDbEntity
  8
1
  6
Continuous
100
AcDbLine
 10
113.363907
 20
111.0192239999998
 30
0.0
 11
103.363902
 21
111.0192239999998
 31
0.0
  0
LINE
  5
A207
330
9F78
100
AcDbEntity
  8
1
  6
Continuous
100
AcDbLine
 10
344.1978989999999
 20
115.4734159999998
 30
0.0
 11
354.197903
 21
115.4734159999998
 31
0.0
  0
LINE
  5
A208
330
9F78
100
AcDbEntity
  8
1
  6
Continuous
100
AcDbLine
 10
344.1978989999999
 20
111.0192239999998
 30
0.0
 11
354.197903
 21
111.0192239999998
 31
0.0
  0
ARC
  5
A209
330
9F78
100
AcDbEntity
  8
2
  6
Continuous
100
AcDbCircle
 10
226.2808989999999
 20
113.2463199999999
 30
0.0
 40
9.5
100
AcDbArc
 50
326.26138
 51
33.73862000000001
  0
ARC
  5
A20A
330
9F78
100
AcDbEntity
  8
1
  6
Continuous
100
AcDbCircle
 10
226.2808989999999
 20
113.2463199999999
 30
0.0
 40
9.5
100
AcDbArc
 50
33.73862000000001
 51
146.2612149999999
  0
ARC
  5
A20B
330
9F78
100
AcDbEntity
  8
1
  6
Continuous
100
AcDbCircle
 10
226.2808989999999
 20
113.2463199999999
 30
0.0
 40
9.5
100
AcDbArc
 50
213.7387849999999
 51
326.26138
  0
ARC
  5
A20C
330
9F78
100
AcDbEntity
  8
2
  6
Continuous
100
AcDbCircle
 10
226.2808989999999
 20
113.2463199999999
 30
0.0
 40
9.5
100
AcDbArc
 50
146.2612149999999
 51
213.7387849999999
  0
LINE
  5
A20D
330
9F78
100
AcDbEntity
  8
1
  6
Continuous
100
AcDbLine
 10
94.24390499999999
 20
118.5226909999999
 30
0.0
 11
85.96390500000003
 21
118.5226909999999
 31
0.0
  0
LINE
  5
A20E
330
9F78
100
AcDbEntity
  8
1
  6
Continuous
100
AcDbLine
 10
94.24390499999999
 20
107.969949
 30
0.0
 11
85.96390500000003
 21
107.969949
 31
0.0
  0
LINE
  5
A20F
330
9F78
100
AcDbEntity
  8
1
  6
Continuous
100
AcDbLine
 10
371.5978999999999
 20
118.5226909999999
 30
0.0
 11
363.3179
 21
118.5226909999999
 31
0.0
  0
LINE
  5
A210
330
9F78
100
AcDbEntity
  8
1
  6
Continuous
100
AcDbLine
 10
371.5978999999999
 20
107.969949
 30
0.0
 11
363.3179
 21
107.969949
 31
0.0
  0
LINE
  5
A211
330
9F78
100
AcDbEntity
  8
1
  6
Continuous
100
AcDbLine
 10
95.46390499999999
 20
35.34630299999999
 30
0.0
 11
95.46390499999999
 21
51.146321
 31
0.0
  0
LINE
  5
A212
330
9F78
100
AcDbEntity
  8
1
  6
Continuous
100
AcDbLine
 10
94.24390499999999
 20
35.34630299999999
 30
0.0
 11
94.24390499999999
 21
51.146321
 31
0.0
  0
LINE
  5
A213
330
9F78
100
AcDbEntity
  8
1
  6
Continuous
100
AcDbLine
 10
103.363902
 20
39.076932
 30
0.0
 11
101.7638959999999
 21
39.076932
 31
0.0
  0
LINE
  5
A214
330
9F78
100
AcDbEntity
  8
1
  6
Continuous
100
AcDbLine
 10
103.363902
 20
40.09504399999999
 30
0.0
 11
103.063904
 21
40.09504399999999
 31
0.0
  0
LINE
  5
A215
330
9F78
100
AcDbEntity
  8
1
  6
Continuous
100
AcDbLine
 10
103.363902
 20
48.931319
 30
0.0
 11
101.7638959999999
 21
48.931319
 31
0.0
  0
LINE
  5
A216
330
9F78
100
AcDbEntity
  8
1
  6
Continuous
100
AcDbLine
 10
103.363902
 20
50.768038
 30
0.0
 11
101.7638959999999
 21
50.768038
 31
0.0
  0
LINE
  5
A217
330
9F78
100
AcDbEntity
  8
1
  6
Continuous
100
AcDbLine
 10
103.363902
 20
187.0765199999999
 30
0.0
 11
101.7638959999999
 21
187.0765199999999
 31
0.0
  0
LINE
  5
A218
330
9F78
100
AcDbEntity
  8
1
  6
Continuous
100
AcDbLine
 10
103.363902
 20
179.416226
 30
0.0
 11
101.7638959999999
 21
179.416226
 31
0.0
  0
LINE
  5
A219
330
9F78
100
AcDbEntity
  8
1
  6
Continuous
100
AcDbLine
 10
103.363902
 20
175.7245979999999
 30
0.0
 11
101.7638959999999
 21
175.7245979999999
 31
0.0
  0
LINE
  5
A21A
330
9F78
100
AcDbEntity
  8
1
  6
Continuous
100
AcDbLine
 10
101.355046
 20
106.6874209999999
 30
0.0
 11
101.413902
 21
106.746274
 31
0.0
  0
LINE
  5
A21B
330
9F78
100
AcDbEntity
  8
1
  6
Continuous
100
AcDbLine
 10
356.2067599999999
 20
106.6874209999999
 30
0.0
 11
356.147903
 21
106.746274
 31
0.0
  0
ENDSEC
  0
SECTION
  2
OBJECTS
  0
DICTIONARY
  5
9F66
330
0
100
AcDbDictionary
281
     1
  3
ACAD_CIP_PREVIOUS_PRODUCT_INFO
350
A27F
  3
ACAD_COLOR
350
A261
  3
ACAD_DETAILVIEWSTYLE
350
A27A
  3
ACAD_GROUP
350
9F67
  3
ACAD_LAYOUT
350
9F73
  3
ACAD_MATERIAL
350
A22F
  3
ACAD_MLEADERSTYLE
350
A276
  3
ACAD_MLINESTYLE
350
9F70
  3
ACAD_PLOTSETTINGS
350
9F72
  3
ACAD_PLOTSTYLENAME
350
A22D
  3
ACAD_SCALELIST
350
A264
  3
ACAD_SECTIONVIEWSTYLE
350
A278
  3
ACAD_TABLESTYLE
350
A262
  3
ACAD_VISUALSTYLE
350
A248
  3
ACDB_RECOMPOSE_DATA
350
A29D
  3
AcDbVariableDictionary
350
A290
  3
DWGPROPS
350
A29E
  0
DICTIONARY
  5
A280
330
9F6A
100
AcDbDictionary
280
     1
281
     1
  3
ADSK_XREC_LAYER_RECONCILED
360
A281
  0
DICTIONARY
  5
A282
330
9F80
100
AcDbDictionary
280
     1
281
     1
  3
ADSK_XREC_LAYER_RECONCILED
360
A283
  0
DICTIONARY
  5
A284
330
9F81
100
AcDbDictionary
280
     1
281
     1
  3
ADSK_XREC_LAYER_RECONCILED
360
A285
  0
DICTIONARY
  5
A286
330
9F82
100
AcDbDictionary
280
     1
281
     1
  3
ADSK_XREC_LAYER_RECONCILED
360
A287
  0
DICTIONARY
  5
A288
330
9F83
100
AcDbDictionary
280
     1
281
     1
  3
ADSK_XREC_LAYER_RECONCILED
360
A289
  0
DICTIONARY
  5
A28A
330
9F84
100
AcDbDictionary
280
     1
281
     1
  3
ADSK_XREC_LAYER_RECONCILED
360
A28B
  0
DICTIONARY
  5
A28C
330
9F85
100
AcDbDictionary
280
     1
281
     1
  3
ADSK_XREC_LAYER_RECONCILED
360
A28D
  0
DICTIONARY
  5
A28E
330
9F86
100
AcDbDictionary
280
     1
281
     1
  3
ADSK_XREC_LAYER_RECONCILED
360
A28F
  0
DICTIONARY
  5
A228
330
9F78
100
AcDbDictionary
281
     1
  3
ACAD_LAYOUTSELFREF
350
A229
  0
DICTIONARY
  5
A226
330
9F74
100
AcDbDictionary
281
     1
  3
ACAD_LAYOUTSELFREF
350
A227
  0
XRECORD
  5
A27F
102
{ACAD_REACTORS
330
9F66
102
}
330
9F66
100
AcDbXrecord
280
     1
300
ACDLT
300
2014
300
ACDLT_F_S
  0
DICTIONARY
  5
A261
102
{ACAD_REACTORS
330
9F66
102
}
330
9F66
100
AcDbDictionary
281
     1
  0
DICTIONARY
  5
A27A
102
{ACAD_REACTORS
330
9F66
102
}
330
9F66
100
AcDbDictionary
281
     1
  3
Imperial24
350
A27B
  0
DICTIONARY
  5
9F67
102
{ACAD_REACTORS
330
9F66
102
}
330
9F66
100
AcDbDictionary
281
     1
  0
DICTIONARY
  5
9F73
102
{ACAD_REACTORS
330
9F66
102
}
330
9F66
100
AcDbDictionary
281
     1
  3
Model
350
A27C
  3
レイアウト1
350
A27D
  0
DICTIONARY
  5
A22F
102
{ACAD_REACTORS
330
9F66
102
}
330
9F66
100
AcDbDictionary
281
     1
  3
ByBlock
350
A238
  3
ByLayer
350
A230
  3
Global
350
A240
  0
DICTIONARY
  5
A276
102
{ACAD_REACTORS
330
9F66
102
}
330
9F66
100
AcDbDictionary
281
     1
  3
Standard
350
A277
  0
DICTIONARY
  5
9F70
102
{ACAD_REACTORS
330
9F66
102
}
330
9F66
100
AcDbDictionary
281
     1
  3
STANDARD
350
9F71
  0
DICTIONARY
  5
9F72
102
{ACAD_REACTORS
330
9F66
102
}
330
9F66
100
AcDbDictionary
281
     1
  0
ACDBDICTIONARYWDFLT
  5
A22D
102
{ACAD_REACTORS
330
9F66
102
}
330
9F66
100
AcDbDictionary
281
     1
  3
Normal
350
A22E
100
AcDbDictionaryWithDefault
340
A22E
  0
DICTIONARY
  5
A264
102
{ACAD_REACTORS
330
9F66
102
}
330
9F66
100
AcDbDictionary
281
     1
  3
A0
350
A265
  3
A1
350
A266
  3
A2
350
A267
  3
A3
350
A268
  3
A4
350
A269
  3
A5
350
A26A
  3
A6
350
A26B
  3
A7
350
A26C
  3
A8
350
A26D
  3
A9
350
A26E
  3
B0
350
A26F
  3
B1
350
A270
  3
B2
350
A271
  3
B3
350
A272
  3
B4
350
A273
  3
B5
350
A274
  3
B6
350
A275
  0
DICTIONARY
  5
A278
102
{ACAD_REACTORS
330
9F66
102
}
330
9F66
100
AcDbDictionary
281
     1
  3
Imperial24
350
A279
  0
DICTIONARY
  5
A262
102
{ACAD_REACTORS
330
9F66
102
}
330
9F66
100
AcDbDictionary
281
     1
  3
Standard
350
A263
  0
DICTIONARY
  5
A248
102
{ACAD_REACTORS
330
9F66
102
}
330
9F66
100
AcDbDictionary
281
     1
  3
2dWireframe
350
A24E
  3
Basic
350
A24D
  3
Brighten
350
A254
  3
ColorChange
350
A258
  3
Conceptual
350
A251
  3
Dim
350
A253
  3
EdgeColorOff
350
A260
  3
Facepattern
350
A257
  3
Flat
350
A249
  3
FlatWithEdges
350
A24A
  3
Gouraud
350
A24B
  3
GouraudWithEdges
350
A24C
  3
Hidden
350
A250
  3
JitterOff
350
A25E
  3
Linepattern
350
A256
  3
OverhangOff
350
A25F
  3
Realistic
350
A252
  3
Shaded
350
A25D
  3
Shaded with edges
350
A25C
  3
Shades of Gray
350
A259
  3
Sketchy
350
A25A
  3
Thicken
350
A255
  3
Wireframe
350
A24F
  3
X-Ray
350
A25B
  0
XRECORD
  5
A29D
102
{ACAD_REACTORS
330
9F66
102
}
330
9F66
100
AcDbXrecord
280
     1
 90
        1
330
A263
  0
DICTIONARY
  5
A290
102
{ACAD_REACTORS
330
9F66
102
}
330
9F66
100
AcDbDictionary
281
     1
  3
CANNOSCALE
350
A295
  3
CMLEADERSTYLE
350
A292
  3
CTABLESTYLE
350
A291
  3
CVIEWDETAILSTYLE
350
A293
  3
CVIEWSECTIONSTYLE
350
A294
  3
DIMASSOC
350
A298
  3
INDEXCTL
350
A297
  3
SORTENTS
350
A296
  3
XCLIPFRAME
350
A299
  0
XRECORD
  5
A29E
102
{ACAD_REACTORS
330
9F66
102
}
330
9F66
100
AcDbXrecord
280
     1
  1
DWGPROPS COOKIE
  2

  3

  4

  6

  7

  8
Yoshitsune
  9

300
=
301
=
302
=
303
=
304
=
305
=
306
=
307
=
308
=
309
=
 40
0.0000157986111111
 41
2450950.416127894
 42
2457192.603774236
  1

 90
        0
  0
XRECORD
  5
A281
102
{ACAD_REACTORS
330
A280
102
}
330
A280
100
AcDbXrecord
280
     1
290
     1
  0
XRECORD
  5
A283
102
{ACAD_REACTORS
330
A282
102
}
330
A282
100
AcDbXrecord
280
     1
290
     1
  0
XRECORD
  5
A285
102
{ACAD_REACTORS
330
A284
102
}
330
A284
100
AcDbXrecord
280
     1
290
     1
  0
XRECORD
  5
A287
102
{ACAD_REACTORS
330
A286
102
}
330
A286
100
AcDbXrecord
280
     1
290
     1
  0
XRECORD
  5
A289
102
{ACAD_REACTORS
330
A288
102
}
330
A288
100
AcDbXrecord
280
     1
290
     1
  0
XRECORD
  5
A28B
102
{ACAD_REACTORS
330
A28A
102
}
330
A28A
100
AcDbXrecord
280
     1
290
     1
  0
XRECORD
  5
A28D
102
{ACAD_REACTORS
330
A28C
102
}
330
A28C
100
AcDbXrecord
280
     1
290
     1
  0
XRECORD
  5
A28F
102
{ACAD_REACTORS
330
A28E
102
}
330
A28E
100
AcDbXrecord
280
     1
290
     1
  0
XRECORD
  5
A229
102
{ACAD_REACTORS
330
A228
102
}
330
A228
100
AcDbXrecord
280
     1
340
9F78
  0
XRECORD
  5
A227
102
{ACAD_REACTORS
330
A226
102
}
330
A226
100
AcDbXrecord
280
     1
340
9F74
  0
ACDBDETAILVIEWSTYLE
  5
A27B
102
{ACAD_XDICTIONARY
360
A2D6
102
}
102
{ACAD_REACTORS
330
A27A
102
}
330
A27A
100
AcDbModelDocViewStyle
 70
     0
  3
Imperial24
290
     0
100
AcDbDetailViewStyle
 70
     0
 71
     0
 90
        3
 71
     1
340
9F6B
 40
0.24
340
0
 40
0.24
300

 40
0.36
280
     3
 71
     2
340
9F6F
 90
       25
 71
     3
340
9F6B
 40
0.24
 90
        1
 40
0.75
 90
        1
300
%<\AcVar ViewType \f "%tc1">% %<\AcVar ViewDetailId>%\PSCALE %<\AcVar ViewScale \f "%sn">%
 71
     4
340
9F6F
 90
       25
340
9F6F
 90
       25
280
     0
  0
LAYOUT
  5
A27C
102
{ACAD_XDICTIONARY
360
A2D8
102
}
102
{ACAD_REACTORS
330
9F73
102
}
330
9F73
100
AcDbPlotSettings
  1

  2
Canon LBP9100C
  4

  6

 40
0.0
 41
0.0
 42
0.0
 43
0.0
 44
0.0
 45
0.0
 46
0.0
 47
0.0
 48
0.0
 49
0.0
140
0.0
141
0.0
142
1.0
143
1.0
 70
  1712
 72
     0
 73
     0
 74
     0
  7

 75
     0
147
1.0
148
0.0
149
0.0
100
AcDbLayout
  1
Model
 70
     1
 71
     0
 10
0.0
 20
0.0
 11
12.0
 21
9.0
 12
0.0
 22
0.0
 32
0.0
 14
0.0
 24
0.0
 34
0.0
 15
0.0
 25
0.0
 35
0.0
146
0.0
 13
0.0
 23
0.0
 33
0.0
 16
1.0
 26
0.0
 36
0.0
 17
0.0
 27
1.0
 37
0.0
 76
     0
330
9F78
331
A225
  0
LAYOUT
  5
A27D
102
{ACAD_XDICTIONARY
360
A2DA
102
}
102
{ACAD_REACTORS
330
9F73
102
}
330
9F73
100
AcDbPlotSettings
  1

  2
Canon LBP9100C
  4

  6

 40
0.0
 41
0.0
 42
0.0
 43
0.0
 44
0.0
 45
0.0
 46
0.0
 47
0.0
 48
0.0
 49
0.0
140
0.0
141
0.0
142
1.0
143
1.0
 70
   688
 72
     0
 73
     0
 74
     5
  7

 75
    16
147
1.0
148
0.0
149
0.0
100
AcDbLayout
  1
レイアウト1
 70
     0
 71
     1
 10
0.0
 20
0.0
 11
420.0
 21
297.0
 12
0.0
 22
0.0
 32
0.0
 14
1.000000000000000E+20
 24
1.000000000000000E+20
 34
1.000000000000000E+20
 15
-1.000000000000000E+20
 25
-1.000000000000000E+20
 35
-1.000000000000000E+20
146
0.0
 13
0.0
 23
0.0
 33
0.0
 16
1.0
 26
0.0
 36
0.0
 17
0.0
 27
1.0
 37
0.0
 76
     0
330
9F74
  0
MATERIAL
  5
A238
102
{ACAD_XDICTIONARY
360
A239
102
}
102
{ACAD_REACTORS
330
A22F
102
}
330
A22F
100
AcDbMaterial
  1
ByBlock
 72
     0
 43
0.0208333333333333
 43
0.0
 43
0.0
 43
0.0
 43
0.0
 43
0.0208333333333333
 43
0.0
 43
0.0
 43
0.0
 43
0.0
 43
1.0
 43
0.0
 43
0.0
 43
0.0
 43
0.0
 43
1.0
 77
     0
 47
0.0208333333333333
 47
0.0
 47
0.0
 47
0.0
 47
0.0
 47
0.0208333333333333
 47
0.0
 47
0.0
 47
0.0
 47
0.0
 47
1.0
 47
0.0
 47
0.0
 47
0.0
 47
0.0
 47
1.0
171
     0
 49
0.0208333333333333
 49
0.0
 49
0.0
 49
0.0
 49
0.0
 49
0.0208333333333333
 49
0.0
 49
0.0
 49
0.0
 49
0.0
 49
1.0
 49
0.0
 49
0.0
 49
0.0
 49
0.0
 49
1.0
175
     0
142
0.0208333333333333
142
0.0
142
0.0
142
0.0
142
0.0
142
0.0208333333333333
142
0.0
142
0.0
142
0.0
142
0.0
142
1.0
142
0.0
142
0.0
142
0.0
142
0.0
142
1.0
179
     0
144
0.0208333333333333
144
0.0
144
0.0
144
0.0
144
0.0
144
0.0208333333333333
144
0.0
144
0.0
144
0.0
144
0.0
144
1.0
144
0.0
144
0.0
144
0.0
144
0.0
144
1.0
147
0.0208333333333333
147
0.0
147
0.0
147
0.0
147
0.0
147
0.0208333333333333
147
0.0
147
0.0
147
0.0
147
0.0
147
1.0
147
0.0
147
0.0
147
0.0
147
0.0
147
1.0
  0
MATERIAL
  5
A230
102
{ACAD_XDICTIONARY
360
A231
102
}
102
{ACAD_REACTORS
330
A22F
102
}
330
A22F
100
AcDbMaterial
  1
ByLayer
 72
     0
 43
0.0208333333333333
 43
0.0
 43
0.0
 43
0.0
 43
0.0
 43
0.0208333333333333
 43
0.0
 43
0.0
 43
0.0
 43
0.0
 43
1.0
 43
0.0
 43
0.0
 43
0.0
 43
0.0
 43
1.0
 77
     0
 47
0.0208333333333333
 47
0.0
 47
0.0
 47
0.0
 47
0.0
 47
0.0208333333333333
 47
0.0
 47
0.0
 47
0.0
 47
0.0
 47
1.0
 47
0.0
 47
0.0
 47
0.0
 47
0.0
 47
1.0
171
     0
 49
0.0208333333333333
 49
0.0
 49
0.0
 49
0.0
 49
0.0
 49
0.0208333333333333
 49
0.0
 49
0.0
 49
0.0
 49
0.0
 49
1.0
 49
0.0
 49
0.0
 49
0.0
 49
0.0
 49
1.0
175
     0
142
0.0208333333333333
142
0.0
142
0.0
142
0.0
142
0.0
142
0.0208333333333333
142
0.0
142
0.0
142
0.0
142
0.0
142
1.0
142
0.0
142
0.0
142
0.0
142
0.0
142
1.0
179
     0
144
0.0208333333333333
144
0.0
144
0.0
144
0.0
144
0.0
144
0.0208333333333333
144
0.0
144
0.0
144
0.0
144
0.0
144
1.0
144
0.0
144
0.0
144
0.0
144
0.0
144
1.0
147
0.0208333333333333
147
0.0
147
0.0
147
0.0
147
0.0
147
0.0208333333333333
147
0.0
147
0.0
147
0.0
147
0.0
147
1.0
147
0.0
147
0.0
147
0.0
147
0.0
147
1.0
  0
MATERIAL
  5
A240
102
{ACAD_XDICTIONARY
360
A241
102
}
102
{ACAD_REACTORS
330
A22F
102
}
330
A22F
100
AcDbMaterial
  1
Global
 72
     0
 43
0.0208333333333333
 43
0.0
 43
0.0
 43
0.0
 43
0.0
 43
0.0208333333333333
 43
0.0
 43
0.0
 43
0.0
 43
0.0
 43
1.0
 43
0.0
 43
0.0
 43
0.0
 43
0.0
 43
1.0
 77
     0
 47
0.0208333333333333
 47
0.0
 47
0.0
 47
0.0
 47
0.0
 47
0.0208333333333333
 47
0.0
 47
0.0
 47
0.0
 47
0.0
 47
1.0
 47
0.0
 47
0.0
 47
0.0
 47
0.0
 47
1.0
171
     0
 49
0.0208333333333333
 49
0.0
 49
0.0
 49
0.0
 49
0.0
 49
0.0208333333333333
 49
0.0
 49
0.0
 49
0.0
 49
0.0
 49
1.0
 49
0.0
 49
0.0
 49
0.0
 49
0.0
 49
1.0
175
     0
142
0.0208333333333333
142
0.0
142
0.0
142
0.0
142
0.0
142
0.0208333333333333
142
0.0
142
0.0
142
0.0
142
0.0
142
1.0
142
0.0
142
0.0
142
0.0
142
0.0
142
1.0
179
     0
144
0.0208333333333333
144
0.0
144
0.0
144
0.0
144
0.0
144
0.0208333333333333
144
0.0
144
0.0
144
0.0
144
0.0
144
1.0
144
0.0
144
0.0
144
0.0
144
0.0
144
1.0
147
0.0208333333333333
147
0.0
147
0.0
147
0.0
147
0.0
147
0.0208333333333333
147
0.0
147
0.0
147
0.0
147
0.0
147
1.0
147
0.0
147
0.0
147
0.0
147
0.0
147
1.0
  0
MLEADERSTYLE
  5
A277
102
{ACAD_REACTORS
330
A276
102
}
330
A276
100
AcDbMLeaderStyle
170
     2
171
     1
172
     0
 90
        2
 40
0.0
 41
0.0
173
     1
 91
-1056964608
340
9F6D
 92
       -2
290
     1
 42
0.09
291
     1
 43
0.36
  3
Standard
 44
0.18
300

342
9F6B
174
     1
178
     6
175
     1
176
     0
 93
-1056964608
 45
0.18
292
     0
297
     0
 46
0.18
 94
-1056964608
 47
1.0
 49
1.0
140
1.0
293
     1
141
0.0
294
     1
177
     0
142
1.0
295
     0
296
     0
143
0.125
1001
ACAD_MLEADERVER
1070
     2
  0
MLINESTYLE
  5
9F71
102
{ACAD_REACTORS
330
9F70
102
}
330
9F70
100
AcDbMlineStyle
  2
STANDARD
 70
     0
  3

 62
   256
 51
90.0
 52
90.0
 71
     2
 49
0.5
 62
   256
  6
BYLAYER
 49
-0.5
 62
   256
  6
BYLAYER
  0
ACDBPLACEHOLDER
  5
A22E
102
{ACAD_REACTORS
330
A22D
102
}
330
A22D
  0
SCALE
  5
A265
102
{ACAD_REACTORS
330
A264
102
}
330
A264
100
AcDbScale
 70
     0
300
1:1
140
1.0
141
1.0
290
     1
  0
SCALE
  5
A266
102
{ACAD_REACTORS
330
A264
102
}
330
A264
100
AcDbScale
 70
     0
300
1/128" = 1'-0"
140
0.0078125
141
12.0
290
     0
  0
SCALE
  5
A267
102
{ACAD_REACTORS
330
A264
102
}
330
A264
100
AcDbScale
 70
     0
300
1/64" = 1'-0"
140
0.015625
141
12.0
290
     0
  0
SCALE
  5
A268
102
{ACAD_REACTORS
330
A264
102
}
330
A264
100
AcDbScale
 70
     0
300
1/32" = 1'-0"
140
0.03125
141
12.0
290
     0
  0
SCALE
  5
A269
102
{ACAD_REACTORS
330
A264
102
}
330
A264
100
AcDbScale
 70
     0
300
1/16" = 1'-0"
140
0.0625
141
12.0
290
     0
  0
SCALE
  5
A26A
102
{ACAD_REACTORS
330
A264
102
}
330
A264
100
AcDbScale
 70
     0
300
3/32" = 1'-0"
140
0.09375
141
12.0
290
     0
  0
SCALE
  5
A26B
102
{ACAD_REACTORS
330
A264
102
}
330
A264
100
AcDbScale
 70
     0
300
1/8" = 1'-0"
140
0.125
141
12.0
290
     0
  0
SCALE
  5
A26C
102
{ACAD_REACTORS
330
A264
102
}
330
A264
100
AcDbScale
 70
     0
300
3/16" = 1'-0"
140
0.1875
141
12.0
290
     0
  0
SCALE
  5
A26D
102
{ACAD_REACTORS
330
A264
102
}
330
A264
100
AcDbScale
 70
     0
300
1/4" = 1'-0"
140
0.25
141
12.0
290
     0
  0
SCALE
  5
A26E
102
{ACAD_REACTORS
330
A264
102
}
330
A264
100
AcDbScale
 70
     0
300
3/8" = 1'-0"
140
0.375
141
12.0
290
     0
  0
SCALE
  5
A26F
102
{ACAD_REACTORS
330
A264
102
}
330
A264
100
AcDbScale
 70
     0
300
1/2" = 1'-0"
140
0.5
141
12.0
290
     0
  0
SCALE
  5
A270
102
{ACAD_REACTORS
330
A264
102
}
330
A264
100
AcDbScale
 70
     0
300
3/4" = 1'-0"
140
0.75
141
12.0
290
     0
  0
SCALE
  5
A271
102
{ACAD_REACTORS
330
A264
102
}
330
A264
100
AcDbScale
 70
     0
300
1" = 1'-0"
140
1.0
141
12.0
290
     0
  0
SCALE
  5
A272
102
{ACAD_REACTORS
330
A264
102
}
330
A264
100
AcDbScale
 70
     0
300
1-1/2" = 1'-0"
140
1.5
141
12.0
290
     0
  0
SCALE
  5
A273
102
{ACAD_REACTORS
330
A264
102
}
330
A264
100
AcDbScale
 70
     0
300
3" = 1'-0"
140
3.0
141
12.0
290
     0
  0
SCALE
  5
A274
102
{ACAD_REACTORS
330
A264
102
}
330
A264
100
AcDbScale
 70
     0
300
6" = 1'-0"
140
6.0
141
12.0
290
     0
  0
SCALE
  5
A275
102
{ACAD_REACTORS
330
A264
102
}
330
A264
100
AcDbScale
 70
     0
300
1'-0" = 1'-0"
140
12.0
141
12.0
290
     0
  0
ACDBSECTIONVIEWSTYLE
  5
A279
102
{ACAD_XDICTIONARY
360
A2D4
102
}
102
{ACAD_REACTORS
330
A278
102
}
330
A278
100
AcDbModelDocViewStyle
 70
     0
  3
Imperial24
290
     0
100
AcDbSectionViewStyle
 70
     0
 71
     0
 90
       78
 71
     1
340
9F6B
 40
0.24
340
0
340
0
 40
0.24
300
I, O, Q, S, X, Z
 40
0.48
 90
        3
 40
0.18
 90
        1
 71
     2
340
9F6F
 90
       25
340
9F6F
 90
       50
 40
0.24
 40
0.0
 40
0.24
 71
     3
340
9F6B
 40
0.24
 90
        1
 40
0.75
 90
        1
300
%<\AcVar ViewType \f "%tc1">% %<\AcVar ViewSectionStartId>%-%<\AcVar ViewSectionEndId>%\PSCALE %<\AcVar ViewScale \f "%sn">%
 71
     4
300
ANSI31
 40
1.0
 90
        0
290
     0
290
     0
 90
        6
 40
0.0
 40
1.570796326794896
 40
0.2617993877991494
 40
1.308996938995747
 40
-0.2617993877991494
 40
1.832595714594046
  0
TABLESTYLE
  5
A263
102
{ACAD_XDICTIONARY
360
A29B
102
}
102
{ACAD_REACTORS
330
A262
102
}
330
A262
100
AcDbTableStyle
  3
Standard
 70
     0
 71
     0
 40
0.06
 41
0.06
280
     0
281
     0
  7
STANDARD
140
0.18
170
     2
 62
     0
 63
     7
283
     0
274
    -2
284
     1
 64
     0
275
    -2
285
     1
 65
     0
276
    -2
286
     1
 66
     0
277
    -2
287
     1
 67
     0
278
    -2
288
     1
 68
     0
279
    -2
289
     1
 69
     0
  7
STANDARD
140
0.25
170
     5
 62
     0
 63
     7
283
     0
274
    -2
284
     1
 64
     0
275
    -2
285
     1
 65
     0
276
    -2
286
     1
 66
     0
277
    -2
287
     1
 67
     0
278
    -2
288
     1
 68
     0
279
    -2
289
     1
 69
     0
  7
STANDARD
140
0.18
170
     5
 62
     0
 63
     7
283
     0
274
    -2
284
     1
 64
     0
275
    -2
285
     1
 65
     0
276
    -2
286
     1
 66
     0
277
    -2
287
     1
 67
     0
278
    -2
288
     1
 68
     0
279
    -2
289
     1
 69
     0
  0
VISUALSTYLE
  5
A24E
102
{ACAD_XDICTIONARY
360
A2AC
102
}
102
{ACAD_REACTORS
330
A248
102
}
330
A248
100
AcDbVisualStyle
  2
2dWireframe
 70
     4
 71
     0
 72
     2
 73
     0
 90
        0
 40
-0.6
 41
-30.0
 62
     5
 63
     7
 74
     1
 91
        4
 64
     7
 65
   257
 75
     1
175
     1
 42
1.0
 92
        0
 66
   257
 43
1.0
 76
     1
 77
     6
 78
     2
 67
     7
 79
     5
170
     0
171
     0
290
     0
174
     0
 93
        1
 44
0.0
173
     0
291
     0
 45
0.0
1001
ACAD
1000
AcDbSavedByObjectVersion
1070
     0
  0
VISUALSTYLE
  5
A24D
102
{ACAD_XDICTIONARY
360
A2AA
102
}
102
{ACAD_REACTORS
330
A248
102
}
330
A248
100
AcDbVisualStyle
  2
Basic
 70
     7
 71
     1
 72
     0
 73
     1
 90
        0
 40
-0.6
 41
-30.0
 62
     5
 63
     7
 74
     0
 91
        4
 64
     7
 65
   257
 75
     1
175
     1
 42
1.0
 92
        8
 66
     7
 43
1.0
 76
     1
 77
     6
 78
     2
 67
     7
 79
     5
170
     0
171
     0
290
     0
174
     0
 93
        1
 44
0.0
173
     0
291
     1
 45
0.0
1001
ACAD
1000
AcDbSavedByObjectVersion
1070
     0
  0
VISUALSTYLE
  5
A254
102
{ACAD_XDICTIONARY
360
A2B8
102
}
102
{ACAD_REACTORS
330
A248
102
}
330
A248
100
AcDbVisualStyle
  2
Brighten
 70
    12
 71
     2
 72
     2
 73
     0
 90
        0
 40
-0.6
 41
-30.0
 62
     5
 63
     7
 74
     1
 91
        4
 64
     7
 65
   257
 75
     1
175
     1
 42
1.0
 92
        8
 66
     7
 43
1.0
 76
     1
 77
     6
 78
     2
 67
     7
 79
     5
170
     0
171
     0
290
     0
174
     0
 93
        1
 44
50.0
173
     0
291
     1
 45
0.0
1001
ACAD
1000
AcDbSavedByObjectVersion
1070
     0
  0
VISUALSTYLE
  5
A258
102
{ACAD_XDICTIONARY
360
A2C0
102
}
102
{ACAD_REACTORS
330
A248
102
}
330
A248
100
AcDbVisualStyle
  2
ColorChange
 70
    16
 71
     2
 72
     2
 73
     3
 90
        0
 40
-0.6
 41
-30.0
 62
     5
 63
     8
 74
     1
 91
        4
 64
     7
 65
   257
 75
     1
175
     1
 42
1.0
 92
        8
 66
     8
 43
1.0
 76
     1
 77
     6
 78
     2
 67
     7
 79
     5
170
     0
171
     0
290
     0
174
     0
 93
        1
 44
0.0
173
     0
291
     1
 45
0.0
1001
ACAD
1000
AcDbSavedByObjectVersion
1070
     0
  0
VISUALSTYLE
  5
A251
102
{ACAD_XDICTIONARY
360
A2B2
102
}
102
{ACAD_REACTORS
330
A248
102
}
330
A248
100
AcDbVisualStyle
  2
Conceptual
 70
     9
 71
     3
 72
     2
 73
     0
 90
        0
 40
-0.6
 41
-30.0
 62
     5
 63
     7
 74
     2
 91
        2
 64
     7
 65
   257
 75
     1
175
     1
 42
179.0
 92
        8
 66
     7
 43
1.0
 76
     1
 77
     6
 78
     2
 67
     7
 79
     3
170
     0
171
     0
290
     0
174
     0
 93
        1
 44
0.0
173
     0
291
     0
 45
0.0
1001
ACAD
1000
AcDbSavedByObjectVersion
1070
     0
  0
VISUALSTYLE
  5
A253
102
{ACAD_XDICTIONARY
360
A2B6
102
}
102
{ACAD_REACTORS
330
A248
102
}
330
A248
100
AcDbVisualStyle
  2
Dim
 70
    11
 71
     2
 72
     2
 73
     0
 90
        0
 40
-0.6
 41
-30.0
 62
     5
 63
     7
 74
     1
 91
        4
 64
     7
 65
   257
 75
     1
175
     1
 42
1.0
 92
        8
 66
     7
 43
1.0
 76
     1
 77
     6
 78
     2
 67
     7
 79
     5
170
     0
171
     0
290
     0
174
     0
 93
        1
 44
-50.0
173
     0
291
     1
 45
0.0
1001
ACAD
1000
AcDbSavedByObjectVersion
1070
     0
  0
VISUALSTYLE
  5
A260
102
{ACAD_XDICTIONARY
360
A2D0
102
}
102
{ACAD_REACTORS
330
A248
102
}
330
A248
100
AcDbVisualStyle
  2
EdgeColorOff
 70
    22
 71
     2
 72
     2
 73
     0
 90
        0
 40
-0.6
 41
-30.0
 62
     5
 63
     7
 74
     1
 91
        4
 64
     7
 65
   257
 75
     1
175
     1
 42
1.0
 92
        8
 66
     7
 43
1.0
 76
     1
 77
     6
 78
     2
 67
     7
 79
     5
170
     0
171
     0
290
     0
174
     0
 93
        1
 44
0.0
173
     0
291
     1
 45
0.0
1001
ACAD
1000
AcDbSavedByObjectVersion
1070
     0
  0
VISUALSTYLE
  5
A257
102
{ACAD_XDICTIONARY
360
A2BE
102
}
102
{ACAD_REACTORS
330
A248
102
}
330
A248
100
AcDbVisualStyle
  2
Facepattern
 70
    15
 71
     2
 72
     2
 73
     0
 90
        0
 40
-0.6
 41
-30.0
 62
     5
 63
     7
 74
     1
 91
        4
 64
     7
 65
   257
 75
     1
175
     1
 42
1.0
 92
        8
 66
     7
 43
1.0
 76
     1
 77
     6
 78
     2
 67
     7
 79
     5
170
     0
171
     0
290
     0
174
     0
 93
        1
 44
0.0
173
     0
291
     1
 45
0.0
1001
ACAD
1000
AcDbSavedByObjectVersion
1070
     0
  0
VISUALSTYLE
  5
A249
102
{ACAD_XDICTIONARY
360
A2A2
102
}
102
{ACAD_REACTORS
330
A248
102
}
330
A248
100
AcDbVisualStyle
  2
Flat
 70
     0
 71
     2
 72
     1
 73
     1
 90
        2
 40
-0.6
 41
30.0
 62
     5
 63
     7
 74
     0
 91
        0
 64
     7
 65
   257
 75
     1
175
     1
 42
1.0
 92
        8
 66
     7
 43
1.0
 76
     1
 77
     6
 78
     2
 67
     7
 79
     5
170
     0
171
     0
290
     0
174
     0
 93
       13
 44
0.0
173
     0
291
     1
 45
0.0
1001
ACAD
1000
AcDbSavedByObjectVersion
1070
     0
  0
VISUALSTYLE
  5
A24A
102
{ACAD_XDICTIONARY
360
A2A4
102
}
102
{ACAD_REACTORS
330
A248
102
}
330
A248
100
AcDbVisualStyle
  2
FlatWithEdges
 70
     1
 71
     2
 72
     1
 73
     1
 90
        2
 40
-0.6
 41
30.0
 62
     5
 63
     7
 74
     1
 91
        0
 64
     7
 65
   257
 75
     1
175
     1
 42
1.0
 92
        0
 66
   257
 43
1.0
 76
     1
 77
     6
 78
     2
 67
     7
 79
     5
170
     0
171
     0
290
     0
174
     0
 93
       13
 44
0.0
173
     0
291
     1
 45
0.0
1001
ACAD
1000
AcDbSavedByObjectVersion
1070
     0
  0
VISUALSTYLE
  5
A24B
102
{ACAD_XDICTIONARY
360
A2A6
102
}
102
{ACAD_REACTORS
330
A248
102
}
330
A248
100
AcDbVisualStyle
  2
Gouraud
 70
     2
 71
     2
 72
     2
 73
     1
 90
        2
 40
-0.6
 41
30.0
 62
     5
 63
     7
 74
     0
 91
        0
 64
     7
 65
   257
 75
     1
175
     1
 42
1.0
 92
        0
 66
     7
 43
1.0
 76
     1
 77
     6
 78
     2
 67
     7
 79
     5
170
     0
171
     0
290
     0
174
     0
 93
       13
 44
0.0
173
     0
291
     1
 45
0.0
1001
ACAD
1000
AcDbSavedByObjectVersion
1070
     0
  0
VISUALSTYLE
  5
A24C
102
{ACAD_XDICTIONARY
360
A2A8
102
}
102
{ACAD_REACTORS
330
A248
102
}
330
A248
100
AcDbVisualStyle
  2
GouraudWithEdges
 70
     3
 71
     2
 72
     2
 73
     1
 90
        2
 40
-0.6
 41
30.0
 62
     5
 63
     7
 74
     1
 91
        0
 64
     7
 65
   257
 75
     1
175
     1
 42
1.0
 92
        0
 66
   257
 43
1.0
 76
     1
 77
     6
 78
     2
 67
     7
 79
     5
170
     0
171
     0
290
     0
174
     0
 93
       13
 44
0.0
173
     0
291
     1
 45
0.0
1001
ACAD
1000
AcDbSavedByObjectVersion
1070
     0
  0
VISUALSTYLE
  5
A250
102
{ACAD_XDICTIONARY
360
A2B0
102
}
102
{ACAD_REACTORS
330
A248
102
}
330
A248
100
AcDbVisualStyle
  2
Hidden
 70
     6
 71
     1
 72
     2
 73
     2
 90
        0
 40
-0.6
 41
-30.0
 62
     5
 63
     7
 74
     2
 91
        2
 64
     7
 65
   257
 75
     2
175
     1
 42
40.0
 92
        0
 66
   257
 43
1.0
 76
     1
 77
     6
 78
     2
 67
     7
 79
     3
170
     0
171
     0
290
     0
174
     0
 93
        1
 44
0.0
173
     0
291
     0
 45
0.0
1001
ACAD
1000
AcDbSavedByObjectVersion
1070
     0
  0
VISUALSTYLE
  5
A25E
102
{ACAD_XDICTIONARY
360
A2CC
102
}
102
{ACAD_REACTORS
330
A248
102
}
330
A248
100
AcDbVisualStyle
  2
JitterOff
 70
    20
 71
     2
 72
     2
 73
     0
 90
        0
 40
-0.6
 41
-30.0
 62
     5
 63
     7
 74
     1
 91
        4
 64
     7
 65
   257
 75
     1
175
     1
 42
1.0
 92
       10
 66
     7
 43
1.0
 76
     1
 77
     6
 78
     2
 67
     7
 79
     5
170
     0
171
     0
290
     0
174
     0
 93
        1
 44
0.0
173
     0
291
     1
 45
0.0
1001
ACAD
1000
AcDbSavedByObjectVersion
1070
     0
  0
VISUALSTYLE
  5
A256
102
{ACAD_XDICTIONARY
360
A2BC
102
}
102
{ACAD_REACTORS
330
A248
102
}
330
A248
100
AcDbVisualStyle
  2
Linepattern
 70
    14
 71
     2
 72
     2
 73
     0
 90
        0
 40
-0.6
 41
-30.0
 62
     5
 63
     7
 74
     1
 91
        4
 64
     7
 65
   257
 75
     7
175
     7
 42
1.0
 92
        8
 66
     7
 43
1.0
 76
     1
 77
     6
 78
     2
 67
     7
 79
     5
170
     0
171
     0
290
     0
174
     0
 93
        1
 44
0.0
173
     0
291
     1
 45
0.0
1001
ACAD
1000
AcDbSavedByObjectVersion
1070
     0
  0
VISUALSTYLE
  5
A25F
102
{ACAD_XDICTIONARY
360
A2CE
102
}
102
{ACAD_REACTORS
330
A248
102
}
330
A248
100
AcDbVisualStyle
  2
OverhangOff
 70
    21
 71
     2
 72
     2
 73
     0
 90
        0
 40
-0.6
 41
-30.0
 62
     5
 63
     7
 74
     1
 91
        4
 64
     7
 65
   257
 75
     1
175
     1
 42
1.0
 92
        9
 66
     7
 43
1.0
 76
     1
 77
     6
 78
     2
 67
     7
 79
     5
170
     0
171
     0
290
     0
174
     0
 93
        1
 44
0.0
173
     0
291
     1
 45
0.0
1001
ACAD
1000
AcDbSavedByObjectVersion
1070
     0
  0
VISUALSTYLE
  5
A252
102
{ACAD_XDICTIONARY
360
A2B4
102
}
102
{ACAD_REACTORS
330
A248
102
}
330
A248
100
AcDbVisualStyle
  2
Realistic
 70
     8
 71
     2
 72
     3
 73
     0
 90
        2
 40
-0.6
 41
30.0
 62
     5
 63
     7
 74
     0
 91
        0
 64
     7
 65
   257
 75
     1
175
     1
 42
1.0
 92
        8
 66
   257
 43
1.0
 76
     1
 77
     6
 78
     2
 67
     7
 79
     3
170
     0
171
     0
290
     0
174
     0
 93
       13
 44
0.0
173
     0
291
     0
 45
0.0
1001
ACAD
1000
AcDbSavedByObjectVersion
1070
     0
  0
VISUALSTYLE
  5
A25D
102
{ACAD_XDICTIONARY
360
A2CA
102
}
102
{ACAD_REACTORS
330
A248
102
}
330
A248
100
AcDbVisualStyle
  2
Shaded
 70
    27
 71
     2
 72
     2
 73
     1
 90
        2
 40
-0.6
 41
30.0
 62
     5
 63
     7
 74
     0
 91
        4
 64
     7
 65
   257
 75
     1
175
     1
 42
1.0
 92
        8
 66
   257
 43
1.0
 76
     1
 77
     6
 78
     2
 67
     8
 79
     3
170
     0
171
     0
290
     0
174
     0
 93
        5
 44
0.0
173
     0
291
     0
 45
0.0
1001
ACAD
1000
AcDbSavedByObjectVersion
1070
     0
  0
VISUALSTYLE
  5
A25C
102
{ACAD_XDICTIONARY
360
A2C8
102
}
102
{ACAD_REACTORS
330
A248
102
}
330
A248
100
AcDbVisualStyle
  2
Shaded with edges
 70
    26
 71
     2
 72
     2
 73
     1
 90
        2
 40
-0.6
 41
30.0
 62
     5
 63
     7
 74
     1
 91
       10
 64
     7
 65
   257
 75
     2
175
     1
 42
1.0
 92
        8
 66
   257
 43
1.0
 76
     1
 77
     6
 78
     2
 67
     7
 79
     3
170
     0
171
     0
290
     0
174
     0
 93
        5
 44
0.0
173
     0
291
     0
 45
0.0
1001
ACAD
1000
AcDbSavedByObjectVersion
1070
     0
  0
VISUALSTYLE
  5
A259
102
{ACAD_XDICTIONARY
360
A2C2
102
}
102
{ACAD_REACTORS
330
A248
102
}
330
A248
100
AcDbVisualStyle
  2
Shades of Gray
 70
    23
 71
     2
 72
     2
 73
     3
 90
        0
 40
-0.6
 41
-30.0
 62
     5
 63
     7
 74
     2
 91
        2
 64
     7
 65
     7
 75
     1
175
     1
 42
40.0
 92
        8
 66
     7
 43
1.0
 76
     1
 77
     6
 78
     2
 67
     7
 79
     3
170
     0
171
     0
290
     0
174
     0
 93
        1
 44
0.0
173
     0
291
     0
 45
0.0
1001
ACAD
1000
AcDbSavedByObjectVersion
1070
     0
  0
VISUALSTYLE
  5
A25A
102
{ACAD_XDICTIONARY
360
A2C4
102
}
102
{ACAD_REACTORS
330
A248
102
}
330
A248
100
AcDbVisualStyle
  2
Sketchy
 70
    24
 71
     1
 72
     2
 73
     2
 90
        0
 40
-0.6
 41
-30.0
 62
     5
 63
     7
 74
     2
 91
        2
 64
     7
 65
     7
 75
     1
175
     1
 42
40.0
 92
       11
 66
     7
 43
1.0
 76
     1
 77
     6
 78
     2
 67
     7
 79
     6
170
     0
171
     0
290
     0
174
     0
 93
        1
 44
0.0
173
     0
291
     0
 45
0.0
1001
ACAD
1000
AcDbSavedByObjectVersion
1070
     0
  0
VISUALSTYLE
  5
A255
102
{ACAD_XDICTIONARY
360
A2BA
102
}
102
{ACAD_REACTORS
330
A248
102
}
330
A248
100
AcDbVisualStyle
  2
Thicken
 70
    13
 71
     2
 72
     2
 73
     0
 90
        0
 40
-0.6
 41
-30.0
 62
     5
 63
     7
 74
     1
 91
        4
 64
     7
 65
   257
 75
     1
175
     1
 42
1.0
 92
       12
 66
     7
 43
1.0
 76
     1
 77
     6
 78
     2
 67
     7
 79
     5
170
     0
171
     0
290
     0
174
     0
 93
        1
 44
0.0
173
     0
291
     1
 45
0.0
1001
ACAD
1000
AcDbSavedByObjectVersion
1070
     0
  0
VISUALSTYLE
  5
A24F
102
{ACAD_XDICTIONARY
360
A2AE
102
}
102
{ACAD_REACTORS
330
A248
102
}
330
A248
100
AcDbVisualStyle
  2
Wireframe
 70
     5
 71
     0
 72
     2
 73
     0
 90
        0
 40
-0.6
 41
-30.0
 62
     5
 63
     7
 74
     1
 91
        4
 64
     7
 65
   257
 75
     1
175
     1
 42
1.0
 92
        0
 66
   257
 43
1.0
 76
     1
 77
     6
 78
     2
 67
     7
 79
     3
170
     0
171
     0
290
     0
174
     0
 93
        1
 44
0.0
173
     0
291
     0
 45
0.0
1001
ACAD
1000
AcDbSavedByObjectVersion
1070
     0
  0
VISUALSTYLE
  5
A25B
102
{ACAD_XDICTIONARY
360
A2C6
102
}
102
{ACAD_REACTORS
330
A248
102
}
330
A248
100
AcDbVisualStyle
  2
X-Ray
 70
    25
 71
     2
 72
     2
 73
     1
 90
        1
 40
0.5
 41
-30.0
 62
     5
 63
     7
 74
     1
 91
        0
 64
     7
 65
   257
 75
     1
175
     1
 42
1.0
 92
        8
 66
     7
 43
1.0
 76
     1
 77
     6
 78
     2
 67
     7
 79
     3
170
     0
171
     0
290
     0
174
     0
 93
       13
 44
0.0
173
     0
291
     0
 45
0.0
1001
ACAD
1000
AcDbSavedByObjectVersion
1070
     0
  0
DICTIONARYVAR
  5
A295
102
{ACAD_REACTORS
330
A290
102
}
330
A290
100
DictionaryVariables
280
     0
  1
1:1
  0
DICTIONARYVAR
  5
A292
102
{ACAD_REACTORS
330
A290
102
}
330
A290
100
DictionaryVariables
280
     0
  1
STANDARD
  0
DICTIONARYVAR
  5
A291
102
{ACAD_REACTORS
330
A290
102
}
330
A290
100
DictionaryVariables
280
     0
  1
STANDARD
  0
DICTIONARYVAR
  5
A293
102
{ACAD_REACTORS
330
A290
102
}
330
A290
100
DictionaryVariables
280
     0
  1
Imperial24
  0
DICTIONARYVAR
  5
A294
102
{ACAD_REACTORS
330
A290
102
}
330
A290
100
DictionaryVariables
280
     0
  1
Imperial24
  0
DICTIONARYVAR
  5
A298
102
{ACAD_REACTORS
330
A290
102
}
330
A290
100
DictionaryVariables
280
     0
  1
1
  0
DICTIONARYVAR
  5
A297
102
{ACAD_REACTORS
330
A290
102
}
330
A290
100
DictionaryVariables
280
     0
  1
0
  0
DICTIONARYVAR
  5
A296
102
{ACAD_REACTORS
330
A290
102
}
330
A290
100
DictionaryVariables
280
     0
  1
127
  0
DICTIONARYVAR
  5
A299
102
{ACAD_REACTORS
330
A290
102
}
330
A290
100
DictionaryVariables
280
     0
  1
2
  0
DICTIONARY
  5
A2D6
330
A27B
100
AcDbDictionary
280
     1
281
     1
  3
ACAD_XREC_ROUNDTRIP
360
A2D7
  0
DICTIONARY
  5
A2D8
330
A27C
100
AcDbDictionary
280
     1
281
     1
  3
ACAD_XREC_ROUNDTRIP
360
A2D9
  0
DICTIONARY
  5
A2DA
330
A27D
100
AcDbDictionary
280
     1
281
     1
  3
ACAD_XREC_ROUNDTRIP
360
A2DB
  0
DICTIONARY
  5
A239
330
A238
100
AcDbDictionary
280
     1
281
     1
  3
ACAD_XREC_ROUNDTRIP
360
A2A0
  3
BUMPTILE
360
A23B
  3
DIFFUSETILE
360
A23A
  3
OPACITYTILE
360
A23E
  3
REFLECTIONTILE
360
A23D
  3
REFRACTIONTILE
360
A23F
  3
SPECULARTILE
360
A23C
  0
DICTIONARY
  5
A231
330
A230
100
AcDbDictionary
280
     1
281
     1
  3
ACAD_XREC_ROUNDTRIP
360
A29F
  3
BUMPTILE
360
A233
  3
DIFFUSETILE
360
A232
  3
OPACITYTILE
360
A236
  3
REFLECTIONTILE
360
A235
  3
REFRACTIONTILE
360
A237
  3
SPECULARTILE
360
A234
  0
DICTIONARY
  5
A241
330
A240
100
AcDbDictionary
280
     1
281
     1
  3
ACAD_XREC_ROUNDTRIP
360
A2A1
  3
BUMPTILE
360
A243
  3
DIFFUSETILE
360
A242
  3
OPACITYTILE
360
A246
  3
REFLECTIONTILE
360
A245
  3
REFRACTIONTILE
360
A247
  3
SPECULARTILE
360
A244
  0
DICTIONARY
  5
A2D4
330
A279
100
AcDbDictionary
280
     1
281
     1
  3
ACAD_XREC_ROUNDTRIP
360
A2D5
  0
DICTIONARY
  5
A29B
330
A263
100
AcDbDictionary
280
     1
281
     1
  3
ACAD_ROUNDTRIP_2008_TABLESTYLE_CELLSTYLEMAP
360
A29C
  3
ACAD_XREC_ROUNDTRIP
360
A2D2
  0
DICTIONARY
  5
A2AC
330
A24E
100
AcDbDictionary
280
     1
281
     1
  3
ACAD_XREC_ROUNDTRIP
360
A2AD
  0
DICTIONARY
  5
A2AA
330
A24D
100
AcDbDictionary
280
     1
281
     1
  3
ACAD_XREC_ROUNDTRIP
360
A2AB
  0
DICTIONARY
  5
A2B8
330
A254
100
AcDbDictionary
280
     1
281
     1
  3
ACAD_XREC_ROUNDTRIP
360
A2B9
  0
DICTIONARY
  5
A2C0
330
A258
100
AcDbDictionary
280
     1
281
     1
  3
ACAD_XREC_ROUNDTRIP
360
A2C1
  0
DICTIONARY
  5
A2B2
330
A251
100
AcDbDictionary
280
     1
281
     1
  3
ACAD_XREC_ROUNDTRIP
360
A2B3
  0
DICTIONARY
  5
A2B6
330
A253
100
AcDbDictionary
280
     1
281
     1
  3
ACAD_XREC_ROUNDTRIP
360
A2B7
  0
DICTIONARY
  5
A2D0
330
A260
100
AcDbDictionary
280
     1
281
     1
  3
ACAD_XREC_ROUNDTRIP
360
A2D1
  0
DICTIONARY
  5
A2BE
330
A257
100
AcDbDictionary
280
     1
281
     1
  3
ACAD_XREC_ROUNDTRIP
360
A2BF
  0
DICTIONARY
  5
A2A2
330
A249
100
AcDbDictionary
280
     1
281
     1
  3
ACAD_XREC_ROUNDTRIP
360
A2A3
  0
DICTIONARY
  5
A2A4
330
A24A
100
AcDbDictionary
280
     1
281
     1
  3
ACAD_XREC_ROUNDTRIP
360
A2A5
  0
DICTIONARY
  5
A2A6
330
A24B
100
AcDbDictionary
280
     1
281
     1
  3
ACAD_XREC_ROUNDTRIP
360
A2A7
  0
DICTIONARY
  5
A2A8
330
A24C
100
AcDbDictionary
280
     1
281
     1
  3
ACAD_XREC_ROUNDTRIP
360
A2A9
  0
DICTIONARY
  5
A2B0
330
A250
100
AcDbDictionary
280
     1
281
     1
  3
ACAD_XREC_ROUNDTRIP
360
A2B1
  0
DICTIONARY
  5
A2CC
330
A25E
100
AcDbDictionary
280
     1
281
     1
  3
ACAD_XREC_ROUNDTRIP
360
A2CD
  0
DICTIONARY
  5
A2BC
330
A256
100
AcDbDictionary
280
     1
281
     1
  3
ACAD_XREC_ROUNDTRIP
360
A2BD
  0
DICTIONARY
  5
A2CE
330
A25F
100
AcDbDictionary
280
     1
281
     1
  3
ACAD_XREC_ROUNDTRIP
360
A2CF
  0
DICTIONARY
  5
A2B4
330
A252
100
AcDbDictionary
280
     1
281
     1
  3
ACAD_XREC_ROUNDTRIP
360
A2B5
  0
DICTIONARY
  5
A2CA
330
A25D
100
AcDbDictionary
280
     1
281
     1
  3
ACAD_XREC_ROUNDTRIP
360
A2CB
  0
DICTIONARY
  5
A2C8
330
A25C
100
AcDbDictionary
280
     1
281
     1
  3
ACAD_XREC_ROUNDTRIP
360
A2C9
  0
DICTIONARY
  5
A2C2
330
A259
100
AcDbDictionary
280
     1
281
     1
  3
ACAD_XREC_ROUNDTRIP
360
A2C3
  0
DICTIONARY
  5
A2C4
330
A25A
100
AcDbDictionary
280
     1
281
     1
  3
ACAD_XREC_ROUNDTRIP
360
A2C5
  0
DICTIONARY
  5
A2BA
330
A255
100
AcDbDictionary
280
     1
281
     1
  3
ACAD_XREC_ROUNDTRIP
360
A2BB
  0
DICTIONARY
  5
A2AE
330
A24F
100
AcDbDictionary
280
     1
281
     1
  3
ACAD_XREC_ROUNDTRIP
360
A2AF
  0
DICTIONARY
  5
A2C6
330
A25B
100
AcDbDictionary
280
     1
281
     1
  3
ACAD_XREC_ROUNDTRIP
360
A2C7
  0
XRECORD
  5
A2D7
102
{ACAD_REACTORS
330
A2D6
102
}
330
A2D6
100
AcDbXrecord
280
     1
102
DISPLAYNAME
  1
Imperial24
102
FLAGS
 90
        0
  0
XRECORD
  5
A2D9
102
{ACAD_REACTORS
330
A2D8
102
}
330
A2D8
100
AcDbXrecord
280
     1
102
SHADEPLOT
 70
     0
102
SHADEPLOTRESLEVEL
 70
     2
102
SHADEPLOTCUSTOMDPI
 70
   300
  0
XRECORD
  5
A2DB
102
{ACAD_REACTORS
330
A2DA
102
}
330
A2DA
100
AcDbXrecord
280
     1
102
SHADEPLOT
 70
     0
102
SHADEPLOTRESLEVEL
 70
     2
102
SHADEPLOTCUSTOMDPI
 70
   300
  0
XRECORD
  5
A2A0
102
{ACAD_REACTORS
330
A239
102
}
330
A239
100
AcDbXrecord
280
     1
102
MATERIAL
148
0.0
149
0.0
149
0.0
 93
        0
 94
      127
282
     0
 72
     0
 77
     0
171
     0
175
     0
179
     0
273
     0
  0
XRECORD
  5
A23B
102
{ACAD_REACTORS
330
A239
102
}
330
A239
100
AcDbXrecord
280
     1
270
     1
271
     1
  0
XRECORD
  5
A23A
102
{ACAD_REACTORS
330
A239
102
}
330
A239
100
AcDbXrecord
280
     1
270
     1
271
     1
  0
XRECORD
  5
A23E
102
{ACAD_REACTORS
330
A239
102
}
330
A239
100
AcDbXrecord
280
     1
270
     1
271
     1
  0
XRECORD
  5
A23D
102
{ACAD_REACTORS
330
A239
102
}
330
A239
100
AcDbXrecord
280
     1
270
     1
271
     1
  0
XRECORD
  5
A23F
102
{ACAD_REACTORS
330
A239
102
}
330
A239
100
AcDbXrecord
280
     1
270
     1
271
     1
  0
XRECORD
  5
A23C
102
{ACAD_REACTORS
330
A239
102
}
330
A239
100
AcDbXrecord
280
     1
270
     1
271
     1
  0
XRECORD
  5
A29F
102
{ACAD_REACTORS
330
A231
102
}
330
A231
100
AcDbXrecord
280
     1
102
MATERIAL
148
0.0
149
0.0
149
0.0
 93
        0
 94
      127
282
     0
 72
     0
 77
     0
171
     0
175
     0
179
     0
273
     0
  0
XRECORD
  5
A233
102
{ACAD_REACTORS
330
A231
102
}
330
A231
100
AcDbXrecord
280
     1
270
     1
271
     1
  0
XRECORD
  5
A232
102
{ACAD_REACTORS
330
A231
102
}
330
A231
100
AcDbXrecord
280
     1
270
     1
271
     1
  0
XRECORD
  5
A236
102
{ACAD_REACTORS
330
A231
102
}
330
A231
100
AcDbXrecord
280
     1
270
     1
271
     1
  0
XRECORD
  5
A235
102
{ACAD_REACTORS
330
A231
102
}
330
A231
100
AcDbXrecord
280
     1
270
     1
271
     1
  0
XRECORD
  5
A237
102
{ACAD_REACTORS
330
A231
102
}
330
A231
100
AcDbXrecord
280
     1
270
     1
271
     1
  0
XRECORD
  5
A234
102
{ACAD_REACTORS
330
A231
102
}
330
A231
100
AcDbXrecord
280
     1
270
     1
271
     1
  0
XRECORD
  5
A2A1
102
{ACAD_REACTORS
330
A241
102
}
330
A241
100
AcDbXrecord
280
     1
102
MATERIAL
148
0.0
149
0.0
149
0.0
 93
        0
 94
      127
282
     0
 72
     0
 77
     0
171
     0
175
     0
179
     0
273
     0
  0
XRECORD
  5
A243
102
{ACAD_REACTORS
330
A241
102
}
330
A241
100
AcDbXrecord
280
     1
270
     1
271
     1
  0
XRECORD
  5
A242
102
{ACAD_REACTORS
330
A241
102
}
330
A241
100
AcDbXrecord
280
     1
270
     1
271
     1
  0
XRECORD
  5
A246
102
{ACAD_REACTORS
330
A241
102
}
330
A241
100
AcDbXrecord
280
     1
270
     1
271
     1
  0
XRECORD
  5
A245
102
{ACAD_REACTORS
330
A241
102
}
330
A241
100
AcDbXrecord
280
     1
270
     1
271
     1
  0
XRECORD
  5
A247
102
{ACAD_REACTORS
330
A241
102
}
330
A241
100
AcDbXrecord
280
     1
270
     1
271
     1
  0
XRECORD
  5
A244
102
{ACAD_REACTORS
330
A241
102
}
330
A241
100
AcDbXrecord
280
     1
270
     1
271
     1
  0
XRECORD
  5
A2D5
102
{ACAD_REACTORS
330
A2D4
102
}
330
A2D4
100
AcDbXrecord
280
     1
102
DISPLAYNAME
  1
Imperial24
102
FLAGS
 90
        0
  0
CELLSTYLEMAP
  5
A29C
102
{ACAD_REACTORS
330
A29B
102
}
330
A29B
100
AcDbCellStyleMap
 90
        3
300
CELLSTYLE
  1
TABLEFORMAT_BEGIN
 90
        5
170
     1
 91
        0
 92
    32768
 62
   257
 93
        1
300
CONTENTFORMAT
  1
CONTENTFORMAT_BEGIN
 90
        0
 91
        0
 92
      512
 93
        0
300

 40
0.0
140
1.0
 94
        5
 62
     0
340
9F6B
144
0.25
309
CONTENTFORMAT_END
171
     0
 94
        0
309
TABLEFORMAT_END
  1
CELLSTYLE_BEGIN
 90
        1
 91
        1
300
_TITLE
309
CELLSTYLE_END
300
CELLSTYLE
  1
TABLEFORMAT_BEGIN
 90
        5
170
     1
 91
        0
 92
        0
 62
   257
 93
        1
300
CONTENTFORMAT
  1
CONTENTFORMAT_BEGIN
 90
        0
 91
        0
 92
      512
 93
        0
300

 40
0.0
140
1.0
 94
        5
 62
     0
340
9F6B
144
0.18
309
CONTENTFORMAT_END
171
     0
 94
        0
309
TABLEFORMAT_END
  1
CELLSTYLE_BEGIN
 90
        2
 91
        1
300
_HEADER
309
CELLSTYLE_END
300
CELLSTYLE
  1
TABLEFORMAT_BEGIN
 90
        5
170
     1
 91
        0
 92
        0
 62
   257
 93
        1
300
CONTENTFORMAT
  1
CONTENTFORMAT_BEGIN
 90
        0
 91
        0
 92
      512
 93
        0
300

 40
0.0
140
1.0
 94
        2
 62
     0
340
9F6B
144
0.18
309
CONTENTFORMAT_END
171
     0
 94
        0
309
TABLEFORMAT_END
  1
CELLSTYLE_BEGIN
 90
        3
 91
        2
300
_DATA
309
CELLSTYLE_END
  0
XRECORD
  5
A2D2
102
{ACAD_REACTORS
330
A29B
102
}
330
A29B
100
AcDbXrecord
280
     1
102
ACAD_ROUNDTRIP_PRE2007_TABLESTYLE
 90
      512
 91
        0
  1

 92
      512
 93
        0
  2

 94
      512
 95
        0
  3

  0
XRECORD
  5
A2AD
102
{ACAD_REACTORS
330
A2AC
102
}
330
A2AC
100
AcDbXrecord
280
     1
102
RTVSPost2010Prop28
280
     1
102
RTVSPost2010PropOp28
 70
     1
102
RTVSPost2010Prop29
280
     1
102
RTVSPost2010PropOp29
 70
     1
102
RTVSPost2010Prop30
280
     0
102
RTVSPost2010PropOp30
 70
     1
102
RTVSPost2010Prop31
280
     0
102
RTVSPost2010PropOp31
 70
     1
102
RTVSPost2010Prop32
280
     0
102
RTVSPost2010PropOp32
 70
     1
102
RTVSPost2010Prop33
280
     0
102
RTVSPost2010PropOp33
 70
     1
102
RTVSPost2010Prop34
280
     0
102
RTVSPost2010PropOp34
 70
     1
102
RTVSPost2010Prop35
280
     0
102
RTVSPost2010PropOp35
 70
     1
102
RTVSPost2010Prop36
280
     0
102
RTVSPost2010PropOp36
 70
     1
102
RTVSPost2010Prop37
 90
       50
102
RTVSPost2010PropOp37
 70
     1
102
RTVSPost2010Prop38
140
0.0
102
RTVSPost2010PropOp38
 70
     1
102
RTVSPost2010Prop39
140
1.0
102
RTVSPost2010PropOp39
 70
     1
102
RTVSPost2010Prop40
 90
        0
102
RTVSPost2010PropOp40
 70
     1
102
RTVSPost2010Prop41ColorIndex
 90
       18
102
RTVSPost2010Prop41ColorRGB
 90
        0
102
RTVSPost2010PropOp41
 70
     1
102
RTVSPost2010Prop42
 90
       50
102
RTVSPost2010PropOp42
 70
     1
102
RTVSPost2010Prop43
 90
        3
102
RTVSPost2010PropOp43
 70
     1
102
RTVSPost2010Prop44ColorIndex
 90
        5
102
RTVSPost2010Prop44ColorRGB
 90
      255
102
RTVSPost2010PropOp44
 70
     1
102
RTVSPost2010Prop45
280
     0
102
RTVSPost2010PropOp45
 70
     1
102
RTVSPost2010Prop46
 90
       50
102
RTVSPost2010PropOp46
 70
     1
102
RTVSPost2010Prop47
 90
       50
102
RTVSPost2010PropOp47
 70
     1
102
RTVSPost2010Prop48
 90
       50
102
RTVSPost2010PropOp48
 70
     1
102
RTVSPost2010Prop49
280
     0
102
RTVSPost2010PropOp49
 70
     1
102
RTVSPost2010Prop50
 90
       50
102
RTVSPost2010PropOp50
 70
     1
102
RTVSPost2010Prop51ColorIndex
 90
      256
102
RTVSPost2010Prop51ColorRGB
 90
-16777216
102
RTVSPost2010PropOp51
 70
     0
102
RTVSPost2010Prop52
140
1.0
102
RTVSPost2010PropOp52
 70
     0
102
RTVSPost2010Prop53
 90
        2
102
RTVSPost2010PropOp53
 70
     1
102
RTVSPost2010Prop54
  1
strokes_ogs.tif
102
RTVSPost2010PropOp54
 70
     1
102
RTVSPost2010Prop55
280
     0
102
RTVSPost2010PropOp55
 70
     1
102
RTVSPost2010Prop56
140
1.0
102
RTVSPost2010PropOp56
 70
     1
102
RTVSPost2010Prop57
140
1.0
102
RTVSPost2010PropOp57
 70
     1
102
RTVSPropertyOp0
 70
     1
102
RTVSPropertyOp1
 70
     1
102
RTVSPropertyOp2
 70
     1
102
RTVSPropertyOp3
 70
     1
102
RTVSPropertyOp4
 70
     1
102
RTVSPropertyOp5
 70
     1
102
RTVSPropertyOp6
 70
     1
102
RTVSPropertyOp7
 70
     1
102
RTVSPropertyOp8
 70
     1
102
RTVSPropertyOp9
 70
     1
102
RTVSPropertyOp10
 70
     1
102
RTVSPropertyOp11
 70
     1
102
RTVSPropertyOp12
 70
     1
102
RTVSPropertyOp13
 70
     1
102
RTVSPropertyOp14
 70
     1
102
RTVSPropertyOp15
 70
     1
102
RTVSPropertyOp16
 70
     1
102
RTVSPropertyOp17
 70
     1
102
RTVSPropertyOp18
 70
     1
102
RTVSPropertyOp19
 70
     1
102
RTVSPropertyOp20
 70
     1
102
RTVSPropertyOp21
 70
     1
102
RTVSPropertyOp22
 70
     1
102
RTVSPropertyOp23
 70
     1
102
RTVSPropertyOp24
 70
     1
102
RTVSPropertyOp25
 70
     1
102
RTVSPropertyOp26
 70
     1
102
RTVSPropertyOp27
 70
     1
102
RTVSPropertyOp28
 70
     1
102
RTVSPropertyOp29
 70
     1
102
RTVSPropertyOp30
 70
     1
102
RTVSPropertyOp31
 70
     1
102
RTVSPropertyOp32
 70
     1
102
RTVSPropertyOp33
 70
     1
102
RTVSPropertyOp34
 70
     1
102
RTVSPropertyOp35
 70
     1
102
RTVSPropertyOp36
 70
     1
102
RTVSPropertyOp37
 70
     1
102
RTVSPropertyOp38
 70
     1
102
RTVSPropertyOp39
 70
     1
102
RTVSPropertyOp40
 70
     1
102
RTVSPropertyOp41
 70
     1
102
RTVSPropertyOp42
 70
     1
102
RTVSPropertyOp43
 70
     1
102
RTVSPropertyOp44
 70
     1
102
RTVSPropertyOp45
 70
     1
102
RTVSPropertyOp46
 70
     1
102
RTVSPropertyOp47
 70
     1
102
RTVSPropertyOp48
 70
     1
102
RTVSPropertyOp49
 70
     1
102
RTVSPropertyOp50
 70
     1
102
RTVSPropertyOp51
 70
     0
102
RTVSPropertyOp52
 70
     0
102
RTVSPropertyOp53
 70
     1
102
RTVSPropertyOp54
 70
     1
102
RTVSPropertyOp55
 70
     1
102
RTVSPropertyOp56
 70
     1
102
RTVSPropertyOp57
 70
     1
102
RTVSPropertyOp58
 70
     1
102
RTVSPropertyOp59
 70
     1
102
RTVSPropertyOp60
 70
     1
102
RTVSPropertyOp61
 70
     1
102
RTVSPropertyOp62
 70
     1
  0
XRECORD
  5
A2AB
102
{ACAD_REACTORS
330
A2AA
102
}
330
A2AA
100
AcDbXrecord
280
     1
102
RTVSPost2010Prop28
280
     0
102
RTVSPost2010PropOp28
 70
     1
102
RTVSPost2010Prop29
280
     1
102
RTVSPost2010PropOp29
 70
     1
102
RTVSPost2010Prop30
280
     1
102
RTVSPost2010PropOp30
 70
     1
102
RTVSPost2010Prop31
280
     0
102
RTVSPost2010PropOp31
 70
     1
102
RTVSPost2010Prop32
280
     0
102
RTVSPost2010PropOp32
 70
     1
102
RTVSPost2010Prop33
280
     0
102
RTVSPost2010PropOp33
 70
     1
102
RTVSPost2010Prop34
280
     0
102
RTVSPost2010PropOp34
 70
     1
102
RTVSPost2010Prop35
280
     0
102
RTVSPost2010PropOp35
 70
     1
102
RTVSPost2010Prop36
280
     0
102
RTVSPost2010PropOp36
 70
     1
102
RTVSPost2010Prop37
 90
       50
102
RTVSPost2010PropOp37
 70
     1
102
RTVSPost2010Prop38
140
0.0
102
RTVSPost2010PropOp38
 70
     1
102
RTVSPost2010Prop39
140
1.0
102
RTVSPost2010PropOp39
 70
     1
102
RTVSPost2010Prop40
 90
        0
102
RTVSPost2010PropOp40
 70
     1
102
RTVSPost2010Prop41ColorIndex
 90
       18
102
RTVSPost2010Prop41ColorRGB
 90
        0
102
RTVSPost2010PropOp41
 70
     1
102
RTVSPost2010Prop42
 90
       50
102
RTVSPost2010PropOp42
 70
     1
102
RTVSPost2010Prop43
 90
        3
102
RTVSPost2010PropOp43
 70
     1
102
RTVSPost2010Prop44ColorIndex
 90
        5
102
RTVSPost2010Prop44ColorRGB
 90
      255
102
RTVSPost2010PropOp44
 70
     1
102
RTVSPost2010Prop45
280
     0
102
RTVSPost2010PropOp45
 70
     1
102
RTVSPost2010Prop46
 90
       50
102
RTVSPost2010PropOp46
 70
     1
102
RTVSPost2010Prop47
 90
       50
102
RTVSPost2010PropOp47
 70
     1
102
RTVSPost2010Prop48
 90
       50
102
RTVSPost2010PropOp48
 70
     1
102
RTVSPost2010Prop49
280
     0
102
RTVSPost2010PropOp49
 70
     1
102
RTVSPost2010Prop50
 90
       50
102
RTVSPost2010PropOp50
 70
     1
102
RTVSPost2010Prop51ColorIndex
 90
      256
102
RTVSPost2010Prop51ColorRGB
 90
-16777216
102
RTVSPost2010PropOp51
 70
     0
102
RTVSPost2010Prop52
140
1.0
102
RTVSPost2010PropOp52
 70
     0
102
RTVSPost2010Prop53
 90
        2
102
RTVSPost2010PropOp53
 70
     1
102
RTVSPost2010Prop54
  1
strokes_ogs.tif
102
RTVSPost2010PropOp54
 70
     1
102
RTVSPost2010Prop55
280
     0
102
RTVSPost2010PropOp55
 70
     1
102
RTVSPost2010Prop56
140
1.0
102
RTVSPost2010PropOp56
 70
     1
102
RTVSPost2010Prop57
140
1.0
102
RTVSPost2010PropOp57
 70
     1
102
RTVSPropertyOp0
 70
     1
102
RTVSPropertyOp1
 70
     1
102
RTVSPropertyOp2
 70
     1
102
RTVSPropertyOp3
 70
     1
102
RTVSPropertyOp4
 70
     1
102
RTVSPropertyOp5
 70
     1
102
RTVSPropertyOp6
 70
     1
102
RTVSPropertyOp7
 70
     1
102
RTVSPropertyOp8
 70
     1
102
RTVSPropertyOp9
 70
     1
102
RTVSPropertyOp10
 70
     1
102
RTVSPropertyOp11
 70
     1
102
RTVSPropertyOp12
 70
     1
102
RTVSPropertyOp13
 70
     1
102
RTVSPropertyOp14
 70
     1
102
RTVSPropertyOp15
 70
     1
102
RTVSPropertyOp16
 70
     1
102
RTVSPropertyOp17
 70
     1
102
RTVSPropertyOp18
 70
     1
102
RTVSPropertyOp19
 70
     1
102
RTVSPropertyOp20
 70
     1
102
RTVSPropertyOp21
 70
     1
102
RTVSPropertyOp22
 70
     1
102
RTVSPropertyOp23
 70
     1
102
RTVSPropertyOp24
 70
     1
102
RTVSPropertyOp25
 70
     1
102
RTVSPropertyOp26
 70
     1
102
RTVSPropertyOp27
 70
     1
102
RTVSPropertyOp28
 70
     1
102
RTVSPropertyOp29
 70
     1
102
RTVSPropertyOp30
 70
     1
102
RTVSPropertyOp31
 70
     1
102
RTVSPropertyOp32
 70
     1
102
RTVSPropertyOp33
 70
     1
102
RTVSPropertyOp34
 70
     1
102
RTVSPropertyOp35
 70
     1
102
RTVSPropertyOp36
 70
     1
102
RTVSPropertyOp37
 70
     1
102
RTVSPropertyOp38
 70
     1
102
RTVSPropertyOp39
 70
     1
102
RTVSPropertyOp40
 70
     1
102
RTVSPropertyOp41
 70
     1
102
RTVSPropertyOp42
 70
     1
102
RTVSPropertyOp43
 70
     1
102
RTVSPropertyOp44
 70
     1
102
RTVSPropertyOp45
 70
     1
102
RTVSPropertyOp46
 70
     1
102
RTVSPropertyOp47
 70
     1
102
RTVSPropertyOp48
 70
     1
102
RTVSPropertyOp49
 70
     1
102
RTVSPropertyOp50
 70
     1
102
RTVSPropertyOp51
 70
     0
102
RTVSPropertyOp52
 70
     0
102
RTVSPropertyOp53
 70
     1
102
RTVSPropertyOp54
 70
     1
102
RTVSPropertyOp55
 70
     1
102
RTVSPropertyOp56
 70
     1
102
RTVSPropertyOp57
 70
     1
102
RTVSPropertyOp58
 70
     1
102
RTVSPropertyOp59
 70
     1
102
RTVSPropertyOp60
 70
     1
102
RTVSPropertyOp61
 70
     1
102
RTVSPropertyOp62
 70
     1
  0
XRECORD
  5
A2B9
102
{ACAD_REACTORS
330
A2B8
102
}
330
A2B8
100
AcDbXrecord
280
     1
102
RTVSPost2010Prop28
280
     0
102
RTVSPost2010PropOp28
 70
     1
102
RTVSPost2010Prop29
280
     1
102
RTVSPost2010PropOp29
 70
     1
102
RTVSPost2010Prop30
280
     1
102
RTVSPost2010PropOp30
 70
     1
102
RTVSPost2010Prop31
280
     0
102
RTVSPost2010PropOp31
 70
     1
102
RTVSPost2010Prop32
280
     0
102
RTVSPost2010PropOp32
 70
     1
102
RTVSPost2010Prop33
280
     0
102
RTVSPost2010PropOp33
 70
     1
102
RTVSPost2010Prop34
280
     0
102
RTVSPost2010PropOp34
 70
     1
102
RTVSPost2010Prop35
280
     0
102
RTVSPost2010PropOp35
 70
     1
102
RTVSPost2010Prop36
280
     0
102
RTVSPost2010PropOp36
 70
     1
102
RTVSPost2010Prop37
 90
       50
102
RTVSPost2010PropOp37
 70
     1
102
RTVSPost2010Prop38
140
0.0
102
RTVSPost2010PropOp38
 70
     1
102
RTVSPost2010Prop39
140
1.0
102
RTVSPost2010PropOp39
 70
     1
102
RTVSPost2010Prop40
 90
        0
102
RTVSPost2010PropOp40
 70
     1
102
RTVSPost2010Prop41ColorIndex
 90
       18
102
RTVSPost2010Prop41ColorRGB
 90
        0
102
RTVSPost2010PropOp41
 70
     1
102
RTVSPost2010Prop42
 90
       50
102
RTVSPost2010PropOp42
 70
     1
102
RTVSPost2010Prop43
 90
        3
102
RTVSPost2010PropOp43
 70
     1
102
RTVSPost2010Prop44ColorIndex
 90
        5
102
RTVSPost2010Prop44ColorRGB
 90
      255
102
RTVSPost2010PropOp44
 70
     1
102
RTVSPost2010Prop45
280
     0
102
RTVSPost2010PropOp45
 70
     1
102
RTVSPost2010Prop46
 90
       50
102
RTVSPost2010PropOp46
 70
     1
102
RTVSPost2010Prop47
 90
       50
102
RTVSPost2010PropOp47
 70
     1
102
RTVSPost2010Prop48
 90
       50
102
RTVSPost2010PropOp48
 70
     1
102
RTVSPost2010Prop49
280
     0
102
RTVSPost2010PropOp49
 70
     1
102
RTVSPost2010Prop50
 90
       50
102
RTVSPost2010PropOp50
 70
     1
102
RTVSPost2010Prop51ColorIndex
 90
      256
102
RTVSPost2010Prop51ColorRGB
 90
-16777216
102
RTVSPost2010PropOp51
 70
     0
102
RTVSPost2010Prop52
140
1.0
102
RTVSPost2010PropOp52
 70
     0
102
RTVSPost2010Prop53
 90
        2
102
RTVSPost2010PropOp53
 70
     1
102
RTVSPost2010Prop54
  1
strokes_ogs.tif
102
RTVSPost2010PropOp54
 70
     1
102
RTVSPost2010Prop55
280
     0
102
RTVSPost2010PropOp55
 70
     1
102
RTVSPost2010Prop56
140
1.0
102
RTVSPost2010PropOp56
 70
     1
102
RTVSPost2010Prop57
140
1.0
102
RTVSPost2010PropOp57
 70
     1
102
RTVSPropertyOp0
 70
     1
102
RTVSPropertyOp1
 70
     1
102
RTVSPropertyOp2
 70
     1
102
RTVSPropertyOp3
 70
     1
102
RTVSPropertyOp4
 70
     1
102
RTVSPropertyOp5
 70
     1
102
RTVSPropertyOp6
 70
     1
102
RTVSPropertyOp7
 70
     1
102
RTVSPropertyOp8
 70
     1
102
RTVSPropertyOp9
 70
     1
102
RTVSPropertyOp10
 70
     1
102
RTVSPropertyOp11
 70
     1
102
RTVSPropertyOp12
 70
     1
102
RTVSPropertyOp13
 70
     1
102
RTVSPropertyOp14
 70
     1
102
RTVSPropertyOp15
 70
     1
102
RTVSPropertyOp16
 70
     1
102
RTVSPropertyOp17
 70
     1
102
RTVSPropertyOp18
 70
     1
102
RTVSPropertyOp19
 70
     1
102
RTVSPropertyOp20
 70
     1
102
RTVSPropertyOp21
 70
     1
102
RTVSPropertyOp22
 70
     1
102
RTVSPropertyOp23
 70
     1
102
RTVSPropertyOp24
 70
     1
102
RTVSPropertyOp25
 70
     1
102
RTVSPropertyOp26
 70
     1
102
RTVSPropertyOp27
 70
     1
102
RTVSPropertyOp28
 70
     1
102
RTVSPropertyOp29
 70
     1
102
RTVSPropertyOp30
 70
     1
102
RTVSPropertyOp31
 70
     1
102
RTVSPropertyOp32
 70
     1
102
RTVSPropertyOp33
 70
     1
102
RTVSPropertyOp34
 70
     1
102
RTVSPropertyOp35
 70
     1
102
RTVSPropertyOp36
 70
     1
102
RTVSPropertyOp37
 70
     1
102
RTVSPropertyOp38
 70
     1
102
RTVSPropertyOp39
 70
     1
102
RTVSPropertyOp40
 70
     1
102
RTVSPropertyOp41
 70
     1
102
RTVSPropertyOp42
 70
     1
102
RTVSPropertyOp43
 70
     1
102
RTVSPropertyOp44
 70
     1
102
RTVSPropertyOp45
 70
     1
102
RTVSPropertyOp46
 70
     1
102
RTVSPropertyOp47
 70
     1
102
RTVSPropertyOp48
 70
     1
102
RTVSPropertyOp49
 70
     1
102
RTVSPropertyOp50
 70
     1
102
RTVSPropertyOp51
 70
     0
102
RTVSPropertyOp52
 70
     0
102
RTVSPropertyOp53
 70
     1
102
RTVSPropertyOp54
 70
     1
102
RTVSPropertyOp55
 70
     1
102
RTVSPropertyOp56
 70
     1
102
RTVSPropertyOp57
 70
     1
102
RTVSPropertyOp58
 70
     1
102
RTVSPropertyOp59
 70
     1
102
RTVSPropertyOp60
 70
     1
102
RTVSPropertyOp61
 70
     1
102
RTVSPropertyOp62
 70
     1
  0
XRECORD
  5
A2C1
102
{ACAD_REACTORS
330
A2C0
102
}
330
A2C0
100
AcDbXrecord
280
     1
102
RTVSPost2010Prop28
280
     0
102
RTVSPost2010PropOp28
 70
     1
102
RTVSPost2010Prop29
280
     1
102
RTVSPost2010PropOp29
 70
     1
102
RTVSPost2010Prop30
280
     1
102
RTVSPost2010PropOp30
 70
     1
102
RTVSPost2010Prop31
280
     0
102
RTVSPost2010PropOp31
 70
     1
102
RTVSPost2010Prop32
280
     0
102
RTVSPost2010PropOp32
 70
     1
102
RTVSPost2010Prop33
280
     0
102
RTVSPost2010PropOp33
 70
     1
102
RTVSPost2010Prop34
280
     0
102
RTVSPost2010PropOp34
 70
     1
102
RTVSPost2010Prop35
280
     0
102
RTVSPost2010PropOp35
 70
     1
102
RTVSPost2010Prop36
280
     0
102
RTVSPost2010PropOp36
 70
     1
102
RTVSPost2010Prop37
 90
       50
102
RTVSPost2010PropOp37
 70
     1
102
RTVSPost2010Prop38
140
0.0
102
RTVSPost2010PropOp38
 70
     1
102
RTVSPost2010Prop39
140
1.0
102
RTVSPost2010PropOp39
 70
     1
102
RTVSPost2010Prop40
 90
        0
102
RTVSPost2010PropOp40
 70
     1
102
RTVSPost2010Prop41ColorIndex
 90
       18
102
RTVSPost2010Prop41ColorRGB
 90
        0
102
RTVSPost2010PropOp41
 70
     1
102
RTVSPost2010Prop42
 90
       50
102
RTVSPost2010PropOp42
 70
     1
102
RTVSPost2010Prop43
 90
        3
102
RTVSPost2010PropOp43
 70
     1
102
RTVSPost2010Prop44ColorIndex
 90
        5
102
RTVSPost2010Prop44ColorRGB
 90
      255
102
RTVSPost2010PropOp44
 70
     1
102
RTVSPost2010Prop45
280
     0
102
RTVSPost2010PropOp45
 70
     1
102
RTVSPost2010Prop46
 90
       50
102
RTVSPost2010PropOp46
 70
     1
102
RTVSPost2010Prop47
 90
       50
102
RTVSPost2010PropOp47
 70
     1
102
RTVSPost2010Prop48
 90
       50
102
RTVSPost2010PropOp48
 70
     1
102
RTVSPost2010Prop49
280
     0
102
RTVSPost2010PropOp49
 70
     1
102
RTVSPost2010Prop50
 90
       50
102
RTVSPost2010PropOp50
 70
     1
102
RTVSPost2010Prop51ColorIndex
 90
      256
102
RTVSPost2010Prop51ColorRGB
 90
-16777216
102
RTVSPost2010PropOp51
 70
     0
102
RTVSPost2010Prop52
140
1.0
102
RTVSPost2010PropOp52
 70
     0
102
RTVSPost2010Prop53
 90
        2
102
RTVSPost2010PropOp53
 70
     1
102
RTVSPost2010Prop54
  1
strokes_ogs.tif
102
RTVSPost2010PropOp54
 70
     1
102
RTVSPost2010Prop55
280
     0
102
RTVSPost2010PropOp55
 70
     1
102
RTVSPost2010Prop56
140
1.0
102
RTVSPost2010PropOp56
 70
     1
102
RTVSPost2010Prop57
140
1.0
102
RTVSPost2010PropOp57
 70
     1
102
RTVSPropertyOp0
 70
     1
102
RTVSPropertyOp1
 70
     1
102
RTVSPropertyOp2
 70
     1
102
RTVSPropertyOp3
 70
     1
102
RTVSPropertyOp4
 70
     1
102
RTVSPropertyOp5
 70
     1
102
RTVSPropertyOp6
 70
     1
102
RTVSPropertyOp7
 70
     1
102
RTVSPropertyOp8
 70
     1
102
RTVSPropertyOp9
 70
     1
102
RTVSPropertyOp10
 70
     1
102
RTVSPropertyOp11
 70
     1
102
RTVSPropertyOp12
 70
     1
102
RTVSPropertyOp13
 70
     1
102
RTVSPropertyOp14
 70
     1
102
RTVSPropertyOp15
 70
     1
102
RTVSPropertyOp16
 70
     1
102
RTVSPropertyOp17
 70
     1
102
RTVSPropertyOp18
 70
     1
102
RTVSPropertyOp19
 70
     1
102
RTVSPropertyOp20
 70
     1
102
RTVSPropertyOp21
 70
     1
102
RTVSPropertyOp22
 70
     1
102
RTVSPropertyOp23
 70
     1
102
RTVSPropertyOp24
 70
     1
102
RTVSPropertyOp25
 70
     1
102
RTVSPropertyOp26
 70
     1
102
RTVSPropertyOp27
 70
     1
102
RTVSPropertyOp28
 70
     1
102
RTVSPropertyOp29
 70
     1
102
RTVSPropertyOp30
 70
     1
102
RTVSPropertyOp31
 70
     1
102
RTVSPropertyOp32
 70
     1
102
RTVSPropertyOp33
 70
     1
102
RTVSPropertyOp34
 70
     1
102
RTVSPropertyOp35
 70
     1
102
RTVSPropertyOp36
 70
     1
102
RTVSPropertyOp37
 70
     1
102
RTVSPropertyOp38
 70
     1
102
RTVSPropertyOp39
 70
     1
102
RTVSPropertyOp40
 70
     1
102
RTVSPropertyOp41
 70
     1
102
RTVSPropertyOp42
 70
     1
102
RTVSPropertyOp43
 70
     1
102
RTVSPropertyOp44
 70
     1
102
RTVSPropertyOp45
 70
     1
102
RTVSPropertyOp46
 70
     1
102
RTVSPropertyOp47
 70
     1
102
RTVSPropertyOp48
 70
     1
102
RTVSPropertyOp49
 70
     1
102
RTVSPropertyOp50
 70
     1
102
RTVSPropertyOp51
 70
     0
102
RTVSPropertyOp52
 70
     0
102
RTVSPropertyOp53
 70
     1
102
RTVSPropertyOp54
 70
     1
102
RTVSPropertyOp55
 70
     1
102
RTVSPropertyOp56
 70
     1
102
RTVSPropertyOp57
 70
     1
102
RTVSPropertyOp58
 70
     1
102
RTVSPropertyOp59
 70
     1
102
RTVSPropertyOp60
 70
     1
102
RTVSPropertyOp61
 70
     1
102
RTVSPropertyOp62
 70
     1
  0
XRECORD
  5
A2B3
102
{ACAD_REACTORS
330
A2B2
102
}
330
A2B2
100
AcDbXrecord
280
     1
102
RTVSPost2010Prop28
280
     0
102
RTVSPost2010PropOp28
 70
     1
102
RTVSPost2010Prop29
280
     1
102
RTVSPost2010PropOp29
 70
     1
102
RTVSPost2010Prop30
280
     1
102
RTVSPost2010PropOp30
 70
     1
102
RTVSPost2010Prop31
280
     0
102
RTVSPost2010PropOp31
 70
     1
102
RTVSPost2010Prop32
280
     0
102
RTVSPost2010PropOp32
 70
     1
102
RTVSPost2010Prop33
280
     0
102
RTVSPost2010PropOp33
 70
     1
102
RTVSPost2010Prop34
280
     0
102
RTVSPost2010PropOp34
 70
     1
102
RTVSPost2010Prop35
280
     0
102
RTVSPost2010PropOp35
 70
     1
102
RTVSPost2010Prop36
280
     0
102
RTVSPost2010PropOp36
 70
     1
102
RTVSPost2010Prop37
 90
       50
102
RTVSPost2010PropOp37
 70
     1
102
RTVSPost2010Prop38
140
0.0
102
RTVSPost2010PropOp38
 70
     1
102
RTVSPost2010Prop39
140
1.0
102
RTVSPost2010PropOp39
 70
     1
102
RTVSPost2010Prop40
 90
        0
102
RTVSPost2010PropOp40
 70
     1
102
RTVSPost2010Prop41ColorIndex
 90
       18
102
RTVSPost2010Prop41ColorRGB
 90
        0
102
RTVSPost2010PropOp41
 70
     1
102
RTVSPost2010Prop42
 90
       50
102
RTVSPost2010PropOp42
 70
     1
102
RTVSPost2010Prop43
 90
        3
102
RTVSPost2010PropOp43
 70
     1
102
RTVSPost2010Prop44ColorIndex
 90
        5
102
RTVSPost2010Prop44ColorRGB
 90
      255
102
RTVSPost2010PropOp44
 70
     1
102
RTVSPost2010Prop45
280
     0
102
RTVSPost2010PropOp45
 70
     1
102
RTVSPost2010Prop46
 90
       50
102
RTVSPost2010PropOp46
 70
     1
102
RTVSPost2010Prop47
 90
       50
102
RTVSPost2010PropOp47
 70
     1
102
RTVSPost2010Prop48
 90
       50
102
RTVSPost2010PropOp48
 70
     1
102
RTVSPost2010Prop49
280
     0
102
RTVSPost2010PropOp49
 70
     1
102
RTVSPost2010Prop50
 90
       50
102
RTVSPost2010PropOp50
 70
     1
102
RTVSPost2010Prop51ColorIndex
 90
      256
102
RTVSPost2010Prop51ColorRGB
 90
-16777216
102
RTVSPost2010PropOp51
 70
     0
102
RTVSPost2010Prop52
140
1.0
102
RTVSPost2010PropOp52
 70
     0
102
RTVSPost2010Prop53
 90
        2
102
RTVSPost2010PropOp53
 70
     1
102
RTVSPost2010Prop54
  1
strokes_ogs.tif
102
RTVSPost2010PropOp54
 70
     1
102
RTVSPost2010Prop55
280
     0
102
RTVSPost2010PropOp55
 70
     1
102
RTVSPost2010Prop56
140
1.0
102
RTVSPost2010PropOp56
 70
     1
102
RTVSPost2010Prop57
140
1.0
102
RTVSPost2010PropOp57
 70
     1
102
RTVSPropertyOp0
 70
     1
102
RTVSPropertyOp1
 70
     1
102
RTVSPropertyOp2
 70
     1
102
RTVSPropertyOp3
 70
     1
102
RTVSPropertyOp4
 70
     1
102
RTVSPropertyOp5
 70
     1
102
RTVSPropertyOp6
 70
     1
102
RTVSPropertyOp7
 70
     1
102
RTVSPropertyOp8
 70
     1
102
RTVSPropertyOp9
 70
     1
102
RTVSPropertyOp10
 70
     1
102
RTVSPropertyOp11
 70
     1
102
RTVSPropertyOp12
 70
     1
102
RTVSPropertyOp13
 70
     1
102
RTVSPropertyOp14
 70
     1
102
RTVSPropertyOp15
 70
     1
102
RTVSPropertyOp16
 70
     1
102
RTVSPropertyOp17
 70
     1
102
RTVSPropertyOp18
 70
     1
102
RTVSPropertyOp19
 70
     1
102
RTVSPropertyOp20
 70
     1
102
RTVSPropertyOp21
 70
     1
102
RTVSPropertyOp22
 70
     1
102
RTVSPropertyOp23
 70
     1
102
RTVSPropertyOp24
 70
     1
102
RTVSPropertyOp25
 70
     1
102
RTVSPropertyOp26
 70
     1
102
RTVSPropertyOp27
 70
     1
102
RTVSPropertyOp28
 70
     1
102
RTVSPropertyOp29
 70
     1
102
RTVSPropertyOp30
 70
     1
102
RTVSPropertyOp31
 70
     1
102
RTVSPropertyOp32
 70
     1
102
RTVSPropertyOp33
 70
     1
102
RTVSPropertyOp34
 70
     1
102
RTVSPropertyOp35
 70
     1
102
RTVSPropertyOp36
 70
     1
102
RTVSPropertyOp37
 70
     1
102
RTVSPropertyOp38
 70
     1
102
RTVSPropertyOp39
 70
     1
102
RTVSPropertyOp40
 70
     1
102
RTVSPropertyOp41
 70
     1
102
RTVSPropertyOp42
 70
     1
102
RTVSPropertyOp43
 70
     1
102
RTVSPropertyOp44
 70
     1
102
RTVSPropertyOp45
 70
     1
102
RTVSPropertyOp46
 70
     1
102
RTVSPropertyOp47
 70
     1
102
RTVSPropertyOp48
 70
     1
102
RTVSPropertyOp49
 70
     1
102
RTVSPropertyOp50
 70
     1
102
RTVSPropertyOp51
 70
     0
102
RTVSPropertyOp52
 70
     0
102
RTVSPropertyOp53
 70
     1
102
RTVSPropertyOp54
 70
     1
102
RTVSPropertyOp55
 70
     1
102
RTVSPropertyOp56
 70
     1
102
RTVSPropertyOp57
 70
     1
102
RTVSPropertyOp58
 70
     1
102
RTVSPropertyOp59
 70
     1
102
RTVSPropertyOp60
 70
     1
102
RTVSPropertyOp61
 70
     1
102
RTVSPropertyOp62
 70
     1
  0
XRECORD
  5
A2B7
102
{ACAD_REACTORS
330
A2B6
102
}
330
A2B6
100
AcDbXrecord
280
     1
102
RTVSPost2010Prop28
280
     0
102
RTVSPost2010PropOp28
 70
     1
102
RTVSPost2010Prop29
280
     1
102
RTVSPost2010PropOp29
 70
     1
102
RTVSPost2010Prop30
280
     1
102
RTVSPost2010PropOp30
 70
     1
102
RTVSPost2010Prop31
280
     0
102
RTVSPost2010PropOp31
 70
     1
102
RTVSPost2010Prop32
280
     0
102
RTVSPost2010PropOp32
 70
     1
102
RTVSPost2010Prop33
280
     0
102
RTVSPost2010PropOp33
 70
     1
102
RTVSPost2010Prop34
280
     0
102
RTVSPost2010PropOp34
 70
     1
102
RTVSPost2010Prop35
280
     0
102
RTVSPost2010PropOp35
 70
     1
102
RTVSPost2010Prop36
280
     0
102
RTVSPost2010PropOp36
 70
     1
102
RTVSPost2010Prop37
 90
       50
102
RTVSPost2010PropOp37
 70
     1
102
RTVSPost2010Prop38
140
0.0
102
RTVSPost2010PropOp38
 70
     1
102
RTVSPost2010Prop39
140
1.0
102
RTVSPost2010PropOp39
 70
     1
102
RTVSPost2010Prop40
 90
        0
102
RTVSPost2010PropOp40
 70
     1
102
RTVSPost2010Prop41ColorIndex
 90
       18
102
RTVSPost2010Prop41ColorRGB
 90
        0
102
RTVSPost2010PropOp41
 70
     1
102
RTVSPost2010Prop42
 90
       50
102
RTVSPost2010PropOp42
 70
     1
102
RTVSPost2010Prop43
 90
        3
102
RTVSPost2010PropOp43
 70
     1
102
RTVSPost2010Prop44ColorIndex
 90
        5
102
RTVSPost2010Prop44ColorRGB
 90
      255
102
RTVSPost2010PropOp44
 70
     1
102
RTVSPost2010Prop45
280
     0
102
RTVSPost2010PropOp45
 70
     1
102
RTVSPost2010Prop46
 90
       50
102
RTVSPost2010PropOp46
 70
     1
102
RTVSPost2010Prop47
 90
       50
102
RTVSPost2010PropOp47
 70
     1
102
RTVSPost2010Prop48
 90
       50
102
RTVSPost2010PropOp48
 70
     1
102
RTVSPost2010Prop49
280
     0
102
RTVSPost2010PropOp49
 70
     1
102
RTVSPost2010Prop50
 90
       50
102
RTVSPost2010PropOp50
 70
     1
102
RTVSPost2010Prop51ColorIndex
 90
      256
102
RTVSPost2010Prop51ColorRGB
 90
-16777216
102
RTVSPost2010PropOp51
 70
     0
102
RTVSPost2010Prop52
140
1.0
102
RTVSPost2010PropOp52
 70
     0
102
RTVSPost2010Prop53
 90
        2
102
RTVSPost2010PropOp53
 70
     1
102
RTVSPost2010Prop54
  1
strokes_ogs.tif
102
RTVSPost2010PropOp54
 70
     1
102
RTVSPost2010Prop55
280
     0
102
RTVSPost2010PropOp55
 70
     1
102
RTVSPost2010Prop56
140
1.0
102
RTVSPost2010PropOp56
 70
     1
102
RTVSPost2010Prop57
140
1.0
102
RTVSPost2010PropOp57
 70
     1
102
RTVSPropertyOp0
 70
     1
102
RTVSPropertyOp1
 70
     1
102
RTVSPropertyOp2
 70
     1
102
RTVSPropertyOp3
 70
     1
102
RTVSPropertyOp4
 70
     1
102
RTVSPropertyOp5
 70
     1
102
RTVSPropertyOp6
 70
     1
102
RTVSPropertyOp7
 70
     1
102
RTVSPropertyOp8
 70
     1
102
RTVSPropertyOp9
 70
     1
102
RTVSPropertyOp10
 70
     1
102
RTVSPropertyOp11
 70
     1
102
RTVSPropertyOp12
 70
     1
102
RTVSPropertyOp13
 70
     1
102
RTVSPropertyOp14
 70
     1
102
RTVSPropertyOp15
 70
     1
102
RTVSPropertyOp16
 70
     1
102
RTVSPropertyOp17
 70
     1
102
RTVSPropertyOp18
 70
     1
102
RTVSPropertyOp19
 70
     1
102
RTVSPropertyOp20
 70
     1
102
RTVSPropertyOp21
 70
     1
102
RTVSPropertyOp22
 70
     1
102
RTVSPropertyOp23
 70
     1
102
RTVSPropertyOp24
 70
     1
102
RTVSPropertyOp25
 70
     1
102
RTVSPropertyOp26
 70
     1
102
RTVSPropertyOp27
 70
     1
102
RTVSPropertyOp28
 70
     1
102
RTVSPropertyOp29
 70
     1
102
RTVSPropertyOp30
 70
     1
102
RTVSPropertyOp31
 70
     1
102
RTVSPropertyOp32
 70
     1
102
RTVSPropertyOp33
 70
     1
102
RTVSPropertyOp34
 70
     1
102
RTVSPropertyOp35
 70
     1
102
RTVSPropertyOp36
 70
     1
102
RTVSPropertyOp37
 70
     1
102
RTVSPropertyOp38
 70
     1
102
RTVSPropertyOp39
 70
     1
102
RTVSPropertyOp40
 70
     1
102
RTVSPropertyOp41
 70
     1
102
RTVSPropertyOp42
 70
     1
102
RTVSPropertyOp43
 70
     1
102
RTVSPropertyOp44
 70
     1
102
RTVSPropertyOp45
 70
     1
102
RTVSPropertyOp46
 70
     1
102
RTVSPropertyOp47
 70
     1
102
RTVSPropertyOp48
 70
     1
102
RTVSPropertyOp49
 70
     1
102
RTVSPropertyOp50
 70
     1
102
RTVSPropertyOp51
 70
     0
102
RTVSPropertyOp52
 70
     0
102
RTVSPropertyOp53
 70
     1
102
RTVSPropertyOp54
 70
     1
102
RTVSPropertyOp55
 70
     1
102
RTVSPropertyOp56
 70
     1
102
RTVSPropertyOp57
 70
     1
102
RTVSPropertyOp58
 70
     1
102
RTVSPropertyOp59
 70
     1
102
RTVSPropertyOp60
 70
     1
102
RTVSPropertyOp61
 70
     1
102
RTVSPropertyOp62
 70
     1
  0
XRECORD
  5
A2D1
102
{ACAD_REACTORS
330
A2D0
102
}
330
A2D0
100
AcDbXrecord
280
     1
102
RTVSPost2010Prop28
280
     0
102
RTVSPost2010PropOp28
 70
     1
102
RTVSPost2010Prop29
280
     1
102
RTVSPost2010PropOp29
 70
     1
102
RTVSPost2010Prop30
280
     1
102
RTVSPost2010PropOp30
 70
     1
102
RTVSPost2010Prop31
280
     0
102
RTVSPost2010PropOp31
 70
     1
102
RTVSPost2010Prop32
280
     0
102
RTVSPost2010PropOp32
 70
     1
102
RTVSPost2010Prop33
280
     0
102
RTVSPost2010PropOp33
 70
     1
102
RTVSPost2010Prop34
280
     0
102
RTVSPost2010PropOp34
 70
     1
102
RTVSPost2010Prop35
280
     0
102
RTVSPost2010PropOp35
 70
     1
102
RTVSPost2010Prop36
280
     0
102
RTVSPost2010PropOp36
 70
     1
102
RTVSPost2010Prop37
 90
       50
102
RTVSPost2010PropOp37
 70
     0
102
RTVSPost2010Prop38
140
0.0
102
RTVSPost2010PropOp38
 70
     0
102
RTVSPost2010Prop39
140
1.0
102
RTVSPost2010PropOp39
 70
     0
102
RTVSPost2010Prop40
 90
        0
102
RTVSPost2010PropOp40
 70
     0
102
RTVSPost2010Prop41ColorIndex
 90
       18
102
RTVSPost2010Prop41ColorRGB
 90
        0
102
RTVSPost2010PropOp41
 70
     0
102
RTVSPost2010Prop42
 90
       50
102
RTVSPost2010PropOp42
 70
     0
102
RTVSPost2010Prop43
 90
        3
102
RTVSPost2010PropOp43
 70
     0
102
RTVSPost2010Prop44ColorIndex
 90
        5
102
RTVSPost2010Prop44ColorRGB
 90
      255
102
RTVSPost2010PropOp44
 70
     0
102
RTVSPost2010Prop45
280
     0
102
RTVSPost2010PropOp45
 70
     1
102
RTVSPost2010Prop46
 90
       50
102
RTVSPost2010PropOp46
 70
     0
102
RTVSPost2010Prop47
 90
       50
102
RTVSPost2010PropOp47
 70
     0
102
RTVSPost2010Prop48
 90
       50
102
RTVSPost2010PropOp48
 70
     0
102
RTVSPost2010Prop49
280
     0
102
RTVSPost2010PropOp49
 70
     1
102
RTVSPost2010Prop50
 90
       50
102
RTVSPost2010PropOp50
 70
     0
102
RTVSPost2010Prop51ColorIndex
 90
      256
102
RTVSPost2010Prop51ColorRGB
 90
-16777216
102
RTVSPost2010PropOp51
 70
     0
102
RTVSPost2010Prop52
140
1.0
102
RTVSPost2010PropOp52
 70
     0
102
RTVSPost2010Prop53
 90
        2
102
RTVSPost2010PropOp53
 70
     0
102
RTVSPost2010Prop54
  1
strokes_ogs.tif
102
RTVSPost2010PropOp54
 70
     0
102
RTVSPost2010Prop55
280
     0
102
RTVSPost2010PropOp55
 70
     1
102
RTVSPost2010Prop56
140
1.0
102
RTVSPost2010PropOp56
 70
     0
102
RTVSPost2010Prop57
140
1.0
102
RTVSPost2010PropOp57
 70
     0
102
RTVSPropertyOp0
 70
     0
102
RTVSPropertyOp1
 70
     0
102
RTVSPropertyOp2
 70
     0
102
RTVSPropertyOp3
 70
     0
102
RTVSPropertyOp4
 70
     0
102
RTVSPropertyOp5
 70
     0
102
RTVSPropertyOp6
 70
     0
102
RTVSPropertyOp7
 70
     0
102
RTVSPropertyOp8
 70
     0
102
RTVSPropertyOp9
 70
     0
102
RTVSPropertyOp10
 70
     0
102
RTVSPropertyOp11
 70
     0
102
RTVSPropertyOp12
 70
     0
102
RTVSPropertyOp13
 70
     0
102
RTVSPropertyOp14
 70
     2
102
RTVSPropertyOp15
 70
     0
102
RTVSPropertyOp16
 70
     0
102
RTVSPropertyOp17
 70
     0
102
RTVSPropertyOp18
 70
     0
102
RTVSPropertyOp19
 70
     0
102
RTVSPropertyOp20
 70
     0
102
RTVSPropertyOp21
 70
     0
102
RTVSPropertyOp22
 70
     0
102
RTVSPropertyOp23
 70
     0
102
RTVSPropertyOp24
 70
     0
102
RTVSPropertyOp25
 70
     0
102
RTVSPropertyOp26
 70
     0
102
RTVSPropertyOp27
 70
     0
102
RTVSPropertyOp28
 70
     1
102
RTVSPropertyOp29
 70
     1
102
RTVSPropertyOp30
 70
     1
102
RTVSPropertyOp31
 70
     1
102
RTVSPropertyOp32
 70
     1
102
RTVSPropertyOp33
 70
     1
102
RTVSPropertyOp34
 70
     1
102
RTVSPropertyOp35
 70
     1
102
RTVSPropertyOp36
 70
     1
102
RTVSPropertyOp37
 70
     0
102
RTVSPropertyOp38
 70
     0
102
RTVSPropertyOp39
 70
     0
102
RTVSPropertyOp40
 70
     0
102
RTVSPropertyOp41
 70
     0
102
RTVSPropertyOp42
 70
     0
102
RTVSPropertyOp43
 70
     0
102
RTVSPropertyOp44
 70
     0
102
RTVSPropertyOp45
 70
     1
102
RTVSPropertyOp46
 70
     0
102
RTVSPropertyOp47
 70
     0
102
RTVSPropertyOp48
 70
     0
102
RTVSPropertyOp49
 70
     1
102
RTVSPropertyOp50
 70
     0
102
RTVSPropertyOp51
 70
     0
102
RTVSPropertyOp52
 70
     0
102
RTVSPropertyOp53
 70
     0
102
RTVSPropertyOp54
 70
     0
102
RTVSPropertyOp55
 70
     1
102
RTVSPropertyOp56
 70
     0
102
RTVSPropertyOp57
 70
     0
102
RTVSPropertyOp58
 70
     0
102
RTVSPropertyOp59
 70
     0
102
RTVSPropertyOp60
 70
     0
102
RTVSPropertyOp61
 70
     0
102
RTVSPropertyOp62
 70
     0
  0
XRECORD
  5
A2BF
102
{ACAD_REACTORS
330
A2BE
102
}
330
A2BE
100
AcDbXrecord
280
     1
102
RTVSPost2010Prop28
280
     0
102
RTVSPost2010PropOp28
 70
     1
102
RTVSPost2010Prop29
280
     1
102
RTVSPost2010PropOp29
 70
     1
102
RTVSPost2010Prop30
280
     1
102
RTVSPost2010PropOp30
 70
     1
102
RTVSPost2010Prop31
280
     0
102
RTVSPost2010PropOp31
 70
     1
102
RTVSPost2010Prop32
280
     0
102
RTVSPost2010PropOp32
 70
     1
102
RTVSPost2010Prop33
280
     0
102
RTVSPost2010PropOp33
 70
     1
102
RTVSPost2010Prop34
280
     0
102
RTVSPost2010PropOp34
 70
     1
102
RTVSPost2010Prop35
280
     0
102
RTVSPost2010PropOp35
 70
     1
102
RTVSPost2010Prop36
280
     0
102
RTVSPost2010PropOp36
 70
     1
102
RTVSPost2010Prop37
 90
       50
102
RTVSPost2010PropOp37
 70
     1
102
RTVSPost2010Prop38
140
0.0
102
RTVSPost2010PropOp38
 70
     1
102
RTVSPost2010Prop39
140
1.0
102
RTVSPost2010PropOp39
 70
     1
102
RTVSPost2010Prop40
 90
        0
102
RTVSPost2010PropOp40
 70
     1
102
RTVSPost2010Prop41ColorIndex
 90
       18
102
RTVSPost2010Prop41ColorRGB
 90
        0
102
RTVSPost2010PropOp41
 70
     1
102
RTVSPost2010Prop42
 90
       50
102
RTVSPost2010PropOp42
 70
     1
102
RTVSPost2010Prop43
 90
        3
102
RTVSPost2010PropOp43
 70
     1
102
RTVSPost2010Prop44ColorIndex
 90
        5
102
RTVSPost2010Prop44ColorRGB
 90
      255
102
RTVSPost2010PropOp44
 70
     1
102
RTVSPost2010Prop45
280
     0
102
RTVSPost2010PropOp45
 70
     1
102
RTVSPost2010Prop46
 90
       50
102
RTVSPost2010PropOp46
 70
     1
102
RTVSPost2010Prop47
 90
       50
102
RTVSPost2010PropOp47
 70
     1
102
RTVSPost2010Prop48
 90
       50
102
RTVSPost2010PropOp48
 70
     1
102
RTVSPost2010Prop49
280
     0
102
RTVSPost2010PropOp49
 70
     1
102
RTVSPost2010Prop50
 90
       50
102
RTVSPost2010PropOp50
 70
     1
102
RTVSPost2010Prop51ColorIndex
 90
      256
102
RTVSPost2010Prop51ColorRGB
 90
-16777216
102
RTVSPost2010PropOp51
 70
     0
102
RTVSPost2010Prop52
140
1.0
102
RTVSPost2010PropOp52
 70
     0
102
RTVSPost2010Prop53
 90
        2
102
RTVSPost2010PropOp53
 70
     1
102
RTVSPost2010Prop54
  1
strokes_ogs.tif
102
RTVSPost2010PropOp54
 70
     1
102
RTVSPost2010Prop55
280
     0
102
RTVSPost2010PropOp55
 70
     1
102
RTVSPost2010Prop56
140
1.0
102
RTVSPost2010PropOp56
 70
     1
102
RTVSPost2010Prop57
140
1.0
102
RTVSPost2010PropOp57
 70
     1
102
RTVSPropertyOp0
 70
     1
102
RTVSPropertyOp1
 70
     1
102
RTVSPropertyOp2
 70
     1
102
RTVSPropertyOp3
 70
     1
102
RTVSPropertyOp4
 70
     1
102
RTVSPropertyOp5
 70
     1
102
RTVSPropertyOp6
 70
     1
102
RTVSPropertyOp7
 70
     1
102
RTVSPropertyOp8
 70
     1
102
RTVSPropertyOp9
 70
     1
102
RTVSPropertyOp10
 70
     1
102
RTVSPropertyOp11
 70
     1
102
RTVSPropertyOp12
 70
     1
102
RTVSPropertyOp13
 70
     1
102
RTVSPropertyOp14
 70
     1
102
RTVSPropertyOp15
 70
     1
102
RTVSPropertyOp16
 70
     1
102
RTVSPropertyOp17
 70
     1
102
RTVSPropertyOp18
 70
     1
102
RTVSPropertyOp19
 70
     1
102
RTVSPropertyOp20
 70
     1
102
RTVSPropertyOp21
 70
     1
102
RTVSPropertyOp22
 70
     1
102
RTVSPropertyOp23
 70
     1
102
RTVSPropertyOp24
 70
     1
102
RTVSPropertyOp25
 70
     1
102
RTVSPropertyOp26
 70
     1
102
RTVSPropertyOp27
 70
     1
102
RTVSPropertyOp28
 70
     1
102
RTVSPropertyOp29
 70
     1
102
RTVSPropertyOp30
 70
     1
102
RTVSPropertyOp31
 70
     1
102
RTVSPropertyOp32
 70
     1
102
RTVSPropertyOp33
 70
     1
102
RTVSPropertyOp34
 70
     1
102
RTVSPropertyOp35
 70
     1
102
RTVSPropertyOp36
 70
     1
102
RTVSPropertyOp37
 70
     1
102
RTVSPropertyOp38
 70
     1
102
RTVSPropertyOp39
 70
     1
102
RTVSPropertyOp40
 70
     1
102
RTVSPropertyOp41
 70
     1
102
RTVSPropertyOp42
 70
     1
102
RTVSPropertyOp43
 70
     1
102
RTVSPropertyOp44
 70
     1
102
RTVSPropertyOp45
 70
     1
102
RTVSPropertyOp46
 70
     1
102
RTVSPropertyOp47
 70
     1
102
RTVSPropertyOp48
 70
     1
102
RTVSPropertyOp49
 70
     1
102
RTVSPropertyOp50
 70
     1
102
RTVSPropertyOp51
 70
     0
102
RTVSPropertyOp52
 70
     0
102
RTVSPropertyOp53
 70
     1
102
RTVSPropertyOp54
 70
     1
102
RTVSPropertyOp55
 70
     1
102
RTVSPropertyOp56
 70
     1
102
RTVSPropertyOp57
 70
     1
102
RTVSPropertyOp58
 70
     1
102
RTVSPropertyOp59
 70
     1
102
RTVSPropertyOp60
 70
     1
102
RTVSPropertyOp61
 70
     1
102
RTVSPropertyOp62
 70
     1
  0
XRECORD
  5
A2A3
102
{ACAD_REACTORS
330
A2A2
102
}
330
A2A2
100
AcDbXrecord
280
     1
102
RTVSPost2010Prop28
280
     0
102
RTVSPost2010PropOp28
 70
     1
102
RTVSPost2010Prop29
280
     1
102
RTVSPost2010PropOp29
 70
     1
102
RTVSPost2010Prop30
280
     1
102
RTVSPost2010PropOp30
 70
     1
102
RTVSPost2010Prop31
280
     0
102
RTVSPost2010PropOp31
 70
     1
102
RTVSPost2010Prop32
280
     0
102
RTVSPost2010PropOp32
 70
     1
102
RTVSPost2010Prop33
280
     0
102
RTVSPost2010PropOp33
 70
     1
102
RTVSPost2010Prop34
280
     0
102
RTVSPost2010PropOp34
 70
     1
102
RTVSPost2010Prop35
280
     0
102
RTVSPost2010PropOp35
 70
     1
102
RTVSPost2010Prop36
280
     0
102
RTVSPost2010PropOp36
 70
     1
102
RTVSPost2010Prop37
 90
       50
102
RTVSPost2010PropOp37
 70
     1
102
RTVSPost2010Prop38
140
0.0
102
RTVSPost2010PropOp38
 70
     1
102
RTVSPost2010Prop39
140
1.0
102
RTVSPost2010PropOp39
 70
     1
102
RTVSPost2010Prop40
 90
        0
102
RTVSPost2010PropOp40
 70
     1
102
RTVSPost2010Prop41ColorIndex
 90
       18
102
RTVSPost2010Prop41ColorRGB
 90
        0
102
RTVSPost2010PropOp41
 70
     1
102
RTVSPost2010Prop42
 90
       50
102
RTVSPost2010PropOp42
 70
     1
102
RTVSPost2010Prop43
 90
        3
102
RTVSPost2010PropOp43
 70
     1
102
RTVSPost2010Prop44ColorIndex
 90
        5
102
RTVSPost2010Prop44ColorRGB
 90
      255
102
RTVSPost2010PropOp44
 70
     1
102
RTVSPost2010Prop45
280
     0
102
RTVSPost2010PropOp45
 70
     1
102
RTVSPost2010Prop46
 90
       50
102
RTVSPost2010PropOp46
 70
     1
102
RTVSPost2010Prop47
 90
       50
102
RTVSPost2010PropOp47
 70
     1
102
RTVSPost2010Prop48
 90
       50
102
RTVSPost2010PropOp48
 70
     1
102
RTVSPost2010Prop49
280
     0
102
RTVSPost2010PropOp49
 70
     1
102
RTVSPost2010Prop50
 90
       50
102
RTVSPost2010PropOp50
 70
     1
102
RTVSPost2010Prop51ColorIndex
 90
      256
102
RTVSPost2010Prop51ColorRGB
 90
-16777216
102
RTVSPost2010PropOp51
 70
     0
102
RTVSPost2010Prop52
140
1.0
102
RTVSPost2010PropOp52
 70
     0
102
RTVSPost2010Prop53
 90
        2
102
RTVSPost2010PropOp53
 70
     1
102
RTVSPost2010Prop54
  1
strokes_ogs.tif
102
RTVSPost2010PropOp54
 70
     1
102
RTVSPost2010Prop55
280
     0
102
RTVSPost2010PropOp55
 70
     1
102
RTVSPost2010Prop56
140
1.0
102
RTVSPost2010PropOp56
 70
     1
102
RTVSPost2010Prop57
140
1.0
102
RTVSPost2010PropOp57
 70
     1
102
RTVSPropertyOp0
 70
     1
102
RTVSPropertyOp1
 70
     1
102
RTVSPropertyOp2
 70
     1
102
RTVSPropertyOp3
 70
     1
102
RTVSPropertyOp4
 70
     1
102
RTVSPropertyOp5
 70
     1
102
RTVSPropertyOp6
 70
     1
102
RTVSPropertyOp7
 70
     1
102
RTVSPropertyOp8
 70
     1
102
RTVSPropertyOp9
 70
     1
102
RTVSPropertyOp10
 70
     1
102
RTVSPropertyOp11
 70
     1
102
RTVSPropertyOp12
 70
     1
102
RTVSPropertyOp13
 70
     1
102
RTVSPropertyOp14
 70
     1
102
RTVSPropertyOp15
 70
     1
102
RTVSPropertyOp16
 70
     1
102
RTVSPropertyOp17
 70
     1
102
RTVSPropertyOp18
 70
     1
102
RTVSPropertyOp19
 70
     1
102
RTVSPropertyOp20
 70
     1
102
RTVSPropertyOp21
 70
     1
102
RTVSPropertyOp22
 70
     1
102
RTVSPropertyOp23
 70
     1
102
RTVSPropertyOp24
 70
     1
102
RTVSPropertyOp25
 70
     1
102
RTVSPropertyOp26
 70
     1
102
RTVSPropertyOp27
 70
     1
102
RTVSPropertyOp28
 70
     1
102
RTVSPropertyOp29
 70
     1
102
RTVSPropertyOp30
 70
     1
102
RTVSPropertyOp31
 70
     1
102
RTVSPropertyOp32
 70
     1
102
RTVSPropertyOp33
 70
     1
102
RTVSPropertyOp34
 70
     1
102
RTVSPropertyOp35
 70
     1
102
RTVSPropertyOp36
 70
     1
102
RTVSPropertyOp37
 70
     1
102
RTVSPropertyOp38
 70
     1
102
RTVSPropertyOp39
 70
     1
102
RTVSPropertyOp40
 70
     1
102
RTVSPropertyOp41
 70
     1
102
RTVSPropertyOp42
 70
     1
102
RTVSPropertyOp43
 70
     1
102
RTVSPropertyOp44
 70
     1
102
RTVSPropertyOp45
 70
     1
102
RTVSPropertyOp46
 70
     1
102
RTVSPropertyOp47
 70
     1
102
RTVSPropertyOp48
 70
     1
102
RTVSPropertyOp49
 70
     1
102
RTVSPropertyOp50
 70
     1
102
RTVSPropertyOp51
 70
     0
102
RTVSPropertyOp52
 70
     0
102
RTVSPropertyOp53
 70
     1
102
RTVSPropertyOp54
 70
     1
102
RTVSPropertyOp55
 70
     1
102
RTVSPropertyOp56
 70
     1
102
RTVSPropertyOp57
 70
     1
102
RTVSPropertyOp58
 70
     1
102
RTVSPropertyOp59
 70
     1
102
RTVSPropertyOp60
 70
     1
102
RTVSPropertyOp61
 70
     1
102
RTVSPropertyOp62
 70
     1
  0
XRECORD
  5
A2A5
102
{ACAD_REACTORS
330
A2A4
102
}
330
A2A4
100
AcDbXrecord
280
     1
102
RTVSPost2010Prop28
280
     0
102
RTVSPost2010PropOp28
 70
     1
102
RTVSPost2010Prop29
280
     1
102
RTVSPost2010PropOp29
 70
     1
102
RTVSPost2010Prop30
280
     1
102
RTVSPost2010PropOp30
 70
     1
102
RTVSPost2010Prop31
280
     0
102
RTVSPost2010PropOp31
 70
     1
102
RTVSPost2010Prop32
280
     0
102
RTVSPost2010PropOp32
 70
     1
102
RTVSPost2010Prop33
280
     0
102
RTVSPost2010PropOp33
 70
     1
102
RTVSPost2010Prop34
280
     0
102
RTVSPost2010PropOp34
 70
     1
102
RTVSPost2010Prop35
280
     0
102
RTVSPost2010PropOp35
 70
     1
102
RTVSPost2010Prop36
280
     0
102
RTVSPost2010PropOp36
 70
     1
102
RTVSPost2010Prop37
 90
       50
102
RTVSPost2010PropOp37
 70
     1
102
RTVSPost2010Prop38
140
0.0
102
RTVSPost2010PropOp38
 70
     1
102
RTVSPost2010Prop39
140
1.0
102
RTVSPost2010PropOp39
 70
     1
102
RTVSPost2010Prop40
 90
        0
102
RTVSPost2010PropOp40
 70
     1
102
RTVSPost2010Prop41ColorIndex
 90
       18
102
RTVSPost2010Prop41ColorRGB
 90
        0
102
RTVSPost2010PropOp41
 70
     1
102
RTVSPost2010Prop42
 90
       50
102
RTVSPost2010PropOp42
 70
     1
102
RTVSPost2010Prop43
 90
        3
102
RTVSPost2010PropOp43
 70
     1
102
RTVSPost2010Prop44ColorIndex
 90
        5
102
RTVSPost2010Prop44ColorRGB
 90
      255
102
RTVSPost2010PropOp44
 70
     1
102
RTVSPost2010Prop45
280
     0
102
RTVSPost2010PropOp45
 70
     1
102
RTVSPost2010Prop46
 90
       50
102
RTVSPost2010PropOp46
 70
     1
102
RTVSPost2010Prop47
 90
       50
102
RTVSPost2010PropOp47
 70
     1
102
RTVSPost2010Prop48
 90
       50
102
RTVSPost2010PropOp48
 70
     1
102
RTVSPost2010Prop49
280
     0
102
RTVSPost2010PropOp49
 70
     1
102
RTVSPost2010Prop50
 90
       50
102
RTVSPost2010PropOp50
 70
     1
102
RTVSPost2010Prop51ColorIndex
 90
      256
102
RTVSPost2010Prop51ColorRGB
 90
-16777216
102
RTVSPost2010PropOp51
 70
     0
102
RTVSPost2010Prop52
140
1.0
102
RTVSPost2010PropOp52
 70
     0
102
RTVSPost2010Prop53
 90
        2
102
RTVSPost2010PropOp53
 70
     1
102
RTVSPost2010Prop54
  1
strokes_ogs.tif
102
RTVSPost2010PropOp54
 70
     1
102
RTVSPost2010Prop55
280
     0
102
RTVSPost2010PropOp55
 70
     1
102
RTVSPost2010Prop56
140
1.0
102
RTVSPost2010PropOp56
 70
     1
102
RTVSPost2010Prop57
140
1.0
102
RTVSPost2010PropOp57
 70
     1
102
RTVSPropertyOp0
 70
     1
102
RTVSPropertyOp1
 70
     1
102
RTVSPropertyOp2
 70
     1
102
RTVSPropertyOp3
 70
     1
102
RTVSPropertyOp4
 70
     1
102
RTVSPropertyOp5
 70
     1
102
RTVSPropertyOp6
 70
     1
102
RTVSPropertyOp7
 70
     1
102
RTVSPropertyOp8
 70
     1
102
RTVSPropertyOp9
 70
     1
102
RTVSPropertyOp10
 70
     1
102
RTVSPropertyOp11
 70
     1
102
RTVSPropertyOp12
 70
     1
102
RTVSPropertyOp13
 70
     1
102
RTVSPropertyOp14
 70
     1
102
RTVSPropertyOp15
 70
     1
102
RTVSPropertyOp16
 70
     1
102
RTVSPropertyOp17
 70
     1
102
RTVSPropertyOp18
 70
     1
102
RTVSPropertyOp19
 70
     1
102
RTVSPropertyOp20
 70
     1
102
RTVSPropertyOp21
 70
     1
102
RTVSPropertyOp22
 70
     1
102
RTVSPropertyOp23
 70
     1
102
RTVSPropertyOp24
 70
     1
102
RTVSPropertyOp25
 70
     1
102
RTVSPropertyOp26
 70
     1
102
RTVSPropertyOp27
 70
     1
102
RTVSPropertyOp28
 70
     1
102
RTVSPropertyOp29
 70
     1
102
RTVSPropertyOp30
 70
     1
102
RTVSPropertyOp31
 70
     1
102
RTVSPropertyOp32
 70
     1
102
RTVSPropertyOp33
 70
     1
102
RTVSPropertyOp34
 70
     1
102
RTVSPropertyOp35
 70
     1
102
RTVSPropertyOp36
 70
     1
102
RTVSPropertyOp37
 70
     1
102
RTVSPropertyOp38
 70
     1
102
RTVSPropertyOp39
 70
     1
102
RTVSPropertyOp40
 70
     1
102
RTVSPropertyOp41
 70
     1
102
RTVSPropertyOp42
 70
     1
102
RTVSPropertyOp43
 70
     1
102
RTVSPropertyOp44
 70
     1
102
RTVSPropertyOp45
 70
     1
102
RTVSPropertyOp46
 70
     1
102
RTVSPropertyOp47
 70
     1
102
RTVSPropertyOp48
 70
     1
102
RTVSPropertyOp49
 70
     1
102
RTVSPropertyOp50
 70
     1
102
RTVSPropertyOp51
 70
     0
102
RTVSPropertyOp52
 70
     0
102
RTVSPropertyOp53
 70
     1
102
RTVSPropertyOp54
 70
     1
102
RTVSPropertyOp55
 70
     1
102
RTVSPropertyOp56
 70
     1
102
RTVSPropertyOp57
 70
     1
102
RTVSPropertyOp58
 70
     1
102
RTVSPropertyOp59
 70
     1
102
RTVSPropertyOp60
 70
     1
102
RTVSPropertyOp61
 70
     1
102
RTVSPropertyOp62
 70
     1
  0
XRECORD
  5
A2A7
102
{ACAD_REACTORS
330
A2A6
102
}
330
A2A6
100
AcDbXrecord
280
     1
102
RTVSPost2010Prop28
280
     0
102
RTVSPost2010PropOp28
 70
     1
102
RTVSPost2010Prop29
280
     1
102
RTVSPost2010PropOp29
 70
     1
102
RTVSPost2010Prop30
280
     1
102
RTVSPost2010PropOp30
 70
     1
102
RTVSPost2010Prop31
280
     0
102
RTVSPost2010PropOp31
 70
     1
102
RTVSPost2010Prop32
280
     0
102
RTVSPost2010PropOp32
 70
     1
102
RTVSPost2010Prop33
280
     0
102
RTVSPost2010PropOp33
 70
     1
102
RTVSPost2010Prop34
280
     0
102
RTVSPost2010PropOp34
 70
     1
102
RTVSPost2010Prop35
280
     0
102
RTVSPost2010PropOp35
 70
     1
102
RTVSPost2010Prop36
280
     0
102
RTVSPost2010PropOp36
 70
     1
102
RTVSPost2010Prop37
 90
       50
102
RTVSPost2010PropOp37
 70
     1
102
RTVSPost2010Prop38
140
0.0
102
RTVSPost2010PropOp38
 70
     1
102
RTVSPost2010Prop39
140
1.0
102
RTVSPost2010PropOp39
 70
     1
102
RTVSPost2010Prop40
 90
        0
102
RTVSPost2010PropOp40
 70
     1
102
RTVSPost2010Prop41ColorIndex
 90
       18
102
RTVSPost2010Prop41ColorRGB
 90
        0
102
RTVSPost2010PropOp41
 70
     1
102
RTVSPost2010Prop42
 90
       50
102
RTVSPost2010PropOp42
 70
     1
102
RTVSPost2010Prop43
 90
        3
102
RTVSPost2010PropOp43
 70
     1
102
RTVSPost2010Prop44ColorIndex
 90
        5
102
RTVSPost2010Prop44ColorRGB
 90
      255
102
RTVSPost2010PropOp44
 70
     1
102
RTVSPost2010Prop45
280
     0
102
RTVSPost2010PropOp45
 70
     1
102
RTVSPost2010Prop46
 90
       50
102
RTVSPost2010PropOp46
 70
     1
102
RTVSPost2010Prop47
 90
       50
102
RTVSPost2010PropOp47
 70
     1
102
RTVSPost2010Prop48
 90
       50
102
RTVSPost2010PropOp48
 70
     1
102
RTVSPost2010Prop49
280
     0
102
RTVSPost2010PropOp49
 70
     1
102
RTVSPost2010Prop50
 90
       50
102
RTVSPost2010PropOp50
 70
     1
102
RTVSPost2010Prop51ColorIndex
 90
      256
102
RTVSPost2010Prop51ColorRGB
 90
-16777216
102
RTVSPost2010PropOp51
 70
     0
102
RTVSPost2010Prop52
140
1.0
102
RTVSPost2010PropOp52
 70
     0
102
RTVSPost2010Prop53
 90
        2
102
RTVSPost2010PropOp53
 70
     1
102
RTVSPost2010Prop54
  1
strokes_ogs.tif
102
RTVSPost2010PropOp54
 70
     1
102
RTVSPost2010Prop55
280
     0
102
RTVSPost2010PropOp55
 70
     1
102
RTVSPost2010Prop56
140
1.0
102
RTVSPost2010PropOp56
 70
     1
102
RTVSPost2010Prop57
140
1.0
102
RTVSPost2010PropOp57
 70
     1
102
RTVSPropertyOp0
 70
     1
102
RTVSPropertyOp1
 70
     1
102
RTVSPropertyOp2
 70
     1
102
RTVSPropertyOp3
 70
     1
102
RTVSPropertyOp4
 70
     1
102
RTVSPropertyOp5
 70
     1
102
RTVSPropertyOp6
 70
     1
102
RTVSPropertyOp7
 70
     1
102
RTVSPropertyOp8
 70
     1
102
RTVSPropertyOp9
 70
     1
102
RTVSPropertyOp10
 70
     1
102
RTVSPropertyOp11
 70
     1
102
RTVSPropertyOp12
 70
     1
102
RTVSPropertyOp13
 70
     1
102
RTVSPropertyOp14
 70
     1
102
RTVSPropertyOp15
 70
     1
102
RTVSPropertyOp16
 70
     1
102
RTVSPropertyOp17
 70
     1
102
RTVSPropertyOp18
 70
     1
102
RTVSPropertyOp19
 70
     1
102
RTVSPropertyOp20
 70
     1
102
RTVSPropertyOp21
 70
     1
102
RTVSPropertyOp22
 70
     1
102
RTVSPropertyOp23
 70
     1
102
RTVSPropertyOp24
 70
     1
102
RTVSPropertyOp25
 70
     1
102
RTVSPropertyOp26
 70
     1
102
RTVSPropertyOp27
 70
     1
102
RTVSPropertyOp28
 70
     1
102
RTVSPropertyOp29
 70
     1
102
RTVSPropertyOp30
 70
     1
102
RTVSPropertyOp31
 70
     1
102
RTVSPropertyOp32
 70
     1
102
RTVSPropertyOp33
 70
     1
102
RTVSPropertyOp34
 70
     1
102
RTVSPropertyOp35
 70
     1
102
RTVSPropertyOp36
 70
     1
102
RTVSPropertyOp37
 70
     1
102
RTVSPropertyOp38
 70
     1
102
RTVSPropertyOp39
 70
     1
102
RTVSPropertyOp40
 70
     1
102
RTVSPropertyOp41
 70
     1
102
RTVSPropertyOp42
 70
     1
102
RTVSPropertyOp43
 70
     1
102
RTVSPropertyOp44
 70
     1
102
RTVSPropertyOp45
 70
     1
102
RTVSPropertyOp46
 70
     1
102
RTVSPropertyOp47
 70
     1
102
RTVSPropertyOp48
 70
     1
102
RTVSPropertyOp49
 70
     1
102
RTVSPropertyOp50
 70
     1
102
RTVSPropertyOp51
 70
     0
102
RTVSPropertyOp52
 70
     0
102
RTVSPropertyOp53
 70
     1
102
RTVSPropertyOp54
 70
     1
102
RTVSPropertyOp55
 70
     1
102
RTVSPropertyOp56
 70
     1
102
RTVSPropertyOp57
 70
     1
102
RTVSPropertyOp58
 70
     1
102
RTVSPropertyOp59
 70
     1
102
RTVSPropertyOp60
 70
     1
102
RTVSPropertyOp61
 70
     1
102
RTVSPropertyOp62
 70
     1
  0
XRECORD
  5
A2A9
102
{ACAD_REACTORS
330
A2A8
102
}
330
A2A8
100
AcDbXrecord
280
     1
102
RTVSPost2010Prop28
280
     0
102
RTVSPost2010PropOp28
 70
     1
102
RTVSPost2010Prop29
280
     1
102
RTVSPost2010PropOp29
 70
     1
102
RTVSPost2010Prop30
280
     1
102
RTVSPost2010PropOp30
 70
     1
102
RTVSPost2010Prop31
280
     0
102
RTVSPost2010PropOp31
 70
     1
102
RTVSPost2010Prop32
280
     0
102
RTVSPost2010PropOp32
 70
     1
102
RTVSPost2010Prop33
280
     0
102
RTVSPost2010PropOp33
 70
     1
102
RTVSPost2010Prop34
280
     0
102
RTVSPost2010PropOp34
 70
     1
102
RTVSPost2010Prop35
280
     0
102
RTVSPost2010PropOp35
 70
     1
102
RTVSPost2010Prop36
280
     0
102
RTVSPost2010PropOp36
 70
     1
102
RTVSPost2010Prop37
 90
       50
102
RTVSPost2010PropOp37
 70
     1
102
RTVSPost2010Prop38
140
0.0
102
RTVSPost2010PropOp38
 70
     1
102
RTVSPost2010Prop39
140
1.0
102
RTVSPost2010PropOp39
 70
     1
102
RTVSPost2010Prop40
 90
        0
102
RTVSPost2010PropOp40
 70
     1
102
RTVSPost2010Prop41ColorIndex
 90
       18
102
RTVSPost2010Prop41ColorRGB
 90
        0
102
RTVSPost2010PropOp41
 70
     1
102
RTVSPost2010Prop42
 90
       50
102
RTVSPost2010PropOp42
 70
     1
102
RTVSPost2010Prop43
 90
        3
102
RTVSPost2010PropOp43
 70
     1
102
RTVSPost2010Prop44ColorIndex
 90
        5
102
RTVSPost2010Prop44ColorRGB
 90
      255
102
RTVSPost2010PropOp44
 70
     1
102
RTVSPost2010Prop45
280
     0
102
RTVSPost2010PropOp45
 70
     1
102
RTVSPost2010Prop46
 90
       50
102
RTVSPost2010PropOp46
 70
     1
102
RTVSPost2010Prop47
 90
       50
102
RTVSPost2010PropOp47
 70
     1
102
RTVSPost2010Prop48
 90
       50
102
RTVSPost2010PropOp48
 70
     1
102
RTVSPost2010Prop49
280
     0
102
RTVSPost2010PropOp49
 70
     1
102
RTVSPost2010Prop50
 90
       50
102
RTVSPost2010PropOp50
 70
     1
102
RTVSPost2010Prop51ColorIndex
 90
      256
102
RTVSPost2010Prop51ColorRGB
 90
-16777216
102
RTVSPost2010PropOp51
 70
     0
102
RTVSPost2010Prop52
140
1.0
102
RTVSPost2010PropOp52
 70
     0
102
RTVSPost2010Prop53
 90
        2
102
RTVSPost2010PropOp53
 70
     1
102
RTVSPost2010Prop54
  1
strokes_ogs.tif
102
RTVSPost2010PropOp54
 70
     1
102
RTVSPost2010Prop55
280
     0
102
RTVSPost2010PropOp55
 70
     1
102
RTVSPost2010Prop56
140
1.0
102
RTVSPost2010PropOp56
 70
     1
102
RTVSPost2010Prop57
140
1.0
102
RTVSPost2010PropOp57
 70
     1
102
RTVSPropertyOp0
 70
     1
102
RTVSPropertyOp1
 70
     1
102
RTVSPropertyOp2
 70
     1
102
RTVSPropertyOp3
 70
     1
102
RTVSPropertyOp4
 70
     1
102
RTVSPropertyOp5
 70
     1
102
RTVSPropertyOp6
 70
     1
102
RTVSPropertyOp7
 70
     1
102
RTVSPropertyOp8
 70
     1
102
RTVSPropertyOp9
 70
     1
102
RTVSPropertyOp10
 70
     1
102
RTVSPropertyOp11
 70
     1
102
RTVSPropertyOp12
 70
     1
102
RTVSPropertyOp13
 70
     1
102
RTVSPropertyOp14
 70
     1
102
RTVSPropertyOp15
 70
     1
102
RTVSPropertyOp16
 70
     1
102
RTVSPropertyOp17
 70
     1
102
RTVSPropertyOp18
 70
     1
102
RTVSPropertyOp19
 70
     1
102
RTVSPropertyOp20
 70
     1
102
RTVSPropertyOp21
 70
     1
102
RTVSPropertyOp22
 70
     1
102
RTVSPropertyOp23
 70
     1
102
RTVSPropertyOp24
 70
     1
102
RTVSPropertyOp25
 70
     1
102
RTVSPropertyOp26
 70
     1
102
RTVSPropertyOp27
 70
     1
102
RTVSPropertyOp28
 70
     1
102
RTVSPropertyOp29
 70
     1
102
RTVSPropertyOp30
 70
     1
102
RTVSPropertyOp31
 70
     1
102
RTVSPropertyOp32
 70
     1
102
RTVSPropertyOp33
 70
     1
102
RTVSPropertyOp34
 70
     1
102
RTVSPropertyOp35
 70
     1
102
RTVSPropertyOp36
 70
     1
102
RTVSPropertyOp37
 70
     1
102
RTVSPropertyOp38
 70
     1
102
RTVSPropertyOp39
 70
     1
102
RTVSPropertyOp40
 70
     1
102
RTVSPropertyOp41
 70
     1
102
RTVSPropertyOp42
 70
     1
102
RTVSPropertyOp43
 70
     1
102
RTVSPropertyOp44
 70
     1
102
RTVSPropertyOp45
 70
     1
102
RTVSPropertyOp46
 70
     1
102
RTVSPropertyOp47
 70
     1
102
RTVSPropertyOp48
 70
     1
102
RTVSPropertyOp49
 70
     1
102
RTVSPropertyOp50
 70
     1
102
RTVSPropertyOp51
 70
     0
102
RTVSPropertyOp52
 70
     0
102
RTVSPropertyOp53
 70
     1
102
RTVSPropertyOp54
 70
     1
102
RTVSPropertyOp55
 70
     1
102
RTVSPropertyOp56
 70
     1
102
RTVSPropertyOp57
 70
     1
102
RTVSPropertyOp58
 70
     1
102
RTVSPropertyOp59
 70
     1
102
RTVSPropertyOp60
 70
     1
102
RTVSPropertyOp61
 70
     1
102
RTVSPropertyOp62
 70
     1
  0
XRECORD
  5
A2B1
102
{ACAD_REACTORS
330
A2B0
102
}
330
A2B0
100
AcDbXrecord
280
     1
102
RTVSPost2010Prop28
280
     0
102
RTVSPost2010PropOp28
 70
     1
102
RTVSPost2010Prop29
280
     1
102
RTVSPost2010PropOp29
 70
     1
102
RTVSPost2010Prop30
280
     1
102
RTVSPost2010PropOp30
 70
     1
102
RTVSPost2010Prop31
280
     0
102
RTVSPost2010PropOp31
 70
     1
102
RTVSPost2010Prop32
280
     0
102
RTVSPost2010PropOp32
 70
     1
102
RTVSPost2010Prop33
280
     0
102
RTVSPost2010PropOp33
 70
     1
102
RTVSPost2010Prop34
280
     0
102
RTVSPost2010PropOp34
 70
     1
102
RTVSPost2010Prop35
280
     0
102
RTVSPost2010PropOp35
 70
     1
102
RTVSPost2010Prop36
280
     0
102
RTVSPost2010PropOp36
 70
     1
102
RTVSPost2010Prop37
 90
       50
102
RTVSPost2010PropOp37
 70
     1
102
RTVSPost2010Prop38
140
0.0
102
RTVSPost2010PropOp38
 70
     1
102
RTVSPost2010Prop39
140
1.0
102
RTVSPost2010PropOp39
 70
     1
102
RTVSPost2010Prop40
 90
        0
102
RTVSPost2010PropOp40
 70
     1
102
RTVSPost2010Prop41ColorIndex
 90
       18
102
RTVSPost2010Prop41ColorRGB
 90
        0
102
RTVSPost2010PropOp41
 70
     1
102
RTVSPost2010Prop42
 90
       50
102
RTVSPost2010PropOp42
 70
     1
102
RTVSPost2010Prop43
 90
        3
102
RTVSPost2010PropOp43
 70
     1
102
RTVSPost2010Prop44ColorIndex
 90
        5
102
RTVSPost2010Prop44ColorRGB
 90
      255
102
RTVSPost2010PropOp44
 70
     1
102
RTVSPost2010Prop45
280
     0
102
RTVSPost2010PropOp45
 70
     1
102
RTVSPost2010Prop46
 90
       50
102
RTVSPost2010PropOp46
 70
     1
102
RTVSPost2010Prop47
 90
       50
102
RTVSPost2010PropOp47
 70
     1
102
RTVSPost2010Prop48
 90
       50
102
RTVSPost2010PropOp48
 70
     1
102
RTVSPost2010Prop49
280
     0
102
RTVSPost2010PropOp49
 70
     1
102
RTVSPost2010Prop50
 90
       50
102
RTVSPost2010PropOp50
 70
     1
102
RTVSPost2010Prop51ColorIndex
 90
      256
102
RTVSPost2010Prop51ColorRGB
 90
-16777216
102
RTVSPost2010PropOp51
 70
     0
102
RTVSPost2010Prop52
140
1.0
102
RTVSPost2010PropOp52
 70
     0
102
RTVSPost2010Prop53
 90
        2
102
RTVSPost2010PropOp53
 70
     1
102
RTVSPost2010Prop54
  1
strokes_ogs.tif
102
RTVSPost2010PropOp54
 70
     1
102
RTVSPost2010Prop55
280
     0
102
RTVSPost2010PropOp55
 70
     1
102
RTVSPost2010Prop56
140
1.0
102
RTVSPost2010PropOp56
 70
     1
102
RTVSPost2010Prop57
140
1.0
102
RTVSPost2010PropOp57
 70
     1
102
RTVSPropertyOp0
 70
     1
102
RTVSPropertyOp1
 70
     1
102
RTVSPropertyOp2
 70
     1
102
RTVSPropertyOp3
 70
     1
102
RTVSPropertyOp4
 70
     1
102
RTVSPropertyOp5
 70
     1
102
RTVSPropertyOp6
 70
     1
102
RTVSPropertyOp7
 70
     1
102
RTVSPropertyOp8
 70
     1
102
RTVSPropertyOp9
 70
     1
102
RTVSPropertyOp10
 70
     1
102
RTVSPropertyOp11
 70
     1
102
RTVSPropertyOp12
 70
     1
102
RTVSPropertyOp13
 70
     1
102
RTVSPropertyOp14
 70
     1
102
RTVSPropertyOp15
 70
     1
102
RTVSPropertyOp16
 70
     1
102
RTVSPropertyOp17
 70
     1
102
RTVSPropertyOp18
 70
     1
102
RTVSPropertyOp19
 70
     1
102
RTVSPropertyOp20
 70
     1
102
RTVSPropertyOp21
 70
     1
102
RTVSPropertyOp22
 70
     1
102
RTVSPropertyOp23
 70
     1
102
RTVSPropertyOp24
 70
     1
102
RTVSPropertyOp25
 70
     1
102
RTVSPropertyOp26
 70
     1
102
RTVSPropertyOp27
 70
     1
102
RTVSPropertyOp28
 70
     1
102
RTVSPropertyOp29
 70
     1
102
RTVSPropertyOp30
 70
     1
102
RTVSPropertyOp31
 70
     1
102
RTVSPropertyOp32
 70
     1
102
RTVSPropertyOp33
 70
     1
102
RTVSPropertyOp34
 70
     1
102
RTVSPropertyOp35
 70
     1
102
RTVSPropertyOp36
 70
     1
102
RTVSPropertyOp37
 70
     1
102
RTVSPropertyOp38
 70
     1
102
RTVSPropertyOp39
 70
     1
102
RTVSPropertyOp40
 70
     1
102
RTVSPropertyOp41
 70
     1
102
RTVSPropertyOp42
 70
     1
102
RTVSPropertyOp43
 70
     1
102
RTVSPropertyOp44
 70
     1
102
RTVSPropertyOp45
 70
     1
102
RTVSPropertyOp46
 70
     1
102
RTVSPropertyOp47
 70
     1
102
RTVSPropertyOp48
 70
     1
102
RTVSPropertyOp49
 70
     1
102
RTVSPropertyOp50
 70
     1
102
RTVSPropertyOp51
 70
     0
102
RTVSPropertyOp52
 70
     0
102
RTVSPropertyOp53
 70
     1
102
RTVSPropertyOp54
 70
     1
102
RTVSPropertyOp55
 70
     1
102
RTVSPropertyOp56
 70
     1
102
RTVSPropertyOp57
 70
     1
102
RTVSPropertyOp58
 70
     1
102
RTVSPropertyOp59
 70
     1
102
RTVSPropertyOp60
 70
     1
102
RTVSPropertyOp61
 70
     1
102
RTVSPropertyOp62
 70
     1
  0
XRECORD
  5
A2CD
102
{ACAD_REACTORS
330
A2CC
102
}
330
A2CC
100
AcDbXrecord
280
     1
102
RTVSPost2010Prop28
280
     0
102
RTVSPost2010PropOp28
 70
     1
102
RTVSPost2010Prop29
280
     1
102
RTVSPost2010PropOp29
 70
     1
102
RTVSPost2010Prop30
280
     1
102
RTVSPost2010PropOp30
 70
     1
102
RTVSPost2010Prop31
280
     0
102
RTVSPost2010PropOp31
 70
     1
102
RTVSPost2010Prop32
280
     0
102
RTVSPost2010PropOp32
 70
     1
102
RTVSPost2010Prop33
280
     0
102
RTVSPost2010PropOp33
 70
     1
102
RTVSPost2010Prop34
280
     0
102
RTVSPost2010PropOp34
 70
     1
102
RTVSPost2010Prop35
280
     0
102
RTVSPost2010PropOp35
 70
     1
102
RTVSPost2010Prop36
280
     0
102
RTVSPost2010PropOp36
 70
     1
102
RTVSPost2010Prop37
 90
       50
102
RTVSPost2010PropOp37
 70
     0
102
RTVSPost2010Prop38
140
0.0
102
RTVSPost2010PropOp38
 70
     0
102
RTVSPost2010Prop39
140
1.0
102
RTVSPost2010PropOp39
 70
     0
102
RTVSPost2010Prop40
 90
        0
102
RTVSPost2010PropOp40
 70
     0
102
RTVSPost2010Prop41ColorIndex
 90
       18
102
RTVSPost2010Prop41ColorRGB
 90
        0
102
RTVSPost2010PropOp41
 70
     0
102
RTVSPost2010Prop42
 90
       50
102
RTVSPost2010PropOp42
 70
     0
102
RTVSPost2010Prop43
 90
        3
102
RTVSPost2010PropOp43
 70
     0
102
RTVSPost2010Prop44ColorIndex
 90
        5
102
RTVSPost2010Prop44ColorRGB
 90
      255
102
RTVSPost2010PropOp44
 70
     0
102
RTVSPost2010Prop45
280
     0
102
RTVSPost2010PropOp45
 70
     1
102
RTVSPost2010Prop46
 90
       50
102
RTVSPost2010PropOp46
 70
     0
102
RTVSPost2010Prop47
 90
       50
102
RTVSPost2010PropOp47
 70
     0
102
RTVSPost2010Prop48
 90
       50
102
RTVSPost2010PropOp48
 70
     0
102
RTVSPost2010Prop49
280
     0
102
RTVSPost2010PropOp49
 70
     1
102
RTVSPost2010Prop50
 90
       50
102
RTVSPost2010PropOp50
 70
     0
102
RTVSPost2010Prop51ColorIndex
 90
      256
102
RTVSPost2010Prop51ColorRGB
 90
-16777216
102
RTVSPost2010PropOp51
 70
     0
102
RTVSPost2010Prop52
140
1.0
102
RTVSPost2010PropOp52
 70
     0
102
RTVSPost2010Prop53
 90
        2
102
RTVSPost2010PropOp53
 70
     0
102
RTVSPost2010Prop54
  1
strokes_ogs.tif
102
RTVSPost2010PropOp54
 70
     0
102
RTVSPost2010Prop55
280
     0
102
RTVSPost2010PropOp55
 70
     1
102
RTVSPost2010Prop56
140
1.0
102
RTVSPost2010PropOp56
 70
     0
102
RTVSPost2010Prop57
140
1.0
102
RTVSPost2010PropOp57
 70
     0
102
RTVSPropertyOp0
 70
     0
102
RTVSPropertyOp1
 70
     0
102
RTVSPropertyOp2
 70
     0
102
RTVSPropertyOp3
 70
     0
102
RTVSPropertyOp4
 70
     0
102
RTVSPropertyOp5
 70
     0
102
RTVSPropertyOp6
 70
     0
102
RTVSPropertyOp7
 70
     0
102
RTVSPropertyOp8
 70
     0
102
RTVSPropertyOp9
 70
     0
102
RTVSPropertyOp10
 70
     0
102
RTVSPropertyOp11
 70
     0
102
RTVSPropertyOp12
 70
     0
102
RTVSPropertyOp13
 70
     0
102
RTVSPropertyOp14
 70
     2
102
RTVSPropertyOp15
 70
     0
102
RTVSPropertyOp16
 70
     0
102
RTVSPropertyOp17
 70
     0
102
RTVSPropertyOp18
 70
     0
102
RTVSPropertyOp19
 70
     0
102
RTVSPropertyOp20
 70
     0
102
RTVSPropertyOp21
 70
     0
102
RTVSPropertyOp22
 70
     0
102
RTVSPropertyOp23
 70
     0
102
RTVSPropertyOp24
 70
     0
102
RTVSPropertyOp25
 70
     0
102
RTVSPropertyOp26
 70
     0
102
RTVSPropertyOp27
 70
     0
102
RTVSPropertyOp28
 70
     1
102
RTVSPropertyOp29
 70
     1
102
RTVSPropertyOp30
 70
     1
102
RTVSPropertyOp31
 70
     1
102
RTVSPropertyOp32
 70
     1
102
RTVSPropertyOp33
 70
     1
102
RTVSPropertyOp34
 70
     1
102
RTVSPropertyOp35
 70
     1
102
RTVSPropertyOp36
 70
     1
102
RTVSPropertyOp37
 70
     0
102
RTVSPropertyOp38
 70
     0
102
RTVSPropertyOp39
 70
     0
102
RTVSPropertyOp40
 70
     0
102
RTVSPropertyOp41
 70
     0
102
RTVSPropertyOp42
 70
     0
102
RTVSPropertyOp43
 70
     0
102
RTVSPropertyOp44
 70
     0
102
RTVSPropertyOp45
 70
     1
102
RTVSPropertyOp46
 70
     0
102
RTVSPropertyOp47
 70
     0
102
RTVSPropertyOp48
 70
     0
102
RTVSPropertyOp49
 70
     1
102
RTVSPropertyOp50
 70
     0
102
RTVSPropertyOp51
 70
     0
102
RTVSPropertyOp52
 70
     0
102
RTVSPropertyOp53
 70
     0
102
RTVSPropertyOp54
 70
     0
102
RTVSPropertyOp55
 70
     1
102
RTVSPropertyOp56
 70
     0
102
RTVSPropertyOp57
 70
     0
102
RTVSPropertyOp58
 70
     0
102
RTVSPropertyOp59
 70
     0
102
RTVSPropertyOp60
 70
     0
102
RTVSPropertyOp61
 70
     0
102
RTVSPropertyOp62
 70
     0
  0
XRECORD
  5
A2BD
102
{ACAD_REACTORS
330
A2BC
102
}
330
A2BC
100
AcDbXrecord
280
     1
102
RTVSPost2010Prop28
280
     0
102
RTVSPost2010PropOp28
 70
     1
102
RTVSPost2010Prop29
280
     1
102
RTVSPost2010PropOp29
 70
     1
102
RTVSPost2010Prop30
280
     1
102
RTVSPost2010PropOp30
 70
     1
102
RTVSPost2010Prop31
280
     0
102
RTVSPost2010PropOp31
 70
     1
102
RTVSPost2010Prop32
280
     0
102
RTVSPost2010PropOp32
 70
     1
102
RTVSPost2010Prop33
280
     0
102
RTVSPost2010PropOp33
 70
     1
102
RTVSPost2010Prop34
280
     0
102
RTVSPost2010PropOp34
 70
     1
102
RTVSPost2010Prop35
280
     0
102
RTVSPost2010PropOp35
 70
     1
102
RTVSPost2010Prop36
280
     0
102
RTVSPost2010PropOp36
 70
     1
102
RTVSPost2010Prop37
 90
       50
102
RTVSPost2010PropOp37
 70
     1
102
RTVSPost2010Prop38
140
0.0
102
RTVSPost2010PropOp38
 70
     1
102
RTVSPost2010Prop39
140
1.0
102
RTVSPost2010PropOp39
 70
     1
102
RTVSPost2010Prop40
 90
        0
102
RTVSPost2010PropOp40
 70
     1
102
RTVSPost2010Prop41ColorIndex
 90
       18
102
RTVSPost2010Prop41ColorRGB
 90
        0
102
RTVSPost2010PropOp41
 70
     1
102
RTVSPost2010Prop42
 90
       50
102
RTVSPost2010PropOp42
 70
     1
102
RTVSPost2010Prop43
 90
        3
102
RTVSPost2010PropOp43
 70
     1
102
RTVSPost2010Prop44ColorIndex
 90
        5
102
RTVSPost2010Prop44ColorRGB
 90
      255
102
RTVSPost2010PropOp44
 70
     1
102
RTVSPost2010Prop45
280
     0
102
RTVSPost2010PropOp45
 70
     1
102
RTVSPost2010Prop46
 90
       50
102
RTVSPost2010PropOp46
 70
     1
102
RTVSPost2010Prop47
 90
       50
102
RTVSPost2010PropOp47
 70
     1
102
RTVSPost2010Prop48
 90
       50
102
RTVSPost2010PropOp48
 70
     1
102
RTVSPost2010Prop49
280
     0
102
RTVSPost2010PropOp49
 70
     1
102
RTVSPost2010Prop50
 90
       50
102
RTVSPost2010PropOp50
 70
     1
102
RTVSPost2010Prop51ColorIndex
 90
      256
102
RTVSPost2010Prop51ColorRGB
 90
-16777216
102
RTVSPost2010PropOp51
 70
     0
102
RTVSPost2010Prop52
140
1.0
102
RTVSPost2010PropOp52
 70
     0
102
RTVSPost2010Prop53
 90
        2
102
RTVSPost2010PropOp53
 70
     1
102
RTVSPost2010Prop54
  1
strokes_ogs.tif
102
RTVSPost2010PropOp54
 70
     1
102
RTVSPost2010Prop55
280
     0
102
RTVSPost2010PropOp55
 70
     1
102
RTVSPost2010Prop56
140
1.0
102
RTVSPost2010PropOp56
 70
     1
102
RTVSPost2010Prop57
140
1.0
102
RTVSPost2010PropOp57
 70
     1
102
RTVSPropertyOp0
 70
     1
102
RTVSPropertyOp1
 70
     1
102
RTVSPropertyOp2
 70
     1
102
RTVSPropertyOp3
 70
     1
102
RTVSPropertyOp4
 70
     1
102
RTVSPropertyOp5
 70
     1
102
RTVSPropertyOp6
 70
     1
102
RTVSPropertyOp7
 70
     1
102
RTVSPropertyOp8
 70
     1
102
RTVSPropertyOp9
 70
     1
102
RTVSPropertyOp10
 70
     1
102
RTVSPropertyOp11
 70
     1
102
RTVSPropertyOp12
 70
     1
102
RTVSPropertyOp13
 70
     1
102
RTVSPropertyOp14
 70
     1
102
RTVSPropertyOp15
 70
     1
102
RTVSPropertyOp16
 70
     1
102
RTVSPropertyOp17
 70
     1
102
RTVSPropertyOp18
 70
     1
102
RTVSPropertyOp19
 70
     1
102
RTVSPropertyOp20
 70
     1
102
RTVSPropertyOp21
 70
     1
102
RTVSPropertyOp22
 70
     1
102
RTVSPropertyOp23
 70
     1
102
RTVSPropertyOp24
 70
     1
102
RTVSPropertyOp25
 70
     1
102
RTVSPropertyOp26
 70
     1
102
RTVSPropertyOp27
 70
     1
102
RTVSPropertyOp28
 70
     1
102
RTVSPropertyOp29
 70
     1
102
RTVSPropertyOp30
 70
     1
102
RTVSPropertyOp31
 70
     1
102
RTVSPropertyOp32
 70
     1
102
RTVSPropertyOp33
 70
     1
102
RTVSPropertyOp34
 70
     1
102
RTVSPropertyOp35
 70
     1
102
RTVSPropertyOp36
 70
     1
102
RTVSPropertyOp37
 70
     1
102
RTVSPropertyOp38
 70
     1
102
RTVSPropertyOp39
 70
     1
102
RTVSPropertyOp40
 70
     1
102
RTVSPropertyOp41
 70
     1
102
RTVSPropertyOp42
 70
     1
102
RTVSPropertyOp43
 70
     1
102
RTVSPropertyOp44
 70
     1
102
RTVSPropertyOp45
 70
     1
102
RTVSPropertyOp46
 70
     1
102
RTVSPropertyOp47
 70
     1
102
RTVSPropertyOp48
 70
     1
102
RTVSPropertyOp49
 70
     1
102
RTVSPropertyOp50
 70
     1
102
RTVSPropertyOp51
 70
     0
102
RTVSPropertyOp52
 70
     0
102
RTVSPropertyOp53
 70
     1
102
RTVSPropertyOp54
 70
     1
102
RTVSPropertyOp55
 70
     1
102
RTVSPropertyOp56
 70
     1
102
RTVSPropertyOp57
 70
     1
102
RTVSPropertyOp58
 70
     1
102
RTVSPropertyOp59
 70
     1
102
RTVSPropertyOp60
 70
     1
102
RTVSPropertyOp61
 70
     1
102
RTVSPropertyOp62
 70
     1
  0
XRECORD
  5
A2CF
102
{ACAD_REACTORS
330
A2CE
102
}
330
A2CE
100
AcDbXrecord
280
     1
102
RTVSPost2010Prop28
280
     0
102
RTVSPost2010PropOp28
 70
     1
102
RTVSPost2010Prop29
280
     1
102
RTVSPost2010PropOp29
 70
     1
102
RTVSPost2010Prop30
280
     1
102
RTVSPost2010PropOp30
 70
     1
102
RTVSPost2010Prop31
280
     0
102
RTVSPost2010PropOp31
 70
     1
102
RTVSPost2010Prop32
280
     0
102
RTVSPost2010PropOp32
 70
     1
102
RTVSPost2010Prop33
280
     0
102
RTVSPost2010PropOp33
 70
     1
102
RTVSPost2010Prop34
280
     0
102
RTVSPost2010PropOp34
 70
     1
102
RTVSPost2010Prop35
280
     0
102
RTVSPost2010PropOp35
 70
     1
102
RTVSPost2010Prop36
280
     0
102
RTVSPost2010PropOp36
 70
     1
102
RTVSPost2010Prop37
 90
       50
102
RTVSPost2010PropOp37
 70
     0
102
RTVSPost2010Prop38
140
0.0
102
RTVSPost2010PropOp38
 70
     0
102
RTVSPost2010Prop39
140
1.0
102
RTVSPost2010PropOp39
 70
     0
102
RTVSPost2010Prop40
 90
        0
102
RTVSPost2010PropOp40
 70
     0
102
RTVSPost2010Prop41ColorIndex
 90
       18
102
RTVSPost2010Prop41ColorRGB
 90
        0
102
RTVSPost2010PropOp41
 70
     0
102
RTVSPost2010Prop42
 90
       50
102
RTVSPost2010PropOp42
 70
     0
102
RTVSPost2010Prop43
 90
        3
102
RTVSPost2010PropOp43
 70
     0
102
RTVSPost2010Prop44ColorIndex
 90
        5
102
RTVSPost2010Prop44ColorRGB
 90
      255
102
RTVSPost2010PropOp44
 70
     0
102
RTVSPost2010Prop45
280
     0
102
RTVSPost2010PropOp45
 70
     1
102
RTVSPost2010Prop46
 90
       50
102
RTVSPost2010PropOp46
 70
     0
102
RTVSPost2010Prop47
 90
       50
102
RTVSPost2010PropOp47
 70
     0
102
RTVSPost2010Prop48
 90
       50
102
RTVSPost2010PropOp48
 70
     0
102
RTVSPost2010Prop49
280
     0
102
RTVSPost2010PropOp49
 70
     1
102
RTVSPost2010Prop50
 90
       50
102
RTVSPost2010PropOp50
 70
     0
102
RTVSPost2010Prop51ColorIndex
 90
      256
102
RTVSPost2010Prop51ColorRGB
 90
-16777216
102
RTVSPost2010PropOp51
 70
     0
102
RTVSPost2010Prop52
140
1.0
102
RTVSPost2010PropOp52
 70
     0
102
RTVSPost2010Prop53
 90
        2
102
RTVSPost2010PropOp53
 70
     0
102
RTVSPost2010Prop54
  1
strokes_ogs.tif
102
RTVSPost2010PropOp54
 70
     0
102
RTVSPost2010Prop55
280
     0
102
RTVSPost2010PropOp55
 70
     1
102
RTVSPost2010Prop56
140
1.0
102
RTVSPost2010PropOp56
 70
     0
102
RTVSPost2010Prop57
140
1.0
102
RTVSPost2010PropOp57
 70
     0
102
RTVSPropertyOp0
 70
     0
102
RTVSPropertyOp1
 70
     0
102
RTVSPropertyOp2
 70
     0
102
RTVSPropertyOp3
 70
     0
102
RTVSPropertyOp4
 70
     0
102
RTVSPropertyOp5
 70
     0
102
RTVSPropertyOp6
 70
     0
102
RTVSPropertyOp7
 70
     0
102
RTVSPropertyOp8
 70
     0
102
RTVSPropertyOp9
 70
     0
102
RTVSPropertyOp10
 70
     0
102
RTVSPropertyOp11
 70
     0
102
RTVSPropertyOp12
 70
     0
102
RTVSPropertyOp13
 70
     0
102
RTVSPropertyOp14
 70
     2
102
RTVSPropertyOp15
 70
     0
102
RTVSPropertyOp16
 70
     0
102
RTVSPropertyOp17
 70
     0
102
RTVSPropertyOp18
 70
     0
102
RTVSPropertyOp19
 70
     0
102
RTVSPropertyOp20
 70
     0
102
RTVSPropertyOp21
 70
     0
102
RTVSPropertyOp22
 70
     0
102
RTVSPropertyOp23
 70
     0
102
RTVSPropertyOp24
 70
     0
102
RTVSPropertyOp25
 70
     0
102
RTVSPropertyOp26
 70
     0
102
RTVSPropertyOp27
 70
     0
102
RTVSPropertyOp28
 70
     1
102
RTVSPropertyOp29
 70
     1
102
RTVSPropertyOp30
 70
     1
102
RTVSPropertyOp31
 70
     1
102
RTVSPropertyOp32
 70
     1
102
RTVSPropertyOp33
 70
     1
102
RTVSPropertyOp34
 70
     1
102
RTVSPropertyOp35
 70
     1
102
RTVSPropertyOp36
 70
     1
102
RTVSPropertyOp37
 70
     0
102
RTVSPropertyOp38
 70
     0
102
RTVSPropertyOp39
 70
     0
102
RTVSPropertyOp40
 70
     0
102
RTVSPropertyOp41
 70
     0
102
RTVSPropertyOp42
 70
     0
102
RTVSPropertyOp43
 70
     0
102
RTVSPropertyOp44
 70
     0
102
RTVSPropertyOp45
 70
     1
102
RTVSPropertyOp46
 70
     0
102
RTVSPropertyOp47
 70
     0
102
RTVSPropertyOp48
 70
     0
102
RTVSPropertyOp49
 70
     1
102
RTVSPropertyOp50
 70
     0
102
RTVSPropertyOp51
 70
     0
102
RTVSPropertyOp52
 70
     0
102
RTVSPropertyOp53
 70
     0
102
RTVSPropertyOp54
 70
     0
102
RTVSPropertyOp55
 70
     1
102
RTVSPropertyOp56
 70
     0
102
RTVSPropertyOp57
 70
     0
102
RTVSPropertyOp58
 70
     0
102
RTVSPropertyOp59
 70
     0
102
RTVSPropertyOp60
 70
     0
102
RTVSPropertyOp61
 70
     0
102
RTVSPropertyOp62
 70
     0
  0
XRECORD
  5
A2B5
102
{ACAD_REACTORS
330
A2B4
102
}
330
A2B4
100
AcDbXrecord
280
     1
102
RTVSPost2010Prop28
280
     0
102
RTVSPost2010PropOp28
 70
     1
102
RTVSPost2010Prop29
280
     1
102
RTVSPost2010PropOp29
 70
     1
102
RTVSPost2010Prop30
280
     1
102
RTVSPost2010PropOp30
 70
     1
102
RTVSPost2010Prop31
280
     0
102
RTVSPost2010PropOp31
 70
     1
102
RTVSPost2010Prop32
280
     0
102
RTVSPost2010PropOp32
 70
     1
102
RTVSPost2010Prop33
280
     0
102
RTVSPost2010PropOp33
 70
     1
102
RTVSPost2010Prop34
280
     0
102
RTVSPost2010PropOp34
 70
     1
102
RTVSPost2010Prop35
280
     0
102
RTVSPost2010PropOp35
 70
     1
102
RTVSPost2010Prop36
280
     0
102
RTVSPost2010PropOp36
 70
     1
102
RTVSPost2010Prop37
 90
       50
102
RTVSPost2010PropOp37
 70
     1
102
RTVSPost2010Prop38
140
0.0
102
RTVSPost2010PropOp38
 70
     1
102
RTVSPost2010Prop39
140
1.0
102
RTVSPost2010PropOp39
 70
     1
102
RTVSPost2010Prop40
 90
        0
102
RTVSPost2010PropOp40
 70
     1
102
RTVSPost2010Prop41ColorIndex
 90
       18
102
RTVSPost2010Prop41ColorRGB
 90
        0
102
RTVSPost2010PropOp41
 70
     1
102
RTVSPost2010Prop42
 90
       50
102
RTVSPost2010PropOp42
 70
     1
102
RTVSPost2010Prop43
 90
        3
102
RTVSPost2010PropOp43
 70
     1
102
RTVSPost2010Prop44ColorIndex
 90
        5
102
RTVSPost2010Prop44ColorRGB
 90
      255
102
RTVSPost2010PropOp44
 70
     1
102
RTVSPost2010Prop45
280
     0
102
RTVSPost2010PropOp45
 70
     1
102
RTVSPost2010Prop46
 90
       50
102
RTVSPost2010PropOp46
 70
     1
102
RTVSPost2010Prop47
 90
       50
102
RTVSPost2010PropOp47
 70
     1
102
RTVSPost2010Prop48
 90
       50
102
RTVSPost2010PropOp48
 70
     1
102
RTVSPost2010Prop49
280
     0
102
RTVSPost2010PropOp49
 70
     1
102
RTVSPost2010Prop50
 90
       50
102
RTVSPost2010PropOp50
 70
     1
102
RTVSPost2010Prop51ColorIndex
 90
      256
102
RTVSPost2010Prop51ColorRGB
 90
-16777216
102
RTVSPost2010PropOp51
 70
     0
102
RTVSPost2010Prop52
140
1.0
102
RTVSPost2010PropOp52
 70
     0
102
RTVSPost2010Prop53
 90
        2
102
RTVSPost2010PropOp53
 70
     1
102
RTVSPost2010Prop54
  1
strokes_ogs.tif
102
RTVSPost2010PropOp54
 70
     1
102
RTVSPost2010Prop55
280
     0
102
RTVSPost2010PropOp55
 70
     1
102
RTVSPost2010Prop56
140
1.0
102
RTVSPost2010PropOp56
 70
     1
102
RTVSPost2010Prop57
140
1.0
102
RTVSPost2010PropOp57
 70
     1
102
RTVSPropertyOp0
 70
     1
102
RTVSPropertyOp1
 70
     1
102
RTVSPropertyOp2
 70
     1
102
RTVSPropertyOp3
 70
     1
102
RTVSPropertyOp4
 70
     1
102
RTVSPropertyOp5
 70
     1
102
RTVSPropertyOp6
 70
     1
102
RTVSPropertyOp7
 70
     1
102
RTVSPropertyOp8
 70
     1
102
RTVSPropertyOp9
 70
     1
102
RTVSPropertyOp10
 70
     1
102
RTVSPropertyOp11
 70
     1
102
RTVSPropertyOp12
 70
     1
102
RTVSPropertyOp13
 70
     1
102
RTVSPropertyOp14
 70
     1
102
RTVSPropertyOp15
 70
     1
102
RTVSPropertyOp16
 70
     1
102
RTVSPropertyOp17
 70
     1
102
RTVSPropertyOp18
 70
     1
102
RTVSPropertyOp19
 70
     1
102
RTVSPropertyOp20
 70
     1
102
RTVSPropertyOp21
 70
     1
102
RTVSPropertyOp22
 70
     1
102
RTVSPropertyOp23
 70
     1
102
RTVSPropertyOp24
 70
     1
102
RTVSPropertyOp25
 70
     1
102
RTVSPropertyOp26
 70
     1
102
RTVSPropertyOp27
 70
     1
102
RTVSPropertyOp28
 70
     1
102
RTVSPropertyOp29
 70
     1
102
RTVSPropertyOp30
 70
     1
102
RTVSPropertyOp31
 70
     1
102
RTVSPropertyOp32
 70
     1
102
RTVSPropertyOp33
 70
     1
102
RTVSPropertyOp34
 70
     1
102
RTVSPropertyOp35
 70
     1
102
RTVSPropertyOp36
 70
     1
102
RTVSPropertyOp37
 70
     1
102
RTVSPropertyOp38
 70
     1
102
RTVSPropertyOp39
 70
     1
102
RTVSPropertyOp40
 70
     1
102
RTVSPropertyOp41
 70
     1
102
RTVSPropertyOp42
 70
     1
102
RTVSPropertyOp43
 70
     1
102
RTVSPropertyOp44
 70
     1
102
RTVSPropertyOp45
 70
     1
102
RTVSPropertyOp46
 70
     1
102
RTVSPropertyOp47
 70
     1
102
RTVSPropertyOp48
 70
     1
102
RTVSPropertyOp49
 70
     1
102
RTVSPropertyOp50
 70
     1
102
RTVSPropertyOp51
 70
     0
102
RTVSPropertyOp52
 70
     0
102
RTVSPropertyOp53
 70
     1
102
RTVSPropertyOp54
 70
     1
102
RTVSPropertyOp55
 70
     1
102
RTVSPropertyOp56
 70
     1
102
RTVSPropertyOp57
 70
     1
102
RTVSPropertyOp58
 70
     1
102
RTVSPropertyOp59
 70
     1
102
RTVSPropertyOp60
 70
     1
102
RTVSPropertyOp61
 70
     1
102
RTVSPropertyOp62
 70
     1
  0
XRECORD
  5
A2CB
102
{ACAD_REACTORS
330
A2CA
102
}
330
A2CA
100
AcDbXrecord
280
     1
102
RTVSPost2010Prop28
280
     0
102
RTVSPost2010PropOp28
 70
     1
102
RTVSPost2010Prop29
280
     1
102
RTVSPost2010PropOp29
 70
     1
102
RTVSPost2010Prop30
280
     1
102
RTVSPost2010PropOp30
 70
     1
102
RTVSPost2010Prop31
280
     0
102
RTVSPost2010PropOp31
 70
     1
102
RTVSPost2010Prop32
280
     0
102
RTVSPost2010PropOp32
 70
     1
102
RTVSPost2010Prop33
280
     0
102
RTVSPost2010PropOp33
 70
     1
102
RTVSPost2010Prop34
280
     0
102
RTVSPost2010PropOp34
 70
     1
102
RTVSPost2010Prop35
280
     0
102
RTVSPost2010PropOp35
 70
     1
102
RTVSPost2010Prop36
280
     0
102
RTVSPost2010PropOp36
 70
     1
102
RTVSPost2010Prop37
 90
       50
102
RTVSPost2010PropOp37
 70
     1
102
RTVSPost2010Prop38
140
0.0
102
RTVSPost2010PropOp38
 70
     1
102
RTVSPost2010Prop39
140
1.0
102
RTVSPost2010PropOp39
 70
     1
102
RTVSPost2010Prop40
 90
        0
102
RTVSPost2010PropOp40
 70
     1
102
RTVSPost2010Prop41ColorIndex
 90
       18
102
RTVSPost2010Prop41ColorRGB
 90
        0
102
RTVSPost2010PropOp41
 70
     1
102
RTVSPost2010Prop42
 90
       50
102
RTVSPost2010PropOp42
 70
     1
102
RTVSPost2010Prop43
 90
        3
102
RTVSPost2010PropOp43
 70
     1
102
RTVSPost2010Prop44ColorIndex
 90
        5
102
RTVSPost2010Prop44ColorRGB
 90
      255
102
RTVSPost2010PropOp44
 70
     1
102
RTVSPost2010Prop45
280
     0
102
RTVSPost2010PropOp45
 70
     1
102
RTVSPost2010Prop46
 90
       50
102
RTVSPost2010PropOp46
 70
     1
102
RTVSPost2010Prop47
 90
       50
102
RTVSPost2010PropOp47
 70
     1
102
RTVSPost2010Prop48
 90
       50
102
RTVSPost2010PropOp48
 70
     1
102
RTVSPost2010Prop49
280
     0
102
RTVSPost2010PropOp49
 70
     1
102
RTVSPost2010Prop50
 90
       50
102
RTVSPost2010PropOp50
 70
     1
102
RTVSPost2010Prop51ColorIndex
 90
      256
102
RTVSPost2010Prop51ColorRGB
 90
-16777216
102
RTVSPost2010PropOp51
 70
     0
102
RTVSPost2010Prop52
140
1.0
102
RTVSPost2010PropOp52
 70
     0
102
RTVSPost2010Prop53
 90
        2
102
RTVSPost2010PropOp53
 70
     1
102
RTVSPost2010Prop54
  1
strokes_ogs.tif
102
RTVSPost2010PropOp54
 70
     1
102
RTVSPost2010Prop55
280
     0
102
RTVSPost2010PropOp55
 70
     1
102
RTVSPost2010Prop56
140
1.0
102
RTVSPost2010PropOp56
 70
     1
102
RTVSPost2010Prop57
140
1.0
102
RTVSPost2010PropOp57
 70
     1
102
RTVSPropertyOp0
 70
     1
102
RTVSPropertyOp1
 70
     1
102
RTVSPropertyOp2
 70
     1
102
RTVSPropertyOp3
 70
     1
102
RTVSPropertyOp4
 70
     1
102
RTVSPropertyOp5
 70
     1
102
RTVSPropertyOp6
 70
     1
102
RTVSPropertyOp7
 70
     1
102
RTVSPropertyOp8
 70
     1
102
RTVSPropertyOp9
 70
     1
102
RTVSPropertyOp10
 70
     1
102
RTVSPropertyOp11
 70
     1
102
RTVSPropertyOp12
 70
     1
102
RTVSPropertyOp13
 70
     1
102
RTVSPropertyOp14
 70
     1
102
RTVSPropertyOp15
 70
     1
102
RTVSPropertyOp16
 70
     1
102
RTVSPropertyOp17
 70
     1
102
RTVSPropertyOp18
 70
     1
102
RTVSPropertyOp19
 70
     1
102
RTVSPropertyOp20
 70
     1
102
RTVSPropertyOp21
 70
     1
102
RTVSPropertyOp22
 70
     1
102
RTVSPropertyOp23
 70
     1
102
RTVSPropertyOp24
 70
     1
102
RTVSPropertyOp25
 70
     1
102
RTVSPropertyOp26
 70
     1
102
RTVSPropertyOp27
 70
     1
102
RTVSPropertyOp28
 70
     1
102
RTVSPropertyOp29
 70
     1
102
RTVSPropertyOp30
 70
     1
102
RTVSPropertyOp31
 70
     1
102
RTVSPropertyOp32
 70
     1
102
RTVSPropertyOp33
 70
     1
102
RTVSPropertyOp34
 70
     1
102
RTVSPropertyOp35
 70
     1
102
RTVSPropertyOp36
 70
     1
102
RTVSPropertyOp37
 70
     1
102
RTVSPropertyOp38
 70
     1
102
RTVSPropertyOp39
 70
     1
102
RTVSPropertyOp40
 70
     1
102
RTVSPropertyOp41
 70
     1
102
RTVSPropertyOp42
 70
     1
102
RTVSPropertyOp43
 70
     1
102
RTVSPropertyOp44
 70
     1
102
RTVSPropertyOp45
 70
     1
102
RTVSPropertyOp46
 70
     1
102
RTVSPropertyOp47
 70
     1
102
RTVSPropertyOp48
 70
     1
102
RTVSPropertyOp49
 70
     1
102
RTVSPropertyOp50
 70
     1
102
RTVSPropertyOp51
 70
     0
102
RTVSPropertyOp52
 70
     0
102
RTVSPropertyOp53
 70
     1
102
RTVSPropertyOp54
 70
     1
102
RTVSPropertyOp55
 70
     1
102
RTVSPropertyOp56
 70
     1
102
RTVSPropertyOp57
 70
     1
102
RTVSPropertyOp58
 70
     1
102
RTVSPropertyOp59
 70
     1
102
RTVSPropertyOp60
 70
     1
102
RTVSPropertyOp61
 70
     1
102
RTVSPropertyOp62
 70
     1
  0
XRECORD
  5
A2C9
102
{ACAD_REACTORS
330
A2C8
102
}
330
A2C8
100
AcDbXrecord
280
     1
102
RTVSPost2010Prop28
280
     0
102
RTVSPost2010PropOp28
 70
     1
102
RTVSPost2010Prop29
280
     1
102
RTVSPost2010PropOp29
 70
     1
102
RTVSPost2010Prop30
280
     1
102
RTVSPost2010PropOp30
 70
     1
102
RTVSPost2010Prop31
280
     0
102
RTVSPost2010PropOp31
 70
     1
102
RTVSPost2010Prop32
280
     0
102
RTVSPost2010PropOp32
 70
     1
102
RTVSPost2010Prop33
280
     0
102
RTVSPost2010PropOp33
 70
     1
102
RTVSPost2010Prop34
280
     0
102
RTVSPost2010PropOp34
 70
     1
102
RTVSPost2010Prop35
280
     0
102
RTVSPost2010PropOp35
 70
     1
102
RTVSPost2010Prop36
280
     0
102
RTVSPost2010PropOp36
 70
     1
102
RTVSPost2010Prop37
 90
       50
102
RTVSPost2010PropOp37
 70
     1
102
RTVSPost2010Prop38
140
0.0
102
RTVSPost2010PropOp38
 70
     1
102
RTVSPost2010Prop39
140
1.0
102
RTVSPost2010PropOp39
 70
     1
102
RTVSPost2010Prop40
 90
        0
102
RTVSPost2010PropOp40
 70
     1
102
RTVSPost2010Prop41ColorIndex
 90
       18
102
RTVSPost2010Prop41ColorRGB
 90
        0
102
RTVSPost2010PropOp41
 70
     1
102
RTVSPost2010Prop42
 90
       50
102
RTVSPost2010PropOp42
 70
     1
102
RTVSPost2010Prop43
 90
        3
102
RTVSPost2010PropOp43
 70
     1
102
RTVSPost2010Prop44ColorIndex
 90
        5
102
RTVSPost2010Prop44ColorRGB
 90
      255
102
RTVSPost2010PropOp44
 70
     1
102
RTVSPost2010Prop45
280
     0
102
RTVSPost2010PropOp45
 70
     1
102
RTVSPost2010Prop46
 90
       50
102
RTVSPost2010PropOp46
 70
     1
102
RTVSPost2010Prop47
 90
       50
102
RTVSPost2010PropOp47
 70
     1
102
RTVSPost2010Prop48
 90
       50
102
RTVSPost2010PropOp48
 70
     1
102
RTVSPost2010Prop49
280
     0
102
RTVSPost2010PropOp49
 70
     1
102
RTVSPost2010Prop50
 90
       50
102
RTVSPost2010PropOp50
 70
     1
102
RTVSPost2010Prop51ColorIndex
 90
      256
102
RTVSPost2010Prop51ColorRGB
 90
-16777216
102
RTVSPost2010PropOp51
 70
     0
102
RTVSPost2010Prop52
140
1.0
102
RTVSPost2010PropOp52
 70
     0
102
RTVSPost2010Prop53
 90
        2
102
RTVSPost2010PropOp53
 70
     1
102
RTVSPost2010Prop54
  1
strokes_ogs.tif
102
RTVSPost2010PropOp54
 70
     1
102
RTVSPost2010Prop55
280
     0
102
RTVSPost2010PropOp55
 70
     1
102
RTVSPost2010Prop56
140
1.0
102
RTVSPost2010PropOp56
 70
     1
102
RTVSPost2010Prop57
140
1.0
102
RTVSPost2010PropOp57
 70
     1
102
RTVSPropertyOp0
 70
     1
102
RTVSPropertyOp1
 70
     1
102
RTVSPropertyOp2
 70
     1
102
RTVSPropertyOp3
 70
     1
102
RTVSPropertyOp4
 70
     1
102
RTVSPropertyOp5
 70
     1
102
RTVSPropertyOp6
 70
     1
102
RTVSPropertyOp7
 70
     1
102
RTVSPropertyOp8
 70
     1
102
RTVSPropertyOp9
 70
     1
102
RTVSPropertyOp10
 70
     1
102
RTVSPropertyOp11
 70
     1
102
RTVSPropertyOp12
 70
     1
102
RTVSPropertyOp13
 70
     1
102
RTVSPropertyOp14
 70
     1
102
RTVSPropertyOp15
 70
     1
102
RTVSPropertyOp16
 70
     1
102
RTVSPropertyOp17
 70
     1
102
RTVSPropertyOp18
 70
     1
102
RTVSPropertyOp19
 70
     1
102
RTVSPropertyOp20
 70
     1
102
RTVSPropertyOp21
 70
     1
102
RTVSPropertyOp22
 70
     1
102
RTVSPropertyOp23
 70
     1
102
RTVSPropertyOp24
 70
     1
102
RTVSPropertyOp25
 70
     1
102
RTVSPropertyOp26
 70
     1
102
RTVSPropertyOp27
 70
     1
102
RTVSPropertyOp28
 70
     1
102
RTVSPropertyOp29
 70
     1
102
RTVSPropertyOp30
 70
     1
102
RTVSPropertyOp31
 70
     1
102
RTVSPropertyOp32
 70
     1
102
RTVSPropertyOp33
 70
     1
102
RTVSPropertyOp34
 70
     1
102
RTVSPropertyOp35
 70
     1
102
RTVSPropertyOp36
 70
     1
102
RTVSPropertyOp37
 70
     1
102
RTVSPropertyOp38
 70
     1
102
RTVSPropertyOp39
 70
     1
102
RTVSPropertyOp40
 70
     1
102
RTVSPropertyOp41
 70
     1
102
RTVSPropertyOp42
 70
     1
102
RTVSPropertyOp43
 70
     1
102
RTVSPropertyOp44
 70
     1
102
RTVSPropertyOp45
 70
     1
102
RTVSPropertyOp46
 70
     1
102
RTVSPropertyOp47
 70
     1
102
RTVSPropertyOp48
 70
     1
102
RTVSPropertyOp49
 70
     1
102
RTVSPropertyOp50
 70
     1
102
RTVSPropertyOp51
 70
     0
102
RTVSPropertyOp52
 70
     0
102
RTVSPropertyOp53
 70
     1
102
RTVSPropertyOp54
 70
     1
102
RTVSPropertyOp55
 70
     1
102
RTVSPropertyOp56
 70
     1
102
RTVSPropertyOp57
 70
     1
102
RTVSPropertyOp58
 70
     1
102
RTVSPropertyOp59
 70
     1
102
RTVSPropertyOp60
 70
     1
102
RTVSPropertyOp61
 70
     1
102
RTVSPropertyOp62
 70
     1
  0
XRECORD
  5
A2C3
102
{ACAD_REACTORS
330
A2C2
102
}
330
A2C2
100
AcDbXrecord
280
     1
102
RTVSPost2010Prop28
280
     0
102
RTVSPost2010PropOp28
 70
     1
102
RTVSPost2010Prop29
280
     1
102
RTVSPost2010PropOp29
 70
     1
102
RTVSPost2010Prop30
280
     1
102
RTVSPost2010PropOp30
 70
     1
102
RTVSPost2010Prop31
280
     0
102
RTVSPost2010PropOp31
 70
     1
102
RTVSPost2010Prop32
280
     0
102
RTVSPost2010PropOp32
 70
     1
102
RTVSPost2010Prop33
280
     0
102
RTVSPost2010PropOp33
 70
     1
102
RTVSPost2010Prop34
280
     0
102
RTVSPost2010PropOp34
 70
     1
102
RTVSPost2010Prop35
280
     0
102
RTVSPost2010PropOp35
 70
     1
102
RTVSPost2010Prop36
280
     0
102
RTVSPost2010PropOp36
 70
     1
102
RTVSPost2010Prop37
 90
       50
102
RTVSPost2010PropOp37
 70
     1
102
RTVSPost2010Prop38
140
0.0
102
RTVSPost2010PropOp38
 70
     1
102
RTVSPost2010Prop39
140
1.0
102
RTVSPost2010PropOp39
 70
     1
102
RTVSPost2010Prop40
 90
        0
102
RTVSPost2010PropOp40
 70
     1
102
RTVSPost2010Prop41ColorIndex
 90
       18
102
RTVSPost2010Prop41ColorRGB
 90
        0
102
RTVSPost2010PropOp41
 70
     1
102
RTVSPost2010Prop42
 90
       50
102
RTVSPost2010PropOp42
 70
     1
102
RTVSPost2010Prop43
 90
        3
102
RTVSPost2010PropOp43
 70
     1
102
RTVSPost2010Prop44ColorIndex
 90
        5
102
RTVSPost2010Prop44ColorRGB
 90
      255
102
RTVSPost2010PropOp44
 70
     1
102
RTVSPost2010Prop45
280
     0
102
RTVSPost2010PropOp45
 70
     1
102
RTVSPost2010Prop46
 90
       50
102
RTVSPost2010PropOp46
 70
     1
102
RTVSPost2010Prop47
 90
       50
102
RTVSPost2010PropOp47
 70
     1
102
RTVSPost2010Prop48
 90
       50
102
RTVSPost2010PropOp48
 70
     1
102
RTVSPost2010Prop49
280
     0
102
RTVSPost2010PropOp49
 70
     1
102
RTVSPost2010Prop50
 90
       50
102
RTVSPost2010PropOp50
 70
     1
102
RTVSPost2010Prop51ColorIndex
 90
      256
102
RTVSPost2010Prop51ColorRGB
 90
-16777216
102
RTVSPost2010PropOp51
 70
     0
102
RTVSPost2010Prop52
140
1.0
102
RTVSPost2010PropOp52
 70
     0
102
RTVSPost2010Prop53
 90
        2
102
RTVSPost2010PropOp53
 70
     1
102
RTVSPost2010Prop54
  1
strokes_ogs.tif
102
RTVSPost2010PropOp54
 70
     1
102
RTVSPost2010Prop55
280
     0
102
RTVSPost2010PropOp55
 70
     1
102
RTVSPost2010Prop56
140
1.0
102
RTVSPost2010PropOp56
 70
     1
102
RTVSPost2010Prop57
140
1.0
102
RTVSPost2010PropOp57
 70
     1
102
RTVSPropertyOp0
 70
     1
102
RTVSPropertyOp1
 70
     1
102
RTVSPropertyOp2
 70
     1
102
RTVSPropertyOp3
 70
     1
102
RTVSPropertyOp4
 70
     1
102
RTVSPropertyOp5
 70
     1
102
RTVSPropertyOp6
 70
     1
102
RTVSPropertyOp7
 70
     1
102
RTVSPropertyOp8
 70
     1
102
RTVSPropertyOp9
 70
     1
102
RTVSPropertyOp10
 70
     1
102
RTVSPropertyOp11
 70
     1
102
RTVSPropertyOp12
 70
     1
102
RTVSPropertyOp13
 70
     1
102
RTVSPropertyOp14
 70
     1
102
RTVSPropertyOp15
 70
     1
102
RTVSPropertyOp16
 70
     1
102
RTVSPropertyOp17
 70
     1
102
RTVSPropertyOp18
 70
     1
102
RTVSPropertyOp19
 70
     1
102
RTVSPropertyOp20
 70
     1
102
RTVSPropertyOp21
 70
     1
102
RTVSPropertyOp22
 70
     1
102
RTVSPropertyOp23
 70
     1
102
RTVSPropertyOp24
 70
     1
102
RTVSPropertyOp25
 70
     1
102
RTVSPropertyOp26
 70
     1
102
RTVSPropertyOp27
 70
     1
102
RTVSPropertyOp28
 70
     1
102
RTVSPropertyOp29
 70
     1
102
RTVSPropertyOp30
 70
     1
102
RTVSPropertyOp31
 70
     1
102
RTVSPropertyOp32
 70
     1
102
RTVSPropertyOp33
 70
     1
102
RTVSPropertyOp34
 70
     1
102
RTVSPropertyOp35
 70
     1
102
RTVSPropertyOp36
 70
     1
102
RTVSPropertyOp37
 70
     1
102
RTVSPropertyOp38
 70
     1
102
RTVSPropertyOp39
 70
     1
102
RTVSPropertyOp40
 70
     1
102
RTVSPropertyOp41
 70
     1
102
RTVSPropertyOp42
 70
     1
102
RTVSPropertyOp43
 70
     1
102
RTVSPropertyOp44
 70
     1
102
RTVSPropertyOp45
 70
     1
102
RTVSPropertyOp46
 70
     1
102
RTVSPropertyOp47
 70
     1
102
RTVSPropertyOp48
 70
     1
102
RTVSPropertyOp49
 70
     1
102
RTVSPropertyOp50
 70
     1
102
RTVSPropertyOp51
 70
     0
102
RTVSPropertyOp52
 70
     0
102
RTVSPropertyOp53
 70
     1
102
RTVSPropertyOp54
 70
     1
102
RTVSPropertyOp55
 70
     1
102
RTVSPropertyOp56
 70
     1
102
RTVSPropertyOp57
 70
     1
102
RTVSPropertyOp58
 70
     1
102
RTVSPropertyOp59
 70
     1
102
RTVSPropertyOp60
 70
     1
102
RTVSPropertyOp61
 70
     1
102
RTVSPropertyOp62
 70
     1
  0
XRECORD
  5
A2C5
102
{ACAD_REACTORS
330
A2C4
102
}
330
A2C4
100
AcDbXrecord
280
     1
102
RTVSPost2010Prop28
280
     0
102
RTVSPost2010PropOp28
 70
     1
102
RTVSPost2010Prop29
280
     1
102
RTVSPost2010PropOp29
 70
     1
102
RTVSPost2010Prop30
280
     1
102
RTVSPost2010PropOp30
 70
     1
102
RTVSPost2010Prop31
280
     0
102
RTVSPost2010PropOp31
 70
     1
102
RTVSPost2010Prop32
280
     0
102
RTVSPost2010PropOp32
 70
     1
102
RTVSPost2010Prop33
280
     0
102
RTVSPost2010PropOp33
 70
     1
102
RTVSPost2010Prop34
280
     0
102
RTVSPost2010PropOp34
 70
     1
102
RTVSPost2010Prop35
280
     0
102
RTVSPost2010PropOp35
 70
     1
102
RTVSPost2010Prop36
280
     0
102
RTVSPost2010PropOp36
 70
     1
102
RTVSPost2010Prop37
 90
       50
102
RTVSPost2010PropOp37
 70
     1
102
RTVSPost2010Prop38
140
0.0
102
RTVSPost2010PropOp38
 70
     1
102
RTVSPost2010Prop39
140
1.0
102
RTVSPost2010PropOp39
 70
     1
102
RTVSPost2010Prop40
 90
        0
102
RTVSPost2010PropOp40
 70
     1
102
RTVSPost2010Prop41ColorIndex
 90
       18
102
RTVSPost2010Prop41ColorRGB
 90
        0
102
RTVSPost2010PropOp41
 70
     1
102
RTVSPost2010Prop42
 90
       50
102
RTVSPost2010PropOp42
 70
     1
102
RTVSPost2010Prop43
 90
        3
102
RTVSPost2010PropOp43
 70
     1
102
RTVSPost2010Prop44ColorIndex
 90
        5
102
RTVSPost2010Prop44ColorRGB
 90
      255
102
RTVSPost2010PropOp44
 70
     1
102
RTVSPost2010Prop45
280
     0
102
RTVSPost2010PropOp45
 70
     1
102
RTVSPost2010Prop46
 90
       50
102
RTVSPost2010PropOp46
 70
     1
102
RTVSPost2010Prop47
 90
       50
102
RTVSPost2010PropOp47
 70
     1
102
RTVSPost2010Prop48
 90
       50
102
RTVSPost2010PropOp48
 70
     1
102
RTVSPost2010Prop49
280
     0
102
RTVSPost2010PropOp49
 70
     1
102
RTVSPost2010Prop50
 90
       50
102
RTVSPost2010PropOp50
 70
     1
102
RTVSPost2010Prop51ColorIndex
 90
      256
102
RTVSPost2010Prop51ColorRGB
 90
-16777216
102
RTVSPost2010PropOp51
 70
     0
102
RTVSPost2010Prop52
140
1.0
102
RTVSPost2010PropOp52
 70
     0
102
RTVSPost2010Prop53
 90
        2
102
RTVSPost2010PropOp53
 70
     1
102
RTVSPost2010Prop54
  1
strokes_ogs.tif
102
RTVSPost2010PropOp54
 70
     1
102
RTVSPost2010Prop55
280
     0
102
RTVSPost2010PropOp55
 70
     1
102
RTVSPost2010Prop56
140
1.0
102
RTVSPost2010PropOp56
 70
     1
102
RTVSPost2010Prop57
140
1.0
102
RTVSPost2010PropOp57
 70
     1
102
RTVSPropertyOp0
 70
     1
102
RTVSPropertyOp1
 70
     1
102
RTVSPropertyOp2
 70
     1
102
RTVSPropertyOp3
 70
     1
102
RTVSPropertyOp4
 70
     1
102
RTVSPropertyOp5
 70
     1
102
RTVSPropertyOp6
 70
     1
102
RTVSPropertyOp7
 70
     1
102
RTVSPropertyOp8
 70
     1
102
RTVSPropertyOp9
 70
     1
102
RTVSPropertyOp10
 70
     1
102
RTVSPropertyOp11
 70
     1
102
RTVSPropertyOp12
 70
     1
102
RTVSPropertyOp13
 70
     1
102
RTVSPropertyOp14
 70
     1
102
RTVSPropertyOp15
 70
     1
102
RTVSPropertyOp16
 70
     1
102
RTVSPropertyOp17
 70
     1
102
RTVSPropertyOp18
 70
     1
102
RTVSPropertyOp19
 70
     1
102
RTVSPropertyOp20
 70
     1
102
RTVSPropertyOp21
 70
     1
102
RTVSPropertyOp22
 70
     1
102
RTVSPropertyOp23
 70
     1
102
RTVSPropertyOp24
 70
     1
102
RTVSPropertyOp25
 70
     1
102
RTVSPropertyOp26
 70
     1
102
RTVSPropertyOp27
 70
     1
102
RTVSPropertyOp28
 70
     1
102
RTVSPropertyOp29
 70
     1
102
RTVSPropertyOp30
 70
     1
102
RTVSPropertyOp31
 70
     1
102
RTVSPropertyOp32
 70
     1
102
RTVSPropertyOp33
 70
     1
102
RTVSPropertyOp34
 70
     1
102
RTVSPropertyOp35
 70
     1
102
RTVSPropertyOp36
 70
     1
102
RTVSPropertyOp37
 70
     1
102
RTVSPropertyOp38
 70
     1
102
RTVSPropertyOp39
 70
     1
102
RTVSPropertyOp40
 70
     1
102
RTVSPropertyOp41
 70
     1
102
RTVSPropertyOp42
 70
     1
102
RTVSPropertyOp43
 70
     1
102
RTVSPropertyOp44
 70
     1
102
RTVSPropertyOp45
 70
     1
102
RTVSPropertyOp46
 70
     1
102
RTVSPropertyOp47
 70
     1
102
RTVSPropertyOp48
 70
     1
102
RTVSPropertyOp49
 70
     1
102
RTVSPropertyOp50
 70
     1
102
RTVSPropertyOp51
 70
     0
102
RTVSPropertyOp52
 70
     0
102
RTVSPropertyOp53
 70
     1
102
RTVSPropertyOp54
 70
     1
102
RTVSPropertyOp55
 70
     1
102
RTVSPropertyOp56
 70
     1
102
RTVSPropertyOp57
 70
     1
102
RTVSPropertyOp58
 70
     1
102
RTVSPropertyOp59
 70
     1
102
RTVSPropertyOp60
 70
     1
102
RTVSPropertyOp61
 70
     1
102
RTVSPropertyOp62
 70
     1
  0
XRECORD
  5
A2BB
102
{ACAD_REACTORS
330
A2BA
102
}
330
A2BA
100
AcDbXrecord
280
     1
102
RTVSPost2010Prop28
280
     0
102
RTVSPost2010PropOp28
 70
     1
102
RTVSPost2010Prop29
280
     1
102
RTVSPost2010PropOp29
 70
     1
102
RTVSPost2010Prop30
280
     1
102
RTVSPost2010PropOp30
 70
     1
102
RTVSPost2010Prop31
280
     0
102
RTVSPost2010PropOp31
 70
     1
102
RTVSPost2010Prop32
280
     0
102
RTVSPost2010PropOp32
 70
     1
102
RTVSPost2010Prop33
280
     0
102
RTVSPost2010PropOp33
 70
     1
102
RTVSPost2010Prop34
280
     0
102
RTVSPost2010PropOp34
 70
     1
102
RTVSPost2010Prop35
280
     0
102
RTVSPost2010PropOp35
 70
     1
102
RTVSPost2010Prop36
280
     0
102
RTVSPost2010PropOp36
 70
     1
102
RTVSPost2010Prop37
 90
       50
102
RTVSPost2010PropOp37
 70
     1
102
RTVSPost2010Prop38
140
0.0
102
RTVSPost2010PropOp38
 70
     1
102
RTVSPost2010Prop39
140
1.0
102
RTVSPost2010PropOp39
 70
     1
102
RTVSPost2010Prop40
 90
        0
102
RTVSPost2010PropOp40
 70
     1
102
RTVSPost2010Prop41ColorIndex
 90
       18
102
RTVSPost2010Prop41ColorRGB
 90
        0
102
RTVSPost2010PropOp41
 70
     1
102
RTVSPost2010Prop42
 90
       50
102
RTVSPost2010PropOp42
 70
     1
102
RTVSPost2010Prop43
 90
        3
102
RTVSPost2010PropOp43
 70
     1
102
RTVSPost2010Prop44ColorIndex
 90
        5
102
RTVSPost2010Prop44ColorRGB
 90
      255
102
RTVSPost2010PropOp44
 70
     1
102
RTVSPost2010Prop45
280
     0
102
RTVSPost2010PropOp45
 70
     1
102
RTVSPost2010Prop46
 90
       50
102
RTVSPost2010PropOp46
 70
     1
102
RTVSPost2010Prop47
 90
       50
102
RTVSPost2010PropOp47
 70
     1
102
RTVSPost2010Prop48
 90
       50
102
RTVSPost2010PropOp48
 70
     1
102
RTVSPost2010Prop49
280
     0
102
RTVSPost2010PropOp49
 70
     1
102
RTVSPost2010Prop50
 90
       50
102
RTVSPost2010PropOp50
 70
     1
102
RTVSPost2010Prop51ColorIndex
 90
      256
102
RTVSPost2010Prop51ColorRGB
 90
-16777216
102
RTVSPost2010PropOp51
 70
     0
102
RTVSPost2010Prop52
140
1.0
102
RTVSPost2010PropOp52
 70
     0
102
RTVSPost2010Prop53
 90
        2
102
RTVSPost2010PropOp53
 70
     1
102
RTVSPost2010Prop54
  1
strokes_ogs.tif
102
RTVSPost2010PropOp54
 70
     1
102
RTVSPost2010Prop55
280
     0
102
RTVSPost2010PropOp55
 70
     1
102
RTVSPost2010Prop56
140
1.0
102
RTVSPost2010PropOp56
 70
     1
102
RTVSPost2010Prop57
140
1.0
102
RTVSPost2010PropOp57
 70
     1
102
RTVSPropertyOp0
 70
     1
102
RTVSPropertyOp1
 70
     1
102
RTVSPropertyOp2
 70
     1
102
RTVSPropertyOp3
 70
     1
102
RTVSPropertyOp4
 70
     1
102
RTVSPropertyOp5
 70
     1
102
RTVSPropertyOp6
 70
     1
102
RTVSPropertyOp7
 70
     1
102
RTVSPropertyOp8
 70
     1
102
RTVSPropertyOp9
 70
     1
102
RTVSPropertyOp10
 70
     1
102
RTVSPropertyOp11
 70
     1
102
RTVSPropertyOp12
 70
     1
102
RTVSPropertyOp13
 70
     1
102
RTVSPropertyOp14
 70
     1
102
RTVSPropertyOp15
 70
     1
102
RTVSPropertyOp16
 70
     1
102
RTVSPropertyOp17
 70
     1
102
RTVSPropertyOp18
 70
     1
102
RTVSPropertyOp19
 70
     1
102
RTVSPropertyOp20
 70
     1
102
RTVSPropertyOp21
 70
     1
102
RTVSPropertyOp22
 70
     1
102
RTVSPropertyOp23
 70
     1
102
RTVSPropertyOp24
 70
     1
102
RTVSPropertyOp25
 70
     1
102
RTVSPropertyOp26
 70
     1
102
RTVSPropertyOp27
 70
     1
102
RTVSPropertyOp28
 70
     1
102
RTVSPropertyOp29
 70
     1
102
RTVSPropertyOp30
 70
     1
102
RTVSPropertyOp31
 70
     1
102
RTVSPropertyOp32
 70
     1
102
RTVSPropertyOp33
 70
     1
102
RTVSPropertyOp34
 70
     1
102
RTVSPropertyOp35
 70
     1
102
RTVSPropertyOp36
 70
     1
102
RTVSPropertyOp37
 70
     1
102
RTVSPropertyOp38
 70
     1
102
RTVSPropertyOp39
 70
     1
102
RTVSPropertyOp40
 70
     1
102
RTVSPropertyOp41
 70
     1
102
RTVSPropertyOp42
 70
     1
102
RTVSPropertyOp43
 70
     1
102
RTVSPropertyOp44
 70
     1
102
RTVSPropertyOp45
 70
     1
102
RTVSPropertyOp46
 70
     1
102
RTVSPropertyOp47
 70
     1
102
RTVSPropertyOp48
 70
     1
102
RTVSPropertyOp49
 70
     1
102
RTVSPropertyOp50
 70
     1
102
RTVSPropertyOp51
 70
     0
102
RTVSPropertyOp52
 70
     0
102
RTVSPropertyOp53
 70
     1
102
RTVSPropertyOp54
 70
     1
102
RTVSPropertyOp55
 70
     1
102
RTVSPropertyOp56
 70
     1
102
RTVSPropertyOp57
 70
     1
102
RTVSPropertyOp58
 70
     1
102
RTVSPropertyOp59
 70
     1
102
RTVSPropertyOp60
 70
     1
102
RTVSPropertyOp61
 70
     1
102
RTVSPropertyOp62
 70
     1
  0
XRECORD
  5
A2AF
102
{ACAD_REACTORS
330
A2AE
102
}
330
A2AE
100
AcDbXrecord
280
     1
102
RTVSPost2010Prop28
280
     0
102
RTVSPost2010PropOp28
 70
     1
102
RTVSPost2010Prop29
280
     1
102
RTVSPost2010PropOp29
 70
     1
102
RTVSPost2010Prop30
280
     1
102
RTVSPost2010PropOp30
 70
     1
102
RTVSPost2010Prop31
280
     0
102
RTVSPost2010PropOp31
 70
     1
102
RTVSPost2010Prop32
280
     0
102
RTVSPost2010PropOp32
 70
     1
102
RTVSPost2010Prop33
280
     0
102
RTVSPost2010PropOp33
 70
     1
102
RTVSPost2010Prop34
280
     0
102
RTVSPost2010PropOp34
 70
     1
102
RTVSPost2010Prop35
280
     0
102
RTVSPost2010PropOp35
 70
     1
102
RTVSPost2010Prop36
280
     0
102
RTVSPost2010PropOp36
 70
     1
102
RTVSPost2010Prop37
 90
       50
102
RTVSPost2010PropOp37
 70
     1
102
RTVSPost2010Prop38
140
0.0
102
RTVSPost2010PropOp38
 70
     1
102
RTVSPost2010Prop39
140
1.0
102
RTVSPost2010PropOp39
 70
     1
102
RTVSPost2010Prop40
 90
        0
102
RTVSPost2010PropOp40
 70
     1
102
RTVSPost2010Prop41ColorIndex
 90
       18
102
RTVSPost2010Prop41ColorRGB
 90
        0
102
RTVSPost2010PropOp41
 70
     1
102
RTVSPost2010Prop42
 90
       50
102
RTVSPost2010PropOp42
 70
     1
102
RTVSPost2010Prop43
 90
        3
102
RTVSPost2010PropOp43
 70
     1
102
RTVSPost2010Prop44ColorIndex
 90
        5
102
RTVSPost2010Prop44ColorRGB
 90
      255
102
RTVSPost2010PropOp44
 70
     1
102
RTVSPost2010Prop45
280
     0
102
RTVSPost2010PropOp45
 70
     1
102
RTVSPost2010Prop46
 90
       50
102
RTVSPost2010PropOp46
 70
     1
102
RTVSPost2010Prop47
 90
       50
102
RTVSPost2010PropOp47
 70
     1
102
RTVSPost2010Prop48
 90
       50
102
RTVSPost2010PropOp48
 70
     1
102
RTVSPost2010Prop49
280
     0
102
RTVSPost2010PropOp49
 70
     1
102
RTVSPost2010Prop50
 90
       50
102
RTVSPost2010PropOp50
 70
     1
102
RTVSPost2010Prop51ColorIndex
 90
      256
102
RTVSPost2010Prop51ColorRGB
 90
-16777216
102
RTVSPost2010PropOp51
 70
     0
102
RTVSPost2010Prop52
140
1.0
102
RTVSPost2010PropOp52
 70
     0
102
RTVSPost2010Prop53
 90
        2
102
RTVSPost2010PropOp53
 70
     1
102
RTVSPost2010Prop54
  1
strokes_ogs.tif
102
RTVSPost2010PropOp54
 70
     1
102
RTVSPost2010Prop55
280
     0
102
RTVSPost2010PropOp55
 70
     1
102
RTVSPost2010Prop56
140
1.0
102
RTVSPost2010PropOp56
 70
     1
102
RTVSPost2010Prop57
140
1.0
102
RTVSPost2010PropOp57
 70
     1
102
RTVSPropertyOp0
 70
     1
102
RTVSPropertyOp1
 70
     1
102
RTVSPropertyOp2
 70
     1
102
RTVSPropertyOp3
 70
     1
102
RTVSPropertyOp4
 70
     1
102
RTVSPropertyOp5
 70
     1
102
RTVSPropertyOp6
 70
     1
102
RTVSPropertyOp7
 70
     1
102
RTVSPropertyOp8
 70
     1
102
RTVSPropertyOp9
 70
     1
102
RTVSPropertyOp10
 70
     1
102
RTVSPropertyOp11
 70
     1
102
RTVSPropertyOp12
 70
     1
102
RTVSPropertyOp13
 70
     1
102
RTVSPropertyOp14
 70
     1
102
RTVSPropertyOp15
 70
     1
102
RTVSPropertyOp16
 70
     1
102
RTVSPropertyOp17
 70
     1
102
RTVSPropertyOp18
 70
     1
102
RTVSPropertyOp19
 70
     1
102
RTVSPropertyOp20
 70
     1
102
RTVSPropertyOp21
 70
     1
102
RTVSPropertyOp22
 70
     1
102
RTVSPropertyOp23
 70
     1
102
RTVSPropertyOp24
 70
     1
102
RTVSPropertyOp25
 70
     1
102
RTVSPropertyOp26
 70
     1
102
RTVSPropertyOp27
 70
     1
102
RTVSPropertyOp28
 70
     1
102
RTVSPropertyOp29
 70
     1
102
RTVSPropertyOp30
 70
     1
102
RTVSPropertyOp31
 70
     1
102
RTVSPropertyOp32
 70
     1
102
RTVSPropertyOp33
 70
     1
102
RTVSPropertyOp34
 70
     1
102
RTVSPropertyOp35
 70
     1
102
RTVSPropertyOp36
 70
     1
102
RTVSPropertyOp37
 70
     1
102
RTVSPropertyOp38
 70
     1
102
RTVSPropertyOp39
 70
     1
102
RTVSPropertyOp40
 70
     1
102
RTVSPropertyOp41
 70
     1
102
RTVSPropertyOp42
 70
     1
102
RTVSPropertyOp43
 70
     1
102
RTVSPropertyOp44
 70
     1
102
RTVSPropertyOp45
 70
     1
102
RTVSPropertyOp46
 70
     1
102
RTVSPropertyOp47
 70
     1
102
RTVSPropertyOp48
 70
     1
102
RTVSPropertyOp49
 70
     1
102
RTVSPropertyOp50
 70
     1
102
RTVSPropertyOp51
 70
     0
102
RTVSPropertyOp52
 70
     0
102
RTVSPropertyOp53
 70
     1
102
RTVSPropertyOp54
 70
     1
102
RTVSPropertyOp55
 70
     1
102
RTVSPropertyOp56
 70
     1
102
RTVSPropertyOp57
 70
     1
102
RTVSPropertyOp58
 70
     1
102
RTVSPropertyOp59
 70
     1
102
RTVSPropertyOp60
 70
     1
102
RTVSPropertyOp61
 70
     1
102
RTVSPropertyOp62
 70
     1
  0
XRECORD
  5
A2C7
102
{ACAD_REACTORS
330
A2C6
102
}
330
A2C6
100
AcDbXrecord
280
     1
102
RTVSPost2010Prop28
280
     0
102
RTVSPost2010PropOp28
 70
     1
102
RTVSPost2010Prop29
280
     1
102
RTVSPost2010PropOp29
 70
     1
102
RTVSPost2010Prop30
280
     1
102
RTVSPost2010PropOp30
 70
     1
102
RTVSPost2010Prop31
280
     0
102
RTVSPost2010PropOp31
 70
     1
102
RTVSPost2010Prop32
280
     0
102
RTVSPost2010PropOp32
 70
     1
102
RTVSPost2010Prop33
280
     0
102
RTVSPost2010PropOp33
 70
     1
102
RTVSPost2010Prop34
280
     0
102
RTVSPost2010PropOp34
 70
     1
102
RTVSPost2010Prop35
280
     0
102
RTVSPost2010PropOp35
 70
     1
102
RTVSPost2010Prop36
280
     0
102
RTVSPost2010PropOp36
 70
     1
102
RTVSPost2010Prop37
 90
       50
102
RTVSPost2010PropOp37
 70
     1
102
RTVSPost2010Prop38
140
0.0
102
RTVSPost2010PropOp38
 70
     1
102
RTVSPost2010Prop39
140
1.0
102
RTVSPost2010PropOp39
 70
     1
102
RTVSPost2010Prop40
 90
        0
102
RTVSPost2010PropOp40
 70
     1
102
RTVSPost2010Prop41ColorIndex
 90
       18
102
RTVSPost2010Prop41ColorRGB
 90
        0
102
RTVSPost2010PropOp41
 70
     1
102
RTVSPost2010Prop42
 90
       50
102
RTVSPost2010PropOp42
 70
     1
102
RTVSPost2010Prop43
 90
        3
102
RTVSPost2010PropOp43
 70
     1
102
RTVSPost2010Prop44ColorIndex
 90
        5
102
RTVSPost2010Prop44ColorRGB
 90
      255
102
RTVSPost2010PropOp44
 70
     1
102
RTVSPost2010Prop45
280
     0
102
RTVSPost2010PropOp45
 70
     1
102
RTVSPost2010Prop46
 90
       50
102
RTVSPost2010PropOp46
 70
     1
102
RTVSPost2010Prop47
 90
       50
102
RTVSPost2010PropOp47
 70
     1
102
RTVSPost2010Prop48
 90
       50
102
RTVSPost2010PropOp48
 70
     1
102
RTVSPost2010Prop49
280
     0
102
RTVSPost2010PropOp49
 70
     1
102
RTVSPost2010Prop50
 90
       50
102
RTVSPost2010PropOp50
 70
     1
102
RTVSPost2010Prop51ColorIndex
 90
      256
102
RTVSPost2010Prop51ColorRGB
 90
-16777216
102
RTVSPost2010PropOp51
 70
     0
102
RTVSPost2010Prop52
140
1.0
102
RTVSPost2010PropOp52
 70
     0
102
RTVSPost2010Prop53
 90
        2
102
RTVSPost2010PropOp53
 70
     1
102
RTVSPost2010Prop54
  1
strokes_ogs.tif
102
RTVSPost2010PropOp54
 70
     1
102
RTVSPost2010Prop55
280
     0
102
RTVSPost2010PropOp55
 70
     1
102
RTVSPost2010Prop56
140
1.0
102
RTVSPost2010PropOp56
 70
     1
102
RTVSPost2010Prop57
140
1.0
102
RTVSPost2010PropOp57
 70
     1
102
RTVSPropertyOp0
 70
     1
102
RTVSPropertyOp1
 70
     1
102
RTVSPropertyOp2
 70
     1
102
RTVSPropertyOp3
 70
     1
102
RTVSPropertyOp4
 70
     1
102
RTVSPropertyOp5
 70
     1
102
RTVSPropertyOp6
 70
     1
102
RTVSPropertyOp7
 70
     1
102
RTVSPropertyOp8
 70
     1
102
RTVSPropertyOp9
 70
     1
102
RTVSPropertyOp10
 70
     1
102
RTVSPropertyOp11
 70
     1
102
RTVSPropertyOp12
 70
     1
102
RTVSPropertyOp13
 70
     1
102
RTVSPropertyOp14
 70
     1
102
RTVSPropertyOp15
 70
     1
102
RTVSPropertyOp16
 70
     1
102
RTVSPropertyOp17
 70
     1
102
RTVSPropertyOp18
 70
     1
102
RTVSPropertyOp19
 70
     1
102
RTVSPropertyOp20
 70
     1
102
RTVSPropertyOp21
 70
     1
102
RTVSPropertyOp22
 70
     1
102
RTVSPropertyOp23
 70
     1
102
RTVSPropertyOp24
 70
     1
102
RTVSPropertyOp25
 70
     1
102
RTVSPropertyOp26
 70
     1
102
RTVSPropertyOp27
 70
     1
102
RTVSPropertyOp28
 70
     1
102
RTVSPropertyOp29
 70
     1
102
RTVSPropertyOp30
 70
     1
102
RTVSPropertyOp31
 70
     1
102
RTVSPropertyOp32
 70
     1
102
RTVSPropertyOp33
 70
     1
102
RTVSPropertyOp34
 70
     1
102
RTVSPropertyOp35
 70
     1
102
RTVSPropertyOp36
 70
     1
102
RTVSPropertyOp37
 70
     1
102
RTVSPropertyOp38
 70
     1
102
RTVSPropertyOp39
 70
     1
102
RTVSPropertyOp40
 70
     1
102
RTVSPropertyOp41
 70
     1
102
RTVSPropertyOp42
 70
     1
102
RTVSPropertyOp43
 70
     1
102
RTVSPropertyOp44
 70
     1
102
RTVSPropertyOp45
 70
     1
102
RTVSPropertyOp46
 70
     1
102
RTVSPropertyOp47
 70
     1
102
RTVSPropertyOp48
 70
     1
102
RTVSPropertyOp49
 70
     1
102
RTVSPropertyOp50
 70
     1
102
RTVSPropertyOp51
 70
     0
102
RTVSPropertyOp52
 70
     0
102
RTVSPropertyOp53
 70
     1
102
RTVSPropertyOp54
 70
     1
102
RTVSPropertyOp55
 70
     1
102
RTVSPropertyOp56
 70
     1
102
RTVSPropertyOp57
 70
     1
102
RTVSPropertyOp58
 70
     1
102
RTVSPropertyOp59
 70
     1
102
RTVSPropertyOp60
 70
     1
102
RTVSPropertyOp61
 70
     1
102
RTVSPropertyOp62
 70
     1
  0
ENDSEC
  0
EOF
