  0
SECTION
  2
HEADER
  9
$ACADVER
  1
AC1024
  9
$DWGCODEPAGE
  3
ANSI_932
  9
$LTSCALE
 40
20.0
  9
$FILLMODE
 70
     1
  9
$CLAYER
  8
0
  9
$PDMODE
 70
     0
  9
$SPLFRAME
 70
     0
  9
$SPLINETYPE
 70
     6
  9
$SPLINESEGS
 70
     8
  9
$DIMASZ
 40
2.000000
  9
$DIMEXE
 40
1.500000
  9
$DIMEXO
 40
0.800000
  9
$DIMTAD
 70
     1
  9
$DIMTIH
 70
     0
  9
$DIMTOH
 70
     0
  9
$DIMTVP
 40
0.500000
  9
$DIMTXT
 40
3.100000
  9
$EXTMIN
 10
0.000000
 20
0.000000
 30
0.000000
  9
$EXTMAX
 10
297.000000
 20
420.000000
 30
0.000000
  9
$MEASUREMENT
 70
  1
  9
$LIMMIN
 10
0.000000
 20
0.000000
  9
$LIMMAX
 10
297.000000
 20
420.000000
  9
$HANDSEED
  5
E5
  9
$LWDISPLAY
290
     0
  9
$DIMBLK
  1
_OPEN
  9
$DIMDEC
 70
     2
  9
$DIMADEC
 70
     2
  9
$DIMAUNIT
 70
     0
  9
$DIMZIN
 70
     8
  9
$DIMAZIN
 70
     2
  9
$DIMTOFL
 70
     1
  0
ENDSEC
  0
SECTION
  2
CLASSES
  0
ENDSEC
  0
SECTION
  2
TABLES
  0
TABLE
  2
VPORT
  5
B1
100
AcDbSymbolTable
 70
     1
  0
VPORT
  5
B2
100
AcDbSymbolTableRecord
100
AcDbViewportTableRecord
  2
*ACTIVE
 70
     0
 12
82.899999
 22
90.200150
 40
144.400299
 41
1.009693
  0
ENDTAB
  0
TABLE
  2
LTYPE
  5
B3
100
AcDbSymbolTable
 70
     2
  0
LTYPE
  5
B4
100
AcDbSymbolTableRecord
100
AcDbLinetypeTableRecord
  2
BYBLOCK
 70
     0
  3

 72
    65
 73
     0
 40
0.0
  0
LTYPE
  5
B5
100
AcDbSymbolTableRecord
100
AcDbLinetypeTableRecord
  2
BYLAYER
 70
     0
  3

 72
    65
 73
     0
 40
0.0
  0
LTYPE
  5
B6
100
AcDbSymbolTableRecord
100
AcDbLinetypeTableRecord
  2
CONTINUOUS
 70
     0
  3
Solid line (NEC CAE2D for Win R17.0 : 2022.10.06)
 72
    65
 73
     0
 40
0.0
  0
LTYPE
  5
B7
100
AcDbSymbolTableRecord
100
AcDbLinetypeTableRecord
  2
CENTER
 70
     0
  3
____ _ ____ _ ____ _ ____ _ ____ _ ____
 72
    65
 73
     4
 40
2.0
 49
1.25
 74
     0
 49
-0.25
 74
     0
 49
0.25
 74
     0
 49
-0.25
 74
     0
  0
ENDTAB
  0
TABLE
  2
LAYER
  5
B8
100
AcDbSymbolTable
 70
    14
  0
LAYER
  5
B9
100
AcDbSymbolTableRecord
100
AcDbLayerTableRecord
  2
0
 70
     0
 62
     7
  6
CONTINUOUS
370
    -3
390

  0
LAYER
  5
BA
100
AcDbSymbolTableRecord
100
AcDbLayerTableRecord
  2
A0
 70
     0
 62
     9
  6
CONTINUOUS
370
    -3
390

  0
LAYER
  5
BB
100
AcDbSymbolTableRecord
100
AcDbLayerTableRecord
  2
A2
 70
     0
 62
     9
  6
CONTINUOUS
370
    -3
390

  0
LAYER
  5
BC
100
AcDbSymbolTableRecord
100
AcDbLayerTableRecord
  2
A4
 70
     0
 62
     9
  6
CONTINUOUS
370
    -3
390

  0
LAYER
  5
BD
100
AcDbSymbolTableRecord
100
AcDbLayerTableRecord
  2
A5
 70
     0
 62
     8
  6
CONTINUOUS
370
    -3
390

  0
LAYER
  5
BE
100
AcDbSymbolTableRecord
100
AcDbLayerTableRecord
  2
A6
 70
     0
 62
    12
  6
CONTINUOUS
370
    -3
390

  0
LAYER
  5
BF
100
AcDbSymbolTableRecord
100
AcDbLayerTableRecord
  2
A8
 70
     0
 62
    10
  6
CONTINUOUS
370
    -3
390

  0
LAYER
  5
C0
100
AcDbSymbolTableRecord
100
AcDbLayerTableRecord
  2
A9
 70
     0
 62
     9
  6
CONTINUOUS
370
    -3
390

  0
LAYER
  5
C1
100
AcDbSymbolTableRecord
100
AcDbLayerTableRecord
  2
A10
 70
     0
 62
     6
  6
CONTINUOUS
370
    -3
390

  0
LAYER
  5
C2
100
AcDbSymbolTableRecord
100
AcDbLayerTableRecord
  2
A20
 70
     0
 62
     1
  6
CONTINUOUS
370
    -3
390

  0
LAYER
  5
C3
100
AcDbSymbolTableRecord
100
AcDbLayerTableRecord
  2
A30
 70
     0
 62
     1
  6
CONTINUOUS
370
    -3
390

  0
LAYER
  5
C4
100
AcDbSymbolTableRecord
100
AcDbLayerTableRecord
  2
A40
 70
     0
 62
     9
  6
CONTINUOUS
370
    -3
390

  0
LAYER
  5
C5
100
AcDbSymbolTableRecord
100
AcDbLayerTableRecord
  2
A50
 70
     0
 62
    12
  6
CONTINUOUS
370
    -3
390

  0
LAYER
  5
C6
100
AcDbSymbolTableRecord
100
AcDbLayerTableRecord
  2
A1023
 70
     0
 62
    16
  6
CONTINUOUS
370
    -3
390

  0
ENDTAB
  0
TABLE
  2
STYLE
  5
C7
100
AcDbSymbolTable
 70
     4
  0
STYLE
  5
C8
100
AcDbSymbolTableRecord
100
AcDbTextStyleTableRecord
  2
STANDARD
 70
    64
 40
0.0
 41
1.0
 50
0.0
 71
     0
 42
3.000000000000000
  3
TXT
  4

  0
STYLE
  5
C9
100
AcDbSymbolTableRecord
100
AcDbTextStyleTableRecord
  2
ANKTATE
 70
    68
 40
0.0
 41
1.0
 50
0.0
 71
     0
 42
3.000000000000000
  3
TXT
  4

  0
STYLE
  5
CA
100
AcDbSymbolTableRecord
100
AcDbTextStyleTableRecord
  2
KNJYOKO
 70
    64
 40
0.0
 41
1.0
 50
0.0
 71
     0
 42
3.000000000000000
  3
TXT
  4
BIGFONT
  0
STYLE
  5
CB
100
AcDbSymbolTableRecord
100
AcDbTextStyleTableRecord
  2
KNJTATE
 70
    68
 40
0.0
 41
1.0
 50
0.0
 71
     0
 42
3.000000000000000
  3
TXT
  4
BIGFONT
  0
ENDTAB
  0
TABLE
  2
VIEW
  5
CC
100
AcDbSymbolTable
 70
     0
  0
ENDTAB
  0
TABLE
  2
UCS
  5
CD
100
AcDbSymbolTable
 70
     0
  0
ENDTAB
  0
TABLE
  2
APPID
  5
CE
100
AcDbSymbolTable
 70
     1
  0
APPID
  5
CF
100
AcDbSymbolTableRecord
100
AcDbRegAppTableRecord
  2
ACAD
 70
     0
  0
ENDTAB
  0
TABLE
  2
DIMSTYLE
  5
D0
100
AcDbSymbolTable
 70
     2
100
AcDbDimStyleTable
  0
DIMSTYLE
105
D1
100
AcDbSymbolTableRecord
100
AcDbDimStyleTableRecord
  2
STANDARD
 70
     0
 41
2.000000
 44
1.500000
 42
0.800000
145
0.661290
140
3.100000
144
1.000000
146
0.645161
340
C8
  0
DIMSTYLE
105
D2
100
AcDbSymbolTableRecord
100
AcDbDimStyleTableRecord
  2
A001
 70
     0
 41
2.000000
 44
1.500000
 42
0.800000
145
0.661290
140
3.100000
144
1.000000
146
0.645161
 77
     1
 73
     0
 74
     0
271
     2
179
     2
275
     0
 78
     8
 79
     2
172
     1
340
C8
  0
ENDTAB
  0
TABLE
  2
BLOCK_RECORD
  5
D3
100
AcDbSymbolTable
 70
    12
  0
BLOCK_RECORD
  5
D4
100
AcDbSymbolTableRecord
100
AcDbBlockTableRecord
  2
*MODEL_SPACE
  0
BLOCK_RECORD
  5
D5
100
AcDbSymbolTableRecord
100
AcDbBlockTableRecord
  2
*PAPER_SPACE
  0
BLOCK_RECORD
  5
D6
100
AcDbSymbolTableRecord
100
AcDbBlockTableRecord
  2
*PAPER_SPACE0
  0
BLOCK_RECORD
  5
1
100
AcDbSymbolTableRecord
100
AcDbBlockTableRecord
  2
_NONE
  0
BLOCK_RECORD
  5
4
100
AcDbSymbolTableRecord
100
AcDbBlockTableRecord
  2
_CLOSED
  0
BLOCK_RECORD
  5
B
100
AcDbSymbolTableRecord
100
AcDbBlockTableRecord
  2
_DOT
  0
BLOCK_RECORD
  5
13
100
AcDbSymbolTableRecord
100
AcDbBlockTableRecord
  2
_OPEN
  0
BLOCK_RECORD
  5
19
100
AcDbSymbolTableRecord
100
AcDbBlockTableRecord
  2
_ORIGIN
  0
BLOCK_RECORD
  5
1E
100
AcDbSymbolTableRecord
100
AcDbBlockTableRecord
  2
_OPEN30
  0
BLOCK_RECORD
  5
24
100
AcDbSymbolTableRecord
100
AcDbBlockTableRecord
  2
_BOXFILLED
  0
BLOCK_RECORD
  5
29
100
AcDbSymbolTableRecord
100
AcDbBlockTableRecord
  2
_BOXBLANK
  0
BLOCK_RECORD
  5
31
100
AcDbSymbolTableRecord
100
AcDbBlockTableRecord
  2
_OBLIQUE
  0
BLOCK_RECORD
  5
35
100
AcDbSymbolTableRecord
100
AcDbBlockTableRecord
  2
_OPEN90
  0
BLOCK_RECORD
  5
3B
100
AcDbSymbolTableRecord
100
AcDbBlockTableRecord
  2
_CLOSEDBLANK
  0
BLOCK_RECORD
  5
41
100
AcDbSymbolTableRecord
100
AcDbBlockTableRecord
  2
_DOTBLANK
  0
ENDTAB
  0
ENDSEC
  0
SECTION
  2
BLOCKS
  0
BLOCK
  5
D7
100
AcDbEntity
  8
0
100
AcDbBlockBegin
  2
*MODEL_SPACE
 70
     0
 10
0.0
 20
0.0
 30
0.0
  3
*MODEL_SPACE
  1

  0
ENDBLK
  5
D8
100
AcDbEntity
  8
0
100
AcDbBlockEnd
  0
BLOCK
  5
D9
100
AcDbEntity
  8
0
100
AcDbBlockBegin
  2
*PAPER_SPACE
 70
     0
 10
0.0
 20
0.0
 30
0.0
  3
*PAPER_SPACE
  1

  0
ENDBLK
  5
DA
100
AcDbEntity
  8
0
100
AcDbBlockEnd
  0
BLOCK
  5
DB
100
AcDbEntity
  8
0
100
AcDbBlockBegin
  2
*PAPER_SPACE0
 70
     0
 10
0.0
 20
0.0
 30
0.0
  3
*PAPER_SPACE0
  1

  0
ENDBLK
  5
DC
100
AcDbEntity
  8
0
100
AcDbBlockEnd
  0
BLOCK
  5
2
330
1
100
AcDbEntity
  8
0
100
AcDbBlockBegin
  2
_NONE
 70
     0
 10
0.0
 20
0.0
 30
0.0
  3
_NONE
  1

  0
ENDBLK
  5
3
330
1
100
AcDbEntity
  8
0
100
AcDbBlockEnd
  0
BLOCK
  5
5
330
4
100
AcDbEntity
  8
0
100
AcDbBlockBegin
  2
_CLOSED
 70
     0
 10
0.0
 20
0.0
 30
0.0
  3
_CLOSED
  1

  0
LINE
  5
6
330
4
100
AcDbEntity
  8
0
  6
BYBLOCK
 62
     0
370
    -2
100
AcDbLine
 10
-1.0
 20
0.166667
 30
0.0
 11
0.0
 21
0.0
 31
0.0
  0
LINE
  5
7
330
4
100
AcDbEntity
  8
0
  6
BYBLOCK
 62
     0
370
    -2
100
AcDbLine
 10
0.0
 20
0.0
 30
0.0
 11
-1.0
 21
-0.166667
 31
0.0
  0
LINE
  5
8
330
4
100
AcDbEntity
  8
0
  6
BYBLOCK
 62
     0
370
    -2
100
AcDbLine
 10
-1.0
 20
0.166667
 30
0.0
 11
-1.0
 21
-0.166667
 31
0.0
  0
LINE
  5
9
330
4
100
AcDbEntity
  8
0
  6
BYBLOCK
 62
     0
370
    -2
100
AcDbLine
 10
0.0
 20
0.0
 30
0.0
 11
-1.0
 21
0.0
 31
0.0
  0
ENDBLK
  5
A
330
4
100
AcDbEntity
  8
0
100
AcDbBlockEnd
  0
BLOCK
  5
C
330
B
100
AcDbEntity
  8
0
100
AcDbBlockBegin
  2
_DOT
 70
     0
 10
0.0
 20
0.0
 30
0.0
  3
_DOT
  1

  0
POLYLINE
  5
D
330
B
100
AcDbEntity
  8
0
  6
BYBLOCK
 62
     0
370
    -2
100
AcDb2dPolyline
 66
     1
 10
0.0
 20
0.0
 30
0.0
 70
     1
 40
0.5
 41
0.5
  0
VERTEX
  5
E
330
B
100
AcDbEntity
  8
0
  6
BYBLOCK
 62
     0
370
    -2
100
AcDbVertex
100
AcDb2dVertex
 10
-0.25
 20
0.0
 30
0.0
 42
1.0
  0
VERTEX
  5
F
330
B
100
AcDbEntity
  8
0
  6
BYBLOCK
 62
     0
370
    -2
100
AcDbVertex
100
AcDb2dVertex
 10
0.25
 20
0.0
 30
0.0
 42
1.0
  0
SEQEND
  5
10
330
B
100
AcDbEntity
  8
0
  6
BYBLOCK
 62
     0
370
    -2
  0
LINE
  5
11
330
B
100
AcDbEntity
  8
0
  6
BYBLOCK
 62
     0
370
    -2
100
AcDbLine
 10
-0.5
 20
0.0
 30
0.0
 11
-1.0
 21
0.0
 31
0.0
  0
ENDBLK
  5
12
330
B
100
AcDbEntity
  8
0
100
AcDbBlockEnd
  0
BLOCK
  5
14
330
13
100
AcDbEntity
  8
0
100
AcDbBlockBegin
  2
_OPEN
 70
     0
 10
0.0
 20
0.0
 30
0.0
  3
_OPEN
  1

  0
LINE
  5
15
330
13
100
AcDbEntity
  8
0
  6
BYBLOCK
 62
     0
370
    -2
100
AcDbLine
 10
-1.0
 20
0.166667
 30
0.0
 11
0.0
 21
0.0
 31
0.0
  0
LINE
  5
16
330
13
100
AcDbEntity
  8
0
  6
BYBLOCK
 62
     0
370
    -2
100
AcDbLine
 10
0.0
 20
0.0
 30
0.0
 11
-1.0
 21
-0.166667
 31
0.0
  0
LINE
  5
17
330
13
100
AcDbEntity
  8
0
  6
BYBLOCK
 62
     0
370
    -2
100
AcDbLine
 10
0.0
 20
0.0
 30
0.0
 11
-1.0
 21
0.0
 31
0.0
  0
ENDBLK
  5
18
330
13
100
AcDbEntity
  8
0
100
AcDbBlockEnd
  0
BLOCK
  5
1A
330
19
100
AcDbEntity
  8
0
100
AcDbBlockBegin
  2
_ORIGIN
 70
     0
 10
0.0
 20
0.0
 30
0.0
  3
_ORIGIN
  1

  0
CIRCLE
  5
1B
330
19
100
AcDbEntity
  8
0
  6
BYBLOCK
 62
     0
370
    -2
100
AcDbCircle
 10
0.0
 20
0.0
 30
0.0
 40
0.5
  0
LINE
  5
1C
330
19
100
AcDbEntity
  8
0
  6
BYBLOCK
 62
     0
370
    -2
100
AcDbLine
 10
0.0
 20
0.0
 30
0.0
 11
-1.0
 21
0.0
 31
0.0
  0
ENDBLK
  5
1D
330
19
100
AcDbEntity
  8
0
100
AcDbBlockEnd
  0
BLOCK
  5
1F
330
1E
100
AcDbEntity
  8
0
100
AcDbBlockBegin
  2
_OPEN30
 70
     0
 10
0.0
 20
0.0
 30
0.0
  3
_OPEN30
  1

  0
LINE
  5
20
330
1E
100
AcDbEntity
  8
0
  6
BYBLOCK
 62
     0
370
    -2
100
AcDbLine
 10
-1.0
 20
0.267949
 30
0.0
 11
0.0
 21
0.0
 31
0.0
  0
LINE
  5
21
330
1E
100
AcDbEntity
  8
0
  6
BYBLOCK
 62
     0
370
    -2
100
AcDbLine
 10
0.0
 20
0.0
 30
0.0
 11
-1.0
 21
-0.267949
 31
0.0
  0
LINE
  5
22
330
1E
100
AcDbEntity
  8
0
  6
BYBLOCK
 62
     0
370
    -2
100
AcDbLine
 10
0.0
 20
0.0
 30
0.0
 11
-1.0
 21
0.0
 31
0.0
  0
ENDBLK
  5
23
330
1E
100
AcDbEntity
  8
0
100
AcDbBlockEnd
  0
BLOCK
  5
25
330
24
100
AcDbEntity
  8
0
100
AcDbBlockBegin
  2
_BOXFILLED
 70
     0
 10
0.0
 20
0.0
 30
0.0
  3
_BOXFILLED
  1

  0
SOLID
  5
26
330
24
100
AcDbEntity
  8
0
  6
BYBLOCK
 62
     0
370
    -2
100
AcDbTrace
 10
-0.5
 20
0.5
 30
0.0
 11
0.5
 21
0.5
 31
0.0
 12
-0.5
 22
-0.5
 32
0.0
 13
0.5
 23
-0.5
 33
0.0
  0
LINE
  5
27
330
24
100
AcDbEntity
  8
0
  6
BYBLOCK
 62
     0
370
    -2
100
AcDbLine
 10
-0.5
 20
0.0
 30
0.0
 11
-1.0
 21
0.0
 31
0.0
  0
ENDBLK
  5
28
330
24
100
AcDbEntity
  8
0
100
AcDbBlockEnd
  0
BLOCK
  5
2A
330
29
100
AcDbEntity
  8
0
100
AcDbBlockBegin
  2
_BOXBLANK
 70
     0
 10
0.0
 20
0.0
 30
0.0
  3
_BOXBLANK
  1

  0
LINE
  5
2B
330
29
100
AcDbEntity
  8
0
  6
BYBLOCK
 62
     0
370
    -2
100
AcDbLine
 10
-0.5
 20
-0.5
 30
0.0
 11
0.5
 21
-0.5
 31
0.0
  0
LINE
  5
2C
330
29
100
AcDbEntity
  8
0
  6
BYBLOCK
 62
     0
370
    -2
100
AcDbLine
 10
0.5
 20
-0.5
 30
0.0
 11
0.5
 21
0.5
 31
0.0
  0
LINE
  5
2D
330
29
100
AcDbEntity
  8
0
  6
BYBLOCK
 62
     0
370
    -2
100
AcDbLine
 10
0.5
 20
0.5
 30
0.0
 11
-0.5
 21
0.5
 31
0.0
  0
LINE
  5
2E
330
29
100
AcDbEntity
  8
0
  6
BYBLOCK
 62
     0
370
    -2
100
AcDbLine
 10
-0.5
 20
0.5
 30
0.0
 11
-0.5
 21
-0.5
 31
0.0
  0
LINE
  5
2F
330
29
100
AcDbEntity
  8
0
  6
BYBLOCK
 62
     0
370
    -2
100
AcDbLine
 10
-0.5
 20
0.0
 30
0.0
 11
-1.0
 21
0.0
 31
0.0
  0
ENDBLK
  5
30
330
29
100
AcDbEntity
  8
0
100
AcDbBlockEnd
  0
BLOCK
  5
32
330
31
100
AcDbEntity
  8
0
100
AcDbBlockBegin
  2
_OBLIQUE
 70
     0
 10
0.0
 20
0.0
 30
0.0
  3
_OBLIQUE
  1

  0
LINE
  5
33
330
31
100
AcDbEntity
  8
0
  6
BYBLOCK
 62
     0
370
    -2
100
AcDbLine
 10
-0.5
 20
-0.5
 30
0.0
 11
0.5
 21
0.5
 31
0.0
  0
ENDBLK
  5
34
330
31
100
AcDbEntity
  8
0
100
AcDbBlockEnd
  0
BLOCK
  5
36
330
35
100
AcDbEntity
  8
0
100
AcDbBlockBegin
  2
_OPEN90
 70
     0
 10
0.0
 20
0.0
 30
0.0
  3
_OPEN90
  1

  0
LINE
  5
37
330
35
100
AcDbEntity
  8
0
  6
BYBLOCK
 62
     0
370
    -2
100
AcDbLine
 10
-0.5
 20
0.5
 30
0.0
 11
0.0
 21
0.0
 31
0.0
  0
LINE
  5
38
330
35
100
AcDbEntity
  8
0
  6
BYBLOCK
 62
     0
370
    -2
100
AcDbLine
 10
0.0
 20
0.0
 30
0.0
 11
-0.5
 21
-0.5
 31
0.0
  0
LINE
  5
39
330
35
100
AcDbEntity
  8
0
  6
BYBLOCK
 62
     0
370
    -2
100
AcDbLine
 10
0.0
 20
0.0
 30
0.0
 11
-1.0
 21
0.0
 31
0.0
  0
ENDBLK
  5
3A
330
35
100
AcDbEntity
  8
0
100
AcDbBlockEnd
  0
BLOCK
  5
3C
330
3B
100
AcDbEntity
  8
0
100
AcDbBlockBegin
  2
_CLOSEDBLANK
 70
     0
 10
0.0
 20
0.0
 30
0.0
  3
_CLOSEDBLANK
  1

  0
LINE
  5
3D
330
3B
100
AcDbEntity
  8
0
  6
BYBLOCK
 62
     0
370
    -2
100
AcDbLine
 10
-1.0
 20
0.1666666666666666
 30
0.0
 11
0.0
 21
0.0
 31
0.0
  0
LINE
  5
3E
330
3B
100
AcDbEntity
  8
0
  6
BYBLOCK
 62
     0
370
    -2
100
AcDbLine
 10
0.0
 20
0.0
 30
0.0
 11
-1.0
 21
-0.1666666666666666
 31
0.0
  0
LINE
  5
3F
330
3B
100
AcDbEntity
  8
0
  6
BYBLOCK
 62
     0
370
    -2
100
AcDbLine
 10
-1.0
 20
0.1666666666666666
 30
0.0
 11
-1.0
 21
-0.1666666666666666
 31
0.0
  0
ENDBLK
  5
40
330
3B
100
AcDbEntity
  8
0
100
AcDbBlockEnd
  0
BLOCK
  5
42
330
41
100
AcDbEntity
  8
0
100
AcDbBlockBegin
  2
_DOTBLANK
 70
     0
 10
0.0
 20
0.0
 30
0.0
  3
_DOTBLANK
  1

  0
CIRCLE
  5
43
330
41
100
AcDbEntity
  8
0
  6
BYBLOCK
 62
     0
370
    -2
100
AcDbCircle
 10
0.0
 20
0.0
 30
0.0
 40
0.5
  0
LINE
  5
44
330
41
100
AcDbEntity
  8
0
  6
BYBLOCK
 62
     0
370
    -2
100
AcDbLine
 10
-0.5
 20
0.0
 30
0.0
 11
-1.0
 21
0.0
 31
0.0
  0
ENDBLK
  5
45
330
41
100
AcDbEntity
  8
0
100
AcDbBlockEnd
  0
ENDSEC
  0
SECTION
  2
ENTITIES
  0
MTEXT
  5
46
100
AcDbEntity
  8
A8
  6
CONTINUOUS
 62
3
100
AcDbMText
 10
9.999997526638502
 20
18.00000076076889
 30
0.000000000000000
 40
3.000000000000000
 41
0.000000000000000
 44
0.6739999771118164
 71
     7
 72
     1
  1
{\H0.94x;{TYPE No.TL-H322-2-1-002}}
 11
1.000000000000000
 21
0.000000000000000
 31
0.000000000000000
  7
STANDARD
  0
POINT
  5
47
100
AcDbEntity
  8
A0
  6
CONTINUOUS
 62
3
100
AcDbPoint
 10
9.999997526638502
 20
18.00000076076889
 30
0.000000000000000
  0
POINT
  5
48
100
AcDbEntity
  8
A10
  6
CONTINUOUS
 62
3
100
AcDbPoint
 10
50.00000000000000
 20
50.00000000000000
 30
0.000000000000000
  0
LINE
  5
49
100
AcDbEntity
  8
A2
  6
CENTER
 62
1
100
AcDbLine
 10
50.00000000000000
 20
113.0002999999999
 30
0.000000000000000
 11
50.00000000000000
 21
98.00000000000000
 31
0.000000000000000
  0
LINE
  5
4A
100
AcDbEntity
  8
A4
  6
CONTINUOUS
 62
7
100
AcDbLine
 10
53.19999999999993
 20
111.0002999999999
 30
0.000000000000000
 11
46.79999999999995
 21
111.0002999999999
 31
0.000000000000000
  0
LINE
  5
4B
100
AcDbEntity
  8
A4
  6
CONTINUOUS
 62
7
100
AcDbLine
 10
55.39999999999998
 20
109.0002999999999
 30
0.000000000000000
 11
44.59999999999997
 21
109.0002999999999
 31
0.000000000000000
  0
LINE
  5
4C
100
AcDbEntity
  8
A4
  6
CONTINUOUS
 62
7
100
AcDbLine
 10
52.02229999999997
 20
100.0000000000000
 30
0.000000000000000
 11
50.50000000000000
 21
100.0000000000000
 31
0.000000000000000
  0
LINE
  5
4D
100
AcDbEntity
  8
A4
  6
CONTINUOUS
 62
7
100
AcDbLine
 10
55.39999999999998
 20
109.8612999999999
 30
0.000000000000000
 11
55.39999999999998
 21
109.0002999999999
 31
0.000000000000000
  0
LINE
  5
4E
100
AcDbEntity
  8
A4
  6
CONTINUOUS
 62
7
100
AcDbLine
 10
44.59999999999997
 20
109.8612999999999
 30
0.000000000000000
 11
44.59999999999997
 21
109.0002999999999
 31
0.000000000000000
  0
LINE
  5
4F
100
AcDbEntity
  8
A4
  6
CONTINUOUS
 62
7
100
AcDbLine
 10
53.19999999999993
 20
109.0002999999999
 30
0.000000000000000
 11
53.19999999999993
 21
107.4003000000000
 31
0.000000000000000
  0
LINE
  5
50
100
AcDbEntity
  8
A4
  6
CONTINUOUS
 62
7
100
AcDbLine
 10
46.79999999999995
 20
109.0002999999999
 30
0.000000000000000
 11
46.79999999999995
 21
107.4003000000000
 31
0.000000000000000
  0
LINE
  5
51
100
AcDbEntity
  8
A4
  6
CONTINUOUS
 62
7
100
AcDbLine
 10
53.89999999999998
 20
107.4003000000000
 30
0.000000000000000
 11
46.09999999999997
 21
107.4003000000000
 31
0.000000000000000
  0
LINE
  5
52
100
AcDbEntity
  8
A4
  6
CONTINUOUS
 62
7
100
AcDbLine
 10
46.09999999999997
 20
107.4003000000000
 30
0.000000000000000
 11
46.09999999999997
 21
103.1663000000000
 31
0.000000000000000
  0
LINE
  5
53
100
AcDbEntity
  8
A4
  6
CONTINUOUS
 62
7
100
AcDbLine
 10
47.29799999999989
 20
100.4328999999999
 30
0.000000000000000
 11
46.17029999999990
 21
102.8492999999998
 31
0.000000000000000
  0
LINE
  5
54
100
AcDbEntity
  8
A4
  6
CONTINUOUS
 62
7
100
AcDbLine
 10
52.70199999999996
 20
100.4329000000000
 30
0.000000000000000
 11
53.82959999999994
 21
102.8492999999999
 31
0.000000000000000
  0
LINE
  5
55
100
AcDbEntity
  8
A4
  6
CONTINUOUS
 62
7
100
AcDbLine
 10
53.89999999999998
 20
107.4003000000000
 30
0.000000000000000
 11
53.89999999999998
 21
103.1663000000000
 31
0.000000000000000
  0
LINE
  5
56
100
AcDbEntity
  8
A4
  6
CONTINUOUS
 62
7
100
AcDbLine
 10
50.50000000000000
 20
107.4003000000000
 30
0.000000000000000
 11
50.50000000000000
 21
100.0000000000000
 31
0.000000000000000
  0
LINE
  5
57
100
AcDbEntity
  8
A4
  6
CONTINUOUS
 62
7
100
AcDbLine
 10
49.50000000000000
 20
107.4003000000000
 30
0.000000000000000
 11
49.50000000000000
 21
100.0000000000000
 31
0.000000000000000
  0
LINE
  5
58
100
AcDbEntity
  8
A4
  6
CONTINUOUS
 62
7
100
AcDbLine
 10
53.86779999999999
 20
49.50000000000000
 30
0.000000000000000
 11
51.41419999999994
 21
49.50000000000000
 31
0.000000000000000
  0
LINE
  5
59
100
AcDbEntity
  8
A4
  6
CONTINUOUS
 62
7
100
AcDbLine
 10
53.86779999999999
 20
50.50000000000000
 30
0.000000000000000
 11
51.41419999999994
 21
50.50000000000000
 31
0.000000000000000
  0
LINE
  5
5A
100
AcDbEntity
  8
A4
  6
CONTINUOUS
 62
7
100
AcDbLine
 10
48.58579999999995
 20
50.50000000000000
 30
0.000000000000000
 11
46.13219999999995
 21
50.50000000000000
 31
0.000000000000000
  0
LINE
  5
5B
100
AcDbEntity
  8
A4
  6
CONTINUOUS
 62
7
100
AcDbLine
 10
48.58579999999995
 20
49.50000000000000
 30
0.000000000000000
 11
46.13219999999995
 21
49.50000000000000
 31
0.000000000000000
  0
LINE
  5
5C
100
AcDbEntity
  8
A4
  6
CONTINUOUS
 62
7
100
AcDbLine
 10
50.50000000000000
 20
53.86789999999999
 30
0.000000000000000
 11
50.50000000000000
 21
51.41430000000000
 31
0.000000000000000
  0
LINE
  5
5D
100
AcDbEntity
  8
A4
  6
CONTINUOUS
 62
7
100
AcDbLine
 10
49.50000000000000
 20
53.86789999999999
 30
0.000000000000000
 11
49.50000000000000
 21
51.41430000000000
 31
0.000000000000000
  0
LINE
  5
5E
100
AcDbEntity
  8
A4
  6
CONTINUOUS
 62
7
100
AcDbLine
 10
49.50000000000000
 20
48.58580000000001
 30
0.000000000000000
 11
49.50000000000000
 21
46.13219999999998
 31
0.000000000000000
  0
LINE
  5
5F
100
AcDbEntity
  8
A4
  6
CONTINUOUS
 62
7
100
AcDbLine
 10
50.50000000000000
 20
48.58580000000001
 30
0.000000000000000
 11
50.50000000000000
 21
46.13219999999998
 31
0.000000000000000
  0
LINE
  5
60
100
AcDbEntity
  8
A2
  6
CENTER
 62
1
100
AcDbLine
 10
50.00000000000000
 20
57.40000000000001
 30
0.000000000000000
 11
50.00000000000000
 21
42.59999999999999
 31
0.000000000000000
  0
LINE
  5
61
100
AcDbEntity
  8
A2
  6
CENTER
 62
1
100
AcDbLine
 10
42.59999999999997
 20
50.00000000000000
 30
0.000000000000000
 11
57.39999999999998
 21
50.00000000000000
 31
0.000000000000000
  0
LINE
  5
62
100
AcDbEntity
  8
A2
  6
CENTER
 62
1
100
AcDbLine
 10
50.00000000000000
 20
162.4002999999999
 30
0.000000000000000
 11
50.00000000000000
 21
147.6003000000000
 31
0.000000000000000
  0
LINE
  5
63
100
AcDbEntity
  8
A2
  6
CENTER
 62
1
100
AcDbLine
 10
42.59999999999997
 20
155.0003000000000
 30
0.000000000000000
 11
57.39999999999998
 21
155.0003000000000
 31
0.000000000000000
  0
LINE
  5
64
100
AcDbEntity
  8
A4
  6
CONTINUOUS
 62
7
100
AcDbLine
 10
47.55049999999994
 20
155.5003000000000
 30
0.000000000000000
 11
48.58579999999995
 21
155.5003000000000
 31
0.000000000000000
  0
LINE
  5
65
100
AcDbEntity
  8
A4
  6
CONTINUOUS
 62
7
100
AcDbLine
 10
47.55049999999994
 20
154.5003000000000
 30
0.000000000000000
 11
48.58579999999995
 21
154.5003000000000
 31
0.000000000000000
  0
LINE
  5
66
100
AcDbEntity
  8
A4
  6
CONTINUOUS
 62
7
100
AcDbLine
 10
51.41419999999994
 20
155.5003000000000
 30
0.000000000000000
 11
52.44949999999994
 21
155.5003000000000
 31
0.000000000000000
  0
LINE
  5
67
100
AcDbEntity
  8
A4
  6
CONTINUOUS
 62
7
100
AcDbLine
 10
51.41419999999994
 20
154.5003000000000
 30
0.000000000000000
 11
52.44949999999994
 21
154.5003000000000
 31
0.000000000000000
  0
LINE
  5
68
100
AcDbEntity
  8
A4
  6
CONTINUOUS
 62
7
100
AcDbLine
 10
50.50000000000000
 20
157.4493000000000
 30
0.000000000000000
 11
50.50000000000000
 21
156.4142999999998
 31
0.000000000000000
  0
LINE
  5
69
100
AcDbEntity
  8
A4
  6
CONTINUOUS
 62
7
100
AcDbLine
 10
49.50000000000000
 20
157.4493000000000
 30
0.000000000000000
 11
49.50000000000000
 21
156.4142999999998
 31
0.000000000000000
  0
LINE
  5
6A
100
AcDbEntity
  8
A4
  6
CONTINUOUS
 62
7
100
AcDbLine
 10
49.50000000000000
 20
153.5863000000000
 30
0.000000000000000
 11
49.50000000000000
 21
152.5502999999999
 31
0.000000000000000
  0
LINE
  5
6B
100
AcDbEntity
  8
A4
  6
CONTINUOUS
 62
7
100
AcDbLine
 10
50.50000000000000
 20
153.5863000000000
 30
0.000000000000000
 11
50.50000000000000
 21
152.5502999999999
 31
0.000000000000000
  0
LINE
  5
6C
100
AcDbEntity
  8
A4
  6
CONTINUOUS
 62
7
100
AcDbLine
 10
46.79999999999998
 20
111.0002999999999
 30
0.000000000000000
 11
45.22269999999995
 21
110.6412999999999
 31
0.000000000000000
  0
LINE
  5
6D
100
AcDbEntity
  8
A4
  6
CONTINUOUS
 62
7
100
AcDbLine
 10
53.19999999999993
 20
111.0002999999999
 30
0.000000000000000
 11
54.77729999999997
 21
110.6412999999999
 31
0.000000000000000
  0
LINE
  5
6E
100
AcDbEntity
  8
A4
  6
CONTINUOUS
 62
7
100
AcDbLine
 10
54.30430000000001
 20
110.5003000000000
 30
0.000000000000000
 11
45.60739999999993
 21
110.5003000000000
 31
0.000000000000000
  0
ARC
  5
6F
100
AcDbEntity
  8
A4
  6
CONTINUOUS
 62
7
100
AcDbCircle
 10
47.97759999999994
 20
100.7500000000000
 30
0.000000000000000
 40
0.7500000000000000
100
AcDbArc
 50
205.0170000000000
 51
270.0000000000000
  0
ARC
  5
70
100
AcDbEntity
  8
A4
  6
CONTINUOUS
 62
7
100
AcDbCircle
 10
52.02229999999997
 20
100.7500000000000
 30
0.000000000000000
 40
0.7500000000000000
100
AcDbArc
 50
270.0000000000000
 51
334.9830000000000
  0
CIRCLE
  5
71
100
AcDbEntity
  8
A4
  6
CONTINUOUS
 62
7
100
AcDbCircle
 10
50.00000000000000
 20
50.00000000000000
 30
0.000000000000000
 40
5.400000000000000
  0
ARC
  5
72
100
AcDbEntity
  8
A4
  6
CONTINUOUS
 62
7
100
AcDbCircle
 10
50.00000000000000
 20
50.00000000000000
 30
0.000000000000000
 40
3.900000000000000
100
AcDbArc
 50
97.36590000000001
 51
172.6339999999999
  0
ARC
  5
73
100
AcDbEntity
  8
A4
  6
CONTINUOUS
 62
7
100
AcDbCircle
 10
50.00000000000000
 20
50.00000000000000
 30
0.000000000000000
 40
1.500000000000000
100
AcDbArc
 50
199.4709999999998
 51
250.5290000000000
  0
ARC
  5
74
100
AcDbEntity
  8
A4
  6
CONTINUOUS
 62
7
100
AcDbCircle
 10
50.00000000000000
 20
50.00000000000000
 30
0.000000000000000
 40
3.900000000000000
100
AcDbArc
 50
277.3660000000000
 51
352.6340000000000
  0
ARC
  5
75
100
AcDbEntity
  8
A4
  6
CONTINUOUS
 62
7
100
AcDbCircle
 10
50.00000000000000
 20
50.00000000000000
 30
0.000000000000000
 40
3.900000000000000
100
AcDbArc
 50
7.365889999999998
 51
82.63410000000000
  0
ARC
  5
76
100
AcDbEntity
  8
A4
  6
CONTINUOUS
 62
7
100
AcDbCircle
 10
50.00000000000000
 20
50.00000000000000
 30
0.000000000000000
 40
3.900000000000000
100
AcDbArc
 50
187.3659999999999
 51
262.6340000000001
  0
ARC
  5
77
100
AcDbEntity
  8
A4
  6
CONTINUOUS
 62
7
100
AcDbCircle
 10
50.00000000000000
 20
50.00000000000000
 30
0.000000000000000
 40
1.500000000000000
100
AcDbArc
 50
19.47119999999999
 51
70.52880000000000
  0
ARC
  5
78
100
AcDbEntity
  8
A4
  6
CONTINUOUS
 62
7
100
AcDbCircle
 10
50.00000000000000
 20
50.00000000000000
 30
0.000000000000000
 40
1.500000000000000
100
AcDbArc
 50
109.4709999999998
 51
160.5290000000000
  0
ARC
  5
79
100
AcDbEntity
  8
A4
  6
CONTINUOUS
 62
7
100
AcDbCircle
 10
50.00000000000000
 20
50.00000000000000
 30
0.000000000000000
 40
1.500000000000000
100
AcDbArc
 50
289.4709999999999
 51
340.5289999999999
  0
ARC
  5
7A
100
AcDbEntity
  8
A4
  6
CONTINUOUS
 62
7
100
AcDbCircle
 10
50.00000000000000
 20
50.00000000000000
 30
0.000000000000000
 40
2.500000000000000
100
AcDbArc
 50
78.46299999999998
 51
101.5370000000000
  0
CIRCLE
  5
7B
100
AcDbEntity
  8
A4
  6
CONTINUOUS
 62
7
100
AcDbCircle
 10
50.00000000000000
 20
155.0003000000000
 30
0.000000000000000
 40
5.400000000000000
  0
CIRCLE
  5
7C
100
AcDbEntity
  8
A4
  6
CONTINUOUS
 62
7
100
AcDbCircle
 10
50.00000000000000
 20
155.0003000000000
 30
0.000000000000000
 40
2.500000000000000
  0
ARC
  5
7D
100
AcDbEntity
  8
A4
  6
CONTINUOUS
 62
7
100
AcDbCircle
 10
50.00000000000000
 20
155.0003000000000
 30
0.000000000000000
 40
1.500000000000000
100
AcDbArc
 50
109.4709999999998
 51
160.5290000000000
  0
ARC
  5
7E
100
AcDbEntity
  8
A4
  6
CONTINUOUS
 62
7
100
AcDbCircle
 10
50.00000000000000
 20
155.0003000000000
 30
0.000000000000000
 40
1.500000000000000
100
AcDbArc
 50
289.4709999999999
 51
340.5289999999999
  0
ARC
  5
7F
100
AcDbEntity
  8
A4
  6
CONTINUOUS
 62
7
100
AcDbCircle
 10
50.00000000000000
 20
155.0003000000000
 30
0.000000000000000
 40
1.500000000000000
100
AcDbArc
 50
199.4709999999998
 51
250.5290000000000
  0
ARC
  5
80
100
AcDbEntity
  8
A4
  6
CONTINUOUS
 62
7
100
AcDbCircle
 10
50.00000000000000
 20
155.0003000000000
 30
0.000000000000000
 40
1.500000000000000
100
AcDbArc
 50
19.47119999999999
 51
70.52880000000000
  0
ARC
  5
81
100
AcDbEntity
  8
A4
  6
CONTINUOUS
 62
7
100
AcDbCircle
 10
50.00000000000000
 20
50.00000000000000
 30
0.000000000000000
 40
2.500000000000000
100
AcDbArc
 50
348.4630000000000
 51
371.5370000000000
  0
ARC
  5
82
100
AcDbEntity
  8
A4
  6
CONTINUOUS
 62
7
100
AcDbCircle
 10
50.00000000000000
 20
50.00000000000000
 30
0.000000000000000
 40
2.500000000000000
100
AcDbArc
 50
258.4629999999999
 51
281.5369999999999
  0
ARC
  5
83
100
AcDbEntity
  8
A4
  6
CONTINUOUS
 62
7
100
AcDbCircle
 10
50.00000000000000
 20
50.00000000000000
 30
0.000000000000000
 40
2.500000000000000
100
AcDbArc
 50
168.4630000000000
 51
191.5369999999998
  0
ARC
  5
84
100
AcDbEntity
  8
A4
  6
CONTINUOUS
 62
7
100
AcDbCircle
 10
50.00000000000000
 20
50.00000000000000
 30
0.000000000000000
 40
3.200000000000000
100
AcDbArc
 50
171.0110000000000
 51
188.9890000000000
  0
ARC
  5
85
100
AcDbEntity
  8
A4
  6
CONTINUOUS
 62
7
100
AcDbCircle
 10
50.00000000000000
 20
50.00000000000000
 30
0.000000000000000
 40
3.200000000000000
100
AcDbArc
 50
261.0109999999999
 51
278.9889999999999
  0
ARC
  5
86
100
AcDbEntity
  8
A4
  6
CONTINUOUS
 62
7
100
AcDbCircle
 10
50.00000000000000
 20
50.00000000000000
 30
0.000000000000000
 40
3.200000000000000
100
AcDbArc
 50
351.0109999999999
 51
368.9893000000000
  0
ARC
  5
87
100
AcDbEntity
  8
A4
  6
CONTINUOUS
 62
7
100
AcDbCircle
 10
50.00000000000000
 20
50.00000000000000
 30
0.000000000000000
 40
3.200000000000000
100
AcDbArc
 50
81.01069999999999
 51
98.98930000000000
  0
ARC
  5
88
100
AcDbEntity
  8
A4
  6
CONTINUOUS
 62
7
100
AcDbCircle
 10
46.84999999999997
 20
103.1663000000000
 30
0.000000000000000
 40
0.7500000000000000
100
AcDbArc
 50
180.0000000000000
 51
205.0170000000000
  0
ARC
  5
89
100
AcDbEntity
  8
A4
  6
CONTINUOUS
 62
7
100
AcDbCircle
 10
53.14999999999998
 20
103.1663000000000
 30
0.000000000000000
 40
0.7500000000000000
100
AcDbArc
 50
334.9830000000000
 51
360.0000000000000
  0
ARC
  5
8A
100
AcDbEntity
  8
A4
  6
CONTINUOUS
 62
7
100
AcDbCircle
 10
45.39999999999998
 20
109.8612999999999
 30
0.000000000000000
 40
0.8000000000000000
100
AcDbArc
 50
102.8040000000000
 51
180.0000000000000
  0
ARC
  5
8B
100
AcDbEntity
  8
A4
  6
CONTINUOUS
 62
7
100
AcDbCircle
 10
54.59999999999991
 20
109.8612999999999
 30
0.000000000000000
 40
0.8000000000000000
100
AcDbArc
 50
0.000000000000000
 51
77.19570000000000
  0
LINE
  5
8C
100
AcDbEntity
  8
A4
  6
CONTINUOUS
 62
7
100
AcDbLine
 10
49.50000000000000
 20
100.0000000000000
 30
0.000000000000000
 11
47.97759999999994
 21
100.0000000000000
 31
0.000000000000000
  0
LINE
  5
8D
100
AcDbEntity
  8
A2
  6
CENTER
 62
1
100
AcDbLine
 10
150.0000000000000
 20
113.0002999999999
 30
0.000000000000000
 11
150.0000000000000
 21
94.90029999999990
 31
0.000000000000000
  0
LINE
  5
8E
100
AcDbEntity
  8
A4
  6
CONTINUOUS
 62
7
100
AcDbLine
 10
151.9000000000001
 20
104.5002999999999
 30
0.000000000000000
 11
148.1000000000000
 21
104.5002999999999
 31
0.000000000000000
  0
LINE
  5
8F
100
AcDbEntity
  8
A4
  6
CONTINUOUS
 62
7
100
AcDbLine
 10
152.3500000000000
 20
108.2002999999999
 30
0.000000000000000
 11
152.3500000000000
 21
105.0002999999998
 31
0.000000000000000
  0
LINE
  5
90
100
AcDbEntity
  8
A4
  6
CONTINUOUS
 62
7
100
AcDbLine
 10
147.6500000000001
 20
108.2002999999999
 30
0.000000000000000
 11
147.6500000000001
 21
105.0002999999998
 31
0.000000000000000
  0
LINE
  5
91
100
AcDbEntity
  8
A4
  6
CONTINUOUS
 62
7
100
AcDbLine
 10
152.3500000000000
 20
105.0002999999998
 30
0.000000000000000
 11
147.6500000000001
 21
105.0002999999998
 31
0.000000000000000
  0
LINE
  5
92
100
AcDbEntity
  8
A4
  6
CONTINUOUS
 62
7
100
AcDbLine
 10
148.1000000000000
 20
104.5002999999999
 30
0.000000000000000
 11
148.1000000000000
 21
100.1002999999999
 31
0.000000000000000
  0
LINE
  5
93
100
AcDbEntity
  8
A4
  6
CONTINUOUS
 62
7
100
AcDbLine
 10
151.9000000000001
 20
104.5002999999999
 30
0.000000000000000
 11
151.9000000000001
 21
100.1002999999999
 31
0.000000000000000
  0
LINE
  5
94
100
AcDbEntity
  8
A4
  6
CONTINUOUS
 62
7
100
AcDbLine
 10
148.0999000000000
 20
104.5003000000000
 30
0.000000000000000
 11
147.6499000000000
 21
105.0002999999999
 31
0.000000000000000
  0
LINE
  5
95
100
AcDbEntity
  8
A4
  6
CONTINUOUS
 62
7
100
AcDbLine
 10
151.9000000000000
 20
104.5002999999999
 30
0.000000000000000
 11
152.3500000000000
 21
105.0002999999998
 31
0.000000000000000
  0
LINE
  5
96
100
AcDbEntity
  8
A4
  6
CONTINUOUS
 62
7
100
AcDbLine
 10
152.3500000000000
 20
100.1002999999999
 30
0.000000000000000
 11
147.6500000000001
 21
100.1002999999999
 31
0.000000000000000
  0
LINE
  5
97
100
AcDbEntity
  8
A4
  6
CONTINUOUS
 62
7
100
AcDbLine
 10
152.3500000000000
 20
99.60029999999981
 30
0.000000000000000
 11
147.6500000000001
 21
99.60029999999981
 31
0.000000000000000
  0
LINE
  5
98
100
AcDbEntity
  8
A4
  6
CONTINUOUS
 62
7
100
AcDbLine
 10
147.6500000000001
 20
100.1002999999999
 30
0.000000000000000
 11
147.6500000000001
 21
99.60029999999981
 31
0.000000000000000
  0
LINE
  5
99
100
AcDbEntity
  8
A4
  6
CONTINUOUS
 62
7
100
AcDbLine
 10
152.3500000000000
 20
100.1002999999999
 30
0.000000000000000
 11
152.3500000000000
 21
99.60029999999981
 31
0.000000000000000
  0
LINE
  5
9A
100
AcDbEntity
  8
A4
  6
CONTINUOUS
 62
7
100
AcDbLine
 10
151.5000000000000
 20
96.90029999999990
 30
0.000000000000000
 11
148.5000000000000
 21
96.90029999999990
 31
0.000000000000000
  0
LINE
  5
9B
100
AcDbEntity
  8
A4
  6
CONTINUOUS
 62
7
100
AcDbLine
 10
152.3500000000000
 20
97.90029999999990
 30
0.000000000000000
 11
147.6500000000001
 21
97.90029999999990
 31
0.000000000000000
  0
LINE
  5
9C
100
AcDbEntity
  8
A4
  6
CONTINUOUS
 62
7
100
AcDbLine
 10
152.0000000000001
 20
99.60029999999981
 30
0.000000000000000
 11
152.3500000000001
 21
97.90029999999990
 31
0.000000000000000
  0
LINE
  5
9D
100
AcDbEntity
  8
A4
  6
CONTINUOUS
 62
7
100
AcDbLine
 10
147.9999999999999
 20
99.60029999999983
 30
0.000000000000000
 11
147.6499999999999
 21
97.90029999999987
 31
0.000000000000000
  0
LINE
  5
9E
100
AcDbEntity
  8
A4
  6
CONTINUOUS
 62
7
100
AcDbLine
 10
152.3499000000000
 20
97.90029999999990
 30
0.000000000000000
 11
151.4999000000001
 21
96.90029999999993
 31
0.000000000000000
  0
LINE
  5
9F
100
AcDbEntity
  8
A4
  6
CONTINUOUS
 62
7
100
AcDbLine
 10
148.5000000000000
 20
96.90029999999980
 30
0.000000000000000
 11
147.6500000000000
 21
97.90029999999982
 31
0.000000000000000
  0
LINE
  5
A0
100
AcDbEntity
  8
A4
  6
CONTINUOUS
 62
7
100
AcDbLine
 10
152.9000000000001
 20
108.2002999999999
 30
0.000000000000000
 11
147.1000000000000
 21
108.2002999999999
 31
0.000000000000000
  0
LINE
  5
A1
100
AcDbEntity
  8
A4
  6
CONTINUOUS
 62
7
100
AcDbLine
 10
146.2000000000000
 20
110.2002999999999
 30
0.000000000000000
 11
146.2000000000000
 21
109.2002999999999
 31
0.000000000000000
  0
LINE
  5
A2
100
AcDbEntity
  8
A4
  6
CONTINUOUS
 62
7
100
AcDbLine
 10
153.8000000000001
 20
110.2002999999999
 30
0.000000000000000
 11
153.8000000000001
 21
109.2002999999999
 31
0.000000000000000
  0
LINE
  5
A3
100
AcDbEntity
  8
A4
  6
CONTINUOUS
 62
7
100
AcDbLine
 10
153.8000000000001
 20
109.2002999999999
 30
0.000000000000000
 11
146.2000000000000
 21
109.2002999999999
 31
0.000000000000000
  0
LINE
  5
A4
100
AcDbEntity
  8
A4
  6
CONTINUOUS
 62
7
100
AcDbLine
 10
147.1000000000000
 20
109.2002999999999
 30
0.000000000000000
 11
147.1000000000000
 21
108.2002999999999
 31
0.000000000000000
  0
LINE
  5
A5
100
AcDbEntity
  8
A4
  6
CONTINUOUS
 62
7
100
AcDbLine
 10
152.9000000000001
 20
109.2002999999999
 30
0.000000000000000
 11
152.9000000000001
 21
108.2002999999999
 31
0.000000000000000
  0
LINE
  5
A6
100
AcDbEntity
  8
A4
  6
CONTINUOUS
 62
7
100
AcDbLine
 10
153.8000000000001
 20
110.2002999999999
 30
0.000000000000000
 11
146.2000000000000
 21
110.2002999999999
 31
0.000000000000000
  0
LINE
  5
A7
100
AcDbEntity
  8
A2
  6
CENTER
 62
1
100
AcDbLine
 10
150.0000000000000
 20
149.2003000000000
 30
0.000000000000000
 11
150.0000000000000
 21
160.8002999999999
 31
0.000000000000000
  0
LINE
  5
A8
100
AcDbEntity
  8
A2
  6
CENTER
 62
1
100
AcDbLine
 10
155.8000000000001
 20
155.0003000000000
 30
0.000000000000000
 11
144.2000000000000
 21
155.0003000000000
 31
0.000000000000000
  0
LINE
  5
A9
100
AcDbEntity
  8
A2
  6
CENTER
 62
1
100
AcDbLine
 10
150.0000000000000
 20
44.19999999999999
 30
0.000000000000000
 11
150.0000000000000
 21
55.80000000000000
 31
0.000000000000000
  0
LINE
  5
AA
100
AcDbEntity
  8
A2
  6
CENTER
 62
1
100
AcDbLine
 10
155.8000000000001
 20
50.00000000000000
 30
0.000000000000000
 11
144.2000000000000
 21
50.00000000000000
 31
0.000000000000000
  0
CIRCLE
  5
AB
100
AcDbEntity
  8
A4
  6
CONTINUOUS
 62
7
100
AcDbCircle
 10
150.0000000000000
 20
50.00000000000000
 30
0.000000000000000
 40
2.350000000000000
  0
CIRCLE
  5
AC
100
AcDbEntity
  8
A4
  6
CONTINUOUS
 62
7
100
AcDbCircle
 10
150.0000000000000
 20
50.00000000000000
 30
0.000000000000000
 40
1.500000000000000
  0
ARC
  5
AD
100
AcDbEntity
  8
A4
  6
CONTINUOUS
 62
7
100
AcDbCircle
 10
150.0000000000000
 20
101.5752999999999
 30
0.000000000000000
 40
9.425000000000001
100
AcDbArc
 50
66.22270000000000
 51
113.7770000000000
  0
CIRCLE
  5
AE
100
AcDbEntity
  8
A4
  6
CONTINUOUS
 62
7
100
AcDbCircle
 10
150.0000000000000
 20
155.0003000000000
 30
0.000000000000000
 40
3.799999999999998
  0
CIRCLE
  5
AF
100
AcDbEntity
  8
A4
  6
CONTINUOUS
 62
7
100
AcDbCircle
 10
150.0000000000000
 20
50.00000000000000
 30
0.000000000000000
 40
2.900000000000000
  0
CIRCLE
  5
B0
100
AcDbEntity
  8
A4
  6
CONTINUOUS
 62
7
100
AcDbCircle
 10
150.0000000000000
 20
50.00000000000000
 30
0.000000000000000
 40
3.799999999999998
  0
ENDSEC
  0
SECTION
  2
OBJECTS
  0
DICTIONARY
  5
DD
100
AcDbDictionary
  3
ACAD_GROUP
350
DE
  3
ACAD_LAYOUT
350
DF
  3
ACAD_MLINESTYLE
350
E0
  0
DICTIONARY
  5
DE
102
{ACAD_REACTORS
330
DD
102
}
330
DD
100
AcDbDictionary
  0
DICTIONARY
  5
DF
102
{ACAD_REACTORS
330
DD
102
}
330
DD
100
AcDbDictionary
  3
Model
350
E1
  3
ﾚｲｱｳﾄ1
350
E2
  3
ﾚｲｱｳﾄ2
350
E3
  0
DICTIONARY
  5
E0
102
{ACAD_REACTORS
330
DD
102
}
330
DD
100
AcDbDictionary
  3
STANDARD
350
E4
  0
LAYOUT
  5
E1
102
{ACAD_REACTORS
330
DF
102
}
330
DF
100
AcDbPlotSettings
 70
11952
  4
A3
 44
297.000000
 45
420.000000
 73
  1
 72
  1
100
AcDbLayout
  1
Model
 71
0
330
D4
  0
LAYOUT
  5
E2
102
{ACAD_REACTORS
330
DF
102
}
330
DF
100
AcDbPlotSettings
100
AcDbLayout
  1
ﾚｲｱｳﾄ1
 71
1
330
D5
  0
LAYOUT
  5
E3
102
{ACAD_REACTORS
330
DF
102
}
330
DF
100
AcDbPlotSettings
100
AcDbLayout
  1
ﾚｲｱｳﾄ2
 71
2
330
D6
  0
MLINESTYLE
  5
E4
102
{ACAD_REACTORS
330
E0
102
}
330
E0
100
AcDbMlineStyle
  2
STANDARD
 70
     0
  3

 62
   256
 51
90.00
 52
90.00
 71
     2
 49
0.50
 62
   256
  6
BYLAYER
 49
-0.50
 62
   256
  6
BYLAYER
  0
ENDSEC
  0
EOF
