  0
SECTION
  2
HEADER
  9
$ACADVER
  1
AC1015
  9
$ACADMAINTVER
 70
    20
  9
$DWGCODEPAGE
  3
ANSI_932
  9
$INSBASE
 10
0.0
 20
0.0
 30
0.0
  9
$EXTMIN
 10
9.99995
 20
9.999999999999998
 30
0.0
  9
$EXTMAX
 10
372.267495
 20
100.2
 30
0.0
  9
$LIMMIN
 10
0.0
 20
0.0
  9
$LIMMAX
 10
396.0
 20
273.0
  9
$ORTHOMODE
 70
     0
  9
$REGENMODE
 70
     1
  9
$FILLMODE
 70
     1
  9
$QTEXTMODE
 70
     0
  9
$MIRRTEXT
 70
     1
  9
$LTSCALE
 40
20.0
  9
$ATTMODE
 70
     1
  9
$TEXTSIZE
 40
5.0
  9
$TRACEWID
 40
1.0
  9
$TEXTSTYLE
  7
STANDARD
  9
$CLAYER
  8
0
  9
$CELTYPE
  6
BYLAYER
  9
$CECOLOR
 62
   256
  9
$CELTSCALE
 40
1.0
  9
$DISPSILH
 70
     0
  9
$DIMSCALE
 40
1.0
  9
$DIMASZ
 40
3.0
  9
$DIMEXO
 40
1.0
  9
$DIMDLI
 40
10.0
  9
$DIMRND
 40
0.0
  9
$DIMDLE
 40
0.0
  9
$DIMEXE
 40
1.0
  9
$DIMTP
 40
0.0
  9
$DIMTM
 40
0.0
  9
$DIMTXT
 40
3.2
  9
$DIMCEN
 40
0.0
  9
$DIMTSZ
 40
0.0
  9
$DIMTOL
 70
     0
  9
$DIMLIM
 70
     0
  9
$DIMTIH
 70
     0
  9
$DIMTOH
 70
     0
  9
$DIMSE1
 70
     0
  9
$DIMSE2
 70
     0
  9
$DIMTAD
 70
     3
  9
$DIMZIN
 70
     8
  9
$DIMBLK
  1

  9
$DIMASO
 70
     1
  9
$DIMSHO
 70
     1
  9
$DIMPOST
  1

  9
$DIMAPOST
  1

  9
$DIMALT
 70
     0
  9
$DIMALTD
 70
     2
  9
$DIMALTF
 40
25.4
  9
$DIMLFAC
 40
1.0
  9
$DIMTOFL
 70
     1
  9
$DIMTVP
 40
0.0
  9
$DIMTIX
 70
     0
  9
$DIMSOXD
 70
     0
  9
$DIMSAH
 70
     1
  9
$DIMBLK1
  1

  9
$DIMBLK2
  1

  9
$DIMSTYLE
  2
STANDARD
  9
$DIMCLRD
 70
     0
  9
$DIMCLRE
 70
     0
  9
$DIMCLRT
 70
     0
  9
$DIMTFAC
 40
1.0
  9
$DIMGAP
 40
1.0
  9
$DIMJUST
 70
     0
  9
$DIMSD1
 70
     0
  9
$DIMSD2
 70
     0
  9
$DIMTOLJ
 70
     1
  9
$DIMTZIN
 70
     0
  9
$DIMALTZ
 70
     0
  9
$DIMALTTZ
 70
     0
  9
$DIMUPT
 70
     0
  9
$DIMDEC
 70
     4
  9
$DIMTDEC
 70
     4
  9
$DIMALTU
 70
     2
  9
$DIMALTTD
 70
     2
  9
$DIMTXSTY
  7
STANDARD
  9
$DIMAUNIT
 70
     0
  9
$DIMADEC
 70
     0
  9
$DIMALTRND
 40
0.0
  9
$DIMAZIN
 70
     0
  9
$DIMDSEP
 70
    46
  9
$DIMATFIT
 70
     3
  9
$DIMFRAC
 70
     0
  9
$DIMLDRBLK
  1

  9
$DIMLUNIT
 70
     2
  9
$DIMLWD
 70
    -2
  9
$DIMLWE
 70
    -2
  9
$DIMTMOVE
 70
     0
  9
$LUNITS
 70
     2
  9
$LUPREC
 70
     4
  9
$SKETCHINC
 40
1.0
  9
$FILLETRAD
 40
0.5
  9
$AUNITS
 70
     0
  9
$AUPREC
 70
     2
  9
$MENU
  1
.
  9
$ELEVATION
 40
0.0
  9
$PELEVATION
 40
0.0
  9
$THICKNESS
 40
0.0
  9
$LIMCHECK
 70
     0
  9
$CHAMFERA
 40
10.0
  9
$CHAMFERB
 40
10.0
  9
$CHAMFERC
 40
0.0
  9
$CHAMFERD
 40
0.0
  9
$SKPOLY
 70
     0
  9
$TDCREATE
 40
2451285.442295718
  9
$TDUCREATE
 40
2451285.067295718
  9
$TDUPDATE
 40
2457192.656756459
  9
$TDUUPDATE
 40
2457192.281756459
  9
$TDINDWG
 40
0.0000100926
  9
$TDUSRTIMER
 40
0.0000098032
  9
$USRTIMER
 70
     1
  9
$ANGBASE
 50
0.0
  9
$ANGDIR
 70
     0
  9
$PDMODE
 70
    34
  9
$PDSIZE
 40
0.0
  9
$PLINEWID
 40
0.0
  9
$SPLFRAME
 70
     0
  9
$SPLINETYPE
 70
     6
  9
$SPLINESEGS
 70
     8
  9
$HANDSEED
  5
1CB61
  9
$SURFTAB1
 70
     6
  9
$SURFTAB2
 70
     6
  9
$SURFTYPE
 70
     6
  9
$SURFU
 70
     6
  9
$SURFV
 70
     6
  9
$UCSBASE
  2

  9
$UCSNAME
  2

  9
$UCSORG
 10
0.0
 20
0.0
 30
0.0
  9
$UCSXDIR
 10
1.0
 20
0.0
 30
0.0
  9
$UCSYDIR
 10
0.0
 20
1.0
 30
0.0
  9
$UCSORTHOREF
  2

  9
$UCSORTHOVIEW
 70
     0
  9
$UCSORGTOP
 10
0.0
 20
0.0
 30
0.0
  9
$UCSORGBOTTOM
 10
0.0
 20
0.0
 30
0.0
  9
$UCSORGLEFT
 10
0.0
 20
0.0
 30
0.0
  9
$UCSORGRIGHT
 10
0.0
 20
0.0
 30
0.0
  9
$UCSORGFRONT
 10
0.0
 20
0.0
 30
0.0
  9
$UCSORGBACK
 10
0.0
 20
0.0
 30
0.0
  9
$PUCSBASE
  2

  9
$PUCSNAME
  2

  9
$PUCSORG
 10
0.0
 20
0.0
 30
0.0
  9
$PUCSXDIR
 10
1.0
 20
0.0
 30
0.0
  9
$PUCSYDIR
 10
0.0
 20
1.0
 30
0.0
  9
$PUCSORTHOREF
  2

  9
$PUCSORTHOVIEW
 70
     0
  9
$PUCSORGTOP
 10
0.0
 20
0.0
 30
0.0
  9
$PUCSORGBOTTOM
 10
0.0
 20
0.0
 30
0.0
  9
$PUCSORGLEFT
 10
0.0
 20
0.0
 30
0.0
  9
$PUCSORGRIGHT
 10
0.0
 20
0.0
 30
0.0
  9
$PUCSORGFRONT
 10
0.0
 20
0.0
 30
0.0
  9
$PUCSORGBACK
 10
0.0
 20
0.0
 30
0.0
  9
$USERI1
 70
     0
  9
$USERI2
 70
     0
  9
$USERI3
 70
     0
  9
$USERI4
 70
     0
  9
$USERI5
 70
     0
  9
$USERR1
 40
0.0
  9
$USERR2
 40
0.0
  9
$USERR3
 40
0.0
  9
$USERR4
 40
0.0
  9
$USERR5
 40
0.0
  9
$WORLDVIEW
 70
     1
  9
$SHADEDGE
 70
     3
  9
$SHADEDIF
 70
    70
  9
$TILEMODE
 70
     1
  9
$MAXACTVP
 70
    16
  9
$PINSBASE
 10
0.0
 20
0.0
 30
0.0
  9
$PLIMCHECK
 70
     0
  9
$PEXTMIN
 10
1.000000000000000E+20
 20
1.000000000000000E+20
 30
1.000000000000000E+20
  9
$PEXTMAX
 10
-1.000000000000000E+20
 20
-1.000000000000000E+20
 30
-1.000000000000000E+20
  9
$PLIMMIN
 10
0.0
 20
0.0
  9
$PLIMMAX
 10
420.0
 20
297.0
  9
$UNITMODE
 70
     0
  9
$VISRETAIN
 70
     0
  9
$PLINEGEN
 70
     0
  9
$PSLTSCALE
 70
     0
  9
$TREEDEPTH
 70
  3020
  9
$CMLSTYLE
  2
STANDARD
  9
$CMLJUST
 70
     0
  9
$CMLSCALE
 40
1.0
  9
$PROXYGRAPHICS
 70
     1
  9
$MEASUREMENT
 70
     0
  9
$CELWEIGHT
370
    -1
  9
$ENDCAPS
280
     0
  9
$JOINSTYLE
280
     0
  9
$LWDISPLAY
290
     0
  9
$INSUNITS
 70
     0
  9
$HYPERLINKBASE
  1

  9
$STYLESHEET
  1

  9
$XEDIT
290
     1
  9
$CEPSNTYPE
380
     0
  9
$PSTYLEMODE
290
     1
  9
$FINGERPRINTGUID
  2
{9945C316-51FF-4830-B0FD-FB717C64E251}
  9
$VERSIONGUID
  2
{D9711FAF-603F-48BE-9793-7B84F70408C5}
  9
$EXTNAMES
290
     1
  9
$PSVPSCALE
 40
0.0
  9
$OLESTARTUP
290
     0
  0
ENDSEC
  0
SECTION
  2
CLASSES
  0
CLASS
  1
ACDBDICTIONARYWDFLT
  2
AcDbDictionaryWithDefault
  3
ObjectDBX Classes
 90
        0
280
     0
281
     0
  0
CLASS
  1
ACDBPLACEHOLDER
  2
AcDbPlaceHolder
  3
ObjectDBX Classes
 90
        0
280
     0
281
     0
  0
CLASS
  1
LAYOUT
  2
AcDbLayout
  3
ObjectDBX Classes
 90
        0
280
     0
281
     0
  0
CLASS
  1
DICTIONARYVAR
  2
AcDbDictionaryVar
  3
ObjectDBX Classes
 90
        0
280
     0
281
     0
  0
CLASS
  1
MATERIAL
  2
AcDbMaterial
  3
ObjectDBX Classes
 90
     1153
280
     0
281
     0
  0
CLASS
  1
VISUALSTYLE
  2
AcDbVisualStyle
  3
ObjectDBX Classes
 90
     4095
280
     0
281
     0
  0
CLASS
  1
TABLESTYLE
  2
AcDbTableStyle
  3
ObjectDBX Classes
 90
     4095
280
     0
281
     0
  0
CLASS
  1
SCALE
  2
AcDbScale
  3
ObjectDBX Classes
 90
     1153
280
     0
281
     0
  0
CLASS
  1
MLEADERSTYLE
  2
AcDbMLeaderStyle
  3
ACDB_MLEADERSTYLE_CLASS
 90
     4095
280
     0
281
     0
  0
CLASS
  1
ACDBSECTIONVIEWSTYLE
  2
AcDbSectionViewStyle
  3
ObjectDBX Classes
 90
     1025
280
     0
281
     0
  0
CLASS
  1
ACDBDETAILVIEWSTYLE
  2
AcDbDetailViewStyle
  3
ObjectDBX Classes
 90
     1025
280
     0
281
     0
  0
CLASS
  1
CELLSTYLEMAP
  2
AcDbCellStyleMap
  3
ObjectDBX Classes
 90
     1152
280
     0
281
     0
  0
ENDSEC
  0
SECTION
  2
TABLES
  0
TABLE
  2
VPORT
  5
1C8C3
330
0
100
AcDbSymbolTable
 70
     1
  0
VPORT
  5
1CAAA
330
1C8C3
100
AcDbSymbolTableRecord
100
AcDbViewportTableRecord
  2
*ACTIVE
 70
     0
 10
0.0
 20
0.0
 11
1.0
 21
1.0
 12
253.5214413499867
 22
55.05114037235159
 13
0.0
 23
0.0
 14
10.0
 24
10.0
 15
10.0
 25
10.0
 16
0.0
 26
0.0
 36
1.0
 17
0.0
 27
0.0
 37
0.0
 40
208.2571598799001
 41
1.899603698811096
 42
50.0
 43
0.0
 44
0.0
 50
0.0
 51
0.0
 71
     0
 72
   100
 73
     1
 74
     0
 75
     0
 76
     0
 77
     0
 78
     1
281
     0
 65
     1
110
0.0
120
0.0
130
0.0
111
1.0
121
0.0
131
0.0
112
0.0
122
1.0
132
0.0
 79
     0
146
0.0
1001
ACAD_NAV_VCDISPLAY
1070
     3
  0
ENDTAB
  0
TABLE
  2
LTYPE
  5
1C8C0
330
0
100
AcDbSymbolTable
 70
     4
  0
LTYPE
  5
1C8CE
330
1C8C0
100
AcDbSymbolTableRecord
100
AcDbLinetypeTableRecord
  2
BYBLOCK
 70
     0
  3

 72
    65
 73
     0
 40
0.0
  0
LTYPE
  5
1C8CF
330
1C8C0
100
AcDbSymbolTableRecord
100
AcDbLinetypeTableRecord
  2
BYLAYER
 70
     0
  3

 72
    65
 73
     0
 40
0.0
  0
LTYPE
  5
1C8D0
330
1C8C0
100
AcDbSymbolTableRecord
100
AcDbLinetypeTableRecord
  2
CONTINUOUS
 70
     0
  3
Solid line
 72
    65
 73
     0
 40
0.0
  0
LTYPE
  5
1C8DE
330
1C8C0
100
AcDbSymbolTableRecord
100
AcDbLinetypeTableRecord
  2
DASHED
 70
     0
  3
__ __ __ __ __ __ __ __ __ __ __ __ __ __ __ __
 72
    65
 73
     2
 40
0.75
 49
0.5
 74
     0
 49
-0.25
 74
     0
  0
LTYPE
  5
1C8DF
330
1C8C0
100
AcDbSymbolTableRecord
100
AcDbLinetypeTableRecord
  2
CENTER
 70
     0
  3
____ _ ____ _ ____ _ ____ _ ____ _ ____ _ ____ 
 72
    65
 73
     4
 40
2.0
 49
1.25
 74
     0
 49
-0.25
 74
     0
 49
0.25
 74
     0
 49
-0.25
 74
     0
  0
LTYPE
  5
1C8E0
330
1C8C0
100
AcDbSymbolTableRecord
100
AcDbLinetypeTableRecord
  2
PHANTOM
 70
     0
  3
______  __  __  ______  __  __  ______  __  __ 
 72
    65
 73
     6
 40
2.5
 49
1.25
 74
     0
 49
-0.25
 74
     0
 49
0.25
 74
     0
 49
-0.25
 74
     0
 49
0.25
 74
     0
 49
-0.25
 74
     0
  0
ENDTAB
  0
TABLE
  2
LAYER
  5
1C8BD
330
0
100
AcDbSymbolTable
 70
     8
  0
LAYER
  5
1C8CB
102
{ACAD_XDICTIONARY
360
1CB05
102
}
330
1C8BD
100
AcDbSymbolTableRecord
100
AcDbLayerTableRecord
  2
0
 70
     0
 62
     7
  6
CONTINUOUS
370
    -3
390
1CAB3
  0
LAYER
  5
1C8E1
102
{ACAD_XDICTIONARY
360
1CB07
102
}
330
1C8BD
100
AcDbSymbolTableRecord
100
AcDbLayerTableRecord
  2
4
 70
     0
 62
     1
  6
CENTER
370
    -3
390
1CAB3
  0
LAYER
  5
1C8E2
102
{ACAD_XDICTIONARY
360
1CB09
102
}
330
1C8BD
100
AcDbSymbolTableRecord
100
AcDbLayerTableRecord
  2
5
 70
     0
 62
     6
  6
PHANTOM
370
    -3
390
1CAB3
  0
LAYER
  5
1C8E3
102
{ACAD_XDICTIONARY
360
1CB0B
102
}
330
1C8BD
100
AcDbSymbolTableRecord
100
AcDbLayerTableRecord
  2
1
 70
     0
 62
     7
  6
CONTINUOUS
370
    -3
390
1CAB3
  0
LAYER
  5
1C8E4
102
{ACAD_XDICTIONARY
360
1CB0D
102
}
330
1C8BD
100
AcDbSymbolTableRecord
100
AcDbLayerTableRecord
  2
2
 70
     0
 62
     4
  6
CONTINUOUS
370
    -3
390
1CAB3
  0
LAYER
  5
1C8E5
102
{ACAD_XDICTIONARY
360
1CB0F
102
}
330
1C8BD
100
AcDbSymbolTableRecord
100
AcDbLayerTableRecord
  2
3
 70
     0
 62
     2
  6
DASHED
370
    -3
390
1CAB3
  0
LAYER
  5
1C8E6
102
{ACAD_XDICTIONARY
360
1CB11
102
}
330
1C8BD
100
AcDbSymbolTableRecord
100
AcDbLayerTableRecord
  2
6
 70
     0
 62
     5
  6
CONTINUOUS
370
    -3
390
1CAB3
  0
LAYER
  5
1C8E7
102
{ACAD_XDICTIONARY
360
1CB13
102
}
330
1C8BD
100
AcDbSymbolTableRecord
100
AcDbLayerTableRecord
  2
7
 70
     0
 62
     3
  6
CONTINUOUS
370
    -3
390
1CAB3
  0
ENDTAB
  0
TABLE
  2
STYLE
  5
1C8BE
330
0
100
AcDbSymbolTable
 70
     1
  0
STYLE
  5
1C8CC
330
1C8BE
100
AcDbSymbolTableRecord
100
AcDbTextStyleTableRecord
  2
STANDARD
 70
     0
 40
0.0
 41
1.0
 50
0.0
 71
     0
 42
5.0
  3
txt
  4

  0
ENDTAB
  0
TABLE
  2
VIEW
  5
1C8C1
330
0
100
AcDbSymbolTable
 70
     2
  0
VIEW
  5
1C8E8
330
1C8C1
100
AcDbSymbolTableRecord
100
AcDbViewTableRecord
  2
7
 70
     0
 40
205.091845
 10
197.560224
 20
102.5459219999999
 41
395.120447
 11
0.0
 21
0.0
 31
1.0
 12
0.0
 22
0.0
 32
0.0
 42
50.0
 43
0.0
 44
0.0
 50
0.0
 71
     0
281
     0
 72
     0
  0
VIEW
  5
1C8E9
330
1C8C1
100
AcDbSymbolTableRecord
100
AcDbViewTableRecord
  2
1
 70
     0
 40
249.466496
 10
136.846708
 20
233.977284
 41
487.485198
 11
0.0
 21
0.0
 31
1.0
 12
0.0
 22
0.0
 32
0.0
 42
50.0
 43
0.0
 44
0.0
 50
0.0
 71
     0
281
     0
 72
     0
  0
ENDTAB
  0
TABLE
  2
UCS
  5
1C8C2
330
0
100
AcDbSymbolTable
 70
     0
  0
ENDTAB
  0
TABLE
  2
APPID
  5
1C8C4
330
0
100
AcDbSymbolTable
 70
     3
  0
APPID
  5
1C8CD
330
1C8C4
100
AcDbSymbolTableRecord
100
AcDbRegAppTableRecord
  2
ACAD
 70
     0
  0
APPID
  5
1CB1F
330
1C8C4
100
AcDbSymbolTableRecord
100
AcDbRegAppTableRecord
  2
ACAD_NAV_VCDISPLAY
 70
     0
  0
APPID
  5
1CB58
330
1C8C4
100
AcDbSymbolTableRecord
100
AcDbRegAppTableRecord
  2
ACAD_MLEADERVER
 70
     0
  0
ENDTAB
  0
TABLE
  2
DIMSTYLE
  5
1C8C5
330
0
100
AcDbSymbolTable
 70
     1
100
AcDbDimStyleTable
 71
     0
  0
DIMSTYLE
105
1C8EB
330
1C8C5
100
AcDbSymbolTableRecord
100
AcDbDimStyleTableRecord
  2
STANDARD
 70
     0
 41
3.0
 42
1.0
 43
10.0
 44
1.0
 73
     0
 74
     0
 77
     3
 78
     8
140
3.2
141
0.0
147
1.0
172
     1
173
     1
284
     8
285
     8
286
     8
340
1C8CC
  0
ENDTAB
  0
TABLE
  2
BLOCK_RECORD
  5
1C8BC
330
0
100
AcDbSymbolTable
 70
     0
  0
BLOCK_RECORD
  5
1C8D9
102
{ACAD_XDICTIONARY
360
1CAAD
102
}
330
1C8BC
100
AcDbSymbolTableRecord
100
AcDbBlockTableRecord
  2
*MODEL_SPACE
340
1CB01
  0
BLOCK_RECORD
  5
1C8D5
102
{ACAD_XDICTIONARY
360
1CAAB
102
}
330
1C8BC
100
AcDbSymbolTableRecord
100
AcDbBlockTableRecord
  2
*PAPER_SPACE
340
1CB02
  0
ENDTAB
  0
ENDSEC
  0
SECTION
  2
BLOCKS
  0
BLOCK
  5
1C8DA
330
1C8D9
100
AcDbEntity
  8
0
100
AcDbBlockBegin
  2
*MODEL_SPACE
 70
     0
 10
0.0
 20
0.0
 30
0.0
  3
*MODEL_SPACE
  1

  0
ENDBLK
  5
1C8DB
330
1C8D9
100
AcDbEntity
  8
0
100
AcDbBlockEnd
  0
BLOCK
  5
1C8D6
330
1C8D5
100
AcDbEntity
 67
     1
  8
0
100
AcDbBlockBegin
  2
*PAPER_SPACE
 70
     0
 10
0.0
 20
0.0
 30
0.0
  3
*PAPER_SPACE
  1

  0
ENDBLK
  5
1C8D7
330
1C8D5
100
AcDbEntity
 67
     1
  8
0
100
AcDbBlockEnd
  0
ENDSEC
  0
SECTION
  2
ENTITIES
  0
TEXT
  5
1C8F3
330
1C8D9
100
AcDbEntity
  8
6
  6
Continuous
100
AcDbText
 10
27.97945
 20
10.0487
 30
0.0
 40
1.399999999999999
  1
6
 41
1.069393
100
AcDbText
  0
TEXT
  5
1C8F4
330
1C8D9
100
AcDbEntity
  8
1
  6
Continuous
100
AcDbText
 10
17.97945
 20
10.0487
 30
0.0
 40
1.399999999999999
  1
1
 41
1.069393
100
AcDbText
  0
TEXT
  5
1C8F5
330
1C8D9
100
AcDbEntity
  8
1
  6
Continuous
100
AcDbText
 10
9.99995
 20
10.0
 30
0.0
 40
1.399999999999999
  1
LAYER
 41
1.009912999999997
100
AcDbText
  0
TEXT
  5
1C8F6
330
1C8D9
100
AcDbEntity
  8
2
  6
Continuous
100
AcDbText
 10
19.97944999999998
 20
10.0487
 30
0.0
 40
1.399999999999999
  1
2
 41
1.069393
100
AcDbText
  0
TEXT
  5
1C8F7
330
1C8D9
100
AcDbEntity
  8
3
  6
DASHED
100
AcDbText
 10
21.97945
 20
10.0487
 30
0.0
 40
1.399999999999999
  1
3
 41
1.069393
100
AcDbText
  0
TEXT
  5
1C8F8
330
1C8D9
100
AcDbEntity
  8
4
  6
CENTER
100
AcDbText
 10
23.97944999999999
 20
10.0487
 30
0.0
 40
1.399999999999999
  1
4
 41
1.069393
100
AcDbText
  0
TEXT
  5
1C8F9
330
1C8D9
100
AcDbEntity
  8
5
  6
PHANTOM
100
AcDbText
 10
25.97945
 20
10.0487
 30
0.0
 40
1.399999999999999
  1
5
 41
1.069393
100
AcDbText
  0
TEXT
  5
1C8FA
330
1C8D9
100
AcDbEntity
  8
7
  6
Continuous
100
AcDbText
 10
10.00005
 20
26.0
 30
0.0
 40
3.0
  1
CODE No.5446
 41
1.003962999999999
100
AcDbText
  0
TEXT
  5
1C8FB
330
1C8D9
100
AcDbEntity
  8
7
  6
Continuous
100
AcDbText
 10
10.00005
 20
18.0
 30
0.0
 40
3.0
  1
TYPE No.TM-104SS-12
 41
1.002350999999998
100
AcDbText
  0
TEXT
  5
1C8FC
330
1C8D9
100
AcDbEntity
  8
7
  6
Continuous
100
AcDbText
 10
29.97944999999999
 20
10.0487
 30
0.0
 40
1.399999999999999
  1
7
 41
1.069393
100
AcDbText
  0
LINE
  5
1C8FD
330
1C8D9
100
AcDbEntity
  8
4
  6
CENTER
100
AcDbLine
 10
356.9325049999998
 20
45.8
 30
0.0
 11
372.267495
 21
45.8
 31
0.0
  0
LINE
  5
1C8FE
330
1C8D9
100
AcDbEntity
  8
4
  6
CENTER
100
AcDbLine
 10
364.6
 20
53.55075799999998
 30
0.0
 11
364.6
 21
38.049242
 31
0.0
  0
LINE
  5
1C8FF
330
1C8D9
100
AcDbEntity
  8
1
  6
Continuous
100
AcDbLine
 10
363.3
 20
48.350429
 30
0.0
 11
363.3
 21
43.0
 31
0.0
  0
LINE
  5
1C900
330
1C8D9
100
AcDbEntity
  8
1
  6
Continuous
100
AcDbLine
 10
365.8999999999999
 20
43.249571
 30
0.0
 11
365.8999999999999
 21
48.6
 31
0.0
  0
LINE
  5
1C901
330
1C8D9
100
AcDbEntity
  8
1
  6
Continuous
100
AcDbLine
 10
362.3
 20
44.5
 30
0.0
 11
363.3
 21
44.5
 31
0.0
  0
LINE
  5
1C902
330
1C8D9
100
AcDbEntity
  8
1
  6
Continuous
100
AcDbLine
 10
363.3
 20
47.09999999999999
 30
0.0
 11
362.578615
 21
47.09999999999999
 31
0.0
  0
LINE
  5
1C903
330
1C8D9
100
AcDbEntity
  8
1
  6
Continuous
100
AcDbLine
 10
365.8999999999999
 20
47.09999999999999
 30
0.0
 11
366.9
 21
47.09999999999999
 31
0.0
  0
LINE
  5
1C904
330
1C8D9
100
AcDbEntity
  8
1
  6
Continuous
100
AcDbLine
 10
365.8999999999999
 20
44.5
 30
0.0
 11
366.6213849999999
 21
44.5
 31
0.0
  0
LINE
  5
1C905
330
1C8D9
100
AcDbEntity
  8
4
  6
CENTER
100
AcDbLine
 10
89.59999999999999
 20
45.8
 30
0.0
 11
304.8
 21
45.8
 31
0.0
  0
ARC
  5
1C906
330
1C8D9
100
AcDbEntity
  8
1
  6
Continuous
100
AcDbCircle
 10
295.0
 20
45.8
 30
0.0
 40
4.799999999999998
100
AcDbArc
 50
250.184994
 51
109.815006
  0
ARC
  5
1C907
330
1C8D9
100
AcDbEntity
  8
1
  6
Continuous
100
AcDbCircle
 10
283.3999999999999
 20
45.8
 30
0.0
 40
1.3
100
AcDbArc
 50
90.0
 51
270.0
  0
ARC
  5
1C908
330
1C8D9
100
AcDbEntity
  8
1
  6
Continuous
100
AcDbCircle
 10
283.3999999999999
 20
53.1
 30
0.0
 40
6.0
100
AcDbArc
 50
270.0
 51
289.8150059999998
  0
LINE
  5
1C909
330
1C8D9
100
AcDbEntity
  8
1
  6
Continuous
100
AcDbLine
 10
285.433906
 20
47.455248
 30
0.0
 11
293.372875
 21
50.315802
 31
0.0
  0
ARC
  5
1C90A
330
1C8D9
100
AcDbEntity
  8
1
  6
Continuous
100
AcDbCircle
 10
283.3999999999999
 20
53.1
 30
0.0
 40
8.599999999999997
100
AcDbArc
 50
270.0
 51
289.8150059999998
  0
LINE
  5
1C90B
330
1C8D9
100
AcDbEntity
  8
1
  6
Continuous
100
AcDbLine
 10
286.3152649999999
 20
45.009189
 30
0.0
 11
294.254234
 21
47.86974199999998
 31
0.0
  0
ARC
  5
1C90C
330
1C8D9
100
AcDbEntity
  8
1
  6
Continuous
100
AcDbCircle
 10
295.0
 20
45.8
 30
0.0
 40
2.2
100
AcDbArc
 50
250.184994
 51
109.815006
  0
LINE
  5
1C90D
330
1C8D9
100
AcDbEntity
  8
1
  6
Continuous
100
AcDbLine
 10
288.5100249999999
 20
45.8
 30
0.0
 11
294.254234
 21
43.73025799999999
 31
0.0
  0
LINE
  5
1C90E
330
1C8D9
100
AcDbEntity
  8
1
  6
Continuous
100
AcDbLine
 10
286.79392
 20
43.65471399999999
 30
0.0
 11
293.372875
 21
41.28419799999997
 31
0.0
  0
ARC
  5
1C90F
330
1C8D9
100
AcDbEntity
  8
1
  6
Continuous
100
AcDbCircle
 10
283.3999999999999
 20
38.5
 30
0.0
 40
6.0
100
AcDbArc
 50
82.03907100000002
 51
90.0
  0
LINE
  5
1C910
330
1C8D9
100
AcDbEntity
  8
1
  6
Continuous
100
AcDbLine
 10
274.29392
 20
43.65471399999999
 30
0.0
 11
280.872875
 21
41.28419799999997
 31
0.0
  0
ARC
  5
1C911
330
1C8D9
100
AcDbEntity
  8
1
  6
Continuous
100
AcDbCircle
 10
282.5
 20
45.8
 30
0.0
 40
4.799999999999998
100
AcDbArc
 50
250.184994
 51
354.6998869999998
  0
ARC
  5
1C912
330
1C8D9
100
AcDbEntity
  8
1
  6
Continuous
100
AcDbCircle
 10
270.8999999999999
 20
45.8
 30
0.0
 40
1.3
100
AcDbArc
 50
90.0
 51
270.0
  0
ARC
  5
1C913
330
1C8D9
100
AcDbEntity
  8
1
  6
Continuous
100
AcDbCircle
 10
270.8999999999999
 20
38.5
 30
0.0
 40
6.0
100
AcDbArc
 50
82.03907100000002
 51
90.0
  0
LINE
  5
1C914
330
1C8D9
100
AcDbEntity
  8
1
  6
Continuous
100
AcDbLine
 10
276.0100249999999
 20
45.8
 30
0.0
 11
281.754234
 21
43.73025799999999
 31
0.0
  0
ARC
  5
1C915
330
1C8D9
100
AcDbEntity
  8
1
  6
Continuous
100
AcDbCircle
 10
282.5
 20
45.8
 30
0.0
 40
2.2
100
AcDbArc
 50
250.184994
 51
325.3191249999998
  0
LINE
  5
1C916
330
1C8D9
100
AcDbEntity
  8
1
  6
Continuous
100
AcDbLine
 10
273.8152649999999
 20
45.009189
 30
0.0
 11
281.754234
 21
47.86974199999998
 31
0.0
  0
ARC
  5
1C917
330
1C8D9
100
AcDbEntity
  8
1
  6
Continuous
100
AcDbCircle
 10
270.8999999999999
 20
53.1
 30
0.0
 40
8.599999999999997
100
AcDbArc
 50
270.0
 51
289.8150059999998
  0
LINE
  5
1C918
330
1C8D9
100
AcDbEntity
  8
1
  6
Continuous
100
AcDbLine
 10
272.933906
 20
47.455248
 30
0.0
 11
280.872875
 21
50.315802
 31
0.0
  0
ARC
  5
1C919
330
1C8D9
100
AcDbEntity
  8
1
  6
Continuous
100
AcDbCircle
 10
270.8999999999999
 20
53.1
 30
0.0
 40
6.0
100
AcDbArc
 50
270.0
 51
289.8150059999998
  0
ARC
  5
1C91A
330
1C8D9
100
AcDbEntity
  8
1
  6
Continuous
100
AcDbCircle
 10
282.5
 20
45.8
 30
0.0
 40
4.799999999999998
100
AcDbArc
 50
26.547173
 51
109.815006
  0
ARC
  5
1C91B
330
1C8D9
100
AcDbEntity
  8
1
  6
Continuous
100
AcDbCircle
 10
282.5
 20
45.8
 30
0.0
 40
2.2
100
AcDbArc
 50
38.111406
 51
109.815006
  0
LINE
  5
1C91C
330
1C8D9
100
AcDbEntity
  8
1
  6
Continuous
100
AcDbLine
 10
261.79392
 20
43.65471399999999
 30
0.0
 11
268.372875
 21
41.28419799999997
 31
0.0
  0
ARC
  5
1C91D
330
1C8D9
100
AcDbEntity
  8
1
  6
Continuous
100
AcDbCircle
 10
257.5
 20
45.8
 30
0.0
 40
4.799999999999998
100
AcDbArc
 50
250.184994
 51
354.6998869999998
  0
LINE
  5
1C91E
330
1C8D9
100
AcDbEntity
  8
1
  6
Continuous
100
AcDbLine
 10
249.29392
 20
43.65471399999999
 30
0.0
 11
255.8728749999999
 21
41.28419799999997
 31
0.0
  0
ARC
  5
1C91F
330
1C8D9
100
AcDbEntity
  8
1
  6
Continuous
100
AcDbCircle
 10
270.0
 20
45.8
 30
0.0
 40
4.799999999999998
100
AcDbArc
 50
250.184994
 51
354.6998869999998
  0
ARC
  5
1C920
330
1C8D9
100
AcDbEntity
  8
1
  6
Continuous
100
AcDbCircle
 10
258.3999999999999
 20
45.8
 30
0.0
 40
1.3
100
AcDbArc
 50
90.0
 51
270.0
  0
ARC
  5
1C921
330
1C8D9
100
AcDbEntity
  8
1
  6
Continuous
100
AcDbCircle
 10
257.5
 20
45.8
 30
0.0
 40
2.2
100
AcDbArc
 50
38.111406
 51
109.815006
  0
ARC
  5
1C922
330
1C8D9
100
AcDbEntity
  8
1
  6
Continuous
100
AcDbCircle
 10
257.5
 20
45.8
 30
0.0
 40
2.2
100
AcDbArc
 50
250.184994
 51
325.3191249999998
  0
ARC
  5
1C923
330
1C8D9
100
AcDbEntity
  8
1
  6
Continuous
100
AcDbCircle
 10
257.5
 20
45.8
 30
0.0
 40
4.799999999999998
100
AcDbArc
 50
26.547173
 51
109.815006
  0
ARC
  5
1C924
330
1C8D9
100
AcDbEntity
  8
1
  6
Continuous
100
AcDbCircle
 10
245.9
 20
53.1
 30
0.0
 40
6.0
100
AcDbArc
 50
270.0
 51
289.8150059999998
  0
LINE
  5
1C925
330
1C8D9
100
AcDbEntity
  8
1
  6
Continuous
100
AcDbLine
 10
247.933906
 20
47.455248
 30
0.0
 11
255.8728749999999
 21
50.315802
 31
0.0
  0
ARC
  5
1C926
330
1C8D9
100
AcDbEntity
  8
1
  6
Continuous
100
AcDbCircle
 10
245.9
 20
53.1
 30
0.0
 40
8.599999999999997
100
AcDbArc
 50
270.0
 51
289.8150059999998
  0
LINE
  5
1C927
330
1C8D9
100
AcDbEntity
  8
1
  6
Continuous
100
AcDbLine
 10
248.8152649999999
 20
45.009189
 30
0.0
 11
256.754234
 21
47.86974199999998
 31
0.0
  0
LINE
  5
1C928
330
1C8D9
100
AcDbEntity
  8
1
  6
Continuous
100
AcDbLine
 10
251.010025
 20
45.8
 30
0.0
 11
256.754234
 21
43.73025799999999
 31
0.0
  0
ARC
  5
1C929
330
1C8D9
100
AcDbEntity
  8
1
  6
Continuous
100
AcDbCircle
 10
245.9
 20
38.5
 30
0.0
 40
6.0
100
AcDbArc
 50
82.03907100000002
 51
90.0
  0
ARC
  5
1C92A
330
1C8D9
100
AcDbEntity
  8
1
  6
Continuous
100
AcDbCircle
 10
245.9
 20
45.8
 30
0.0
 40
1.3
100
AcDbArc
 50
90.0
 51
270.0
  0
ARC
  5
1C92B
330
1C8D9
100
AcDbEntity
  8
1
  6
Continuous
100
AcDbCircle
 10
258.3999999999999
 20
38.5
 30
0.0
 40
6.0
100
AcDbArc
 50
82.03907100000002
 51
90.0
  0
LINE
  5
1C92C
330
1C8D9
100
AcDbEntity
  8
1
  6
Continuous
100
AcDbLine
 10
263.5100249999999
 20
45.8
 30
0.0
 11
269.254234
 21
43.73025799999999
 31
0.0
  0
ARC
  5
1C92D
330
1C8D9
100
AcDbEntity
  8
1
  6
Continuous
100
AcDbCircle
 10
270.0
 20
45.8
 30
0.0
 40
2.2
100
AcDbArc
 50
250.184994
 51
325.3191249999998
  0
LINE
  5
1C92E
330
1C8D9
100
AcDbEntity
  8
1
  6
Continuous
100
AcDbLine
 10
261.3152649999999
 20
45.009189
 30
0.0
 11
269.254234
 21
47.86974199999998
 31
0.0
  0
ARC
  5
1C92F
330
1C8D9
100
AcDbEntity
  8
1
  6
Continuous
100
AcDbCircle
 10
258.3999999999999
 20
53.1
 30
0.0
 40
8.599999999999997
100
AcDbArc
 50
270.0
 51
289.8150059999998
  0
LINE
  5
1C930
330
1C8D9
100
AcDbEntity
  8
1
  6
Continuous
100
AcDbLine
 10
260.433906
 20
47.455248
 30
0.0
 11
268.372875
 21
50.315802
 31
0.0
  0
ARC
  5
1C931
330
1C8D9
100
AcDbEntity
  8
1
  6
Continuous
100
AcDbCircle
 10
258.3999999999999
 20
53.1
 30
0.0
 40
6.0
100
AcDbArc
 50
270.0
 51
289.8150059999998
  0
LINE
  5
1C932
330
1C8D9
100
AcDbEntity
  8
1
  6
Continuous
100
AcDbLine
 10
236.79392
 20
43.65471399999999
 30
0.0
 11
243.3728749999999
 21
41.28419799999997
 31
0.0
  0
ARC
  5
1C933
330
1C8D9
100
AcDbEntity
  8
1
  6
Continuous
100
AcDbCircle
 10
232.5
 20
45.8
 30
0.0
 40
4.799999999999998
100
AcDbArc
 50
250.184994
 51
354.6998869999998
  0
LINE
  5
1C934
330
1C8D9
100
AcDbEntity
  8
1
  6
Continuous
100
AcDbLine
 10
224.29392
 20
43.65471399999999
 30
0.0
 11
230.8728749999999
 21
41.28419799999997
 31
0.0
  0
ARC
  5
1C935
330
1C8D9
100
AcDbEntity
  8
1
  6
Continuous
100
AcDbCircle
 10
245.0
 20
45.8
 30
0.0
 40
4.799999999999998
100
AcDbArc
 50
250.184994
 51
354.6998869999998
  0
ARC
  5
1C936
330
1C8D9
100
AcDbEntity
  8
1
  6
Continuous
100
AcDbCircle
 10
233.4
 20
45.8
 30
0.0
 40
1.3
100
AcDbArc
 50
90.0
 51
270.0
  0
ARC
  5
1C937
330
1C8D9
100
AcDbEntity
  8
1
  6
Continuous
100
AcDbCircle
 10
232.5
 20
45.8
 30
0.0
 40
2.2
100
AcDbArc
 50
38.111406
 51
109.815006
  0
ARC
  5
1C938
330
1C8D9
100
AcDbEntity
  8
1
  6
Continuous
100
AcDbCircle
 10
232.5
 20
45.8
 30
0.0
 40
2.2
100
AcDbArc
 50
250.184994
 51
325.3191249999998
  0
ARC
  5
1C939
330
1C8D9
100
AcDbEntity
  8
1
  6
Continuous
100
AcDbCircle
 10
232.5
 20
45.8
 30
0.0
 40
4.799999999999998
100
AcDbArc
 50
26.547173
 51
109.815006
  0
ARC
  5
1C93A
330
1C8D9
100
AcDbEntity
  8
1
  6
Continuous
100
AcDbCircle
 10
220.9
 20
53.1
 30
0.0
 40
6.0
100
AcDbArc
 50
270.0
 51
289.8150059999998
  0
LINE
  5
1C93B
330
1C8D9
100
AcDbEntity
  8
1
  6
Continuous
100
AcDbLine
 10
222.933906
 20
47.455248
 30
0.0
 11
230.8728749999999
 21
50.315802
 31
0.0
  0
ARC
  5
1C93C
330
1C8D9
100
AcDbEntity
  8
1
  6
Continuous
100
AcDbCircle
 10
220.9
 20
53.1
 30
0.0
 40
8.599999999999997
100
AcDbArc
 50
270.0
 51
289.8150059999998
  0
LINE
  5
1C93D
330
1C8D9
100
AcDbEntity
  8
1
  6
Continuous
100
AcDbLine
 10
223.8152649999999
 20
45.009189
 30
0.0
 11
231.754234
 21
47.86974199999998
 31
0.0
  0
LINE
  5
1C93E
330
1C8D9
100
AcDbEntity
  8
1
  6
Continuous
100
AcDbLine
 10
226.010025
 20
45.8
 30
0.0
 11
231.754234
 21
43.73025799999999
 31
0.0
  0
ARC
  5
1C93F
330
1C8D9
100
AcDbEntity
  8
1
  6
Continuous
100
AcDbCircle
 10
220.9
 20
38.5
 30
0.0
 40
6.0
100
AcDbArc
 50
82.03907100000002
 51
90.0
  0
ARC
  5
1C940
330
1C8D9
100
AcDbEntity
  8
1
  6
Continuous
100
AcDbCircle
 10
220.9
 20
45.8
 30
0.0
 40
1.3
100
AcDbArc
 50
90.0
 51
270.0
  0
ARC
  5
1C941
330
1C8D9
100
AcDbEntity
  8
1
  6
Continuous
100
AcDbCircle
 10
233.4
 20
38.5
 30
0.0
 40
6.0
100
AcDbArc
 50
82.03907100000002
 51
90.0
  0
LINE
  5
1C942
330
1C8D9
100
AcDbEntity
  8
1
  6
Continuous
100
AcDbLine
 10
238.510025
 20
45.8
 30
0.0
 11
244.254234
 21
43.73025799999999
 31
0.0
  0
ARC
  5
1C943
330
1C8D9
100
AcDbEntity
  8
1
  6
Continuous
100
AcDbCircle
 10
245.0
 20
45.8
 30
0.0
 40
2.2
100
AcDbArc
 50
250.184994
 51
325.3191249999998
  0
LINE
  5
1C944
330
1C8D9
100
AcDbEntity
  8
1
  6
Continuous
100
AcDbLine
 10
236.3152649999999
 20
45.009189
 30
0.0
 11
244.254234
 21
47.86974199999998
 31
0.0
  0
ARC
  5
1C945
330
1C8D9
100
AcDbEntity
  8
1
  6
Continuous
100
AcDbCircle
 10
233.4
 20
53.1
 30
0.0
 40
8.599999999999997
100
AcDbArc
 50
270.0
 51
289.8150059999998
  0
LINE
  5
1C946
330
1C8D9
100
AcDbEntity
  8
1
  6
Continuous
100
AcDbLine
 10
235.433906
 20
47.455248
 30
0.0
 11
243.3728749999999
 21
50.315802
 31
0.0
  0
ARC
  5
1C947
330
1C8D9
100
AcDbEntity
  8
1
  6
Continuous
100
AcDbCircle
 10
233.4
 20
53.1
 30
0.0
 40
6.0
100
AcDbArc
 50
270.0
 51
289.8150059999998
  0
LINE
  5
1C948
330
1C8D9
100
AcDbEntity
  8
1
  6
Continuous
100
AcDbLine
 10
211.79392
 20
43.65471399999999
 30
0.0
 11
218.3728749999999
 21
41.28419799999997
 31
0.0
  0
ARC
  5
1C949
330
1C8D9
100
AcDbEntity
  8
1
  6
Continuous
100
AcDbCircle
 10
207.5
 20
45.8
 30
0.0
 40
4.799999999999998
100
AcDbArc
 50
250.184994
 51
354.6998869999998
  0
LINE
  5
1C94A
330
1C8D9
100
AcDbEntity
  8
1
  6
Continuous
100
AcDbLine
 10
199.2939199999999
 20
43.65471399999999
 30
0.0
 11
205.8728749999999
 21
41.28419799999997
 31
0.0
  0
ARC
  5
1C94B
330
1C8D9
100
AcDbEntity
  8
1
  6
Continuous
100
AcDbCircle
 10
220.0
 20
45.8
 30
0.0
 40
4.799999999999998
100
AcDbArc
 50
250.184994
 51
354.6998869999998
  0
ARC
  5
1C94C
330
1C8D9
100
AcDbEntity
  8
1
  6
Continuous
100
AcDbCircle
 10
208.4
 20
45.8
 30
0.0
 40
1.3
100
AcDbArc
 50
90.0
 51
270.0
  0
ARC
  5
1C94D
330
1C8D9
100
AcDbEntity
  8
1
  6
Continuous
100
AcDbCircle
 10
207.5
 20
45.8
 30
0.0
 40
2.2
100
AcDbArc
 50
38.111406
 51
109.815006
  0
ARC
  5
1C94E
330
1C8D9
100
AcDbEntity
  8
1
  6
Continuous
100
AcDbCircle
 10
207.5
 20
45.8
 30
0.0
 40
2.2
100
AcDbArc
 50
250.184994
 51
325.3191249999998
  0
ARC
  5
1C94F
330
1C8D9
100
AcDbEntity
  8
1
  6
Continuous
100
AcDbCircle
 10
207.5
 20
45.8
 30
0.0
 40
4.799999999999998
100
AcDbArc
 50
26.547173
 51
109.815006
  0
ARC
  5
1C950
330
1C8D9
100
AcDbEntity
  8
1
  6
Continuous
100
AcDbCircle
 10
195.8999999999998
 20
53.1
 30
0.0
 40
6.0
100
AcDbArc
 50
270.0
 51
289.8150059999998
  0
LINE
  5
1C951
330
1C8D9
100
AcDbEntity
  8
1
  6
Continuous
100
AcDbLine
 10
197.933906
 20
47.455248
 30
0.0
 11
205.8728749999999
 21
50.315802
 31
0.0
  0
ARC
  5
1C952
330
1C8D9
100
AcDbEntity
  8
1
  6
Continuous
100
AcDbCircle
 10
195.8999999999998
 20
53.1
 30
0.0
 40
8.599999999999997
100
AcDbArc
 50
270.0
 51
289.8150059999998
  0
LINE
  5
1C953
330
1C8D9
100
AcDbEntity
  8
1
  6
Continuous
100
AcDbLine
 10
198.8152649999999
 20
45.009189
 30
0.0
 11
206.754234
 21
47.86974199999998
 31
0.0
  0
LINE
  5
1C954
330
1C8D9
100
AcDbEntity
  8
1
  6
Continuous
100
AcDbLine
 10
201.010025
 20
45.8
 30
0.0
 11
206.754234
 21
43.73025799999999
 31
0.0
  0
ARC
  5
1C955
330
1C8D9
100
AcDbEntity
  8
1
  6
Continuous
100
AcDbCircle
 10
195.8999999999998
 20
38.5
 30
0.0
 40
6.0
100
AcDbArc
 50
82.03907100000002
 51
90.0
  0
ARC
  5
1C956
330
1C8D9
100
AcDbEntity
  8
1
  6
Continuous
100
AcDbCircle
 10
195.8999999999998
 20
45.8
 30
0.0
 40
1.3
100
AcDbArc
 50
90.0
 51
270.0
  0
ARC
  5
1C957
330
1C8D9
100
AcDbEntity
  8
1
  6
Continuous
100
AcDbCircle
 10
208.4
 20
38.5
 30
0.0
 40
6.0
100
AcDbArc
 50
82.03907100000002
 51
90.0
  0
LINE
  5
1C958
330
1C8D9
100
AcDbEntity
  8
1
  6
Continuous
100
AcDbLine
 10
213.510025
 20
45.8
 30
0.0
 11
219.254234
 21
43.73025799999999
 31
0.0
  0
ARC
  5
1C959
330
1C8D9
100
AcDbEntity
  8
1
  6
Continuous
100
AcDbCircle
 10
220.0
 20
45.8
 30
0.0
 40
2.2
100
AcDbArc
 50
250.184994
 51
325.3191249999998
  0
LINE
  5
1C95A
330
1C8D9
100
AcDbEntity
  8
1
  6
Continuous
100
AcDbLine
 10
211.3152649999999
 20
45.009189
 30
0.0
 11
219.254234
 21
47.86974199999998
 31
0.0
  0
ARC
  5
1C95B
330
1C8D9
100
AcDbEntity
  8
1
  6
Continuous
100
AcDbCircle
 10
208.4
 20
53.1
 30
0.0
 40
8.599999999999997
100
AcDbArc
 50
270.0
 51
289.8150059999998
  0
LINE
  5
1C95C
330
1C8D9
100
AcDbEntity
  8
1
  6
Continuous
100
AcDbLine
 10
210.433906
 20
47.455248
 30
0.0
 11
218.3728749999999
 21
50.315802
 31
0.0
  0
ARC
  5
1C95D
330
1C8D9
100
AcDbEntity
  8
1
  6
Continuous
100
AcDbCircle
 10
208.4
 20
53.1
 30
0.0
 40
6.0
100
AcDbArc
 50
270.0
 51
289.8150059999998
  0
ARC
  5
1C95E
330
1C8D9
100
AcDbEntity
  8
1
  6
Continuous
100
AcDbCircle
 10
195.0
 20
45.8
 30
0.0
 40
4.799999999999998
100
AcDbArc
 50
250.184994
 51
354.6998869999998
  0
LINE
  5
1C95F
330
1C8D9
100
AcDbEntity
  8
1
  6
Continuous
100
AcDbLine
 10
174.2939199999999
 20
43.65471399999999
 30
0.0
 11
180.872875
 21
41.28419799999997
 31
0.0
  0
ARC
  5
1C960
330
1C8D9
100
AcDbEntity
  8
1
  6
Continuous
100
AcDbCircle
 10
182.5
 20
45.8
 30
0.0
 40
4.799999999999998
100
AcDbArc
 50
250.184994
 51
354.6998869999998
  0
LINE
  5
1C961
330
1C8D9
100
AcDbEntity
  8
1
  6
Continuous
100
AcDbLine
 10
186.7939199999999
 20
43.65471399999999
 30
0.0
 11
193.372875
 21
41.28419799999997
 31
0.0
  0
ARC
  5
1C962
330
1C8D9
100
AcDbEntity
  8
1
  6
Continuous
100
AcDbCircle
 10
195.0
 20
45.8
 30
0.0
 40
2.2
100
AcDbArc
 50
250.184994
 51
325.3191249999998
  0
LINE
  5
1C963
330
1C8D9
100
AcDbEntity
  8
1
  6
Continuous
100
AcDbLine
 10
176.010025
 20
45.8
 30
0.0
 11
181.7542339999999
 21
43.73025799999999
 31
0.0
  0
LINE
  5
1C964
330
1C8D9
100
AcDbEntity
  8
1
  6
Continuous
100
AcDbLine
 10
173.8152649999999
 20
45.009189
 30
0.0
 11
181.7542339999999
 21
47.86974199999998
 31
0.0
  0
LINE
  5
1C965
330
1C8D9
100
AcDbEntity
  8
1
  6
Continuous
100
AcDbLine
 10
172.933906
 20
47.455248
 30
0.0
 11
180.872875
 21
50.315802
 31
0.0
  0
ARC
  5
1C966
330
1C8D9
100
AcDbEntity
  8
1
  6
Continuous
100
AcDbCircle
 10
170.9
 20
45.8
 30
0.0
 40
1.3
100
AcDbArc
 50
90.0
 51
270.0
  0
ARC
  5
1C967
330
1C8D9
100
AcDbEntity
  8
1
  6
Continuous
100
AcDbCircle
 10
170.9
 20
38.5
 30
0.0
 40
6.0
100
AcDbArc
 50
82.03907100000002
 51
90.0
  0
ARC
  5
1C968
330
1C8D9
100
AcDbEntity
  8
1
  6
Continuous
100
AcDbCircle
 10
170.9
 20
53.1
 30
0.0
 40
8.599999999999997
100
AcDbArc
 50
270.0
 51
289.8150059999998
  0
ARC
  5
1C969
330
1C8D9
100
AcDbEntity
  8
1
  6
Continuous
100
AcDbCircle
 10
170.9
 20
53.1
 30
0.0
 40
6.0
100
AcDbArc
 50
270.0
 51
289.8150059999998
  0
ARC
  5
1C96A
330
1C8D9
100
AcDbEntity
  8
1
  6
Continuous
100
AcDbCircle
 10
183.3999999999998
 20
53.1
 30
0.0
 40
6.0
100
AcDbArc
 50
270.0
 51
289.8150059999998
  0
LINE
  5
1C96B
330
1C8D9
100
AcDbEntity
  8
1
  6
Continuous
100
AcDbLine
 10
185.433906
 20
47.455248
 30
0.0
 11
193.372875
 21
50.315802
 31
0.0
  0
ARC
  5
1C96C
330
1C8D9
100
AcDbEntity
  8
1
  6
Continuous
100
AcDbCircle
 10
183.3999999999998
 20
53.1
 30
0.0
 40
8.599999999999997
100
AcDbArc
 50
270.0
 51
289.8150059999998
  0
LINE
  5
1C96D
330
1C8D9
100
AcDbEntity
  8
1
  6
Continuous
100
AcDbLine
 10
186.3152649999999
 20
45.009189
 30
0.0
 11
194.2542339999999
 21
47.86974199999998
 31
0.0
  0
LINE
  5
1C96E
330
1C8D9
100
AcDbEntity
  8
1
  6
Continuous
100
AcDbLine
 10
188.510025
 20
45.8
 30
0.0
 11
194.2542339999999
 21
43.73025799999999
 31
0.0
  0
ARC
  5
1C96F
330
1C8D9
100
AcDbEntity
  8
1
  6
Continuous
100
AcDbCircle
 10
183.3999999999998
 20
38.5
 30
0.0
 40
6.0
100
AcDbArc
 50
82.03907100000002
 51
90.0
  0
ARC
  5
1C970
330
1C8D9
100
AcDbEntity
  8
1
  6
Continuous
100
AcDbCircle
 10
182.5
 20
45.8
 30
0.0
 40
4.799999999999998
100
AcDbArc
 50
26.547173
 51
109.815006
  0
ARC
  5
1C971
330
1C8D9
100
AcDbEntity
  8
1
  6
Continuous
100
AcDbCircle
 10
182.5
 20
45.8
 30
0.0
 40
2.2
100
AcDbArc
 50
250.184994
 51
325.3191249999998
  0
ARC
  5
1C972
330
1C8D9
100
AcDbEntity
  8
1
  6
Continuous
100
AcDbCircle
 10
182.5
 20
45.8
 30
0.0
 40
2.2
100
AcDbArc
 50
38.111406
 51
109.815006
  0
ARC
  5
1C973
330
1C8D9
100
AcDbEntity
  8
1
  6
Continuous
100
AcDbCircle
 10
183.3999999999998
 20
45.8
 30
0.0
 40
1.3
100
AcDbArc
 50
90.0
 51
270.0
  0
ARC
  5
1C974
330
1C8D9
100
AcDbEntity
  8
1
  6
Continuous
100
AcDbCircle
 10
170.0
 20
45.8
 30
0.0
 40
4.799999999999998
100
AcDbArc
 50
250.184994
 51
354.6998869999998
  0
LINE
  5
1C975
330
1C8D9
100
AcDbEntity
  8
1
  6
Continuous
100
AcDbLine
 10
149.2939199999999
 20
43.65471399999999
 30
0.0
 11
155.872875
 21
41.28419799999997
 31
0.0
  0
ARC
  5
1C976
330
1C8D9
100
AcDbEntity
  8
1
  6
Continuous
100
AcDbCircle
 10
157.5
 20
45.8
 30
0.0
 40
4.799999999999998
100
AcDbArc
 50
250.184994
 51
354.6998869999998
  0
LINE
  5
1C977
330
1C8D9
100
AcDbEntity
  8
1
  6
Continuous
100
AcDbLine
 10
161.7939199999999
 20
43.65471399999999
 30
0.0
 11
168.372875
 21
41.28419799999997
 31
0.0
  0
ARC
  5
1C978
330
1C8D9
100
AcDbEntity
  8
1
  6
Continuous
100
AcDbCircle
 10
170.0
 20
45.8
 30
0.0
 40
2.2
100
AcDbArc
 50
250.184994
 51
325.3191249999998
  0
LINE
  5
1C979
330
1C8D9
100
AcDbEntity
  8
1
  6
Continuous
100
AcDbLine
 10
151.010025
 20
45.8
 30
0.0
 11
156.7542339999999
 21
43.73025799999999
 31
0.0
  0
LINE
  5
1C97A
330
1C8D9
100
AcDbEntity
  8
1
  6
Continuous
100
AcDbLine
 10
148.8152649999999
 20
45.009189
 30
0.0
 11
156.7542339999999
 21
47.86974199999998
 31
0.0
  0
LINE
  5
1C97B
330
1C8D9
100
AcDbEntity
  8
1
  6
Continuous
100
AcDbLine
 10
147.933906
 20
47.455248
 30
0.0
 11
155.872875
 21
50.315802
 31
0.0
  0
ARC
  5
1C97C
330
1C8D9
100
AcDbEntity
  8
1
  6
Continuous
100
AcDbCircle
 10
145.9
 20
45.8
 30
0.0
 40
1.3
100
AcDbArc
 50
90.0
 51
270.0
  0
ARC
  5
1C97D
330
1C8D9
100
AcDbEntity
  8
1
  6
Continuous
100
AcDbCircle
 10
145.9
 20
38.5
 30
0.0
 40
6.0
100
AcDbArc
 50
82.03907100000002
 51
90.0
  0
ARC
  5
1C97E
330
1C8D9
100
AcDbEntity
  8
1
  6
Continuous
100
AcDbCircle
 10
145.9
 20
53.1
 30
0.0
 40
8.599999999999997
100
AcDbArc
 50
270.0
 51
289.8150059999998
  0
ARC
  5
1C97F
330
1C8D9
100
AcDbEntity
  8
1
  6
Continuous
100
AcDbCircle
 10
145.9
 20
53.1
 30
0.0
 40
6.0
100
AcDbArc
 50
270.0
 51
289.8150059999998
  0
ARC
  5
1C980
330
1C8D9
100
AcDbEntity
  8
1
  6
Continuous
100
AcDbCircle
 10
158.4
 20
53.1
 30
0.0
 40
6.0
100
AcDbArc
 50
270.0
 51
289.8150059999998
  0
LINE
  5
1C981
330
1C8D9
100
AcDbEntity
  8
1
  6
Continuous
100
AcDbLine
 10
160.433906
 20
47.455248
 30
0.0
 11
168.372875
 21
50.315802
 31
0.0
  0
ARC
  5
1C982
330
1C8D9
100
AcDbEntity
  8
1
  6
Continuous
100
AcDbCircle
 10
158.4
 20
53.1
 30
0.0
 40
8.599999999999997
100
AcDbArc
 50
270.0
 51
289.8150059999998
  0
LINE
  5
1C983
330
1C8D9
100
AcDbEntity
  8
1
  6
Continuous
100
AcDbLine
 10
161.3152649999999
 20
45.009189
 30
0.0
 11
169.2542339999999
 21
47.86974199999998
 31
0.0
  0
LINE
  5
1C984
330
1C8D9
100
AcDbEntity
  8
1
  6
Continuous
100
AcDbLine
 10
163.510025
 20
45.8
 30
0.0
 11
169.2542339999999
 21
43.73025799999999
 31
0.0
  0
ARC
  5
1C985
330
1C8D9
100
AcDbEntity
  8
1
  6
Continuous
100
AcDbCircle
 10
158.4
 20
38.5
 30
0.0
 40
6.0
100
AcDbArc
 50
82.03907100000002
 51
90.0
  0
ARC
  5
1C986
330
1C8D9
100
AcDbEntity
  8
1
  6
Continuous
100
AcDbCircle
 10
157.5
 20
45.8
 30
0.0
 40
4.799999999999998
100
AcDbArc
 50
26.547173
 51
109.815006
  0
ARC
  5
1C987
330
1C8D9
100
AcDbEntity
  8
1
  6
Continuous
100
AcDbCircle
 10
157.5
 20
45.8
 30
0.0
 40
2.2
100
AcDbArc
 50
250.184994
 51
325.3191249999998
  0
ARC
  5
1C988
330
1C8D9
100
AcDbEntity
  8
1
  6
Continuous
100
AcDbCircle
 10
157.5
 20
45.8
 30
0.0
 40
2.2
100
AcDbArc
 50
38.111406
 51
109.815006
  0
ARC
  5
1C989
330
1C8D9
100
AcDbEntity
  8
1
  6
Continuous
100
AcDbCircle
 10
158.4
 20
45.8
 30
0.0
 40
1.3
100
AcDbArc
 50
90.0
 51
270.0
  0
ARC
  5
1C98A
330
1C8D9
100
AcDbEntity
  8
1
  6
Continuous
100
AcDbCircle
 10
145.0
 20
45.8
 30
0.0
 40
4.799999999999998
100
AcDbArc
 50
250.184994
 51
354.6998869999998
  0
LINE
  5
1C98B
330
1C8D9
100
AcDbEntity
  8
1
  6
Continuous
100
AcDbLine
 10
124.29392
 20
43.65471399999999
 30
0.0
 11
130.8728749999999
 21
41.28419799999997
 31
0.0
  0
ARC
  5
1C98C
330
1C8D9
100
AcDbEntity
  8
1
  6
Continuous
100
AcDbCircle
 10
132.4999999999998
 20
45.8
 30
0.0
 40
4.799999999999998
100
AcDbArc
 50
250.184994
 51
354.6998869999998
  0
LINE
  5
1C98D
330
1C8D9
100
AcDbEntity
  8
1
  6
Continuous
100
AcDbLine
 10
136.7939199999999
 20
43.65471399999999
 30
0.0
 11
143.372875
 21
41.28419799999997
 31
0.0
  0
ARC
  5
1C98E
330
1C8D9
100
AcDbEntity
  8
1
  6
Continuous
100
AcDbCircle
 10
145.0
 20
45.8
 30
0.0
 40
2.2
100
AcDbArc
 50
250.184994
 51
325.3191249999998
  0
LINE
  5
1C98F
330
1C8D9
100
AcDbEntity
  8
1
  6
Continuous
100
AcDbLine
 10
126.010025
 20
45.8
 30
0.0
 11
131.7542339999999
 21
43.73025799999999
 31
0.0
  0
LINE
  5
1C990
330
1C8D9
100
AcDbEntity
  8
1
  6
Continuous
100
AcDbLine
 10
123.8152649999999
 20
45.009189
 30
0.0
 11
131.7542339999999
 21
47.86974199999998
 31
0.0
  0
LINE
  5
1C991
330
1C8D9
100
AcDbEntity
  8
1
  6
Continuous
100
AcDbLine
 10
122.933906
 20
47.455248
 30
0.0
 11
130.8728749999999
 21
50.315802
 31
0.0
  0
ARC
  5
1C992
330
1C8D9
100
AcDbEntity
  8
1
  6
Continuous
100
AcDbCircle
 10
120.9
 20
45.8
 30
0.0
 40
1.3
100
AcDbArc
 50
90.0
 51
270.0
  0
ARC
  5
1C993
330
1C8D9
100
AcDbEntity
  8
1
  6
Continuous
100
AcDbCircle
 10
120.9
 20
38.5
 30
0.0
 40
6.0
100
AcDbArc
 50
82.03907100000002
 51
90.0
  0
ARC
  5
1C994
330
1C8D9
100
AcDbEntity
  8
1
  6
Continuous
100
AcDbCircle
 10
120.9
 20
53.1
 30
0.0
 40
8.599999999999997
100
AcDbArc
 50
270.0
 51
289.8150059999998
  0
ARC
  5
1C995
330
1C8D9
100
AcDbEntity
  8
1
  6
Continuous
100
AcDbCircle
 10
120.9
 20
53.1
 30
0.0
 40
6.0
100
AcDbArc
 50
270.0
 51
289.8150059999998
  0
ARC
  5
1C996
330
1C8D9
100
AcDbEntity
  8
1
  6
Continuous
100
AcDbCircle
 10
133.4
 20
53.1
 30
0.0
 40
6.0
100
AcDbArc
 50
270.0
 51
289.8150059999998
  0
LINE
  5
1C997
330
1C8D9
100
AcDbEntity
  8
1
  6
Continuous
100
AcDbLine
 10
135.433906
 20
47.455248
 30
0.0
 11
143.372875
 21
50.315802
 31
0.0
  0
ARC
  5
1C998
330
1C8D9
100
AcDbEntity
  8
1
  6
Continuous
100
AcDbCircle
 10
133.4
 20
53.1
 30
0.0
 40
8.599999999999997
100
AcDbArc
 50
270.0
 51
289.8150059999998
  0
LINE
  5
1C999
330
1C8D9
100
AcDbEntity
  8
1
  6
Continuous
100
AcDbLine
 10
136.3152649999999
 20
45.009189
 30
0.0
 11
144.2542339999999
 21
47.86974199999998
 31
0.0
  0
LINE
  5
1C99A
330
1C8D9
100
AcDbEntity
  8
1
  6
Continuous
100
AcDbLine
 10
138.510025
 20
45.8
 30
0.0
 11
144.2542339999999
 21
43.73025799999999
 31
0.0
  0
ARC
  5
1C99B
330
1C8D9
100
AcDbEntity
  8
1
  6
Continuous
100
AcDbCircle
 10
133.4
 20
38.5
 30
0.0
 40
6.0
100
AcDbArc
 50
82.03907100000002
 51
90.0
  0
ARC
  5
1C99C
330
1C8D9
100
AcDbEntity
  8
1
  6
Continuous
100
AcDbCircle
 10
132.4999999999998
 20
45.8
 30
0.0
 40
4.799999999999998
100
AcDbArc
 50
26.547173
 51
109.815006
  0
ARC
  5
1C99D
330
1C8D9
100
AcDbEntity
  8
1
  6
Continuous
100
AcDbCircle
 10
132.4999999999998
 20
45.8
 30
0.0
 40
2.2
100
AcDbArc
 50
250.184994
 51
325.3191249999998
  0
ARC
  5
1C99E
330
1C8D9
100
AcDbEntity
  8
1
  6
Continuous
100
AcDbCircle
 10
132.4999999999998
 20
45.8
 30
0.0
 40
2.2
100
AcDbArc
 50
38.111406
 51
109.815006
  0
ARC
  5
1C99F
330
1C8D9
100
AcDbEntity
  8
1
  6
Continuous
100
AcDbCircle
 10
133.4
 20
45.8
 30
0.0
 40
1.3
100
AcDbArc
 50
90.0
 51
270.0
  0
ARC
  5
1C9A0
330
1C8D9
100
AcDbEntity
  8
1
  6
Continuous
100
AcDbCircle
 10
120.0
 20
45.8
 30
0.0
 40
4.799999999999998
100
AcDbArc
 50
250.184994
 51
354.6998869999998
  0
LINE
  5
1C9A1
330
1C8D9
100
AcDbEntity
  8
1
  6
Continuous
100
AcDbLine
 10
97.93390600000002
 20
44.144752
 30
0.0
 11
105.8728749999998
 21
41.28419799999997
 31
0.0
  0
ARC
  5
1C9A2
330
1C8D9
100
AcDbEntity
  8
1
  6
Continuous
100
AcDbCircle
 10
107.4999999999999
 20
45.8
 30
0.0
 40
4.799999999999998
100
AcDbArc
 50
250.184994
 51
354.6998869999998
  0
LINE
  5
1C9A3
330
1C8D9
100
AcDbEntity
  8
1
  6
Continuous
100
AcDbLine
 10
111.79392
 20
43.65471399999999
 30
0.0
 11
118.372875
 21
41.28419799999997
 31
0.0
  0
ARC
  5
1C9A4
330
1C8D9
100
AcDbEntity
  8
1
  6
Continuous
100
AcDbCircle
 10
120.0
 20
45.8
 30
0.0
 40
2.2
100
AcDbArc
 50
250.184994
 51
325.3191249999998
  0
LINE
  5
1C9A5
330
1C8D9
100
AcDbEntity
  8
1
  6
Continuous
100
AcDbLine
 10
101.010025
 20
45.8
 30
0.0
 11
106.754234
 21
43.73025799999999
 31
0.0
  0
LINE
  5
1C9A6
330
1C8D9
100
AcDbEntity
  8
1
  6
Continuous
100
AcDbLine
 10
98.81526499999999
 20
45.009189
 30
0.0
 11
106.754234
 21
47.86974199999998
 31
0.0
  0
LINE
  5
1C9A7
330
1C8D9
100
AcDbEntity
  8
1
  6
Continuous
100
AcDbLine
 10
97.93390600000002
 20
47.455248
 30
0.0
 11
105.8728749999998
 21
50.315802
 31
0.0
  0
ARC
  5
1C9A8
330
1C8D9
100
AcDbEntity
  8
1
  6
Continuous
100
AcDbCircle
 10
95.90000000000001
 20
45.8
 30
0.0
 40
1.3
100
AcDbArc
 50
90.0
 51
270.0
  0
ARC
  5
1C9A9
330
1C8D9
100
AcDbEntity
  8
1
  6
Continuous
100
AcDbCircle
 10
95.90000000000001
 20
38.5
 30
0.0
 40
6.0
100
AcDbArc
 50
70.18499399999999
 51
90.0
  0
ARC
  5
1C9AA
330
1C8D9
100
AcDbEntity
  8
1
  6
Continuous
100
AcDbCircle
 10
95.90000000000001
 20
53.1
 30
0.0
 40
8.599999999999997
100
AcDbArc
 50
270.0
 51
289.8150059999998
  0
ARC
  5
1C9AB
330
1C8D9
100
AcDbEntity
  8
1
  6
Continuous
100
AcDbCircle
 10
95.90000000000001
 20
53.1
 30
0.0
 40
6.0
100
AcDbArc
 50
270.0
 51
289.8150059999998
  0
ARC
  5
1C9AC
330
1C8D9
100
AcDbEntity
  8
1
  6
Continuous
100
AcDbCircle
 10
108.4
 20
53.1
 30
0.0
 40
6.0
100
AcDbArc
 50
270.0
 51
289.8150059999998
  0
LINE
  5
1C9AD
330
1C8D9
100
AcDbEntity
  8
1
  6
Continuous
100
AcDbLine
 10
110.433906
 20
47.455248
 30
0.0
 11
118.372875
 21
50.315802
 31
0.0
  0
ARC
  5
1C9AE
330
1C8D9
100
AcDbEntity
  8
1
  6
Continuous
100
AcDbCircle
 10
108.4
 20
53.1
 30
0.0
 40
8.599999999999997
100
AcDbArc
 50
270.0
 51
289.8150059999998
  0
LINE
  5
1C9AF
330
1C8D9
100
AcDbEntity
  8
1
  6
Continuous
100
AcDbLine
 10
111.3152649999999
 20
45.009189
 30
0.0
 11
119.254234
 21
47.86974199999998
 31
0.0
  0
LINE
  5
1C9B0
330
1C8D9
100
AcDbEntity
  8
1
  6
Continuous
100
AcDbLine
 10
113.510025
 20
45.8
 30
0.0
 11
119.254234
 21
43.73025799999999
 31
0.0
  0
ARC
  5
1C9B1
330
1C8D9
100
AcDbEntity
  8
1
  6
Continuous
100
AcDbCircle
 10
108.4
 20
38.5
 30
0.0
 40
6.0
100
AcDbArc
 50
82.03907100000002
 51
90.0
  0
ARC
  5
1C9B2
330
1C8D9
100
AcDbEntity
  8
1
  6
Continuous
100
AcDbCircle
 10
107.4999999999999
 20
45.8
 30
0.0
 40
4.799999999999998
100
AcDbArc
 50
26.547173
 51
109.815006
  0
ARC
  5
1C9B3
330
1C8D9
100
AcDbEntity
  8
1
  6
Continuous
100
AcDbCircle
 10
107.4999999999999
 20
45.8
 30
0.0
 40
2.2
100
AcDbArc
 50
250.184994
 51
325.3191249999998
  0
ARC
  5
1C9B4
330
1C8D9
100
AcDbEntity
  8
1
  6
Continuous
100
AcDbCircle
 10
107.4999999999999
 20
45.8
 30
0.0
 40
2.2
100
AcDbArc
 50
38.111406
 51
109.815006
  0
ARC
  5
1C9B5
330
1C8D9
100
AcDbEntity
  8
1
  6
Continuous
100
AcDbCircle
 10
108.4
 20
45.8
 30
0.0
 40
1.3
100
AcDbArc
 50
90.0
 51
270.0
  0
ARC
  5
1C9B6
330
1C8D9
100
AcDbEntity
  8
1
  6
Continuous
100
AcDbCircle
 10
270.0
 20
45.8
 30
0.0
 40
4.799999999999998
100
AcDbArc
 50
26.547173
 51
109.815006
  0
ARC
  5
1C9B7
330
1C8D9
100
AcDbEntity
  8
1
  6
Continuous
100
AcDbCircle
 10
270.0
 20
45.8
 30
0.0
 40
2.2
100
AcDbArc
 50
38.111406
 51
109.815006
  0
ARC
  5
1C9B8
330
1C8D9
100
AcDbEntity
  8
1
  6
Continuous
100
AcDbCircle
 10
245.0
 20
45.8
 30
0.0
 40
4.799999999999998
100
AcDbArc
 50
26.547173
 51
109.815006
  0
ARC
  5
1C9B9
330
1C8D9
100
AcDbEntity
  8
1
  6
Continuous
100
AcDbCircle
 10
245.0
 20
45.8
 30
0.0
 40
2.2
100
AcDbArc
 50
38.111406
 51
109.815006
  0
ARC
  5
1C9BA
330
1C8D9
100
AcDbEntity
  8
1
  6
Continuous
100
AcDbCircle
 10
220.0
 20
45.8
 30
0.0
 40
4.799999999999998
100
AcDbArc
 50
26.547173
 51
109.815006
  0
ARC
  5
1C9BB
330
1C8D9
100
AcDbEntity
  8
1
  6
Continuous
100
AcDbCircle
 10
220.0
 20
45.8
 30
0.0
 40
2.2
100
AcDbArc
 50
38.111406
 51
109.815006
  0
ARC
  5
1C9BC
330
1C8D9
100
AcDbEntity
  8
1
  6
Continuous
100
AcDbCircle
 10
195.0
 20
45.8
 30
0.0
 40
4.799999999999998
100
AcDbArc
 50
26.547173
 51
109.815006
  0
ARC
  5
1C9BD
330
1C8D9
100
AcDbEntity
  8
1
  6
Continuous
100
AcDbCircle
 10
195.0
 20
45.8
 30
0.0
 40
2.2
100
AcDbArc
 50
38.111406
 51
109.815006
  0
ARC
  5
1C9BE
330
1C8D9
100
AcDbEntity
  8
1
  6
Continuous
100
AcDbCircle
 10
170.0
 20
45.8
 30
0.0
 40
4.799999999999998
100
AcDbArc
 50
26.547173
 51
109.815006
  0
ARC
  5
1C9BF
330
1C8D9
100
AcDbEntity
  8
1
  6
Continuous
100
AcDbCircle
 10
170.0
 20
45.8
 30
0.0
 40
2.2
100
AcDbArc
 50
38.111406
 51
109.815006
  0
ARC
  5
1C9C0
330
1C8D9
100
AcDbEntity
  8
1
  6
Continuous
100
AcDbCircle
 10
145.0
 20
45.8
 30
0.0
 40
4.799999999999998
100
AcDbArc
 50
26.547173
 51
109.815006
  0
ARC
  5
1C9C1
330
1C8D9
100
AcDbEntity
  8
1
  6
Continuous
100
AcDbCircle
 10
145.0
 20
45.8
 30
0.0
 40
2.2
100
AcDbArc
 50
38.111406
 51
109.815006
  0
ARC
  5
1C9C2
330
1C8D9
100
AcDbEntity
  8
1
  6
Continuous
100
AcDbCircle
 10
120.0
 20
45.8
 30
0.0
 40
4.799999999999998
100
AcDbArc
 50
26.547173
 51
109.815006
  0
ARC
  5
1C9C3
330
1C8D9
100
AcDbEntity
  8
1
  6
Continuous
100
AcDbCircle
 10
120.0
 20
45.8
 30
0.0
 40
2.2
100
AcDbArc
 50
38.111406
 51
109.815006
  0
LINE
  5
1C9C4
330
1C8D9
100
AcDbEntity
  8
1
  6
Continuous
100
AcDbLine
 10
145.10608
 20
97.545286
 30
0.0
 11
138.527125
 21
99.91580200000001
 31
0.0
  0
LINE
  5
1C9C5
330
1C8D9
100
AcDbEntity
  8
1
  6
Continuous
100
AcDbLine
 10
143.3899749999999
 20
95.4
 30
0.0
 11
137.6457659999998
 21
97.46974200000003
 31
0.0
  0
LINE
  5
1C9C6
330
1C8D9
100
AcDbEntity
  8
1
  6
Continuous
100
AcDbLine
 10
145.5847349999999
 20
96.190811
 30
0.0
 11
137.6457659999998
 21
93.33025799999999
 31
0.0
  0
LINE
  5
1C9C7
330
1C8D9
100
AcDbEntity
  8
1
  6
Continuous
100
AcDbLine
 10
146.4660939999999
 20
93.744752
 30
0.0
 11
138.527125
 21
90.884198
 31
0.0
  0
LINE
  5
1C9C8
330
1C8D9
100
AcDbEntity
  8
4
  6
CENTER
100
AcDbLine
 10
307.2
 20
95.4
 30
0.0
 11
89.59999999999999
 21
95.4
 31
0.0
  0
ARC
  5
1C9C9
330
1C8D9
100
AcDbEntity
  8
1
  6
Continuous
100
AcDbCircle
 10
274.3999999999999
 20
95.4
 30
0.0
 40
4.799999999999998
100
AcDbArc
 50
206.5471729999999
 51
289.8150059999998
  0
ARC
  5
1C9CA
330
1C8D9
100
AcDbEntity
  8
1
  6
Continuous
100
AcDbCircle
 10
274.3999999999999
 20
95.4
 30
0.0
 40
4.799999999999998
100
AcDbArc
 50
70.18499399999999
 51
174.6998869999999
  0
ARC
  5
1C9CB
330
1C8D9
100
AcDbEntity
  8
1
  6
Continuous
100
AcDbCircle
 10
273.4999999999998
 20
88.09999999999998
 30
0.0
 40
8.599999999999997
100
AcDbArc
 50
90.0
 51
109.815006
  0
LINE
  5
1C9CC
330
1C8D9
100
AcDbEntity
  8
1
  6
Continuous
100
AcDbLine
 10
271.4660939999999
 20
93.744752
 30
0.0
 11
263.527125
 21
90.884198
 31
0.0
  0
LINE
  5
1C9CD
330
1C8D9
100
AcDbEntity
  8
1
  6
Continuous
100
AcDbLine
 10
282.6060799999999
 20
97.545286
 30
0.0
 11
276.027125
 21
99.91580200000001
 31
0.0
  0
ARC
  5
1C9CE
330
1C8D9
100
AcDbEntity
  8
1
  6
Continuous
100
AcDbCircle
 10
286.8999999999999
 20
95.4
 30
0.0
 40
4.799999999999998
100
AcDbArc
 50
70.18499399999999
 51
174.6998869999999
  0
LINE
  5
1C9CF
330
1C8D9
100
AcDbEntity
  8
1
  6
Continuous
100
AcDbLine
 10
296.4660939999999
 20
97.05524799999999
 30
0.0
 11
288.527125
 21
99.91580200000001
 31
0.0
  0
ARC
  5
1C9D0
330
1C8D9
100
AcDbEntity
  8
1
  6
Continuous
100
AcDbCircle
 10
286.0
 20
95.4
 30
0.0
 40
1.3
100
AcDbArc
 50
270.0
 51
90.0
  0
ARC
  5
1C9D1
330
1C8D9
100
AcDbEntity
  8
1
  6
Continuous
100
AcDbCircle
 10
286.8999999999999
 20
95.4
 30
0.0
 40
2.2
100
AcDbArc
 50
218.111406
 51
289.8150059999998
  0
ARC
  5
1C9D2
330
1C8D9
100
AcDbEntity
  8
1
  6
Continuous
100
AcDbCircle
 10
286.8999999999999
 20
95.4
 30
0.0
 40
2.2
100
AcDbArc
 50
70.18499399999999
 51
145.319125
  0
ARC
  5
1C9D3
330
1C8D9
100
AcDbEntity
  8
1
  6
Continuous
100
AcDbCircle
 10
286.8999999999999
 20
95.4
 30
0.0
 40
4.799999999999998
100
AcDbArc
 50
206.5471729999999
 51
289.8150059999998
  0
ARC
  5
1C9D4
330
1C8D9
100
AcDbEntity
  8
1
  6
Continuous
100
AcDbCircle
 10
298.4999999999999
 20
95.4
 30
0.0
 40
1.3
100
AcDbArc
 50
270.0
 51
90.0
  0
ARC
  5
1C9D5
330
1C8D9
100
AcDbEntity
  8
1
  6
Continuous
100
AcDbCircle
 10
298.4999999999999
 20
88.09999999999998
 30
0.0
 40
6.0
100
AcDbArc
 50
90.0
 51
109.815006
  0
ARC
  5
1C9D6
330
1C8D9
100
AcDbEntity
  8
1
  6
Continuous
100
AcDbCircle
 10
298.4999999999999
 20
88.09999999999998
 30
0.0
 40
8.599999999999997
100
AcDbArc
 50
90.0
 51
109.815006
  0
ARC
  5
1C9D7
330
1C8D9
100
AcDbEntity
  8
1
  6
Continuous
100
AcDbCircle
 10
298.4999999999999
 20
102.7
 30
0.0
 40
6.0
100
AcDbArc
 50
250.184994
 51
270.0
  0
LINE
  5
1C9D8
330
1C8D9
100
AcDbEntity
  8
1
  6
Continuous
100
AcDbLine
 10
296.4660939999999
 20
93.744752
 30
0.0
 11
288.527125
 21
90.884198
 31
0.0
  0
LINE
  5
1C9D9
330
1C8D9
100
AcDbEntity
  8
1
  6
Continuous
100
AcDbLine
 10
295.584735
 20
96.190811
 30
0.0
 11
287.6457659999999
 21
93.33025799999999
 31
0.0
  0
LINE
  5
1C9DA
330
1C8D9
100
AcDbEntity
  8
1
  6
Continuous
100
AcDbLine
 10
293.389975
 20
95.4
 30
0.0
 11
287.6457659999999
 21
97.46974200000003
 31
0.0
  0
ARC
  5
1C9DB
330
1C8D9
100
AcDbEntity
  8
1
  6
Continuous
100
AcDbCircle
 10
273.4999999999998
 20
102.7
 30
0.0
 40
6.0
100
AcDbArc
 50
262.0390709999999
 51
270.0
  0
ARC
  5
1C9DC
330
1C8D9
100
AcDbEntity
  8
1
  6
Continuous
100
AcDbCircle
 10
273.4999999999998
 20
95.4
 30
0.0
 40
1.3
100
AcDbArc
 50
270.0
 51
90.0
  0
ARC
  5
1C9DD
330
1C8D9
100
AcDbEntity
  8
1
  6
Continuous
100
AcDbCircle
 10
274.3999999999999
 20
95.4
 30
0.0
 40
2.2
100
AcDbArc
 50
218.111406
 51
289.8150059999998
  0
ARC
  5
1C9DE
330
1C8D9
100
AcDbEntity
  8
1
  6
Continuous
100
AcDbCircle
 10
274.3999999999999
 20
95.4
 30
0.0
 40
2.2
100
AcDbArc
 50
70.18499399999999
 51
145.319125
  0
ARC
  5
1C9DF
330
1C8D9
100
AcDbEntity
  8
1
  6
Continuous
100
AcDbCircle
 10
286.0
 20
102.7
 30
0.0
 40
6.0
100
AcDbArc
 50
262.0390709999999
 51
270.0
  0
LINE
  5
1C9E0
330
1C8D9
100
AcDbEntity
  8
1
  6
Continuous
100
AcDbLine
 10
280.889975
 20
95.4
 30
0.0
 11
275.1457659999999
 21
97.46974200000003
 31
0.0
  0
LINE
  5
1C9E1
330
1C8D9
100
AcDbEntity
  8
1
  6
Continuous
100
AcDbLine
 10
283.084735
 20
96.190811
 30
0.0
 11
275.1457659999999
 21
93.33025799999999
 31
0.0
  0
ARC
  5
1C9E2
330
1C8D9
100
AcDbEntity
  8
1
  6
Continuous
100
AcDbCircle
 10
286.0
 20
88.09999999999998
 30
0.0
 40
8.599999999999997
100
AcDbArc
 50
90.0
 51
109.815006
  0
LINE
  5
1C9E3
330
1C8D9
100
AcDbEntity
  8
1
  6
Continuous
100
AcDbLine
 10
283.9660939999999
 20
93.744752
 30
0.0
 11
276.027125
 21
90.884198
 31
0.0
  0
ARC
  5
1C9E4
330
1C8D9
100
AcDbEntity
  8
1
  6
Continuous
100
AcDbCircle
 10
286.0
 20
88.09999999999998
 30
0.0
 40
6.0
100
AcDbArc
 50
90.0
 51
109.815006
  0
ARC
  5
1C9E5
330
1C8D9
100
AcDbEntity
  8
1
  6
Continuous
100
AcDbCircle
 10
273.4999999999998
 20
88.09999999999998
 30
0.0
 40
6.0
100
AcDbArc
 50
90.0
 51
109.815006
  0
LINE
  5
1C9E6
330
1C8D9
100
AcDbEntity
  8
1
  6
Continuous
100
AcDbLine
 10
208.0847349999999
 20
96.190811
 30
0.0
 11
200.1457659999999
 21
93.33025799999999
 31
0.0
  0
LINE
  5
1C9E7
330
1C8D9
100
AcDbEntity
  8
1
  6
Continuous
100
AcDbLine
 10
208.9660939999999
 20
93.744752
 30
0.0
 11
201.027125
 21
90.884198
 31
0.0
  0
LINE
  5
1C9E8
330
1C8D9
100
AcDbEntity
  8
1
  6
Continuous
100
AcDbLine
 10
207.60608
 20
97.545286
 30
0.0
 11
201.027125
 21
99.91580200000001
 31
0.0
  0
ARC
  5
1C9E9
330
1C8D9
100
AcDbEntity
  8
1
  6
Continuous
100
AcDbCircle
 10
211.9
 20
95.4
 30
0.0
 40
4.799999999999998
100
AcDbArc
 50
70.18499399999999
 51
174.6998869999999
  0
LINE
  5
1C9EA
330
1C8D9
100
AcDbEntity
  8
1
  6
Continuous
100
AcDbLine
 10
270.1060799999999
 20
97.545286
 30
0.0
 11
263.527125
 21
99.91580200000001
 31
0.0
  0
LINE
  5
1C9EB
330
1C8D9
100
AcDbEntity
  8
1
  6
Continuous
100
AcDbLine
 10
245.10608
 20
97.545286
 30
0.0
 11
238.527125
 21
99.91580200000001
 31
0.0
  0
ARC
  5
1C9EC
330
1C8D9
100
AcDbEntity
  8
1
  6
Continuous
100
AcDbCircle
 10
249.4
 20
95.4
 30
0.0
 40
4.799999999999998
100
AcDbArc
 50
70.18499399999999
 51
174.6998869999999
  0
LINE
  5
1C9ED
330
1C8D9
100
AcDbEntity
  8
1
  6
Continuous
100
AcDbLine
 10
220.10608
 20
97.545286
 30
0.0
 11
213.527125
 21
99.91580200000001
 31
0.0
  0
ARC
  5
1C9EE
330
1C8D9
100
AcDbEntity
  8
1
  6
Continuous
100
AcDbCircle
 10
224.4
 20
95.4
 30
0.0
 40
4.799999999999998
100
AcDbArc
 50
70.18499399999999
 51
174.6998869999999
  0
LINE
  5
1C9EF
330
1C8D9
100
AcDbEntity
  8
1
  6
Continuous
100
AcDbLine
 10
257.6060799999999
 20
97.545286
 30
0.0
 11
251.027125
 21
99.91580200000001
 31
0.0
  0
ARC
  5
1C9F0
330
1C8D9
100
AcDbEntity
  8
1
  6
Continuous
100
AcDbCircle
 10
261.8999999999999
 20
95.4
 30
0.0
 40
4.799999999999998
100
AcDbArc
 50
70.18499399999999
 51
174.6998869999999
  0
LINE
  5
1C9F1
330
1C8D9
100
AcDbEntity
  8
1
  6
Continuous
100
AcDbLine
 10
232.60608
 20
97.545286
 30
0.0
 11
226.027125
 21
99.91580200000001
 31
0.0
  0
ARC
  5
1C9F2
330
1C8D9
100
AcDbEntity
  8
1
  6
Continuous
100
AcDbCircle
 10
236.9
 20
95.4
 30
0.0
 40
4.799999999999998
100
AcDbArc
 50
70.18499399999999
 51
174.6998869999999
  0
LINE
  5
1C9F3
330
1C8D9
100
AcDbEntity
  8
1
  6
Continuous
100
AcDbLine
 10
246.4660939999999
 20
93.744752
 30
0.0
 11
238.527125
 21
90.884198
 31
0.0
  0
LINE
  5
1C9F4
330
1C8D9
100
AcDbEntity
  8
1
  6
Continuous
100
AcDbLine
 10
245.5847349999999
 20
96.190811
 30
0.0
 11
237.645766
 21
93.33025799999999
 31
0.0
  0
LINE
  5
1C9F5
330
1C8D9
100
AcDbEntity
  8
1
  6
Continuous
100
AcDbLine
 10
243.389975
 20
95.4
 30
0.0
 11
237.645766
 21
97.46974200000003
 31
0.0
  0
LINE
  5
1C9F6
330
1C8D9
100
AcDbEntity
  8
1
  6
Continuous
100
AcDbLine
 10
255.889975
 20
95.4
 30
0.0
 11
250.145766
 21
97.46974200000003
 31
0.0
  0
LINE
  5
1C9F7
330
1C8D9
100
AcDbEntity
  8
1
  6
Continuous
100
AcDbLine
 10
258.084735
 20
96.190811
 30
0.0
 11
250.145766
 21
93.33025799999999
 31
0.0
  0
LINE
  5
1C9F8
330
1C8D9
100
AcDbEntity
  8
1
  6
Continuous
100
AcDbLine
 10
258.9660939999999
 20
93.744752
 30
0.0
 11
251.027125
 21
90.884198
 31
0.0
  0
ARC
  5
1C9F9
330
1C8D9
100
AcDbEntity
  8
1
  6
Continuous
100
AcDbCircle
 10
261.0
 20
95.4
 30
0.0
 40
1.3
100
AcDbArc
 50
270.0
 51
90.0
  0
ARC
  5
1C9FA
330
1C8D9
100
AcDbEntity
  8
1
  6
Continuous
100
AcDbCircle
 10
261.8999999999999
 20
95.4
 30
0.0
 40
2.2
100
AcDbArc
 50
218.111406
 51
289.8150059999998
  0
ARC
  5
1C9FB
330
1C8D9
100
AcDbEntity
  8
1
  6
Continuous
100
AcDbCircle
 10
261.8999999999999
 20
95.4
 30
0.0
 40
2.2
100
AcDbArc
 50
70.18499399999999
 51
145.319125
  0
ARC
  5
1C9FC
330
1C8D9
100
AcDbEntity
  8
1
  6
Continuous
100
AcDbCircle
 10
261.8999999999999
 20
95.4
 30
0.0
 40
4.799999999999998
100
AcDbArc
 50
206.5471729999999
 51
289.8150059999998
  0
ARC
  5
1C9FD
330
1C8D9
100
AcDbEntity
  8
1
  6
Continuous
100
AcDbCircle
 10
261.0
 20
102.7
 30
0.0
 40
6.0
100
AcDbArc
 50
262.0390709999999
 51
270.0
  0
ARC
  5
1C9FE
330
1C8D9
100
AcDbEntity
  8
1
  6
Continuous
100
AcDbCircle
 10
261.0
 20
88.09999999999998
 30
0.0
 40
8.599999999999997
100
AcDbArc
 50
90.0
 51
109.815006
  0
ARC
  5
1C9FF
330
1C8D9
100
AcDbEntity
  8
1
  6
Continuous
100
AcDbCircle
 10
261.0
 20
88.09999999999998
 30
0.0
 40
6.0
100
AcDbArc
 50
90.0
 51
109.815006
  0
LINE
  5
1CA00
330
1C8D9
100
AcDbEntity
  8
1
  6
Continuous
100
AcDbLine
 10
270.584735
 20
96.190811
 30
0.0
 11
262.6457659999999
 21
93.33025799999999
 31
0.0
  0
LINE
  5
1CA01
330
1C8D9
100
AcDbEntity
  8
1
  6
Continuous
100
AcDbLine
 10
268.389975
 20
95.4
 30
0.0
 11
262.6457659999999
 21
97.46974200000003
 31
0.0
  0
ARC
  5
1CA02
330
1C8D9
100
AcDbEntity
  8
1
  6
Continuous
100
AcDbCircle
 10
248.4999999999998
 20
102.7
 30
0.0
 40
6.0
100
AcDbArc
 50
262.0390709999999
 51
270.0
  0
ARC
  5
1CA03
330
1C8D9
100
AcDbEntity
  8
1
  6
Continuous
100
AcDbCircle
 10
248.4999999999998
 20
95.4
 30
0.0
 40
1.3
100
AcDbArc
 50
270.0
 51
90.0
  0
ARC
  5
1CA04
330
1C8D9
100
AcDbEntity
  8
1
  6
Continuous
100
AcDbCircle
 10
249.4
 20
95.4
 30
0.0
 40
2.2
100
AcDbArc
 50
218.111406
 51
289.8150059999998
  0
ARC
  5
1CA05
330
1C8D9
100
AcDbEntity
  8
1
  6
Continuous
100
AcDbCircle
 10
249.4
 20
95.4
 30
0.0
 40
2.2
100
AcDbArc
 50
70.18499399999999
 51
145.319125
  0
ARC
  5
1CA06
330
1C8D9
100
AcDbEntity
  8
1
  6
Continuous
100
AcDbCircle
 10
249.4
 20
95.4
 30
0.0
 40
4.799999999999998
100
AcDbArc
 50
206.5471729999999
 51
289.8150059999998
  0
ARC
  5
1CA07
330
1C8D9
100
AcDbEntity
  8
1
  6
Continuous
100
AcDbCircle
 10
248.4999999999998
 20
88.09999999999998
 30
0.0
 40
6.0
100
AcDbArc
 50
90.0
 51
109.815006
  0
ARC
  5
1CA08
330
1C8D9
100
AcDbEntity
  8
1
  6
Continuous
100
AcDbCircle
 10
248.4999999999998
 20
88.09999999999998
 30
0.0
 40
8.599999999999997
100
AcDbArc
 50
90.0
 51
109.815006
  0
ARC
  5
1CA09
330
1C8D9
100
AcDbEntity
  8
1
  6
Continuous
100
AcDbCircle
 10
223.4999999999998
 20
102.7
 30
0.0
 40
6.0
100
AcDbArc
 50
262.0390709999999
 51
270.0
  0
ARC
  5
1CA0A
330
1C8D9
100
AcDbEntity
  8
1
  6
Continuous
100
AcDbCircle
 10
224.4
 20
95.4
 30
0.0
 40
2.2
100
AcDbArc
 50
218.111406
 51
289.8150059999998
  0
ARC
  5
1CA0B
330
1C8D9
100
AcDbEntity
  8
1
  6
Continuous
100
AcDbCircle
 10
224.4
 20
95.4
 30
0.0
 40
2.2
100
AcDbArc
 50
70.18499399999999
 51
145.319125
  0
ARC
  5
1CA0C
330
1C8D9
100
AcDbEntity
  8
1
  6
Continuous
100
AcDbCircle
 10
224.4
 20
95.4
 30
0.0
 40
4.799999999999998
100
AcDbArc
 50
206.5471729999999
 51
289.8150059999998
  0
ARC
  5
1CA0D
330
1C8D9
100
AcDbEntity
  8
1
  6
Continuous
100
AcDbCircle
 10
223.4999999999998
 20
88.09999999999998
 30
0.0
 40
6.0
100
AcDbArc
 50
90.0
 51
109.815006
  0
ARC
  5
1CA0E
330
1C8D9
100
AcDbEntity
  8
1
  6
Continuous
100
AcDbCircle
 10
223.4999999999998
 20
88.09999999999998
 30
0.0
 40
8.599999999999997
100
AcDbArc
 50
90.0
 51
109.815006
  0
ARC
  5
1CA0F
330
1C8D9
100
AcDbEntity
  8
1
  6
Continuous
100
AcDbCircle
 10
223.4999999999998
 20
95.4
 30
0.0
 40
1.3
100
AcDbArc
 50
270.0
 51
90.0
  0
ARC
  5
1CA10
330
1C8D9
100
AcDbEntity
  8
1
  6
Continuous
100
AcDbCircle
 10
236.0
 20
95.4
 30
0.0
 40
1.3
100
AcDbArc
 50
270.0
 51
90.0
  0
ARC
  5
1CA11
330
1C8D9
100
AcDbEntity
  8
1
  6
Continuous
100
AcDbCircle
 10
236.9
 20
95.4
 30
0.0
 40
2.2
100
AcDbArc
 50
218.111406
 51
289.8150059999998
  0
ARC
  5
1CA12
330
1C8D9
100
AcDbEntity
  8
1
  6
Continuous
100
AcDbCircle
 10
236.9
 20
95.4
 30
0.0
 40
2.2
100
AcDbArc
 50
70.18499399999999
 51
145.319125
  0
ARC
  5
1CA13
330
1C8D9
100
AcDbEntity
  8
1
  6
Continuous
100
AcDbCircle
 10
236.9
 20
95.4
 30
0.0
 40
4.799999999999998
100
AcDbArc
 50
206.5471729999999
 51
289.8150059999998
  0
ARC
  5
1CA14
330
1C8D9
100
AcDbEntity
  8
1
  6
Continuous
100
AcDbCircle
 10
236.0
 20
102.7
 30
0.0
 40
6.0
100
AcDbArc
 50
262.0390709999999
 51
270.0
  0
LINE
  5
1CA15
330
1C8D9
100
AcDbEntity
  8
1
  6
Continuous
100
AcDbLine
 10
230.889975
 20
95.4
 30
0.0
 11
225.145766
 21
97.46974200000003
 31
0.0
  0
LINE
  5
1CA16
330
1C8D9
100
AcDbEntity
  8
1
  6
Continuous
100
AcDbLine
 10
233.0847349999999
 20
96.190811
 30
0.0
 11
225.145766
 21
93.33025799999999
 31
0.0
  0
ARC
  5
1CA17
330
1C8D9
100
AcDbEntity
  8
1
  6
Continuous
100
AcDbCircle
 10
236.0
 20
88.09999999999998
 30
0.0
 40
8.599999999999997
100
AcDbArc
 50
90.0
 51
109.815006
  0
LINE
  5
1CA18
330
1C8D9
100
AcDbEntity
  8
1
  6
Continuous
100
AcDbLine
 10
233.9660939999999
 20
93.744752
 30
0.0
 11
226.027125
 21
90.884198
 31
0.0
  0
ARC
  5
1CA19
330
1C8D9
100
AcDbEntity
  8
1
  6
Continuous
100
AcDbCircle
 10
236.0
 20
88.09999999999998
 30
0.0
 40
6.0
100
AcDbArc
 50
90.0
 51
109.815006
  0
ARC
  5
1CA1A
330
1C8D9
100
AcDbEntity
  8
1
  6
Continuous
100
AcDbCircle
 10
211.0
 20
95.4
 30
0.0
 40
1.3
100
AcDbArc
 50
270.0
 51
90.0
  0
ARC
  5
1CA1B
330
1C8D9
100
AcDbEntity
  8
1
  6
Continuous
100
AcDbCircle
 10
211.9
 20
95.4
 30
0.0
 40
2.2
100
AcDbArc
 50
218.111406
 51
289.8150059999998
  0
ARC
  5
1CA1C
330
1C8D9
100
AcDbEntity
  8
1
  6
Continuous
100
AcDbCircle
 10
211.9
 20
95.4
 30
0.0
 40
2.2
100
AcDbArc
 50
70.18499399999999
 51
145.319125
  0
ARC
  5
1CA1D
330
1C8D9
100
AcDbEntity
  8
1
  6
Continuous
100
AcDbCircle
 10
211.9
 20
95.4
 30
0.0
 40
4.799999999999998
100
AcDbArc
 50
206.5471729999999
 51
289.8150059999998
  0
ARC
  5
1CA1E
330
1C8D9
100
AcDbEntity
  8
1
  6
Continuous
100
AcDbCircle
 10
211.0
 20
102.7
 30
0.0
 40
6.0
100
AcDbArc
 50
262.0390709999999
 51
270.0
  0
ARC
  5
1CA1F
330
1C8D9
100
AcDbEntity
  8
1
  6
Continuous
100
AcDbCircle
 10
211.0
 20
88.09999999999998
 30
0.0
 40
8.599999999999997
100
AcDbArc
 50
90.0
 51
109.815006
  0
ARC
  5
1CA20
330
1C8D9
100
AcDbEntity
  8
1
  6
Continuous
100
AcDbCircle
 10
211.0
 20
88.09999999999998
 30
0.0
 40
6.0
100
AcDbArc
 50
90.0
 51
109.815006
  0
LINE
  5
1CA21
330
1C8D9
100
AcDbEntity
  8
1
  6
Continuous
100
AcDbLine
 10
221.4660939999999
 20
93.744752
 30
0.0
 11
213.527125
 21
90.884198
 31
0.0
  0
LINE
  5
1CA22
330
1C8D9
100
AcDbEntity
  8
1
  6
Continuous
100
AcDbLine
 10
220.5847349999999
 20
96.190811
 30
0.0
 11
212.645766
 21
93.33025799999999
 31
0.0
  0
LINE
  5
1CA23
330
1C8D9
100
AcDbEntity
  8
1
  6
Continuous
100
AcDbLine
 10
218.389975
 20
95.4
 30
0.0
 11
212.645766
 21
97.46974200000003
 31
0.0
  0
LINE
  5
1CA24
330
1C8D9
100
AcDbEntity
  8
1
  6
Continuous
100
AcDbLine
 10
195.10608
 20
97.545286
 30
0.0
 11
188.527125
 21
99.91580200000001
 31
0.0
  0
ARC
  5
1CA25
330
1C8D9
100
AcDbEntity
  8
1
  6
Continuous
100
AcDbCircle
 10
199.3999999999998
 20
95.4
 30
0.0
 40
4.799999999999998
100
AcDbArc
 50
70.18499399999999
 51
174.6998869999999
  0
LINE
  5
1CA26
330
1C8D9
100
AcDbEntity
  8
1
  6
Continuous
100
AcDbLine
 10
170.10608
 20
97.545286
 30
0.0
 11
163.527125
 21
99.91580200000001
 31
0.0
  0
ARC
  5
1CA27
330
1C8D9
100
AcDbEntity
  8
1
  6
Continuous
100
AcDbCircle
 10
174.3999999999998
 20
95.4
 30
0.0
 40
4.799999999999998
100
AcDbArc
 50
70.18499399999999
 51
174.6998869999999
  0
ARC
  5
1CA28
330
1C8D9
100
AcDbEntity
  8
1
  6
Continuous
100
AcDbCircle
 10
149.3999999999998
 20
95.4
 30
0.0
 40
4.799999999999998
100
AcDbArc
 50
70.18499399999999
 51
174.6998869999999
  0
ARC
  5
1CA29
330
1C8D9
100
AcDbEntity
  8
1
  6
Continuous
100
AcDbCircle
 10
186.8999999999998
 20
95.4
 30
0.0
 40
4.799999999999998
100
AcDbArc
 50
70.18499399999999
 51
174.6998869999999
  0
LINE
  5
1CA2A
330
1C8D9
100
AcDbEntity
  8
1
  6
Continuous
100
AcDbLine
 10
182.60608
 20
97.545286
 30
0.0
 11
176.027125
 21
99.91580200000001
 31
0.0
  0
ARC
  5
1CA2B
330
1C8D9
100
AcDbEntity
  8
1
  6
Continuous
100
AcDbCircle
 10
161.8999999999998
 20
95.4
 30
0.0
 40
4.799999999999998
100
AcDbArc
 50
70.18499399999999
 51
174.6998869999999
  0
LINE
  5
1CA2C
330
1C8D9
100
AcDbEntity
  8
1
  6
Continuous
100
AcDbLine
 10
157.60608
 20
97.545286
 30
0.0
 11
151.027125
 21
99.91580200000001
 31
0.0
  0
ARC
  5
1CA2D
330
1C8D9
100
AcDbEntity
  8
1
  6
Continuous
100
AcDbCircle
 10
174.3999999999998
 20
95.4
 30
0.0
 40
2.2
100
AcDbArc
 50
218.111406
 51
289.8150059999998
  0
ARC
  5
1CA2E
330
1C8D9
100
AcDbEntity
  8
1
  6
Continuous
100
AcDbCircle
 10
174.3999999999998
 20
95.4
 30
0.0
 40
2.2
100
AcDbArc
 50
70.18499399999999
 51
145.319125
  0
ARC
  5
1CA2F
330
1C8D9
100
AcDbEntity
  8
1
  6
Continuous
100
AcDbCircle
 10
174.3999999999998
 20
95.4
 30
0.0
 40
4.799999999999998
100
AcDbArc
 50
206.5471729999999
 51
289.8150059999998
  0
LINE
  5
1CA30
330
1C8D9
100
AcDbEntity
  8
1
  6
Continuous
100
AcDbLine
 10
193.3899749999999
 20
95.4
 30
0.0
 11
187.6457659999999
 21
97.46974200000003
 31
0.0
  0
LINE
  5
1CA31
330
1C8D9
100
AcDbEntity
  8
1
  6
Continuous
100
AcDbLine
 10
195.5847349999999
 20
96.190811
 30
0.0
 11
187.6457659999999
 21
93.33025799999999
 31
0.0
  0
LINE
  5
1CA32
330
1C8D9
100
AcDbEntity
  8
1
  6
Continuous
100
AcDbLine
 10
196.466094
 20
93.744752
 30
0.0
 11
188.527125
 21
90.884198
 31
0.0
  0
ARC
  5
1CA33
330
1C8D9
100
AcDbEntity
  8
1
  6
Continuous
100
AcDbCircle
 10
198.5
 20
102.7
 30
0.0
 40
6.0
100
AcDbArc
 50
262.0390709999999
 51
270.0
  0
ARC
  5
1CA34
330
1C8D9
100
AcDbEntity
  8
1
  6
Continuous
100
AcDbCircle
 10
198.5
 20
95.4
 30
0.0
 40
1.3
100
AcDbArc
 50
270.0
 51
90.0
  0
ARC
  5
1CA35
330
1C8D9
100
AcDbEntity
  8
1
  6
Continuous
100
AcDbCircle
 10
199.3999999999998
 20
95.4
 30
0.0
 40
2.2
100
AcDbArc
 50
218.111406
 51
289.8150059999998
  0
ARC
  5
1CA36
330
1C8D9
100
AcDbEntity
  8
1
  6
Continuous
100
AcDbCircle
 10
199.3999999999998
 20
95.4
 30
0.0
 40
2.2
100
AcDbArc
 50
70.18499399999999
 51
145.319125
  0
ARC
  5
1CA37
330
1C8D9
100
AcDbEntity
  8
1
  6
Continuous
100
AcDbCircle
 10
199.3999999999998
 20
95.4
 30
0.0
 40
4.799999999999998
100
AcDbArc
 50
206.5471729999999
 51
289.8150059999998
  0
LINE
  5
1CA38
330
1C8D9
100
AcDbEntity
  8
1
  6
Continuous
100
AcDbLine
 10
205.889975
 20
95.4
 30
0.0
 11
200.1457659999999
 21
97.46974200000003
 31
0.0
  0
ARC
  5
1CA39
330
1C8D9
100
AcDbEntity
  8
1
  6
Continuous
100
AcDbCircle
 10
198.5
 20
88.09999999999998
 30
0.0
 40
8.599999999999997
100
AcDbArc
 50
90.0
 51
109.815006
  0
ARC
  5
1CA3A
330
1C8D9
100
AcDbEntity
  8
1
  6
Continuous
100
AcDbCircle
 10
198.5
 20
88.09999999999998
 30
0.0
 40
6.0
100
AcDbArc
 50
90.0
 51
109.815006
  0
ARC
  5
1CA3B
330
1C8D9
100
AcDbEntity
  8
1
  6
Continuous
100
AcDbCircle
 10
186.0
 20
88.09999999999998
 30
0.0
 40
6.0
100
AcDbArc
 50
90.0
 51
109.815006
  0
LINE
  5
1CA3C
330
1C8D9
100
AcDbEntity
  8
1
  6
Continuous
100
AcDbLine
 10
183.9660939999999
 20
93.744752
 30
0.0
 11
176.027125
 21
90.884198
 31
0.0
  0
ARC
  5
1CA3D
330
1C8D9
100
AcDbEntity
  8
1
  6
Continuous
100
AcDbCircle
 10
186.0
 20
88.09999999999998
 30
0.0
 40
8.599999999999997
100
AcDbArc
 50
90.0
 51
109.815006
  0
LINE
  5
1CA3E
330
1C8D9
100
AcDbEntity
  8
1
  6
Continuous
100
AcDbLine
 10
183.0847349999999
 20
96.190811
 30
0.0
 11
175.1457659999999
 21
93.33025799999999
 31
0.0
  0
LINE
  5
1CA3F
330
1C8D9
100
AcDbEntity
  8
1
  6
Continuous
100
AcDbLine
 10
180.8899749999999
 20
95.4
 30
0.0
 11
175.1457659999999
 21
97.46974200000003
 31
0.0
  0
ARC
  5
1CA40
330
1C8D9
100
AcDbEntity
  8
1
  6
Continuous
100
AcDbCircle
 10
186.0
 20
102.7
 30
0.0
 40
6.0
100
AcDbArc
 50
262.0390709999999
 51
270.0
  0
ARC
  5
1CA41
330
1C8D9
100
AcDbEntity
  8
1
  6
Continuous
100
AcDbCircle
 10
186.8999999999998
 20
95.4
 30
0.0
 40
4.799999999999998
100
AcDbArc
 50
206.5471729999999
 51
289.8150059999998
  0
ARC
  5
1CA42
330
1C8D9
100
AcDbEntity
  8
1
  6
Continuous
100
AcDbCircle
 10
186.8999999999998
 20
95.4
 30
0.0
 40
2.2
100
AcDbArc
 50
70.18499399999999
 51
145.319125
  0
ARC
  5
1CA43
330
1C8D9
100
AcDbEntity
  8
1
  6
Continuous
100
AcDbCircle
 10
186.8999999999998
 20
95.4
 30
0.0
 40
2.2
100
AcDbArc
 50
218.111406
 51
289.8150059999998
  0
ARC
  5
1CA44
330
1C8D9
100
AcDbEntity
  8
1
  6
Continuous
100
AcDbCircle
 10
186.0
 20
95.4
 30
0.0
 40
1.3
100
AcDbArc
 50
270.0
 51
90.0
  0
LINE
  5
1CA45
330
1C8D9
100
AcDbEntity
  8
1
  6
Continuous
100
AcDbLine
 10
158.9660939999999
 20
93.744752
 30
0.0
 11
151.027125
 21
90.884198
 31
0.0
  0
ARC
  5
1CA46
330
1C8D9
100
AcDbEntity
  8
1
  6
Continuous
100
AcDbCircle
 10
161.0
 20
88.09999999999998
 30
0.0
 40
8.599999999999997
100
AcDbArc
 50
90.0
 51
109.815006
  0
ARC
  5
1CA47
330
1C8D9
100
AcDbEntity
  8
1
  6
Continuous
100
AcDbCircle
 10
161.8999999999998
 20
95.4
 30
0.0
 40
4.799999999999998
100
AcDbArc
 50
206.5471729999999
 51
289.8150059999998
  0
ARC
  5
1CA48
330
1C8D9
100
AcDbEntity
  8
1
  6
Continuous
100
AcDbCircle
 10
173.5
 20
102.7
 30
0.0
 40
6.0
100
AcDbArc
 50
262.0390709999999
 51
270.0
  0
ARC
  5
1CA49
330
1C8D9
100
AcDbEntity
  8
1
  6
Continuous
100
AcDbCircle
 10
173.5
 20
95.4
 30
0.0
 40
1.3
100
AcDbArc
 50
270.0
 51
90.0
  0
ARC
  5
1CA4A
330
1C8D9
100
AcDbEntity
  8
1
  6
Continuous
100
AcDbCircle
 10
161.0
 20
88.09999999999998
 30
0.0
 40
6.0
100
AcDbArc
 50
90.0
 51
109.815006
  0
ARC
  5
1CA4B
330
1C8D9
100
AcDbEntity
  8
1
  6
Continuous
100
AcDbCircle
 10
161.0
 20
102.7
 30
0.0
 40
6.0
100
AcDbArc
 50
262.0390709999999
 51
270.0
  0
LINE
  5
1CA4C
330
1C8D9
100
AcDbEntity
  8
1
  6
Continuous
100
AcDbLine
 10
168.3899749999999
 20
95.4
 30
0.0
 11
162.6457659999998
 21
97.46974200000003
 31
0.0
  0
LINE
  5
1CA4D
330
1C8D9
100
AcDbEntity
  8
1
  6
Continuous
100
AcDbLine
 10
170.5847349999999
 20
96.190811
 30
0.0
 11
162.6457659999998
 21
93.33025799999999
 31
0.0
  0
ARC
  5
1CA4E
330
1C8D9
100
AcDbEntity
  8
1
  6
Continuous
100
AcDbCircle
 10
173.5
 20
88.09999999999998
 30
0.0
 40
8.599999999999997
100
AcDbArc
 50
90.0
 51
109.815006
  0
LINE
  5
1CA4F
330
1C8D9
100
AcDbEntity
  8
1
  6
Continuous
100
AcDbLine
 10
171.4660939999999
 20
93.744752
 30
0.0
 11
163.527125
 21
90.884198
 31
0.0
  0
ARC
  5
1CA50
330
1C8D9
100
AcDbEntity
  8
1
  6
Continuous
100
AcDbCircle
 10
173.5
 20
88.09999999999998
 30
0.0
 40
6.0
100
AcDbArc
 50
90.0
 51
109.815006
  0
ARC
  5
1CA51
330
1C8D9
100
AcDbEntity
  8
1
  6
Continuous
100
AcDbCircle
 10
161.8999999999998
 20
95.4
 30
0.0
 40
2.2
100
AcDbArc
 50
70.18499399999999
 51
145.319125
  0
ARC
  5
1CA52
330
1C8D9
100
AcDbEntity
  8
1
  6
Continuous
100
AcDbCircle
 10
161.8999999999998
 20
95.4
 30
0.0
 40
2.2
100
AcDbArc
 50
218.111406
 51
289.8150059999998
  0
ARC
  5
1CA53
330
1C8D9
100
AcDbEntity
  8
1
  6
Continuous
100
AcDbCircle
 10
161.0
 20
95.4
 30
0.0
 40
1.3
100
AcDbArc
 50
270.0
 51
90.0
  0
ARC
  5
1CA54
330
1C8D9
100
AcDbEntity
  8
1
  6
Continuous
100
AcDbCircle
 10
148.5
 20
102.7
 30
0.0
 40
6.0
100
AcDbArc
 50
262.0390709999999
 51
270.0
  0
ARC
  5
1CA55
330
1C8D9
100
AcDbEntity
  8
1
  6
Continuous
100
AcDbCircle
 10
148.5
 20
95.4
 30
0.0
 40
1.3
100
AcDbArc
 50
270.0
 51
90.0
  0
ARC
  5
1CA56
330
1C8D9
100
AcDbEntity
  8
1
  6
Continuous
100
AcDbCircle
 10
149.3999999999998
 20
95.4
 30
0.0
 40
2.2
100
AcDbArc
 50
218.111406
 51
289.8150059999998
  0
ARC
  5
1CA57
330
1C8D9
100
AcDbEntity
  8
1
  6
Continuous
100
AcDbCircle
 10
149.3999999999998
 20
95.4
 30
0.0
 40
2.2
100
AcDbArc
 50
70.18499399999999
 51
145.319125
  0
ARC
  5
1CA58
330
1C8D9
100
AcDbEntity
  8
1
  6
Continuous
100
AcDbCircle
 10
149.3999999999998
 20
95.4
 30
0.0
 40
4.799999999999998
100
AcDbArc
 50
206.5471729999999
 51
289.8150059999998
  0
LINE
  5
1CA59
330
1C8D9
100
AcDbEntity
  8
1
  6
Continuous
100
AcDbLine
 10
158.0847349999999
 20
96.190811
 30
0.0
 11
150.1457659999998
 21
93.33025799999999
 31
0.0
  0
LINE
  5
1CA5A
330
1C8D9
100
AcDbEntity
  8
1
  6
Continuous
100
AcDbLine
 10
155.8899749999999
 20
95.4
 30
0.0
 11
150.1457659999998
 21
97.46974200000003
 31
0.0
  0
ARC
  5
1CA5B
330
1C8D9
100
AcDbEntity
  8
1
  6
Continuous
100
AcDbCircle
 10
148.5
 20
88.09999999999998
 30
0.0
 40
8.599999999999997
100
AcDbArc
 50
90.0
 51
109.815006
  0
ARC
  5
1CA5C
330
1C8D9
100
AcDbEntity
  8
1
  6
Continuous
100
AcDbCircle
 10
148.5
 20
88.09999999999998
 30
0.0
 40
6.0
100
AcDbArc
 50
90.0
 51
109.815006
  0
LINE
  5
1CA5D
330
1C8D9
100
AcDbEntity
  8
1
  6
Continuous
100
AcDbLine
 10
120.10608
 20
97.545286
 30
0.0
 11
113.5271249999999
 21
99.91580200000001
 31
0.0
  0
ARC
  5
1CA5E
330
1C8D9
100
AcDbEntity
  8
1
  6
Continuous
100
AcDbCircle
 10
124.3999999999999
 20
95.4
 30
0.0
 40
4.799999999999998
100
AcDbArc
 50
70.18499399999999
 51
174.6998869999999
  0
ARC
  5
1CA5F
330
1C8D9
100
AcDbEntity
  8
1
  6
Continuous
100
AcDbCircle
 10
136.8999999999997
 20
95.4
 30
0.0
 40
4.799999999999998
100
AcDbArc
 50
70.18499399999999
 51
174.6998869999999
  0
LINE
  5
1CA60
330
1C8D9
100
AcDbEntity
  8
1
  6
Continuous
100
AcDbLine
 10
132.60608
 20
97.545286
 30
0.0
 11
126.0271249999999
 21
99.91580200000001
 31
0.0
  0
LINE
  5
1CA61
330
1C8D9
100
AcDbEntity
  8
1
  6
Continuous
100
AcDbLine
 10
107.60608
 20
97.545286
 30
0.0
 11
101.0271249999999
 21
99.91580200000001
 31
0.0
  0
ARC
  5
1CA62
330
1C8D9
100
AcDbEntity
  8
1
  6
Continuous
100
AcDbCircle
 10
111.8999999999999
 20
95.4
 30
0.0
 40
4.799999999999998
100
AcDbArc
 50
70.18499399999999
 51
174.6998869999999
  0
ARC
  5
1CA63
330
1C8D9
100
AcDbEntity
  8
1
  6
Continuous
100
AcDbCircle
 10
99.40000000000001
 20
95.4
 30
0.0
 40
4.799999999999998
100
AcDbArc
 50
70.18499399999999
 51
289.8150059999998
  0
ARC
  5
1CA64
330
1C8D9
100
AcDbEntity
  8
1
  6
Continuous
100
AcDbCircle
 10
111.0
 20
95.4
 30
0.0
 40
1.3
100
AcDbArc
 50
270.0
 51
90.0
  0
ARC
  5
1CA65
330
1C8D9
100
AcDbEntity
  8
1
  6
Continuous
100
AcDbCircle
 10
111.8999999999999
 20
95.4
 30
0.0
 40
2.2
100
AcDbArc
 50
218.111406
 51
289.8150059999998
  0
ARC
  5
1CA66
330
1C8D9
100
AcDbEntity
  8
1
  6
Continuous
100
AcDbCircle
 10
111.8999999999999
 20
95.4
 30
0.0
 40
2.2
100
AcDbArc
 50
70.18499399999999
 51
145.319125
  0
ARC
  5
1CA67
330
1C8D9
100
AcDbEntity
  8
1
  6
Continuous
100
AcDbCircle
 10
111.8999999999999
 20
95.4
 30
0.0
 40
4.799999999999998
100
AcDbArc
 50
206.5471729999999
 51
289.8150059999998
  0
LINE
  5
1CA68
330
1C8D9
100
AcDbEntity
  8
1
  6
Continuous
100
AcDbLine
 10
133.9660939999999
 20
93.744752
 30
0.0
 11
126.0271249999999
 21
90.884198
 31
0.0
  0
LINE
  5
1CA69
330
1C8D9
100
AcDbEntity
  8
1
  6
Continuous
100
AcDbLine
 10
133.0847349999999
 20
96.190811
 30
0.0
 11
125.145766
 21
93.33025799999999
 31
0.0
  0
LINE
  5
1CA6A
330
1C8D9
100
AcDbEntity
  8
1
  6
Continuous
100
AcDbLine
 10
130.8899749999999
 20
95.4
 30
0.0
 11
125.145766
 21
97.46974200000003
 31
0.0
  0
ARC
  5
1CA6B
330
1C8D9
100
AcDbEntity
  8
1
  6
Continuous
100
AcDbCircle
 10
136.0
 20
88.09999999999998
 30
0.0
 40
6.0
100
AcDbArc
 50
90.0
 51
109.815006
  0
ARC
  5
1CA6C
330
1C8D9
100
AcDbEntity
  8
1
  6
Continuous
100
AcDbCircle
 10
136.0
 20
88.09999999999998
 30
0.0
 40
8.599999999999997
100
AcDbArc
 50
90.0
 51
109.815006
  0
ARC
  5
1CA6D
330
1C8D9
100
AcDbEntity
  8
1
  6
Continuous
100
AcDbCircle
 10
136.0
 20
102.7
 30
0.0
 40
6.0
100
AcDbArc
 50
262.0390709999999
 51
270.0
  0
ARC
  5
1CA6E
330
1C8D9
100
AcDbEntity
  8
1
  6
Continuous
100
AcDbCircle
 10
136.8999999999997
 20
95.4
 30
0.0
 40
4.799999999999998
100
AcDbArc
 50
206.5471729999999
 51
289.8150059999998
  0
ARC
  5
1CA6F
330
1C8D9
100
AcDbEntity
  8
1
  6
Continuous
100
AcDbCircle
 10
136.8999999999997
 20
95.4
 30
0.0
 40
2.2
100
AcDbArc
 50
70.18499399999999
 51
145.319125
  0
ARC
  5
1CA70
330
1C8D9
100
AcDbEntity
  8
1
  6
Continuous
100
AcDbCircle
 10
136.8999999999997
 20
95.4
 30
0.0
 40
2.2
100
AcDbArc
 50
218.111406
 51
289.8150059999998
  0
ARC
  5
1CA71
330
1C8D9
100
AcDbEntity
  8
1
  6
Continuous
100
AcDbCircle
 10
136.0
 20
95.4
 30
0.0
 40
1.3
100
AcDbArc
 50
270.0
 51
90.0
  0
ARC
  5
1CA72
330
1C8D9
100
AcDbEntity
  8
1
  6
Continuous
100
AcDbCircle
 10
123.5
 20
102.7
 30
0.0
 40
6.0
100
AcDbArc
 50
262.0390709999999
 51
270.0
  0
ARC
  5
1CA73
330
1C8D9
100
AcDbEntity
  8
1
  6
Continuous
100
AcDbCircle
 10
123.5
 20
95.4
 30
0.0
 40
1.3
100
AcDbArc
 50
270.0
 51
90.0
  0
ARC
  5
1CA74
330
1C8D9
100
AcDbEntity
  8
1
  6
Continuous
100
AcDbCircle
 10
124.3999999999999
 20
95.4
 30
0.0
 40
2.2
100
AcDbArc
 50
218.111406
 51
289.8150059999998
  0
ARC
  5
1CA75
330
1C8D9
100
AcDbEntity
  8
1
  6
Continuous
100
AcDbCircle
 10
124.3999999999999
 20
95.4
 30
0.0
 40
2.2
100
AcDbArc
 50
70.18499399999999
 51
145.319125
  0
ARC
  5
1CA76
330
1C8D9
100
AcDbEntity
  8
1
  6
Continuous
100
AcDbCircle
 10
124.3999999999999
 20
95.4
 30
0.0
 40
4.799999999999998
100
AcDbArc
 50
206.5471729999999
 51
289.8150059999998
  0
ARC
  5
1CA77
330
1C8D9
100
AcDbEntity
  8
1
  6
Continuous
100
AcDbCircle
 10
123.5
 20
88.09999999999998
 30
0.0
 40
6.0
100
AcDbArc
 50
90.0
 51
109.815006
  0
LINE
  5
1CA78
330
1C8D9
100
AcDbEntity
  8
1
  6
Continuous
100
AcDbLine
 10
121.4660939999999
 20
93.744752
 30
0.0
 11
113.5271249999999
 21
90.884198
 31
0.0
  0
ARC
  5
1CA79
330
1C8D9
100
AcDbEntity
  8
1
  6
Continuous
100
AcDbCircle
 10
123.5
 20
88.09999999999998
 30
0.0
 40
8.599999999999997
100
AcDbArc
 50
90.0
 51
109.815006
  0
LINE
  5
1CA7A
330
1C8D9
100
AcDbEntity
  8
1
  6
Continuous
100
AcDbLine
 10
120.5847349999999
 20
96.190811
 30
0.0
 11
112.645766
 21
93.33025799999999
 31
0.0
  0
LINE
  5
1CA7B
330
1C8D9
100
AcDbEntity
  8
1
  6
Continuous
100
AcDbLine
 10
118.389975
 20
95.4
 30
0.0
 11
112.645766
 21
97.46974200000003
 31
0.0
  0
ARC
  5
1CA7C
330
1C8D9
100
AcDbEntity
  8
1
  6
Continuous
100
AcDbCircle
 10
111.0
 20
102.7
 30
0.0
 40
6.0
100
AcDbArc
 50
262.0390709999999
 51
270.0
  0
LINE
  5
1CA7D
330
1C8D9
100
AcDbEntity
  8
1
  6
Continuous
100
AcDbLine
 10
105.889975
 20
95.4
 30
0.0
 11
100.145766
 21
97.46974200000003
 31
0.0
  0
ARC
  5
1CA7E
330
1C8D9
100
AcDbEntity
  8
1
  6
Continuous
100
AcDbCircle
 10
99.40000000000001
 20
95.4
 30
0.0
 40
2.2
100
AcDbArc
 50
70.18499399999999
 51
289.8150059999998
  0
LINE
  5
1CA7F
330
1C8D9
100
AcDbEntity
  8
1
  6
Continuous
100
AcDbLine
 10
108.0847349999999
 20
96.190811
 30
0.0
 11
100.145766
 21
93.33025799999999
 31
0.0
  0
ARC
  5
1CA80
330
1C8D9
100
AcDbEntity
  8
1
  6
Continuous
100
AcDbCircle
 10
111.0
 20
88.09999999999998
 30
0.0
 40
8.599999999999997
100
AcDbArc
 50
90.0
 51
109.815006
  0
LINE
  5
1CA81
330
1C8D9
100
AcDbEntity
  8
1
  6
Continuous
100
AcDbLine
 10
108.9660939999999
 20
93.744752
 30
0.0
 11
101.0271249999999
 21
90.884198
 31
0.0
  0
ARC
  5
1CA82
330
1C8D9
100
AcDbEntity
  8
1
  6
Continuous
100
AcDbCircle
 10
111.0
 20
88.09999999999998
 30
0.0
 40
6.0
100
AcDbArc
 50
90.0
 51
109.815006
  0
ARC
  5
1CA83
330
1C8D9
100
AcDbEntity
  8
1
  6
Continuous
100
AcDbCircle
 10
363.8999999999999
 20
48.6
 30
0.0
 40
2.0
100
AcDbArc
 50
0.0
 51
114.1767129999999
  0
ARC
  5
1CA84
330
1C8D9
100
AcDbEntity
  8
1
  6
Continuous
100
AcDbCircle
 10
362.3
 20
47.0
 30
0.0
 40
2.5
100
AcDbArc
 50
130.5558599999999
 51
270.0
  0
ARC
  5
1CA85
330
1C8D9
100
AcDbEntity
  8
1
  6
Continuous
100
AcDbCircle
 10
367.176418
 20
41.30170699999999
 30
0.0
 40
10.0
100
AcDbArc
 50
114.1767129999999
 51
130.5558599999999
  0
ARC
  5
1CA86
330
1C8D9
100
AcDbEntity
  8
1
  6
Continuous
100
AcDbCircle
 10
367.176418
 20
41.30170699999999
 30
0.0
 40
7.4
100
AcDbArc
 50
121.590205
 51
132.8511189999999
  0
ARC
  5
1CA87
330
1C8D9
100
AcDbEntity
  8
1
  6
Continuous
100
AcDbCircle
 10
362.8
 20
48.350429
 30
0.0
 40
0.5
100
AcDbArc
 50
0.0
 51
90.0
  0
ARC
  5
1CA88
330
1C8D9
100
AcDbEntity
  8
1
  6
Continuous
100
AcDbCircle
 10
362.7361899999999
 20
46.08814399999999
 30
0.0
 40
0.871171
100
AcDbArc
 50
132.8511189999999
 51
244.7822339999999
  0
ARC
  5
1CA89
330
1C8D9
100
AcDbEntity
  8
1
  6
Continuous
100
AcDbCircle
 10
365.3
 20
43.0
 30
0.0
 40
2.0
100
AcDbArc
 50
180.0
 51
294.176713
  0
ARC
  5
1CA8A
330
1C8D9
100
AcDbEntity
  8
1
  6
Continuous
100
AcDbCircle
 10
366.3999999999999
 20
43.249571
 30
0.0
 40
0.5
100
AcDbArc
 50
180.0
 51
270.0
  0
ARC
  5
1CA8B
330
1C8D9
100
AcDbEntity
  8
1
  6
Continuous
100
AcDbCircle
 10
362.0235819999999
 20
50.298293
 30
0.0
 40
10.0
100
AcDbArc
 50
294.176713
 51
310.55586
  0
ARC
  5
1CA8C
330
1C8D9
100
AcDbEntity
  8
1
  6
Continuous
100
AcDbCircle
 10
366.9
 20
44.59999999999999
 30
0.0
 40
2.5
100
AcDbArc
 50
310.55586
 51
90.0
  0
ARC
  5
1CA8D
330
1C8D9
100
AcDbEntity
  8
1
  6
Continuous
100
AcDbCircle
 10
362.0235819999999
 20
50.298293
 30
0.0
 40
7.4
100
AcDbArc
 50
301.5902049999999
 51
312.8511189999999
  0
ARC
  5
1CA8E
330
1C8D9
100
AcDbEntity
  8
1
  6
Continuous
100
AcDbCircle
 10
366.46381
 20
45.511856
 30
0.0
 40
0.871171
100
AcDbArc
 50
312.8511189999999
 51
64.782234
  0
LINE
  5
1CA8F
330
1C8D9
100
AcDbEntity
  8
1
  6
Continuous
100
AcDbLine
 10
28.5
 20
43.99485099999998
 30
0.0
 11
28.5
 21
44.5
 31
0.0
  0
ARC
  5
1CA90
330
1C8D9
100
AcDbEntity
  8
1
  6
Continuous
100
AcDbCircle
 10
27.5
 20
44.59999999999999
 30
0.0
 40
2.5
100
AcDbArc
 50
90.0
 51
229.44414
  0
LINE
  5
1CA91
330
1C8D9
100
AcDbEntity
  8
1
  6
Continuous
100
AcDbLine
 10
31.1
 20
47.60514899999999
 30
0.0
 11
31.1
 21
47.09999999999999
 31
0.0
  0
LINE
  5
1CA92
330
1C8D9
100
AcDbEntity
  8
4
  6
CENTER
100
AcDbLine
 10
29.8
 20
53.55075799999998
 30
0.0
 11
29.8
 21
38.049242
 31
0.0
  0
ARC
  5
1CA93
330
1C8D9
100
AcDbEntity
  8
1
  6
Continuous
100
AcDbCircle
 10
29.1
 20
43.0
 30
0.0
 40
2.0
100
AcDbArc
 50
245.823287
 51
0.0
  0
ARC
  5
1CA94
330
1C8D9
100
AcDbEntity
  8
1
  6
Continuous
100
AcDbCircle
 10
32.376418
 20
50.298293
 30
0.0
 40
10.0
100
AcDbArc
 50
229.44414
 51
245.823287
  0
ARC
  5
1CA95
330
1C8D9
100
AcDbEntity
  8
1
  6
Continuous
100
AcDbCircle
 10
30.5
 20
48.6
 30
0.0
 40
2.0
100
AcDbArc
 50
65.82328699999999
 51
180.0
  0
LINE
  5
1CA96
330
1C8D9
100
AcDbEntity
  8
1
  6
Continuous
100
AcDbLine
 10
27.5
 20
47.09999999999999
 30
0.0
 11
32.034981
 21
47.09999999999999
 31
0.0
  0
ARC
  5
1CA97
330
1C8D9
100
AcDbEntity
  8
1
  6
Continuous
100
AcDbCircle
 10
27.223582
 20
41.30170699999999
 30
0.0
 40
7.4
100
AcDbArc
 50
51.58705799999999
 51
68.07491699999999
  0
LINE
  5
1CA98
330
1C8D9
100
AcDbEntity
  8
1
  6
Continuous
100
AcDbLine
 10
32.1
 20
44.5
 30
0.0
 11
27.56501899999999
 21
44.5
 31
0.0
  0
LINE
  5
1CA99
330
1C8D9
100
AcDbEntity
  8
4
  6
CENTER
100
AcDbLine
 10
37.46749499999999
 20
45.8
 30
0.0
 11
22.132505
 21
45.8
 31
0.0
  0
ARC
  5
1CA9A
330
1C8D9
100
AcDbEntity
  8
1
  6
Continuous
100
AcDbCircle
 10
32.1
 20
47.0
 30
0.0
 40
2.5
100
AcDbArc
 50
270.0
 51
49.44414000000001
  0
ARC
  5
1CA9B
330
1C8D9
100
AcDbEntity
  8
1
  6
Continuous
100
AcDbCircle
 10
27.223582
 20
41.30170699999999
 30
0.0
 40
10.0
100
AcDbArc
 50
49.44414000000001
 51
65.82328699999999
  0
LINE
  5
1CA9C
330
1C8D9
100
AcDbEntity
  8
1
  6
Continuous
100
AcDbLine
 10
28.5
 20
47.09999999999999
 30
0.0
 11
28.5
 21
48.6
 31
0.0
  0
LINE
  5
1CA9D
330
1C8D9
100
AcDbEntity
  8
1
  6
Continuous
100
AcDbLine
 10
28.5
 20
44.5
 30
0.0
 11
28.5
 21
43.99485099999998
 31
0.0
  0
ARC
  5
1CA9E
330
1C8D9
100
AcDbEntity
  8
1
  6
Continuous
100
AcDbCircle
 10
32.034981
 20
47.6
 30
0.0
 40
0.5
100
AcDbArc
 50
270.0
 51
0.0
  0
ARC
  5
1CA9F
330
1C8D9
100
AcDbEntity
  8
1
  6
Continuous
100
AcDbCircle
 10
29.8
 20
47.70265
 30
0.0
 40
0.5
100
AcDbArc
 50
68.07491699999999
 51
180.0
  0
ARC
  5
1CAA0
330
1C8D9
100
AcDbEntity
  8
1
  6
Continuous
100
AcDbCircle
 10
32.376418
 20
50.298293
 30
0.0
 40
7.4
100
AcDbArc
 50
231.587058
 51
248.074917
  0
ARC
  5
1CAA1
330
1C8D9
100
AcDbEntity
  8
1
  6
Continuous
100
AcDbCircle
 10
29.8
 20
43.89735
 30
0.0
 40
0.5
100
AcDbArc
 50
248.074917
 51
0.0
  0
LINE
  5
1CAA2
330
1C8D9
100
AcDbEntity
  8
1
  6
Continuous
100
AcDbLine
 10
28.5
 20
43.99485099999998
 30
0.0
 11
28.5
 21
44.5
 31
0.0
  0
ARC
  5
1CAA3
330
1C8D9
100
AcDbEntity
  8
1
  6
Continuous
100
AcDbCircle
 10
27.56501899999999
 20
44.0
 30
0.0
 40
0.5
100
AcDbArc
 50
90.0
 51
180.0
  0
LINE
  5
1CAA4
330
1C8D9
100
AcDbEntity
  8
1
  6
Continuous
100
AcDbLine
 10
31.1
 20
44.5
 30
0.0
 11
31.1
 21
43.0
 31
0.0
  0
ENDSEC
  0
SECTION
  2
OBJECTS
  0
DICTIONARY
  5
1C8C7
330
0
100
AcDbDictionary
281
     1
  3
ACAD_CIP_PREVIOUS_PRODUCT_INFO
350
1CB04
  3
ACAD_COLOR
350
1CAE6
  3
ACAD_DETAILVIEWSTYLE
350
1CAFF
  3
ACAD_GROUP
350
1C8C8
  3
ACAD_LAYOUT
350
1C8D4
  3
ACAD_MATERIAL
350
1CAB4
  3
ACAD_MLEADERSTYLE
350
1CAFB
  3
ACAD_MLINESTYLE
350
1C8D1
  3
ACAD_PLOTSETTINGS
350
1C8D3
  3
ACAD_PLOTSTYLENAME
350
1CAB2
  3
ACAD_SCALELIST
350
1CAE9
  3
ACAD_SECTIONVIEWSTYLE
350
1CAFD
  3
ACAD_TABLESTYLE
350
1CAE7
  3
ACAD_VISUALSTYLE
350
1CACD
  3
ACDB_RECOMPOSE_DATA
350
1CB22
  3
AcDbVariableDictionary
350
1CB15
  3
DWGPROPS
350
1CB23
  0
DICTIONARY
  5
1CB05
330
1C8CB
100
AcDbDictionary
280
     1
281
     1
  3
ADSK_XREC_LAYER_RECONCILED
360
1CB06
  0
DICTIONARY
  5
1CB07
330
1C8E1
100
AcDbDictionary
280
     1
281
     1
  3
ADSK_XREC_LAYER_RECONCILED
360
1CB08
  0
DICTIONARY
  5
1CB09
330
1C8E2
100
AcDbDictionary
280
     1
281
     1
  3
ADSK_XREC_LAYER_RECONCILED
360
1CB0A
  0
DICTIONARY
  5
1CB0B
330
1C8E3
100
AcDbDictionary
280
     1
281
     1
  3
ADSK_XREC_LAYER_RECONCILED
360
1CB0C
  0
DICTIONARY
  5
1CB0D
330
1C8E4
100
AcDbDictionary
280
     1
281
     1
  3
ADSK_XREC_LAYER_RECONCILED
360
1CB0E
  0
DICTIONARY
  5
1CB0F
330
1C8E5
100
AcDbDictionary
280
     1
281
     1
  3
ADSK_XREC_LAYER_RECONCILED
360
1CB10
  0
DICTIONARY
  5
1CB11
330
1C8E6
100
AcDbDictionary
280
     1
281
     1
  3
ADSK_XREC_LAYER_RECONCILED
360
1CB12
  0
DICTIONARY
  5
1CB13
330
1C8E7
100
AcDbDictionary
280
     1
281
     1
  3
ADSK_XREC_LAYER_RECONCILED
360
1CB14
  0
DICTIONARY
  5
1CAAD
330
1C8D9
100
AcDbDictionary
281
     1
  3
ACAD_LAYOUTSELFREF
350
1CAAE
  0
DICTIONARY
  5
1CAAB
330
1C8D5
100
AcDbDictionary
281
     1
  3
ACAD_LAYOUTSELFREF
350
1CAAC
  0
XRECORD
  5
1CB04
102
{ACAD_REACTORS
330
1C8C7
102
}
330
1C8C7
100
AcDbXrecord
280
     1
300
ACDLT
300
2014
300
ACDLT_F_S
  0
DICTIONARY
  5
1CAE6
102
{ACAD_REACTORS
330
1C8C7
102
}
330
1C8C7
100
AcDbDictionary
281
     1
  0
DICTIONARY
  5
1CAFF
102
{ACAD_REACTORS
330
1C8C7
102
}
330
1C8C7
100
AcDbDictionary
281
     1
  3
Imperial24
350
1CB00
  0
DICTIONARY
  5
1C8C8
102
{ACAD_REACTORS
330
1C8C7
102
}
330
1C8C7
100
AcDbDictionary
281
     1
  0
DICTIONARY
  5
1C8D4
102
{ACAD_REACTORS
330
1C8C7
102
}
330
1C8C7
100
AcDbDictionary
281
     1
  3
Model
350
1CB01
  3
レイアウト1
350
1CB02
  0
DICTIONARY
  5
1CAB4
102
{ACAD_REACTORS
330
1C8C7
102
}
330
1C8C7
100
AcDbDictionary
281
     1
  3
ByBlock
350
1CABD
  3
ByLayer
350
1CAB5
  3
Global
350
1CAC5
  0
DICTIONARY
  5
1CAFB
102
{ACAD_REACTORS
330
1C8C7
102
}
330
1C8C7
100
AcDbDictionary
281
     1
  3
Standard
350
1CAFC
  0
DICTIONARY
  5
1C8D1
102
{ACAD_REACTORS
330
1C8C7
102
}
330
1C8C7
100
AcDbDictionary
281
     1
  3
STANDARD
350
1C8D2
  0
DICTIONARY
  5
1C8D3
102
{ACAD_REACTORS
330
1C8C7
102
}
330
1C8C7
100
AcDbDictionary
281
     1
  0
ACDBDICTIONARYWDFLT
  5
1CAB2
102
{ACAD_REACTORS
330
1C8C7
102
}
330
1C8C7
100
AcDbDictionary
281
     1
  3
Normal
350
1CAB3
100
AcDbDictionaryWithDefault
340
1CAB3
  0
DICTIONARY
  5
1CAE9
102
{ACAD_REACTORS
330
1C8C7
102
}
330
1C8C7
100
AcDbDictionary
281
     1
  3
A0
350
1CAEA
  3
A1
350
1CAEB
  3
A2
350
1CAEC
  3
A3
350
1CAED
  3
A4
350
1CAEE
  3
A5
350
1CAEF
  3
A6
350
1CAF0
  3
A7
350
1CAF1
  3
A8
350
1CAF2
  3
A9
350
1CAF3
  3
B0
350
1CAF4
  3
B1
350
1CAF5
  3
B2
350
1CAF6
  3
B3
350
1CAF7
  3
B4
350
1CAF8
  3
B5
350
1CAF9
  3
B6
350
1CAFA
  0
DICTIONARY
  5
1CAFD
102
{ACAD_REACTORS
330
1C8C7
102
}
330
1C8C7
100
AcDbDictionary
281
     1
  3
Imperial24
350
1CAFE
  0
DICTIONARY
  5
1CAE7
102
{ACAD_REACTORS
330
1C8C7
102
}
330
1C8C7
100
AcDbDictionary
281
     1
  3
Standard
350
1CAE8
  0
DICTIONARY
  5
1CACD
102
{ACAD_REACTORS
330
1C8C7
102
}
330
1C8C7
100
AcDbDictionary
281
     1
  3
2dWireframe
350
1CAD3
  3
Basic
350
1CAD2
  3
Brighten
350
1CAD9
  3
ColorChange
350
1CADD
  3
Conceptual
350
1CAD6
  3
Dim
350
1CAD8
  3
EdgeColorOff
350
1CAE5
  3
Facepattern
350
1CADC
  3
Flat
350
1CACE
  3
FlatWithEdges
350
1CACF
  3
Gouraud
350
1CAD0
  3
GouraudWithEdges
350
1CAD1
  3
Hidden
350
1CAD5
  3
JitterOff
350
1CAE3
  3
Linepattern
350
1CADB
  3
OverhangOff
350
1CAE4
  3
Realistic
350
1CAD7
  3
Shaded
350
1CAE2
  3
Shaded with edges
350
1CAE1
  3
Shades of Gray
350
1CADE
  3
Sketchy
350
1CADF
  3
Thicken
350
1CADA
  3
Wireframe
350
1CAD4
  3
X-Ray
350
1CAE0
  0
XRECORD
  5
1CB22
102
{ACAD_REACTORS
330
1C8C7
102
}
330
1C8C7
100
AcDbXrecord
280
     1
 90
        1
330
1CAE8
  0
DICTIONARY
  5
1CB15
102
{ACAD_REACTORS
330
1C8C7
102
}
330
1C8C7
100
AcDbDictionary
281
     1
  3
CANNOSCALE
350
1CB1A
  3
CMLEADERSTYLE
350
1CB17
  3
CTABLESTYLE
350
1CB16
  3
CVIEWDETAILSTYLE
350
1CB18
  3
CVIEWSECTIONSTYLE
350
1CB19
  3
DIMASSOC
350
1CB1D
  3
INDEXCTL
350
1CB1C
  3
SORTENTS
350
1CB1B
  3
XCLIPFRAME
350
1CB1E
  0
XRECORD
  5
1CB23
102
{ACAD_REACTORS
330
1C8C7
102
}
330
1C8C7
100
AcDbXrecord
280
     1
  1
DWGPROPS COOKIE
  2

  3

  4

  6

  7

  8
Yoshitsune
  9

300
=
301
=
302
=
303
=
304
=
305
=
306
=
307
=
308
=
309
=
 40
0.000009375
 41
2451285.442295718
 42
2457192.656756459
  1

 90
        0
  0
XRECORD
  5
1CB06
102
{ACAD_REACTORS
330
1CB05
102
}
330
1CB05
100
AcDbXrecord
280
     1
290
     1
  0
XRECORD
  5
1CB08
102
{ACAD_REACTORS
330
1CB07
102
}
330
1CB07
100
AcDbXrecord
280
     1
290
     1
  0
XRECORD
  5
1CB0A
102
{ACAD_REACTORS
330
1CB09
102
}
330
1CB09
100
AcDbXrecord
280
     1
290
     1
  0
XRECORD
  5
1CB0C
102
{ACAD_REACTORS
330
1CB0B
102
}
330
1CB0B
100
AcDbXrecord
280
     1
290
     1
  0
XRECORD
  5
1CB0E
102
{ACAD_REACTORS
330
1CB0D
102
}
330
1CB0D
100
AcDbXrecord
280
     1
290
     1
  0
XRECORD
  5
1CB10
102
{ACAD_REACTORS
330
1CB0F
102
}
330
1CB0F
100
AcDbXrecord
280
     1
290
     1
  0
XRECORD
  5
1CB12
102
{ACAD_REACTORS
330
1CB11
102
}
330
1CB11
100
AcDbXrecord
280
     1
290
     1
  0
XRECORD
  5
1CB14
102
{ACAD_REACTORS
330
1CB13
102
}
330
1CB13
100
AcDbXrecord
280
     1
290
     1
  0
XRECORD
  5
1CAAE
102
{ACAD_REACTORS
330
1CAAD
102
}
330
1CAAD
100
AcDbXrecord
280
     1
340
1C8D9
  0
XRECORD
  5
1CAAC
102
{ACAD_REACTORS
330
1CAAB
102
}
330
1CAAB
100
AcDbXrecord
280
     1
340
1C8D5
  0
ACDBDETAILVIEWSTYLE
  5
1CB00
102
{ACAD_XDICTIONARY
360
1CB5B
102
}
102
{ACAD_REACTORS
330
1CAFF
102
}
330
1CAFF
100
AcDbModelDocViewStyle
 70
     0
  3
Imperial24
290
     0
100
AcDbDetailViewStyle
 70
     0
 71
     0
 90
        3
 71
     1
340
1C8CC
 40
0.24
340
0
 40
0.24
300

 40
0.36
280
     3
 71
     2
340
1C8D0
 90
       25
 71
     3
340
1C8CC
 40
0.24
 90
        1
 40
0.75
 90
        1
300
%<\AcVar ViewType \f "%tc1">% %<\AcVar ViewDetailId>%\PSCALE %<\AcVar ViewScale \f "%sn">%
 71
     4
340
1C8D0
 90
       25
340
1C8D0
 90
       25
280
     0
  0
LAYOUT
  5
1CB01
102
{ACAD_XDICTIONARY
360
1CB5D
102
}
102
{ACAD_REACTORS
330
1C8D4
102
}
330
1C8D4
100
AcDbPlotSettings
  1

  2
Canon LBP9100C
  4

  6

 40
0.0
 41
0.0
 42
0.0
 43
0.0
 44
0.0
 45
0.0
 46
0.0
 47
0.0
 48
0.0
 49
0.0
140
0.0
141
0.0
142
1.0
143
1.0
 70
  1712
 72
     0
 73
     0
 74
     0
  7

 75
     0
147
1.0
148
0.0
149
0.0
100
AcDbLayout
  1
Model
 70
     1
 71
     0
 10
0.0
 20
0.0
 11
12.0
 21
9.0
 12
0.0
 22
0.0
 32
0.0
 14
0.0
 24
0.0
 34
0.0
 15
0.0
 25
0.0
 35
0.0
146
0.0
 13
0.0
 23
0.0
 33
0.0
 16
1.0
 26
0.0
 36
0.0
 17
0.0
 27
1.0
 37
0.0
 76
     0
330
1C8D9
331
1CAAA
  0
LAYOUT
  5
1CB02
102
{ACAD_XDICTIONARY
360
1CB5F
102
}
102
{ACAD_REACTORS
330
1C8D4
102
}
330
1C8D4
100
AcDbPlotSettings
  1

  2
Canon LBP9100C
  4

  6

 40
0.0
 41
0.0
 42
0.0
 43
0.0
 44
0.0
 45
0.0
 46
0.0
 47
0.0
 48
0.0
 49
0.0
140
0.0
141
0.0
142
1.0
143
1.0
 70
   688
 72
     0
 73
     0
 74
     5
  7

 75
    16
147
1.0
148
0.0
149
0.0
100
AcDbLayout
  1
レイアウト1
 70
     0
 71
     1
 10
0.0
 20
0.0
 11
420.0
 21
297.0
 12
0.0
 22
0.0
 32
0.0
 14
1.000000000000000E+20
 24
1.000000000000000E+20
 34
1.000000000000000E+20
 15
-1.000000000000000E+20
 25
-1.000000000000000E+20
 35
-1.000000000000000E+20
146
0.0
 13
0.0
 23
0.0
 33
0.0
 16
1.0
 26
0.0
 36
0.0
 17
0.0
 27
1.0
 37
0.0
 76
     0
330
1C8D5
  0
MATERIAL
  5
1CABD
102
{ACAD_XDICTIONARY
360
1CABE
102
}
102
{ACAD_REACTORS
330
1CAB4
102
}
330
1CAB4
100
AcDbMaterial
  1
ByBlock
 72
     0
 43
0.0208333333333333
 43
0.0
 43
0.0
 43
0.0
 43
0.0
 43
0.0208333333333333
 43
0.0
 43
0.0
 43
0.0
 43
0.0
 43
1.0
 43
0.0
 43
0.0
 43
0.0
 43
0.0
 43
1.0
 77
     0
 47
0.0208333333333333
 47
0.0
 47
0.0
 47
0.0
 47
0.0
 47
0.0208333333333333
 47
0.0
 47
0.0
 47
0.0
 47
0.0
 47
1.0
 47
0.0
 47
0.0
 47
0.0
 47
0.0
 47
1.0
171
     0
 49
0.0208333333333333
 49
0.0
 49
0.0
 49
0.0
 49
0.0
 49
0.0208333333333333
 49
0.0
 49
0.0
 49
0.0
 49
0.0
 49
1.0
 49
0.0
 49
0.0
 49
0.0
 49
0.0
 49
1.0
175
     0
142
0.0208333333333333
142
0.0
142
0.0
142
0.0
142
0.0
142
0.0208333333333333
142
0.0
142
0.0
142
0.0
142
0.0
142
1.0
142
0.0
142
0.0
142
0.0
142
0.0
142
1.0
179
     0
144
0.0208333333333333
144
0.0
144
0.0
144
0.0
144
0.0
144
0.0208333333333333
144
0.0
144
0.0
144
0.0
144
0.0
144
1.0
144
0.0
144
0.0
144
0.0
144
0.0
144
1.0
147
0.0208333333333333
147
0.0
147
0.0
147
0.0
147
0.0
147
0.0208333333333333
147
0.0
147
0.0
147
0.0
147
0.0
147
1.0
147
0.0
147
0.0
147
0.0
147
0.0
147
1.0
  0
MATERIAL
  5
1CAB5
102
{ACAD_XDICTIONARY
360
1CAB6
102
}
102
{ACAD_REACTORS
330
1CAB4
102
}
330
1CAB4
100
AcDbMaterial
  1
ByLayer
 72
     0
 43
0.0208333333333333
 43
0.0
 43
0.0
 43
0.0
 43
0.0
 43
0.0208333333333333
 43
0.0
 43
0.0
 43
0.0
 43
0.0
 43
1.0
 43
0.0
 43
0.0
 43
0.0
 43
0.0
 43
1.0
 77
     0
 47
0.0208333333333333
 47
0.0
 47
0.0
 47
0.0
 47
0.0
 47
0.0208333333333333
 47
0.0
 47
0.0
 47
0.0
 47
0.0
 47
1.0
 47
0.0
 47
0.0
 47
0.0
 47
0.0
 47
1.0
171
     0
 49
0.0208333333333333
 49
0.0
 49
0.0
 49
0.0
 49
0.0
 49
0.0208333333333333
 49
0.0
 49
0.0
 49
0.0
 49
0.0
 49
1.0
 49
0.0
 49
0.0
 49
0.0
 49
0.0
 49
1.0
175
     0
142
0.0208333333333333
142
0.0
142
0.0
142
0.0
142
0.0
142
0.0208333333333333
142
0.0
142
0.0
142
0.0
142
0.0
142
1.0
142
0.0
142
0.0
142
0.0
142
0.0
142
1.0
179
     0
144
0.0208333333333333
144
0.0
144
0.0
144
0.0
144
0.0
144
0.0208333333333333
144
0.0
144
0.0
144
0.0
144
0.0
144
1.0
144
0.0
144
0.0
144
0.0
144
0.0
144
1.0
147
0.0208333333333333
147
0.0
147
0.0
147
0.0
147
0.0
147
0.0208333333333333
147
0.0
147
0.0
147
0.0
147
0.0
147
1.0
147
0.0
147
0.0
147
0.0
147
0.0
147
1.0
  0
MATERIAL
  5
1CAC5
102
{ACAD_XDICTIONARY
360
1CAC6
102
}
102
{ACAD_REACTORS
330
1CAB4
102
}
330
1CAB4
100
AcDbMaterial
  1
Global
 72
     0
 43
0.0208333333333333
 43
0.0
 43
0.0
 43
0.0
 43
0.0
 43
0.0208333333333333
 43
0.0
 43
0.0
 43
0.0
 43
0.0
 43
1.0
 43
0.0
 43
0.0
 43
0.0
 43
0.0
 43
1.0
 77
     0
 47
0.0208333333333333
 47
0.0
 47
0.0
 47
0.0
 47
0.0
 47
0.0208333333333333
 47
0.0
 47
0.0
 47
0.0
 47
0.0
 47
1.0
 47
0.0
 47
0.0
 47
0.0
 47
0.0
 47
1.0
171
     0
 49
0.0208333333333333
 49
0.0
 49
0.0
 49
0.0
 49
0.0
 49
0.0208333333333333
 49
0.0
 49
0.0
 49
0.0
 49
0.0
 49
1.0
 49
0.0
 49
0.0
 49
0.0
 49
0.0
 49
1.0
175
     0
142
0.0208333333333333
142
0.0
142
0.0
142
0.0
142
0.0
142
0.0208333333333333
142
0.0
142
0.0
142
0.0
142
0.0
142
1.0
142
0.0
142
0.0
142
0.0
142
0.0
142
1.0
179
     0
144
0.0208333333333333
144
0.0
144
0.0
144
0.0
144
0.0
144
0.0208333333333333
144
0.0
144
0.0
144
0.0
144
0.0
144
1.0
144
0.0
144
0.0
144
0.0
144
0.0
144
1.0
147
0.0208333333333333
147
0.0
147
0.0
147
0.0
147
0.0
147
0.0208333333333333
147
0.0
147
0.0
147
0.0
147
0.0
147
1.0
147
0.0
147
0.0
147
0.0
147
0.0
147
1.0
  0
MLEADERSTYLE
  5
1CAFC
102
{ACAD_REACTORS
330
1CAFB
102
}
330
1CAFB
100
AcDbMLeaderStyle
170
     2
171
     1
172
     0
 90
        2
 40
0.0
 41
0.0
173
     1
 91
-1056964608
340
1C8CE
 92
       -2
290
     1
 42
0.09
291
     1
 43
0.36
  3
Standard
 44
0.18
300

342
1C8CC
174
     1
178
     6
175
     1
176
     0
 93
-1056964608
 45
0.18
292
     0
297
     0
 46
0.18
 94
-1056964608
 47
1.0
 49
1.0
140
1.0
293
     1
141
0.0
294
     1
177
     0
142
1.0
295
     0
296
     0
143
0.125
1001
ACAD_MLEADERVER
1070
     2
  0
MLINESTYLE
  5
1C8D2
102
{ACAD_REACTORS
330
1C8D1
102
}
330
1C8D1
100
AcDbMlineStyle
  2
STANDARD
 70
     0
  3

 62
   256
 51
90.0
 52
90.0
 71
     2
 49
0.5
 62
   256
  6
BYLAYER
 49
-0.5
 62
   256
  6
BYLAYER
  0
ACDBPLACEHOLDER
  5
1CAB3
102
{ACAD_REACTORS
330
1CAB2
102
}
330
1CAB2
  0
SCALE
  5
1CAEA
102
{ACAD_REACTORS
330
1CAE9
102
}
330
1CAE9
100
AcDbScale
 70
     0
300
1:1
140
1.0
141
1.0
290
     1
  0
SCALE
  5
1CAEB
102
{ACAD_REACTORS
330
1CAE9
102
}
330
1CAE9
100
AcDbScale
 70
     0
300
1/128" = 1'-0"
140
0.0078125
141
12.0
290
     0
  0
SCALE
  5
1CAEC
102
{ACAD_REACTORS
330
1CAE9
102
}
330
1CAE9
100
AcDbScale
 70
     0
300
1/64" = 1'-0"
140
0.015625
141
12.0
290
     0
  0
SCALE
  5
1CAED
102
{ACAD_REACTORS
330
1CAE9
102
}
330
1CAE9
100
AcDbScale
 70
     0
300
1/32" = 1'-0"
140
0.03125
141
12.0
290
     0
  0
SCALE
  5
1CAEE
102
{ACAD_REACTORS
330
1CAE9
102
}
330
1CAE9
100
AcDbScale
 70
     0
300
1/16" = 1'-0"
140
0.0625
141
12.0
290
     0
  0
SCALE
  5
1CAEF
102
{ACAD_REACTORS
330
1CAE9
102
}
330
1CAE9
100
AcDbScale
 70
     0
300
3/32" = 1'-0"
140
0.09375
141
12.0
290
     0
  0
SCALE
  5
1CAF0
102
{ACAD_REACTORS
330
1CAE9
102
}
330
1CAE9
100
AcDbScale
 70
     0
300
1/8" = 1'-0"
140
0.125
141
12.0
290
     0
  0
SCALE
  5
1CAF1
102
{ACAD_REACTORS
330
1CAE9
102
}
330
1CAE9
100
AcDbScale
 70
     0
300
3/16" = 1'-0"
140
0.1875
141
12.0
290
     0
  0
SCALE
  5
1CAF2
102
{ACAD_REACTORS
330
1CAE9
102
}
330
1CAE9
100
AcDbScale
 70
     0
300
1/4" = 1'-0"
140
0.25
141
12.0
290
     0
  0
SCALE
  5
1CAF3
102
{ACAD_REACTORS
330
1CAE9
102
}
330
1CAE9
100
AcDbScale
 70
     0
300
3/8" = 1'-0"
140
0.375
141
12.0
290
     0
  0
SCALE
  5
1CAF4
102
{ACAD_REACTORS
330
1CAE9
102
}
330
1CAE9
100
AcDbScale
 70
     0
300
1/2" = 1'-0"
140
0.5
141
12.0
290
     0
  0
SCALE
  5
1CAF5
102
{ACAD_REACTORS
330
1CAE9
102
}
330
1CAE9
100
AcDbScale
 70
     0
300
3/4" = 1'-0"
140
0.75
141
12.0
290
     0
  0
SCALE
  5
1CAF6
102
{ACAD_REACTORS
330
1CAE9
102
}
330
1CAE9
100
AcDbScale
 70
     0
300
1" = 1'-0"
140
1.0
141
12.0
290
     0
  0
SCALE
  5
1CAF7
102
{ACAD_REACTORS
330
1CAE9
102
}
330
1CAE9
100
AcDbScale
 70
     0
300
1-1/2" = 1'-0"
140
1.5
141
12.0
290
     0
  0
SCALE
  5
1CAF8
102
{ACAD_REACTORS
330
1CAE9
102
}
330
1CAE9
100
AcDbScale
 70
     0
300
3" = 1'-0"
140
3.0
141
12.0
290
     0
  0
SCALE
  5
1CAF9
102
{ACAD_REACTORS
330
1CAE9
102
}
330
1CAE9
100
AcDbScale
 70
     0
300
6" = 1'-0"
140
6.0
141
12.0
290
     0
  0
SCALE
  5
1CAFA
102
{ACAD_REACTORS
330
1CAE9
102
}
330
1CAE9
100
AcDbScale
 70
     0
300
1'-0" = 1'-0"
140
12.0
141
12.0
290
     0
  0
ACDBSECTIONVIEWSTYLE
  5
1CAFE
102
{ACAD_XDICTIONARY
360
1CB59
102
}
102
{ACAD_REACTORS
330
1CAFD
102
}
330
1CAFD
100
AcDbModelDocViewStyle
 70
     0
  3
Imperial24
290
     0
100
AcDbSectionViewStyle
 70
     0
 71
     0
 90
       78
 71
     1
340
1C8CC
 40
0.24
340
0
340
0
 40
0.24
300
I, O, Q, S, X, Z
 40
0.48
 90
        3
 40
0.18
 90
        1
 71
     2
340
1C8D0
 90
       25
340
1C8D0
 90
       50
 40
0.24
 40
0.0
 40
0.24
 71
     3
340
1C8CC
 40
0.24
 90
        1
 40
0.75
 90
        1
300
%<\AcVar ViewType \f "%tc1">% %<\AcVar ViewSectionStartId>%-%<\AcVar ViewSectionEndId>%\PSCALE %<\AcVar ViewScale \f "%sn">%
 71
     4
300
ANSI31
 40
1.0
 90
        0
290
     0
290
     0
 90
        6
 40
0.0
 40
1.570796326794896
 40
0.2617993877991494
 40
1.308996938995747
 40
-0.2617993877991494
 40
1.832595714594046
  0
TABLESTYLE
  5
1CAE8
102
{ACAD_XDICTIONARY
360
1CB20
102
}
102
{ACAD_REACTORS
330
1CAE7
102
}
330
1CAE7
100
AcDbTableStyle
  3
Standard
 70
     0
 71
     0
 40
0.06
 41
0.06
280
     0
281
     0
  7
STANDARD
140
0.18
170
     2
 62
     0
 63
     7
283
     0
274
    -2
284
     1
 64
     0
275
    -2
285
     1
 65
     0
276
    -2
286
     1
 66
     0
277
    -2
287
     1
 67
     0
278
    -2
288
     1
 68
     0
279
    -2
289
     1
 69
     0
  7
STANDARD
140
0.25
170
     5
 62
     0
 63
     7
283
     0
274
    -2
284
     1
 64
     0
275
    -2
285
     1
 65
     0
276
    -2
286
     1
 66
     0
277
    -2
287
     1
 67
     0
278
    -2
288
     1
 68
     0
279
    -2
289
     1
 69
     0
  7
STANDARD
140
0.18
170
     5
 62
     0
 63
     7
283
     0
274
    -2
284
     1
 64
     0
275
    -2
285
     1
 65
     0
276
    -2
286
     1
 66
     0
277
    -2
287
     1
 67
     0
278
    -2
288
     1
 68
     0
279
    -2
289
     1
 69
     0
  0
VISUALSTYLE
  5
1CAD3
102
{ACAD_XDICTIONARY
360
1CB31
102
}
102
{ACAD_REACTORS
330
1CACD
102
}
330
1CACD
100
AcDbVisualStyle
  2
2dWireframe
 70
     4
 71
     0
 72
     2
 73
     0
 90
        0
 40
-0.6
 41
-30.0
 62
     5
 63
     7
 74
     1
 91
        4
 64
     7
 65
   257
 75
     1
175
     1
 42
1.0
 92
        0
 66
   257
 43
1.0
 76
     1
 77
     6
 78
     2
 67
     7
 79
     5
170
     0
171
     0
290
     0
174
     0
 93
        1
 44
0.0
173
     0
291
     0
 45
0.0
1001
ACAD
1000
AcDbSavedByObjectVersion
1070
     0
  0
VISUALSTYLE
  5
1CAD2
102
{ACAD_XDICTIONARY
360
1CB2F
102
}
102
{ACAD_REACTORS
330
1CACD
102
}
330
1CACD
100
AcDbVisualStyle
  2
Basic
 70
     7
 71
     1
 72
     0
 73
     1
 90
        0
 40
-0.6
 41
-30.0
 62
     5
 63
     7
 74
     0
 91
        4
 64
     7
 65
   257
 75
     1
175
     1
 42
1.0
 92
        8
 66
     7
 43
1.0
 76
     1
 77
     6
 78
     2
 67
     7
 79
     5
170
     0
171
     0
290
     0
174
     0
 93
        1
 44
0.0
173
     0
291
     1
 45
0.0
1001
ACAD
1000
AcDbSavedByObjectVersion
1070
     0
  0
VISUALSTYLE
  5
1CAD9
102
{ACAD_XDICTIONARY
360
1CB3D
102
}
102
{ACAD_REACTORS
330
1CACD
102
}
330
1CACD
100
AcDbVisualStyle
  2
Brighten
 70
    12
 71
     2
 72
     2
 73
     0
 90
        0
 40
-0.6
 41
-30.0
 62
     5
 63
     7
 74
     1
 91
        4
 64
     7
 65
   257
 75
     1
175
     1
 42
1.0
 92
        8
 66
     7
 43
1.0
 76
     1
 77
     6
 78
     2
 67
     7
 79
     5
170
     0
171
     0
290
     0
174
     0
 93
        1
 44
50.0
173
     0
291
     1
 45
0.0
1001
ACAD
1000
AcDbSavedByObjectVersion
1070
     0
  0
VISUALSTYLE
  5
1CADD
102
{ACAD_XDICTIONARY
360
1CB45
102
}
102
{ACAD_REACTORS
330
1CACD
102
}
330
1CACD
100
AcDbVisualStyle
  2
ColorChange
 70
    16
 71
     2
 72
     2
 73
     3
 90
        0
 40
-0.6
 41
-30.0
 62
     5
 63
     8
 74
     1
 91
        4
 64
     7
 65
   257
 75
     1
175
     1
 42
1.0
 92
        8
 66
     8
 43
1.0
 76
     1
 77
     6
 78
     2
 67
     7
 79
     5
170
     0
171
     0
290
     0
174
     0
 93
        1
 44
0.0
173
     0
291
     1
 45
0.0
1001
ACAD
1000
AcDbSavedByObjectVersion
1070
     0
  0
VISUALSTYLE
  5
1CAD6
102
{ACAD_XDICTIONARY
360
1CB37
102
}
102
{ACAD_REACTORS
330
1CACD
102
}
330
1CACD
100
AcDbVisualStyle
  2
Conceptual
 70
     9
 71
     3
 72
     2
 73
     0
 90
        0
 40
-0.6
 41
-30.0
 62
     5
 63
     7
 74
     2
 91
        2
 64
     7
 65
   257
 75
     1
175
     1
 42
179.0
 92
        8
 66
     7
 43
1.0
 76
     1
 77
     6
 78
     2
 67
     7
 79
     3
170
     0
171
     0
290
     0
174
     0
 93
        1
 44
0.0
173
     0
291
     0
 45
0.0
1001
ACAD
1000
AcDbSavedByObjectVersion
1070
     0
  0
VISUALSTYLE
  5
1CAD8
102
{ACAD_XDICTIONARY
360
1CB3B
102
}
102
{ACAD_REACTORS
330
1CACD
102
}
330
1CACD
100
AcDbVisualStyle
  2
Dim
 70
    11
 71
     2
 72
     2
 73
     0
 90
        0
 40
-0.6
 41
-30.0
 62
     5
 63
     7
 74
     1
 91
        4
 64
     7
 65
   257
 75
     1
175
     1
 42
1.0
 92
        8
 66
     7
 43
1.0
 76
     1
 77
     6
 78
     2
 67
     7
 79
     5
170
     0
171
     0
290
     0
174
     0
 93
        1
 44
-50.0
173
     0
291
     1
 45
0.0
1001
ACAD
1000
AcDbSavedByObjectVersion
1070
     0
  0
VISUALSTYLE
  5
1CAE5
102
{ACAD_XDICTIONARY
360
1CB55
102
}
102
{ACAD_REACTORS
330
1CACD
102
}
330
1CACD
100
AcDbVisualStyle
  2
EdgeColorOff
 70
    22
 71
     2
 72
     2
 73
     0
 90
        0
 40
-0.6
 41
-30.0
 62
     5
 63
     7
 74
     1
 91
        4
 64
     7
 65
   257
 75
     1
175
     1
 42
1.0
 92
        8
 66
     7
 43
1.0
 76
     1
 77
     6
 78
     2
 67
     7
 79
     5
170
     0
171
     0
290
     0
174
     0
 93
        1
 44
0.0
173
     0
291
     1
 45
0.0
1001
ACAD
1000
AcDbSavedByObjectVersion
1070
     0
  0
VISUALSTYLE
  5
1CADC
102
{ACAD_XDICTIONARY
360
1CB43
102
}
102
{ACAD_REACTORS
330
1CACD
102
}
330
1CACD
100
AcDbVisualStyle
  2
Facepattern
 70
    15
 71
     2
 72
     2
 73
     0
 90
        0
 40
-0.6
 41
-30.0
 62
     5
 63
     7
 74
     1
 91
        4
 64
     7
 65
   257
 75
     1
175
     1
 42
1.0
 92
        8
 66
     7
 43
1.0
 76
     1
 77
     6
 78
     2
 67
     7
 79
     5
170
     0
171
     0
290
     0
174
     0
 93
        1
 44
0.0
173
     0
291
     1
 45
0.0
1001
ACAD
1000
AcDbSavedByObjectVersion
1070
     0
  0
VISUALSTYLE
  5
1CACE
102
{ACAD_XDICTIONARY
360
1CB27
102
}
102
{ACAD_REACTORS
330
1CACD
102
}
330
1CACD
100
AcDbVisualStyle
  2
Flat
 70
     0
 71
     2
 72
     1
 73
     1
 90
        2
 40
-0.6
 41
30.0
 62
     5
 63
     7
 74
     0
 91
        0
 64
     7
 65
   257
 75
     1
175
     1
 42
1.0
 92
        8
 66
     7
 43
1.0
 76
     1
 77
     6
 78
     2
 67
     7
 79
     5
170
     0
171
     0
290
     0
174
     0
 93
       13
 44
0.0
173
     0
291
     1
 45
0.0
1001
ACAD
1000
AcDbSavedByObjectVersion
1070
     0
  0
VISUALSTYLE
  5
1CACF
102
{ACAD_XDICTIONARY
360
1CB29
102
}
102
{ACAD_REACTORS
330
1CACD
102
}
330
1CACD
100
AcDbVisualStyle
  2
FlatWithEdges
 70
     1
 71
     2
 72
     1
 73
     1
 90
        2
 40
-0.6
 41
30.0
 62
     5
 63
     7
 74
     1
 91
        0
 64
     7
 65
   257
 75
     1
175
     1
 42
1.0
 92
        0
 66
   257
 43
1.0
 76
     1
 77
     6
 78
     2
 67
     7
 79
     5
170
     0
171
     0
290
     0
174
     0
 93
       13
 44
0.0
173
     0
291
     1
 45
0.0
1001
ACAD
1000
AcDbSavedByObjectVersion
1070
     0
  0
VISUALSTYLE
  5
1CAD0
102
{ACAD_XDICTIONARY
360
1CB2B
102
}
102
{ACAD_REACTORS
330
1CACD
102
}
330
1CACD
100
AcDbVisualStyle
  2
Gouraud
 70
     2
 71
     2
 72
     2
 73
     1
 90
        2
 40
-0.6
 41
30.0
 62
     5
 63
     7
 74
     0
 91
        0
 64
     7
 65
   257
 75
     1
175
     1
 42
1.0
 92
        0
 66
     7
 43
1.0
 76
     1
 77
     6
 78
     2
 67
     7
 79
     5
170
     0
171
     0
290
     0
174
     0
 93
       13
 44
0.0
173
     0
291
     1
 45
0.0
1001
ACAD
1000
AcDbSavedByObjectVersion
1070
     0
  0
VISUALSTYLE
  5
1CAD1
102
{ACAD_XDICTIONARY
360
1CB2D
102
}
102
{ACAD_REACTORS
330
1CACD
102
}
330
1CACD
100
AcDbVisualStyle
  2
GouraudWithEdges
 70
     3
 71
     2
 72
     2
 73
     1
 90
        2
 40
-0.6
 41
30.0
 62
     5
 63
     7
 74
     1
 91
        0
 64
     7
 65
   257
 75
     1
175
     1
 42
1.0
 92
        0
 66
   257
 43
1.0
 76
     1
 77
     6
 78
     2
 67
     7
 79
     5
170
     0
171
     0
290
     0
174
     0
 93
       13
 44
0.0
173
     0
291
     1
 45
0.0
1001
ACAD
1000
AcDbSavedByObjectVersion
1070
     0
  0
VISUALSTYLE
  5
1CAD5
102
{ACAD_XDICTIONARY
360
1CB35
102
}
102
{ACAD_REACTORS
330
1CACD
102
}
330
1CACD
100
AcDbVisualStyle
  2
Hidden
 70
     6
 71
     1
 72
     2
 73
     2
 90
        0
 40
-0.6
 41
-30.0
 62
     5
 63
     7
 74
     2
 91
        2
 64
     7
 65
   257
 75
     2
175
     1
 42
40.0
 92
        0
 66
   257
 43
1.0
 76
     1
 77
     6
 78
     2
 67
     7
 79
     3
170
     0
171
     0
290
     0
174
     0
 93
        1
 44
0.0
173
     0
291
     0
 45
0.0
1001
ACAD
1000
AcDbSavedByObjectVersion
1070
     0
  0
VISUALSTYLE
  5
1CAE3
102
{ACAD_XDICTIONARY
360
1CB51
102
}
102
{ACAD_REACTORS
330
1CACD
102
}
330
1CACD
100
AcDbVisualStyle
  2
JitterOff
 70
    20
 71
     2
 72
     2
 73
     0
 90
        0
 40
-0.6
 41
-30.0
 62
     5
 63
     7
 74
     1
 91
        4
 64
     7
 65
   257
 75
     1
175
     1
 42
1.0
 92
       10
 66
     7
 43
1.0
 76
     1
 77
     6
 78
     2
 67
     7
 79
     5
170
     0
171
     0
290
     0
174
     0
 93
        1
 44
0.0
173
     0
291
     1
 45
0.0
1001
ACAD
1000
AcDbSavedByObjectVersion
1070
     0
  0
VISUALSTYLE
  5
1CADB
102
{ACAD_XDICTIONARY
360
1CB41
102
}
102
{ACAD_REACTORS
330
1CACD
102
}
330
1CACD
100
AcDbVisualStyle
  2
Linepattern
 70
    14
 71
     2
 72
     2
 73
     0
 90
        0
 40
-0.6
 41
-30.0
 62
     5
 63
     7
 74
     1
 91
        4
 64
     7
 65
   257
 75
     7
175
     7
 42
1.0
 92
        8
 66
     7
 43
1.0
 76
     1
 77
     6
 78
     2
 67
     7
 79
     5
170
     0
171
     0
290
     0
174
     0
 93
        1
 44
0.0
173
     0
291
     1
 45
0.0
1001
ACAD
1000
AcDbSavedByObjectVersion
1070
     0
  0
VISUALSTYLE
  5
1CAE4
102
{ACAD_XDICTIONARY
360
1CB53
102
}
102
{ACAD_REACTORS
330
1CACD
102
}
330
1CACD
100
AcDbVisualStyle
  2
OverhangOff
 70
    21
 71
     2
 72
     2
 73
     0
 90
        0
 40
-0.6
 41
-30.0
 62
     5
 63
     7
 74
     1
 91
        4
 64
     7
 65
   257
 75
     1
175
     1
 42
1.0
 92
        9
 66
     7
 43
1.0
 76
     1
 77
     6
 78
     2
 67
     7
 79
     5
170
     0
171
     0
290
     0
174
     0
 93
        1
 44
0.0
173
     0
291
     1
 45
0.0
1001
ACAD
1000
AcDbSavedByObjectVersion
1070
     0
  0
VISUALSTYLE
  5
1CAD7
102
{ACAD_XDICTIONARY
360
1CB39
102
}
102
{ACAD_REACTORS
330
1CACD
102
}
330
1CACD
100
AcDbVisualStyle
  2
Realistic
 70
     8
 71
     2
 72
     3
 73
     0
 90
        2
 40
-0.6
 41
30.0
 62
     5
 63
     7
 74
     0
 91
        0
 64
     7
 65
   257
 75
     1
175
     1
 42
1.0
 92
        8
 66
   257
 43
1.0
 76
     1
 77
     6
 78
     2
 67
     7
 79
     3
170
     0
171
     0
290
     0
174
     0
 93
       13
 44
0.0
173
     0
291
     0
 45
0.0
1001
ACAD
1000
AcDbSavedByObjectVersion
1070
     0
  0
VISUALSTYLE
  5
1CAE2
102
{ACAD_XDICTIONARY
360
1CB4F
102
}
102
{ACAD_REACTORS
330
1CACD
102
}
330
1CACD
100
AcDbVisualStyle
  2
Shaded
 70
    27
 71
     2
 72
     2
 73
     1
 90
        2
 40
-0.6
 41
30.0
 62
     5
 63
     7
 74
     0
 91
        4
 64
     7
 65
   257
 75
     1
175
     1
 42
1.0
 92
        8
 66
   257
 43
1.0
 76
     1
 77
     6
 78
     2
 67
     8
 79
     3
170
     0
171
     0
290
     0
174
     0
 93
        5
 44
0.0
173
     0
291
     0
 45
0.0
1001
ACAD
1000
AcDbSavedByObjectVersion
1070
     0
  0
VISUALSTYLE
  5
1CAE1
102
{ACAD_XDICTIONARY
360
1CB4D
102
}
102
{ACAD_REACTORS
330
1CACD
102
}
330
1CACD
100
AcDbVisualStyle
  2
Shaded with edges
 70
    26
 71
     2
 72
     2
 73
     1
 90
        2
 40
-0.6
 41
30.0
 62
     5
 63
     7
 74
     1
 91
       10
 64
     7
 65
   257
 75
     2
175
     1
 42
1.0
 92
        8
 66
   257
 43
1.0
 76
     1
 77
     6
 78
     2
 67
     7
 79
     3
170
     0
171
     0
290
     0
174
     0
 93
        5
 44
0.0
173
     0
291
     0
 45
0.0
1001
ACAD
1000
AcDbSavedByObjectVersion
1070
     0
  0
VISUALSTYLE
  5
1CADE
102
{ACAD_XDICTIONARY
360
1CB47
102
}
102
{ACAD_REACTORS
330
1CACD
102
}
330
1CACD
100
AcDbVisualStyle
  2
Shades of Gray
 70
    23
 71
     2
 72
     2
 73
     3
 90
        0
 40
-0.6
 41
-30.0
 62
     5
 63
     7
 74
     2
 91
        2
 64
     7
 65
     7
 75
     1
175
     1
 42
40.0
 92
        8
 66
     7
 43
1.0
 76
     1
 77
     6
 78
     2
 67
     7
 79
     3
170
     0
171
     0
290
     0
174
     0
 93
        1
 44
0.0
173
     0
291
     0
 45
0.0
1001
ACAD
1000
AcDbSavedByObjectVersion
1070
     0
  0
VISUALSTYLE
  5
1CADF
102
{ACAD_XDICTIONARY
360
1CB49
102
}
102
{ACAD_REACTORS
330
1CACD
102
}
330
1CACD
100
AcDbVisualStyle
  2
Sketchy
 70
    24
 71
     1
 72
     2
 73
     2
 90
        0
 40
-0.6
 41
-30.0
 62
     5
 63
     7
 74
     2
 91
        2
 64
     7
 65
     7
 75
     1
175
     1
 42
40.0
 92
       11
 66
     7
 43
1.0
 76
     1
 77
     6
 78
     2
 67
     7
 79
     6
170
     0
171
     0
290
     0
174
     0
 93
        1
 44
0.0
173
     0
291
     0
 45
0.0
1001
ACAD
1000
AcDbSavedByObjectVersion
1070
     0
  0
VISUALSTYLE
  5
1CADA
102
{ACAD_XDICTIONARY
360
1CB3F
102
}
102
{ACAD_REACTORS
330
1CACD
102
}
330
1CACD
100
AcDbVisualStyle
  2
Thicken
 70
    13
 71
     2
 72
     2
 73
     0
 90
        0
 40
-0.6
 41
-30.0
 62
     5
 63
     7
 74
     1
 91
        4
 64
     7
 65
   257
 75
     1
175
     1
 42
1.0
 92
       12
 66
     7
 43
1.0
 76
     1
 77
     6
 78
     2
 67
     7
 79
     5
170
     0
171
     0
290
     0
174
     0
 93
        1
 44
0.0
173
     0
291
     1
 45
0.0
1001
ACAD
1000
AcDbSavedByObjectVersion
1070
     0
  0
VISUALSTYLE
  5
1CAD4
102
{ACAD_XDICTIONARY
360
1CB33
102
}
102
{ACAD_REACTORS
330
1CACD
102
}
330
1CACD
100
AcDbVisualStyle
  2
Wireframe
 70
     5
 71
     0
 72
     2
 73
     0
 90
        0
 40
-0.6
 41
-30.0
 62
     5
 63
     7
 74
     1
 91
        4
 64
     7
 65
   257
 75
     1
175
     1
 42
1.0
 92
        0
 66
   257
 43
1.0
 76
     1
 77
     6
 78
     2
 67
     7
 79
     3
170
     0
171
     0
290
     0
174
     0
 93
        1
 44
0.0
173
     0
291
     0
 45
0.0
1001
ACAD
1000
AcDbSavedByObjectVersion
1070
     0
  0
VISUALSTYLE
  5
1CAE0
102
{ACAD_XDICTIONARY
360
1CB4B
102
}
102
{ACAD_REACTORS
330
1CACD
102
}
330
1CACD
100
AcDbVisualStyle
  2
X-Ray
 70
    25
 71
     2
 72
     2
 73
     1
 90
        1
 40
0.5
 41
-30.0
 62
     5
 63
     7
 74
     1
 91
        0
 64
     7
 65
   257
 75
     1
175
     1
 42
1.0
 92
        8
 66
     7
 43
1.0
 76
     1
 77
     6
 78
     2
 67
     7
 79
     3
170
     0
171
     0
290
     0
174
     0
 93
       13
 44
0.0
173
     0
291
     0
 45
0.0
1001
ACAD
1000
AcDbSavedByObjectVersion
1070
     0
  0
DICTIONARYVAR
  5
1CB1A
102
{ACAD_REACTORS
330
1CB15
102
}
330
1CB15
100
DictionaryVariables
280
     0
  1
1:1
  0
DICTIONARYVAR
  5
1CB17
102
{ACAD_REACTORS
330
1CB15
102
}
330
1CB15
100
DictionaryVariables
280
     0
  1
STANDARD
  0
DICTIONARYVAR
  5
1CB16
102
{ACAD_REACTORS
330
1CB15
102
}
330
1CB15
100
DictionaryVariables
280
     0
  1
STANDARD
  0
DICTIONARYVAR
  5
1CB18
102
{ACAD_REACTORS
330
1CB15
102
}
330
1CB15
100
DictionaryVariables
280
     0
  1
Imperial24
  0
DICTIONARYVAR
  5
1CB19
102
{ACAD_REACTORS
330
1CB15
102
}
330
1CB15
100
DictionaryVariables
280
     0
  1
Imperial24
  0
DICTIONARYVAR
  5
1CB1D
102
{ACAD_REACTORS
330
1CB15
102
}
330
1CB15
100
DictionaryVariables
280
     0
  1
1
  0
DICTIONARYVAR
  5
1CB1C
102
{ACAD_REACTORS
330
1CB15
102
}
330
1CB15
100
DictionaryVariables
280
     0
  1
0
  0
DICTIONARYVAR
  5
1CB1B
102
{ACAD_REACTORS
330
1CB15
102
}
330
1CB15
100
DictionaryVariables
280
     0
  1
127
  0
DICTIONARYVAR
  5
1CB1E
102
{ACAD_REACTORS
330
1CB15
102
}
330
1CB15
100
DictionaryVariables
280
     0
  1
2
  0
DICTIONARY
  5
1CB5B
330
1CB00
100
AcDbDictionary
280
     1
281
     1
  3
ACAD_XREC_ROUNDTRIP
360
1CB5C
  0
DICTIONARY
  5
1CB5D
330
1CB01
100
AcDbDictionary
280
     1
281
     1
  3
ACAD_XREC_ROUNDTRIP
360
1CB5E
  0
DICTIONARY
  5
1CB5F
330
1CB02
100
AcDbDictionary
280
     1
281
     1
  3
ACAD_XREC_ROUNDTRIP
360
1CB60
  0
DICTIONARY
  5
1CABE
330
1CABD
100
AcDbDictionary
280
     1
281
     1
  3
ACAD_XREC_ROUNDTRIP
360
1CB25
  3
BUMPTILE
360
1CAC0
  3
DIFFUSETILE
360
1CABF
  3
OPACITYTILE
360
1CAC3
  3
REFLECTIONTILE
360
1CAC2
  3
REFRACTIONTILE
360
1CAC4
  3
SPECULARTILE
360
1CAC1
  0
DICTIONARY
  5
1CAB6
330
1CAB5
100
AcDbDictionary
280
     1
281
     1
  3
ACAD_XREC_ROUNDTRIP
360
1CB24
  3
BUMPTILE
360
1CAB8
  3
DIFFUSETILE
360
1CAB7
  3
OPACITYTILE
360
1CABB
  3
REFLECTIONTILE
360
1CABA
  3
REFRACTIONTILE
360
1CABC
  3
SPECULARTILE
360
1CAB9
  0
DICTIONARY
  5
1CAC6
330
1CAC5
100
AcDbDictionary
280
     1
281
     1
  3
ACAD_XREC_ROUNDTRIP
360
1CB26
  3
BUMPTILE
360
1CAC8
  3
DIFFUSETILE
360
1CAC7
  3
OPACITYTILE
360
1CACB
  3
REFLECTIONTILE
360
1CACA
  3
REFRACTIONTILE
360
1CACC
  3
SPECULARTILE
360
1CAC9
  0
DICTIONARY
  5
1CB59
330
1CAFE
100
AcDbDictionary
280
     1
281
     1
  3
ACAD_XREC_ROUNDTRIP
360
1CB5A
  0
DICTIONARY
  5
1CB20
330
1CAE8
100
AcDbDictionary
280
     1
281
     1
  3
ACAD_ROUNDTRIP_2008_TABLESTYLE_CELLSTYLEMAP
360
1CB21
  3
ACAD_XREC_ROUNDTRIP
360
1CB57
  0
DICTIONARY
  5
1CB31
330
1CAD3
100
AcDbDictionary
280
     1
281
     1
  3
ACAD_XREC_ROUNDTRIP
360
1CB32
  0
DICTIONARY
  5
1CB2F
330
1CAD2
100
AcDbDictionary
280
     1
281
     1
  3
ACAD_XREC_ROUNDTRIP
360
1CB30
  0
DICTIONARY
  5
1CB3D
330
1CAD9
100
AcDbDictionary
280
     1
281
     1
  3
ACAD_XREC_ROUNDTRIP
360
1CB3E
  0
DICTIONARY
  5
1CB45
330
1CADD
100
AcDbDictionary
280
     1
281
     1
  3
ACAD_XREC_ROUNDTRIP
360
1CB46
  0
DICTIONARY
  5
1CB37
330
1CAD6
100
AcDbDictionary
280
     1
281
     1
  3
ACAD_XREC_ROUNDTRIP
360
1CB38
  0
DICTIONARY
  5
1CB3B
330
1CAD8
100
AcDbDictionary
280
     1
281
     1
  3
ACAD_XREC_ROUNDTRIP
360
1CB3C
  0
DICTIONARY
  5
1CB55
330
1CAE5
100
AcDbDictionary
280
     1
281
     1
  3
ACAD_XREC_ROUNDTRIP
360
1CB56
  0
DICTIONARY
  5
1CB43
330
1CADC
100
AcDbDictionary
280
     1
281
     1
  3
ACAD_XREC_ROUNDTRIP
360
1CB44
  0
DICTIONARY
  5
1CB27
330
1CACE
100
AcDbDictionary
280
     1
281
     1
  3
ACAD_XREC_ROUNDTRIP
360
1CB28
  0
DICTIONARY
  5
1CB29
330
1CACF
100
AcDbDictionary
280
     1
281
     1
  3
ACAD_XREC_ROUNDTRIP
360
1CB2A
  0
DICTIONARY
  5
1CB2B
330
1CAD0
100
AcDbDictionary
280
     1
281
     1
  3
ACAD_XREC_ROUNDTRIP
360
1CB2C
  0
DICTIONARY
  5
1CB2D
330
1CAD1
100
AcDbDictionary
280
     1
281
     1
  3
ACAD_XREC_ROUNDTRIP
360
1CB2E
  0
DICTIONARY
  5
1CB35
330
1CAD5
100
AcDbDictionary
280
     1
281
     1
  3
ACAD_XREC_ROUNDTRIP
360
1CB36
  0
DICTIONARY
  5
1CB51
330
1CAE3
100
AcDbDictionary
280
     1
281
     1
  3
ACAD_XREC_ROUNDTRIP
360
1CB52
  0
DICTIONARY
  5
1CB41
330
1CADB
100
AcDbDictionary
280
     1
281
     1
  3
ACAD_XREC_ROUNDTRIP
360
1CB42
  0
DICTIONARY
  5
1CB53
330
1CAE4
100
AcDbDictionary
280
     1
281
     1
  3
ACAD_XREC_ROUNDTRIP
360
1CB54
  0
DICTIONARY
  5
1CB39
330
1CAD7
100
AcDbDictionary
280
     1
281
     1
  3
ACAD_XREC_ROUNDTRIP
360
1CB3A
  0
DICTIONARY
  5
1CB4F
330
1CAE2
100
AcDbDictionary
280
     1
281
     1
  3
ACAD_XREC_ROUNDTRIP
360
1CB50
  0
DICTIONARY
  5
1CB4D
330
1CAE1
100
AcDbDictionary
280
     1
281
     1
  3
ACAD_XREC_ROUNDTRIP
360
1CB4E
  0
DICTIONARY
  5
1CB47
330
1CADE
100
AcDbDictionary
280
     1
281
     1
  3
ACAD_XREC_ROUNDTRIP
360
1CB48
  0
DICTIONARY
  5
1CB49
330
1CADF
100
AcDbDictionary
280
     1
281
     1
  3
ACAD_XREC_ROUNDTRIP
360
1CB4A
  0
DICTIONARY
  5
1CB3F
330
1CADA
100
AcDbDictionary
280
     1
281
     1
  3
ACAD_XREC_ROUNDTRIP
360
1CB40
  0
DICTIONARY
  5
1CB33
330
1CAD4
100
AcDbDictionary
280
     1
281
     1
  3
ACAD_XREC_ROUNDTRIP
360
1CB34
  0
DICTIONARY
  5
1CB4B
330
1CAE0
100
AcDbDictionary
280
     1
281
     1
  3
ACAD_XREC_ROUNDTRIP
360
1CB4C
  0
XRECORD
  5
1CB5C
102
{ACAD_REACTORS
330
1CB5B
102
}
330
1CB5B
100
AcDbXrecord
280
     1
102
DISPLAYNAME
  1
Imperial24
102
FLAGS
 90
        0
  0
XRECORD
  5
1CB5E
102
{ACAD_REACTORS
330
1CB5D
102
}
330
1CB5D
100
AcDbXrecord
280
     1
102
SHADEPLOT
 70
     0
102
SHADEPLOTRESLEVEL
 70
     2
102
SHADEPLOTCUSTOMDPI
 70
   300
  0
XRECORD
  5
1CB60
102
{ACAD_REACTORS
330
1CB5F
102
}
330
1CB5F
100
AcDbXrecord
280
     1
102
SHADEPLOT
 70
     0
102
SHADEPLOTRESLEVEL
 70
     2
102
SHADEPLOTCUSTOMDPI
 70
   300
  0
XRECORD
  5
1CB25
102
{ACAD_REACTORS
330
1CABE
102
}
330
1CABE
100
AcDbXrecord
280
     1
102
MATERIAL
148
0.0
149
0.0
149
0.0
 93
        0
 94
      127
282
     0
 72
     0
 77
     0
171
     0
175
     0
179
     0
273
     0
  0
XRECORD
  5
1CAC0
102
{ACAD_REACTORS
330
1CABE
102
}
330
1CABE
100
AcDbXrecord
280
     1
270
     1
271
     1
  0
XRECORD
  5
1CABF
102
{ACAD_REACTORS
330
1CABE
102
}
330
1CABE
100
AcDbXrecord
280
     1
270
     1
271
     1
  0
XRECORD
  5
1CAC3
102
{ACAD_REACTORS
330
1CABE
102
}
330
1CABE
100
AcDbXrecord
280
     1
270
     1
271
     1
  0
XRECORD
  5
1CAC2
102
{ACAD_REACTORS
330
1CABE
102
}
330
1CABE
100
AcDbXrecord
280
     1
270
     1
271
     1
  0
XRECORD
  5
1CAC4
102
{ACAD_REACTORS
330
1CABE
102
}
330
1CABE
100
AcDbXrecord
280
     1
270
     1
271
     1
  0
XRECORD
  5
1CAC1
102
{ACAD_REACTORS
330
1CABE
102
}
330
1CABE
100
AcDbXrecord
280
     1
270
     1
271
     1
  0
XRECORD
  5
1CB24
102
{ACAD_REACTORS
330
1CAB6
102
}
330
1CAB6
100
AcDbXrecord
280
     1
102
MATERIAL
148
0.0
149
0.0
149
0.0
 93
        0
 94
      127
282
     0
 72
     0
 77
     0
171
     0
175
     0
179
     0
273
     0
  0
XRECORD
  5
1CAB8
102
{ACAD_REACTORS
330
1CAB6
102
}
330
1CAB6
100
AcDbXrecord
280
     1
270
     1
271
     1
  0
XRECORD
  5
1CAB7
102
{ACAD_REACTORS
330
1CAB6
102
}
330
1CAB6
100
AcDbXrecord
280
     1
270
     1
271
     1
  0
XRECORD
  5
1CABB
102
{ACAD_REACTORS
330
1CAB6
102
}
330
1CAB6
100
AcDbXrecord
280
     1
270
     1
271
     1
  0
XRECORD
  5
1CABA
102
{ACAD_REACTORS
330
1CAB6
102
}
330
1CAB6
100
AcDbXrecord
280
     1
270
     1
271
     1
  0
XRECORD
  5
1CABC
102
{ACAD_REACTORS
330
1CAB6
102
}
330
1CAB6
100
AcDbXrecord
280
     1
270
     1
271
     1
  0
XRECORD
  5
1CAB9
102
{ACAD_REACTORS
330
1CAB6
102
}
330
1CAB6
100
AcDbXrecord
280
     1
270
     1
271
     1
  0
XRECORD
  5
1CB26
102
{ACAD_REACTORS
330
1CAC6
102
}
330
1CAC6
100
AcDbXrecord
280
     1
102
MATERIAL
148
0.0
149
0.0
149
0.0
 93
        0
 94
      127
282
     0
 72
     0
 77
     0
171
     0
175
     0
179
     0
273
     0
  0
XRECORD
  5
1CAC8
102
{ACAD_REACTORS
330
1CAC6
102
}
330
1CAC6
100
AcDbXrecord
280
     1
270
     1
271
     1
  0
XRECORD
  5
1CAC7
102
{ACAD_REACTORS
330
1CAC6
102
}
330
1CAC6
100
AcDbXrecord
280
     1
270
     1
271
     1
  0
XRECORD
  5
1CACB
102
{ACAD_REACTORS
330
1CAC6
102
}
330
1CAC6
100
AcDbXrecord
280
     1
270
     1
271
     1
  0
XRECORD
  5
1CACA
102
{ACAD_REACTORS
330
1CAC6
102
}
330
1CAC6
100
AcDbXrecord
280
     1
270
     1
271
     1
  0
XRECORD
  5
1CACC
102
{ACAD_REACTORS
330
1CAC6
102
}
330
1CAC6
100
AcDbXrecord
280
     1
270
     1
271
     1
  0
XRECORD
  5
1CAC9
102
{ACAD_REACTORS
330
1CAC6
102
}
330
1CAC6
100
AcDbXrecord
280
     1
270
     1
271
     1
  0
XRECORD
  5
1CB5A
102
{ACAD_REACTORS
330
1CB59
102
}
330
1CB59
100
AcDbXrecord
280
     1
102
DISPLAYNAME
  1
Imperial24
102
FLAGS
 90
        0
  0
CELLSTYLEMAP
  5
1CB21
102
{ACAD_REACTORS
330
1CB20
102
}
330
1CB20
100
AcDbCellStyleMap
 90
        3
300
CELLSTYLE
  1
TABLEFORMAT_BEGIN
 90
        5
170
     1
 91
        0
 92
    32768
 62
   257
 93
        1
300
CONTENTFORMAT
  1
CONTENTFORMAT_BEGIN
 90
        0
 91
        0
 92
      512
 93
        0
300

 40
0.0
140
1.0
 94
        5
 62
     0
340
1C8CC
144
0.25
309
CONTENTFORMAT_END
171
     0
 94
        0
309
TABLEFORMAT_END
  1
CELLSTYLE_BEGIN
 90
        1
 91
        1
300
_TITLE
309
CELLSTYLE_END
300
CELLSTYLE
  1
TABLEFORMAT_BEGIN
 90
        5
170
     1
 91
        0
 92
        0
 62
   257
 93
        1
300
CONTENTFORMAT
  1
CONTENTFORMAT_BEGIN
 90
        0
 91
        0
 92
      512
 93
        0
300

 40
0.0
140
1.0
 94
        5
 62
     0
340
1C8CC
144
0.18
309
CONTENTFORMAT_END
171
     0
 94
        0
309
TABLEFORMAT_END
  1
CELLSTYLE_BEGIN
 90
        2
 91
        1
300
_HEADER
309
CELLSTYLE_END
300
CELLSTYLE
  1
TABLEFORMAT_BEGIN
 90
        5
170
     1
 91
        0
 92
        0
 62
   257
 93
        1
300
CONTENTFORMAT
  1
CONTENTFORMAT_BEGIN
 90
        0
 91
        0
 92
      512
 93
        0
300

 40
0.0
140
1.0
 94
        2
 62
     0
340
1C8CC
144
0.18
309
CONTENTFORMAT_END
171
     0
 94
        0
309
TABLEFORMAT_END
  1
CELLSTYLE_BEGIN
 90
        3
 91
        2
300
_DATA
309
CELLSTYLE_END
  0
XRECORD
  5
1CB57
102
{ACAD_REACTORS
330
1CB20
102
}
330
1CB20
100
AcDbXrecord
280
     1
102
ACAD_ROUNDTRIP_PRE2007_TABLESTYLE
 90
      512
 91
        0
  1

 92
      512
 93
        0
  2

 94
      512
 95
        0
  3

  0
XRECORD
  5
1CB32
102
{ACAD_REACTORS
330
1CB31
102
}
330
1CB31
100
AcDbXrecord
280
     1
102
RTVSPost2010Prop28
280
     1
102
RTVSPost2010PropOp28
 70
     1
102
RTVSPost2010Prop29
280
     1
102
RTVSPost2010PropOp29
 70
     1
102
RTVSPost2010Prop30
280
     0
102
RTVSPost2010PropOp30
 70
     1
102
RTVSPost2010Prop31
280
     0
102
RTVSPost2010PropOp31
 70
     1
102
RTVSPost2010Prop32
280
     0
102
RTVSPost2010PropOp32
 70
     1
102
RTVSPost2010Prop33
280
     0
102
RTVSPost2010PropOp33
 70
     1
102
RTVSPost2010Prop34
280
     0
102
RTVSPost2010PropOp34
 70
     1
102
RTVSPost2010Prop35
280
     0
102
RTVSPost2010PropOp35
 70
     1
102
RTVSPost2010Prop36
280
     0
102
RTVSPost2010PropOp36
 70
     1
102
RTVSPost2010Prop37
 90
       50
102
RTVSPost2010PropOp37
 70
     1
102
RTVSPost2010Prop38
140
0.0
102
RTVSPost2010PropOp38
 70
     1
102
RTVSPost2010Prop39
140
1.0
102
RTVSPost2010PropOp39
 70
     1
102
RTVSPost2010Prop40
 90
        0
102
RTVSPost2010PropOp40
 70
     1
102
RTVSPost2010Prop41ColorIndex
 90
       18
102
RTVSPost2010Prop41ColorRGB
 90
        0
102
RTVSPost2010PropOp41
 70
     1
102
RTVSPost2010Prop42
 90
       50
102
RTVSPost2010PropOp42
 70
     1
102
RTVSPost2010Prop43
 90
        3
102
RTVSPost2010PropOp43
 70
     1
102
RTVSPost2010Prop44ColorIndex
 90
        5
102
RTVSPost2010Prop44ColorRGB
 90
      255
102
RTVSPost2010PropOp44
 70
     1
102
RTVSPost2010Prop45
280
     0
102
RTVSPost2010PropOp45
 70
     1
102
RTVSPost2010Prop46
 90
       50
102
RTVSPost2010PropOp46
 70
     1
102
RTVSPost2010Prop47
 90
       50
102
RTVSPost2010PropOp47
 70
     1
102
RTVSPost2010Prop48
 90
       50
102
RTVSPost2010PropOp48
 70
     1
102
RTVSPost2010Prop49
280
     0
102
RTVSPost2010PropOp49
 70
     1
102
RTVSPost2010Prop50
 90
       50
102
RTVSPost2010PropOp50
 70
     1
102
RTVSPost2010Prop51ColorIndex
 90
      256
102
RTVSPost2010Prop51ColorRGB
 90
-16777216
102
RTVSPost2010PropOp51
 70
     0
102
RTVSPost2010Prop52
140
1.0
102
RTVSPost2010PropOp52
 70
     0
102
RTVSPost2010Prop53
 90
        2
102
RTVSPost2010PropOp53
 70
     1
102
RTVSPost2010Prop54
  1
strokes_ogs.tif
102
RTVSPost2010PropOp54
 70
     1
102
RTVSPost2010Prop55
280
     0
102
RTVSPost2010PropOp55
 70
     1
102
RTVSPost2010Prop56
140
1.0
102
RTVSPost2010PropOp56
 70
     1
102
RTVSPost2010Prop57
140
1.0
102
RTVSPost2010PropOp57
 70
     1
102
RTVSPropertyOp0
 70
     1
102
RTVSPropertyOp1
 70
     1
102
RTVSPropertyOp2
 70
     1
102
RTVSPropertyOp3
 70
     1
102
RTVSPropertyOp4
 70
     1
102
RTVSPropertyOp5
 70
     1
102
RTVSPropertyOp6
 70
     1
102
RTVSPropertyOp7
 70
     1
102
RTVSPropertyOp8
 70
     1
102
RTVSPropertyOp9
 70
     1
102
RTVSPropertyOp10
 70
     1
102
RTVSPropertyOp11
 70
     1
102
RTVSPropertyOp12
 70
     1
102
RTVSPropertyOp13
 70
     1
102
RTVSPropertyOp14
 70
     1
102
RTVSPropertyOp15
 70
     1
102
RTVSPropertyOp16
 70
     1
102
RTVSPropertyOp17
 70
     1
102
RTVSPropertyOp18
 70
     1
102
RTVSPropertyOp19
 70
     1
102
RTVSPropertyOp20
 70
     1
102
RTVSPropertyOp21
 70
     1
102
RTVSPropertyOp22
 70
     1
102
RTVSPropertyOp23
 70
     1
102
RTVSPropertyOp24
 70
     1
102
RTVSPropertyOp25
 70
     1
102
RTVSPropertyOp26
 70
     1
102
RTVSPropertyOp27
 70
     1
102
RTVSPropertyOp28
 70
     1
102
RTVSPropertyOp29
 70
     1
102
RTVSPropertyOp30
 70
     1
102
RTVSPropertyOp31
 70
     1
102
RTVSPropertyOp32
 70
     1
102
RTVSPropertyOp33
 70
     1
102
RTVSPropertyOp34
 70
     1
102
RTVSPropertyOp35
 70
     1
102
RTVSPropertyOp36
 70
     1
102
RTVSPropertyOp37
 70
     1
102
RTVSPropertyOp38
 70
     1
102
RTVSPropertyOp39
 70
     1
102
RTVSPropertyOp40
 70
     1
102
RTVSPropertyOp41
 70
     1
102
RTVSPropertyOp42
 70
     1
102
RTVSPropertyOp43
 70
     1
102
RTVSPropertyOp44
 70
     1
102
RTVSPropertyOp45
 70
     1
102
RTVSPropertyOp46
 70
     1
102
RTVSPropertyOp47
 70
     1
102
RTVSPropertyOp48
 70
     1
102
RTVSPropertyOp49
 70
     1
102
RTVSPropertyOp50
 70
     1
102
RTVSPropertyOp51
 70
     0
102
RTVSPropertyOp52
 70
     0
102
RTVSPropertyOp53
 70
     1
102
RTVSPropertyOp54
 70
     1
102
RTVSPropertyOp55
 70
     1
102
RTVSPropertyOp56
 70
     1
102
RTVSPropertyOp57
 70
     1
102
RTVSPropertyOp58
 70
     1
102
RTVSPropertyOp59
 70
     1
102
RTVSPropertyOp60
 70
     1
102
RTVSPropertyOp61
 70
     1
102
RTVSPropertyOp62
 70
     1
  0
XRECORD
  5
1CB30
102
{ACAD_REACTORS
330
1CB2F
102
}
330
1CB2F
100
AcDbXrecord
280
     1
102
RTVSPost2010Prop28
280
     0
102
RTVSPost2010PropOp28
 70
     1
102
RTVSPost2010Prop29
280
     1
102
RTVSPost2010PropOp29
 70
     1
102
RTVSPost2010Prop30
280
     1
102
RTVSPost2010PropOp30
 70
     1
102
RTVSPost2010Prop31
280
     0
102
RTVSPost2010PropOp31
 70
     1
102
RTVSPost2010Prop32
280
     0
102
RTVSPost2010PropOp32
 70
     1
102
RTVSPost2010Prop33
280
     0
102
RTVSPost2010PropOp33
 70
     1
102
RTVSPost2010Prop34
280
     0
102
RTVSPost2010PropOp34
 70
     1
102
RTVSPost2010Prop35
280
     0
102
RTVSPost2010PropOp35
 70
     1
102
RTVSPost2010Prop36
280
     0
102
RTVSPost2010PropOp36
 70
     1
102
RTVSPost2010Prop37
 90
       50
102
RTVSPost2010PropOp37
 70
     1
102
RTVSPost2010Prop38
140
0.0
102
RTVSPost2010PropOp38
 70
     1
102
RTVSPost2010Prop39
140
1.0
102
RTVSPost2010PropOp39
 70
     1
102
RTVSPost2010Prop40
 90
        0
102
RTVSPost2010PropOp40
 70
     1
102
RTVSPost2010Prop41ColorIndex
 90
       18
102
RTVSPost2010Prop41ColorRGB
 90
        0
102
RTVSPost2010PropOp41
 70
     1
102
RTVSPost2010Prop42
 90
       50
102
RTVSPost2010PropOp42
 70
     1
102
RTVSPost2010Prop43
 90
        3
102
RTVSPost2010PropOp43
 70
     1
102
RTVSPost2010Prop44ColorIndex
 90
        5
102
RTVSPost2010Prop44ColorRGB
 90
      255
102
RTVSPost2010PropOp44
 70
     1
102
RTVSPost2010Prop45
280
     0
102
RTVSPost2010PropOp45
 70
     1
102
RTVSPost2010Prop46
 90
       50
102
RTVSPost2010PropOp46
 70
     1
102
RTVSPost2010Prop47
 90
       50
102
RTVSPost2010PropOp47
 70
     1
102
RTVSPost2010Prop48
 90
       50
102
RTVSPost2010PropOp48
 70
     1
102
RTVSPost2010Prop49
280
     0
102
RTVSPost2010PropOp49
 70
     1
102
RTVSPost2010Prop50
 90
       50
102
RTVSPost2010PropOp50
 70
     1
102
RTVSPost2010Prop51ColorIndex
 90
      256
102
RTVSPost2010Prop51ColorRGB
 90
-16777216
102
RTVSPost2010PropOp51
 70
     0
102
RTVSPost2010Prop52
140
1.0
102
RTVSPost2010PropOp52
 70
     0
102
RTVSPost2010Prop53
 90
        2
102
RTVSPost2010PropOp53
 70
     1
102
RTVSPost2010Prop54
  1
strokes_ogs.tif
102
RTVSPost2010PropOp54
 70
     1
102
RTVSPost2010Prop55
280
     0
102
RTVSPost2010PropOp55
 70
     1
102
RTVSPost2010Prop56
140
1.0
102
RTVSPost2010PropOp56
 70
     1
102
RTVSPost2010Prop57
140
1.0
102
RTVSPost2010PropOp57
 70
     1
102
RTVSPropertyOp0
 70
     1
102
RTVSPropertyOp1
 70
     1
102
RTVSPropertyOp2
 70
     1
102
RTVSPropertyOp3
 70
     1
102
RTVSPropertyOp4
 70
     1
102
RTVSPropertyOp5
 70
     1
102
RTVSPropertyOp6
 70
     1
102
RTVSPropertyOp7
 70
     1
102
RTVSPropertyOp8
 70
     1
102
RTVSPropertyOp9
 70
     1
102
RTVSPropertyOp10
 70
     1
102
RTVSPropertyOp11
 70
     1
102
RTVSPropertyOp12
 70
     1
102
RTVSPropertyOp13
 70
     1
102
RTVSPropertyOp14
 70
     1
102
RTVSPropertyOp15
 70
     1
102
RTVSPropertyOp16
 70
     1
102
RTVSPropertyOp17
 70
     1
102
RTVSPropertyOp18
 70
     1
102
RTVSPropertyOp19
 70
     1
102
RTVSPropertyOp20
 70
     1
102
RTVSPropertyOp21
 70
     1
102
RTVSPropertyOp22
 70
     1
102
RTVSPropertyOp23
 70
     1
102
RTVSPropertyOp24
 70
     1
102
RTVSPropertyOp25
 70
     1
102
RTVSPropertyOp26
 70
     1
102
RTVSPropertyOp27
 70
     1
102
RTVSPropertyOp28
 70
     1
102
RTVSPropertyOp29
 70
     1
102
RTVSPropertyOp30
 70
     1
102
RTVSPropertyOp31
 70
     1
102
RTVSPropertyOp32
 70
     1
102
RTVSPropertyOp33
 70
     1
102
RTVSPropertyOp34
 70
     1
102
RTVSPropertyOp35
 70
     1
102
RTVSPropertyOp36
 70
     1
102
RTVSPropertyOp37
 70
     1
102
RTVSPropertyOp38
 70
     1
102
RTVSPropertyOp39
 70
     1
102
RTVSPropertyOp40
 70
     1
102
RTVSPropertyOp41
 70
     1
102
RTVSPropertyOp42
 70
     1
102
RTVSPropertyOp43
 70
     1
102
RTVSPropertyOp44
 70
     1
102
RTVSPropertyOp45
 70
     1
102
RTVSPropertyOp46
 70
     1
102
RTVSPropertyOp47
 70
     1
102
RTVSPropertyOp48
 70
     1
102
RTVSPropertyOp49
 70
     1
102
RTVSPropertyOp50
 70
     1
102
RTVSPropertyOp51
 70
     0
102
RTVSPropertyOp52
 70
     0
102
RTVSPropertyOp53
 70
     1
102
RTVSPropertyOp54
 70
     1
102
RTVSPropertyOp55
 70
     1
102
RTVSPropertyOp56
 70
     1
102
RTVSPropertyOp57
 70
     1
102
RTVSPropertyOp58
 70
     1
102
RTVSPropertyOp59
 70
     1
102
RTVSPropertyOp60
 70
     1
102
RTVSPropertyOp61
 70
     1
102
RTVSPropertyOp62
 70
     1
  0
XRECORD
  5
1CB3E
102
{ACAD_REACTORS
330
1CB3D
102
}
330
1CB3D
100
AcDbXrecord
280
     1
102
RTVSPost2010Prop28
280
     0
102
RTVSPost2010PropOp28
 70
     1
102
RTVSPost2010Prop29
280
     1
102
RTVSPost2010PropOp29
 70
     1
102
RTVSPost2010Prop30
280
     1
102
RTVSPost2010PropOp30
 70
     1
102
RTVSPost2010Prop31
280
     0
102
RTVSPost2010PropOp31
 70
     1
102
RTVSPost2010Prop32
280
     0
102
RTVSPost2010PropOp32
 70
     1
102
RTVSPost2010Prop33
280
     0
102
RTVSPost2010PropOp33
 70
     1
102
RTVSPost2010Prop34
280
     0
102
RTVSPost2010PropOp34
 70
     1
102
RTVSPost2010Prop35
280
     0
102
RTVSPost2010PropOp35
 70
     1
102
RTVSPost2010Prop36
280
     0
102
RTVSPost2010PropOp36
 70
     1
102
RTVSPost2010Prop37
 90
       50
102
RTVSPost2010PropOp37
 70
     1
102
RTVSPost2010Prop38
140
0.0
102
RTVSPost2010PropOp38
 70
     1
102
RTVSPost2010Prop39
140
1.0
102
RTVSPost2010PropOp39
 70
     1
102
RTVSPost2010Prop40
 90
        0
102
RTVSPost2010PropOp40
 70
     1
102
RTVSPost2010Prop41ColorIndex
 90
       18
102
RTVSPost2010Prop41ColorRGB
 90
        0
102
RTVSPost2010PropOp41
 70
     1
102
RTVSPost2010Prop42
 90
       50
102
RTVSPost2010PropOp42
 70
     1
102
RTVSPost2010Prop43
 90
        3
102
RTVSPost2010PropOp43
 70
     1
102
RTVSPost2010Prop44ColorIndex
 90
        5
102
RTVSPost2010Prop44ColorRGB
 90
      255
102
RTVSPost2010PropOp44
 70
     1
102
RTVSPost2010Prop45
280
     0
102
RTVSPost2010PropOp45
 70
     1
102
RTVSPost2010Prop46
 90
       50
102
RTVSPost2010PropOp46
 70
     1
102
RTVSPost2010Prop47
 90
       50
102
RTVSPost2010PropOp47
 70
     1
102
RTVSPost2010Prop48
 90
       50
102
RTVSPost2010PropOp48
 70
     1
102
RTVSPost2010Prop49
280
     0
102
RTVSPost2010PropOp49
 70
     1
102
RTVSPost2010Prop50
 90
       50
102
RTVSPost2010PropOp50
 70
     1
102
RTVSPost2010Prop51ColorIndex
 90
      256
102
RTVSPost2010Prop51ColorRGB
 90
-16777216
102
RTVSPost2010PropOp51
 70
     0
102
RTVSPost2010Prop52
140
1.0
102
RTVSPost2010PropOp52
 70
     0
102
RTVSPost2010Prop53
 90
        2
102
RTVSPost2010PropOp53
 70
     1
102
RTVSPost2010Prop54
  1
strokes_ogs.tif
102
RTVSPost2010PropOp54
 70
     1
102
RTVSPost2010Prop55
280
     0
102
RTVSPost2010PropOp55
 70
     1
102
RTVSPost2010Prop56
140
1.0
102
RTVSPost2010PropOp56
 70
     1
102
RTVSPost2010Prop57
140
1.0
102
RTVSPost2010PropOp57
 70
     1
102
RTVSPropertyOp0
 70
     1
102
RTVSPropertyOp1
 70
     1
102
RTVSPropertyOp2
 70
     1
102
RTVSPropertyOp3
 70
     1
102
RTVSPropertyOp4
 70
     1
102
RTVSPropertyOp5
 70
     1
102
RTVSPropertyOp6
 70
     1
102
RTVSPropertyOp7
 70
     1
102
RTVSPropertyOp8
 70
     1
102
RTVSPropertyOp9
 70
     1
102
RTVSPropertyOp10
 70
     1
102
RTVSPropertyOp11
 70
     1
102
RTVSPropertyOp12
 70
     1
102
RTVSPropertyOp13
 70
     1
102
RTVSPropertyOp14
 70
     1
102
RTVSPropertyOp15
 70
     1
102
RTVSPropertyOp16
 70
     1
102
RTVSPropertyOp17
 70
     1
102
RTVSPropertyOp18
 70
     1
102
RTVSPropertyOp19
 70
     1
102
RTVSPropertyOp20
 70
     1
102
RTVSPropertyOp21
 70
     1
102
RTVSPropertyOp22
 70
     1
102
RTVSPropertyOp23
 70
     1
102
RTVSPropertyOp24
 70
     1
102
RTVSPropertyOp25
 70
     1
102
RTVSPropertyOp26
 70
     1
102
RTVSPropertyOp27
 70
     1
102
RTVSPropertyOp28
 70
     1
102
RTVSPropertyOp29
 70
     1
102
RTVSPropertyOp30
 70
     1
102
RTVSPropertyOp31
 70
     1
102
RTVSPropertyOp32
 70
     1
102
RTVSPropertyOp33
 70
     1
102
RTVSPropertyOp34
 70
     1
102
RTVSPropertyOp35
 70
     1
102
RTVSPropertyOp36
 70
     1
102
RTVSPropertyOp37
 70
     1
102
RTVSPropertyOp38
 70
     1
102
RTVSPropertyOp39
 70
     1
102
RTVSPropertyOp40
 70
     1
102
RTVSPropertyOp41
 70
     1
102
RTVSPropertyOp42
 70
     1
102
RTVSPropertyOp43
 70
     1
102
RTVSPropertyOp44
 70
     1
102
RTVSPropertyOp45
 70
     1
102
RTVSPropertyOp46
 70
     1
102
RTVSPropertyOp47
 70
     1
102
RTVSPropertyOp48
 70
     1
102
RTVSPropertyOp49
 70
     1
102
RTVSPropertyOp50
 70
     1
102
RTVSPropertyOp51
 70
     0
102
RTVSPropertyOp52
 70
     0
102
RTVSPropertyOp53
 70
     1
102
RTVSPropertyOp54
 70
     1
102
RTVSPropertyOp55
 70
     1
102
RTVSPropertyOp56
 70
     1
102
RTVSPropertyOp57
 70
     1
102
RTVSPropertyOp58
 70
     1
102
RTVSPropertyOp59
 70
     1
102
RTVSPropertyOp60
 70
     1
102
RTVSPropertyOp61
 70
     1
102
RTVSPropertyOp62
 70
     1
  0
XRECORD
  5
1CB46
102
{ACAD_REACTORS
330
1CB45
102
}
330
1CB45
100
AcDbXrecord
280
     1
102
RTVSPost2010Prop28
280
     0
102
RTVSPost2010PropOp28
 70
     1
102
RTVSPost2010Prop29
280
     1
102
RTVSPost2010PropOp29
 70
     1
102
RTVSPost2010Prop30
280
     1
102
RTVSPost2010PropOp30
 70
     1
102
RTVSPost2010Prop31
280
     0
102
RTVSPost2010PropOp31
 70
     1
102
RTVSPost2010Prop32
280
     0
102
RTVSPost2010PropOp32
 70
     1
102
RTVSPost2010Prop33
280
     0
102
RTVSPost2010PropOp33
 70
     1
102
RTVSPost2010Prop34
280
     0
102
RTVSPost2010PropOp34
 70
     1
102
RTVSPost2010Prop35
280
     0
102
RTVSPost2010PropOp35
 70
     1
102
RTVSPost2010Prop36
280
     0
102
RTVSPost2010PropOp36
 70
     1
102
RTVSPost2010Prop37
 90
       50
102
RTVSPost2010PropOp37
 70
     1
102
RTVSPost2010Prop38
140
0.0
102
RTVSPost2010PropOp38
 70
     1
102
RTVSPost2010Prop39
140
1.0
102
RTVSPost2010PropOp39
 70
     1
102
RTVSPost2010Prop40
 90
        0
102
RTVSPost2010PropOp40
 70
     1
102
RTVSPost2010Prop41ColorIndex
 90
       18
102
RTVSPost2010Prop41ColorRGB
 90
        0
102
RTVSPost2010PropOp41
 70
     1
102
RTVSPost2010Prop42
 90
       50
102
RTVSPost2010PropOp42
 70
     1
102
RTVSPost2010Prop43
 90
        3
102
RTVSPost2010PropOp43
 70
     1
102
RTVSPost2010Prop44ColorIndex
 90
        5
102
RTVSPost2010Prop44ColorRGB
 90
      255
102
RTVSPost2010PropOp44
 70
     1
102
RTVSPost2010Prop45
280
     0
102
RTVSPost2010PropOp45
 70
     1
102
RTVSPost2010Prop46
 90
       50
102
RTVSPost2010PropOp46
 70
     1
102
RTVSPost2010Prop47
 90
       50
102
RTVSPost2010PropOp47
 70
     1
102
RTVSPost2010Prop48
 90
       50
102
RTVSPost2010PropOp48
 70
     1
102
RTVSPost2010Prop49
280
     0
102
RTVSPost2010PropOp49
 70
     1
102
RTVSPost2010Prop50
 90
       50
102
RTVSPost2010PropOp50
 70
     1
102
RTVSPost2010Prop51ColorIndex
 90
      256
102
RTVSPost2010Prop51ColorRGB
 90
-16777216
102
RTVSPost2010PropOp51
 70
     0
102
RTVSPost2010Prop52
140
1.0
102
RTVSPost2010PropOp52
 70
     0
102
RTVSPost2010Prop53
 90
        2
102
RTVSPost2010PropOp53
 70
     1
102
RTVSPost2010Prop54
  1
strokes_ogs.tif
102
RTVSPost2010PropOp54
 70
     1
102
RTVSPost2010Prop55
280
     0
102
RTVSPost2010PropOp55
 70
     1
102
RTVSPost2010Prop56
140
1.0
102
RTVSPost2010PropOp56
 70
     1
102
RTVSPost2010Prop57
140
1.0
102
RTVSPost2010PropOp57
 70
     1
102
RTVSPropertyOp0
 70
     1
102
RTVSPropertyOp1
 70
     1
102
RTVSPropertyOp2
 70
     1
102
RTVSPropertyOp3
 70
     1
102
RTVSPropertyOp4
 70
     1
102
RTVSPropertyOp5
 70
     1
102
RTVSPropertyOp6
 70
     1
102
RTVSPropertyOp7
 70
     1
102
RTVSPropertyOp8
 70
     1
102
RTVSPropertyOp9
 70
     1
102
RTVSPropertyOp10
 70
     1
102
RTVSPropertyOp11
 70
     1
102
RTVSPropertyOp12
 70
     1
102
RTVSPropertyOp13
 70
     1
102
RTVSPropertyOp14
 70
     1
102
RTVSPropertyOp15
 70
     1
102
RTVSPropertyOp16
 70
     1
102
RTVSPropertyOp17
 70
     1
102
RTVSPropertyOp18
 70
     1
102
RTVSPropertyOp19
 70
     1
102
RTVSPropertyOp20
 70
     1
102
RTVSPropertyOp21
 70
     1
102
RTVSPropertyOp22
 70
     1
102
RTVSPropertyOp23
 70
     1
102
RTVSPropertyOp24
 70
     1
102
RTVSPropertyOp25
 70
     1
102
RTVSPropertyOp26
 70
     1
102
RTVSPropertyOp27
 70
     1
102
RTVSPropertyOp28
 70
     1
102
RTVSPropertyOp29
 70
     1
102
RTVSPropertyOp30
 70
     1
102
RTVSPropertyOp31
 70
     1
102
RTVSPropertyOp32
 70
     1
102
RTVSPropertyOp33
 70
     1
102
RTVSPropertyOp34
 70
     1
102
RTVSPropertyOp35
 70
     1
102
RTVSPropertyOp36
 70
     1
102
RTVSPropertyOp37
 70
     1
102
RTVSPropertyOp38
 70
     1
102
RTVSPropertyOp39
 70
     1
102
RTVSPropertyOp40
 70
     1
102
RTVSPropertyOp41
 70
     1
102
RTVSPropertyOp42
 70
     1
102
RTVSPropertyOp43
 70
     1
102
RTVSPropertyOp44
 70
     1
102
RTVSPropertyOp45
 70
     1
102
RTVSPropertyOp46
 70
     1
102
RTVSPropertyOp47
 70
     1
102
RTVSPropertyOp48
 70
     1
102
RTVSPropertyOp49
 70
     1
102
RTVSPropertyOp50
 70
     1
102
RTVSPropertyOp51
 70
     0
102
RTVSPropertyOp52
 70
     0
102
RTVSPropertyOp53
 70
     1
102
RTVSPropertyOp54
 70
     1
102
RTVSPropertyOp55
 70
     1
102
RTVSPropertyOp56
 70
     1
102
RTVSPropertyOp57
 70
     1
102
RTVSPropertyOp58
 70
     1
102
RTVSPropertyOp59
 70
     1
102
RTVSPropertyOp60
 70
     1
102
RTVSPropertyOp61
 70
     1
102
RTVSPropertyOp62
 70
     1
  0
XRECORD
  5
1CB38
102
{ACAD_REACTORS
330
1CB37
102
}
330
1CB37
100
AcDbXrecord
280
     1
102
RTVSPost2010Prop28
280
     0
102
RTVSPost2010PropOp28
 70
     1
102
RTVSPost2010Prop29
280
     1
102
RTVSPost2010PropOp29
 70
     1
102
RTVSPost2010Prop30
280
     1
102
RTVSPost2010PropOp30
 70
     1
102
RTVSPost2010Prop31
280
     0
102
RTVSPost2010PropOp31
 70
     1
102
RTVSPost2010Prop32
280
     0
102
RTVSPost2010PropOp32
 70
     1
102
RTVSPost2010Prop33
280
     0
102
RTVSPost2010PropOp33
 70
     1
102
RTVSPost2010Prop34
280
     0
102
RTVSPost2010PropOp34
 70
     1
102
RTVSPost2010Prop35
280
     0
102
RTVSPost2010PropOp35
 70
     1
102
RTVSPost2010Prop36
280
     0
102
RTVSPost2010PropOp36
 70
     1
102
RTVSPost2010Prop37
 90
       50
102
RTVSPost2010PropOp37
 70
     1
102
RTVSPost2010Prop38
140
0.0
102
RTVSPost2010PropOp38
 70
     1
102
RTVSPost2010Prop39
140
1.0
102
RTVSPost2010PropOp39
 70
     1
102
RTVSPost2010Prop40
 90
        0
102
RTVSPost2010PropOp40
 70
     1
102
RTVSPost2010Prop41ColorIndex
 90
       18
102
RTVSPost2010Prop41ColorRGB
 90
        0
102
RTVSPost2010PropOp41
 70
     1
102
RTVSPost2010Prop42
 90
       50
102
RTVSPost2010PropOp42
 70
     1
102
RTVSPost2010Prop43
 90
        3
102
RTVSPost2010PropOp43
 70
     1
102
RTVSPost2010Prop44ColorIndex
 90
        5
102
RTVSPost2010Prop44ColorRGB
 90
      255
102
RTVSPost2010PropOp44
 70
     1
102
RTVSPost2010Prop45
280
     0
102
RTVSPost2010PropOp45
 70
     1
102
RTVSPost2010Prop46
 90
       50
102
RTVSPost2010PropOp46
 70
     1
102
RTVSPost2010Prop47
 90
       50
102
RTVSPost2010PropOp47
 70
     1
102
RTVSPost2010Prop48
 90
       50
102
RTVSPost2010PropOp48
 70
     1
102
RTVSPost2010Prop49
280
     0
102
RTVSPost2010PropOp49
 70
     1
102
RTVSPost2010Prop50
 90
       50
102
RTVSPost2010PropOp50
 70
     1
102
RTVSPost2010Prop51ColorIndex
 90
      256
102
RTVSPost2010Prop51ColorRGB
 90
-16777216
102
RTVSPost2010PropOp51
 70
     0
102
RTVSPost2010Prop52
140
1.0
102
RTVSPost2010PropOp52
 70
     0
102
RTVSPost2010Prop53
 90
        2
102
RTVSPost2010PropOp53
 70
     1
102
RTVSPost2010Prop54
  1
strokes_ogs.tif
102
RTVSPost2010PropOp54
 70
     1
102
RTVSPost2010Prop55
280
     0
102
RTVSPost2010PropOp55
 70
     1
102
RTVSPost2010Prop56
140
1.0
102
RTVSPost2010PropOp56
 70
     1
102
RTVSPost2010Prop57
140
1.0
102
RTVSPost2010PropOp57
 70
     1
102
RTVSPropertyOp0
 70
     1
102
RTVSPropertyOp1
 70
     1
102
RTVSPropertyOp2
 70
     1
102
RTVSPropertyOp3
 70
     1
102
RTVSPropertyOp4
 70
     1
102
RTVSPropertyOp5
 70
     1
102
RTVSPropertyOp6
 70
     1
102
RTVSPropertyOp7
 70
     1
102
RTVSPropertyOp8
 70
     1
102
RTVSPropertyOp9
 70
     1
102
RTVSPropertyOp10
 70
     1
102
RTVSPropertyOp11
 70
     1
102
RTVSPropertyOp12
 70
     1
102
RTVSPropertyOp13
 70
     1
102
RTVSPropertyOp14
 70
     1
102
RTVSPropertyOp15
 70
     1
102
RTVSPropertyOp16
 70
     1
102
RTVSPropertyOp17
 70
     1
102
RTVSPropertyOp18
 70
     1
102
RTVSPropertyOp19
 70
     1
102
RTVSPropertyOp20
 70
     1
102
RTVSPropertyOp21
 70
     1
102
RTVSPropertyOp22
 70
     1
102
RTVSPropertyOp23
 70
     1
102
RTVSPropertyOp24
 70
     1
102
RTVSPropertyOp25
 70
     1
102
RTVSPropertyOp26
 70
     1
102
RTVSPropertyOp27
 70
     1
102
RTVSPropertyOp28
 70
     1
102
RTVSPropertyOp29
 70
     1
102
RTVSPropertyOp30
 70
     1
102
RTVSPropertyOp31
 70
     1
102
RTVSPropertyOp32
 70
     1
102
RTVSPropertyOp33
 70
     1
102
RTVSPropertyOp34
 70
     1
102
RTVSPropertyOp35
 70
     1
102
RTVSPropertyOp36
 70
     1
102
RTVSPropertyOp37
 70
     1
102
RTVSPropertyOp38
 70
     1
102
RTVSPropertyOp39
 70
     1
102
RTVSPropertyOp40
 70
     1
102
RTVSPropertyOp41
 70
     1
102
RTVSPropertyOp42
 70
     1
102
RTVSPropertyOp43
 70
     1
102
RTVSPropertyOp44
 70
     1
102
RTVSPropertyOp45
 70
     1
102
RTVSPropertyOp46
 70
     1
102
RTVSPropertyOp47
 70
     1
102
RTVSPropertyOp48
 70
     1
102
RTVSPropertyOp49
 70
     1
102
RTVSPropertyOp50
 70
     1
102
RTVSPropertyOp51
 70
     0
102
RTVSPropertyOp52
 70
     0
102
RTVSPropertyOp53
 70
     1
102
RTVSPropertyOp54
 70
     1
102
RTVSPropertyOp55
 70
     1
102
RTVSPropertyOp56
 70
     1
102
RTVSPropertyOp57
 70
     1
102
RTVSPropertyOp58
 70
     1
102
RTVSPropertyOp59
 70
     1
102
RTVSPropertyOp60
 70
     1
102
RTVSPropertyOp61
 70
     1
102
RTVSPropertyOp62
 70
     1
  0
XRECORD
  5
1CB3C
102
{ACAD_REACTORS
330
1CB3B
102
}
330
1CB3B
100
AcDbXrecord
280
     1
102
RTVSPost2010Prop28
280
     0
102
RTVSPost2010PropOp28
 70
     1
102
RTVSPost2010Prop29
280
     1
102
RTVSPost2010PropOp29
 70
     1
102
RTVSPost2010Prop30
280
     1
102
RTVSPost2010PropOp30
 70
     1
102
RTVSPost2010Prop31
280
     0
102
RTVSPost2010PropOp31
 70
     1
102
RTVSPost2010Prop32
280
     0
102
RTVSPost2010PropOp32
 70
     1
102
RTVSPost2010Prop33
280
     0
102
RTVSPost2010PropOp33
 70
     1
102
RTVSPost2010Prop34
280
     0
102
RTVSPost2010PropOp34
 70
     1
102
RTVSPost2010Prop35
280
     0
102
RTVSPost2010PropOp35
 70
     1
102
RTVSPost2010Prop36
280
     0
102
RTVSPost2010PropOp36
 70
     1
102
RTVSPost2010Prop37
 90
       50
102
RTVSPost2010PropOp37
 70
     1
102
RTVSPost2010Prop38
140
0.0
102
RTVSPost2010PropOp38
 70
     1
102
RTVSPost2010Prop39
140
1.0
102
RTVSPost2010PropOp39
 70
     1
102
RTVSPost2010Prop40
 90
        0
102
RTVSPost2010PropOp40
 70
     1
102
RTVSPost2010Prop41ColorIndex
 90
       18
102
RTVSPost2010Prop41ColorRGB
 90
        0
102
RTVSPost2010PropOp41
 70
     1
102
RTVSPost2010Prop42
 90
       50
102
RTVSPost2010PropOp42
 70
     1
102
RTVSPost2010Prop43
 90
        3
102
RTVSPost2010PropOp43
 70
     1
102
RTVSPost2010Prop44ColorIndex
 90
        5
102
RTVSPost2010Prop44ColorRGB
 90
      255
102
RTVSPost2010PropOp44
 70
     1
102
RTVSPost2010Prop45
280
     0
102
RTVSPost2010PropOp45
 70
     1
102
RTVSPost2010Prop46
 90
       50
102
RTVSPost2010PropOp46
 70
     1
102
RTVSPost2010Prop47
 90
       50
102
RTVSPost2010PropOp47
 70
     1
102
RTVSPost2010Prop48
 90
       50
102
RTVSPost2010PropOp48
 70
     1
102
RTVSPost2010Prop49
280
     0
102
RTVSPost2010PropOp49
 70
     1
102
RTVSPost2010Prop50
 90
       50
102
RTVSPost2010PropOp50
 70
     1
102
RTVSPost2010Prop51ColorIndex
 90
      256
102
RTVSPost2010Prop51ColorRGB
 90
-16777216
102
RTVSPost2010PropOp51
 70
     0
102
RTVSPost2010Prop52
140
1.0
102
RTVSPost2010PropOp52
 70
     0
102
RTVSPost2010Prop53
 90
        2
102
RTVSPost2010PropOp53
 70
     1
102
RTVSPost2010Prop54
  1
strokes_ogs.tif
102
RTVSPost2010PropOp54
 70
     1
102
RTVSPost2010Prop55
280
     0
102
RTVSPost2010PropOp55
 70
     1
102
RTVSPost2010Prop56
140
1.0
102
RTVSPost2010PropOp56
 70
     1
102
RTVSPost2010Prop57
140
1.0
102
RTVSPost2010PropOp57
 70
     1
102
RTVSPropertyOp0
 70
     1
102
RTVSPropertyOp1
 70
     1
102
RTVSPropertyOp2
 70
     1
102
RTVSPropertyOp3
 70
     1
102
RTVSPropertyOp4
 70
     1
102
RTVSPropertyOp5
 70
     1
102
RTVSPropertyOp6
 70
     1
102
RTVSPropertyOp7
 70
     1
102
RTVSPropertyOp8
 70
     1
102
RTVSPropertyOp9
 70
     1
102
RTVSPropertyOp10
 70
     1
102
RTVSPropertyOp11
 70
     1
102
RTVSPropertyOp12
 70
     1
102
RTVSPropertyOp13
 70
     1
102
RTVSPropertyOp14
 70
     1
102
RTVSPropertyOp15
 70
     1
102
RTVSPropertyOp16
 70
     1
102
RTVSPropertyOp17
 70
     1
102
RTVSPropertyOp18
 70
     1
102
RTVSPropertyOp19
 70
     1
102
RTVSPropertyOp20
 70
     1
102
RTVSPropertyOp21
 70
     1
102
RTVSPropertyOp22
 70
     1
102
RTVSPropertyOp23
 70
     1
102
RTVSPropertyOp24
 70
     1
102
RTVSPropertyOp25
 70
     1
102
RTVSPropertyOp26
 70
     1
102
RTVSPropertyOp27
 70
     1
102
RTVSPropertyOp28
 70
     1
102
RTVSPropertyOp29
 70
     1
102
RTVSPropertyOp30
 70
     1
102
RTVSPropertyOp31
 70
     1
102
RTVSPropertyOp32
 70
     1
102
RTVSPropertyOp33
 70
     1
102
RTVSPropertyOp34
 70
     1
102
RTVSPropertyOp35
 70
     1
102
RTVSPropertyOp36
 70
     1
102
RTVSPropertyOp37
 70
     1
102
RTVSPropertyOp38
 70
     1
102
RTVSPropertyOp39
 70
     1
102
RTVSPropertyOp40
 70
     1
102
RTVSPropertyOp41
 70
     1
102
RTVSPropertyOp42
 70
     1
102
RTVSPropertyOp43
 70
     1
102
RTVSPropertyOp44
 70
     1
102
RTVSPropertyOp45
 70
     1
102
RTVSPropertyOp46
 70
     1
102
RTVSPropertyOp47
 70
     1
102
RTVSPropertyOp48
 70
     1
102
RTVSPropertyOp49
 70
     1
102
RTVSPropertyOp50
 70
     1
102
RTVSPropertyOp51
 70
     0
102
RTVSPropertyOp52
 70
     0
102
RTVSPropertyOp53
 70
     1
102
RTVSPropertyOp54
 70
     1
102
RTVSPropertyOp55
 70
     1
102
RTVSPropertyOp56
 70
     1
102
RTVSPropertyOp57
 70
     1
102
RTVSPropertyOp58
 70
     1
102
RTVSPropertyOp59
 70
     1
102
RTVSPropertyOp60
 70
     1
102
RTVSPropertyOp61
 70
     1
102
RTVSPropertyOp62
 70
     1
  0
XRECORD
  5
1CB56
102
{ACAD_REACTORS
330
1CB55
102
}
330
1CB55
100
AcDbXrecord
280
     1
102
RTVSPost2010Prop28
280
     0
102
RTVSPost2010PropOp28
 70
     1
102
RTVSPost2010Prop29
280
     1
102
RTVSPost2010PropOp29
 70
     1
102
RTVSPost2010Prop30
280
     1
102
RTVSPost2010PropOp30
 70
     1
102
RTVSPost2010Prop31
280
     0
102
RTVSPost2010PropOp31
 70
     1
102
RTVSPost2010Prop32
280
     0
102
RTVSPost2010PropOp32
 70
     1
102
RTVSPost2010Prop33
280
     0
102
RTVSPost2010PropOp33
 70
     1
102
RTVSPost2010Prop34
280
     0
102
RTVSPost2010PropOp34
 70
     1
102
RTVSPost2010Prop35
280
     0
102
RTVSPost2010PropOp35
 70
     1
102
RTVSPost2010Prop36
280
     0
102
RTVSPost2010PropOp36
 70
     1
102
RTVSPost2010Prop37
 90
       50
102
RTVSPost2010PropOp37
 70
     0
102
RTVSPost2010Prop38
140
0.0
102
RTVSPost2010PropOp38
 70
     0
102
RTVSPost2010Prop39
140
1.0
102
RTVSPost2010PropOp39
 70
     0
102
RTVSPost2010Prop40
 90
        0
102
RTVSPost2010PropOp40
 70
     0
102
RTVSPost2010Prop41ColorIndex
 90
       18
102
RTVSPost2010Prop41ColorRGB
 90
        0
102
RTVSPost2010PropOp41
 70
     0
102
RTVSPost2010Prop42
 90
       50
102
RTVSPost2010PropOp42
 70
     0
102
RTVSPost2010Prop43
 90
        3
102
RTVSPost2010PropOp43
 70
     0
102
RTVSPost2010Prop44ColorIndex
 90
        5
102
RTVSPost2010Prop44ColorRGB
 90
      255
102
RTVSPost2010PropOp44
 70
     0
102
RTVSPost2010Prop45
280
     0
102
RTVSPost2010PropOp45
 70
     1
102
RTVSPost2010Prop46
 90
       50
102
RTVSPost2010PropOp46
 70
     0
102
RTVSPost2010Prop47
 90
       50
102
RTVSPost2010PropOp47
 70
     0
102
RTVSPost2010Prop48
 90
       50
102
RTVSPost2010PropOp48
 70
     0
102
RTVSPost2010Prop49
280
     0
102
RTVSPost2010PropOp49
 70
     1
102
RTVSPost2010Prop50
 90
       50
102
RTVSPost2010PropOp50
 70
     0
102
RTVSPost2010Prop51ColorIndex
 90
      256
102
RTVSPost2010Prop51ColorRGB
 90
-16777216
102
RTVSPost2010PropOp51
 70
     0
102
RTVSPost2010Prop52
140
1.0
102
RTVSPost2010PropOp52
 70
     0
102
RTVSPost2010Prop53
 90
        2
102
RTVSPost2010PropOp53
 70
     0
102
RTVSPost2010Prop54
  1
strokes_ogs.tif
102
RTVSPost2010PropOp54
 70
     0
102
RTVSPost2010Prop55
280
     0
102
RTVSPost2010PropOp55
 70
     1
102
RTVSPost2010Prop56
140
1.0
102
RTVSPost2010PropOp56
 70
     0
102
RTVSPost2010Prop57
140
1.0
102
RTVSPost2010PropOp57
 70
     0
102
RTVSPropertyOp0
 70
     0
102
RTVSPropertyOp1
 70
     0
102
RTVSPropertyOp2
 70
     0
102
RTVSPropertyOp3
 70
     0
102
RTVSPropertyOp4
 70
     0
102
RTVSPropertyOp5
 70
     0
102
RTVSPropertyOp6
 70
     0
102
RTVSPropertyOp7
 70
     0
102
RTVSPropertyOp8
 70
     0
102
RTVSPropertyOp9
 70
     0
102
RTVSPropertyOp10
 70
     0
102
RTVSPropertyOp11
 70
     0
102
RTVSPropertyOp12
 70
     0
102
RTVSPropertyOp13
 70
     0
102
RTVSPropertyOp14
 70
     2
102
RTVSPropertyOp15
 70
     0
102
RTVSPropertyOp16
 70
     0
102
RTVSPropertyOp17
 70
     0
102
RTVSPropertyOp18
 70
     0
102
RTVSPropertyOp19
 70
     0
102
RTVSPropertyOp20
 70
     0
102
RTVSPropertyOp21
 70
     0
102
RTVSPropertyOp22
 70
     0
102
RTVSPropertyOp23
 70
     0
102
RTVSPropertyOp24
 70
     0
102
RTVSPropertyOp25
 70
     0
102
RTVSPropertyOp26
 70
     0
102
RTVSPropertyOp27
 70
     0
102
RTVSPropertyOp28
 70
     1
102
RTVSPropertyOp29
 70
     1
102
RTVSPropertyOp30
 70
     1
102
RTVSPropertyOp31
 70
     1
102
RTVSPropertyOp32
 70
     1
102
RTVSPropertyOp33
 70
     1
102
RTVSPropertyOp34
 70
     1
102
RTVSPropertyOp35
 70
     1
102
RTVSPropertyOp36
 70
     1
102
RTVSPropertyOp37
 70
     0
102
RTVSPropertyOp38
 70
     0
102
RTVSPropertyOp39
 70
     0
102
RTVSPropertyOp40
 70
     0
102
RTVSPropertyOp41
 70
     0
102
RTVSPropertyOp42
 70
     0
102
RTVSPropertyOp43
 70
     0
102
RTVSPropertyOp44
 70
     0
102
RTVSPropertyOp45
 70
     1
102
RTVSPropertyOp46
 70
     0
102
RTVSPropertyOp47
 70
     0
102
RTVSPropertyOp48
 70
     0
102
RTVSPropertyOp49
 70
     1
102
RTVSPropertyOp50
 70
     0
102
RTVSPropertyOp51
 70
     0
102
RTVSPropertyOp52
 70
     0
102
RTVSPropertyOp53
 70
     0
102
RTVSPropertyOp54
 70
     0
102
RTVSPropertyOp55
 70
     1
102
RTVSPropertyOp56
 70
     0
102
RTVSPropertyOp57
 70
     0
102
RTVSPropertyOp58
 70
     0
102
RTVSPropertyOp59
 70
     0
102
RTVSPropertyOp60
 70
     0
102
RTVSPropertyOp61
 70
     0
102
RTVSPropertyOp62
 70
     0
  0
XRECORD
  5
1CB44
102
{ACAD_REACTORS
330
1CB43
102
}
330
1CB43
100
AcDbXrecord
280
     1
102
RTVSPost2010Prop28
280
     0
102
RTVSPost2010PropOp28
 70
     1
102
RTVSPost2010Prop29
280
     1
102
RTVSPost2010PropOp29
 70
     1
102
RTVSPost2010Prop30
280
     1
102
RTVSPost2010PropOp30
 70
     1
102
RTVSPost2010Prop31
280
     0
102
RTVSPost2010PropOp31
 70
     1
102
RTVSPost2010Prop32
280
     0
102
RTVSPost2010PropOp32
 70
     1
102
RTVSPost2010Prop33
280
     0
102
RTVSPost2010PropOp33
 70
     1
102
RTVSPost2010Prop34
280
     0
102
RTVSPost2010PropOp34
 70
     1
102
RTVSPost2010Prop35
280
     0
102
RTVSPost2010PropOp35
 70
     1
102
RTVSPost2010Prop36
280
     0
102
RTVSPost2010PropOp36
 70
     1
102
RTVSPost2010Prop37
 90
       50
102
RTVSPost2010PropOp37
 70
     1
102
RTVSPost2010Prop38
140
0.0
102
RTVSPost2010PropOp38
 70
     1
102
RTVSPost2010Prop39
140
1.0
102
RTVSPost2010PropOp39
 70
     1
102
RTVSPost2010Prop40
 90
        0
102
RTVSPost2010PropOp40
 70
     1
102
RTVSPost2010Prop41ColorIndex
 90
       18
102
RTVSPost2010Prop41ColorRGB
 90
        0
102
RTVSPost2010PropOp41
 70
     1
102
RTVSPost2010Prop42
 90
       50
102
RTVSPost2010PropOp42
 70
     1
102
RTVSPost2010Prop43
 90
        3
102
RTVSPost2010PropOp43
 70
     1
102
RTVSPost2010Prop44ColorIndex
 90
        5
102
RTVSPost2010Prop44ColorRGB
 90
      255
102
RTVSPost2010PropOp44
 70
     1
102
RTVSPost2010Prop45
280
     0
102
RTVSPost2010PropOp45
 70
     1
102
RTVSPost2010Prop46
 90
       50
102
RTVSPost2010PropOp46
 70
     1
102
RTVSPost2010Prop47
 90
       50
102
RTVSPost2010PropOp47
 70
     1
102
RTVSPost2010Prop48
 90
       50
102
RTVSPost2010PropOp48
 70
     1
102
RTVSPost2010Prop49
280
     0
102
RTVSPost2010PropOp49
 70
     1
102
RTVSPost2010Prop50
 90
       50
102
RTVSPost2010PropOp50
 70
     1
102
RTVSPost2010Prop51ColorIndex
 90
      256
102
RTVSPost2010Prop51ColorRGB
 90
-16777216
102
RTVSPost2010PropOp51
 70
     0
102
RTVSPost2010Prop52
140
1.0
102
RTVSPost2010PropOp52
 70
     0
102
RTVSPost2010Prop53
 90
        2
102
RTVSPost2010PropOp53
 70
     1
102
RTVSPost2010Prop54
  1
strokes_ogs.tif
102
RTVSPost2010PropOp54
 70
     1
102
RTVSPost2010Prop55
280
     0
102
RTVSPost2010PropOp55
 70
     1
102
RTVSPost2010Prop56
140
1.0
102
RTVSPost2010PropOp56
 70
     1
102
RTVSPost2010Prop57
140
1.0
102
RTVSPost2010PropOp57
 70
     1
102
RTVSPropertyOp0
 70
     1
102
RTVSPropertyOp1
 70
     1
102
RTVSPropertyOp2
 70
     1
102
RTVSPropertyOp3
 70
     1
102
RTVSPropertyOp4
 70
     1
102
RTVSPropertyOp5
 70
     1
102
RTVSPropertyOp6
 70
     1
102
RTVSPropertyOp7
 70
     1
102
RTVSPropertyOp8
 70
     1
102
RTVSPropertyOp9
 70
     1
102
RTVSPropertyOp10
 70
     1
102
RTVSPropertyOp11
 70
     1
102
RTVSPropertyOp12
 70
     1
102
RTVSPropertyOp13
 70
     1
102
RTVSPropertyOp14
 70
     1
102
RTVSPropertyOp15
 70
     1
102
RTVSPropertyOp16
 70
     1
102
RTVSPropertyOp17
 70
     1
102
RTVSPropertyOp18
 70
     1
102
RTVSPropertyOp19
 70
     1
102
RTVSPropertyOp20
 70
     1
102
RTVSPropertyOp21
 70
     1
102
RTVSPropertyOp22
 70
     1
102
RTVSPropertyOp23
 70
     1
102
RTVSPropertyOp24
 70
     1
102
RTVSPropertyOp25
 70
     1
102
RTVSPropertyOp26
 70
     1
102
RTVSPropertyOp27
 70
     1
102
RTVSPropertyOp28
 70
     1
102
RTVSPropertyOp29
 70
     1
102
RTVSPropertyOp30
 70
     1
102
RTVSPropertyOp31
 70
     1
102
RTVSPropertyOp32
 70
     1
102
RTVSPropertyOp33
 70
     1
102
RTVSPropertyOp34
 70
     1
102
RTVSPropertyOp35
 70
     1
102
RTVSPropertyOp36
 70
     1
102
RTVSPropertyOp37
 70
     1
102
RTVSPropertyOp38
 70
     1
102
RTVSPropertyOp39
 70
     1
102
RTVSPropertyOp40
 70
     1
102
RTVSPropertyOp41
 70
     1
102
RTVSPropertyOp42
 70
     1
102
RTVSPropertyOp43
 70
     1
102
RTVSPropertyOp44
 70
     1
102
RTVSPropertyOp45
 70
     1
102
RTVSPropertyOp46
 70
     1
102
RTVSPropertyOp47
 70
     1
102
RTVSPropertyOp48
 70
     1
102
RTVSPropertyOp49
 70
     1
102
RTVSPropertyOp50
 70
     1
102
RTVSPropertyOp51
 70
     0
102
RTVSPropertyOp52
 70
     0
102
RTVSPropertyOp53
 70
     1
102
RTVSPropertyOp54
 70
     1
102
RTVSPropertyOp55
 70
     1
102
RTVSPropertyOp56
 70
     1
102
RTVSPropertyOp57
 70
     1
102
RTVSPropertyOp58
 70
     1
102
RTVSPropertyOp59
 70
     1
102
RTVSPropertyOp60
 70
     1
102
RTVSPropertyOp61
 70
     1
102
RTVSPropertyOp62
 70
     1
  0
XRECORD
  5
1CB28
102
{ACAD_REACTORS
330
1CB27
102
}
330
1CB27
100
AcDbXrecord
280
     1
102
RTVSPost2010Prop28
280
     0
102
RTVSPost2010PropOp28
 70
     1
102
RTVSPost2010Prop29
280
     1
102
RTVSPost2010PropOp29
 70
     1
102
RTVSPost2010Prop30
280
     1
102
RTVSPost2010PropOp30
 70
     1
102
RTVSPost2010Prop31
280
     0
102
RTVSPost2010PropOp31
 70
     1
102
RTVSPost2010Prop32
280
     0
102
RTVSPost2010PropOp32
 70
     1
102
RTVSPost2010Prop33
280
     0
102
RTVSPost2010PropOp33
 70
     1
102
RTVSPost2010Prop34
280
     0
102
RTVSPost2010PropOp34
 70
     1
102
RTVSPost2010Prop35
280
     0
102
RTVSPost2010PropOp35
 70
     1
102
RTVSPost2010Prop36
280
     0
102
RTVSPost2010PropOp36
 70
     1
102
RTVSPost2010Prop37
 90
       50
102
RTVSPost2010PropOp37
 70
     1
102
RTVSPost2010Prop38
140
0.0
102
RTVSPost2010PropOp38
 70
     1
102
RTVSPost2010Prop39
140
1.0
102
RTVSPost2010PropOp39
 70
     1
102
RTVSPost2010Prop40
 90
        0
102
RTVSPost2010PropOp40
 70
     1
102
RTVSPost2010Prop41ColorIndex
 90
       18
102
RTVSPost2010Prop41ColorRGB
 90
        0
102
RTVSPost2010PropOp41
 70
     1
102
RTVSPost2010Prop42
 90
       50
102
RTVSPost2010PropOp42
 70
     1
102
RTVSPost2010Prop43
 90
        3
102
RTVSPost2010PropOp43
 70
     1
102
RTVSPost2010Prop44ColorIndex
 90
        5
102
RTVSPost2010Prop44ColorRGB
 90
      255
102
RTVSPost2010PropOp44
 70
     1
102
RTVSPost2010Prop45
280
     0
102
RTVSPost2010PropOp45
 70
     1
102
RTVSPost2010Prop46
 90
       50
102
RTVSPost2010PropOp46
 70
     1
102
RTVSPost2010Prop47
 90
       50
102
RTVSPost2010PropOp47
 70
     1
102
RTVSPost2010Prop48
 90
       50
102
RTVSPost2010PropOp48
 70
     1
102
RTVSPost2010Prop49
280
     0
102
RTVSPost2010PropOp49
 70
     1
102
RTVSPost2010Prop50
 90
       50
102
RTVSPost2010PropOp50
 70
     1
102
RTVSPost2010Prop51ColorIndex
 90
      256
102
RTVSPost2010Prop51ColorRGB
 90
-16777216
102
RTVSPost2010PropOp51
 70
     0
102
RTVSPost2010Prop52
140
1.0
102
RTVSPost2010PropOp52
 70
     0
102
RTVSPost2010Prop53
 90
        2
102
RTVSPost2010PropOp53
 70
     1
102
RTVSPost2010Prop54
  1
strokes_ogs.tif
102
RTVSPost2010PropOp54
 70
     1
102
RTVSPost2010Prop55
280
     0
102
RTVSPost2010PropOp55
 70
     1
102
RTVSPost2010Prop56
140
1.0
102
RTVSPost2010PropOp56
 70
     1
102
RTVSPost2010Prop57
140
1.0
102
RTVSPost2010PropOp57
 70
     1
102
RTVSPropertyOp0
 70
     1
102
RTVSPropertyOp1
 70
     1
102
RTVSPropertyOp2
 70
     1
102
RTVSPropertyOp3
 70
     1
102
RTVSPropertyOp4
 70
     1
102
RTVSPropertyOp5
 70
     1
102
RTVSPropertyOp6
 70
     1
102
RTVSPropertyOp7
 70
     1
102
RTVSPropertyOp8
 70
     1
102
RTVSPropertyOp9
 70
     1
102
RTVSPropertyOp10
 70
     1
102
RTVSPropertyOp11
 70
     1
102
RTVSPropertyOp12
 70
     1
102
RTVSPropertyOp13
 70
     1
102
RTVSPropertyOp14
 70
     1
102
RTVSPropertyOp15
 70
     1
102
RTVSPropertyOp16
 70
     1
102
RTVSPropertyOp17
 70
     1
102
RTVSPropertyOp18
 70
     1
102
RTVSPropertyOp19
 70
     1
102
RTVSPropertyOp20
 70
     1
102
RTVSPropertyOp21
 70
     1
102
RTVSPropertyOp22
 70
     1
102
RTVSPropertyOp23
 70
     1
102
RTVSPropertyOp24
 70
     1
102
RTVSPropertyOp25
 70
     1
102
RTVSPropertyOp26
 70
     1
102
RTVSPropertyOp27
 70
     1
102
RTVSPropertyOp28
 70
     1
102
RTVSPropertyOp29
 70
     1
102
RTVSPropertyOp30
 70
     1
102
RTVSPropertyOp31
 70
     1
102
RTVSPropertyOp32
 70
     1
102
RTVSPropertyOp33
 70
     1
102
RTVSPropertyOp34
 70
     1
102
RTVSPropertyOp35
 70
     1
102
RTVSPropertyOp36
 70
     1
102
RTVSPropertyOp37
 70
     1
102
RTVSPropertyOp38
 70
     1
102
RTVSPropertyOp39
 70
     1
102
RTVSPropertyOp40
 70
     1
102
RTVSPropertyOp41
 70
     1
102
RTVSPropertyOp42
 70
     1
102
RTVSPropertyOp43
 70
     1
102
RTVSPropertyOp44
 70
     1
102
RTVSPropertyOp45
 70
     1
102
RTVSPropertyOp46
 70
     1
102
RTVSPropertyOp47
 70
     1
102
RTVSPropertyOp48
 70
     1
102
RTVSPropertyOp49
 70
     1
102
RTVSPropertyOp50
 70
     1
102
RTVSPropertyOp51
 70
     0
102
RTVSPropertyOp52
 70
     0
102
RTVSPropertyOp53
 70
     1
102
RTVSPropertyOp54
 70
     1
102
RTVSPropertyOp55
 70
     1
102
RTVSPropertyOp56
 70
     1
102
RTVSPropertyOp57
 70
     1
102
RTVSPropertyOp58
 70
     1
102
RTVSPropertyOp59
 70
     1
102
RTVSPropertyOp60
 70
     1
102
RTVSPropertyOp61
 70
     1
102
RTVSPropertyOp62
 70
     1
  0
XRECORD
  5
1CB2A
102
{ACAD_REACTORS
330
1CB29
102
}
330
1CB29
100
AcDbXrecord
280
     1
102
RTVSPost2010Prop28
280
     0
102
RTVSPost2010PropOp28
 70
     1
102
RTVSPost2010Prop29
280
     1
102
RTVSPost2010PropOp29
 70
     1
102
RTVSPost2010Prop30
280
     1
102
RTVSPost2010PropOp30
 70
     1
102
RTVSPost2010Prop31
280
     0
102
RTVSPost2010PropOp31
 70
     1
102
RTVSPost2010Prop32
280
     0
102
RTVSPost2010PropOp32
 70
     1
102
RTVSPost2010Prop33
280
     0
102
RTVSPost2010PropOp33
 70
     1
102
RTVSPost2010Prop34
280
     0
102
RTVSPost2010PropOp34
 70
     1
102
RTVSPost2010Prop35
280
     0
102
RTVSPost2010PropOp35
 70
     1
102
RTVSPost2010Prop36
280
     0
102
RTVSPost2010PropOp36
 70
     1
102
RTVSPost2010Prop37
 90
       50
102
RTVSPost2010PropOp37
 70
     1
102
RTVSPost2010Prop38
140
0.0
102
RTVSPost2010PropOp38
 70
     1
102
RTVSPost2010Prop39
140
1.0
102
RTVSPost2010PropOp39
 70
     1
102
RTVSPost2010Prop40
 90
        0
102
RTVSPost2010PropOp40
 70
     1
102
RTVSPost2010Prop41ColorIndex
 90
       18
102
RTVSPost2010Prop41ColorRGB
 90
        0
102
RTVSPost2010PropOp41
 70
     1
102
RTVSPost2010Prop42
 90
       50
102
RTVSPost2010PropOp42
 70
     1
102
RTVSPost2010Prop43
 90
        3
102
RTVSPost2010PropOp43
 70
     1
102
RTVSPost2010Prop44ColorIndex
 90
        5
102
RTVSPost2010Prop44ColorRGB
 90
      255
102
RTVSPost2010PropOp44
 70
     1
102
RTVSPost2010Prop45
280
     0
102
RTVSPost2010PropOp45
 70
     1
102
RTVSPost2010Prop46
 90
       50
102
RTVSPost2010PropOp46
 70
     1
102
RTVSPost2010Prop47
 90
       50
102
RTVSPost2010PropOp47
 70
     1
102
RTVSPost2010Prop48
 90
       50
102
RTVSPost2010PropOp48
 70
     1
102
RTVSPost2010Prop49
280
     0
102
RTVSPost2010PropOp49
 70
     1
102
RTVSPost2010Prop50
 90
       50
102
RTVSPost2010PropOp50
 70
     1
102
RTVSPost2010Prop51ColorIndex
 90
      256
102
RTVSPost2010Prop51ColorRGB
 90
-16777216
102
RTVSPost2010PropOp51
 70
     0
102
RTVSPost2010Prop52
140
1.0
102
RTVSPost2010PropOp52
 70
     0
102
RTVSPost2010Prop53
 90
        2
102
RTVSPost2010PropOp53
 70
     1
102
RTVSPost2010Prop54
  1
strokes_ogs.tif
102
RTVSPost2010PropOp54
 70
     1
102
RTVSPost2010Prop55
280
     0
102
RTVSPost2010PropOp55
 70
     1
102
RTVSPost2010Prop56
140
1.0
102
RTVSPost2010PropOp56
 70
     1
102
RTVSPost2010Prop57
140
1.0
102
RTVSPost2010PropOp57
 70
     1
102
RTVSPropertyOp0
 70
     1
102
RTVSPropertyOp1
 70
     1
102
RTVSPropertyOp2
 70
     1
102
RTVSPropertyOp3
 70
     1
102
RTVSPropertyOp4
 70
     1
102
RTVSPropertyOp5
 70
     1
102
RTVSPropertyOp6
 70
     1
102
RTVSPropertyOp7
 70
     1
102
RTVSPropertyOp8
 70
     1
102
RTVSPropertyOp9
 70
     1
102
RTVSPropertyOp10
 70
     1
102
RTVSPropertyOp11
 70
     1
102
RTVSPropertyOp12
 70
     1
102
RTVSPropertyOp13
 70
     1
102
RTVSPropertyOp14
 70
     1
102
RTVSPropertyOp15
 70
     1
102
RTVSPropertyOp16
 70
     1
102
RTVSPropertyOp17
 70
     1
102
RTVSPropertyOp18
 70
     1
102
RTVSPropertyOp19
 70
     1
102
RTVSPropertyOp20
 70
     1
102
RTVSPropertyOp21
 70
     1
102
RTVSPropertyOp22
 70
     1
102
RTVSPropertyOp23
 70
     1
102
RTVSPropertyOp24
 70
     1
102
RTVSPropertyOp25
 70
     1
102
RTVSPropertyOp26
 70
     1
102
RTVSPropertyOp27
 70
     1
102
RTVSPropertyOp28
 70
     1
102
RTVSPropertyOp29
 70
     1
102
RTVSPropertyOp30
 70
     1
102
RTVSPropertyOp31
 70
     1
102
RTVSPropertyOp32
 70
     1
102
RTVSPropertyOp33
 70
     1
102
RTVSPropertyOp34
 70
     1
102
RTVSPropertyOp35
 70
     1
102
RTVSPropertyOp36
 70
     1
102
RTVSPropertyOp37
 70
     1
102
RTVSPropertyOp38
 70
     1
102
RTVSPropertyOp39
 70
     1
102
RTVSPropertyOp40
 70
     1
102
RTVSPropertyOp41
 70
     1
102
RTVSPropertyOp42
 70
     1
102
RTVSPropertyOp43
 70
     1
102
RTVSPropertyOp44
 70
     1
102
RTVSPropertyOp45
 70
     1
102
RTVSPropertyOp46
 70
     1
102
RTVSPropertyOp47
 70
     1
102
RTVSPropertyOp48
 70
     1
102
RTVSPropertyOp49
 70
     1
102
RTVSPropertyOp50
 70
     1
102
RTVSPropertyOp51
 70
     0
102
RTVSPropertyOp52
 70
     0
102
RTVSPropertyOp53
 70
     1
102
RTVSPropertyOp54
 70
     1
102
RTVSPropertyOp55
 70
     1
102
RTVSPropertyOp56
 70
     1
102
RTVSPropertyOp57
 70
     1
102
RTVSPropertyOp58
 70
     1
102
RTVSPropertyOp59
 70
     1
102
RTVSPropertyOp60
 70
     1
102
RTVSPropertyOp61
 70
     1
102
RTVSPropertyOp62
 70
     1
  0
XRECORD
  5
1CB2C
102
{ACAD_REACTORS
330
1CB2B
102
}
330
1CB2B
100
AcDbXrecord
280
     1
102
RTVSPost2010Prop28
280
     0
102
RTVSPost2010PropOp28
 70
     1
102
RTVSPost2010Prop29
280
     1
102
RTVSPost2010PropOp29
 70
     1
102
RTVSPost2010Prop30
280
     1
102
RTVSPost2010PropOp30
 70
     1
102
RTVSPost2010Prop31
280
     0
102
RTVSPost2010PropOp31
 70
     1
102
RTVSPost2010Prop32
280
     0
102
RTVSPost2010PropOp32
 70
     1
102
RTVSPost2010Prop33
280
     0
102
RTVSPost2010PropOp33
 70
     1
102
RTVSPost2010Prop34
280
     0
102
RTVSPost2010PropOp34
 70
     1
102
RTVSPost2010Prop35
280
     0
102
RTVSPost2010PropOp35
 70
     1
102
RTVSPost2010Prop36
280
     0
102
RTVSPost2010PropOp36
 70
     1
102
RTVSPost2010Prop37
 90
       50
102
RTVSPost2010PropOp37
 70
     1
102
RTVSPost2010Prop38
140
0.0
102
RTVSPost2010PropOp38
 70
     1
102
RTVSPost2010Prop39
140
1.0
102
RTVSPost2010PropOp39
 70
     1
102
RTVSPost2010Prop40
 90
        0
102
RTVSPost2010PropOp40
 70
     1
102
RTVSPost2010Prop41ColorIndex
 90
       18
102
RTVSPost2010Prop41ColorRGB
 90
        0
102
RTVSPost2010PropOp41
 70
     1
102
RTVSPost2010Prop42
 90
       50
102
RTVSPost2010PropOp42
 70
     1
102
RTVSPost2010Prop43
 90
        3
102
RTVSPost2010PropOp43
 70
     1
102
RTVSPost2010Prop44ColorIndex
 90
        5
102
RTVSPost2010Prop44ColorRGB
 90
      255
102
RTVSPost2010PropOp44
 70
     1
102
RTVSPost2010Prop45
280
     0
102
RTVSPost2010PropOp45
 70
     1
102
RTVSPost2010Prop46
 90
       50
102
RTVSPost2010PropOp46
 70
     1
102
RTVSPost2010Prop47
 90
       50
102
RTVSPost2010PropOp47
 70
     1
102
RTVSPost2010Prop48
 90
       50
102
RTVSPost2010PropOp48
 70
     1
102
RTVSPost2010Prop49
280
     0
102
RTVSPost2010PropOp49
 70
     1
102
RTVSPost2010Prop50
 90
       50
102
RTVSPost2010PropOp50
 70
     1
102
RTVSPost2010Prop51ColorIndex
 90
      256
102
RTVSPost2010Prop51ColorRGB
 90
-16777216
102
RTVSPost2010PropOp51
 70
     0
102
RTVSPost2010Prop52
140
1.0
102
RTVSPost2010PropOp52
 70
     0
102
RTVSPost2010Prop53
 90
        2
102
RTVSPost2010PropOp53
 70
     1
102
RTVSPost2010Prop54
  1
strokes_ogs.tif
102
RTVSPost2010PropOp54
 70
     1
102
RTVSPost2010Prop55
280
     0
102
RTVSPost2010PropOp55
 70
     1
102
RTVSPost2010Prop56
140
1.0
102
RTVSPost2010PropOp56
 70
     1
102
RTVSPost2010Prop57
140
1.0
102
RTVSPost2010PropOp57
 70
     1
102
RTVSPropertyOp0
 70
     1
102
RTVSPropertyOp1
 70
     1
102
RTVSPropertyOp2
 70
     1
102
RTVSPropertyOp3
 70
     1
102
RTVSPropertyOp4
 70
     1
102
RTVSPropertyOp5
 70
     1
102
RTVSPropertyOp6
 70
     1
102
RTVSPropertyOp7
 70
     1
102
RTVSPropertyOp8
 70
     1
102
RTVSPropertyOp9
 70
     1
102
RTVSPropertyOp10
 70
     1
102
RTVSPropertyOp11
 70
     1
102
RTVSPropertyOp12
 70
     1
102
RTVSPropertyOp13
 70
     1
102
RTVSPropertyOp14
 70
     1
102
RTVSPropertyOp15
 70
     1
102
RTVSPropertyOp16
 70
     1
102
RTVSPropertyOp17
 70
     1
102
RTVSPropertyOp18
 70
     1
102
RTVSPropertyOp19
 70
     1
102
RTVSPropertyOp20
 70
     1
102
RTVSPropertyOp21
 70
     1
102
RTVSPropertyOp22
 70
     1
102
RTVSPropertyOp23
 70
     1
102
RTVSPropertyOp24
 70
     1
102
RTVSPropertyOp25
 70
     1
102
RTVSPropertyOp26
 70
     1
102
RTVSPropertyOp27
 70
     1
102
RTVSPropertyOp28
 70
     1
102
RTVSPropertyOp29
 70
     1
102
RTVSPropertyOp30
 70
     1
102
RTVSPropertyOp31
 70
     1
102
RTVSPropertyOp32
 70
     1
102
RTVSPropertyOp33
 70
     1
102
RTVSPropertyOp34
 70
     1
102
RTVSPropertyOp35
 70
     1
102
RTVSPropertyOp36
 70
     1
102
RTVSPropertyOp37
 70
     1
102
RTVSPropertyOp38
 70
     1
102
RTVSPropertyOp39
 70
     1
102
RTVSPropertyOp40
 70
     1
102
RTVSPropertyOp41
 70
     1
102
RTVSPropertyOp42
 70
     1
102
RTVSPropertyOp43
 70
     1
102
RTVSPropertyOp44
 70
     1
102
RTVSPropertyOp45
 70
     1
102
RTVSPropertyOp46
 70
     1
102
RTVSPropertyOp47
 70
     1
102
RTVSPropertyOp48
 70
     1
102
RTVSPropertyOp49
 70
     1
102
RTVSPropertyOp50
 70
     1
102
RTVSPropertyOp51
 70
     0
102
RTVSPropertyOp52
 70
     0
102
RTVSPropertyOp53
 70
     1
102
RTVSPropertyOp54
 70
     1
102
RTVSPropertyOp55
 70
     1
102
RTVSPropertyOp56
 70
     1
102
RTVSPropertyOp57
 70
     1
102
RTVSPropertyOp58
 70
     1
102
RTVSPropertyOp59
 70
     1
102
RTVSPropertyOp60
 70
     1
102
RTVSPropertyOp61
 70
     1
102
RTVSPropertyOp62
 70
     1
  0
XRECORD
  5
1CB2E
102
{ACAD_REACTORS
330
1CB2D
102
}
330
1CB2D
100
AcDbXrecord
280
     1
102
RTVSPost2010Prop28
280
     0
102
RTVSPost2010PropOp28
 70
     1
102
RTVSPost2010Prop29
280
     1
102
RTVSPost2010PropOp29
 70
     1
102
RTVSPost2010Prop30
280
     1
102
RTVSPost2010PropOp30
 70
     1
102
RTVSPost2010Prop31
280
     0
102
RTVSPost2010PropOp31
 70
     1
102
RTVSPost2010Prop32
280
     0
102
RTVSPost2010PropOp32
 70
     1
102
RTVSPost2010Prop33
280
     0
102
RTVSPost2010PropOp33
 70
     1
102
RTVSPost2010Prop34
280
     0
102
RTVSPost2010PropOp34
 70
     1
102
RTVSPost2010Prop35
280
     0
102
RTVSPost2010PropOp35
 70
     1
102
RTVSPost2010Prop36
280
     0
102
RTVSPost2010PropOp36
 70
     1
102
RTVSPost2010Prop37
 90
       50
102
RTVSPost2010PropOp37
 70
     1
102
RTVSPost2010Prop38
140
0.0
102
RTVSPost2010PropOp38
 70
     1
102
RTVSPost2010Prop39
140
1.0
102
RTVSPost2010PropOp39
 70
     1
102
RTVSPost2010Prop40
 90
        0
102
RTVSPost2010PropOp40
 70
     1
102
RTVSPost2010Prop41ColorIndex
 90
       18
102
RTVSPost2010Prop41ColorRGB
 90
        0
102
RTVSPost2010PropOp41
 70
     1
102
RTVSPost2010Prop42
 90
       50
102
RTVSPost2010PropOp42
 70
     1
102
RTVSPost2010Prop43
 90
        3
102
RTVSPost2010PropOp43
 70
     1
102
RTVSPost2010Prop44ColorIndex
 90
        5
102
RTVSPost2010Prop44ColorRGB
 90
      255
102
RTVSPost2010PropOp44
 70
     1
102
RTVSPost2010Prop45
280
     0
102
RTVSPost2010PropOp45
 70
     1
102
RTVSPost2010Prop46
 90
       50
102
RTVSPost2010PropOp46
 70
     1
102
RTVSPost2010Prop47
 90
       50
102
RTVSPost2010PropOp47
 70
     1
102
RTVSPost2010Prop48
 90
       50
102
RTVSPost2010PropOp48
 70
     1
102
RTVSPost2010Prop49
280
     0
102
RTVSPost2010PropOp49
 70
     1
102
RTVSPost2010Prop50
 90
       50
102
RTVSPost2010PropOp50
 70
     1
102
RTVSPost2010Prop51ColorIndex
 90
      256
102
RTVSPost2010Prop51ColorRGB
 90
-16777216
102
RTVSPost2010PropOp51
 70
     0
102
RTVSPost2010Prop52
140
1.0
102
RTVSPost2010PropOp52
 70
     0
102
RTVSPost2010Prop53
 90
        2
102
RTVSPost2010PropOp53
 70
     1
102
RTVSPost2010Prop54
  1
strokes_ogs.tif
102
RTVSPost2010PropOp54
 70
     1
102
RTVSPost2010Prop55
280
     0
102
RTVSPost2010PropOp55
 70
     1
102
RTVSPost2010Prop56
140
1.0
102
RTVSPost2010PropOp56
 70
     1
102
RTVSPost2010Prop57
140
1.0
102
RTVSPost2010PropOp57
 70
     1
102
RTVSPropertyOp0
 70
     1
102
RTVSPropertyOp1
 70
     1
102
RTVSPropertyOp2
 70
     1
102
RTVSPropertyOp3
 70
     1
102
RTVSPropertyOp4
 70
     1
102
RTVSPropertyOp5
 70
     1
102
RTVSPropertyOp6
 70
     1
102
RTVSPropertyOp7
 70
     1
102
RTVSPropertyOp8
 70
     1
102
RTVSPropertyOp9
 70
     1
102
RTVSPropertyOp10
 70
     1
102
RTVSPropertyOp11
 70
     1
102
RTVSPropertyOp12
 70
     1
102
RTVSPropertyOp13
 70
     1
102
RTVSPropertyOp14
 70
     1
102
RTVSPropertyOp15
 70
     1
102
RTVSPropertyOp16
 70
     1
102
RTVSPropertyOp17
 70
     1
102
RTVSPropertyOp18
 70
     1
102
RTVSPropertyOp19
 70
     1
102
RTVSPropertyOp20
 70
     1
102
RTVSPropertyOp21
 70
     1
102
RTVSPropertyOp22
 70
     1
102
RTVSPropertyOp23
 70
     1
102
RTVSPropertyOp24
 70
     1
102
RTVSPropertyOp25
 70
     1
102
RTVSPropertyOp26
 70
     1
102
RTVSPropertyOp27
 70
     1
102
RTVSPropertyOp28
 70
     1
102
RTVSPropertyOp29
 70
     1
102
RTVSPropertyOp30
 70
     1
102
RTVSPropertyOp31
 70
     1
102
RTVSPropertyOp32
 70
     1
102
RTVSPropertyOp33
 70
     1
102
RTVSPropertyOp34
 70
     1
102
RTVSPropertyOp35
 70
     1
102
RTVSPropertyOp36
 70
     1
102
RTVSPropertyOp37
 70
     1
102
RTVSPropertyOp38
 70
     1
102
RTVSPropertyOp39
 70
     1
102
RTVSPropertyOp40
 70
     1
102
RTVSPropertyOp41
 70
     1
102
RTVSPropertyOp42
 70
     1
102
RTVSPropertyOp43
 70
     1
102
RTVSPropertyOp44
 70
     1
102
RTVSPropertyOp45
 70
     1
102
RTVSPropertyOp46
 70
     1
102
RTVSPropertyOp47
 70
     1
102
RTVSPropertyOp48
 70
     1
102
RTVSPropertyOp49
 70
     1
102
RTVSPropertyOp50
 70
     1
102
RTVSPropertyOp51
 70
     0
102
RTVSPropertyOp52
 70
     0
102
RTVSPropertyOp53
 70
     1
102
RTVSPropertyOp54
 70
     1
102
RTVSPropertyOp55
 70
     1
102
RTVSPropertyOp56
 70
     1
102
RTVSPropertyOp57
 70
     1
102
RTVSPropertyOp58
 70
     1
102
RTVSPropertyOp59
 70
     1
102
RTVSPropertyOp60
 70
     1
102
RTVSPropertyOp61
 70
     1
102
RTVSPropertyOp62
 70
     1
  0
XRECORD
  5
1CB36
102
{ACAD_REACTORS
330
1CB35
102
}
330
1CB35
100
AcDbXrecord
280
     1
102
RTVSPost2010Prop28
280
     0
102
RTVSPost2010PropOp28
 70
     1
102
RTVSPost2010Prop29
280
     1
102
RTVSPost2010PropOp29
 70
     1
102
RTVSPost2010Prop30
280
     1
102
RTVSPost2010PropOp30
 70
     1
102
RTVSPost2010Prop31
280
     0
102
RTVSPost2010PropOp31
 70
     1
102
RTVSPost2010Prop32
280
     0
102
RTVSPost2010PropOp32
 70
     1
102
RTVSPost2010Prop33
280
     0
102
RTVSPost2010PropOp33
 70
     1
102
RTVSPost2010Prop34
280
     0
102
RTVSPost2010PropOp34
 70
     1
102
RTVSPost2010Prop35
280
     0
102
RTVSPost2010PropOp35
 70
     1
102
RTVSPost2010Prop36
280
     0
102
RTVSPost2010PropOp36
 70
     1
102
RTVSPost2010Prop37
 90
       50
102
RTVSPost2010PropOp37
 70
     1
102
RTVSPost2010Prop38
140
0.0
102
RTVSPost2010PropOp38
 70
     1
102
RTVSPost2010Prop39
140
1.0
102
RTVSPost2010PropOp39
 70
     1
102
RTVSPost2010Prop40
 90
        0
102
RTVSPost2010PropOp40
 70
     1
102
RTVSPost2010Prop41ColorIndex
 90
       18
102
RTVSPost2010Prop41ColorRGB
 90
        0
102
RTVSPost2010PropOp41
 70
     1
102
RTVSPost2010Prop42
 90
       50
102
RTVSPost2010PropOp42
 70
     1
102
RTVSPost2010Prop43
 90
        3
102
RTVSPost2010PropOp43
 70
     1
102
RTVSPost2010Prop44ColorIndex
 90
        5
102
RTVSPost2010Prop44ColorRGB
 90
      255
102
RTVSPost2010PropOp44
 70
     1
102
RTVSPost2010Prop45
280
     0
102
RTVSPost2010PropOp45
 70
     1
102
RTVSPost2010Prop46
 90
       50
102
RTVSPost2010PropOp46
 70
     1
102
RTVSPost2010Prop47
 90
       50
102
RTVSPost2010PropOp47
 70
     1
102
RTVSPost2010Prop48
 90
       50
102
RTVSPost2010PropOp48
 70
     1
102
RTVSPost2010Prop49
280
     0
102
RTVSPost2010PropOp49
 70
     1
102
RTVSPost2010Prop50
 90
       50
102
RTVSPost2010PropOp50
 70
     1
102
RTVSPost2010Prop51ColorIndex
 90
      256
102
RTVSPost2010Prop51ColorRGB
 90
-16777216
102
RTVSPost2010PropOp51
 70
     0
102
RTVSPost2010Prop52
140
1.0
102
RTVSPost2010PropOp52
 70
     0
102
RTVSPost2010Prop53
 90
        2
102
RTVSPost2010PropOp53
 70
     1
102
RTVSPost2010Prop54
  1
strokes_ogs.tif
102
RTVSPost2010PropOp54
 70
     1
102
RTVSPost2010Prop55
280
     0
102
RTVSPost2010PropOp55
 70
     1
102
RTVSPost2010Prop56
140
1.0
102
RTVSPost2010PropOp56
 70
     1
102
RTVSPost2010Prop57
140
1.0
102
RTVSPost2010PropOp57
 70
     1
102
RTVSPropertyOp0
 70
     1
102
RTVSPropertyOp1
 70
     1
102
RTVSPropertyOp2
 70
     1
102
RTVSPropertyOp3
 70
     1
102
RTVSPropertyOp4
 70
     1
102
RTVSPropertyOp5
 70
     1
102
RTVSPropertyOp6
 70
     1
102
RTVSPropertyOp7
 70
     1
102
RTVSPropertyOp8
 70
     1
102
RTVSPropertyOp9
 70
     1
102
RTVSPropertyOp10
 70
     1
102
RTVSPropertyOp11
 70
     1
102
RTVSPropertyOp12
 70
     1
102
RTVSPropertyOp13
 70
     1
102
RTVSPropertyOp14
 70
     1
102
RTVSPropertyOp15
 70
     1
102
RTVSPropertyOp16
 70
     1
102
RTVSPropertyOp17
 70
     1
102
RTVSPropertyOp18
 70
     1
102
RTVSPropertyOp19
 70
     1
102
RTVSPropertyOp20
 70
     1
102
RTVSPropertyOp21
 70
     1
102
RTVSPropertyOp22
 70
     1
102
RTVSPropertyOp23
 70
     1
102
RTVSPropertyOp24
 70
     1
102
RTVSPropertyOp25
 70
     1
102
RTVSPropertyOp26
 70
     1
102
RTVSPropertyOp27
 70
     1
102
RTVSPropertyOp28
 70
     1
102
RTVSPropertyOp29
 70
     1
102
RTVSPropertyOp30
 70
     1
102
RTVSPropertyOp31
 70
     1
102
RTVSPropertyOp32
 70
     1
102
RTVSPropertyOp33
 70
     1
102
RTVSPropertyOp34
 70
     1
102
RTVSPropertyOp35
 70
     1
102
RTVSPropertyOp36
 70
     1
102
RTVSPropertyOp37
 70
     1
102
RTVSPropertyOp38
 70
     1
102
RTVSPropertyOp39
 70
     1
102
RTVSPropertyOp40
 70
     1
102
RTVSPropertyOp41
 70
     1
102
RTVSPropertyOp42
 70
     1
102
RTVSPropertyOp43
 70
     1
102
RTVSPropertyOp44
 70
     1
102
RTVSPropertyOp45
 70
     1
102
RTVSPropertyOp46
 70
     1
102
RTVSPropertyOp47
 70
     1
102
RTVSPropertyOp48
 70
     1
102
RTVSPropertyOp49
 70
     1
102
RTVSPropertyOp50
 70
     1
102
RTVSPropertyOp51
 70
     0
102
RTVSPropertyOp52
 70
     0
102
RTVSPropertyOp53
 70
     1
102
RTVSPropertyOp54
 70
     1
102
RTVSPropertyOp55
 70
     1
102
RTVSPropertyOp56
 70
     1
102
RTVSPropertyOp57
 70
     1
102
RTVSPropertyOp58
 70
     1
102
RTVSPropertyOp59
 70
     1
102
RTVSPropertyOp60
 70
     1
102
RTVSPropertyOp61
 70
     1
102
RTVSPropertyOp62
 70
     1
  0
XRECORD
  5
1CB52
102
{ACAD_REACTORS
330
1CB51
102
}
330
1CB51
100
AcDbXrecord
280
     1
102
RTVSPost2010Prop28
280
     0
102
RTVSPost2010PropOp28
 70
     1
102
RTVSPost2010Prop29
280
     1
102
RTVSPost2010PropOp29
 70
     1
102
RTVSPost2010Prop30
280
     1
102
RTVSPost2010PropOp30
 70
     1
102
RTVSPost2010Prop31
280
     0
102
RTVSPost2010PropOp31
 70
     1
102
RTVSPost2010Prop32
280
     0
102
RTVSPost2010PropOp32
 70
     1
102
RTVSPost2010Prop33
280
     0
102
RTVSPost2010PropOp33
 70
     1
102
RTVSPost2010Prop34
280
     0
102
RTVSPost2010PropOp34
 70
     1
102
RTVSPost2010Prop35
280
     0
102
RTVSPost2010PropOp35
 70
     1
102
RTVSPost2010Prop36
280
     0
102
RTVSPost2010PropOp36
 70
     1
102
RTVSPost2010Prop37
 90
       50
102
RTVSPost2010PropOp37
 70
     0
102
RTVSPost2010Prop38
140
0.0
102
RTVSPost2010PropOp38
 70
     0
102
RTVSPost2010Prop39
140
1.0
102
RTVSPost2010PropOp39
 70
     0
102
RTVSPost2010Prop40
 90
        0
102
RTVSPost2010PropOp40
 70
     0
102
RTVSPost2010Prop41ColorIndex
 90
       18
102
RTVSPost2010Prop41ColorRGB
 90
        0
102
RTVSPost2010PropOp41
 70
     0
102
RTVSPost2010Prop42
 90
       50
102
RTVSPost2010PropOp42
 70
     0
102
RTVSPost2010Prop43
 90
        3
102
RTVSPost2010PropOp43
 70
     0
102
RTVSPost2010Prop44ColorIndex
 90
        5
102
RTVSPost2010Prop44ColorRGB
 90
      255
102
RTVSPost2010PropOp44
 70
     0
102
RTVSPost2010Prop45
280
     0
102
RTVSPost2010PropOp45
 70
     1
102
RTVSPost2010Prop46
 90
       50
102
RTVSPost2010PropOp46
 70
     0
102
RTVSPost2010Prop47
 90
       50
102
RTVSPost2010PropOp47
 70
     0
102
RTVSPost2010Prop48
 90
       50
102
RTVSPost2010PropOp48
 70
     0
102
RTVSPost2010Prop49
280
     0
102
RTVSPost2010PropOp49
 70
     1
102
RTVSPost2010Prop50
 90
       50
102
RTVSPost2010PropOp50
 70
     0
102
RTVSPost2010Prop51ColorIndex
 90
      256
102
RTVSPost2010Prop51ColorRGB
 90
-16777216
102
RTVSPost2010PropOp51
 70
     0
102
RTVSPost2010Prop52
140
1.0
102
RTVSPost2010PropOp52
 70
     0
102
RTVSPost2010Prop53
 90
        2
102
RTVSPost2010PropOp53
 70
     0
102
RTVSPost2010Prop54
  1
strokes_ogs.tif
102
RTVSPost2010PropOp54
 70
     0
102
RTVSPost2010Prop55
280
     0
102
RTVSPost2010PropOp55
 70
     1
102
RTVSPost2010Prop56
140
1.0
102
RTVSPost2010PropOp56
 70
     0
102
RTVSPost2010Prop57
140
1.0
102
RTVSPost2010PropOp57
 70
     0
102
RTVSPropertyOp0
 70
     0
102
RTVSPropertyOp1
 70
     0
102
RTVSPropertyOp2
 70
     0
102
RTVSPropertyOp3
 70
     0
102
RTVSPropertyOp4
 70
     0
102
RTVSPropertyOp5
 70
     0
102
RTVSPropertyOp6
 70
     0
102
RTVSPropertyOp7
 70
     0
102
RTVSPropertyOp8
 70
     0
102
RTVSPropertyOp9
 70
     0
102
RTVSPropertyOp10
 70
     0
102
RTVSPropertyOp11
 70
     0
102
RTVSPropertyOp12
 70
     0
102
RTVSPropertyOp13
 70
     0
102
RTVSPropertyOp14
 70
     2
102
RTVSPropertyOp15
 70
     0
102
RTVSPropertyOp16
 70
     0
102
RTVSPropertyOp17
 70
     0
102
RTVSPropertyOp18
 70
     0
102
RTVSPropertyOp19
 70
     0
102
RTVSPropertyOp20
 70
     0
102
RTVSPropertyOp21
 70
     0
102
RTVSPropertyOp22
 70
     0
102
RTVSPropertyOp23
 70
     0
102
RTVSPropertyOp24
 70
     0
102
RTVSPropertyOp25
 70
     0
102
RTVSPropertyOp26
 70
     0
102
RTVSPropertyOp27
 70
     0
102
RTVSPropertyOp28
 70
     1
102
RTVSPropertyOp29
 70
     1
102
RTVSPropertyOp30
 70
     1
102
RTVSPropertyOp31
 70
     1
102
RTVSPropertyOp32
 70
     1
102
RTVSPropertyOp33
 70
     1
102
RTVSPropertyOp34
 70
     1
102
RTVSPropertyOp35
 70
     1
102
RTVSPropertyOp36
 70
     1
102
RTVSPropertyOp37
 70
     0
102
RTVSPropertyOp38
 70
     0
102
RTVSPropertyOp39
 70
     0
102
RTVSPropertyOp40
 70
     0
102
RTVSPropertyOp41
 70
     0
102
RTVSPropertyOp42
 70
     0
102
RTVSPropertyOp43
 70
     0
102
RTVSPropertyOp44
 70
     0
102
RTVSPropertyOp45
 70
     1
102
RTVSPropertyOp46
 70
     0
102
RTVSPropertyOp47
 70
     0
102
RTVSPropertyOp48
 70
     0
102
RTVSPropertyOp49
 70
     1
102
RTVSPropertyOp50
 70
     0
102
RTVSPropertyOp51
 70
     0
102
RTVSPropertyOp52
 70
     0
102
RTVSPropertyOp53
 70
     0
102
RTVSPropertyOp54
 70
     0
102
RTVSPropertyOp55
 70
     1
102
RTVSPropertyOp56
 70
     0
102
RTVSPropertyOp57
 70
     0
102
RTVSPropertyOp58
 70
     0
102
RTVSPropertyOp59
 70
     0
102
RTVSPropertyOp60
 70
     0
102
RTVSPropertyOp61
 70
     0
102
RTVSPropertyOp62
 70
     0
  0
XRECORD
  5
1CB42
102
{ACAD_REACTORS
330
1CB41
102
}
330
1CB41
100
AcDbXrecord
280
     1
102
RTVSPost2010Prop28
280
     0
102
RTVSPost2010PropOp28
 70
     1
102
RTVSPost2010Prop29
280
     1
102
RTVSPost2010PropOp29
 70
     1
102
RTVSPost2010Prop30
280
     1
102
RTVSPost2010PropOp30
 70
     1
102
RTVSPost2010Prop31
280
     0
102
RTVSPost2010PropOp31
 70
     1
102
RTVSPost2010Prop32
280
     0
102
RTVSPost2010PropOp32
 70
     1
102
RTVSPost2010Prop33
280
     0
102
RTVSPost2010PropOp33
 70
     1
102
RTVSPost2010Prop34
280
     0
102
RTVSPost2010PropOp34
 70
     1
102
RTVSPost2010Prop35
280
     0
102
RTVSPost2010PropOp35
 70
     1
102
RTVSPost2010Prop36
280
     0
102
RTVSPost2010PropOp36
 70
     1
102
RTVSPost2010Prop37
 90
       50
102
RTVSPost2010PropOp37
 70
     1
102
RTVSPost2010Prop38
140
0.0
102
RTVSPost2010PropOp38
 70
     1
102
RTVSPost2010Prop39
140
1.0
102
RTVSPost2010PropOp39
 70
     1
102
RTVSPost2010Prop40
 90
        0
102
RTVSPost2010PropOp40
 70
     1
102
RTVSPost2010Prop41ColorIndex
 90
       18
102
RTVSPost2010Prop41ColorRGB
 90
        0
102
RTVSPost2010PropOp41
 70
     1
102
RTVSPost2010Prop42
 90
       50
102
RTVSPost2010PropOp42
 70
     1
102
RTVSPost2010Prop43
 90
        3
102
RTVSPost2010PropOp43
 70
     1
102
RTVSPost2010Prop44ColorIndex
 90
        5
102
RTVSPost2010Prop44ColorRGB
 90
      255
102
RTVSPost2010PropOp44
 70
     1
102
RTVSPost2010Prop45
280
     0
102
RTVSPost2010PropOp45
 70
     1
102
RTVSPost2010Prop46
 90
       50
102
RTVSPost2010PropOp46
 70
     1
102
RTVSPost2010Prop47
 90
       50
102
RTVSPost2010PropOp47
 70
     1
102
RTVSPost2010Prop48
 90
       50
102
RTVSPost2010PropOp48
 70
     1
102
RTVSPost2010Prop49
280
     0
102
RTVSPost2010PropOp49
 70
     1
102
RTVSPost2010Prop50
 90
       50
102
RTVSPost2010PropOp50
 70
     1
102
RTVSPost2010Prop51ColorIndex
 90
      256
102
RTVSPost2010Prop51ColorRGB
 90
-16777216
102
RTVSPost2010PropOp51
 70
     0
102
RTVSPost2010Prop52
140
1.0
102
RTVSPost2010PropOp52
 70
     0
102
RTVSPost2010Prop53
 90
        2
102
RTVSPost2010PropOp53
 70
     1
102
RTVSPost2010Prop54
  1
strokes_ogs.tif
102
RTVSPost2010PropOp54
 70
     1
102
RTVSPost2010Prop55
280
     0
102
RTVSPost2010PropOp55
 70
     1
102
RTVSPost2010Prop56
140
1.0
102
RTVSPost2010PropOp56
 70
     1
102
RTVSPost2010Prop57
140
1.0
102
RTVSPost2010PropOp57
 70
     1
102
RTVSPropertyOp0
 70
     1
102
RTVSPropertyOp1
 70
     1
102
RTVSPropertyOp2
 70
     1
102
RTVSPropertyOp3
 70
     1
102
RTVSPropertyOp4
 70
     1
102
RTVSPropertyOp5
 70
     1
102
RTVSPropertyOp6
 70
     1
102
RTVSPropertyOp7
 70
     1
102
RTVSPropertyOp8
 70
     1
102
RTVSPropertyOp9
 70
     1
102
RTVSPropertyOp10
 70
     1
102
RTVSPropertyOp11
 70
     1
102
RTVSPropertyOp12
 70
     1
102
RTVSPropertyOp13
 70
     1
102
RTVSPropertyOp14
 70
     1
102
RTVSPropertyOp15
 70
     1
102
RTVSPropertyOp16
 70
     1
102
RTVSPropertyOp17
 70
     1
102
RTVSPropertyOp18
 70
     1
102
RTVSPropertyOp19
 70
     1
102
RTVSPropertyOp20
 70
     1
102
RTVSPropertyOp21
 70
     1
102
RTVSPropertyOp22
 70
     1
102
RTVSPropertyOp23
 70
     1
102
RTVSPropertyOp24
 70
     1
102
RTVSPropertyOp25
 70
     1
102
RTVSPropertyOp26
 70
     1
102
RTVSPropertyOp27
 70
     1
102
RTVSPropertyOp28
 70
     1
102
RTVSPropertyOp29
 70
     1
102
RTVSPropertyOp30
 70
     1
102
RTVSPropertyOp31
 70
     1
102
RTVSPropertyOp32
 70
     1
102
RTVSPropertyOp33
 70
     1
102
RTVSPropertyOp34
 70
     1
102
RTVSPropertyOp35
 70
     1
102
RTVSPropertyOp36
 70
     1
102
RTVSPropertyOp37
 70
     1
102
RTVSPropertyOp38
 70
     1
102
RTVSPropertyOp39
 70
     1
102
RTVSPropertyOp40
 70
     1
102
RTVSPropertyOp41
 70
     1
102
RTVSPropertyOp42
 70
     1
102
RTVSPropertyOp43
 70
     1
102
RTVSPropertyOp44
 70
     1
102
RTVSPropertyOp45
 70
     1
102
RTVSPropertyOp46
 70
     1
102
RTVSPropertyOp47
 70
     1
102
RTVSPropertyOp48
 70
     1
102
RTVSPropertyOp49
 70
     1
102
RTVSPropertyOp50
 70
     1
102
RTVSPropertyOp51
 70
     0
102
RTVSPropertyOp52
 70
     0
102
RTVSPropertyOp53
 70
     1
102
RTVSPropertyOp54
 70
     1
102
RTVSPropertyOp55
 70
     1
102
RTVSPropertyOp56
 70
     1
102
RTVSPropertyOp57
 70
     1
102
RTVSPropertyOp58
 70
     1
102
RTVSPropertyOp59
 70
     1
102
RTVSPropertyOp60
 70
     1
102
RTVSPropertyOp61
 70
     1
102
RTVSPropertyOp62
 70
     1
  0
XRECORD
  5
1CB54
102
{ACAD_REACTORS
330
1CB53
102
}
330
1CB53
100
AcDbXrecord
280
     1
102
RTVSPost2010Prop28
280
     0
102
RTVSPost2010PropOp28
 70
     1
102
RTVSPost2010Prop29
280
     1
102
RTVSPost2010PropOp29
 70
     1
102
RTVSPost2010Prop30
280
     1
102
RTVSPost2010PropOp30
 70
     1
102
RTVSPost2010Prop31
280
     0
102
RTVSPost2010PropOp31
 70
     1
102
RTVSPost2010Prop32
280
     0
102
RTVSPost2010PropOp32
 70
     1
102
RTVSPost2010Prop33
280
     0
102
RTVSPost2010PropOp33
 70
     1
102
RTVSPost2010Prop34
280
     0
102
RTVSPost2010PropOp34
 70
     1
102
RTVSPost2010Prop35
280
     0
102
RTVSPost2010PropOp35
 70
     1
102
RTVSPost2010Prop36
280
     0
102
RTVSPost2010PropOp36
 70
     1
102
RTVSPost2010Prop37
 90
       50
102
RTVSPost2010PropOp37
 70
     0
102
RTVSPost2010Prop38
140
0.0
102
RTVSPost2010PropOp38
 70
     0
102
RTVSPost2010Prop39
140
1.0
102
RTVSPost2010PropOp39
 70
     0
102
RTVSPost2010Prop40
 90
        0
102
RTVSPost2010PropOp40
 70
     0
102
RTVSPost2010Prop41ColorIndex
 90
       18
102
RTVSPost2010Prop41ColorRGB
 90
        0
102
RTVSPost2010PropOp41
 70
     0
102
RTVSPost2010Prop42
 90
       50
102
RTVSPost2010PropOp42
 70
     0
102
RTVSPost2010Prop43
 90
        3
102
RTVSPost2010PropOp43
 70
     0
102
RTVSPost2010Prop44ColorIndex
 90
        5
102
RTVSPost2010Prop44ColorRGB
 90
      255
102
RTVSPost2010PropOp44
 70
     0
102
RTVSPost2010Prop45
280
     0
102
RTVSPost2010PropOp45
 70
     1
102
RTVSPost2010Prop46
 90
       50
102
RTVSPost2010PropOp46
 70
     0
102
RTVSPost2010Prop47
 90
       50
102
RTVSPost2010PropOp47
 70
     0
102
RTVSPost2010Prop48
 90
       50
102
RTVSPost2010PropOp48
 70
     0
102
RTVSPost2010Prop49
280
     0
102
RTVSPost2010PropOp49
 70
     1
102
RTVSPost2010Prop50
 90
       50
102
RTVSPost2010PropOp50
 70
     0
102
RTVSPost2010Prop51ColorIndex
 90
      256
102
RTVSPost2010Prop51ColorRGB
 90
-16777216
102
RTVSPost2010PropOp51
 70
     0
102
RTVSPost2010Prop52
140
1.0
102
RTVSPost2010PropOp52
 70
     0
102
RTVSPost2010Prop53
 90
        2
102
RTVSPost2010PropOp53
 70
     0
102
RTVSPost2010Prop54
  1
strokes_ogs.tif
102
RTVSPost2010PropOp54
 70
     0
102
RTVSPost2010Prop55
280
     0
102
RTVSPost2010PropOp55
 70
     1
102
RTVSPost2010Prop56
140
1.0
102
RTVSPost2010PropOp56
 70
     0
102
RTVSPost2010Prop57
140
1.0
102
RTVSPost2010PropOp57
 70
     0
102
RTVSPropertyOp0
 70
     0
102
RTVSPropertyOp1
 70
     0
102
RTVSPropertyOp2
 70
     0
102
RTVSPropertyOp3
 70
     0
102
RTVSPropertyOp4
 70
     0
102
RTVSPropertyOp5
 70
     0
102
RTVSPropertyOp6
 70
     0
102
RTVSPropertyOp7
 70
     0
102
RTVSPropertyOp8
 70
     0
102
RTVSPropertyOp9
 70
     0
102
RTVSPropertyOp10
 70
     0
102
RTVSPropertyOp11
 70
     0
102
RTVSPropertyOp12
 70
     0
102
RTVSPropertyOp13
 70
     0
102
RTVSPropertyOp14
 70
     2
102
RTVSPropertyOp15
 70
     0
102
RTVSPropertyOp16
 70
     0
102
RTVSPropertyOp17
 70
     0
102
RTVSPropertyOp18
 70
     0
102
RTVSPropertyOp19
 70
     0
102
RTVSPropertyOp20
 70
     0
102
RTVSPropertyOp21
 70
     0
102
RTVSPropertyOp22
 70
     0
102
RTVSPropertyOp23
 70
     0
102
RTVSPropertyOp24
 70
     0
102
RTVSPropertyOp25
 70
     0
102
RTVSPropertyOp26
 70
     0
102
RTVSPropertyOp27
 70
     0
102
RTVSPropertyOp28
 70
     1
102
RTVSPropertyOp29
 70
     1
102
RTVSPropertyOp30
 70
     1
102
RTVSPropertyOp31
 70
     1
102
RTVSPropertyOp32
 70
     1
102
RTVSPropertyOp33
 70
     1
102
RTVSPropertyOp34
 70
     1
102
RTVSPropertyOp35
 70
     1
102
RTVSPropertyOp36
 70
     1
102
RTVSPropertyOp37
 70
     0
102
RTVSPropertyOp38
 70
     0
102
RTVSPropertyOp39
 70
     0
102
RTVSPropertyOp40
 70
     0
102
RTVSPropertyOp41
 70
     0
102
RTVSPropertyOp42
 70
     0
102
RTVSPropertyOp43
 70
     0
102
RTVSPropertyOp44
 70
     0
102
RTVSPropertyOp45
 70
     1
102
RTVSPropertyOp46
 70
     0
102
RTVSPropertyOp47
 70
     0
102
RTVSPropertyOp48
 70
     0
102
RTVSPropertyOp49
 70
     1
102
RTVSPropertyOp50
 70
     0
102
RTVSPropertyOp51
 70
     0
102
RTVSPropertyOp52
 70
     0
102
RTVSPropertyOp53
 70
     0
102
RTVSPropertyOp54
 70
     0
102
RTVSPropertyOp55
 70
     1
102
RTVSPropertyOp56
 70
     0
102
RTVSPropertyOp57
 70
     0
102
RTVSPropertyOp58
 70
     0
102
RTVSPropertyOp59
 70
     0
102
RTVSPropertyOp60
 70
     0
102
RTVSPropertyOp61
 70
     0
102
RTVSPropertyOp62
 70
     0
  0
XRECORD
  5
1CB3A
102
{ACAD_REACTORS
330
1CB39
102
}
330
1CB39
100
AcDbXrecord
280
     1
102
RTVSPost2010Prop28
280
     0
102
RTVSPost2010PropOp28
 70
     1
102
RTVSPost2010Prop29
280
     1
102
RTVSPost2010PropOp29
 70
     1
102
RTVSPost2010Prop30
280
     1
102
RTVSPost2010PropOp30
 70
     1
102
RTVSPost2010Prop31
280
     0
102
RTVSPost2010PropOp31
 70
     1
102
RTVSPost2010Prop32
280
     0
102
RTVSPost2010PropOp32
 70
     1
102
RTVSPost2010Prop33
280
     0
102
RTVSPost2010PropOp33
 70
     1
102
RTVSPost2010Prop34
280
     0
102
RTVSPost2010PropOp34
 70
     1
102
RTVSPost2010Prop35
280
     0
102
RTVSPost2010PropOp35
 70
     1
102
RTVSPost2010Prop36
280
     0
102
RTVSPost2010PropOp36
 70
     1
102
RTVSPost2010Prop37
 90
       50
102
RTVSPost2010PropOp37
 70
     1
102
RTVSPost2010Prop38
140
0.0
102
RTVSPost2010PropOp38
 70
     1
102
RTVSPost2010Prop39
140
1.0
102
RTVSPost2010PropOp39
 70
     1
102
RTVSPost2010Prop40
 90
        0
102
RTVSPost2010PropOp40
 70
     1
102
RTVSPost2010Prop41ColorIndex
 90
       18
102
RTVSPost2010Prop41ColorRGB
 90
        0
102
RTVSPost2010PropOp41
 70
     1
102
RTVSPost2010Prop42
 90
       50
102
RTVSPost2010PropOp42
 70
     1
102
RTVSPost2010Prop43
 90
        3
102
RTVSPost2010PropOp43
 70
     1
102
RTVSPost2010Prop44ColorIndex
 90
        5
102
RTVSPost2010Prop44ColorRGB
 90
      255
102
RTVSPost2010PropOp44
 70
     1
102
RTVSPost2010Prop45
280
     0
102
RTVSPost2010PropOp45
 70
     1
102
RTVSPost2010Prop46
 90
       50
102
RTVSPost2010PropOp46
 70
     1
102
RTVSPost2010Prop47
 90
       50
102
RTVSPost2010PropOp47
 70
     1
102
RTVSPost2010Prop48
 90
       50
102
RTVSPost2010PropOp48
 70
     1
102
RTVSPost2010Prop49
280
     0
102
RTVSPost2010PropOp49
 70
     1
102
RTVSPost2010Prop50
 90
       50
102
RTVSPost2010PropOp50
 70
     1
102
RTVSPost2010Prop51ColorIndex
 90
      256
102
RTVSPost2010Prop51ColorRGB
 90
-16777216
102
RTVSPost2010PropOp51
 70
     0
102
RTVSPost2010Prop52
140
1.0
102
RTVSPost2010PropOp52
 70
     0
102
RTVSPost2010Prop53
 90
        2
102
RTVSPost2010PropOp53
 70
     1
102
RTVSPost2010Prop54
  1
strokes_ogs.tif
102
RTVSPost2010PropOp54
 70
     1
102
RTVSPost2010Prop55
280
     0
102
RTVSPost2010PropOp55
 70
     1
102
RTVSPost2010Prop56
140
1.0
102
RTVSPost2010PropOp56
 70
     1
102
RTVSPost2010Prop57
140
1.0
102
RTVSPost2010PropOp57
 70
     1
102
RTVSPropertyOp0
 70
     1
102
RTVSPropertyOp1
 70
     1
102
RTVSPropertyOp2
 70
     1
102
RTVSPropertyOp3
 70
     1
102
RTVSPropertyOp4
 70
     1
102
RTVSPropertyOp5
 70
     1
102
RTVSPropertyOp6
 70
     1
102
RTVSPropertyOp7
 70
     1
102
RTVSPropertyOp8
 70
     1
102
RTVSPropertyOp9
 70
     1
102
RTVSPropertyOp10
 70
     1
102
RTVSPropertyOp11
 70
     1
102
RTVSPropertyOp12
 70
     1
102
RTVSPropertyOp13
 70
     1
102
RTVSPropertyOp14
 70
     1
102
RTVSPropertyOp15
 70
     1
102
RTVSPropertyOp16
 70
     1
102
RTVSPropertyOp17
 70
     1
102
RTVSPropertyOp18
 70
     1
102
RTVSPropertyOp19
 70
     1
102
RTVSPropertyOp20
 70
     1
102
RTVSPropertyOp21
 70
     1
102
RTVSPropertyOp22
 70
     1
102
RTVSPropertyOp23
 70
     1
102
RTVSPropertyOp24
 70
     1
102
RTVSPropertyOp25
 70
     1
102
RTVSPropertyOp26
 70
     1
102
RTVSPropertyOp27
 70
     1
102
RTVSPropertyOp28
 70
     1
102
RTVSPropertyOp29
 70
     1
102
RTVSPropertyOp30
 70
     1
102
RTVSPropertyOp31
 70
     1
102
RTVSPropertyOp32
 70
     1
102
RTVSPropertyOp33
 70
     1
102
RTVSPropertyOp34
 70
     1
102
RTVSPropertyOp35
 70
     1
102
RTVSPropertyOp36
 70
     1
102
RTVSPropertyOp37
 70
     1
102
RTVSPropertyOp38
 70
     1
102
RTVSPropertyOp39
 70
     1
102
RTVSPropertyOp40
 70
     1
102
RTVSPropertyOp41
 70
     1
102
RTVSPropertyOp42
 70
     1
102
RTVSPropertyOp43
 70
     1
102
RTVSPropertyOp44
 70
     1
102
RTVSPropertyOp45
 70
     1
102
RTVSPropertyOp46
 70
     1
102
RTVSPropertyOp47
 70
     1
102
RTVSPropertyOp48
 70
     1
102
RTVSPropertyOp49
 70
     1
102
RTVSPropertyOp50
 70
     1
102
RTVSPropertyOp51
 70
     0
102
RTVSPropertyOp52
 70
     0
102
RTVSPropertyOp53
 70
     1
102
RTVSPropertyOp54
 70
     1
102
RTVSPropertyOp55
 70
     1
102
RTVSPropertyOp56
 70
     1
102
RTVSPropertyOp57
 70
     1
102
RTVSPropertyOp58
 70
     1
102
RTVSPropertyOp59
 70
     1
102
RTVSPropertyOp60
 70
     1
102
RTVSPropertyOp61
 70
     1
102
RTVSPropertyOp62
 70
     1
  0
XRECORD
  5
1CB50
102
{ACAD_REACTORS
330
1CB4F
102
}
330
1CB4F
100
AcDbXrecord
280
     1
102
RTVSPost2010Prop28
280
     0
102
RTVSPost2010PropOp28
 70
     1
102
RTVSPost2010Prop29
280
     1
102
RTVSPost2010PropOp29
 70
     1
102
RTVSPost2010Prop30
280
     1
102
RTVSPost2010PropOp30
 70
     1
102
RTVSPost2010Prop31
280
     0
102
RTVSPost2010PropOp31
 70
     1
102
RTVSPost2010Prop32
280
     0
102
RTVSPost2010PropOp32
 70
     1
102
RTVSPost2010Prop33
280
     0
102
RTVSPost2010PropOp33
 70
     1
102
RTVSPost2010Prop34
280
     0
102
RTVSPost2010PropOp34
 70
     1
102
RTVSPost2010Prop35
280
     0
102
RTVSPost2010PropOp35
 70
     1
102
RTVSPost2010Prop36
280
     0
102
RTVSPost2010PropOp36
 70
     1
102
RTVSPost2010Prop37
 90
       50
102
RTVSPost2010PropOp37
 70
     1
102
RTVSPost2010Prop38
140
0.0
102
RTVSPost2010PropOp38
 70
     1
102
RTVSPost2010Prop39
140
1.0
102
RTVSPost2010PropOp39
 70
     1
102
RTVSPost2010Prop40
 90
        0
102
RTVSPost2010PropOp40
 70
     1
102
RTVSPost2010Prop41ColorIndex
 90
       18
102
RTVSPost2010Prop41ColorRGB
 90
        0
102
RTVSPost2010PropOp41
 70
     1
102
RTVSPost2010Prop42
 90
       50
102
RTVSPost2010PropOp42
 70
     1
102
RTVSPost2010Prop43
 90
        3
102
RTVSPost2010PropOp43
 70
     1
102
RTVSPost2010Prop44ColorIndex
 90
        5
102
RTVSPost2010Prop44ColorRGB
 90
      255
102
RTVSPost2010PropOp44
 70
     1
102
RTVSPost2010Prop45
280
     0
102
RTVSPost2010PropOp45
 70
     1
102
RTVSPost2010Prop46
 90
       50
102
RTVSPost2010PropOp46
 70
     1
102
RTVSPost2010Prop47
 90
       50
102
RTVSPost2010PropOp47
 70
     1
102
RTVSPost2010Prop48
 90
       50
102
RTVSPost2010PropOp48
 70
     1
102
RTVSPost2010Prop49
280
     0
102
RTVSPost2010PropOp49
 70
     1
102
RTVSPost2010Prop50
 90
       50
102
RTVSPost2010PropOp50
 70
     1
102
RTVSPost2010Prop51ColorIndex
 90
      256
102
RTVSPost2010Prop51ColorRGB
 90
-16777216
102
RTVSPost2010PropOp51
 70
     0
102
RTVSPost2010Prop52
140
1.0
102
RTVSPost2010PropOp52
 70
     0
102
RTVSPost2010Prop53
 90
        2
102
RTVSPost2010PropOp53
 70
     1
102
RTVSPost2010Prop54
  1
strokes_ogs.tif
102
RTVSPost2010PropOp54
 70
     1
102
RTVSPost2010Prop55
280
     0
102
RTVSPost2010PropOp55
 70
     1
102
RTVSPost2010Prop56
140
1.0
102
RTVSPost2010PropOp56
 70
     1
102
RTVSPost2010Prop57
140
1.0
102
RTVSPost2010PropOp57
 70
     1
102
RTVSPropertyOp0
 70
     1
102
RTVSPropertyOp1
 70
     1
102
RTVSPropertyOp2
 70
     1
102
RTVSPropertyOp3
 70
     1
102
RTVSPropertyOp4
 70
     1
102
RTVSPropertyOp5
 70
     1
102
RTVSPropertyOp6
 70
     1
102
RTVSPropertyOp7
 70
     1
102
RTVSPropertyOp8
 70
     1
102
RTVSPropertyOp9
 70
     1
102
RTVSPropertyOp10
 70
     1
102
RTVSPropertyOp11
 70
     1
102
RTVSPropertyOp12
 70
     1
102
RTVSPropertyOp13
 70
     1
102
RTVSPropertyOp14
 70
     1
102
RTVSPropertyOp15
 70
     1
102
RTVSPropertyOp16
 70
     1
102
RTVSPropertyOp17
 70
     1
102
RTVSPropertyOp18
 70
     1
102
RTVSPropertyOp19
 70
     1
102
RTVSPropertyOp20
 70
     1
102
RTVSPropertyOp21
 70
     1
102
RTVSPropertyOp22
 70
     1
102
RTVSPropertyOp23
 70
     1
102
RTVSPropertyOp24
 70
     1
102
RTVSPropertyOp25
 70
     1
102
RTVSPropertyOp26
 70
     1
102
RTVSPropertyOp27
 70
     1
102
RTVSPropertyOp28
 70
     1
102
RTVSPropertyOp29
 70
     1
102
RTVSPropertyOp30
 70
     1
102
RTVSPropertyOp31
 70
     1
102
RTVSPropertyOp32
 70
     1
102
RTVSPropertyOp33
 70
     1
102
RTVSPropertyOp34
 70
     1
102
RTVSPropertyOp35
 70
     1
102
RTVSPropertyOp36
 70
     1
102
RTVSPropertyOp37
 70
     1
102
RTVSPropertyOp38
 70
     1
102
RTVSPropertyOp39
 70
     1
102
RTVSPropertyOp40
 70
     1
102
RTVSPropertyOp41
 70
     1
102
RTVSPropertyOp42
 70
     1
102
RTVSPropertyOp43
 70
     1
102
RTVSPropertyOp44
 70
     1
102
RTVSPropertyOp45
 70
     1
102
RTVSPropertyOp46
 70
     1
102
RTVSPropertyOp47
 70
     1
102
RTVSPropertyOp48
 70
     1
102
RTVSPropertyOp49
 70
     1
102
RTVSPropertyOp50
 70
     1
102
RTVSPropertyOp51
 70
     0
102
RTVSPropertyOp52
 70
     0
102
RTVSPropertyOp53
 70
     1
102
RTVSPropertyOp54
 70
     1
102
RTVSPropertyOp55
 70
     1
102
RTVSPropertyOp56
 70
     1
102
RTVSPropertyOp57
 70
     1
102
RTVSPropertyOp58
 70
     1
102
RTVSPropertyOp59
 70
     1
102
RTVSPropertyOp60
 70
     1
102
RTVSPropertyOp61
 70
     1
102
RTVSPropertyOp62
 70
     1
  0
XRECORD
  5
1CB4E
102
{ACAD_REACTORS
330
1CB4D
102
}
330
1CB4D
100
AcDbXrecord
280
     1
102
RTVSPost2010Prop28
280
     0
102
RTVSPost2010PropOp28
 70
     1
102
RTVSPost2010Prop29
280
     1
102
RTVSPost2010PropOp29
 70
     1
102
RTVSPost2010Prop30
280
     1
102
RTVSPost2010PropOp30
 70
     1
102
RTVSPost2010Prop31
280
     0
102
RTVSPost2010PropOp31
 70
     1
102
RTVSPost2010Prop32
280
     0
102
RTVSPost2010PropOp32
 70
     1
102
RTVSPost2010Prop33
280
     0
102
RTVSPost2010PropOp33
 70
     1
102
RTVSPost2010Prop34
280
     0
102
RTVSPost2010PropOp34
 70
     1
102
RTVSPost2010Prop35
280
     0
102
RTVSPost2010PropOp35
 70
     1
102
RTVSPost2010Prop36
280
     0
102
RTVSPost2010PropOp36
 70
     1
102
RTVSPost2010Prop37
 90
       50
102
RTVSPost2010PropOp37
 70
     1
102
RTVSPost2010Prop38
140
0.0
102
RTVSPost2010PropOp38
 70
     1
102
RTVSPost2010Prop39
140
1.0
102
RTVSPost2010PropOp39
 70
     1
102
RTVSPost2010Prop40
 90
        0
102
RTVSPost2010PropOp40
 70
     1
102
RTVSPost2010Prop41ColorIndex
 90
       18
102
RTVSPost2010Prop41ColorRGB
 90
        0
102
RTVSPost2010PropOp41
 70
     1
102
RTVSPost2010Prop42
 90
       50
102
RTVSPost2010PropOp42
 70
     1
102
RTVSPost2010Prop43
 90
        3
102
RTVSPost2010PropOp43
 70
     1
102
RTVSPost2010Prop44ColorIndex
 90
        5
102
RTVSPost2010Prop44ColorRGB
 90
      255
102
RTVSPost2010PropOp44
 70
     1
102
RTVSPost2010Prop45
280
     0
102
RTVSPost2010PropOp45
 70
     1
102
RTVSPost2010Prop46
 90
       50
102
RTVSPost2010PropOp46
 70
     1
102
RTVSPost2010Prop47
 90
       50
102
RTVSPost2010PropOp47
 70
     1
102
RTVSPost2010Prop48
 90
       50
102
RTVSPost2010PropOp48
 70
     1
102
RTVSPost2010Prop49
280
     0
102
RTVSPost2010PropOp49
 70
     1
102
RTVSPost2010Prop50
 90
       50
102
RTVSPost2010PropOp50
 70
     1
102
RTVSPost2010Prop51ColorIndex
 90
      256
102
RTVSPost2010Prop51ColorRGB
 90
-16777216
102
RTVSPost2010PropOp51
 70
     0
102
RTVSPost2010Prop52
140
1.0
102
RTVSPost2010PropOp52
 70
     0
102
RTVSPost2010Prop53
 90
        2
102
RTVSPost2010PropOp53
 70
     1
102
RTVSPost2010Prop54
  1
strokes_ogs.tif
102
RTVSPost2010PropOp54
 70
     1
102
RTVSPost2010Prop55
280
     0
102
RTVSPost2010PropOp55
 70
     1
102
RTVSPost2010Prop56
140
1.0
102
RTVSPost2010PropOp56
 70
     1
102
RTVSPost2010Prop57
140
1.0
102
RTVSPost2010PropOp57
 70
     1
102
RTVSPropertyOp0
 70
     1
102
RTVSPropertyOp1
 70
     1
102
RTVSPropertyOp2
 70
     1
102
RTVSPropertyOp3
 70
     1
102
RTVSPropertyOp4
 70
     1
102
RTVSPropertyOp5
 70
     1
102
RTVSPropertyOp6
 70
     1
102
RTVSPropertyOp7
 70
     1
102
RTVSPropertyOp8
 70
     1
102
RTVSPropertyOp9
 70
     1
102
RTVSPropertyOp10
 70
     1
102
RTVSPropertyOp11
 70
     1
102
RTVSPropertyOp12
 70
     1
102
RTVSPropertyOp13
 70
     1
102
RTVSPropertyOp14
 70
     1
102
RTVSPropertyOp15
 70
     1
102
RTVSPropertyOp16
 70
     1
102
RTVSPropertyOp17
 70
     1
102
RTVSPropertyOp18
 70
     1
102
RTVSPropertyOp19
 70
     1
102
RTVSPropertyOp20
 70
     1
102
RTVSPropertyOp21
 70
     1
102
RTVSPropertyOp22
 70
     1
102
RTVSPropertyOp23
 70
     1
102
RTVSPropertyOp24
 70
     1
102
RTVSPropertyOp25
 70
     1
102
RTVSPropertyOp26
 70
     1
102
RTVSPropertyOp27
 70
     1
102
RTVSPropertyOp28
 70
     1
102
RTVSPropertyOp29
 70
     1
102
RTVSPropertyOp30
 70
     1
102
RTVSPropertyOp31
 70
     1
102
RTVSPropertyOp32
 70
     1
102
RTVSPropertyOp33
 70
     1
102
RTVSPropertyOp34
 70
     1
102
RTVSPropertyOp35
 70
     1
102
RTVSPropertyOp36
 70
     1
102
RTVSPropertyOp37
 70
     1
102
RTVSPropertyOp38
 70
     1
102
RTVSPropertyOp39
 70
     1
102
RTVSPropertyOp40
 70
     1
102
RTVSPropertyOp41
 70
     1
102
RTVSPropertyOp42
 70
     1
102
RTVSPropertyOp43
 70
     1
102
RTVSPropertyOp44
 70
     1
102
RTVSPropertyOp45
 70
     1
102
RTVSPropertyOp46
 70
     1
102
RTVSPropertyOp47
 70
     1
102
RTVSPropertyOp48
 70
     1
102
RTVSPropertyOp49
 70
     1
102
RTVSPropertyOp50
 70
     1
102
RTVSPropertyOp51
 70
     0
102
RTVSPropertyOp52
 70
     0
102
RTVSPropertyOp53
 70
     1
102
RTVSPropertyOp54
 70
     1
102
RTVSPropertyOp55
 70
     1
102
RTVSPropertyOp56
 70
     1
102
RTVSPropertyOp57
 70
     1
102
RTVSPropertyOp58
 70
     1
102
RTVSPropertyOp59
 70
     1
102
RTVSPropertyOp60
 70
     1
102
RTVSPropertyOp61
 70
     1
102
RTVSPropertyOp62
 70
     1
  0
XRECORD
  5
1CB48
102
{ACAD_REACTORS
330
1CB47
102
}
330
1CB47
100
AcDbXrecord
280
     1
102
RTVSPost2010Prop28
280
     0
102
RTVSPost2010PropOp28
 70
     1
102
RTVSPost2010Prop29
280
     1
102
RTVSPost2010PropOp29
 70
     1
102
RTVSPost2010Prop30
280
     1
102
RTVSPost2010PropOp30
 70
     1
102
RTVSPost2010Prop31
280
     0
102
RTVSPost2010PropOp31
 70
     1
102
RTVSPost2010Prop32
280
     0
102
RTVSPost2010PropOp32
 70
     1
102
RTVSPost2010Prop33
280
     0
102
RTVSPost2010PropOp33
 70
     1
102
RTVSPost2010Prop34
280
     0
102
RTVSPost2010PropOp34
 70
     1
102
RTVSPost2010Prop35
280
     0
102
RTVSPost2010PropOp35
 70
     1
102
RTVSPost2010Prop36
280
     0
102
RTVSPost2010PropOp36
 70
     1
102
RTVSPost2010Prop37
 90
       50
102
RTVSPost2010PropOp37
 70
     1
102
RTVSPost2010Prop38
140
0.0
102
RTVSPost2010PropOp38
 70
     1
102
RTVSPost2010Prop39
140
1.0
102
RTVSPost2010PropOp39
 70
     1
102
RTVSPost2010Prop40
 90
        0
102
RTVSPost2010PropOp40
 70
     1
102
RTVSPost2010Prop41ColorIndex
 90
       18
102
RTVSPost2010Prop41ColorRGB
 90
        0
102
RTVSPost2010PropOp41
 70
     1
102
RTVSPost2010Prop42
 90
       50
102
RTVSPost2010PropOp42
 70
     1
102
RTVSPost2010Prop43
 90
        3
102
RTVSPost2010PropOp43
 70
     1
102
RTVSPost2010Prop44ColorIndex
 90
        5
102
RTVSPost2010Prop44ColorRGB
 90
      255
102
RTVSPost2010PropOp44
 70
     1
102
RTVSPost2010Prop45
280
     0
102
RTVSPost2010PropOp45
 70
     1
102
RTVSPost2010Prop46
 90
       50
102
RTVSPost2010PropOp46
 70
     1
102
RTVSPost2010Prop47
 90
       50
102
RTVSPost2010PropOp47
 70
     1
102
RTVSPost2010Prop48
 90
       50
102
RTVSPost2010PropOp48
 70
     1
102
RTVSPost2010Prop49
280
     0
102
RTVSPost2010PropOp49
 70
     1
102
RTVSPost2010Prop50
 90
       50
102
RTVSPost2010PropOp50
 70
     1
102
RTVSPost2010Prop51ColorIndex
 90
      256
102
RTVSPost2010Prop51ColorRGB
 90
-16777216
102
RTVSPost2010PropOp51
 70
     0
102
RTVSPost2010Prop52
140
1.0
102
RTVSPost2010PropOp52
 70
     0
102
RTVSPost2010Prop53
 90
        2
102
RTVSPost2010PropOp53
 70
     1
102
RTVSPost2010Prop54
  1
strokes_ogs.tif
102
RTVSPost2010PropOp54
 70
     1
102
RTVSPost2010Prop55
280
     0
102
RTVSPost2010PropOp55
 70
     1
102
RTVSPost2010Prop56
140
1.0
102
RTVSPost2010PropOp56
 70
     1
102
RTVSPost2010Prop57
140
1.0
102
RTVSPost2010PropOp57
 70
     1
102
RTVSPropertyOp0
 70
     1
102
RTVSPropertyOp1
 70
     1
102
RTVSPropertyOp2
 70
     1
102
RTVSPropertyOp3
 70
     1
102
RTVSPropertyOp4
 70
     1
102
RTVSPropertyOp5
 70
     1
102
RTVSPropertyOp6
 70
     1
102
RTVSPropertyOp7
 70
     1
102
RTVSPropertyOp8
 70
     1
102
RTVSPropertyOp9
 70
     1
102
RTVSPropertyOp10
 70
     1
102
RTVSPropertyOp11
 70
     1
102
RTVSPropertyOp12
 70
     1
102
RTVSPropertyOp13
 70
     1
102
RTVSPropertyOp14
 70
     1
102
RTVSPropertyOp15
 70
     1
102
RTVSPropertyOp16
 70
     1
102
RTVSPropertyOp17
 70
     1
102
RTVSPropertyOp18
 70
     1
102
RTVSPropertyOp19
 70
     1
102
RTVSPropertyOp20
 70
     1
102
RTVSPropertyOp21
 70
     1
102
RTVSPropertyOp22
 70
     1
102
RTVSPropertyOp23
 70
     1
102
RTVSPropertyOp24
 70
     1
102
RTVSPropertyOp25
 70
     1
102
RTVSPropertyOp26
 70
     1
102
RTVSPropertyOp27
 70
     1
102
RTVSPropertyOp28
 70
     1
102
RTVSPropertyOp29
 70
     1
102
RTVSPropertyOp30
 70
     1
102
RTVSPropertyOp31
 70
     1
102
RTVSPropertyOp32
 70
     1
102
RTVSPropertyOp33
 70
     1
102
RTVSPropertyOp34
 70
     1
102
RTVSPropertyOp35
 70
     1
102
RTVSPropertyOp36
 70
     1
102
RTVSPropertyOp37
 70
     1
102
RTVSPropertyOp38
 70
     1
102
RTVSPropertyOp39
 70
     1
102
RTVSPropertyOp40
 70
     1
102
RTVSPropertyOp41
 70
     1
102
RTVSPropertyOp42
 70
     1
102
RTVSPropertyOp43
 70
     1
102
RTVSPropertyOp44
 70
     1
102
RTVSPropertyOp45
 70
     1
102
RTVSPropertyOp46
 70
     1
102
RTVSPropertyOp47
 70
     1
102
RTVSPropertyOp48
 70
     1
102
RTVSPropertyOp49
 70
     1
102
RTVSPropertyOp50
 70
     1
102
RTVSPropertyOp51
 70
     0
102
RTVSPropertyOp52
 70
     0
102
RTVSPropertyOp53
 70
     1
102
RTVSPropertyOp54
 70
     1
102
RTVSPropertyOp55
 70
     1
102
RTVSPropertyOp56
 70
     1
102
RTVSPropertyOp57
 70
     1
102
RTVSPropertyOp58
 70
     1
102
RTVSPropertyOp59
 70
     1
102
RTVSPropertyOp60
 70
     1
102
RTVSPropertyOp61
 70
     1
102
RTVSPropertyOp62
 70
     1
  0
XRECORD
  5
1CB4A
102
{ACAD_REACTORS
330
1CB49
102
}
330
1CB49
100
AcDbXrecord
280
     1
102
RTVSPost2010Prop28
280
     0
102
RTVSPost2010PropOp28
 70
     1
102
RTVSPost2010Prop29
280
     1
102
RTVSPost2010PropOp29
 70
     1
102
RTVSPost2010Prop30
280
     1
102
RTVSPost2010PropOp30
 70
     1
102
RTVSPost2010Prop31
280
     0
102
RTVSPost2010PropOp31
 70
     1
102
RTVSPost2010Prop32
280
     0
102
RTVSPost2010PropOp32
 70
     1
102
RTVSPost2010Prop33
280
     0
102
RTVSPost2010PropOp33
 70
     1
102
RTVSPost2010Prop34
280
     0
102
RTVSPost2010PropOp34
 70
     1
102
RTVSPost2010Prop35
280
     0
102
RTVSPost2010PropOp35
 70
     1
102
RTVSPost2010Prop36
280
     0
102
RTVSPost2010PropOp36
 70
     1
102
RTVSPost2010Prop37
 90
       50
102
RTVSPost2010PropOp37
 70
     1
102
RTVSPost2010Prop38
140
0.0
102
RTVSPost2010PropOp38
 70
     1
102
RTVSPost2010Prop39
140
1.0
102
RTVSPost2010PropOp39
 70
     1
102
RTVSPost2010Prop40
 90
        0
102
RTVSPost2010PropOp40
 70
     1
102
RTVSPost2010Prop41ColorIndex
 90
       18
102
RTVSPost2010Prop41ColorRGB
 90
        0
102
RTVSPost2010PropOp41
 70
     1
102
RTVSPost2010Prop42
 90
       50
102
RTVSPost2010PropOp42
 70
     1
102
RTVSPost2010Prop43
 90
        3
102
RTVSPost2010PropOp43
 70
     1
102
RTVSPost2010Prop44ColorIndex
 90
        5
102
RTVSPost2010Prop44ColorRGB
 90
      255
102
RTVSPost2010PropOp44
 70
     1
102
RTVSPost2010Prop45
280
     0
102
RTVSPost2010PropOp45
 70
     1
102
RTVSPost2010Prop46
 90
       50
102
RTVSPost2010PropOp46
 70
     1
102
RTVSPost2010Prop47
 90
       50
102
RTVSPost2010PropOp47
 70
     1
102
RTVSPost2010Prop48
 90
       50
102
RTVSPost2010PropOp48
 70
     1
102
RTVSPost2010Prop49
280
     0
102
RTVSPost2010PropOp49
 70
     1
102
RTVSPost2010Prop50
 90
       50
102
RTVSPost2010PropOp50
 70
     1
102
RTVSPost2010Prop51ColorIndex
 90
      256
102
RTVSPost2010Prop51ColorRGB
 90
-16777216
102
RTVSPost2010PropOp51
 70
     0
102
RTVSPost2010Prop52
140
1.0
102
RTVSPost2010PropOp52
 70
     0
102
RTVSPost2010Prop53
 90
        2
102
RTVSPost2010PropOp53
 70
     1
102
RTVSPost2010Prop54
  1
strokes_ogs.tif
102
RTVSPost2010PropOp54
 70
     1
102
RTVSPost2010Prop55
280
     0
102
RTVSPost2010PropOp55
 70
     1
102
RTVSPost2010Prop56
140
1.0
102
RTVSPost2010PropOp56
 70
     1
102
RTVSPost2010Prop57
140
1.0
102
RTVSPost2010PropOp57
 70
     1
102
RTVSPropertyOp0
 70
     1
102
RTVSPropertyOp1
 70
     1
102
RTVSPropertyOp2
 70
     1
102
RTVSPropertyOp3
 70
     1
102
RTVSPropertyOp4
 70
     1
102
RTVSPropertyOp5
 70
     1
102
RTVSPropertyOp6
 70
     1
102
RTVSPropertyOp7
 70
     1
102
RTVSPropertyOp8
 70
     1
102
RTVSPropertyOp9
 70
     1
102
RTVSPropertyOp10
 70
     1
102
RTVSPropertyOp11
 70
     1
102
RTVSPropertyOp12
 70
     1
102
RTVSPropertyOp13
 70
     1
102
RTVSPropertyOp14
 70
     1
102
RTVSPropertyOp15
 70
     1
102
RTVSPropertyOp16
 70
     1
102
RTVSPropertyOp17
 70
     1
102
RTVSPropertyOp18
 70
     1
102
RTVSPropertyOp19
 70
     1
102
RTVSPropertyOp20
 70
     1
102
RTVSPropertyOp21
 70
     1
102
RTVSPropertyOp22
 70
     1
102
RTVSPropertyOp23
 70
     1
102
RTVSPropertyOp24
 70
     1
102
RTVSPropertyOp25
 70
     1
102
RTVSPropertyOp26
 70
     1
102
RTVSPropertyOp27
 70
     1
102
RTVSPropertyOp28
 70
     1
102
RTVSPropertyOp29
 70
     1
102
RTVSPropertyOp30
 70
     1
102
RTVSPropertyOp31
 70
     1
102
RTVSPropertyOp32
 70
     1
102
RTVSPropertyOp33
 70
     1
102
RTVSPropertyOp34
 70
     1
102
RTVSPropertyOp35
 70
     1
102
RTVSPropertyOp36
 70
     1
102
RTVSPropertyOp37
 70
     1
102
RTVSPropertyOp38
 70
     1
102
RTVSPropertyOp39
 70
     1
102
RTVSPropertyOp40
 70
     1
102
RTVSPropertyOp41
 70
     1
102
RTVSPropertyOp42
 70
     1
102
RTVSPropertyOp43
 70
     1
102
RTVSPropertyOp44
 70
     1
102
RTVSPropertyOp45
 70
     1
102
RTVSPropertyOp46
 70
     1
102
RTVSPropertyOp47
 70
     1
102
RTVSPropertyOp48
 70
     1
102
RTVSPropertyOp49
 70
     1
102
RTVSPropertyOp50
 70
     1
102
RTVSPropertyOp51
 70
     0
102
RTVSPropertyOp52
 70
     0
102
RTVSPropertyOp53
 70
     1
102
RTVSPropertyOp54
 70
     1
102
RTVSPropertyOp55
 70
     1
102
RTVSPropertyOp56
 70
     1
102
RTVSPropertyOp57
 70
     1
102
RTVSPropertyOp58
 70
     1
102
RTVSPropertyOp59
 70
     1
102
RTVSPropertyOp60
 70
     1
102
RTVSPropertyOp61
 70
     1
102
RTVSPropertyOp62
 70
     1
  0
XRECORD
  5
1CB40
102
{ACAD_REACTORS
330
1CB3F
102
}
330
1CB3F
100
AcDbXrecord
280
     1
102
RTVSPost2010Prop28
280
     0
102
RTVSPost2010PropOp28
 70
     1
102
RTVSPost2010Prop29
280
     1
102
RTVSPost2010PropOp29
 70
     1
102
RTVSPost2010Prop30
280
     1
102
RTVSPost2010PropOp30
 70
     1
102
RTVSPost2010Prop31
280
     0
102
RTVSPost2010PropOp31
 70
     1
102
RTVSPost2010Prop32
280
     0
102
RTVSPost2010PropOp32
 70
     1
102
RTVSPost2010Prop33
280
     0
102
RTVSPost2010PropOp33
 70
     1
102
RTVSPost2010Prop34
280
     0
102
RTVSPost2010PropOp34
 70
     1
102
RTVSPost2010Prop35
280
     0
102
RTVSPost2010PropOp35
 70
     1
102
RTVSPost2010Prop36
280
     0
102
RTVSPost2010PropOp36
 70
     1
102
RTVSPost2010Prop37
 90
       50
102
RTVSPost2010PropOp37
 70
     1
102
RTVSPost2010Prop38
140
0.0
102
RTVSPost2010PropOp38
 70
     1
102
RTVSPost2010Prop39
140
1.0
102
RTVSPost2010PropOp39
 70
     1
102
RTVSPost2010Prop40
 90
        0
102
RTVSPost2010PropOp40
 70
     1
102
RTVSPost2010Prop41ColorIndex
 90
       18
102
RTVSPost2010Prop41ColorRGB
 90
        0
102
RTVSPost2010PropOp41
 70
     1
102
RTVSPost2010Prop42
 90
       50
102
RTVSPost2010PropOp42
 70
     1
102
RTVSPost2010Prop43
 90
        3
102
RTVSPost2010PropOp43
 70
     1
102
RTVSPost2010Prop44ColorIndex
 90
        5
102
RTVSPost2010Prop44ColorRGB
 90
      255
102
RTVSPost2010PropOp44
 70
     1
102
RTVSPost2010Prop45
280
     0
102
RTVSPost2010PropOp45
 70
     1
102
RTVSPost2010Prop46
 90
       50
102
RTVSPost2010PropOp46
 70
     1
102
RTVSPost2010Prop47
 90
       50
102
RTVSPost2010PropOp47
 70
     1
102
RTVSPost2010Prop48
 90
       50
102
RTVSPost2010PropOp48
 70
     1
102
RTVSPost2010Prop49
280
     0
102
RTVSPost2010PropOp49
 70
     1
102
RTVSPost2010Prop50
 90
       50
102
RTVSPost2010PropOp50
 70
     1
102
RTVSPost2010Prop51ColorIndex
 90
      256
102
RTVSPost2010Prop51ColorRGB
 90
-16777216
102
RTVSPost2010PropOp51
 70
     0
102
RTVSPost2010Prop52
140
1.0
102
RTVSPost2010PropOp52
 70
     0
102
RTVSPost2010Prop53
 90
        2
102
RTVSPost2010PropOp53
 70
     1
102
RTVSPost2010Prop54
  1
strokes_ogs.tif
102
RTVSPost2010PropOp54
 70
     1
102
RTVSPost2010Prop55
280
     0
102
RTVSPost2010PropOp55
 70
     1
102
RTVSPost2010Prop56
140
1.0
102
RTVSPost2010PropOp56
 70
     1
102
RTVSPost2010Prop57
140
1.0
102
RTVSPost2010PropOp57
 70
     1
102
RTVSPropertyOp0
 70
     1
102
RTVSPropertyOp1
 70
     1
102
RTVSPropertyOp2
 70
     1
102
RTVSPropertyOp3
 70
     1
102
RTVSPropertyOp4
 70
     1
102
RTVSPropertyOp5
 70
     1
102
RTVSPropertyOp6
 70
     1
102
RTVSPropertyOp7
 70
     1
102
RTVSPropertyOp8
 70
     1
102
RTVSPropertyOp9
 70
     1
102
RTVSPropertyOp10
 70
     1
102
RTVSPropertyOp11
 70
     1
102
RTVSPropertyOp12
 70
     1
102
RTVSPropertyOp13
 70
     1
102
RTVSPropertyOp14
 70
     1
102
RTVSPropertyOp15
 70
     1
102
RTVSPropertyOp16
 70
     1
102
RTVSPropertyOp17
 70
     1
102
RTVSPropertyOp18
 70
     1
102
RTVSPropertyOp19
 70
     1
102
RTVSPropertyOp20
 70
     1
102
RTVSPropertyOp21
 70
     1
102
RTVSPropertyOp22
 70
     1
102
RTVSPropertyOp23
 70
     1
102
RTVSPropertyOp24
 70
     1
102
RTVSPropertyOp25
 70
     1
102
RTVSPropertyOp26
 70
     1
102
RTVSPropertyOp27
 70
     1
102
RTVSPropertyOp28
 70
     1
102
RTVSPropertyOp29
 70
     1
102
RTVSPropertyOp30
 70
     1
102
RTVSPropertyOp31
 70
     1
102
RTVSPropertyOp32
 70
     1
102
RTVSPropertyOp33
 70
     1
102
RTVSPropertyOp34
 70
     1
102
RTVSPropertyOp35
 70
     1
102
RTVSPropertyOp36
 70
     1
102
RTVSPropertyOp37
 70
     1
102
RTVSPropertyOp38
 70
     1
102
RTVSPropertyOp39
 70
     1
102
RTVSPropertyOp40
 70
     1
102
RTVSPropertyOp41
 70
     1
102
RTVSPropertyOp42
 70
     1
102
RTVSPropertyOp43
 70
     1
102
RTVSPropertyOp44
 70
     1
102
RTVSPropertyOp45
 70
     1
102
RTVSPropertyOp46
 70
     1
102
RTVSPropertyOp47
 70
     1
102
RTVSPropertyOp48
 70
     1
102
RTVSPropertyOp49
 70
     1
102
RTVSPropertyOp50
 70
     1
102
RTVSPropertyOp51
 70
     0
102
RTVSPropertyOp52
 70
     0
102
RTVSPropertyOp53
 70
     1
102
RTVSPropertyOp54
 70
     1
102
RTVSPropertyOp55
 70
     1
102
RTVSPropertyOp56
 70
     1
102
RTVSPropertyOp57
 70
     1
102
RTVSPropertyOp58
 70
     1
102
RTVSPropertyOp59
 70
     1
102
RTVSPropertyOp60
 70
     1
102
RTVSPropertyOp61
 70
     1
102
RTVSPropertyOp62
 70
     1
  0
XRECORD
  5
1CB34
102
{ACAD_REACTORS
330
1CB33
102
}
330
1CB33
100
AcDbXrecord
280
     1
102
RTVSPost2010Prop28
280
     0
102
RTVSPost2010PropOp28
 70
     1
102
RTVSPost2010Prop29
280
     1
102
RTVSPost2010PropOp29
 70
     1
102
RTVSPost2010Prop30
280
     1
102
RTVSPost2010PropOp30
 70
     1
102
RTVSPost2010Prop31
280
     0
102
RTVSPost2010PropOp31
 70
     1
102
RTVSPost2010Prop32
280
     0
102
RTVSPost2010PropOp32
 70
     1
102
RTVSPost2010Prop33
280
     0
102
RTVSPost2010PropOp33
 70
     1
102
RTVSPost2010Prop34
280
     0
102
RTVSPost2010PropOp34
 70
     1
102
RTVSPost2010Prop35
280
     0
102
RTVSPost2010PropOp35
 70
     1
102
RTVSPost2010Prop36
280
     0
102
RTVSPost2010PropOp36
 70
     1
102
RTVSPost2010Prop37
 90
       50
102
RTVSPost2010PropOp37
 70
     1
102
RTVSPost2010Prop38
140
0.0
102
RTVSPost2010PropOp38
 70
     1
102
RTVSPost2010Prop39
140
1.0
102
RTVSPost2010PropOp39
 70
     1
102
RTVSPost2010Prop40
 90
        0
102
RTVSPost2010PropOp40
 70
     1
102
RTVSPost2010Prop41ColorIndex
 90
       18
102
RTVSPost2010Prop41ColorRGB
 90
        0
102
RTVSPost2010PropOp41
 70
     1
102
RTVSPost2010Prop42
 90
       50
102
RTVSPost2010PropOp42
 70
     1
102
RTVSPost2010Prop43
 90
        3
102
RTVSPost2010PropOp43
 70
     1
102
RTVSPost2010Prop44ColorIndex
 90
        5
102
RTVSPost2010Prop44ColorRGB
 90
      255
102
RTVSPost2010PropOp44
 70
     1
102
RTVSPost2010Prop45
280
     0
102
RTVSPost2010PropOp45
 70
     1
102
RTVSPost2010Prop46
 90
       50
102
RTVSPost2010PropOp46
 70
     1
102
RTVSPost2010Prop47
 90
       50
102
RTVSPost2010PropOp47
 70
     1
102
RTVSPost2010Prop48
 90
       50
102
RTVSPost2010PropOp48
 70
     1
102
RTVSPost2010Prop49
280
     0
102
RTVSPost2010PropOp49
 70
     1
102
RTVSPost2010Prop50
 90
       50
102
RTVSPost2010PropOp50
 70
     1
102
RTVSPost2010Prop51ColorIndex
 90
      256
102
RTVSPost2010Prop51ColorRGB
 90
-16777216
102
RTVSPost2010PropOp51
 70
     0
102
RTVSPost2010Prop52
140
1.0
102
RTVSPost2010PropOp52
 70
     0
102
RTVSPost2010Prop53
 90
        2
102
RTVSPost2010PropOp53
 70
     1
102
RTVSPost2010Prop54
  1
strokes_ogs.tif
102
RTVSPost2010PropOp54
 70
     1
102
RTVSPost2010Prop55
280
     0
102
RTVSPost2010PropOp55
 70
     1
102
RTVSPost2010Prop56
140
1.0
102
RTVSPost2010PropOp56
 70
     1
102
RTVSPost2010Prop57
140
1.0
102
RTVSPost2010PropOp57
 70
     1
102
RTVSPropertyOp0
 70
     1
102
RTVSPropertyOp1
 70
     1
102
RTVSPropertyOp2
 70
     1
102
RTVSPropertyOp3
 70
     1
102
RTVSPropertyOp4
 70
     1
102
RTVSPropertyOp5
 70
     1
102
RTVSPropertyOp6
 70
     1
102
RTVSPropertyOp7
 70
     1
102
RTVSPropertyOp8
 70
     1
102
RTVSPropertyOp9
 70
     1
102
RTVSPropertyOp10
 70
     1
102
RTVSPropertyOp11
 70
     1
102
RTVSPropertyOp12
 70
     1
102
RTVSPropertyOp13
 70
     1
102
RTVSPropertyOp14
 70
     1
102
RTVSPropertyOp15
 70
     1
102
RTVSPropertyOp16
 70
     1
102
RTVSPropertyOp17
 70
     1
102
RTVSPropertyOp18
 70
     1
102
RTVSPropertyOp19
 70
     1
102
RTVSPropertyOp20
 70
     1
102
RTVSPropertyOp21
 70
     1
102
RTVSPropertyOp22
 70
     1
102
RTVSPropertyOp23
 70
     1
102
RTVSPropertyOp24
 70
     1
102
RTVSPropertyOp25
 70
     1
102
RTVSPropertyOp26
 70
     1
102
RTVSPropertyOp27
 70
     1
102
RTVSPropertyOp28
 70
     1
102
RTVSPropertyOp29
 70
     1
102
RTVSPropertyOp30
 70
     1
102
RTVSPropertyOp31
 70
     1
102
RTVSPropertyOp32
 70
     1
102
RTVSPropertyOp33
 70
     1
102
RTVSPropertyOp34
 70
     1
102
RTVSPropertyOp35
 70
     1
102
RTVSPropertyOp36
 70
     1
102
RTVSPropertyOp37
 70
     1
102
RTVSPropertyOp38
 70
     1
102
RTVSPropertyOp39
 70
     1
102
RTVSPropertyOp40
 70
     1
102
RTVSPropertyOp41
 70
     1
102
RTVSPropertyOp42
 70
     1
102
RTVSPropertyOp43
 70
     1
102
RTVSPropertyOp44
 70
     1
102
RTVSPropertyOp45
 70
     1
102
RTVSPropertyOp46
 70
     1
102
RTVSPropertyOp47
 70
     1
102
RTVSPropertyOp48
 70
     1
102
RTVSPropertyOp49
 70
     1
102
RTVSPropertyOp50
 70
     1
102
RTVSPropertyOp51
 70
     0
102
RTVSPropertyOp52
 70
     0
102
RTVSPropertyOp53
 70
     1
102
RTVSPropertyOp54
 70
     1
102
RTVSPropertyOp55
 70
     1
102
RTVSPropertyOp56
 70
     1
102
RTVSPropertyOp57
 70
     1
102
RTVSPropertyOp58
 70
     1
102
RTVSPropertyOp59
 70
     1
102
RTVSPropertyOp60
 70
     1
102
RTVSPropertyOp61
 70
     1
102
RTVSPropertyOp62
 70
     1
  0
XRECORD
  5
1CB4C
102
{ACAD_REACTORS
330
1CB4B
102
}
330
1CB4B
100
AcDbXrecord
280
     1
102
RTVSPost2010Prop28
280
     0
102
RTVSPost2010PropOp28
 70
     1
102
RTVSPost2010Prop29
280
     1
102
RTVSPost2010PropOp29
 70
     1
102
RTVSPost2010Prop30
280
     1
102
RTVSPost2010PropOp30
 70
     1
102
RTVSPost2010Prop31
280
     0
102
RTVSPost2010PropOp31
 70
     1
102
RTVSPost2010Prop32
280
     0
102
RTVSPost2010PropOp32
 70
     1
102
RTVSPost2010Prop33
280
     0
102
RTVSPost2010PropOp33
 70
     1
102
RTVSPost2010Prop34
280
     0
102
RTVSPost2010PropOp34
 70
     1
102
RTVSPost2010Prop35
280
     0
102
RTVSPost2010PropOp35
 70
     1
102
RTVSPost2010Prop36
280
     0
102
RTVSPost2010PropOp36
 70
     1
102
RTVSPost2010Prop37
 90
       50
102
RTVSPost2010PropOp37
 70
     1
102
RTVSPost2010Prop38
140
0.0
102
RTVSPost2010PropOp38
 70
     1
102
RTVSPost2010Prop39
140
1.0
102
RTVSPost2010PropOp39
 70
     1
102
RTVSPost2010Prop40
 90
        0
102
RTVSPost2010PropOp40
 70
     1
102
RTVSPost2010Prop41ColorIndex
 90
       18
102
RTVSPost2010Prop41ColorRGB
 90
        0
102
RTVSPost2010PropOp41
 70
     1
102
RTVSPost2010Prop42
 90
       50
102
RTVSPost2010PropOp42
 70
     1
102
RTVSPost2010Prop43
 90
        3
102
RTVSPost2010PropOp43
 70
     1
102
RTVSPost2010Prop44ColorIndex
 90
        5
102
RTVSPost2010Prop44ColorRGB
 90
      255
102
RTVSPost2010PropOp44
 70
     1
102
RTVSPost2010Prop45
280
     0
102
RTVSPost2010PropOp45
 70
     1
102
RTVSPost2010Prop46
 90
       50
102
RTVSPost2010PropOp46
 70
     1
102
RTVSPost2010Prop47
 90
       50
102
RTVSPost2010PropOp47
 70
     1
102
RTVSPost2010Prop48
 90
       50
102
RTVSPost2010PropOp48
 70
     1
102
RTVSPost2010Prop49
280
     0
102
RTVSPost2010PropOp49
 70
     1
102
RTVSPost2010Prop50
 90
       50
102
RTVSPost2010PropOp50
 70
     1
102
RTVSPost2010Prop51ColorIndex
 90
      256
102
RTVSPost2010Prop51ColorRGB
 90
-16777216
102
RTVSPost2010PropOp51
 70
     0
102
RTVSPost2010Prop52
140
1.0
102
RTVSPost2010PropOp52
 70
     0
102
RTVSPost2010Prop53
 90
        2
102
RTVSPost2010PropOp53
 70
     1
102
RTVSPost2010Prop54
  1
strokes_ogs.tif
102
RTVSPost2010PropOp54
 70
     1
102
RTVSPost2010Prop55
280
     0
102
RTVSPost2010PropOp55
 70
     1
102
RTVSPost2010Prop56
140
1.0
102
RTVSPost2010PropOp56
 70
     1
102
RTVSPost2010Prop57
140
1.0
102
RTVSPost2010PropOp57
 70
     1
102
RTVSPropertyOp0
 70
     1
102
RTVSPropertyOp1
 70
     1
102
RTVSPropertyOp2
 70
     1
102
RTVSPropertyOp3
 70
     1
102
RTVSPropertyOp4
 70
     1
102
RTVSPropertyOp5
 70
     1
102
RTVSPropertyOp6
 70
     1
102
RTVSPropertyOp7
 70
     1
102
RTVSPropertyOp8
 70
     1
102
RTVSPropertyOp9
 70
     1
102
RTVSPropertyOp10
 70
     1
102
RTVSPropertyOp11
 70
     1
102
RTVSPropertyOp12
 70
     1
102
RTVSPropertyOp13
 70
     1
102
RTVSPropertyOp14
 70
     1
102
RTVSPropertyOp15
 70
     1
102
RTVSPropertyOp16
 70
     1
102
RTVSPropertyOp17
 70
     1
102
RTVSPropertyOp18
 70
     1
102
RTVSPropertyOp19
 70
     1
102
RTVSPropertyOp20
 70
     1
102
RTVSPropertyOp21
 70
     1
102
RTVSPropertyOp22
 70
     1
102
RTVSPropertyOp23
 70
     1
102
RTVSPropertyOp24
 70
     1
102
RTVSPropertyOp25
 70
     1
102
RTVSPropertyOp26
 70
     1
102
RTVSPropertyOp27
 70
     1
102
RTVSPropertyOp28
 70
     1
102
RTVSPropertyOp29
 70
     1
102
RTVSPropertyOp30
 70
     1
102
RTVSPropertyOp31
 70
     1
102
RTVSPropertyOp32
 70
     1
102
RTVSPropertyOp33
 70
     1
102
RTVSPropertyOp34
 70
     1
102
RTVSPropertyOp35
 70
     1
102
RTVSPropertyOp36
 70
     1
102
RTVSPropertyOp37
 70
     1
102
RTVSPropertyOp38
 70
     1
102
RTVSPropertyOp39
 70
     1
102
RTVSPropertyOp40
 70
     1
102
RTVSPropertyOp41
 70
     1
102
RTVSPropertyOp42
 70
     1
102
RTVSPropertyOp43
 70
     1
102
RTVSPropertyOp44
 70
     1
102
RTVSPropertyOp45
 70
     1
102
RTVSPropertyOp46
 70
     1
102
RTVSPropertyOp47
 70
     1
102
RTVSPropertyOp48
 70
     1
102
RTVSPropertyOp49
 70
     1
102
RTVSPropertyOp50
 70
     1
102
RTVSPropertyOp51
 70
     0
102
RTVSPropertyOp52
 70
     0
102
RTVSPropertyOp53
 70
     1
102
RTVSPropertyOp54
 70
     1
102
RTVSPropertyOp55
 70
     1
102
RTVSPropertyOp56
 70
     1
102
RTVSPropertyOp57
 70
     1
102
RTVSPropertyOp58
 70
     1
102
RTVSPropertyOp59
 70
     1
102
RTVSPropertyOp60
 70
     1
102
RTVSPropertyOp61
 70
     1
102
RTVSPropertyOp62
 70
     1
  0
ENDSEC
  0
EOF
