  0
SECTION
  2
HEADER
  9
$ACADVER
  1
AC1015
  9
$ACADMAINTVER
 70
    20
  9
$DWGCODEPAGE
  3
ANSI_932
  9
$INSBASE
 10
0.0
 20
0.0
 30
0.0
  9
$EXTMIN
 10
9.99995
 20
9.999999999999998
 30
0.0
  9
$EXTMAX
 10
368.0989789999999
 20
95.6
 30
0.0
  9
$LIMMIN
 10
0.0
 20
0.0
  9
$LIMMAX
 10
396.0
 20
273.0
  9
$ORTHOMODE
 70
     1
  9
$REGENMODE
 70
     1
  9
$FILLMODE
 70
     1
  9
$QTEXTMODE
 70
     0
  9
$MIRRTEXT
 70
     1
  9
$LTSCALE
 40
20.0
  9
$ATTMODE
 70
     1
  9
$TEXTSIZE
 40
5.0
  9
$TRACEWID
 40
1.0
  9
$TEXTSTYLE
  7
STANDARD
  9
$CLAYER
  8
0
  9
$CELTYPE
  6
BYLAYER
  9
$CECOLOR
 62
   256
  9
$CELTSCALE
 40
1.0
  9
$DISPSILH
 70
     0
  9
$DIMSCALE
 40
1.0
  9
$DIMASZ
 40
3.0
  9
$DIMEXO
 40
1.0
  9
$DIMDLI
 40
10.0
  9
$DIMRND
 40
0.0
  9
$DIMDLE
 40
0.0
  9
$DIMEXE
 40
1.0
  9
$DIMTP
 40
0.0
  9
$DIMTM
 40
0.0
  9
$DIMTXT
 40
3.2
  9
$DIMCEN
 40
0.0
  9
$DIMTSZ
 40
0.0
  9
$DIMTOL
 70
     0
  9
$DIMLIM
 70
     0
  9
$DIMTIH
 70
     0
  9
$DIMTOH
 70
     0
  9
$DIMSE1
 70
     0
  9
$DIMSE2
 70
     0
  9
$DIMTAD
 70
     3
  9
$DIMZIN
 70
     8
  9
$DIMBLK
  1

  9
$DIMASO
 70
     1
  9
$DIMSHO
 70
     1
  9
$DIMPOST
  1

  9
$DIMAPOST
  1

  9
$DIMALT
 70
     0
  9
$DIMALTD
 70
     2
  9
$DIMALTF
 40
25.4
  9
$DIMLFAC
 40
1.0
  9
$DIMTOFL
 70
     1
  9
$DIMTVP
 40
0.0
  9
$DIMTIX
 70
     0
  9
$DIMSOXD
 70
     0
  9
$DIMSAH
 70
     1
  9
$DIMBLK1
  1

  9
$DIMBLK2
  1

  9
$DIMSTYLE
  2
STANDARD
  9
$DIMCLRD
 70
     0
  9
$DIMCLRE
 70
     0
  9
$DIMCLRT
 70
     0
  9
$DIMTFAC
 40
1.0
  9
$DIMGAP
 40
1.0
  9
$DIMJUST
 70
     0
  9
$DIMSD1
 70
     0
  9
$DIMSD2
 70
     0
  9
$DIMTOLJ
 70
     1
  9
$DIMTZIN
 70
     0
  9
$DIMALTZ
 70
     0
  9
$DIMALTTZ
 70
     0
  9
$DIMUPT
 70
     0
  9
$DIMDEC
 70
     4
  9
$DIMTDEC
 70
     4
  9
$DIMALTU
 70
     2
  9
$DIMALTTD
 70
     2
  9
$DIMTXSTY
  7
STANDARD
  9
$DIMAUNIT
 70
     0
  9
$DIMADEC
 70
     0
  9
$DIMALTRND
 40
0.0
  9
$DIMAZIN
 70
     0
  9
$DIMDSEP
 70
    46
  9
$DIMATFIT
 70
     3
  9
$DIMFRAC
 70
     0
  9
$DIMLDRBLK
  1

  9
$DIMLUNIT
 70
     2
  9
$DIMLWD
 70
    -2
  9
$DIMLWE
 70
    -2
  9
$DIMTMOVE
 70
     0
  9
$LUNITS
 70
     2
  9
$LUPREC
 70
     4
  9
$SKETCHINC
 40
1.0
  9
$FILLETRAD
 40
0.5
  9
$AUNITS
 70
     0
  9
$AUPREC
 70
     2
  9
$MENU
  1
.
  9
$ELEVATION
 40
0.0
  9
$PELEVATION
 40
0.0
  9
$THICKNESS
 40
0.0
  9
$LIMCHECK
 70
     0
  9
$CHAMFERA
 40
10.0
  9
$CHAMFERB
 40
10.0
  9
$CHAMFERC
 40
0.0
  9
$CHAMFERD
 40
0.0
  9
$SKPOLY
 70
     0
  9
$TDCREATE
 40
2451285.442495949
  9
$TDUCREATE
 40
2451285.067495949
  9
$TDUPDATE
 40
2457192.656769248
  9
$TDUUPDATE
 40
2457192.281769248
  9
$TDINDWG
 40
0.0000121412
  9
$TDUSRTIMER
 40
0.0000116435
  9
$USRTIMER
 70
     1
  9
$ANGBASE
 50
0.0
  9
$ANGDIR
 70
     0
  9
$PDMODE
 70
    34
  9
$PDSIZE
 40
0.0
  9
$PLINEWID
 40
0.0
  9
$SPLFRAME
 70
     0
  9
$SPLINETYPE
 70
     6
  9
$SPLINESEGS
 70
     8
  9
$HANDSEED
  5
1D58B
  9
$SURFTAB1
 70
     6
  9
$SURFTAB2
 70
     6
  9
$SURFTYPE
 70
     6
  9
$SURFU
 70
     6
  9
$SURFV
 70
     6
  9
$UCSBASE
  2

  9
$UCSNAME
  2

  9
$UCSORG
 10
0.0
 20
0.0
 30
0.0
  9
$UCSXDIR
 10
1.0
 20
0.0
 30
0.0
  9
$UCSYDIR
 10
0.0
 20
1.0
 30
0.0
  9
$UCSORTHOREF
  2

  9
$UCSORTHOVIEW
 70
     0
  9
$UCSORGTOP
 10
0.0
 20
0.0
 30
0.0
  9
$UCSORGBOTTOM
 10
0.0
 20
0.0
 30
0.0
  9
$UCSORGLEFT
 10
0.0
 20
0.0
 30
0.0
  9
$UCSORGRIGHT
 10
0.0
 20
0.0
 30
0.0
  9
$UCSORGFRONT
 10
0.0
 20
0.0
 30
0.0
  9
$UCSORGBACK
 10
0.0
 20
0.0
 30
0.0
  9
$PUCSBASE
  2

  9
$PUCSNAME
  2

  9
$PUCSORG
 10
0.0
 20
0.0
 30
0.0
  9
$PUCSXDIR
 10
1.0
 20
0.0
 30
0.0
  9
$PUCSYDIR
 10
0.0
 20
1.0
 30
0.0
  9
$PUCSORTHOREF
  2

  9
$PUCSORTHOVIEW
 70
     0
  9
$PUCSORGTOP
 10
0.0
 20
0.0
 30
0.0
  9
$PUCSORGBOTTOM
 10
0.0
 20
0.0
 30
0.0
  9
$PUCSORGLEFT
 10
0.0
 20
0.0
 30
0.0
  9
$PUCSORGRIGHT
 10
0.0
 20
0.0
 30
0.0
  9
$PUCSORGFRONT
 10
0.0
 20
0.0
 30
0.0
  9
$PUCSORGBACK
 10
0.0
 20
0.0
 30
0.0
  9
$USERI1
 70
     0
  9
$USERI2
 70
     0
  9
$USERI3
 70
     0
  9
$USERI4
 70
     0
  9
$USERI5
 70
     0
  9
$USERR1
 40
0.0
  9
$USERR2
 40
0.0
  9
$USERR3
 40
0.0
  9
$USERR4
 40
0.0
  9
$USERR5
 40
0.0
  9
$WORLDVIEW
 70
     1
  9
$SHADEDGE
 70
     3
  9
$SHADEDIF
 70
    70
  9
$TILEMODE
 70
     1
  9
$MAXACTVP
 70
    16
  9
$PINSBASE
 10
0.0
 20
0.0
 30
0.0
  9
$PLIMCHECK
 70
     0
  9
$PEXTMIN
 10
1.000000000000000E+20
 20
1.000000000000000E+20
 30
1.000000000000000E+20
  9
$PEXTMAX
 10
-1.000000000000000E+20
 20
-1.000000000000000E+20
 30
-1.000000000000000E+20
  9
$PLIMMIN
 10
0.0
 20
0.0
  9
$PLIMMAX
 10
420.0
 20
297.0
  9
$UNITMODE
 70
     0
  9
$VISRETAIN
 70
     0
  9
$PLINEGEN
 70
     0
  9
$PSLTSCALE
 70
     0
  9
$TREEDEPTH
 70
  3020
  9
$CMLSTYLE
  2
STANDARD
  9
$CMLJUST
 70
     0
  9
$CMLSCALE
 40
1.0
  9
$PROXYGRAPHICS
 70
     1
  9
$MEASUREMENT
 70
     0
  9
$CELWEIGHT
370
    -1
  9
$ENDCAPS
280
     0
  9
$JOINSTYLE
280
     0
  9
$LWDISPLAY
290
     0
  9
$INSUNITS
 70
     0
  9
$HYPERLINKBASE
  1

  9
$STYLESHEET
  1

  9
$XEDIT
290
     1
  9
$CEPSNTYPE
380
     0
  9
$PSTYLEMODE
290
     1
  9
$FINGERPRINTGUID
  2
{225CD6FA-7F97-4F99-8ABC-94482E566761}
  9
$VERSIONGUID
  2
{21E47149-AB76-4D7B-8F25-7BD4E0A99D4C}
  9
$EXTNAMES
290
     1
  9
$PSVPSCALE
 40
0.0
  9
$OLESTARTUP
290
     0
  0
ENDSEC
  0
SECTION
  2
CLASSES
  0
CLASS
  1
ACDBDICTIONARYWDFLT
  2
AcDbDictionaryWithDefault
  3
ObjectDBX Classes
 90
        0
280
     0
281
     0
  0
CLASS
  1
ACDBPLACEHOLDER
  2
AcDbPlaceHolder
  3
ObjectDBX Classes
 90
        0
280
     0
281
     0
  0
CLASS
  1
LAYOUT
  2
AcDbLayout
  3
ObjectDBX Classes
 90
        0
280
     0
281
     0
  0
CLASS
  1
DICTIONARYVAR
  2
AcDbDictionaryVar
  3
ObjectDBX Classes
 90
        0
280
     0
281
     0
  0
CLASS
  1
MATERIAL
  2
AcDbMaterial
  3
ObjectDBX Classes
 90
     1153
280
     0
281
     0
  0
CLASS
  1
VISUALSTYLE
  2
AcDbVisualStyle
  3
ObjectDBX Classes
 90
     4095
280
     0
281
     0
  0
CLASS
  1
TABLESTYLE
  2
AcDbTableStyle
  3
ObjectDBX Classes
 90
     4095
280
     0
281
     0
  0
CLASS
  1
SCALE
  2
AcDbScale
  3
ObjectDBX Classes
 90
     1153
280
     0
281
     0
  0
CLASS
  1
MLEADERSTYLE
  2
AcDbMLeaderStyle
  3
ACDB_MLEADERSTYLE_CLASS
 90
     4095
280
     0
281
     0
  0
CLASS
  1
ACDBSECTIONVIEWSTYLE
  2
AcDbSectionViewStyle
  3
ObjectDBX Classes
 90
     1025
280
     0
281
     0
  0
CLASS
  1
ACDBDETAILVIEWSTYLE
  2
AcDbDetailViewStyle
  3
ObjectDBX Classes
 90
     1025
280
     0
281
     0
  0
CLASS
  1
CELLSTYLEMAP
  2
AcDbCellStyleMap
  3
ObjectDBX Classes
 90
     1152
280
     0
281
     0
  0
ENDSEC
  0
SECTION
  2
TABLES
  0
TABLE
  2
VPORT
  5
1D22F
330
0
100
AcDbSymbolTable
 70
     1
  0
VPORT
  5
1D4D4
330
1D22F
100
AcDbSymbolTableRecord
100
AcDbViewportTableRecord
  2
*ACTIVE
 70
     0
 10
0.0
 20
0.0
 11
1.0
 21
1.0
 12
250.7189409805263
 22
52.79127556259187
 13
0.0
 23
0.0
 14
10.0
 24
10.0
 15
10.0
 25
10.0
 16
0.0
 26
0.0
 36
1.0
 17
0.0
 27
0.0
 37
0.0
 40
205.8606048348706
 41
1.899603698811096
 42
50.0
 43
0.0
 44
0.0
 50
0.0
 51
0.0
 71
     0
 72
   100
 73
     1
 74
     0
 75
     0
 76
     0
 77
     0
 78
     1
281
     0
 65
     1
110
0.0
120
0.0
130
0.0
111
1.0
121
0.0
131
0.0
112
0.0
122
1.0
132
0.0
 79
     0
146
0.0
1001
ACAD_NAV_VCDISPLAY
1070
     3
  0
ENDTAB
  0
TABLE
  2
LTYPE
  5
1D22C
330
0
100
AcDbSymbolTable
 70
     4
  0
LTYPE
  5
1D23A
330
1D22C
100
AcDbSymbolTableRecord
100
AcDbLinetypeTableRecord
  2
BYBLOCK
 70
     0
  3

 72
    65
 73
     0
 40
0.0
  0
LTYPE
  5
1D23B
330
1D22C
100
AcDbSymbolTableRecord
100
AcDbLinetypeTableRecord
  2
BYLAYER
 70
     0
  3

 72
    65
 73
     0
 40
0.0
  0
LTYPE
  5
1D23C
330
1D22C
100
AcDbSymbolTableRecord
100
AcDbLinetypeTableRecord
  2
CONTINUOUS
 70
     0
  3
Solid line
 72
    65
 73
     0
 40
0.0
  0
LTYPE
  5
1D24A
330
1D22C
100
AcDbSymbolTableRecord
100
AcDbLinetypeTableRecord
  2
DASHED
 70
     0
  3
__ __ __ __ __ __ __ __ __ __ __ __ __ __ __ __
 72
    65
 73
     2
 40
0.75
 49
0.5
 74
     0
 49
-0.25
 74
     0
  0
LTYPE
  5
1D24B
330
1D22C
100
AcDbSymbolTableRecord
100
AcDbLinetypeTableRecord
  2
CENTER
 70
     0
  3
____ _ ____ _ ____ _ ____ _ ____ _ ____ _ ____ 
 72
    65
 73
     4
 40
2.0
 49
1.25
 74
     0
 49
-0.25
 74
     0
 49
0.25
 74
     0
 49
-0.25
 74
     0
  0
LTYPE
  5
1D24C
330
1D22C
100
AcDbSymbolTableRecord
100
AcDbLinetypeTableRecord
  2
PHANTOM
 70
     0
  3
______  __  __  ______  __  __  ______  __  __ 
 72
    65
 73
     6
 40
2.5
 49
1.25
 74
     0
 49
-0.25
 74
     0
 49
0.25
 74
     0
 49
-0.25
 74
     0
 49
0.25
 74
     0
 49
-0.25
 74
     0
  0
ENDTAB
  0
TABLE
  2
LAYER
  5
1D229
330
0
100
AcDbSymbolTable
 70
     8
  0
LAYER
  5
1D237
102
{ACAD_XDICTIONARY
360
1D52F
102
}
330
1D229
100
AcDbSymbolTableRecord
100
AcDbLayerTableRecord
  2
0
 70
     0
 62
     7
  6
CONTINUOUS
370
    -3
390
1D4DD
  0
LAYER
  5
1D24D
102
{ACAD_XDICTIONARY
360
1D531
102
}
330
1D229
100
AcDbSymbolTableRecord
100
AcDbLayerTableRecord
  2
4
 70
     0
 62
     1
  6
CENTER
370
    -3
390
1D4DD
  0
LAYER
  5
1D24E
102
{ACAD_XDICTIONARY
360
1D533
102
}
330
1D229
100
AcDbSymbolTableRecord
100
AcDbLayerTableRecord
  2
5
 70
     0
 62
     6
  6
PHANTOM
370
    -3
390
1D4DD
  0
LAYER
  5
1D24F
102
{ACAD_XDICTIONARY
360
1D535
102
}
330
1D229
100
AcDbSymbolTableRecord
100
AcDbLayerTableRecord
  2
1
 70
     0
 62
     7
  6
CONTINUOUS
370
    -3
390
1D4DD
  0
LAYER
  5
1D250
102
{ACAD_XDICTIONARY
360
1D537
102
}
330
1D229
100
AcDbSymbolTableRecord
100
AcDbLayerTableRecord
  2
2
 70
     0
 62
     4
  6
CONTINUOUS
370
    -3
390
1D4DD
  0
LAYER
  5
1D251
102
{ACAD_XDICTIONARY
360
1D539
102
}
330
1D229
100
AcDbSymbolTableRecord
100
AcDbLayerTableRecord
  2
3
 70
     0
 62
     2
  6
DASHED
370
    -3
390
1D4DD
  0
LAYER
  5
1D252
102
{ACAD_XDICTIONARY
360
1D53B
102
}
330
1D229
100
AcDbSymbolTableRecord
100
AcDbLayerTableRecord
  2
6
 70
     0
 62
     5
  6
CONTINUOUS
370
    -3
390
1D4DD
  0
LAYER
  5
1D253
102
{ACAD_XDICTIONARY
360
1D53D
102
}
330
1D229
100
AcDbSymbolTableRecord
100
AcDbLayerTableRecord
  2
7
 70
     0
 62
     3
  6
CONTINUOUS
370
    -3
390
1D4DD
  0
ENDTAB
  0
TABLE
  2
STYLE
  5
1D22A
330
0
100
AcDbSymbolTable
 70
     1
  0
STYLE
  5
1D238
330
1D22A
100
AcDbSymbolTableRecord
100
AcDbTextStyleTableRecord
  2
STANDARD
 70
     0
 40
0.0
 41
1.0
 50
0.0
 71
     0
 42
5.0
  3
txt
  4

  0
ENDTAB
  0
TABLE
  2
VIEW
  5
1D22D
330
0
100
AcDbSymbolTable
 70
     2
  0
VIEW
  5
1D254
330
1D22D
100
AcDbSymbolTableRecord
100
AcDbViewTableRecord
  2
7
 70
     0
 40
202.032296
 10
194.613031
 20
101.016148
 41
389.226062
 11
0.0
 21
0.0
 31
1.0
 12
0.0
 22
0.0
 32
0.0
 42
50.0
 43
0.0
 44
0.0
 50
0.0
 71
     0
281
     0
 72
     0
  0
VIEW
  5
1D255
330
1D22D
100
AcDbSymbolTableRecord
100
AcDbViewTableRecord
  2
1
 70
     0
 40
249.466496
 10
136.846708
 20
233.977284
 41
487.485198
 11
0.0
 21
0.0
 31
1.0
 12
0.0
 22
0.0
 32
0.0
 42
50.0
 43
0.0
 44
0.0
 50
0.0
 71
     0
281
     0
 72
     0
  0
ENDTAB
  0
TABLE
  2
UCS
  5
1D22E
330
0
100
AcDbSymbolTable
 70
     0
  0
ENDTAB
  0
TABLE
  2
APPID
  5
1D230
330
0
100
AcDbSymbolTable
 70
     3
  0
APPID
  5
1D239
330
1D230
100
AcDbSymbolTableRecord
100
AcDbRegAppTableRecord
  2
ACAD
 70
     0
  0
APPID
  5
1D549
330
1D230
100
AcDbSymbolTableRecord
100
AcDbRegAppTableRecord
  2
ACAD_NAV_VCDISPLAY
 70
     0
  0
APPID
  5
1D582
330
1D230
100
AcDbSymbolTableRecord
100
AcDbRegAppTableRecord
  2
ACAD_MLEADERVER
 70
     0
  0
ENDTAB
  0
TABLE
  2
DIMSTYLE
  5
1D231
330
0
100
AcDbSymbolTable
 70
     1
100
AcDbDimStyleTable
 71
     0
  0
DIMSTYLE
105
1D257
330
1D231
100
AcDbSymbolTableRecord
100
AcDbDimStyleTableRecord
  2
STANDARD
 70
     0
 41
3.0
 42
1.0
 43
10.0
 44
1.0
 73
     0
 74
     0
 77
     3
 78
     8
140
3.2
141
0.0
147
1.0
172
     1
173
     1
284
     8
285
     8
286
     8
340
1D238
  0
ENDTAB
  0
TABLE
  2
BLOCK_RECORD
  5
1D228
330
0
100
AcDbSymbolTable
 70
     0
  0
BLOCK_RECORD
  5
1D245
102
{ACAD_XDICTIONARY
360
1D4D7
102
}
330
1D228
100
AcDbSymbolTableRecord
100
AcDbBlockTableRecord
  2
*MODEL_SPACE
340
1D52B
  0
BLOCK_RECORD
  5
1D241
102
{ACAD_XDICTIONARY
360
1D4D5
102
}
330
1D228
100
AcDbSymbolTableRecord
100
AcDbBlockTableRecord
  2
*PAPER_SPACE
340
1D52C
  0
ENDTAB
  0
ENDSEC
  0
SECTION
  2
BLOCKS
  0
BLOCK
  5
1D246
330
1D245
100
AcDbEntity
  8
0
100
AcDbBlockBegin
  2
*MODEL_SPACE
 70
     0
 10
0.0
 20
0.0
 30
0.0
  3
*MODEL_SPACE
  1

  0
ENDBLK
  5
1D247
330
1D245
100
AcDbEntity
  8
0
100
AcDbBlockEnd
  0
BLOCK
  5
1D242
330
1D241
100
AcDbEntity
 67
     1
  8
0
100
AcDbBlockBegin
  2
*PAPER_SPACE
 70
     0
 10
0.0
 20
0.0
 30
0.0
  3
*PAPER_SPACE
  1

  0
ENDBLK
  5
1D243
330
1D241
100
AcDbEntity
 67
     1
  8
0
100
AcDbBlockEnd
  0
ENDSEC
  0
SECTION
  2
ENTITIES
  0
TEXT
  5
1D25F
330
1D245
100
AcDbEntity
  8
6
  6
Continuous
100
AcDbText
 10
27.97945
 20
10.0487
 30
0.0
 40
1.399999999999999
  1
6
 41
1.069393
100
AcDbText
  0
TEXT
  5
1D260
330
1D245
100
AcDbEntity
  8
1
  6
Continuous
100
AcDbText
 10
17.97945
 20
10.0487
 30
0.0
 40
1.399999999999999
  1
1
 41
1.069393
100
AcDbText
  0
TEXT
  5
1D261
330
1D245
100
AcDbEntity
  8
1
  6
Continuous
100
AcDbText
 10
9.99995
 20
10.0
 30
0.0
 40
1.399999999999999
  1
LAYER
 41
1.009912999999997
100
AcDbText
  0
TEXT
  5
1D262
330
1D245
100
AcDbEntity
  8
2
  6
Continuous
100
AcDbText
 10
19.97944999999998
 20
10.0487
 30
0.0
 40
1.399999999999999
  1
2
 41
1.069393
100
AcDbText
  0
TEXT
  5
1D263
330
1D245
100
AcDbEntity
  8
3
  6
DASHED
100
AcDbText
 10
21.97945
 20
10.0487
 30
0.0
 40
1.399999999999999
  1
3
 41
1.069393
100
AcDbText
  0
TEXT
  5
1D264
330
1D245
100
AcDbEntity
  8
4
  6
CENTER
100
AcDbText
 10
23.97944999999999
 20
10.0487
 30
0.0
 40
1.399999999999999
  1
4
 41
1.069393
100
AcDbText
  0
TEXT
  5
1D265
330
1D245
100
AcDbEntity
  8
5
  6
PHANTOM
100
AcDbText
 10
25.97945
 20
10.0487
 30
0.0
 40
1.399999999999999
  1
5
 41
1.069393
100
AcDbText
  0
TEXT
  5
1D266
330
1D245
100
AcDbEntity
  8
7
  6
Continuous
100
AcDbText
 10
10.00005
 20
26.0
 30
0.0
 40
3.0
  1
CODE No.5447
 41
1.003962999999999
100
AcDbText
  0
TEXT
  5
1D267
330
1D245
100
AcDbEntity
  8
7
  6
Continuous
100
AcDbText
 10
10.00005
 20
18.0
 30
0.0
 40
3.0
  1
TYPE No.TM-104SS-14
 41
1.002350999999998
100
AcDbText
  0
TEXT
  5
1D268
330
1D245
100
AcDbEntity
  8
7
  6
Continuous
100
AcDbText
 10
29.97944999999999
 20
10.0487
 30
0.0
 40
1.399999999999999
  1
7
 41
1.069393
100
AcDbText
  0
LINE
  5
1D269
330
1D245
100
AcDbEntity
  8
4
  6
CENTER
100
AcDbLine
 10
355.0010209999999
 20
44.64999999999998
 30
0.0
 11
368.0989789999999
 21
44.64999999999998
 31
0.0
  0
LINE
  5
1D26A
330
1D245
100
AcDbEntity
  8
4
  6
CENTER
100
AcDbLine
 10
361.55
 20
51.285897
 30
0.0
 11
361.55
 21
38.014103
 31
0.0
  0
LINE
  5
1D26B
330
1D245
100
AcDbEntity
  8
1
  6
Continuous
100
AcDbLine
 10
360.55
 20
46.234175
 30
0.0
 11
360.55
 21
42.35
 31
0.0
  0
LINE
  5
1D26C
330
1D245
100
AcDbEntity
  8
1
  6
Continuous
100
AcDbLine
 10
362.55
 20
43.065825
 30
0.0
 11
362.55
 21
46.95
 31
0.0
  0
LINE
  5
1D26D
330
1D245
100
AcDbEntity
  8
1
  6
Continuous
100
AcDbLine
 10
359.8999999999999
 20
43.65
 30
0.0
 11
360.55
 21
43.65
 31
0.0
  0
LINE
  5
1D26E
330
1D245
100
AcDbEntity
  8
1
  6
Continuous
100
AcDbLine
 10
360.55
 20
45.65
 30
0.0
 11
359.8999999999999
 21
45.65
 31
0.0
  0
LINE
  5
1D26F
330
1D245
100
AcDbEntity
  8
1
  6
Continuous
100
AcDbLine
 10
362.55
 20
45.65
 30
0.0
 11
363.2
 21
45.65
 31
0.0
  0
LINE
  5
1D270
330
1D245
100
AcDbEntity
  8
1
  6
Continuous
100
AcDbLine
 10
362.55
 20
43.65
 30
0.0
 11
363.2
 21
43.65
 31
0.0
  0
LINE
  5
1D271
330
1D245
100
AcDbEntity
  8
4
  6
CENTER
100
AcDbLine
 10
89.29999999999997
 20
44.64999999999998
 30
0.0
 11
300.8999999999999
 21
44.64999999999998
 31
0.0
  0
ARC
  5
1D272
330
1D245
100
AcDbEntity
  8
1
  6
Continuous
100
AcDbCircle
 10
294.2499999999999
 20
44.64999999999998
 30
0.0
 40
3.649999999999999
100
AcDbArc
 50
246.785839
 51
113.214161
  0
ARC
  5
1D273
330
1D245
100
AcDbEntity
  8
1
  6
Continuous
100
AcDbCircle
 10
286.5
 20
44.64999999999998
 30
0.0
 40
1.0
100
AcDbArc
 50
90.0
 51
270.0
  0
ARC
  5
1D274
330
1D245
100
AcDbEntity
  8
1
  6
Continuous
100
AcDbCircle
 10
286.5
 20
49.64999999999999
 30
0.0
 40
4.0
100
AcDbArc
 50
270.0
 51
293.214161
  0
LINE
  5
1D275
330
1D245
100
AcDbEntity
  8
1
  6
Continuous
100
AcDbLine
 10
288.0766759999999
 20
45.97384799999999
 30
0.0
 11
292.8112829999999
 21
48.004489
 31
0.0
  0
ARC
  5
1D276
330
1D245
100
AcDbEntity
  8
1
  6
Continuous
100
AcDbCircle
 10
286.5
 20
49.64999999999999
 30
0.0
 40
6.0
100
AcDbArc
 50
270.0
 51
293.214161
  0
LINE
  5
1D277
330
1D245
100
AcDbEntity
  8
1
  6
Continuous
100
AcDbLine
 10
288.8650139999999
 20
44.13577199999997
 30
0.0
 11
293.599621
 21
46.166413
 31
0.0
  0
ARC
  5
1D278
330
1D245
100
AcDbEntity
  8
1
  6
Continuous
100
AcDbCircle
 10
286.5
 20
39.64999999999999
 30
0.0
 40
4.0
100
AcDbArc
 50
81.02982500000001
 51
90.0
  0
LINE
  5
1D279
330
1D245
100
AcDbEntity
  8
1
  6
Continuous
100
AcDbLine
 10
289.056375
 20
42.90596599999999
 30
0.0
 11
292.8112829999999
 21
41.29551099999999
 31
0.0
  0
LINE
  5
1D27A
330
1D245
100
AcDbEntity
  8
1
  6
Continuous
100
AcDbLine
 10
290.0639789999999
 20
44.64999999999998
 30
0.0
 11
293.599621
 21
43.133587
 31
0.0
  0
ARC
  5
1D27B
330
1D245
100
AcDbEntity
  8
1
  6
Continuous
100
AcDbCircle
 10
294.2499999999999
 20
44.64999999999998
 30
0.0
 40
1.649999999999999
100
AcDbArc
 50
246.785839
 51
113.214161
  0
LINE
  5
1D27C
330
1D245
100
AcDbEntity
  8
1
  6
Continuous
100
AcDbLine
 10
280.656375
 20
42.90596599999999
 30
0.0
 11
284.411283
 21
41.29551099999999
 31
0.0
  0
ARC
  5
1D27D
330
1D245
100
AcDbEntity
  8
1
  6
Continuous
100
AcDbCircle
 10
285.85
 20
44.64999999999998
 30
0.0
 40
3.649999999999999
100
AcDbArc
 50
246.785839
 51
356.144464
  0
ARC
  5
1D27E
330
1D245
100
AcDbEntity
  8
1
  6
Continuous
100
AcDbCircle
 10
285.85
 20
44.64999999999998
 30
0.0
 40
1.649999999999999
100
AcDbArc
 50
246.785839
 51
324.423158
  0
ARC
  5
1D27F
330
1D245
100
AcDbEntity
  8
1
  6
Continuous
100
AcDbCircle
 10
278.1
 20
44.64999999999998
 30
0.0
 40
1.0
100
AcDbArc
 50
90.0
 51
270.0
  0
LINE
  5
1D280
330
1D245
100
AcDbEntity
  8
1
  6
Continuous
100
AcDbLine
 10
281.6639789999999
 20
44.64999999999998
 30
0.0
 11
285.1996209999999
 21
43.133587
 31
0.0
  0
ARC
  5
1D281
330
1D245
100
AcDbEntity
  8
1
  6
Continuous
100
AcDbCircle
 10
278.1
 20
39.64999999999999
 30
0.0
 40
4.0
100
AcDbArc
 50
81.02982500000001
 51
90.0
  0
LINE
  5
1D282
330
1D245
100
AcDbEntity
  8
1
  6
Continuous
100
AcDbLine
 10
280.465014
 20
44.13577199999997
 30
0.0
 11
285.1996209999999
 21
46.166413
 31
0.0
  0
ARC
  5
1D283
330
1D245
100
AcDbEntity
  8
1
  6
Continuous
100
AcDbCircle
 10
278.1
 20
49.64999999999999
 30
0.0
 40
6.0
100
AcDbArc
 50
270.0
 51
293.214161
  0
LINE
  5
1D284
330
1D245
100
AcDbEntity
  8
1
  6
Continuous
100
AcDbLine
 10
279.676676
 20
45.97384799999999
 30
0.0
 11
284.411283
 21
48.004489
 31
0.0
  0
ARC
  5
1D285
330
1D245
100
AcDbEntity
  8
1
  6
Continuous
100
AcDbCircle
 10
278.1
 20
49.64999999999999
 30
0.0
 40
4.0
100
AcDbArc
 50
270.0
 51
293.214161
  0
ARC
  5
1D286
330
1D245
100
AcDbEntity
  8
1
  6
Continuous
100
AcDbCircle
 10
285.85
 20
44.64999999999998
 30
0.0
 40
3.649999999999999
100
AcDbArc
 50
28.54296699999999
 51
113.214161
  0
ARC
  5
1D287
330
1D245
100
AcDbEntity
  8
1
  6
Continuous
100
AcDbCircle
 10
285.85
 20
44.64999999999998
 30
0.0
 40
1.649999999999999
100
AcDbArc
 50
39.47266099999998
 51
113.214161
  0
LINE
  5
1D288
330
1D245
100
AcDbEntity
  8
1
  6
Continuous
100
AcDbLine
 10
272.2563749999998
 20
42.90596599999999
 30
0.0
 11
276.011283
 21
41.29551099999999
 31
0.0
  0
ARC
  5
1D289
330
1D245
100
AcDbEntity
  8
1
  6
Continuous
100
AcDbCircle
 10
269.05
 20
44.64999999999998
 30
0.0
 40
3.649999999999999
100
AcDbArc
 50
246.785839
 51
356.144464
  0
LINE
  5
1D28A
330
1D245
100
AcDbEntity
  8
1
  6
Continuous
100
AcDbLine
 10
263.856375
 20
42.90596599999999
 30
0.0
 11
267.611283
 21
41.29551099999999
 31
0.0
  0
ARC
  5
1D28B
330
1D245
100
AcDbEntity
  8
1
  6
Continuous
100
AcDbCircle
 10
277.4499999999998
 20
44.64999999999998
 30
0.0
 40
3.649999999999999
100
AcDbArc
 50
246.785839
 51
356.144464
  0
ARC
  5
1D28C
330
1D245
100
AcDbEntity
  8
1
  6
Continuous
100
AcDbCircle
 10
261.2999999999999
 20
49.64999999999999
 30
0.0
 40
4.0
100
AcDbArc
 50
270.0
 51
293.214161
  0
ARC
  5
1D28D
330
1D245
100
AcDbEntity
  8
1
  6
Continuous
100
AcDbCircle
 10
261.2999999999999
 20
49.64999999999999
 30
0.0
 40
6.0
100
AcDbArc
 50
270.0
 51
293.214161
  0
ARC
  5
1D28E
330
1D245
100
AcDbEntity
  8
1
  6
Continuous
100
AcDbCircle
 10
261.2999999999999
 20
39.64999999999999
 30
0.0
 40
4.0
100
AcDbArc
 50
81.02982500000001
 51
90.0
  0
ARC
  5
1D28F
330
1D245
100
AcDbEntity
  8
1
  6
Continuous
100
AcDbCircle
 10
261.2999999999999
 20
44.64999999999998
 30
0.0
 40
1.0
100
AcDbArc
 50
90.0
 51
270.0
  0
ARC
  5
1D290
330
1D245
100
AcDbEntity
  8
1
  6
Continuous
100
AcDbCircle
 10
277.4499999999998
 20
44.64999999999998
 30
0.0
 40
1.649999999999999
100
AcDbArc
 50
246.785839
 51
324.423158
  0
ARC
  5
1D291
330
1D245
100
AcDbEntity
  8
1
  6
Continuous
100
AcDbCircle
 10
269.7
 20
39.64999999999999
 30
0.0
 40
4.0
100
AcDbArc
 50
81.02982500000001
 51
90.0
  0
ARC
  5
1D292
330
1D245
100
AcDbEntity
  8
1
  6
Continuous
100
AcDbCircle
 10
269.7
 20
44.64999999999998
 30
0.0
 40
1.0
100
AcDbArc
 50
90.0
 51
270.0
  0
ARC
  5
1D293
330
1D245
100
AcDbEntity
  8
1
  6
Continuous
100
AcDbCircle
 10
269.05
 20
44.64999999999998
 30
0.0
 40
1.649999999999999
100
AcDbArc
 50
39.47266099999998
 51
113.214161
  0
ARC
  5
1D294
330
1D245
100
AcDbEntity
  8
1
  6
Continuous
100
AcDbCircle
 10
269.05
 20
44.64999999999998
 30
0.0
 40
1.649999999999999
100
AcDbArc
 50
246.785839
 51
324.423158
  0
ARC
  5
1D295
330
1D245
100
AcDbEntity
  8
1
  6
Continuous
100
AcDbCircle
 10
269.05
 20
44.64999999999998
 30
0.0
 40
3.649999999999999
100
AcDbArc
 50
28.54296699999999
 51
113.214161
  0
LINE
  5
1D296
330
1D245
100
AcDbEntity
  8
1
  6
Continuous
100
AcDbLine
 10
262.8766759999999
 20
45.97384799999999
 30
0.0
 11
267.611283
 21
48.004489
 31
0.0
  0
LINE
  5
1D297
330
1D245
100
AcDbEntity
  8
1
  6
Continuous
100
AcDbLine
 10
263.6650139999999
 20
44.13577199999997
 30
0.0
 11
268.399621
 21
46.166413
 31
0.0
  0
LINE
  5
1D298
330
1D245
100
AcDbEntity
  8
1
  6
Continuous
100
AcDbLine
 10
264.8639789999999
 20
44.64999999999998
 30
0.0
 11
268.399621
 21
43.133587
 31
0.0
  0
LINE
  5
1D299
330
1D245
100
AcDbEntity
  8
1
  6
Continuous
100
AcDbLine
 10
273.2639789999999
 20
44.64999999999998
 30
0.0
 11
276.799621
 21
43.133587
 31
0.0
  0
LINE
  5
1D29A
330
1D245
100
AcDbEntity
  8
1
  6
Continuous
100
AcDbLine
 10
272.065014
 20
44.13577199999997
 30
0.0
 11
276.799621
 21
46.166413
 31
0.0
  0
ARC
  5
1D29B
330
1D245
100
AcDbEntity
  8
1
  6
Continuous
100
AcDbCircle
 10
269.7
 20
49.64999999999999
 30
0.0
 40
6.0
100
AcDbArc
 50
270.0
 51
293.214161
  0
LINE
  5
1D29C
330
1D245
100
AcDbEntity
  8
1
  6
Continuous
100
AcDbLine
 10
271.2766759999999
 20
45.97384799999999
 30
0.0
 11
276.011283
 21
48.004489
 31
0.0
  0
ARC
  5
1D29D
330
1D245
100
AcDbEntity
  8
1
  6
Continuous
100
AcDbCircle
 10
269.7
 20
49.64999999999999
 30
0.0
 40
4.0
100
AcDbArc
 50
270.0
 51
293.214161
  0
LINE
  5
1D29E
330
1D245
100
AcDbEntity
  8
1
  6
Continuous
100
AcDbLine
 10
255.456375
 20
42.90596599999999
 30
0.0
 11
259.211283
 21
41.29551099999999
 31
0.0
  0
ARC
  5
1D29F
330
1D245
100
AcDbEntity
  8
1
  6
Continuous
100
AcDbCircle
 10
252.2499999999999
 20
44.64999999999998
 30
0.0
 40
3.649999999999999
100
AcDbArc
 50
246.785839
 51
356.144464
  0
LINE
  5
1D2A0
330
1D245
100
AcDbEntity
  8
1
  6
Continuous
100
AcDbLine
 10
247.056375
 20
42.90596599999999
 30
0.0
 11
250.8112829999999
 21
41.29551099999999
 31
0.0
  0
ARC
  5
1D2A1
330
1D245
100
AcDbEntity
  8
1
  6
Continuous
100
AcDbCircle
 10
260.65
 20
44.64999999999998
 30
0.0
 40
3.649999999999999
100
AcDbArc
 50
246.785839
 51
356.144464
  0
ARC
  5
1D2A2
330
1D245
100
AcDbEntity
  8
1
  6
Continuous
100
AcDbCircle
 10
244.4999999999998
 20
49.64999999999999
 30
0.0
 40
4.0
100
AcDbArc
 50
270.0
 51
293.214161
  0
ARC
  5
1D2A3
330
1D245
100
AcDbEntity
  8
1
  6
Continuous
100
AcDbCircle
 10
244.4999999999998
 20
49.64999999999999
 30
0.0
 40
6.0
100
AcDbArc
 50
270.0
 51
293.214161
  0
ARC
  5
1D2A4
330
1D245
100
AcDbEntity
  8
1
  6
Continuous
100
AcDbCircle
 10
244.4999999999998
 20
39.64999999999999
 30
0.0
 40
4.0
100
AcDbArc
 50
81.02982500000001
 51
90.0
  0
ARC
  5
1D2A5
330
1D245
100
AcDbEntity
  8
1
  6
Continuous
100
AcDbCircle
 10
244.4999999999998
 20
44.64999999999998
 30
0.0
 40
1.0
100
AcDbArc
 50
90.0
 51
270.0
  0
ARC
  5
1D2A6
330
1D245
100
AcDbEntity
  8
1
  6
Continuous
100
AcDbCircle
 10
260.65
 20
44.64999999999998
 30
0.0
 40
1.649999999999999
100
AcDbArc
 50
246.785839
 51
324.423158
  0
ARC
  5
1D2A7
330
1D245
100
AcDbEntity
  8
1
  6
Continuous
100
AcDbCircle
 10
252.8999999999999
 20
39.64999999999999
 30
0.0
 40
4.0
100
AcDbArc
 50
81.02982500000001
 51
90.0
  0
ARC
  5
1D2A8
330
1D245
100
AcDbEntity
  8
1
  6
Continuous
100
AcDbCircle
 10
252.8999999999999
 20
44.64999999999998
 30
0.0
 40
1.0
100
AcDbArc
 50
90.0
 51
270.0
  0
ARC
  5
1D2A9
330
1D245
100
AcDbEntity
  8
1
  6
Continuous
100
AcDbCircle
 10
252.2499999999999
 20
44.64999999999998
 30
0.0
 40
1.649999999999999
100
AcDbArc
 50
39.47266099999998
 51
113.214161
  0
ARC
  5
1D2AA
330
1D245
100
AcDbEntity
  8
1
  6
Continuous
100
AcDbCircle
 10
252.2499999999999
 20
44.64999999999998
 30
0.0
 40
1.649999999999999
100
AcDbArc
 50
246.785839
 51
324.423158
  0
ARC
  5
1D2AB
330
1D245
100
AcDbEntity
  8
1
  6
Continuous
100
AcDbCircle
 10
252.2499999999999
 20
44.64999999999998
 30
0.0
 40
3.649999999999999
100
AcDbArc
 50
28.54296699999999
 51
113.214161
  0
LINE
  5
1D2AC
330
1D245
100
AcDbEntity
  8
1
  6
Continuous
100
AcDbLine
 10
246.0766759999999
 20
45.97384799999999
 30
0.0
 11
250.8112829999999
 21
48.004489
 31
0.0
  0
LINE
  5
1D2AD
330
1D245
100
AcDbEntity
  8
1
  6
Continuous
100
AcDbLine
 10
246.865014
 20
44.13577199999997
 30
0.0
 11
251.5996209999999
 21
46.166413
 31
0.0
  0
LINE
  5
1D2AE
330
1D245
100
AcDbEntity
  8
1
  6
Continuous
100
AcDbLine
 10
248.063979
 20
44.64999999999998
 30
0.0
 11
251.5996209999999
 21
43.133587
 31
0.0
  0
LINE
  5
1D2AF
330
1D245
100
AcDbEntity
  8
1
  6
Continuous
100
AcDbLine
 10
256.463979
 20
44.64999999999998
 30
0.0
 11
259.999621
 21
43.133587
 31
0.0
  0
LINE
  5
1D2B0
330
1D245
100
AcDbEntity
  8
1
  6
Continuous
100
AcDbLine
 10
255.265014
 20
44.13577199999997
 30
0.0
 11
259.999621
 21
46.166413
 31
0.0
  0
ARC
  5
1D2B1
330
1D245
100
AcDbEntity
  8
1
  6
Continuous
100
AcDbCircle
 10
252.8999999999999
 20
49.64999999999999
 30
0.0
 40
6.0
100
AcDbArc
 50
270.0
 51
293.214161
  0
LINE
  5
1D2B2
330
1D245
100
AcDbEntity
  8
1
  6
Continuous
100
AcDbLine
 10
254.4766759999999
 20
45.97384799999999
 30
0.0
 11
259.211283
 21
48.004489
 31
0.0
  0
ARC
  5
1D2B3
330
1D245
100
AcDbEntity
  8
1
  6
Continuous
100
AcDbCircle
 10
252.8999999999999
 20
49.64999999999999
 30
0.0
 40
4.0
100
AcDbArc
 50
270.0
 51
293.214161
  0
LINE
  5
1D2B4
330
1D245
100
AcDbEntity
  8
1
  6
Continuous
100
AcDbLine
 10
238.656375
 20
42.90596599999999
 30
0.0
 11
242.4112829999998
 21
41.29551099999999
 31
0.0
  0
ARC
  5
1D2B5
330
1D245
100
AcDbEntity
  8
1
  6
Continuous
100
AcDbCircle
 10
235.4499999999999
 20
44.64999999999998
 30
0.0
 40
3.649999999999999
100
AcDbArc
 50
246.785839
 51
356.144464
  0
LINE
  5
1D2B6
330
1D245
100
AcDbEntity
  8
1
  6
Continuous
100
AcDbLine
 10
230.256375
 20
42.90596599999999
 30
0.0
 11
234.0112829999999
 21
41.29551099999999
 31
0.0
  0
ARC
  5
1D2B7
330
1D245
100
AcDbEntity
  8
1
  6
Continuous
100
AcDbCircle
 10
243.8499999999999
 20
44.64999999999998
 30
0.0
 40
3.649999999999999
100
AcDbArc
 50
246.785839
 51
356.144464
  0
ARC
  5
1D2B8
330
1D245
100
AcDbEntity
  8
1
  6
Continuous
100
AcDbCircle
 10
227.7
 20
49.64999999999999
 30
0.0
 40
4.0
100
AcDbArc
 50
270.0
 51
293.214161
  0
ARC
  5
1D2B9
330
1D245
100
AcDbEntity
  8
1
  6
Continuous
100
AcDbCircle
 10
227.7
 20
49.64999999999999
 30
0.0
 40
6.0
100
AcDbArc
 50
270.0
 51
293.214161
  0
ARC
  5
1D2BA
330
1D245
100
AcDbEntity
  8
1
  6
Continuous
100
AcDbCircle
 10
227.7
 20
39.64999999999999
 30
0.0
 40
4.0
100
AcDbArc
 50
81.02982500000001
 51
90.0
  0
ARC
  5
1D2BB
330
1D245
100
AcDbEntity
  8
1
  6
Continuous
100
AcDbCircle
 10
227.7
 20
44.64999999999998
 30
0.0
 40
1.0
100
AcDbArc
 50
90.0
 51
270.0
  0
ARC
  5
1D2BC
330
1D245
100
AcDbEntity
  8
1
  6
Continuous
100
AcDbCircle
 10
243.8499999999999
 20
44.64999999999998
 30
0.0
 40
1.649999999999999
100
AcDbArc
 50
246.785839
 51
324.423158
  0
ARC
  5
1D2BD
330
1D245
100
AcDbEntity
  8
1
  6
Continuous
100
AcDbCircle
 10
236.1
 20
39.64999999999999
 30
0.0
 40
4.0
100
AcDbArc
 50
81.02982500000001
 51
90.0
  0
ARC
  5
1D2BE
330
1D245
100
AcDbEntity
  8
1
  6
Continuous
100
AcDbCircle
 10
236.1
 20
44.64999999999998
 30
0.0
 40
1.0
100
AcDbArc
 50
90.0
 51
270.0
  0
ARC
  5
1D2BF
330
1D245
100
AcDbEntity
  8
1
  6
Continuous
100
AcDbCircle
 10
235.4499999999999
 20
44.64999999999998
 30
0.0
 40
1.649999999999999
100
AcDbArc
 50
39.47266099999998
 51
113.214161
  0
ARC
  5
1D2C0
330
1D245
100
AcDbEntity
  8
1
  6
Continuous
100
AcDbCircle
 10
235.4499999999999
 20
44.64999999999998
 30
0.0
 40
1.649999999999999
100
AcDbArc
 50
246.785839
 51
324.423158
  0
ARC
  5
1D2C1
330
1D245
100
AcDbEntity
  8
1
  6
Continuous
100
AcDbCircle
 10
235.4499999999999
 20
44.64999999999998
 30
0.0
 40
3.649999999999999
100
AcDbArc
 50
28.54296699999999
 51
113.214161
  0
LINE
  5
1D2C2
330
1D245
100
AcDbEntity
  8
1
  6
Continuous
100
AcDbLine
 10
229.2766759999999
 20
45.97384799999999
 30
0.0
 11
234.0112829999999
 21
48.004489
 31
0.0
  0
LINE
  5
1D2C3
330
1D245
100
AcDbEntity
  8
1
  6
Continuous
100
AcDbLine
 10
230.065014
 20
44.13577199999997
 30
0.0
 11
234.799621
 21
46.166413
 31
0.0
  0
LINE
  5
1D2C4
330
1D245
100
AcDbEntity
  8
1
  6
Continuous
100
AcDbLine
 10
231.2639789999999
 20
44.64999999999998
 30
0.0
 11
234.799621
 21
43.133587
 31
0.0
  0
LINE
  5
1D2C5
330
1D245
100
AcDbEntity
  8
1
  6
Continuous
100
AcDbLine
 10
239.663979
 20
44.64999999999998
 30
0.0
 11
243.199621
 21
43.133587
 31
0.0
  0
LINE
  5
1D2C6
330
1D245
100
AcDbEntity
  8
1
  6
Continuous
100
AcDbLine
 10
238.465014
 20
44.13577199999997
 30
0.0
 11
243.199621
 21
46.166413
 31
0.0
  0
ARC
  5
1D2C7
330
1D245
100
AcDbEntity
  8
1
  6
Continuous
100
AcDbCircle
 10
236.1
 20
49.64999999999999
 30
0.0
 40
6.0
100
AcDbArc
 50
270.0
 51
293.214161
  0
LINE
  5
1D2C8
330
1D245
100
AcDbEntity
  8
1
  6
Continuous
100
AcDbLine
 10
237.6766759999999
 20
45.97384799999999
 30
0.0
 11
242.4112829999998
 21
48.004489
 31
0.0
  0
ARC
  5
1D2C9
330
1D245
100
AcDbEntity
  8
1
  6
Continuous
100
AcDbCircle
 10
236.1
 20
49.64999999999999
 30
0.0
 40
4.0
100
AcDbArc
 50
270.0
 51
293.214161
  0
LINE
  5
1D2CA
330
1D245
100
AcDbEntity
  8
1
  6
Continuous
100
AcDbLine
 10
221.856375
 20
42.90596599999999
 30
0.0
 11
225.6112829999999
 21
41.29551099999999
 31
0.0
  0
ARC
  5
1D2CB
330
1D245
100
AcDbEntity
  8
1
  6
Continuous
100
AcDbCircle
 10
218.65
 20
44.64999999999998
 30
0.0
 40
3.649999999999999
100
AcDbArc
 50
246.785839
 51
356.144464
  0
LINE
  5
1D2CC
330
1D245
100
AcDbEntity
  8
1
  6
Continuous
100
AcDbLine
 10
213.456375
 20
42.90596599999999
 30
0.0
 11
217.211283
 21
41.29551099999999
 31
0.0
  0
ARC
  5
1D2CD
330
1D245
100
AcDbEntity
  8
1
  6
Continuous
100
AcDbCircle
 10
227.05
 20
44.64999999999998
 30
0.0
 40
3.649999999999999
100
AcDbArc
 50
246.785839
 51
356.144464
  0
ARC
  5
1D2CE
330
1D245
100
AcDbEntity
  8
1
  6
Continuous
100
AcDbCircle
 10
210.8999999999999
 20
49.64999999999999
 30
0.0
 40
4.0
100
AcDbArc
 50
270.0
 51
293.214161
  0
ARC
  5
1D2CF
330
1D245
100
AcDbEntity
  8
1
  6
Continuous
100
AcDbCircle
 10
210.8999999999999
 20
49.64999999999999
 30
0.0
 40
6.0
100
AcDbArc
 50
270.0
 51
293.214161
  0
ARC
  5
1D2D0
330
1D245
100
AcDbEntity
  8
1
  6
Continuous
100
AcDbCircle
 10
210.8999999999999
 20
39.64999999999999
 30
0.0
 40
4.0
100
AcDbArc
 50
81.02982500000001
 51
90.0
  0
ARC
  5
1D2D1
330
1D245
100
AcDbEntity
  8
1
  6
Continuous
100
AcDbCircle
 10
210.8999999999999
 20
44.64999999999998
 30
0.0
 40
1.0
100
AcDbArc
 50
90.0
 51
270.0
  0
ARC
  5
1D2D2
330
1D245
100
AcDbEntity
  8
1
  6
Continuous
100
AcDbCircle
 10
227.05
 20
44.64999999999998
 30
0.0
 40
1.649999999999999
100
AcDbArc
 50
246.785839
 51
324.423158
  0
ARC
  5
1D2D3
330
1D245
100
AcDbEntity
  8
1
  6
Continuous
100
AcDbCircle
 10
219.3
 20
39.64999999999999
 30
0.0
 40
4.0
100
AcDbArc
 50
81.02982500000001
 51
90.0
  0
ARC
  5
1D2D4
330
1D245
100
AcDbEntity
  8
1
  6
Continuous
100
AcDbCircle
 10
219.3
 20
44.64999999999998
 30
0.0
 40
1.0
100
AcDbArc
 50
90.0
 51
270.0
  0
ARC
  5
1D2D5
330
1D245
100
AcDbEntity
  8
1
  6
Continuous
100
AcDbCircle
 10
218.65
 20
44.64999999999998
 30
0.0
 40
1.649999999999999
100
AcDbArc
 50
39.47266099999998
 51
113.214161
  0
ARC
  5
1D2D6
330
1D245
100
AcDbEntity
  8
1
  6
Continuous
100
AcDbCircle
 10
218.65
 20
44.64999999999998
 30
0.0
 40
1.649999999999999
100
AcDbArc
 50
246.785839
 51
324.423158
  0
ARC
  5
1D2D7
330
1D245
100
AcDbEntity
  8
1
  6
Continuous
100
AcDbCircle
 10
218.65
 20
44.64999999999998
 30
0.0
 40
3.649999999999999
100
AcDbArc
 50
28.54296699999999
 51
113.214161
  0
LINE
  5
1D2D8
330
1D245
100
AcDbEntity
  8
1
  6
Continuous
100
AcDbLine
 10
212.4766759999999
 20
45.97384799999999
 30
0.0
 11
217.211283
 21
48.004489
 31
0.0
  0
LINE
  5
1D2D9
330
1D245
100
AcDbEntity
  8
1
  6
Continuous
100
AcDbLine
 10
213.2650139999999
 20
44.13577199999997
 30
0.0
 11
217.999621
 21
46.166413
 31
0.0
  0
LINE
  5
1D2DA
330
1D245
100
AcDbEntity
  8
1
  6
Continuous
100
AcDbLine
 10
214.4639789999998
 20
44.64999999999998
 30
0.0
 11
217.999621
 21
43.133587
 31
0.0
  0
LINE
  5
1D2DB
330
1D245
100
AcDbEntity
  8
1
  6
Continuous
100
AcDbLine
 10
222.8639789999999
 20
44.64999999999998
 30
0.0
 11
226.399621
 21
43.133587
 31
0.0
  0
LINE
  5
1D2DC
330
1D245
100
AcDbEntity
  8
1
  6
Continuous
100
AcDbLine
 10
221.665014
 20
44.13577199999997
 30
0.0
 11
226.399621
 21
46.166413
 31
0.0
  0
ARC
  5
1D2DD
330
1D245
100
AcDbEntity
  8
1
  6
Continuous
100
AcDbCircle
 10
219.3
 20
49.64999999999999
 30
0.0
 40
6.0
100
AcDbArc
 50
270.0
 51
293.214161
  0
LINE
  5
1D2DE
330
1D245
100
AcDbEntity
  8
1
  6
Continuous
100
AcDbLine
 10
220.8766759999999
 20
45.97384799999999
 30
0.0
 11
225.6112829999999
 21
48.004489
 31
0.0
  0
ARC
  5
1D2DF
330
1D245
100
AcDbEntity
  8
1
  6
Continuous
100
AcDbCircle
 10
219.3
 20
49.64999999999999
 30
0.0
 40
4.0
100
AcDbArc
 50
270.0
 51
293.214161
  0
LINE
  5
1D2E0
330
1D245
100
AcDbEntity
  8
1
  6
Continuous
100
AcDbLine
 10
205.056375
 20
42.90596599999999
 30
0.0
 11
208.811283
 21
41.29551099999999
 31
0.0
  0
ARC
  5
1D2E1
330
1D245
100
AcDbEntity
  8
1
  6
Continuous
100
AcDbCircle
 10
201.8499999999999
 20
44.64999999999998
 30
0.0
 40
3.649999999999999
100
AcDbArc
 50
246.785839
 51
356.144464
  0
LINE
  5
1D2E2
330
1D245
100
AcDbEntity
  8
1
  6
Continuous
100
AcDbLine
 10
196.6563749999999
 20
42.90596599999999
 30
0.0
 11
200.4112829999999
 21
41.29551099999999
 31
0.0
  0
ARC
  5
1D2E3
330
1D245
100
AcDbEntity
  8
1
  6
Continuous
100
AcDbCircle
 10
210.25
 20
44.64999999999998
 30
0.0
 40
3.649999999999999
100
AcDbArc
 50
246.785839
 51
356.144464
  0
ARC
  5
1D2E4
330
1D245
100
AcDbEntity
  8
1
  6
Continuous
100
AcDbCircle
 10
194.1
 20
49.64999999999999
 30
0.0
 40
4.0
100
AcDbArc
 50
270.0
 51
293.214161
  0
ARC
  5
1D2E5
330
1D245
100
AcDbEntity
  8
1
  6
Continuous
100
AcDbCircle
 10
194.1
 20
49.64999999999999
 30
0.0
 40
6.0
100
AcDbArc
 50
270.0
 51
293.214161
  0
ARC
  5
1D2E6
330
1D245
100
AcDbEntity
  8
1
  6
Continuous
100
AcDbCircle
 10
194.1
 20
39.64999999999999
 30
0.0
 40
4.0
100
AcDbArc
 50
81.02982500000001
 51
90.0
  0
ARC
  5
1D2E7
330
1D245
100
AcDbEntity
  8
1
  6
Continuous
100
AcDbCircle
 10
194.1
 20
44.64999999999998
 30
0.0
 40
1.0
100
AcDbArc
 50
90.0
 51
270.0
  0
ARC
  5
1D2E8
330
1D245
100
AcDbEntity
  8
1
  6
Continuous
100
AcDbCircle
 10
210.25
 20
44.64999999999998
 30
0.0
 40
1.649999999999999
100
AcDbArc
 50
246.785839
 51
324.423158
  0
ARC
  5
1D2E9
330
1D245
100
AcDbEntity
  8
1
  6
Continuous
100
AcDbCircle
 10
202.4999999999999
 20
39.64999999999999
 30
0.0
 40
4.0
100
AcDbArc
 50
81.02982500000001
 51
90.0
  0
ARC
  5
1D2EA
330
1D245
100
AcDbEntity
  8
1
  6
Continuous
100
AcDbCircle
 10
202.4999999999999
 20
44.64999999999998
 30
0.0
 40
1.0
100
AcDbArc
 50
90.0
 51
270.0
  0
ARC
  5
1D2EB
330
1D245
100
AcDbEntity
  8
1
  6
Continuous
100
AcDbCircle
 10
201.8499999999999
 20
44.64999999999998
 30
0.0
 40
1.649999999999999
100
AcDbArc
 50
39.47266099999998
 51
113.214161
  0
ARC
  5
1D2EC
330
1D245
100
AcDbEntity
  8
1
  6
Continuous
100
AcDbCircle
 10
201.8499999999999
 20
44.64999999999998
 30
0.0
 40
1.649999999999999
100
AcDbArc
 50
246.785839
 51
324.423158
  0
ARC
  5
1D2ED
330
1D245
100
AcDbEntity
  8
1
  6
Continuous
100
AcDbCircle
 10
201.8499999999999
 20
44.64999999999998
 30
0.0
 40
3.649999999999999
100
AcDbArc
 50
28.54296699999999
 51
113.214161
  0
LINE
  5
1D2EE
330
1D245
100
AcDbEntity
  8
1
  6
Continuous
100
AcDbLine
 10
195.6766759999999
 20
45.97384799999999
 30
0.0
 11
200.4112829999999
 21
48.004489
 31
0.0
  0
LINE
  5
1D2EF
330
1D245
100
AcDbEntity
  8
1
  6
Continuous
100
AcDbLine
 10
196.465014
 20
44.13577199999997
 30
0.0
 11
201.1996209999999
 21
46.166413
 31
0.0
  0
LINE
  5
1D2F0
330
1D245
100
AcDbEntity
  8
1
  6
Continuous
100
AcDbLine
 10
197.663979
 20
44.64999999999998
 30
0.0
 11
201.1996209999999
 21
43.133587
 31
0.0
  0
LINE
  5
1D2F1
330
1D245
100
AcDbEntity
  8
1
  6
Continuous
100
AcDbLine
 10
206.0639789999999
 20
44.64999999999998
 30
0.0
 11
209.599621
 21
43.133587
 31
0.0
  0
LINE
  5
1D2F2
330
1D245
100
AcDbEntity
  8
1
  6
Continuous
100
AcDbLine
 10
204.8650139999999
 20
44.13577199999997
 30
0.0
 11
209.599621
 21
46.166413
 31
0.0
  0
ARC
  5
1D2F3
330
1D245
100
AcDbEntity
  8
1
  6
Continuous
100
AcDbCircle
 10
202.4999999999999
 20
49.64999999999999
 30
0.0
 40
6.0
100
AcDbArc
 50
270.0
 51
293.214161
  0
LINE
  5
1D2F4
330
1D245
100
AcDbEntity
  8
1
  6
Continuous
100
AcDbLine
 10
204.0766759999999
 20
45.97384799999999
 30
0.0
 11
208.811283
 21
48.004489
 31
0.0
  0
ARC
  5
1D2F5
330
1D245
100
AcDbEntity
  8
1
  6
Continuous
100
AcDbCircle
 10
202.4999999999999
 20
49.64999999999999
 30
0.0
 40
4.0
100
AcDbArc
 50
270.0
 51
293.214161
  0
LINE
  5
1D2F6
330
1D245
100
AcDbEntity
  8
1
  6
Continuous
100
AcDbLine
 10
188.2563749999999
 20
42.90596599999999
 30
0.0
 11
192.0112829999999
 21
41.29551099999999
 31
0.0
  0
ARC
  5
1D2F7
330
1D245
100
AcDbEntity
  8
1
  6
Continuous
100
AcDbCircle
 10
185.05
 20
44.64999999999998
 30
0.0
 40
3.649999999999999
100
AcDbArc
 50
246.785839
 51
356.144464
  0
LINE
  5
1D2F8
330
1D245
100
AcDbEntity
  8
1
  6
Continuous
100
AcDbLine
 10
179.856375
 20
42.90596599999999
 30
0.0
 11
183.6112829999999
 21
41.29551099999999
 31
0.0
  0
ARC
  5
1D2F9
330
1D245
100
AcDbEntity
  8
1
  6
Continuous
100
AcDbCircle
 10
193.4499999999999
 20
44.64999999999998
 30
0.0
 40
3.649999999999999
100
AcDbArc
 50
246.785839
 51
356.144464
  0
ARC
  5
1D2FA
330
1D245
100
AcDbEntity
  8
1
  6
Continuous
100
AcDbCircle
 10
177.3
 20
49.64999999999999
 30
0.0
 40
4.0
100
AcDbArc
 50
270.0
 51
293.214161
  0
ARC
  5
1D2FB
330
1D245
100
AcDbEntity
  8
1
  6
Continuous
100
AcDbCircle
 10
177.3
 20
49.64999999999999
 30
0.0
 40
6.0
100
AcDbArc
 50
270.0
 51
293.214161
  0
ARC
  5
1D2FC
330
1D245
100
AcDbEntity
  8
1
  6
Continuous
100
AcDbCircle
 10
177.3
 20
39.64999999999999
 30
0.0
 40
4.0
100
AcDbArc
 50
81.02982500000001
 51
90.0
  0
ARC
  5
1D2FD
330
1D245
100
AcDbEntity
  8
1
  6
Continuous
100
AcDbCircle
 10
177.3
 20
44.64999999999998
 30
0.0
 40
1.0
100
AcDbArc
 50
90.0
 51
270.0
  0
ARC
  5
1D2FE
330
1D245
100
AcDbEntity
  8
1
  6
Continuous
100
AcDbCircle
 10
193.4499999999999
 20
44.64999999999998
 30
0.0
 40
1.649999999999999
100
AcDbArc
 50
246.785839
 51
324.423158
  0
ARC
  5
1D2FF
330
1D245
100
AcDbEntity
  8
1
  6
Continuous
100
AcDbCircle
 10
185.7
 20
39.64999999999999
 30
0.0
 40
4.0
100
AcDbArc
 50
81.02982500000001
 51
90.0
  0
ARC
  5
1D300
330
1D245
100
AcDbEntity
  8
1
  6
Continuous
100
AcDbCircle
 10
185.7
 20
44.64999999999998
 30
0.0
 40
1.0
100
AcDbArc
 50
90.0
 51
270.0
  0
ARC
  5
1D301
330
1D245
100
AcDbEntity
  8
1
  6
Continuous
100
AcDbCircle
 10
185.05
 20
44.64999999999998
 30
0.0
 40
1.649999999999999
100
AcDbArc
 50
39.47266099999998
 51
113.214161
  0
ARC
  5
1D302
330
1D245
100
AcDbEntity
  8
1
  6
Continuous
100
AcDbCircle
 10
185.05
 20
44.64999999999998
 30
0.0
 40
1.649999999999999
100
AcDbArc
 50
246.785839
 51
324.423158
  0
ARC
  5
1D303
330
1D245
100
AcDbEntity
  8
1
  6
Continuous
100
AcDbCircle
 10
185.05
 20
44.64999999999998
 30
0.0
 40
3.649999999999999
100
AcDbArc
 50
28.54296699999999
 51
113.214161
  0
LINE
  5
1D304
330
1D245
100
AcDbEntity
  8
1
  6
Continuous
100
AcDbLine
 10
178.876676
 20
45.97384799999999
 30
0.0
 11
183.6112829999999
 21
48.004489
 31
0.0
  0
LINE
  5
1D305
330
1D245
100
AcDbEntity
  8
1
  6
Continuous
100
AcDbLine
 10
179.6650139999999
 20
44.13577199999997
 30
0.0
 11
184.399621
 21
46.166413
 31
0.0
  0
LINE
  5
1D306
330
1D245
100
AcDbEntity
  8
1
  6
Continuous
100
AcDbLine
 10
180.8639789999998
 20
44.64999999999998
 30
0.0
 11
184.399621
 21
43.133587
 31
0.0
  0
LINE
  5
1D307
330
1D245
100
AcDbEntity
  8
1
  6
Continuous
100
AcDbLine
 10
189.263979
 20
44.64999999999998
 30
0.0
 11
192.799621
 21
43.133587
 31
0.0
  0
LINE
  5
1D308
330
1D245
100
AcDbEntity
  8
1
  6
Continuous
100
AcDbLine
 10
188.065014
 20
44.13577199999997
 30
0.0
 11
192.799621
 21
46.166413
 31
0.0
  0
ARC
  5
1D309
330
1D245
100
AcDbEntity
  8
1
  6
Continuous
100
AcDbCircle
 10
185.7
 20
49.64999999999999
 30
0.0
 40
6.0
100
AcDbArc
 50
270.0
 51
293.214161
  0
LINE
  5
1D30A
330
1D245
100
AcDbEntity
  8
1
  6
Continuous
100
AcDbLine
 10
187.276676
 20
45.97384799999999
 30
0.0
 11
192.0112829999999
 21
48.004489
 31
0.0
  0
ARC
  5
1D30B
330
1D245
100
AcDbEntity
  8
1
  6
Continuous
100
AcDbCircle
 10
185.7
 20
49.64999999999999
 30
0.0
 40
4.0
100
AcDbArc
 50
270.0
 51
293.214161
  0
LINE
  5
1D30C
330
1D245
100
AcDbEntity
  8
1
  6
Continuous
100
AcDbLine
 10
171.456375
 20
42.90596599999999
 30
0.0
 11
175.211283
 21
41.29551099999999
 31
0.0
  0
ARC
  5
1D30D
330
1D245
100
AcDbEntity
  8
1
  6
Continuous
100
AcDbCircle
 10
168.25
 20
44.64999999999998
 30
0.0
 40
3.649999999999999
100
AcDbArc
 50
246.785839
 51
356.144464
  0
LINE
  5
1D30E
330
1D245
100
AcDbEntity
  8
1
  6
Continuous
100
AcDbLine
 10
163.056375
 20
42.90596599999999
 30
0.0
 11
166.811283
 21
41.29551099999999
 31
0.0
  0
ARC
  5
1D30F
330
1D245
100
AcDbEntity
  8
1
  6
Continuous
100
AcDbCircle
 10
176.65
 20
44.64999999999998
 30
0.0
 40
3.649999999999999
100
AcDbArc
 50
246.785839
 51
356.144464
  0
ARC
  5
1D310
330
1D245
100
AcDbEntity
  8
1
  6
Continuous
100
AcDbCircle
 10
160.4999999999998
 20
49.64999999999999
 30
0.0
 40
4.0
100
AcDbArc
 50
270.0
 51
293.214161
  0
ARC
  5
1D311
330
1D245
100
AcDbEntity
  8
1
  6
Continuous
100
AcDbCircle
 10
160.4999999999998
 20
49.64999999999999
 30
0.0
 40
6.0
100
AcDbArc
 50
270.0
 51
293.214161
  0
ARC
  5
1D312
330
1D245
100
AcDbEntity
  8
1
  6
Continuous
100
AcDbCircle
 10
160.4999999999998
 20
39.64999999999999
 30
0.0
 40
4.0
100
AcDbArc
 50
81.02982500000001
 51
90.0
  0
ARC
  5
1D313
330
1D245
100
AcDbEntity
  8
1
  6
Continuous
100
AcDbCircle
 10
160.4999999999998
 20
44.64999999999998
 30
0.0
 40
1.0
100
AcDbArc
 50
90.0
 51
270.0
  0
ARC
  5
1D314
330
1D245
100
AcDbEntity
  8
1
  6
Continuous
100
AcDbCircle
 10
176.65
 20
44.64999999999998
 30
0.0
 40
1.649999999999999
100
AcDbArc
 50
246.785839
 51
324.423158
  0
ARC
  5
1D315
330
1D245
100
AcDbEntity
  8
1
  6
Continuous
100
AcDbCircle
 10
168.9
 20
39.64999999999999
 30
0.0
 40
4.0
100
AcDbArc
 50
81.02982500000001
 51
90.0
  0
ARC
  5
1D316
330
1D245
100
AcDbEntity
  8
1
  6
Continuous
100
AcDbCircle
 10
168.9
 20
44.64999999999998
 30
0.0
 40
1.0
100
AcDbArc
 50
90.0
 51
270.0
  0
ARC
  5
1D317
330
1D245
100
AcDbEntity
  8
1
  6
Continuous
100
AcDbCircle
 10
168.25
 20
44.64999999999998
 30
0.0
 40
1.649999999999999
100
AcDbArc
 50
39.47266099999998
 51
113.214161
  0
ARC
  5
1D318
330
1D245
100
AcDbEntity
  8
1
  6
Continuous
100
AcDbCircle
 10
168.25
 20
44.64999999999998
 30
0.0
 40
1.649999999999999
100
AcDbArc
 50
246.785839
 51
324.423158
  0
ARC
  5
1D319
330
1D245
100
AcDbEntity
  8
1
  6
Continuous
100
AcDbCircle
 10
168.25
 20
44.64999999999998
 30
0.0
 40
3.649999999999999
100
AcDbArc
 50
28.54296699999999
 51
113.214161
  0
LINE
  5
1D31A
330
1D245
100
AcDbEntity
  8
1
  6
Continuous
100
AcDbLine
 10
162.0766759999999
 20
45.97384799999999
 30
0.0
 11
166.811283
 21
48.004489
 31
0.0
  0
LINE
  5
1D31B
330
1D245
100
AcDbEntity
  8
1
  6
Continuous
100
AcDbLine
 10
162.8650139999998
 20
44.13577199999997
 30
0.0
 11
167.5996209999999
 21
46.166413
 31
0.0
  0
LINE
  5
1D31C
330
1D245
100
AcDbEntity
  8
1
  6
Continuous
100
AcDbLine
 10
164.0639789999999
 20
44.64999999999998
 30
0.0
 11
167.5996209999999
 21
43.133587
 31
0.0
  0
LINE
  5
1D31D
330
1D245
100
AcDbEntity
  8
1
  6
Continuous
100
AcDbLine
 10
172.4639789999999
 20
44.64999999999998
 30
0.0
 11
175.9996209999999
 21
43.133587
 31
0.0
  0
LINE
  5
1D31E
330
1D245
100
AcDbEntity
  8
1
  6
Continuous
100
AcDbLine
 10
171.2650139999998
 20
44.13577199999997
 30
0.0
 11
175.9996209999999
 21
46.166413
 31
0.0
  0
ARC
  5
1D31F
330
1D245
100
AcDbEntity
  8
1
  6
Continuous
100
AcDbCircle
 10
168.9
 20
49.64999999999999
 30
0.0
 40
6.0
100
AcDbArc
 50
270.0
 51
293.214161
  0
LINE
  5
1D320
330
1D245
100
AcDbEntity
  8
1
  6
Continuous
100
AcDbLine
 10
170.476676
 20
45.97384799999999
 30
0.0
 11
175.211283
 21
48.004489
 31
0.0
  0
ARC
  5
1D321
330
1D245
100
AcDbEntity
  8
1
  6
Continuous
100
AcDbCircle
 10
168.9
 20
49.64999999999999
 30
0.0
 40
4.0
100
AcDbArc
 50
270.0
 51
293.214161
  0
LINE
  5
1D322
330
1D245
100
AcDbEntity
  8
1
  6
Continuous
100
AcDbLine
 10
154.6563749999999
 20
42.90596599999999
 30
0.0
 11
158.411283
 21
41.29551099999999
 31
0.0
  0
ARC
  5
1D323
330
1D245
100
AcDbEntity
  8
1
  6
Continuous
100
AcDbCircle
 10
151.4499999999999
 20
44.64999999999998
 30
0.0
 40
3.649999999999999
100
AcDbArc
 50
246.785839
 51
356.144464
  0
LINE
  5
1D324
330
1D245
100
AcDbEntity
  8
1
  6
Continuous
100
AcDbLine
 10
146.2563749999999
 20
42.90596599999999
 30
0.0
 11
150.0112829999999
 21
41.29551099999999
 31
0.0
  0
ARC
  5
1D325
330
1D245
100
AcDbEntity
  8
1
  6
Continuous
100
AcDbCircle
 10
159.85
 20
44.64999999999998
 30
0.0
 40
3.649999999999999
100
AcDbArc
 50
246.785839
 51
356.144464
  0
ARC
  5
1D326
330
1D245
100
AcDbEntity
  8
1
  6
Continuous
100
AcDbCircle
 10
143.6999999999999
 20
49.64999999999999
 30
0.0
 40
4.0
100
AcDbArc
 50
270.0
 51
293.214161
  0
ARC
  5
1D327
330
1D245
100
AcDbEntity
  8
1
  6
Continuous
100
AcDbCircle
 10
143.6999999999999
 20
49.64999999999999
 30
0.0
 40
6.0
100
AcDbArc
 50
270.0
 51
293.214161
  0
ARC
  5
1D328
330
1D245
100
AcDbEntity
  8
1
  6
Continuous
100
AcDbCircle
 10
143.6999999999999
 20
39.64999999999999
 30
0.0
 40
4.0
100
AcDbArc
 50
81.02982500000001
 51
90.0
  0
ARC
  5
1D329
330
1D245
100
AcDbEntity
  8
1
  6
Continuous
100
AcDbCircle
 10
143.6999999999999
 20
44.64999999999998
 30
0.0
 40
1.0
100
AcDbArc
 50
90.0
 51
270.0
  0
ARC
  5
1D32A
330
1D245
100
AcDbEntity
  8
1
  6
Continuous
100
AcDbCircle
 10
159.85
 20
44.64999999999998
 30
0.0
 40
1.649999999999999
100
AcDbArc
 50
246.785839
 51
324.423158
  0
ARC
  5
1D32B
330
1D245
100
AcDbEntity
  8
1
  6
Continuous
100
AcDbCircle
 10
152.0999999999999
 20
39.64999999999999
 30
0.0
 40
4.0
100
AcDbArc
 50
81.02982500000001
 51
90.0
  0
ARC
  5
1D32C
330
1D245
100
AcDbEntity
  8
1
  6
Continuous
100
AcDbCircle
 10
152.0999999999999
 20
44.64999999999998
 30
0.0
 40
1.0
100
AcDbArc
 50
90.0
 51
270.0
  0
ARC
  5
1D32D
330
1D245
100
AcDbEntity
  8
1
  6
Continuous
100
AcDbCircle
 10
151.4499999999999
 20
44.64999999999998
 30
0.0
 40
1.649999999999999
100
AcDbArc
 50
39.47266099999998
 51
113.214161
  0
ARC
  5
1D32E
330
1D245
100
AcDbEntity
  8
1
  6
Continuous
100
AcDbCircle
 10
151.4499999999999
 20
44.64999999999998
 30
0.0
 40
1.649999999999999
100
AcDbArc
 50
246.785839
 51
324.423158
  0
ARC
  5
1D32F
330
1D245
100
AcDbEntity
  8
1
  6
Continuous
100
AcDbCircle
 10
151.4499999999999
 20
44.64999999999998
 30
0.0
 40
3.649999999999999
100
AcDbArc
 50
28.54296699999999
 51
113.214161
  0
LINE
  5
1D330
330
1D245
100
AcDbEntity
  8
1
  6
Continuous
100
AcDbLine
 10
145.276676
 20
45.97384799999999
 30
0.0
 11
150.0112829999999
 21
48.004489
 31
0.0
  0
LINE
  5
1D331
330
1D245
100
AcDbEntity
  8
1
  6
Continuous
100
AcDbLine
 10
146.065014
 20
44.13577199999997
 30
0.0
 11
150.7996209999998
 21
46.166413
 31
0.0
  0
LINE
  5
1D332
330
1D245
100
AcDbEntity
  8
1
  6
Continuous
100
AcDbLine
 10
147.263979
 20
44.64999999999998
 30
0.0
 11
150.7996209999998
 21
43.133587
 31
0.0
  0
LINE
  5
1D333
330
1D245
100
AcDbEntity
  8
1
  6
Continuous
100
AcDbLine
 10
155.663979
 20
44.64999999999998
 30
0.0
 11
159.199621
 21
43.133587
 31
0.0
  0
LINE
  5
1D334
330
1D245
100
AcDbEntity
  8
1
  6
Continuous
100
AcDbLine
 10
154.4650139999999
 20
44.13577199999997
 30
0.0
 11
159.199621
 21
46.166413
 31
0.0
  0
ARC
  5
1D335
330
1D245
100
AcDbEntity
  8
1
  6
Continuous
100
AcDbCircle
 10
152.0999999999999
 20
49.64999999999999
 30
0.0
 40
6.0
100
AcDbArc
 50
270.0
 51
293.214161
  0
LINE
  5
1D336
330
1D245
100
AcDbEntity
  8
1
  6
Continuous
100
AcDbLine
 10
153.6766759999999
 20
45.97384799999999
 30
0.0
 11
158.411283
 21
48.004489
 31
0.0
  0
ARC
  5
1D337
330
1D245
100
AcDbEntity
  8
1
  6
Continuous
100
AcDbCircle
 10
152.0999999999999
 20
49.64999999999999
 30
0.0
 40
4.0
100
AcDbArc
 50
270.0
 51
293.214161
  0
LINE
  5
1D338
330
1D245
100
AcDbEntity
  8
1
  6
Continuous
100
AcDbLine
 10
137.856375
 20
42.90596599999999
 30
0.0
 11
141.6112829999999
 21
41.29551099999999
 31
0.0
  0
ARC
  5
1D339
330
1D245
100
AcDbEntity
  8
1
  6
Continuous
100
AcDbCircle
 10
134.65
 20
44.64999999999998
 30
0.0
 40
3.649999999999999
100
AcDbArc
 50
246.785839
 51
356.144464
  0
LINE
  5
1D33A
330
1D245
100
AcDbEntity
  8
1
  6
Continuous
100
AcDbLine
 10
129.456375
 20
42.90596599999999
 30
0.0
 11
133.211283
 21
41.29551099999999
 31
0.0
  0
ARC
  5
1D33B
330
1D245
100
AcDbEntity
  8
1
  6
Continuous
100
AcDbCircle
 10
143.05
 20
44.64999999999998
 30
0.0
 40
3.649999999999999
100
AcDbArc
 50
246.785839
 51
356.144464
  0
ARC
  5
1D33C
330
1D245
100
AcDbEntity
  8
1
  6
Continuous
100
AcDbCircle
 10
126.9
 20
49.64999999999999
 30
0.0
 40
4.0
100
AcDbArc
 50
270.0
 51
293.214161
  0
ARC
  5
1D33D
330
1D245
100
AcDbEntity
  8
1
  6
Continuous
100
AcDbCircle
 10
126.9
 20
49.64999999999999
 30
0.0
 40
6.0
100
AcDbArc
 50
270.0
 51
293.214161
  0
ARC
  5
1D33E
330
1D245
100
AcDbEntity
  8
1
  6
Continuous
100
AcDbCircle
 10
126.9
 20
39.64999999999999
 30
0.0
 40
4.0
100
AcDbArc
 50
81.02982500000001
 51
90.0
  0
ARC
  5
1D33F
330
1D245
100
AcDbEntity
  8
1
  6
Continuous
100
AcDbCircle
 10
126.9
 20
44.64999999999998
 30
0.0
 40
1.0
100
AcDbArc
 50
90.0
 51
270.0
  0
ARC
  5
1D340
330
1D245
100
AcDbEntity
  8
1
  6
Continuous
100
AcDbCircle
 10
143.05
 20
44.64999999999998
 30
0.0
 40
1.649999999999999
100
AcDbArc
 50
246.785839
 51
324.423158
  0
ARC
  5
1D341
330
1D245
100
AcDbEntity
  8
1
  6
Continuous
100
AcDbCircle
 10
135.3
 20
39.64999999999999
 30
0.0
 40
4.0
100
AcDbArc
 50
81.02982500000001
 51
90.0
  0
ARC
  5
1D342
330
1D245
100
AcDbEntity
  8
1
  6
Continuous
100
AcDbCircle
 10
135.3
 20
44.64999999999998
 30
0.0
 40
1.0
100
AcDbArc
 50
90.0
 51
270.0
  0
ARC
  5
1D343
330
1D245
100
AcDbEntity
  8
1
  6
Continuous
100
AcDbCircle
 10
134.65
 20
44.64999999999998
 30
0.0
 40
1.649999999999999
100
AcDbArc
 50
39.47266099999998
 51
113.214161
  0
ARC
  5
1D344
330
1D245
100
AcDbEntity
  8
1
  6
Continuous
100
AcDbCircle
 10
134.65
 20
44.64999999999998
 30
0.0
 40
1.649999999999999
100
AcDbArc
 50
246.785839
 51
324.423158
  0
ARC
  5
1D345
330
1D245
100
AcDbEntity
  8
1
  6
Continuous
100
AcDbCircle
 10
134.65
 20
44.64999999999998
 30
0.0
 40
3.649999999999999
100
AcDbArc
 50
28.54296699999999
 51
113.214161
  0
LINE
  5
1D346
330
1D245
100
AcDbEntity
  8
1
  6
Continuous
100
AcDbLine
 10
128.4766759999999
 20
45.97384799999999
 30
0.0
 11
133.211283
 21
48.004489
 31
0.0
  0
LINE
  5
1D347
330
1D245
100
AcDbEntity
  8
1
  6
Continuous
100
AcDbLine
 10
129.2650139999998
 20
44.13577199999997
 30
0.0
 11
133.999621
 21
46.166413
 31
0.0
  0
LINE
  5
1D348
330
1D245
100
AcDbEntity
  8
1
  6
Continuous
100
AcDbLine
 10
130.4639789999999
 20
44.64999999999998
 30
0.0
 11
133.999621
 21
43.133587
 31
0.0
  0
LINE
  5
1D349
330
1D245
100
AcDbEntity
  8
1
  6
Continuous
100
AcDbLine
 10
138.863979
 20
44.64999999999998
 30
0.0
 11
142.399621
 21
43.133587
 31
0.0
  0
LINE
  5
1D34A
330
1D245
100
AcDbEntity
  8
1
  6
Continuous
100
AcDbLine
 10
137.6650139999999
 20
44.13577199999997
 30
0.0
 11
142.399621
 21
46.166413
 31
0.0
  0
ARC
  5
1D34B
330
1D245
100
AcDbEntity
  8
1
  6
Continuous
100
AcDbCircle
 10
135.3
 20
49.64999999999999
 30
0.0
 40
6.0
100
AcDbArc
 50
270.0
 51
293.214161
  0
LINE
  5
1D34C
330
1D245
100
AcDbEntity
  8
1
  6
Continuous
100
AcDbLine
 10
136.8766759999998
 20
45.97384799999999
 30
0.0
 11
141.6112829999999
 21
48.004489
 31
0.0
  0
ARC
  5
1D34D
330
1D245
100
AcDbEntity
  8
1
  6
Continuous
100
AcDbCircle
 10
135.3
 20
49.64999999999999
 30
0.0
 40
4.0
100
AcDbArc
 50
270.0
 51
293.214161
  0
LINE
  5
1D34E
330
1D245
100
AcDbEntity
  8
1
  6
Continuous
100
AcDbLine
 10
121.056375
 20
42.90596599999999
 30
0.0
 11
124.8112829999999
 21
41.29551099999999
 31
0.0
  0
ARC
  5
1D34F
330
1D245
100
AcDbEntity
  8
1
  6
Continuous
100
AcDbCircle
 10
117.8499999999998
 20
44.64999999999998
 30
0.0
 40
3.649999999999999
100
AcDbArc
 50
246.785839
 51
356.144464
  0
LINE
  5
1D350
330
1D245
100
AcDbEntity
  8
1
  6
Continuous
100
AcDbLine
 10
112.656375
 20
42.90596599999999
 30
0.0
 11
116.411283
 21
41.29551099999999
 31
0.0
  0
ARC
  5
1D351
330
1D245
100
AcDbEntity
  8
1
  6
Continuous
100
AcDbCircle
 10
126.2499999999999
 20
44.64999999999998
 30
0.0
 40
3.649999999999999
100
AcDbArc
 50
246.785839
 51
356.144464
  0
ARC
  5
1D352
330
1D245
100
AcDbEntity
  8
1
  6
Continuous
100
AcDbCircle
 10
110.0999999999998
 20
49.64999999999999
 30
0.0
 40
4.0
100
AcDbArc
 50
270.0
 51
293.214161
  0
ARC
  5
1D353
330
1D245
100
AcDbEntity
  8
1
  6
Continuous
100
AcDbCircle
 10
110.0999999999998
 20
49.64999999999999
 30
0.0
 40
6.0
100
AcDbArc
 50
270.0
 51
293.214161
  0
ARC
  5
1D354
330
1D245
100
AcDbEntity
  8
1
  6
Continuous
100
AcDbCircle
 10
110.0999999999998
 20
39.64999999999999
 30
0.0
 40
4.0
100
AcDbArc
 50
81.02982500000001
 51
90.0
  0
ARC
  5
1D355
330
1D245
100
AcDbEntity
  8
1
  6
Continuous
100
AcDbCircle
 10
110.0999999999998
 20
44.64999999999998
 30
0.0
 40
1.0
100
AcDbArc
 50
90.0
 51
270.0
  0
ARC
  5
1D356
330
1D245
100
AcDbEntity
  8
1
  6
Continuous
100
AcDbCircle
 10
126.2499999999999
 20
44.64999999999998
 30
0.0
 40
1.649999999999999
100
AcDbArc
 50
246.785839
 51
324.423158
  0
ARC
  5
1D357
330
1D245
100
AcDbEntity
  8
1
  6
Continuous
100
AcDbCircle
 10
118.5
 20
39.64999999999999
 30
0.0
 40
4.0
100
AcDbArc
 50
81.02982500000001
 51
90.0
  0
ARC
  5
1D358
330
1D245
100
AcDbEntity
  8
1
  6
Continuous
100
AcDbCircle
 10
118.5
 20
44.64999999999998
 30
0.0
 40
1.0
100
AcDbArc
 50
90.0
 51
270.0
  0
ARC
  5
1D359
330
1D245
100
AcDbEntity
  8
1
  6
Continuous
100
AcDbCircle
 10
117.8499999999998
 20
44.64999999999998
 30
0.0
 40
1.649999999999999
100
AcDbArc
 50
39.47266099999998
 51
113.214161
  0
ARC
  5
1D35A
330
1D245
100
AcDbEntity
  8
1
  6
Continuous
100
AcDbCircle
 10
117.8499999999998
 20
44.64999999999998
 30
0.0
 40
1.649999999999999
100
AcDbArc
 50
246.785839
 51
324.423158
  0
ARC
  5
1D35B
330
1D245
100
AcDbEntity
  8
1
  6
Continuous
100
AcDbCircle
 10
117.8499999999998
 20
44.64999999999998
 30
0.0
 40
3.649999999999999
100
AcDbArc
 50
28.54296699999999
 51
113.214161
  0
LINE
  5
1D35C
330
1D245
100
AcDbEntity
  8
1
  6
Continuous
100
AcDbLine
 10
111.6766759999999
 20
45.97384799999999
 30
0.0
 11
116.411283
 21
48.004489
 31
0.0
  0
LINE
  5
1D35D
330
1D245
100
AcDbEntity
  8
1
  6
Continuous
100
AcDbLine
 10
112.4650139999999
 20
44.13577199999997
 30
0.0
 11
117.1996209999998
 21
46.166413
 31
0.0
  0
LINE
  5
1D35E
330
1D245
100
AcDbEntity
  8
1
  6
Continuous
100
AcDbLine
 10
113.663979
 20
44.64999999999998
 30
0.0
 11
117.1996209999998
 21
43.133587
 31
0.0
  0
LINE
  5
1D35F
330
1D245
100
AcDbEntity
  8
1
  6
Continuous
100
AcDbLine
 10
122.063979
 20
44.64999999999998
 30
0.0
 11
125.5996209999999
 21
43.133587
 31
0.0
  0
LINE
  5
1D360
330
1D245
100
AcDbEntity
  8
1
  6
Continuous
100
AcDbLine
 10
120.8650139999999
 20
44.13577199999997
 30
0.0
 11
125.5996209999999
 21
46.166413
 31
0.0
  0
ARC
  5
1D361
330
1D245
100
AcDbEntity
  8
1
  6
Continuous
100
AcDbCircle
 10
118.5
 20
49.64999999999999
 30
0.0
 40
6.0
100
AcDbArc
 50
270.0
 51
293.214161
  0
LINE
  5
1D362
330
1D245
100
AcDbEntity
  8
1
  6
Continuous
100
AcDbLine
 10
120.076676
 20
45.97384799999999
 30
0.0
 11
124.8112829999999
 21
48.004489
 31
0.0
  0
ARC
  5
1D363
330
1D245
100
AcDbEntity
  8
1
  6
Continuous
100
AcDbCircle
 10
118.5
 20
49.64999999999999
 30
0.0
 40
4.0
100
AcDbArc
 50
270.0
 51
293.214161
  0
LINE
  5
1D364
330
1D245
100
AcDbEntity
  8
1
  6
Continuous
100
AcDbLine
 10
104.256375
 20
42.90596599999999
 30
0.0
 11
108.011283
 21
41.29551099999999
 31
0.0
  0
ARC
  5
1D365
330
1D245
100
AcDbEntity
  8
1
  6
Continuous
100
AcDbCircle
 10
101.0499999999999
 20
44.64999999999998
 30
0.0
 40
3.649999999999999
100
AcDbArc
 50
246.785839
 51
356.144464
  0
LINE
  5
1D366
330
1D245
100
AcDbEntity
  8
1
  6
Continuous
100
AcDbLine
 10
94.87667599999999
 20
43.326152
 30
0.0
 11
99.611283
 21
41.29551099999999
 31
0.0
  0
ARC
  5
1D367
330
1D245
100
AcDbEntity
  8
1
  6
Continuous
100
AcDbCircle
 10
109.45
 20
44.64999999999998
 30
0.0
 40
3.649999999999999
100
AcDbArc
 50
246.785839
 51
356.144464
  0
ARC
  5
1D368
330
1D245
100
AcDbEntity
  8
1
  6
Continuous
100
AcDbCircle
 10
93.3
 20
49.64999999999999
 30
0.0
 40
4.0
100
AcDbArc
 50
270.0
 51
293.214161
  0
ARC
  5
1D369
330
1D245
100
AcDbEntity
  8
1
  6
Continuous
100
AcDbCircle
 10
93.3
 20
49.64999999999999
 30
0.0
 40
6.0
100
AcDbArc
 50
270.0
 51
293.214161
  0
ARC
  5
1D36A
330
1D245
100
AcDbEntity
  8
1
  6
Continuous
100
AcDbCircle
 10
93.3
 20
39.64999999999999
 30
0.0
 40
4.0
100
AcDbArc
 50
66.78583900000001
 51
90.0
  0
ARC
  5
1D36B
330
1D245
100
AcDbEntity
  8
1
  6
Continuous
100
AcDbCircle
 10
93.3
 20
44.64999999999998
 30
0.0
 40
1.0
100
AcDbArc
 50
90.0
 51
270.0
  0
ARC
  5
1D36C
330
1D245
100
AcDbEntity
  8
1
  6
Continuous
100
AcDbCircle
 10
109.45
 20
44.64999999999998
 30
0.0
 40
1.649999999999999
100
AcDbArc
 50
246.785839
 51
324.423158
  0
ARC
  5
1D36D
330
1D245
100
AcDbEntity
  8
1
  6
Continuous
100
AcDbCircle
 10
101.7
 20
39.64999999999999
 30
0.0
 40
4.0
100
AcDbArc
 50
81.02982500000001
 51
90.0
  0
ARC
  5
1D36E
330
1D245
100
AcDbEntity
  8
1
  6
Continuous
100
AcDbCircle
 10
101.7
 20
44.64999999999998
 30
0.0
 40
1.0
100
AcDbArc
 50
90.0
 51
270.0
  0
ARC
  5
1D36F
330
1D245
100
AcDbEntity
  8
1
  6
Continuous
100
AcDbCircle
 10
101.0499999999999
 20
44.64999999999998
 30
0.0
 40
1.649999999999999
100
AcDbArc
 50
39.47266099999998
 51
113.214161
  0
ARC
  5
1D370
330
1D245
100
AcDbEntity
  8
1
  6
Continuous
100
AcDbCircle
 10
101.0499999999999
 20
44.64999999999998
 30
0.0
 40
1.649999999999999
100
AcDbArc
 50
246.785839
 51
324.423158
  0
ARC
  5
1D371
330
1D245
100
AcDbEntity
  8
1
  6
Continuous
100
AcDbCircle
 10
101.0499999999999
 20
44.64999999999998
 30
0.0
 40
3.649999999999999
100
AcDbArc
 50
28.54296699999999
 51
113.214161
  0
LINE
  5
1D372
330
1D245
100
AcDbEntity
  8
1
  6
Continuous
100
AcDbLine
 10
94.87667599999999
 20
45.97384799999999
 30
0.0
 11
99.611283
 21
48.004489
 31
0.0
  0
LINE
  5
1D373
330
1D245
100
AcDbEntity
  8
1
  6
Continuous
100
AcDbLine
 10
95.66501399999998
 20
44.13577199999997
 30
0.0
 11
100.3996209999999
 21
46.166413
 31
0.0
  0
LINE
  5
1D374
330
1D245
100
AcDbEntity
  8
1
  6
Continuous
100
AcDbLine
 10
96.86397900000001
 20
44.64999999999998
 30
0.0
 11
100.3996209999999
 21
43.133587
 31
0.0
  0
LINE
  5
1D375
330
1D245
100
AcDbEntity
  8
1
  6
Continuous
100
AcDbLine
 10
105.263979
 20
44.64999999999998
 30
0.0
 11
108.799621
 21
43.133587
 31
0.0
  0
LINE
  5
1D376
330
1D245
100
AcDbEntity
  8
1
  6
Continuous
100
AcDbLine
 10
104.065014
 20
44.13577199999997
 30
0.0
 11
108.799621
 21
46.166413
 31
0.0
  0
ARC
  5
1D377
330
1D245
100
AcDbEntity
  8
1
  6
Continuous
100
AcDbCircle
 10
101.7
 20
49.64999999999999
 30
0.0
 40
6.0
100
AcDbArc
 50
270.0
 51
293.214161
  0
LINE
  5
1D378
330
1D245
100
AcDbEntity
  8
1
  6
Continuous
100
AcDbLine
 10
103.2766759999999
 20
45.97384799999999
 30
0.0
 11
108.011283
 21
48.004489
 31
0.0
  0
ARC
  5
1D379
330
1D245
100
AcDbEntity
  8
1
  6
Continuous
100
AcDbCircle
 10
101.7
 20
49.64999999999999
 30
0.0
 40
4.0
100
AcDbArc
 50
270.0
 51
293.214161
  0
ARC
  5
1D37A
330
1D245
100
AcDbEntity
  8
1
  6
Continuous
100
AcDbCircle
 10
277.4499999999998
 20
44.64999999999998
 30
0.0
 40
3.649999999999999
100
AcDbArc
 50
28.54296699999999
 51
113.214161
  0
ARC
  5
1D37B
330
1D245
100
AcDbEntity
  8
1
  6
Continuous
100
AcDbCircle
 10
277.4499999999998
 20
44.64999999999998
 30
0.0
 40
1.649999999999999
100
AcDbArc
 50
39.47266099999998
 51
113.214161
  0
ARC
  5
1D37C
330
1D245
100
AcDbEntity
  8
1
  6
Continuous
100
AcDbCircle
 10
260.65
 20
44.64999999999998
 30
0.0
 40
3.649999999999999
100
AcDbArc
 50
28.54296699999999
 51
113.214161
  0
ARC
  5
1D37D
330
1D245
100
AcDbEntity
  8
1
  6
Continuous
100
AcDbCircle
 10
260.65
 20
44.64999999999998
 30
0.0
 40
1.649999999999999
100
AcDbArc
 50
39.47266099999998
 51
113.214161
  0
ARC
  5
1D37E
330
1D245
100
AcDbEntity
  8
1
  6
Continuous
100
AcDbCircle
 10
243.8499999999999
 20
44.64999999999998
 30
0.0
 40
3.649999999999999
100
AcDbArc
 50
28.54296699999999
 51
113.214161
  0
ARC
  5
1D37F
330
1D245
100
AcDbEntity
  8
1
  6
Continuous
100
AcDbCircle
 10
243.8499999999999
 20
44.64999999999998
 30
0.0
 40
1.649999999999999
100
AcDbArc
 50
39.47266099999998
 51
113.214161
  0
ARC
  5
1D380
330
1D245
100
AcDbEntity
  8
1
  6
Continuous
100
AcDbCircle
 10
227.05
 20
44.64999999999998
 30
0.0
 40
3.649999999999999
100
AcDbArc
 50
28.54296699999999
 51
113.214161
  0
ARC
  5
1D381
330
1D245
100
AcDbEntity
  8
1
  6
Continuous
100
AcDbCircle
 10
227.05
 20
44.64999999999998
 30
0.0
 40
1.649999999999999
100
AcDbArc
 50
39.47266099999998
 51
113.214161
  0
ARC
  5
1D382
330
1D245
100
AcDbEntity
  8
1
  6
Continuous
100
AcDbCircle
 10
210.25
 20
44.64999999999998
 30
0.0
 40
3.649999999999999
100
AcDbArc
 50
28.54296699999999
 51
113.214161
  0
ARC
  5
1D383
330
1D245
100
AcDbEntity
  8
1
  6
Continuous
100
AcDbCircle
 10
210.25
 20
44.64999999999998
 30
0.0
 40
1.649999999999999
100
AcDbArc
 50
39.47266099999998
 51
113.214161
  0
ARC
  5
1D384
330
1D245
100
AcDbEntity
  8
1
  6
Continuous
100
AcDbCircle
 10
193.4499999999999
 20
44.64999999999998
 30
0.0
 40
3.649999999999999
100
AcDbArc
 50
28.54296699999999
 51
113.214161
  0
ARC
  5
1D385
330
1D245
100
AcDbEntity
  8
1
  6
Continuous
100
AcDbCircle
 10
193.4499999999999
 20
44.64999999999998
 30
0.0
 40
1.649999999999999
100
AcDbArc
 50
39.47266099999998
 51
113.214161
  0
ARC
  5
1D386
330
1D245
100
AcDbEntity
  8
1
  6
Continuous
100
AcDbCircle
 10
176.65
 20
44.64999999999998
 30
0.0
 40
3.649999999999999
100
AcDbArc
 50
28.54296699999999
 51
113.214161
  0
ARC
  5
1D387
330
1D245
100
AcDbEntity
  8
1
  6
Continuous
100
AcDbCircle
 10
176.65
 20
44.64999999999998
 30
0.0
 40
1.649999999999999
100
AcDbArc
 50
39.47266099999998
 51
113.214161
  0
ARC
  5
1D388
330
1D245
100
AcDbEntity
  8
1
  6
Continuous
100
AcDbCircle
 10
159.85
 20
44.64999999999998
 30
0.0
 40
3.649999999999999
100
AcDbArc
 50
28.54296699999999
 51
113.214161
  0
ARC
  5
1D389
330
1D245
100
AcDbEntity
  8
1
  6
Continuous
100
AcDbCircle
 10
159.85
 20
44.64999999999998
 30
0.0
 40
1.649999999999999
100
AcDbArc
 50
39.47266099999998
 51
113.214161
  0
ARC
  5
1D38A
330
1D245
100
AcDbEntity
  8
1
  6
Continuous
100
AcDbCircle
 10
143.05
 20
44.64999999999998
 30
0.0
 40
3.649999999999999
100
AcDbArc
 50
28.54296699999999
 51
113.214161
  0
ARC
  5
1D38B
330
1D245
100
AcDbEntity
  8
1
  6
Continuous
100
AcDbCircle
 10
143.05
 20
44.64999999999998
 30
0.0
 40
1.649999999999999
100
AcDbArc
 50
39.47266099999998
 51
113.214161
  0
ARC
  5
1D38C
330
1D245
100
AcDbEntity
  8
1
  6
Continuous
100
AcDbCircle
 10
126.2499999999999
 20
44.64999999999998
 30
0.0
 40
3.649999999999999
100
AcDbArc
 50
28.54296699999999
 51
113.214161
  0
ARC
  5
1D38D
330
1D245
100
AcDbEntity
  8
1
  6
Continuous
100
AcDbCircle
 10
126.2499999999999
 20
44.64999999999998
 30
0.0
 40
1.649999999999999
100
AcDbArc
 50
39.47266099999998
 51
113.214161
  0
ARC
  5
1D38E
330
1D245
100
AcDbEntity
  8
1
  6
Continuous
100
AcDbCircle
 10
109.45
 20
44.64999999999998
 30
0.0
 40
3.649999999999999
100
AcDbArc
 50
28.54296699999999
 51
113.214161
  0
ARC
  5
1D38F
330
1D245
100
AcDbEntity
  8
1
  6
Continuous
100
AcDbCircle
 10
109.45
 20
44.64999999999998
 30
0.0
 40
1.649999999999999
100
AcDbArc
 50
39.47266099999998
 51
113.214161
  0
ARC
  5
1D390
330
1D245
100
AcDbEntity
  8
1
  6
Continuous
100
AcDbCircle
 10
146.3499999999999
 20
91.95
 30
0.0
 40
3.649999999999999
100
AcDbArc
 50
208.5429669999999
 51
293.214161
  0
ARC
  5
1D391
330
1D245
100
AcDbEntity
  8
1
  6
Continuous
100
AcDbCircle
 10
146.3499999999999
 20
91.95
 30
0.0
 40
3.649999999999999
100
AcDbArc
 50
66.78583900000001
 51
176.144464
  0
LINE
  5
1D392
330
1D245
100
AcDbEntity
  8
1
  6
Continuous
100
AcDbLine
 10
144.123324
 20
90.62615200000001
 30
0.0
 11
139.3887169999999
 21
88.595511
 31
0.0
  0
ARC
  5
1D393
330
1D245
100
AcDbEntity
  8
1
  6
Continuous
100
AcDbCircle
 10
145.6999999999998
 20
86.95
 30
0.0
 40
6.0
100
AcDbArc
 50
90.0
 51
113.214161
  0
LINE
  5
1D394
330
1D245
100
AcDbEntity
  8
4
  6
CENTER
100
AcDbLine
 10
300.8999999999999
 20
91.95
 30
0.0
 11
89.29999999999997
 21
91.95
 31
0.0
  0
ARC
  5
1D395
330
1D245
100
AcDbEntity
  8
1
  6
Continuous
100
AcDbCircle
 10
271.7
 20
86.95
 30
0.0
 40
4.0
100
AcDbArc
 50
90.0
 51
113.214161
  0
ARC
  5
1D396
330
1D245
100
AcDbEntity
  8
1
  6
Continuous
100
AcDbCircle
 10
271.7
 20
86.95
 30
0.0
 40
6.0
100
AcDbArc
 50
90.0
 51
113.214161
  0
ARC
  5
1D397
330
1D245
100
AcDbEntity
  8
1
  6
Continuous
100
AcDbCircle
 10
272.35
 20
91.95
 30
0.0
 40
3.649999999999999
100
AcDbArc
 50
208.5429669999999
 51
293.214161
  0
ARC
  5
1D398
330
1D245
100
AcDbEntity
  8
1
  6
Continuous
100
AcDbCircle
 10
272.35
 20
91.95
 30
0.0
 40
1.649999999999999
100
AcDbArc
 50
66.78583900000001
 51
144.423158
  0
ARC
  5
1D399
330
1D245
100
AcDbEntity
  8
1
  6
Continuous
100
AcDbCircle
 10
272.35
 20
91.95
 30
0.0
 40
1.649999999999999
100
AcDbArc
 50
219.472661
 51
293.214161
  0
ARC
  5
1D39A
330
1D245
100
AcDbEntity
  8
1
  6
Continuous
100
AcDbCircle
 10
271.7
 20
96.95
 30
0.0
 40
4.0
100
AcDbArc
 50
261.029825
 51
270.0
  0
ARC
  5
1D39B
330
1D245
100
AcDbEntity
  8
1
  6
Continuous
100
AcDbCircle
 10
272.35
 20
91.95
 30
0.0
 40
3.649999999999999
100
AcDbArc
 50
66.78583900000001
 51
176.144464
  0
LINE
  5
1D39C
330
1D245
100
AcDbEntity
  8
1
  6
Continuous
100
AcDbLine
 10
277.543625
 20
93.69403400000001
 30
0.0
 11
273.788717
 21
95.30448900000001
 31
0.0
  0
ARC
  5
1D39D
330
1D245
100
AcDbEntity
  8
1
  6
Continuous
100
AcDbCircle
 10
280.75
 20
91.95
 30
0.0
 40
3.649999999999999
100
AcDbArc
 50
66.78583900000001
 51
176.144464
  0
LINE
  5
1D39E
330
1D245
100
AcDbEntity
  8
1
  6
Continuous
100
AcDbLine
 10
295.323324
 20
93.273848
 30
0.0
 11
290.5887169999999
 21
95.30448900000001
 31
0.0
  0
ARC
  5
1D39F
330
1D245
100
AcDbEntity
  8
1
  6
Continuous
100
AcDbCircle
 10
289.1499999999999
 20
91.95
 30
0.0
 40
3.649999999999999
100
AcDbArc
 50
66.78583900000001
 51
176.144464
  0
LINE
  5
1D3A0
330
1D245
100
AcDbEntity
  8
1
  6
Continuous
100
AcDbLine
 10
285.9436249999999
 20
93.69403400000001
 30
0.0
 11
282.188717
 21
95.30448900000001
 31
0.0
  0
ARC
  5
1D3A1
330
1D245
100
AcDbEntity
  8
1
  6
Continuous
100
AcDbCircle
 10
288.5
 20
86.95
 30
0.0
 40
4.0
100
AcDbArc
 50
90.0
 51
113.214161
  0
ARC
  5
1D3A2
330
1D245
100
AcDbEntity
  8
1
  6
Continuous
100
AcDbCircle
 10
288.5
 20
86.95
 30
0.0
 40
6.0
100
AcDbArc
 50
90.0
 51
113.214161
  0
ARC
  5
1D3A3
330
1D245
100
AcDbEntity
  8
1
  6
Continuous
100
AcDbCircle
 10
289.1499999999999
 20
91.95
 30
0.0
 40
3.649999999999999
100
AcDbArc
 50
208.5429669999999
 51
293.214161
  0
ARC
  5
1D3A4
330
1D245
100
AcDbEntity
  8
1
  6
Continuous
100
AcDbCircle
 10
296.8999999999999
 20
91.95
 30
0.0
 40
1.0
100
AcDbArc
 50
270.0
 51
90.0
  0
LINE
  5
1D3A5
330
1D245
100
AcDbEntity
  8
1
  6
Continuous
100
AcDbLine
 10
293.336021
 20
91.95
 30
0.0
 11
289.800379
 21
93.46641299999999
 31
0.0
  0
LINE
  5
1D3A6
330
1D245
100
AcDbEntity
  8
1
  6
Continuous
100
AcDbLine
 10
294.5349859999998
 20
92.46422800000001
 30
0.0
 11
289.800379
 21
90.433587
 31
0.0
  0
LINE
  5
1D3A7
330
1D245
100
AcDbEntity
  8
1
  6
Continuous
100
AcDbLine
 10
295.323324
 20
90.62615200000001
 30
0.0
 11
290.5887169999999
 21
88.595511
 31
0.0
  0
ARC
  5
1D3A8
330
1D245
100
AcDbEntity
  8
1
  6
Continuous
100
AcDbCircle
 10
289.1499999999999
 20
91.95
 30
0.0
 40
1.649999999999999
100
AcDbArc
 50
66.78583900000001
 51
144.423158
  0
ARC
  5
1D3A9
330
1D245
100
AcDbEntity
  8
1
  6
Continuous
100
AcDbCircle
 10
289.1499999999999
 20
91.95
 30
0.0
 40
1.649999999999999
100
AcDbArc
 50
219.472661
 51
293.214161
  0
ARC
  5
1D3AA
330
1D245
100
AcDbEntity
  8
1
  6
Continuous
100
AcDbCircle
 10
288.5
 20
91.95
 30
0.0
 40
1.0
100
AcDbArc
 50
270.0
 51
90.0
  0
ARC
  5
1D3AB
330
1D245
100
AcDbEntity
  8
1
  6
Continuous
100
AcDbCircle
 10
288.5
 20
96.95
 30
0.0
 40
4.0
100
AcDbArc
 50
261.029825
 51
270.0
  0
ARC
  5
1D3AC
330
1D245
100
AcDbEntity
  8
1
  6
Continuous
100
AcDbCircle
 10
296.8999999999999
 20
96.95
 30
0.0
 40
4.0
100
AcDbArc
 50
246.785839
 51
270.0
  0
ARC
  5
1D3AD
330
1D245
100
AcDbEntity
  8
1
  6
Continuous
100
AcDbCircle
 10
296.8999999999999
 20
86.95
 30
0.0
 40
6.0
100
AcDbArc
 50
90.0
 51
113.214161
  0
ARC
  5
1D3AE
330
1D245
100
AcDbEntity
  8
1
  6
Continuous
100
AcDbCircle
 10
296.8999999999999
 20
86.95
 30
0.0
 40
4.0
100
AcDbArc
 50
90.0
 51
113.214161
  0
ARC
  5
1D3AF
330
1D245
100
AcDbEntity
  8
1
  6
Continuous
100
AcDbCircle
 10
280.1
 20
96.95
 30
0.0
 40
4.0
100
AcDbArc
 50
261.029825
 51
270.0
  0
ARC
  5
1D3B0
330
1D245
100
AcDbEntity
  8
1
  6
Continuous
100
AcDbCircle
 10
280.1
 20
91.95
 30
0.0
 40
1.0
100
AcDbArc
 50
270.0
 51
90.0
  0
ARC
  5
1D3B1
330
1D245
100
AcDbEntity
  8
1
  6
Continuous
100
AcDbCircle
 10
280.75
 20
91.95
 30
0.0
 40
1.649999999999999
100
AcDbArc
 50
219.472661
 51
293.214161
  0
ARC
  5
1D3B2
330
1D245
100
AcDbEntity
  8
1
  6
Continuous
100
AcDbCircle
 10
280.75
 20
91.95
 30
0.0
 40
1.649999999999999
100
AcDbArc
 50
66.78583900000001
 51
144.423158
  0
ARC
  5
1D3B3
330
1D245
100
AcDbEntity
  8
1
  6
Continuous
100
AcDbCircle
 10
280.75
 20
91.95
 30
0.0
 40
3.649999999999999
100
AcDbArc
 50
208.5429669999999
 51
293.214161
  0
LINE
  5
1D3B4
330
1D245
100
AcDbEntity
  8
1
  6
Continuous
100
AcDbLine
 10
286.9233239999999
 20
90.62615200000001
 30
0.0
 11
282.188717
 21
88.595511
 31
0.0
  0
LINE
  5
1D3B5
330
1D245
100
AcDbEntity
  8
1
  6
Continuous
100
AcDbLine
 10
286.1349859999999
 20
92.46422800000001
 30
0.0
 11
281.400379
 21
90.433587
 31
0.0
  0
LINE
  5
1D3B6
330
1D245
100
AcDbEntity
  8
1
  6
Continuous
100
AcDbLine
 10
284.936021
 20
91.95
 30
0.0
 11
281.400379
 21
93.46641299999999
 31
0.0
  0
LINE
  5
1D3B7
330
1D245
100
AcDbEntity
  8
1
  6
Continuous
100
AcDbLine
 10
276.536021
 20
91.95
 30
0.0
 11
273.000379
 21
93.46641299999999
 31
0.0
  0
LINE
  5
1D3B8
330
1D245
100
AcDbEntity
  8
1
  6
Continuous
100
AcDbLine
 10
277.734986
 20
92.46422800000001
 30
0.0
 11
273.000379
 21
90.433587
 31
0.0
  0
LINE
  5
1D3B9
330
1D245
100
AcDbEntity
  8
1
  6
Continuous
100
AcDbLine
 10
278.523324
 20
90.62615200000001
 30
0.0
 11
273.788717
 21
88.595511
 31
0.0
  0
ARC
  5
1D3BA
330
1D245
100
AcDbEntity
  8
1
  6
Continuous
100
AcDbCircle
 10
271.7
 20
91.95
 30
0.0
 40
1.0
100
AcDbArc
 50
270.0
 51
90.0
  0
ARC
  5
1D3BB
330
1D245
100
AcDbEntity
  8
1
  6
Continuous
100
AcDbCircle
 10
280.1
 20
86.95
 30
0.0
 40
6.0
100
AcDbArc
 50
90.0
 51
113.214161
  0
ARC
  5
1D3BC
330
1D245
100
AcDbEntity
  8
1
  6
Continuous
100
AcDbCircle
 10
280.1
 20
86.95
 30
0.0
 40
4.0
100
AcDbArc
 50
90.0
 51
113.214161
  0
LINE
  5
1D3BD
330
1D245
100
AcDbEntity
  8
1
  6
Continuous
100
AcDbLine
 10
210.343625
 20
93.69403400000001
 30
0.0
 11
206.5887169999998
 21
95.30448900000001
 31
0.0
  0
LINE
  5
1D3BE
330
1D245
100
AcDbEntity
  8
1
  6
Continuous
100
AcDbLine
 10
209.3360209999999
 20
91.95
 30
0.0
 11
205.8003789999999
 21
93.46641299999999
 31
0.0
  0
LINE
  5
1D3BF
330
1D245
100
AcDbEntity
  8
1
  6
Continuous
100
AcDbLine
 10
210.5349859999999
 20
92.46422800000001
 30
0.0
 11
205.8003789999999
 21
90.433587
 31
0.0
  0
LINE
  5
1D3C0
330
1D245
100
AcDbEntity
  8
1
  6
Continuous
100
AcDbLine
 10
211.323324
 20
90.62615200000001
 30
0.0
 11
206.5887169999998
 21
88.595511
 31
0.0
  0
LINE
  5
1D3C1
330
1D245
100
AcDbEntity
  8
1
  6
Continuous
100
AcDbLine
 10
260.743625
 20
93.69403400000001
 30
0.0
 11
256.988717
 21
95.30448900000001
 31
0.0
  0
ARC
  5
1D3C2
330
1D245
100
AcDbEntity
  8
1
  6
Continuous
100
AcDbCircle
 10
263.9499999999998
 20
91.95
 30
0.0
 40
3.649999999999999
100
AcDbArc
 50
66.78583900000001
 51
176.144464
  0
LINE
  5
1D3C3
330
1D245
100
AcDbEntity
  8
1
  6
Continuous
100
AcDbLine
 10
243.9436249999999
 20
93.69403400000001
 30
0.0
 11
240.188717
 21
95.30448900000001
 31
0.0
  0
ARC
  5
1D3C4
330
1D245
100
AcDbEntity
  8
1
  6
Continuous
100
AcDbCircle
 10
247.15
 20
91.95
 30
0.0
 40
3.649999999999999
100
AcDbArc
 50
66.78583900000001
 51
176.144464
  0
LINE
  5
1D3C5
330
1D245
100
AcDbEntity
  8
1
  6
Continuous
100
AcDbLine
 10
227.1436249999999
 20
93.69403400000001
 30
0.0
 11
223.388717
 21
95.30448900000001
 31
0.0
  0
ARC
  5
1D3C6
330
1D245
100
AcDbEntity
  8
1
  6
Continuous
100
AcDbCircle
 10
230.35
 20
91.95
 30
0.0
 40
3.649999999999999
100
AcDbArc
 50
66.78583900000001
 51
176.144464
  0
ARC
  5
1D3C7
330
1D245
100
AcDbEntity
  8
1
  6
Continuous
100
AcDbCircle
 10
213.5499999999999
 20
91.95
 30
0.0
 40
3.649999999999999
100
AcDbArc
 50
66.78583900000001
 51
176.144464
  0
LINE
  5
1D3C8
330
1D245
100
AcDbEntity
  8
1
  6
Continuous
100
AcDbLine
 10
269.1436249999998
 20
93.69403400000001
 30
0.0
 11
265.3887169999998
 21
95.30448900000001
 31
0.0
  0
ARC
  5
1D3C9
330
1D245
100
AcDbEntity
  8
1
  6
Continuous
100
AcDbCircle
 10
255.55
 20
91.95
 30
0.0
 40
3.649999999999999
100
AcDbArc
 50
66.78583900000001
 51
176.144464
  0
LINE
  5
1D3CA
330
1D245
100
AcDbEntity
  8
1
  6
Continuous
100
AcDbLine
 10
252.343625
 20
93.69403400000001
 30
0.0
 11
248.588717
 21
95.30448900000001
 31
0.0
  0
ARC
  5
1D3CB
330
1D245
100
AcDbEntity
  8
1
  6
Continuous
100
AcDbCircle
 10
238.75
 20
91.95
 30
0.0
 40
3.649999999999999
100
AcDbArc
 50
66.78583900000001
 51
176.144464
  0
LINE
  5
1D3CC
330
1D245
100
AcDbEntity
  8
1
  6
Continuous
100
AcDbLine
 10
235.5436249999999
 20
93.69403400000001
 30
0.0
 11
231.788717
 21
95.30448900000001
 31
0.0
  0
ARC
  5
1D3CD
330
1D245
100
AcDbEntity
  8
1
  6
Continuous
100
AcDbCircle
 10
221.95
 20
91.95
 30
0.0
 40
3.649999999999999
100
AcDbArc
 50
66.78583900000001
 51
176.144464
  0
LINE
  5
1D3CE
330
1D245
100
AcDbEntity
  8
1
  6
Continuous
100
AcDbLine
 10
218.743625
 20
93.69403400000001
 30
0.0
 11
214.9887169999999
 21
95.30448900000001
 31
0.0
  0
LINE
  5
1D3CF
330
1D245
100
AcDbEntity
  8
1
  6
Continuous
100
AcDbLine
 10
242.936021
 20
91.95
 30
0.0
 11
239.4003789999999
 21
93.46641299999999
 31
0.0
  0
LINE
  5
1D3D0
330
1D245
100
AcDbEntity
  8
1
  6
Continuous
100
AcDbLine
 10
244.1349859999998
 20
92.46422800000001
 30
0.0
 11
239.4003789999999
 21
90.433587
 31
0.0
  0
ARC
  5
1D3D1
330
1D245
100
AcDbEntity
  8
1
  6
Continuous
100
AcDbCircle
 10
238.75
 20
91.95
 30
0.0
 40
3.649999999999999
100
AcDbArc
 50
208.5429669999999
 51
293.214161
  0
ARC
  5
1D3D2
330
1D245
100
AcDbEntity
  8
1
  6
Continuous
100
AcDbCircle
 10
255.55
 20
91.95
 30
0.0
 40
3.649999999999999
100
AcDbArc
 50
208.5429669999999
 51
293.214161
  0
ARC
  5
1D3D3
330
1D245
100
AcDbEntity
  8
1
  6
Continuous
100
AcDbCircle
 10
255.55
 20
91.95
 30
0.0
 40
1.649999999999999
100
AcDbArc
 50
66.78583900000001
 51
144.423158
  0
ARC
  5
1D3D4
330
1D245
100
AcDbEntity
  8
1
  6
Continuous
100
AcDbCircle
 10
255.55
 20
91.95
 30
0.0
 40
1.649999999999999
100
AcDbArc
 50
219.472661
 51
293.214161
  0
ARC
  5
1D3D5
330
1D245
100
AcDbEntity
  8
1
  6
Continuous
100
AcDbCircle
 10
254.8999999999999
 20
91.95
 30
0.0
 40
1.0
100
AcDbArc
 50
270.0
 51
90.0
  0
ARC
  5
1D3D6
330
1D245
100
AcDbEntity
  8
1
  6
Continuous
100
AcDbCircle
 10
263.3
 20
96.95
 30
0.0
 40
4.0
100
AcDbArc
 50
261.029825
 51
270.0
  0
ARC
  5
1D3D7
330
1D245
100
AcDbEntity
  8
1
  6
Continuous
100
AcDbCircle
 10
263.3
 20
91.95
 30
0.0
 40
1.0
100
AcDbArc
 50
270.0
 51
90.0
  0
ARC
  5
1D3D8
330
1D245
100
AcDbEntity
  8
1
  6
Continuous
100
AcDbCircle
 10
263.9499999999998
 20
91.95
 30
0.0
 40
1.649999999999999
100
AcDbArc
 50
219.472661
 51
293.214161
  0
ARC
  5
1D3D9
330
1D245
100
AcDbEntity
  8
1
  6
Continuous
100
AcDbCircle
 10
263.9499999999998
 20
91.95
 30
0.0
 40
1.649999999999999
100
AcDbArc
 50
66.78583900000001
 51
144.423158
  0
ARC
  5
1D3DA
330
1D245
100
AcDbEntity
  8
1
  6
Continuous
100
AcDbCircle
 10
263.9499999999998
 20
91.95
 30
0.0
 40
3.649999999999999
100
AcDbArc
 50
208.5429669999999
 51
293.214161
  0
LINE
  5
1D3DB
330
1D245
100
AcDbEntity
  8
1
  6
Continuous
100
AcDbLine
 10
270.123324
 20
90.62615200000001
 30
0.0
 11
265.3887169999998
 21
88.595511
 31
0.0
  0
LINE
  5
1D3DC
330
1D245
100
AcDbEntity
  8
1
  6
Continuous
100
AcDbLine
 10
269.334986
 20
92.46422800000001
 30
0.0
 11
264.6003789999999
 21
90.433587
 31
0.0
  0
LINE
  5
1D3DD
330
1D245
100
AcDbEntity
  8
1
  6
Continuous
100
AcDbLine
 10
268.1360209999999
 20
91.95
 30
0.0
 11
264.6003789999999
 21
93.46641299999999
 31
0.0
  0
LINE
  5
1D3DE
330
1D245
100
AcDbEntity
  8
1
  6
Continuous
100
AcDbLine
 10
259.736021
 20
91.95
 30
0.0
 11
256.2003789999999
 21
93.46641299999999
 31
0.0
  0
LINE
  5
1D3DF
330
1D245
100
AcDbEntity
  8
1
  6
Continuous
100
AcDbLine
 10
260.934986
 20
92.46422800000001
 30
0.0
 11
256.2003789999999
 21
90.433587
 31
0.0
  0
LINE
  5
1D3E0
330
1D245
100
AcDbEntity
  8
1
  6
Continuous
100
AcDbLine
 10
261.723324
 20
90.62615200000001
 30
0.0
 11
256.988717
 21
88.595511
 31
0.0
  0
ARC
  5
1D3E1
330
1D245
100
AcDbEntity
  8
1
  6
Continuous
100
AcDbCircle
 10
263.3
 20
86.95
 30
0.0
 40
6.0
100
AcDbArc
 50
90.0
 51
113.214161
  0
ARC
  5
1D3E2
330
1D245
100
AcDbEntity
  8
1
  6
Continuous
100
AcDbCircle
 10
263.3
 20
86.95
 30
0.0
 40
4.0
100
AcDbArc
 50
90.0
 51
113.214161
  0
ARC
  5
1D3E3
330
1D245
100
AcDbEntity
  8
1
  6
Continuous
100
AcDbCircle
 10
246.4999999999998
 20
96.95
 30
0.0
 40
4.0
100
AcDbArc
 50
261.029825
 51
270.0
  0
ARC
  5
1D3E4
330
1D245
100
AcDbEntity
  8
1
  6
Continuous
100
AcDbCircle
 10
246.4999999999998
 20
91.95
 30
0.0
 40
1.0
100
AcDbArc
 50
270.0
 51
90.0
  0
ARC
  5
1D3E5
330
1D245
100
AcDbEntity
  8
1
  6
Continuous
100
AcDbCircle
 10
247.15
 20
91.95
 30
0.0
 40
1.649999999999999
100
AcDbArc
 50
219.472661
 51
293.214161
  0
ARC
  5
1D3E6
330
1D245
100
AcDbEntity
  8
1
  6
Continuous
100
AcDbCircle
 10
247.15
 20
91.95
 30
0.0
 40
1.649999999999999
100
AcDbArc
 50
66.78583900000001
 51
144.423158
  0
ARC
  5
1D3E7
330
1D245
100
AcDbEntity
  8
1
  6
Continuous
100
AcDbCircle
 10
247.15
 20
91.95
 30
0.0
 40
3.649999999999999
100
AcDbArc
 50
208.5429669999999
 51
293.214161
  0
ARC
  5
1D3E8
330
1D245
100
AcDbEntity
  8
1
  6
Continuous
100
AcDbCircle
 10
254.8999999999999
 20
86.95
 30
0.0
 40
4.0
100
AcDbArc
 50
90.0
 51
113.214161
  0
LINE
  5
1D3E9
330
1D245
100
AcDbEntity
  8
1
  6
Continuous
100
AcDbLine
 10
253.323324
 20
90.62615200000001
 30
0.0
 11
248.588717
 21
88.595511
 31
0.0
  0
ARC
  5
1D3EA
330
1D245
100
AcDbEntity
  8
1
  6
Continuous
100
AcDbCircle
 10
254.8999999999999
 20
86.95
 30
0.0
 40
6.0
100
AcDbArc
 50
90.0
 51
113.214161
  0
LINE
  5
1D3EB
330
1D245
100
AcDbEntity
  8
1
  6
Continuous
100
AcDbLine
 10
252.5349859999999
 20
92.46422800000001
 30
0.0
 11
247.8003789999999
 21
90.433587
 31
0.0
  0
LINE
  5
1D3EC
330
1D245
100
AcDbEntity
  8
1
  6
Continuous
100
AcDbLine
 10
251.336021
 20
91.95
 30
0.0
 11
247.8003789999999
 21
93.46641299999999
 31
0.0
  0
ARC
  5
1D3ED
330
1D245
100
AcDbEntity
  8
1
  6
Continuous
100
AcDbCircle
 10
254.8999999999999
 20
96.95
 30
0.0
 40
4.0
100
AcDbArc
 50
261.029825
 51
270.0
  0
LINE
  5
1D3EE
330
1D245
100
AcDbEntity
  8
1
  6
Continuous
100
AcDbLine
 10
244.923324
 20
90.62615200000001
 30
0.0
 11
240.188717
 21
88.595511
 31
0.0
  0
ARC
  5
1D3EF
330
1D245
100
AcDbEntity
  8
1
  6
Continuous
100
AcDbCircle
 10
246.4999999999998
 20
86.95
 30
0.0
 40
6.0
100
AcDbArc
 50
90.0
 51
113.214161
  0
ARC
  5
1D3F0
330
1D245
100
AcDbEntity
  8
1
  6
Continuous
100
AcDbCircle
 10
246.4999999999998
 20
86.95
 30
0.0
 40
4.0
100
AcDbArc
 50
90.0
 51
113.214161
  0
LINE
  5
1D3F1
330
1D245
100
AcDbEntity
  8
1
  6
Continuous
100
AcDbLine
 10
226.1360209999998
 20
91.95
 30
0.0
 11
222.600379
 21
93.46641299999999
 31
0.0
  0
LINE
  5
1D3F2
330
1D245
100
AcDbEntity
  8
1
  6
Continuous
100
AcDbLine
 10
227.3349859999999
 20
92.46422800000001
 30
0.0
 11
222.600379
 21
90.433587
 31
0.0
  0
LINE
  5
1D3F3
330
1D245
100
AcDbEntity
  8
1
  6
Continuous
100
AcDbLine
 10
228.123324
 20
90.62615200000001
 30
0.0
 11
223.388717
 21
88.595511
 31
0.0
  0
ARC
  5
1D3F4
330
1D245
100
AcDbEntity
  8
1
  6
Continuous
100
AcDbCircle
 10
229.7
 20
96.95
 30
0.0
 40
4.0
100
AcDbArc
 50
261.029825
 51
270.0
  0
ARC
  5
1D3F5
330
1D245
100
AcDbEntity
  8
1
  6
Continuous
100
AcDbCircle
 10
230.35
 20
91.95
 30
0.0
 40
1.649999999999999
100
AcDbArc
 50
219.472661
 51
293.214161
  0
ARC
  5
1D3F6
330
1D245
100
AcDbEntity
  8
1
  6
Continuous
100
AcDbCircle
 10
230.35
 20
91.95
 30
0.0
 40
1.649999999999999
100
AcDbArc
 50
66.78583900000001
 51
144.423158
  0
ARC
  5
1D3F7
330
1D245
100
AcDbEntity
  8
1
  6
Continuous
100
AcDbCircle
 10
229.7
 20
91.95
 30
0.0
 40
1.0
100
AcDbArc
 50
270.0
 51
90.0
  0
ARC
  5
1D3F8
330
1D245
100
AcDbEntity
  8
1
  6
Continuous
100
AcDbCircle
 10
230.35
 20
91.95
 30
0.0
 40
3.649999999999999
100
AcDbArc
 50
208.5429669999999
 51
293.214161
  0
ARC
  5
1D3F9
330
1D245
100
AcDbEntity
  8
1
  6
Continuous
100
AcDbCircle
 10
238.0999999999999
 20
86.95
 30
0.0
 40
4.0
100
AcDbArc
 50
90.0
 51
113.214161
  0
LINE
  5
1D3FA
330
1D245
100
AcDbEntity
  8
1
  6
Continuous
100
AcDbLine
 10
236.523324
 20
90.62615200000001
 30
0.0
 11
231.788717
 21
88.595511
 31
0.0
  0
ARC
  5
1D3FB
330
1D245
100
AcDbEntity
  8
1
  6
Continuous
100
AcDbCircle
 10
238.0999999999999
 20
86.95
 30
0.0
 40
6.0
100
AcDbArc
 50
90.0
 51
113.214161
  0
LINE
  5
1D3FC
330
1D245
100
AcDbEntity
  8
1
  6
Continuous
100
AcDbLine
 10
235.7349859999999
 20
92.46422800000001
 30
0.0
 11
231.000379
 21
90.433587
 31
0.0
  0
LINE
  5
1D3FD
330
1D245
100
AcDbEntity
  8
1
  6
Continuous
100
AcDbLine
 10
234.5360209999999
 20
91.95
 30
0.0
 11
231.000379
 21
93.46641299999999
 31
0.0
  0
ARC
  5
1D3FE
330
1D245
100
AcDbEntity
  8
1
  6
Continuous
100
AcDbCircle
 10
238.75
 20
91.95
 30
0.0
 40
1.649999999999999
100
AcDbArc
 50
66.78583900000001
 51
144.423158
  0
ARC
  5
1D3FF
330
1D245
100
AcDbEntity
  8
1
  6
Continuous
100
AcDbCircle
 10
238.75
 20
91.95
 30
0.0
 40
1.649999999999999
100
AcDbArc
 50
219.472661
 51
293.214161
  0
ARC
  5
1D400
330
1D245
100
AcDbEntity
  8
1
  6
Continuous
100
AcDbCircle
 10
238.0999999999999
 20
91.95
 30
0.0
 40
1.0
100
AcDbArc
 50
270.0
 51
90.0
  0
ARC
  5
1D401
330
1D245
100
AcDbEntity
  8
1
  6
Continuous
100
AcDbCircle
 10
238.0999999999999
 20
96.95
 30
0.0
 40
4.0
100
AcDbArc
 50
261.029825
 51
270.0
  0
ARC
  5
1D402
330
1D245
100
AcDbEntity
  8
1
  6
Continuous
100
AcDbCircle
 10
229.7
 20
86.95
 30
0.0
 40
6.0
100
AcDbArc
 50
90.0
 51
113.214161
  0
ARC
  5
1D403
330
1D245
100
AcDbEntity
  8
1
  6
Continuous
100
AcDbCircle
 10
229.7
 20
86.95
 30
0.0
 40
4.0
100
AcDbArc
 50
90.0
 51
113.214161
  0
ARC
  5
1D404
330
1D245
100
AcDbEntity
  8
1
  6
Continuous
100
AcDbCircle
 10
212.9
 20
96.95
 30
0.0
 40
4.0
100
AcDbArc
 50
261.029825
 51
270.0
  0
ARC
  5
1D405
330
1D245
100
AcDbEntity
  8
1
  6
Continuous
100
AcDbCircle
 10
212.9
 20
91.95
 30
0.0
 40
1.0
100
AcDbArc
 50
270.0
 51
90.0
  0
ARC
  5
1D406
330
1D245
100
AcDbEntity
  8
1
  6
Continuous
100
AcDbCircle
 10
213.5499999999999
 20
91.95
 30
0.0
 40
1.649999999999999
100
AcDbArc
 50
219.472661
 51
293.214161
  0
ARC
  5
1D407
330
1D245
100
AcDbEntity
  8
1
  6
Continuous
100
AcDbCircle
 10
213.5499999999999
 20
91.95
 30
0.0
 40
1.649999999999999
100
AcDbArc
 50
66.78583900000001
 51
144.423158
  0
ARC
  5
1D408
330
1D245
100
AcDbEntity
  8
1
  6
Continuous
100
AcDbCircle
 10
213.5499999999999
 20
91.95
 30
0.0
 40
3.649999999999999
100
AcDbArc
 50
208.5429669999999
 51
293.214161
  0
ARC
  5
1D409
330
1D245
100
AcDbEntity
  8
1
  6
Continuous
100
AcDbCircle
 10
221.3
 20
86.95
 30
0.0
 40
4.0
100
AcDbArc
 50
90.0
 51
113.214161
  0
LINE
  5
1D40A
330
1D245
100
AcDbEntity
  8
1
  6
Continuous
100
AcDbLine
 10
219.723324
 20
90.62615200000001
 30
0.0
 11
214.9887169999999
 21
88.595511
 31
0.0
  0
ARC
  5
1D40B
330
1D245
100
AcDbEntity
  8
1
  6
Continuous
100
AcDbCircle
 10
221.3
 20
86.95
 30
0.0
 40
6.0
100
AcDbArc
 50
90.0
 51
113.214161
  0
LINE
  5
1D40C
330
1D245
100
AcDbEntity
  8
1
  6
Continuous
100
AcDbLine
 10
218.9349859999999
 20
92.46422800000001
 30
0.0
 11
214.2003789999999
 21
90.433587
 31
0.0
  0
LINE
  5
1D40D
330
1D245
100
AcDbEntity
  8
1
  6
Continuous
100
AcDbLine
 10
217.7360209999999
 20
91.95
 30
0.0
 11
214.2003789999999
 21
93.46641299999999
 31
0.0
  0
ARC
  5
1D40E
330
1D245
100
AcDbEntity
  8
1
  6
Continuous
100
AcDbCircle
 10
221.95
 20
91.95
 30
0.0
 40
3.649999999999999
100
AcDbArc
 50
208.5429669999999
 51
293.214161
  0
ARC
  5
1D40F
330
1D245
100
AcDbEntity
  8
1
  6
Continuous
100
AcDbCircle
 10
221.95
 20
91.95
 30
0.0
 40
1.649999999999999
100
AcDbArc
 50
66.78583900000001
 51
144.423158
  0
ARC
  5
1D410
330
1D245
100
AcDbEntity
  8
1
  6
Continuous
100
AcDbCircle
 10
221.95
 20
91.95
 30
0.0
 40
1.649999999999999
100
AcDbArc
 50
219.472661
 51
293.214161
  0
ARC
  5
1D411
330
1D245
100
AcDbEntity
  8
1
  6
Continuous
100
AcDbCircle
 10
221.3
 20
91.95
 30
0.0
 40
1.0
100
AcDbArc
 50
270.0
 51
90.0
  0
ARC
  5
1D412
330
1D245
100
AcDbEntity
  8
1
  6
Continuous
100
AcDbCircle
 10
221.3
 20
96.95
 30
0.0
 40
4.0
100
AcDbArc
 50
261.029825
 51
270.0
  0
ARC
  5
1D413
330
1D245
100
AcDbEntity
  8
1
  6
Continuous
100
AcDbCircle
 10
212.9
 20
86.95
 30
0.0
 40
6.0
100
AcDbArc
 50
90.0
 51
113.214161
  0
ARC
  5
1D414
330
1D245
100
AcDbEntity
  8
1
  6
Continuous
100
AcDbCircle
 10
212.9
 20
86.95
 30
0.0
 40
4.0
100
AcDbArc
 50
90.0
 51
113.214161
  0
LINE
  5
1D415
330
1D245
100
AcDbEntity
  8
1
  6
Continuous
100
AcDbLine
 10
193.543625
 20
93.69403400000001
 30
0.0
 11
189.7887169999999
 21
95.30448900000001
 31
0.0
  0
ARC
  5
1D416
330
1D245
100
AcDbEntity
  8
1
  6
Continuous
100
AcDbCircle
 10
196.75
 20
91.95
 30
0.0
 40
3.649999999999999
100
AcDbArc
 50
66.78583900000001
 51
176.144464
  0
LINE
  5
1D417
330
1D245
100
AcDbEntity
  8
1
  6
Continuous
100
AcDbLine
 10
176.743625
 20
93.69403400000001
 30
0.0
 11
172.9887169999998
 21
95.30448900000001
 31
0.0
  0
ARC
  5
1D418
330
1D245
100
AcDbEntity
  8
1
  6
Continuous
100
AcDbCircle
 10
179.9499999999999
 20
91.95
 30
0.0
 40
3.649999999999999
100
AcDbArc
 50
66.78583900000001
 51
176.144464
  0
LINE
  5
1D419
330
1D245
100
AcDbEntity
  8
1
  6
Continuous
100
AcDbLine
 10
159.943625
 20
93.69403400000001
 30
0.0
 11
156.188717
 21
95.30448900000001
 31
0.0
  0
ARC
  5
1D41A
330
1D245
100
AcDbEntity
  8
1
  6
Continuous
100
AcDbCircle
 10
163.15
 20
91.95
 30
0.0
 40
3.649999999999999
100
AcDbArc
 50
66.78583900000001
 51
176.144464
  0
ARC
  5
1D41B
330
1D245
100
AcDbEntity
  8
1
  6
Continuous
100
AcDbCircle
 10
205.1499999999998
 20
91.95
 30
0.0
 40
3.649999999999999
100
AcDbArc
 50
66.78583900000001
 51
176.144464
  0
LINE
  5
1D41C
330
1D245
100
AcDbEntity
  8
1
  6
Continuous
100
AcDbLine
 10
201.943625
 20
93.69403400000001
 30
0.0
 11
198.188717
 21
95.30448900000001
 31
0.0
  0
ARC
  5
1D41D
330
1D245
100
AcDbEntity
  8
1
  6
Continuous
100
AcDbCircle
 10
188.3499999999999
 20
91.95
 30
0.0
 40
3.649999999999999
100
AcDbArc
 50
66.78583900000001
 51
176.144464
  0
LINE
  5
1D41E
330
1D245
100
AcDbEntity
  8
1
  6
Continuous
100
AcDbLine
 10
185.1436249999999
 20
93.69403400000001
 30
0.0
 11
181.3887169999999
 21
95.30448900000001
 31
0.0
  0
ARC
  5
1D41F
330
1D245
100
AcDbEntity
  8
1
  6
Continuous
100
AcDbCircle
 10
171.55
 20
91.95
 30
0.0
 40
3.649999999999999
100
AcDbArc
 50
66.78583900000001
 51
176.144464
  0
LINE
  5
1D420
330
1D245
100
AcDbEntity
  8
1
  6
Continuous
100
AcDbLine
 10
168.3436249999998
 20
93.69403400000001
 30
0.0
 11
164.5887169999998
 21
95.30448900000001
 31
0.0
  0
ARC
  5
1D421
330
1D245
100
AcDbEntity
  8
1
  6
Continuous
100
AcDbCircle
 10
154.75
 20
91.95
 30
0.0
 40
3.649999999999999
100
AcDbArc
 50
66.78583900000001
 51
176.144464
  0
LINE
  5
1D422
330
1D245
100
AcDbEntity
  8
1
  6
Continuous
100
AcDbLine
 10
151.543625
 20
93.69403400000001
 30
0.0
 11
147.7887169999999
 21
95.30448900000001
 31
0.0
  0
LINE
  5
1D423
330
1D245
100
AcDbEntity
  8
1
  6
Continuous
100
AcDbLine
 10
175.7360209999999
 20
91.95
 30
0.0
 11
172.200379
 21
93.46641299999999
 31
0.0
  0
LINE
  5
1D424
330
1D245
100
AcDbEntity
  8
1
  6
Continuous
100
AcDbLine
 10
176.934986
 20
92.46422800000001
 30
0.0
 11
172.200379
 21
90.433587
 31
0.0
  0
LINE
  5
1D425
330
1D245
100
AcDbEntity
  8
1
  6
Continuous
100
AcDbLine
 10
177.7233239999999
 20
90.62615200000001
 30
0.0
 11
172.9887169999998
 21
88.595511
 31
0.0
  0
LINE
  5
1D426
330
1D245
100
AcDbEntity
  8
1
  6
Continuous
100
AcDbLine
 10
192.536021
 20
91.95
 30
0.0
 11
189.000379
 21
93.46641299999999
 31
0.0
  0
LINE
  5
1D427
330
1D245
100
AcDbEntity
  8
1
  6
Continuous
100
AcDbLine
 10
193.7349859999999
 20
92.46422800000001
 30
0.0
 11
189.000379
 21
90.433587
 31
0.0
  0
LINE
  5
1D428
330
1D245
100
AcDbEntity
  8
1
  6
Continuous
100
AcDbLine
 10
194.523324
 20
90.62615200000001
 30
0.0
 11
189.7887169999999
 21
88.595511
 31
0.0
  0
ARC
  5
1D429
330
1D245
100
AcDbEntity
  8
1
  6
Continuous
100
AcDbCircle
 10
196.1
 20
96.95
 30
0.0
 40
4.0
100
AcDbArc
 50
261.029825
 51
270.0
  0
ARC
  5
1D42A
330
1D245
100
AcDbEntity
  8
1
  6
Continuous
100
AcDbCircle
 10
196.1
 20
91.95
 30
0.0
 40
1.0
100
AcDbArc
 50
270.0
 51
90.0
  0
ARC
  5
1D42B
330
1D245
100
AcDbEntity
  8
1
  6
Continuous
100
AcDbCircle
 10
196.75
 20
91.95
 30
0.0
 40
1.649999999999999
100
AcDbArc
 50
219.472661
 51
293.214161
  0
ARC
  5
1D42C
330
1D245
100
AcDbEntity
  8
1
  6
Continuous
100
AcDbCircle
 10
196.75
 20
91.95
 30
0.0
 40
1.649999999999999
100
AcDbArc
 50
66.78583900000001
 51
144.423158
  0
ARC
  5
1D42D
330
1D245
100
AcDbEntity
  8
1
  6
Continuous
100
AcDbCircle
 10
196.75
 20
91.95
 30
0.0
 40
3.649999999999999
100
AcDbArc
 50
208.5429669999999
 51
293.214161
  0
ARC
  5
1D42E
330
1D245
100
AcDbEntity
  8
1
  6
Continuous
100
AcDbCircle
 10
204.4999999999999
 20
86.95
 30
0.0
 40
4.0
100
AcDbArc
 50
90.0
 51
113.214161
  0
LINE
  5
1D42F
330
1D245
100
AcDbEntity
  8
1
  6
Continuous
100
AcDbLine
 10
202.9233239999999
 20
90.62615200000001
 30
0.0
 11
198.188717
 21
88.595511
 31
0.0
  0
ARC
  5
1D430
330
1D245
100
AcDbEntity
  8
1
  6
Continuous
100
AcDbCircle
 10
204.4999999999999
 20
86.95
 30
0.0
 40
6.0
100
AcDbArc
 50
90.0
 51
113.214161
  0
LINE
  5
1D431
330
1D245
100
AcDbEntity
  8
1
  6
Continuous
100
AcDbLine
 10
202.1349859999999
 20
92.46422800000001
 30
0.0
 11
197.4003789999999
 21
90.433587
 31
0.0
  0
LINE
  5
1D432
330
1D245
100
AcDbEntity
  8
1
  6
Continuous
100
AcDbLine
 10
200.9360209999999
 20
91.95
 30
0.0
 11
197.4003789999999
 21
93.46641299999999
 31
0.0
  0
ARC
  5
1D433
330
1D245
100
AcDbEntity
  8
1
  6
Continuous
100
AcDbCircle
 10
205.1499999999998
 20
91.95
 30
0.0
 40
3.649999999999999
100
AcDbArc
 50
208.5429669999999
 51
293.214161
  0
ARC
  5
1D434
330
1D245
100
AcDbEntity
  8
1
  6
Continuous
100
AcDbCircle
 10
205.1499999999998
 20
91.95
 30
0.0
 40
1.649999999999999
100
AcDbArc
 50
66.78583900000001
 51
144.423158
  0
ARC
  5
1D435
330
1D245
100
AcDbEntity
  8
1
  6
Continuous
100
AcDbCircle
 10
205.1499999999998
 20
91.95
 30
0.0
 40
1.649999999999999
100
AcDbArc
 50
219.472661
 51
293.214161
  0
ARC
  5
1D436
330
1D245
100
AcDbEntity
  8
1
  6
Continuous
100
AcDbCircle
 10
204.4999999999999
 20
91.95
 30
0.0
 40
1.0
100
AcDbArc
 50
270.0
 51
90.0
  0
ARC
  5
1D437
330
1D245
100
AcDbEntity
  8
1
  6
Continuous
100
AcDbCircle
 10
204.4999999999999
 20
96.95
 30
0.0
 40
4.0
100
AcDbArc
 50
261.029825
 51
270.0
  0
ARC
  5
1D438
330
1D245
100
AcDbEntity
  8
1
  6
Continuous
100
AcDbCircle
 10
196.1
 20
86.95
 30
0.0
 40
6.0
100
AcDbArc
 50
90.0
 51
113.214161
  0
ARC
  5
1D439
330
1D245
100
AcDbEntity
  8
1
  6
Continuous
100
AcDbCircle
 10
196.1
 20
86.95
 30
0.0
 40
4.0
100
AcDbArc
 50
90.0
 51
113.214161
  0
ARC
  5
1D43A
330
1D245
100
AcDbEntity
  8
1
  6
Continuous
100
AcDbCircle
 10
179.3
 20
96.95
 30
0.0
 40
4.0
100
AcDbArc
 50
261.029825
 51
270.0
  0
ARC
  5
1D43B
330
1D245
100
AcDbEntity
  8
1
  6
Continuous
100
AcDbCircle
 10
179.3
 20
91.95
 30
0.0
 40
1.0
100
AcDbArc
 50
270.0
 51
90.0
  0
ARC
  5
1D43C
330
1D245
100
AcDbEntity
  8
1
  6
Continuous
100
AcDbCircle
 10
179.9499999999999
 20
91.95
 30
0.0
 40
1.649999999999999
100
AcDbArc
 50
219.472661
 51
293.214161
  0
ARC
  5
1D43D
330
1D245
100
AcDbEntity
  8
1
  6
Continuous
100
AcDbCircle
 10
179.9499999999999
 20
91.95
 30
0.0
 40
1.649999999999999
100
AcDbArc
 50
66.78583900000001
 51
144.423158
  0
ARC
  5
1D43E
330
1D245
100
AcDbEntity
  8
1
  6
Continuous
100
AcDbCircle
 10
179.9499999999999
 20
91.95
 30
0.0
 40
3.649999999999999
100
AcDbArc
 50
208.5429669999999
 51
293.214161
  0
ARC
  5
1D43F
330
1D245
100
AcDbEntity
  8
1
  6
Continuous
100
AcDbCircle
 10
187.6999999999999
 20
86.95
 30
0.0
 40
4.0
100
AcDbArc
 50
90.0
 51
113.214161
  0
LINE
  5
1D440
330
1D245
100
AcDbEntity
  8
1
  6
Continuous
100
AcDbLine
 10
186.1233239999999
 20
90.62615200000001
 30
0.0
 11
181.3887169999999
 21
88.595511
 31
0.0
  0
ARC
  5
1D441
330
1D245
100
AcDbEntity
  8
1
  6
Continuous
100
AcDbCircle
 10
187.6999999999999
 20
86.95
 30
0.0
 40
6.0
100
AcDbArc
 50
90.0
 51
113.214161
  0
LINE
  5
1D442
330
1D245
100
AcDbEntity
  8
1
  6
Continuous
100
AcDbLine
 10
185.3349859999999
 20
92.46422800000001
 30
0.0
 11
180.600379
 21
90.433587
 31
0.0
  0
LINE
  5
1D443
330
1D245
100
AcDbEntity
  8
1
  6
Continuous
100
AcDbLine
 10
184.1360209999998
 20
91.95
 30
0.0
 11
180.600379
 21
93.46641299999999
 31
0.0
  0
ARC
  5
1D444
330
1D245
100
AcDbEntity
  8
1
  6
Continuous
100
AcDbCircle
 10
188.3499999999999
 20
91.95
 30
0.0
 40
3.649999999999999
100
AcDbArc
 50
208.5429669999999
 51
293.214161
  0
ARC
  5
1D445
330
1D245
100
AcDbEntity
  8
1
  6
Continuous
100
AcDbCircle
 10
188.3499999999999
 20
91.95
 30
0.0
 40
1.649999999999999
100
AcDbArc
 50
66.78583900000001
 51
144.423158
  0
ARC
  5
1D446
330
1D245
100
AcDbEntity
  8
1
  6
Continuous
100
AcDbCircle
 10
188.3499999999999
 20
91.95
 30
0.0
 40
1.649999999999999
100
AcDbArc
 50
219.472661
 51
293.214161
  0
ARC
  5
1D447
330
1D245
100
AcDbEntity
  8
1
  6
Continuous
100
AcDbCircle
 10
187.6999999999999
 20
91.95
 30
0.0
 40
1.0
100
AcDbArc
 50
270.0
 51
90.0
  0
ARC
  5
1D448
330
1D245
100
AcDbEntity
  8
1
  6
Continuous
100
AcDbCircle
 10
187.6999999999999
 20
96.95
 30
0.0
 40
4.0
100
AcDbArc
 50
261.029825
 51
270.0
  0
ARC
  5
1D449
330
1D245
100
AcDbEntity
  8
1
  6
Continuous
100
AcDbCircle
 10
179.3
 20
86.95
 30
0.0
 40
6.0
100
AcDbArc
 50
90.0
 51
113.214161
  0
ARC
  5
1D44A
330
1D245
100
AcDbEntity
  8
1
  6
Continuous
100
AcDbCircle
 10
179.3
 20
86.95
 30
0.0
 40
4.0
100
AcDbArc
 50
90.0
 51
113.214161
  0
ARC
  5
1D44B
330
1D245
100
AcDbEntity
  8
1
  6
Continuous
100
AcDbCircle
 10
163.15
 20
91.95
 30
0.0
 40
3.649999999999999
100
AcDbArc
 50
208.5429669999999
 51
293.214161
  0
LINE
  5
1D44C
330
1D245
100
AcDbEntity
  8
1
  6
Continuous
100
AcDbLine
 10
160.134986
 20
92.46422800000001
 30
0.0
 11
155.4003789999999
 21
90.433587
 31
0.0
  0
LINE
  5
1D44D
330
1D245
100
AcDbEntity
  8
1
  6
Continuous
100
AcDbLine
 10
160.923324
 20
90.62615200000001
 30
0.0
 11
156.188717
 21
88.595511
 31
0.0
  0
ARC
  5
1D44E
330
1D245
100
AcDbEntity
  8
1
  6
Continuous
100
AcDbCircle
 10
162.5
 20
96.95
 30
0.0
 40
4.0
100
AcDbArc
 50
261.029825
 51
270.0
  0
ARC
  5
1D44F
330
1D245
100
AcDbEntity
  8
1
  6
Continuous
100
AcDbCircle
 10
162.5
 20
91.95
 30
0.0
 40
1.0
100
AcDbArc
 50
270.0
 51
90.0
  0
ARC
  5
1D450
330
1D245
100
AcDbEntity
  8
1
  6
Continuous
100
AcDbCircle
 10
163.15
 20
91.95
 30
0.0
 40
1.649999999999999
100
AcDbArc
 50
219.472661
 51
293.214161
  0
ARC
  5
1D451
330
1D245
100
AcDbEntity
  8
1
  6
Continuous
100
AcDbCircle
 10
163.15
 20
91.95
 30
0.0
 40
1.649999999999999
100
AcDbArc
 50
66.78583900000001
 51
144.423158
  0
ARC
  5
1D452
330
1D245
100
AcDbEntity
  8
1
  6
Continuous
100
AcDbCircle
 10
170.9
 20
86.95
 30
0.0
 40
4.0
100
AcDbArc
 50
90.0
 51
113.214161
  0
LINE
  5
1D453
330
1D245
100
AcDbEntity
  8
1
  6
Continuous
100
AcDbLine
 10
169.3233239999998
 20
90.62615200000001
 30
0.0
 11
164.5887169999998
 21
88.595511
 31
0.0
  0
ARC
  5
1D454
330
1D245
100
AcDbEntity
  8
1
  6
Continuous
100
AcDbCircle
 10
170.9
 20
86.95
 30
0.0
 40
6.0
100
AcDbArc
 50
90.0
 51
113.214161
  0
LINE
  5
1D455
330
1D245
100
AcDbEntity
  8
1
  6
Continuous
100
AcDbLine
 10
168.534986
 20
92.46422800000001
 30
0.0
 11
163.8003789999999
 21
90.433587
 31
0.0
  0
LINE
  5
1D456
330
1D245
100
AcDbEntity
  8
1
  6
Continuous
100
AcDbLine
 10
167.336021
 20
91.95
 30
0.0
 11
163.8003789999999
 21
93.46641299999999
 31
0.0
  0
ARC
  5
1D457
330
1D245
100
AcDbEntity
  8
1
  6
Continuous
100
AcDbCircle
 10
171.55
 20
91.95
 30
0.0
 40
3.649999999999999
100
AcDbArc
 50
208.5429669999999
 51
293.214161
  0
ARC
  5
1D458
330
1D245
100
AcDbEntity
  8
1
  6
Continuous
100
AcDbCircle
 10
171.55
 20
91.95
 30
0.0
 40
1.649999999999999
100
AcDbArc
 50
66.78583900000001
 51
144.423158
  0
ARC
  5
1D459
330
1D245
100
AcDbEntity
  8
1
  6
Continuous
100
AcDbCircle
 10
171.55
 20
91.95
 30
0.0
 40
1.649999999999999
100
AcDbArc
 50
219.472661
 51
293.214161
  0
ARC
  5
1D45A
330
1D245
100
AcDbEntity
  8
1
  6
Continuous
100
AcDbCircle
 10
170.9
 20
91.95
 30
0.0
 40
1.0
100
AcDbArc
 50
270.0
 51
90.0
  0
ARC
  5
1D45B
330
1D245
100
AcDbEntity
  8
1
  6
Continuous
100
AcDbCircle
 10
170.9
 20
96.95
 30
0.0
 40
4.0
100
AcDbArc
 50
261.029825
 51
270.0
  0
ARC
  5
1D45C
330
1D245
100
AcDbEntity
  8
1
  6
Continuous
100
AcDbCircle
 10
162.5
 20
86.95
 30
0.0
 40
6.0
100
AcDbArc
 50
90.0
 51
113.214161
  0
ARC
  5
1D45D
330
1D245
100
AcDbEntity
  8
1
  6
Continuous
100
AcDbCircle
 10
162.5
 20
86.95
 30
0.0
 40
4.0
100
AcDbArc
 50
90.0
 51
113.214161
  0
ARC
  5
1D45E
330
1D245
100
AcDbEntity
  8
1
  6
Continuous
100
AcDbCircle
 10
145.6999999999998
 20
96.95
 30
0.0
 40
4.0
100
AcDbArc
 50
261.029825
 51
270.0
  0
ARC
  5
1D45F
330
1D245
100
AcDbEntity
  8
1
  6
Continuous
100
AcDbCircle
 10
145.6999999999998
 20
91.95
 30
0.0
 40
1.0
100
AcDbArc
 50
270.0
 51
90.0
  0
ARC
  5
1D460
330
1D245
100
AcDbEntity
  8
1
  6
Continuous
100
AcDbCircle
 10
146.3499999999999
 20
91.95
 30
0.0
 40
1.649999999999999
100
AcDbArc
 50
219.472661
 51
293.214161
  0
ARC
  5
1D461
330
1D245
100
AcDbEntity
  8
1
  6
Continuous
100
AcDbCircle
 10
146.3499999999999
 20
91.95
 30
0.0
 40
1.649999999999999
100
AcDbArc
 50
66.78583900000001
 51
144.423158
  0
ARC
  5
1D462
330
1D245
100
AcDbEntity
  8
1
  6
Continuous
100
AcDbCircle
 10
154.0999999999999
 20
86.95
 30
0.0
 40
4.0
100
AcDbArc
 50
90.0
 51
113.214161
  0
LINE
  5
1D463
330
1D245
100
AcDbEntity
  8
1
  6
Continuous
100
AcDbLine
 10
152.523324
 20
90.62615200000001
 30
0.0
 11
147.7887169999999
 21
88.595511
 31
0.0
  0
ARC
  5
1D464
330
1D245
100
AcDbEntity
  8
1
  6
Continuous
100
AcDbCircle
 10
154.0999999999999
 20
86.95
 30
0.0
 40
6.0
100
AcDbArc
 50
90.0
 51
113.214161
  0
LINE
  5
1D465
330
1D245
100
AcDbEntity
  8
1
  6
Continuous
100
AcDbLine
 10
151.7349859999999
 20
92.46422800000001
 30
0.0
 11
147.0003789999998
 21
90.433587
 31
0.0
  0
LINE
  5
1D466
330
1D245
100
AcDbEntity
  8
1
  6
Continuous
100
AcDbLine
 10
150.536021
 20
91.95
 30
0.0
 11
147.0003789999998
 21
93.46641299999999
 31
0.0
  0
LINE
  5
1D467
330
1D245
100
AcDbEntity
  8
1
  6
Continuous
100
AcDbLine
 10
158.9360209999999
 20
91.95
 30
0.0
 11
155.4003789999999
 21
93.46641299999999
 31
0.0
  0
ARC
  5
1D468
330
1D245
100
AcDbEntity
  8
1
  6
Continuous
100
AcDbCircle
 10
154.75
 20
91.95
 30
0.0
 40
3.649999999999999
100
AcDbArc
 50
208.5429669999999
 51
293.214161
  0
ARC
  5
1D469
330
1D245
100
AcDbEntity
  8
1
  6
Continuous
100
AcDbCircle
 10
154.75
 20
91.95
 30
0.0
 40
1.649999999999999
100
AcDbArc
 50
66.78583900000001
 51
144.423158
  0
ARC
  5
1D46A
330
1D245
100
AcDbEntity
  8
1
  6
Continuous
100
AcDbCircle
 10
154.75
 20
91.95
 30
0.0
 40
1.649999999999999
100
AcDbArc
 50
219.472661
 51
293.214161
  0
ARC
  5
1D46B
330
1D245
100
AcDbEntity
  8
1
  6
Continuous
100
AcDbCircle
 10
154.0999999999999
 20
91.95
 30
0.0
 40
1.0
100
AcDbArc
 50
270.0
 51
90.0
  0
ARC
  5
1D46C
330
1D245
100
AcDbEntity
  8
1
  6
Continuous
100
AcDbCircle
 10
154.0999999999999
 20
96.95
 30
0.0
 40
4.0
100
AcDbArc
 50
261.029825
 51
270.0
  0
ARC
  5
1D46D
330
1D245
100
AcDbEntity
  8
1
  6
Continuous
100
AcDbCircle
 10
145.6999999999998
 20
86.95
 30
0.0
 40
4.0
100
AcDbArc
 50
90.0
 51
113.214161
  0
LINE
  5
1D46E
330
1D245
100
AcDbEntity
  8
1
  6
Continuous
100
AcDbLine
 10
143.1436249999999
 20
93.69403400000001
 30
0.0
 11
139.3887169999999
 21
95.30448900000001
 31
0.0
  0
LINE
  5
1D46F
330
1D245
100
AcDbEntity
  8
1
  6
Continuous
100
AcDbLine
 10
126.343625
 20
93.69403400000001
 30
0.0
 11
122.5887169999999
 21
95.30448900000001
 31
0.0
  0
ARC
  5
1D470
330
1D245
100
AcDbEntity
  8
1
  6
Continuous
100
AcDbCircle
 10
129.55
 20
91.95
 30
0.0
 40
3.649999999999999
100
AcDbArc
 50
66.78583900000001
 51
176.144464
  0
LINE
  5
1D471
330
1D245
100
AcDbEntity
  8
1
  6
Continuous
100
AcDbLine
 10
109.543625
 20
93.69403400000001
 30
0.0
 11
105.7887169999999
 21
95.30448900000001
 31
0.0
  0
ARC
  5
1D472
330
1D245
100
AcDbEntity
  8
1
  6
Continuous
100
AcDbCircle
 10
112.7499999999999
 20
91.95
 30
0.0
 40
3.649999999999999
100
AcDbArc
 50
66.78583900000001
 51
176.144464
  0
ARC
  5
1D473
330
1D245
100
AcDbEntity
  8
1
  6
Continuous
100
AcDbCircle
 10
137.9499999999999
 20
91.95
 30
0.0
 40
3.649999999999999
100
AcDbArc
 50
66.78583900000001
 51
176.144464
  0
LINE
  5
1D474
330
1D245
100
AcDbEntity
  8
1
  6
Continuous
100
AcDbLine
 10
134.743625
 20
93.69403400000001
 30
0.0
 11
130.9887169999998
 21
95.30448900000001
 31
0.0
  0
ARC
  5
1D475
330
1D245
100
AcDbEntity
  8
1
  6
Continuous
100
AcDbCircle
 10
121.15
 20
91.95
 30
0.0
 40
3.649999999999999
100
AcDbArc
 50
66.78583900000001
 51
176.144464
  0
LINE
  5
1D476
330
1D245
100
AcDbEntity
  8
1
  6
Continuous
100
AcDbLine
 10
117.9436249999999
 20
93.69403400000001
 30
0.0
 11
114.1887169999999
 21
95.30448900000001
 31
0.0
  0
LINE
  5
1D477
330
1D245
100
AcDbEntity
  8
1
  6
Continuous
100
AcDbLine
 10
101.143625
 20
93.69403400000001
 30
0.0
 11
97.388717
 21
95.30448900000001
 31
0.0
  0
ARC
  5
1D478
330
1D245
100
AcDbEntity
  8
1
  6
Continuous
100
AcDbCircle
 10
104.3499999999998
 20
91.95
 30
0.0
 40
3.649999999999999
100
AcDbArc
 50
66.78583900000001
 51
176.144464
  0
ARC
  5
1D479
330
1D245
100
AcDbEntity
  8
1
  6
Continuous
100
AcDbCircle
 10
95.95
 20
91.95
 30
0.0
 40
3.649999999999999
100
AcDbArc
 50
66.78583900000001
 51
293.214161
  0
ARC
  5
1D47A
330
1D245
100
AcDbEntity
  8
1
  6
Continuous
100
AcDbCircle
 10
112.0999999999998
 20
96.95
 30
0.0
 40
4.0
100
AcDbArc
 50
261.029825
 51
270.0
  0
ARC
  5
1D47B
330
1D245
100
AcDbEntity
  8
1
  6
Continuous
100
AcDbCircle
 10
112.7499999999999
 20
91.95
 30
0.0
 40
1.649999999999999
100
AcDbArc
 50
219.472661
 51
293.214161
  0
ARC
  5
1D47C
330
1D245
100
AcDbEntity
  8
1
  6
Continuous
100
AcDbCircle
 10
112.7499999999999
 20
91.95
 30
0.0
 40
1.649999999999999
100
AcDbArc
 50
66.78583900000001
 51
144.423158
  0
ARC
  5
1D47D
330
1D245
100
AcDbEntity
  8
1
  6
Continuous
100
AcDbCircle
 10
112.7499999999999
 20
91.95
 30
0.0
 40
3.649999999999999
100
AcDbArc
 50
208.5429669999999
 51
293.214161
  0
ARC
  5
1D47E
330
1D245
100
AcDbEntity
  8
1
  6
Continuous
100
AcDbCircle
 10
112.0999999999998
 20
86.95
 30
0.0
 40
4.0
100
AcDbArc
 50
90.0
 51
113.214161
  0
ARC
  5
1D47F
330
1D245
100
AcDbEntity
  8
1
  6
Continuous
100
AcDbCircle
 10
112.0999999999998
 20
86.95
 30
0.0
 40
6.0
100
AcDbArc
 50
90.0
 51
113.214161
  0
ARC
  5
1D480
330
1D245
100
AcDbEntity
  8
1
  6
Continuous
100
AcDbCircle
 10
129.55
 20
91.95
 30
0.0
 40
3.649999999999999
100
AcDbArc
 50
208.5429669999999
 51
293.214161
  0
ARC
  5
1D481
330
1D245
100
AcDbEntity
  8
1
  6
Continuous
100
AcDbCircle
 10
128.9
 20
86.95
 30
0.0
 40
6.0
100
AcDbArc
 50
90.0
 51
113.214161
  0
ARC
  5
1D482
330
1D245
100
AcDbEntity
  8
1
  6
Continuous
100
AcDbCircle
 10
128.9
 20
86.95
 30
0.0
 40
4.0
100
AcDbArc
 50
90.0
 51
113.214161
  0
ARC
  5
1D483
330
1D245
100
AcDbEntity
  8
1
  6
Continuous
100
AcDbCircle
 10
128.9
 20
96.95
 30
0.0
 40
4.0
100
AcDbArc
 50
261.029825
 51
270.0
  0
ARC
  5
1D484
330
1D245
100
AcDbEntity
  8
1
  6
Continuous
100
AcDbCircle
 10
128.9
 20
91.95
 30
0.0
 40
1.0
100
AcDbArc
 50
270.0
 51
90.0
  0
ARC
  5
1D485
330
1D245
100
AcDbEntity
  8
1
  6
Continuous
100
AcDbCircle
 10
129.55
 20
91.95
 30
0.0
 40
1.649999999999999
100
AcDbArc
 50
219.472661
 51
293.214161
  0
ARC
  5
1D486
330
1D245
100
AcDbEntity
  8
1
  6
Continuous
100
AcDbCircle
 10
129.55
 20
91.95
 30
0.0
 40
1.649999999999999
100
AcDbArc
 50
66.78583900000001
 51
144.423158
  0
ARC
  5
1D487
330
1D245
100
AcDbEntity
  8
1
  6
Continuous
100
AcDbCircle
 10
137.3
 20
86.95
 30
0.0
 40
4.0
100
AcDbArc
 50
90.0
 51
113.214161
  0
LINE
  5
1D488
330
1D245
100
AcDbEntity
  8
1
  6
Continuous
100
AcDbLine
 10
135.723324
 20
90.62615200000001
 30
0.0
 11
130.9887169999998
 21
88.595511
 31
0.0
  0
ARC
  5
1D489
330
1D245
100
AcDbEntity
  8
1
  6
Continuous
100
AcDbCircle
 10
137.3
 20
86.95
 30
0.0
 40
6.0
100
AcDbArc
 50
90.0
 51
113.214161
  0
LINE
  5
1D48A
330
1D245
100
AcDbEntity
  8
1
  6
Continuous
100
AcDbLine
 10
134.934986
 20
92.46422800000001
 30
0.0
 11
130.200379
 21
90.433587
 31
0.0
  0
LINE
  5
1D48B
330
1D245
100
AcDbEntity
  8
1
  6
Continuous
100
AcDbLine
 10
133.7360209999999
 20
91.95
 30
0.0
 11
130.200379
 21
93.46641299999999
 31
0.0
  0
LINE
  5
1D48C
330
1D245
100
AcDbEntity
  8
1
  6
Continuous
100
AcDbLine
 10
142.136021
 20
91.95
 30
0.0
 11
138.6003789999997
 21
93.46641299999999
 31
0.0
  0
LINE
  5
1D48D
330
1D245
100
AcDbEntity
  8
1
  6
Continuous
100
AcDbLine
 10
143.3349859999999
 20
92.46422800000001
 30
0.0
 11
138.6003789999997
 21
90.433587
 31
0.0
  0
ARC
  5
1D48E
330
1D245
100
AcDbEntity
  8
1
  6
Continuous
100
AcDbCircle
 10
137.9499999999999
 20
91.95
 30
0.0
 40
3.649999999999999
100
AcDbArc
 50
208.5429669999999
 51
293.214161
  0
ARC
  5
1D48F
330
1D245
100
AcDbEntity
  8
1
  6
Continuous
100
AcDbCircle
 10
137.9499999999999
 20
91.95
 30
0.0
 40
1.649999999999999
100
AcDbArc
 50
66.78583900000001
 51
144.423158
  0
ARC
  5
1D490
330
1D245
100
AcDbEntity
  8
1
  6
Continuous
100
AcDbCircle
 10
137.9499999999999
 20
91.95
 30
0.0
 40
1.649999999999999
100
AcDbArc
 50
219.472661
 51
293.214161
  0
ARC
  5
1D491
330
1D245
100
AcDbEntity
  8
1
  6
Continuous
100
AcDbCircle
 10
137.3
 20
91.95
 30
0.0
 40
1.0
100
AcDbArc
 50
270.0
 51
90.0
  0
ARC
  5
1D492
330
1D245
100
AcDbEntity
  8
1
  6
Continuous
100
AcDbCircle
 10
137.3
 20
96.95
 30
0.0
 40
4.0
100
AcDbArc
 50
261.029825
 51
270.0
  0
LINE
  5
1D493
330
1D245
100
AcDbEntity
  8
1
  6
Continuous
100
AcDbLine
 10
127.3233239999999
 20
90.62615200000001
 30
0.0
 11
122.5887169999999
 21
88.595511
 31
0.0
  0
ARC
  5
1D494
330
1D245
100
AcDbEntity
  8
1
  6
Continuous
100
AcDbCircle
 10
112.0999999999998
 20
91.95
 30
0.0
 40
1.0
100
AcDbArc
 50
270.0
 51
90.0
  0
ARC
  5
1D495
330
1D245
100
AcDbEntity
  8
1
  6
Continuous
100
AcDbCircle
 10
120.5
 20
86.95
 30
0.0
 40
4.0
100
AcDbArc
 50
90.0
 51
113.214161
  0
LINE
  5
1D496
330
1D245
100
AcDbEntity
  8
1
  6
Continuous
100
AcDbLine
 10
118.9233239999998
 20
90.62615200000001
 30
0.0
 11
114.1887169999999
 21
88.595511
 31
0.0
  0
ARC
  5
1D497
330
1D245
100
AcDbEntity
  8
1
  6
Continuous
100
AcDbCircle
 10
120.5
 20
86.95
 30
0.0
 40
6.0
100
AcDbArc
 50
90.0
 51
113.214161
  0
LINE
  5
1D498
330
1D245
100
AcDbEntity
  8
1
  6
Continuous
100
AcDbLine
 10
118.134986
 20
92.46422800000001
 30
0.0
 11
113.4003789999999
 21
90.433587
 31
0.0
  0
LINE
  5
1D499
330
1D245
100
AcDbEntity
  8
1
  6
Continuous
100
AcDbLine
 10
116.936021
 20
91.95
 30
0.0
 11
113.4003789999999
 21
93.46641299999999
 31
0.0
  0
LINE
  5
1D49A
330
1D245
100
AcDbEntity
  8
1
  6
Continuous
100
AcDbLine
 10
125.336021
 20
91.95
 30
0.0
 11
121.800379
 21
93.46641299999999
 31
0.0
  0
LINE
  5
1D49B
330
1D245
100
AcDbEntity
  8
1
  6
Continuous
100
AcDbLine
 10
126.534986
 20
92.46422800000001
 30
0.0
 11
121.800379
 21
90.433587
 31
0.0
  0
ARC
  5
1D49C
330
1D245
100
AcDbEntity
  8
1
  6
Continuous
100
AcDbCircle
 10
121.15
 20
91.95
 30
0.0
 40
3.649999999999999
100
AcDbArc
 50
208.5429669999999
 51
293.214161
  0
ARC
  5
1D49D
330
1D245
100
AcDbEntity
  8
1
  6
Continuous
100
AcDbCircle
 10
121.15
 20
91.95
 30
0.0
 40
1.649999999999999
100
AcDbArc
 50
66.78583900000001
 51
144.423158
  0
ARC
  5
1D49E
330
1D245
100
AcDbEntity
  8
1
  6
Continuous
100
AcDbCircle
 10
121.15
 20
91.95
 30
0.0
 40
1.649999999999999
100
AcDbArc
 50
219.472661
 51
293.214161
  0
ARC
  5
1D49F
330
1D245
100
AcDbEntity
  8
1
  6
Continuous
100
AcDbCircle
 10
120.5
 20
91.95
 30
0.0
 40
1.0
100
AcDbArc
 50
270.0
 51
90.0
  0
ARC
  5
1D4A0
330
1D245
100
AcDbEntity
  8
1
  6
Continuous
100
AcDbCircle
 10
120.5
 20
96.95
 30
0.0
 40
4.0
100
AcDbArc
 50
261.029825
 51
270.0
  0
ARC
  5
1D4A1
330
1D245
100
AcDbEntity
  8
1
  6
Continuous
100
AcDbCircle
 10
95.95
 20
91.95
 30
0.0
 40
1.649999999999999
100
AcDbArc
 50
66.78583900000001
 51
293.214161
  0
ARC
  5
1D4A2
330
1D245
100
AcDbEntity
  8
1
  6
Continuous
100
AcDbCircle
 10
103.7
 20
96.95
 30
0.0
 40
4.0
100
AcDbArc
 50
261.029825
 51
270.0
  0
ARC
  5
1D4A3
330
1D245
100
AcDbEntity
  8
1
  6
Continuous
100
AcDbCircle
 10
103.7
 20
91.95
 30
0.0
 40
1.0
100
AcDbArc
 50
270.0
 51
90.0
  0
ARC
  5
1D4A4
330
1D245
100
AcDbEntity
  8
1
  6
Continuous
100
AcDbCircle
 10
104.3499999999998
 20
91.95
 30
0.0
 40
1.649999999999999
100
AcDbArc
 50
219.472661
 51
293.214161
  0
ARC
  5
1D4A5
330
1D245
100
AcDbEntity
  8
1
  6
Continuous
100
AcDbCircle
 10
104.3499999999998
 20
91.95
 30
0.0
 40
1.649999999999999
100
AcDbArc
 50
66.78583900000001
 51
144.423158
  0
ARC
  5
1D4A6
330
1D245
100
AcDbEntity
  8
1
  6
Continuous
100
AcDbCircle
 10
104.3499999999998
 20
91.95
 30
0.0
 40
3.649999999999999
100
AcDbArc
 50
208.5429669999999
 51
293.214161
  0
LINE
  5
1D4A7
330
1D245
100
AcDbEntity
  8
1
  6
Continuous
100
AcDbLine
 10
110.523324
 20
90.62615200000001
 30
0.0
 11
105.7887169999999
 21
88.595511
 31
0.0
  0
LINE
  5
1D4A8
330
1D245
100
AcDbEntity
  8
1
  6
Continuous
100
AcDbLine
 10
109.734986
 20
92.46422800000001
 30
0.0
 11
105.000379
 21
90.433587
 31
0.0
  0
LINE
  5
1D4A9
330
1D245
100
AcDbEntity
  8
1
  6
Continuous
100
AcDbLine
 10
108.5360209999999
 20
91.95
 30
0.0
 11
105.000379
 21
93.46641299999999
 31
0.0
  0
LINE
  5
1D4AA
330
1D245
100
AcDbEntity
  8
1
  6
Continuous
100
AcDbLine
 10
100.136021
 20
91.95
 30
0.0
 11
96.600379
 21
93.46641299999999
 31
0.0
  0
LINE
  5
1D4AB
330
1D245
100
AcDbEntity
  8
1
  6
Continuous
100
AcDbLine
 10
101.3349859999999
 20
92.46422800000001
 30
0.0
 11
96.600379
 21
90.433587
 31
0.0
  0
ARC
  5
1D4AC
330
1D245
100
AcDbEntity
  8
1
  6
Continuous
100
AcDbCircle
 10
103.7
 20
86.95
 30
0.0
 40
6.0
100
AcDbArc
 50
90.0
 51
113.214161
  0
LINE
  5
1D4AD
330
1D245
100
AcDbEntity
  8
1
  6
Continuous
100
AcDbLine
 10
102.1233239999999
 20
90.62615200000001
 30
0.0
 11
97.388717
 21
88.595511
 31
0.0
  0
ARC
  5
1D4AE
330
1D245
100
AcDbEntity
  8
1
  6
Continuous
100
AcDbCircle
 10
103.7
 20
86.95
 30
0.0
 40
4.0
100
AcDbArc
 50
90.0
 51
113.214161
  0
ARC
  5
1D4AF
330
1D245
100
AcDbEntity
  8
1
  6
Continuous
100
AcDbCircle
 10
361.2
 20
46.95
 30
0.0
 40
1.35
100
AcDbArc
 50
0.0
 51
105.270002
  0
ARC
  5
1D4B0
330
1D245
100
AcDbEntity
  8
1
  6
Continuous
100
AcDbCircle
 10
359.8999999999999
 20
45.65
 30
0.0
 40
2.0
100
AcDbArc
 50
123.890387
 51
270.0
  0
ARC
  5
1D4B1
330
1D245
100
AcDbEntity
  8
1
  6
Continuous
100
AcDbCircle
 10
362.6880289999999
 20
41.499471
 30
0.0
 40
7.0
100
AcDbArc
 50
105.270002
 51
123.890387
  0
ARC
  5
1D4B2
330
1D245
100
AcDbEntity
  8
1
  6
Continuous
100
AcDbCircle
 10
362.6880289999999
 20
41.499471
 30
0.0
 40
5.0
100
AcDbArc
 50
115.3157169999999
 51
124.750143
  0
ARC
  5
1D4B3
330
1D245
100
AcDbEntity
  8
1
  6
Continuous
100
AcDbCircle
 10
360.1499999999999
 20
46.234175
 30
0.0
 40
0.4
100
AcDbArc
 50
0.0
 51
90.0
  0
ARC
  5
1D4B4
330
1D245
100
AcDbEntity
  8
1
  6
Continuous
100
AcDbCircle
 10
360.2628629999998
 20
44.995314
 30
0.0
 40
0.7453140000000003
100
AcDbArc
 50
124.750143
 51
256.453841
  0
ARC
  5
1D4B5
330
1D245
100
AcDbEntity
  8
1
  6
Continuous
100
AcDbCircle
 10
361.8999999999999
 20
42.35
 30
0.0
 40
1.35
100
AcDbArc
 50
180.0
 51
285.2700019999998
  0
ARC
  5
1D4B6
330
1D245
100
AcDbEntity
  8
1
  6
Continuous
100
AcDbCircle
 10
360.4119709999998
 20
47.800529
 30
0.0
 40
7.0
100
AcDbArc
 50
285.2700019999998
 51
303.890387
  0
ARC
  5
1D4B7
330
1D245
100
AcDbEntity
  8
1
  6
Continuous
100
AcDbCircle
 10
362.95
 20
43.065825
 30
0.0
 40
0.4
100
AcDbArc
 50
180.0
 51
270.0
  0
ARC
  5
1D4B8
330
1D245
100
AcDbEntity
  8
1
  6
Continuous
100
AcDbCircle
 10
360.4119709999998
 20
47.800529
 30
0.0
 40
5.0
100
AcDbArc
 50
295.315717
 51
304.750143
  0
ARC
  5
1D4B9
330
1D245
100
AcDbEntity
  8
1
  6
Continuous
100
AcDbCircle
 10
363.2
 20
43.65
 30
0.0
 40
2.0
100
AcDbArc
 50
303.890387
 51
90.0
  0
ARC
  5
1D4BA
330
1D245
100
AcDbEntity
  8
1
  6
Continuous
100
AcDbCircle
 10
362.8371369999999
 20
44.304686
 30
0.0
 40
0.7453140000000003
100
AcDbArc
 50
304.750143
 51
76.45384099999998
  0
ARC
  5
1D4BB
330
1D245
100
AcDbEntity
  8
1
  6
Continuous
100
AcDbCircle
 10
28.3
 20
42.35
 30
0.0
 40
1.35
100
AcDbArc
 50
254.729998
 51
0.0
  0
ARC
  5
1D4BC
330
1D245
100
AcDbEntity
  8
1
  6
Continuous
100
AcDbCircle
 10
27.0
 20
43.65
 30
0.0
 40
2.0
100
AcDbArc
 50
90.0
 51
236.1096129999999
  0
LINE
  5
1D4BD
330
1D245
100
AcDbEntity
  8
4
  6
CENTER
100
AcDbLine
 10
28.65
 20
51.285897
 30
0.0
 11
28.65
 21
38.014103
 31
0.0
  0
ARC
  5
1D4BE
330
1D245
100
AcDbEntity
  8
1
  6
Continuous
100
AcDbCircle
 10
29.78802899999999
 20
47.800529
 30
0.0
 40
7.0
100
AcDbArc
 50
236.1096129999999
 51
254.729998
  0
ARC
  5
1D4BF
330
1D245
100
AcDbEntity
  8
1
  6
Continuous
100
AcDbCircle
 10
30.3
 20
45.65
 30
0.0
 40
2.0
100
AcDbArc
 50
270.0
 51
56.109613
  0
LINE
  5
1D4C0
330
1D245
100
AcDbEntity
  8
4
  6
CENTER
100
AcDbLine
 10
35.198979
 20
44.64999999999998
 30
0.0
 11
22.10102099999998
 21
44.64999999999998
 31
0.0
  0
ARC
  5
1D4C1
330
1D245
100
AcDbEntity
  8
1
  6
Continuous
100
AcDbCircle
 10
27.51197100000001
 20
41.499471
 30
0.0
 40
7.0
100
AcDbArc
 50
56.109613
 51
74.72999799999998
  0
ARC
  5
1D4C2
330
1D245
100
AcDbEntity
  8
1
  6
Continuous
100
AcDbCircle
 10
29.0
 20
46.95
 30
0.0
 40
1.35
100
AcDbArc
 50
74.72999799999998
 51
180.0
  0
LINE
  5
1D4C3
330
1D245
100
AcDbEntity
  8
1
  6
Continuous
100
AcDbLine
 10
27.0
 20
45.65
 30
0.0
 11
30.686832
 21
45.65
 31
0.0
  0
ARC
  5
1D4C4
330
1D245
100
AcDbEntity
  8
1
  6
Continuous
100
AcDbCircle
 10
27.51197100000001
 20
41.499471
 30
0.0
 40
5.0
100
AcDbArc
 50
56.109613
 51
73.72060600000001
  0
LINE
  5
1D4C5
330
1D245
100
AcDbEntity
  8
1
  6
Continuous
100
AcDbLine
 10
30.3
 20
43.65
 30
0.0
 11
26.61316799999999
 21
43.65
 31
0.0
  0
LINE
  5
1D4C6
330
1D245
100
AcDbEntity
  8
1
  6
Continuous
100
AcDbLine
 10
29.64999999999999
 20
46.01929699999998
 30
0.0
 11
29.64999999999999
 21
45.65
 31
0.0
  0
ARC
  5
1D4C7
330
1D245
100
AcDbEntity
  8
1
  6
Continuous
100
AcDbCircle
 10
30.686832
 20
46.04999999999999
 30
0.0
 40
0.4
100
AcDbArc
 50
270.0
 51
0.0
  0
LINE
  5
1D4C8
330
1D245
100
AcDbEntity
  8
1
  6
Continuous
100
AcDbLine
 10
29.64999999999999
 20
43.65
 30
0.0
 11
29.64999999999999
 21
42.35
 31
0.0
  0
LINE
  5
1D4C9
330
1D245
100
AcDbEntity
  8
1
  6
Continuous
100
AcDbLine
 10
27.65
 20
43.280703
 30
0.0
 11
27.65
 21
43.65
 31
0.0
  0
ARC
  5
1D4CA
330
1D245
100
AcDbEntity
  8
1
  6
Continuous
100
AcDbCircle
 10
28.77341799999999
 20
45.819049
 30
0.0
 40
0.5
100
AcDbArc
 50
73.72060600000001
 51
180.0
  0
ARC
  5
1D4CB
330
1D245
100
AcDbEntity
  8
1
  6
Continuous
100
AcDbCircle
 10
29.78802899999999
 20
47.800529
 30
0.0
 40
5.0
100
AcDbArc
 50
236.1096129999999
 51
253.7206059999999
  0
ARC
  5
1D4CC
330
1D245
100
AcDbEntity
  8
1
  6
Continuous
100
AcDbCircle
 10
26.61316799999999
 20
43.25
 30
0.0
 40
0.4
100
AcDbArc
 50
90.0
 51
180.0
  0
ARC
  5
1D4CD
330
1D245
100
AcDbEntity
  8
1
  6
Continuous
100
AcDbCircle
 10
28.526582
 20
43.480951
 30
0.0
 40
0.5
100
AcDbArc
 50
253.7206059999999
 51
0.0
  0
LINE
  5
1D4CE
330
1D245
100
AcDbEntity
  8
1
  6
Continuous
100
AcDbLine
 10
27.65
 20
45.65
 30
0.0
 11
27.65
 21
46.95
 31
0.0
  0
ENDSEC
  0
SECTION
  2
OBJECTS
  0
DICTIONARY
  5
1D233
330
0
100
AcDbDictionary
281
     1
  3
ACAD_CIP_PREVIOUS_PRODUCT_INFO
350
1D52E
  3
ACAD_COLOR
350
1D510
  3
ACAD_DETAILVIEWSTYLE
350
1D529
  3
ACAD_GROUP
350
1D234
  3
ACAD_LAYOUT
350
1D240
  3
ACAD_MATERIAL
350
1D4DE
  3
ACAD_MLEADERSTYLE
350
1D525
  3
ACAD_MLINESTYLE
350
1D23D
  3
ACAD_PLOTSETTINGS
350
1D23F
  3
ACAD_PLOTSTYLENAME
350
1D4DC
  3
ACAD_SCALELIST
350
1D513
  3
ACAD_SECTIONVIEWSTYLE
350
1D527
  3
ACAD_TABLESTYLE
350
1D511
  3
ACAD_VISUALSTYLE
350
1D4F7
  3
ACDB_RECOMPOSE_DATA
350
1D54C
  3
AcDbVariableDictionary
350
1D53F
  3
DWGPROPS
350
1D54D
  0
DICTIONARY
  5
1D52F
330
1D237
100
AcDbDictionary
280
     1
281
     1
  3
ADSK_XREC_LAYER_RECONCILED
360
1D530
  0
DICTIONARY
  5
1D531
330
1D24D
100
AcDbDictionary
280
     1
281
     1
  3
ADSK_XREC_LAYER_RECONCILED
360
1D532
  0
DICTIONARY
  5
1D533
330
1D24E
100
AcDbDictionary
280
     1
281
     1
  3
ADSK_XREC_LAYER_RECONCILED
360
1D534
  0
DICTIONARY
  5
1D535
330
1D24F
100
AcDbDictionary
280
     1
281
     1
  3
ADSK_XREC_LAYER_RECONCILED
360
1D536
  0
DICTIONARY
  5
1D537
330
1D250
100
AcDbDictionary
280
     1
281
     1
  3
ADSK_XREC_LAYER_RECONCILED
360
1D538
  0
DICTIONARY
  5
1D539
330
1D251
100
AcDbDictionary
280
     1
281
     1
  3
ADSK_XREC_LAYER_RECONCILED
360
1D53A
  0
DICTIONARY
  5
1D53B
330
1D252
100
AcDbDictionary
280
     1
281
     1
  3
ADSK_XREC_LAYER_RECONCILED
360
1D53C
  0
DICTIONARY
  5
1D53D
330
1D253
100
AcDbDictionary
280
     1
281
     1
  3
ADSK_XREC_LAYER_RECONCILED
360
1D53E
  0
DICTIONARY
  5
1D4D7
330
1D245
100
AcDbDictionary
281
     1
  3
ACAD_LAYOUTSELFREF
350
1D4D8
  0
DICTIONARY
  5
1D4D5
330
1D241
100
AcDbDictionary
281
     1
  3
ACAD_LAYOUTSELFREF
350
1D4D6
  0
XRECORD
  5
1D52E
102
{ACAD_REACTORS
330
1D233
102
}
330
1D233
100
AcDbXrecord
280
     1
300
ACDLT
300
2014
300
ACDLT_F_S
  0
DICTIONARY
  5
1D510
102
{ACAD_REACTORS
330
1D233
102
}
330
1D233
100
AcDbDictionary
281
     1
  0
DICTIONARY
  5
1D529
102
{ACAD_REACTORS
330
1D233
102
}
330
1D233
100
AcDbDictionary
281
     1
  3
Imperial24
350
1D52A
  0
DICTIONARY
  5
1D234
102
{ACAD_REACTORS
330
1D233
102
}
330
1D233
100
AcDbDictionary
281
     1
  0
DICTIONARY
  5
1D240
102
{ACAD_REACTORS
330
1D233
102
}
330
1D233
100
AcDbDictionary
281
     1
  3
Model
350
1D52B
  3
レイアウト1
350
1D52C
  0
DICTIONARY
  5
1D4DE
102
{ACAD_REACTORS
330
1D233
102
}
330
1D233
100
AcDbDictionary
281
     1
  3
ByBlock
350
1D4E7
  3
ByLayer
350
1D4DF
  3
Global
350
1D4EF
  0
DICTIONARY
  5
1D525
102
{ACAD_REACTORS
330
1D233
102
}
330
1D233
100
AcDbDictionary
281
     1
  3
Standard
350
1D526
  0
DICTIONARY
  5
1D23D
102
{ACAD_REACTORS
330
1D233
102
}
330
1D233
100
AcDbDictionary
281
     1
  3
STANDARD
350
1D23E
  0
DICTIONARY
  5
1D23F
102
{ACAD_REACTORS
330
1D233
102
}
330
1D233
100
AcDbDictionary
281
     1
  0
ACDBDICTIONARYWDFLT
  5
1D4DC
102
{ACAD_REACTORS
330
1D233
102
}
330
1D233
100
AcDbDictionary
281
     1
  3
Normal
350
1D4DD
100
AcDbDictionaryWithDefault
340
1D4DD
  0
DICTIONARY
  5
1D513
102
{ACAD_REACTORS
330
1D233
102
}
330
1D233
100
AcDbDictionary
281
     1
  3
A0
350
1D514
  3
A1
350
1D515
  3
A2
350
1D516
  3
A3
350
1D517
  3
A4
350
1D518
  3
A5
350
1D519
  3
A6
350
1D51A
  3
A7
350
1D51B
  3
A8
350
1D51C
  3
A9
350
1D51D
  3
B0
350
1D51E
  3
B1
350
1D51F
  3
B2
350
1D520
  3
B3
350
1D521
  3
B4
350
1D522
  3
B5
350
1D523
  3
B6
350
1D524
  0
DICTIONARY
  5
1D527
102
{ACAD_REACTORS
330
1D233
102
}
330
1D233
100
AcDbDictionary
281
     1
  3
Imperial24
350
1D528
  0
DICTIONARY
  5
1D511
102
{ACAD_REACTORS
330
1D233
102
}
330
1D233
100
AcDbDictionary
281
     1
  3
Standard
350
1D512
  0
DICTIONARY
  5
1D4F7
102
{ACAD_REACTORS
330
1D233
102
}
330
1D233
100
AcDbDictionary
281
     1
  3
2dWireframe
350
1D4FD
  3
Basic
350
1D4FC
  3
Brighten
350
1D503
  3
ColorChange
350
1D507
  3
Conceptual
350
1D500
  3
Dim
350
1D502
  3
EdgeColorOff
350
1D50F
  3
Facepattern
350
1D506
  3
Flat
350
1D4F8
  3
FlatWithEdges
350
1D4F9
  3
Gouraud
350
1D4FA
  3
GouraudWithEdges
350
1D4FB
  3
Hidden
350
1D4FF
  3
JitterOff
350
1D50D
  3
Linepattern
350
1D505
  3
OverhangOff
350
1D50E
  3
Realistic
350
1D501
  3
Shaded
350
1D50C
  3
Shaded with edges
350
1D50B
  3
Shades of Gray
350
1D508
  3
Sketchy
350
1D509
  3
Thicken
350
1D504
  3
Wireframe
350
1D4FE
  3
X-Ray
350
1D50A
  0
XRECORD
  5
1D54C
102
{ACAD_REACTORS
330
1D233
102
}
330
1D233
100
AcDbXrecord
280
     1
 90
        1
330
1D512
  0
DICTIONARY
  5
1D53F
102
{ACAD_REACTORS
330
1D233
102
}
330
1D233
100
AcDbDictionary
281
     1
  3
CANNOSCALE
350
1D544
  3
CMLEADERSTYLE
350
1D541
  3
CTABLESTYLE
350
1D540
  3
CVIEWDETAILSTYLE
350
1D542
  3
CVIEWSECTIONSTYLE
350
1D543
  3
DIMASSOC
350
1D547
  3
INDEXCTL
350
1D546
  3
SORTENTS
350
1D545
  3
XCLIPFRAME
350
1D548
  0
XRECORD
  5
1D54D
102
{ACAD_REACTORS
330
1D233
102
}
330
1D233
100
AcDbXrecord
280
     1
  1
DWGPROPS COOKIE
  2

  3

  4

  6

  7

  8
Yoshitsune
  9

300
=
301
=
302
=
303
=
304
=
305
=
306
=
307
=
308
=
309
=
 40
0.0000114583333333
 41
2451285.442495949
 42
2457192.656769248
  1

 90
        0
  0
XRECORD
  5
1D530
102
{ACAD_REACTORS
330
1D52F
102
}
330
1D52F
100
AcDbXrecord
280
     1
290
     1
  0
XRECORD
  5
1D532
102
{ACAD_REACTORS
330
1D531
102
}
330
1D531
100
AcDbXrecord
280
     1
290
     1
  0
XRECORD
  5
1D534
102
{ACAD_REACTORS
330
1D533
102
}
330
1D533
100
AcDbXrecord
280
     1
290
     1
  0
XRECORD
  5
1D536
102
{ACAD_REACTORS
330
1D535
102
}
330
1D535
100
AcDbXrecord
280
     1
290
     1
  0
XRECORD
  5
1D538
102
{ACAD_REACTORS
330
1D537
102
}
330
1D537
100
AcDbXrecord
280
     1
290
     1
  0
XRECORD
  5
1D53A
102
{ACAD_REACTORS
330
1D539
102
}
330
1D539
100
AcDbXrecord
280
     1
290
     1
  0
XRECORD
  5
1D53C
102
{ACAD_REACTORS
330
1D53B
102
}
330
1D53B
100
AcDbXrecord
280
     1
290
     1
  0
XRECORD
  5
1D53E
102
{ACAD_REACTORS
330
1D53D
102
}
330
1D53D
100
AcDbXrecord
280
     1
290
     1
  0
XRECORD
  5
1D4D8
102
{ACAD_REACTORS
330
1D4D7
102
}
330
1D4D7
100
AcDbXrecord
280
     1
340
1D245
  0
XRECORD
  5
1D4D6
102
{ACAD_REACTORS
330
1D4D5
102
}
330
1D4D5
100
AcDbXrecord
280
     1
340
1D241
  0
ACDBDETAILVIEWSTYLE
  5
1D52A
102
{ACAD_XDICTIONARY
360
1D585
102
}
102
{ACAD_REACTORS
330
1D529
102
}
330
1D529
100
AcDbModelDocViewStyle
 70
     0
  3
Imperial24
290
     0
100
AcDbDetailViewStyle
 70
     0
 71
     0
 90
        3
 71
     1
340
1D238
 40
0.24
340
0
 40
0.24
300

 40
0.36
280
     3
 71
     2
340
1D23C
 90
       25
 71
     3
340
1D238
 40
0.24
 90
        1
 40
0.75
 90
        1
300
%<\AcVar ViewType \f "%tc1">% %<\AcVar ViewDetailId>%\PSCALE %<\AcVar ViewScale \f "%sn">%
 71
     4
340
1D23C
 90
       25
340
1D23C
 90
       25
280
     0
  0
LAYOUT
  5
1D52B
102
{ACAD_XDICTIONARY
360
1D587
102
}
102
{ACAD_REACTORS
330
1D240
102
}
330
1D240
100
AcDbPlotSettings
  1

  2
Canon LBP9100C
  4

  6

 40
0.0
 41
0.0
 42
0.0
 43
0.0
 44
0.0
 45
0.0
 46
0.0
 47
0.0
 48
0.0
 49
0.0
140
0.0
141
0.0
142
1.0
143
1.0
 70
  1712
 72
     0
 73
     0
 74
     0
  7

 75
     0
147
1.0
148
0.0
149
0.0
100
AcDbLayout
  1
Model
 70
     1
 71
     0
 10
0.0
 20
0.0
 11
12.0
 21
9.0
 12
0.0
 22
0.0
 32
0.0
 14
0.0
 24
0.0
 34
0.0
 15
0.0
 25
0.0
 35
0.0
146
0.0
 13
0.0
 23
0.0
 33
0.0
 16
1.0
 26
0.0
 36
0.0
 17
0.0
 27
1.0
 37
0.0
 76
     0
330
1D245
331
1D4D4
  0
LAYOUT
  5
1D52C
102
{ACAD_XDICTIONARY
360
1D589
102
}
102
{ACAD_REACTORS
330
1D240
102
}
330
1D240
100
AcDbPlotSettings
  1

  2
Canon LBP9100C
  4

  6

 40
0.0
 41
0.0
 42
0.0
 43
0.0
 44
0.0
 45
0.0
 46
0.0
 47
0.0
 48
0.0
 49
0.0
140
0.0
141
0.0
142
1.0
143
1.0
 70
   688
 72
     0
 73
     0
 74
     5
  7

 75
    16
147
1.0
148
0.0
149
0.0
100
AcDbLayout
  1
レイアウト1
 70
     0
 71
     1
 10
0.0
 20
0.0
 11
420.0
 21
297.0
 12
0.0
 22
0.0
 32
0.0
 14
1.000000000000000E+20
 24
1.000000000000000E+20
 34
1.000000000000000E+20
 15
-1.000000000000000E+20
 25
-1.000000000000000E+20
 35
-1.000000000000000E+20
146
0.0
 13
0.0
 23
0.0
 33
0.0
 16
1.0
 26
0.0
 36
0.0
 17
0.0
 27
1.0
 37
0.0
 76
     0
330
1D241
  0
MATERIAL
  5
1D4E7
102
{ACAD_XDICTIONARY
360
1D4E8
102
}
102
{ACAD_REACTORS
330
1D4DE
102
}
330
1D4DE
100
AcDbMaterial
  1
ByBlock
 72
     0
 43
0.0208333333333333
 43
0.0
 43
0.0
 43
0.0
 43
0.0
 43
0.0208333333333333
 43
0.0
 43
0.0
 43
0.0
 43
0.0
 43
1.0
 43
0.0
 43
0.0
 43
0.0
 43
0.0
 43
1.0
 77
     0
 47
0.0208333333333333
 47
0.0
 47
0.0
 47
0.0
 47
0.0
 47
0.0208333333333333
 47
0.0
 47
0.0
 47
0.0
 47
0.0
 47
1.0
 47
0.0
 47
0.0
 47
0.0
 47
0.0
 47
1.0
171
     0
 49
0.0208333333333333
 49
0.0
 49
0.0
 49
0.0
 49
0.0
 49
0.0208333333333333
 49
0.0
 49
0.0
 49
0.0
 49
0.0
 49
1.0
 49
0.0
 49
0.0
 49
0.0
 49
0.0
 49
1.0
175
     0
142
0.0208333333333333
142
0.0
142
0.0
142
0.0
142
0.0
142
0.0208333333333333
142
0.0
142
0.0
142
0.0
142
0.0
142
1.0
142
0.0
142
0.0
142
0.0
142
0.0
142
1.0
179
     0
144
0.0208333333333333
144
0.0
144
0.0
144
0.0
144
0.0
144
0.0208333333333333
144
0.0
144
0.0
144
0.0
144
0.0
144
1.0
144
0.0
144
0.0
144
0.0
144
0.0
144
1.0
147
0.0208333333333333
147
0.0
147
0.0
147
0.0
147
0.0
147
0.0208333333333333
147
0.0
147
0.0
147
0.0
147
0.0
147
1.0
147
0.0
147
0.0
147
0.0
147
0.0
147
1.0
  0
MATERIAL
  5
1D4DF
102
{ACAD_XDICTIONARY
360
1D4E0
102
}
102
{ACAD_REACTORS
330
1D4DE
102
}
330
1D4DE
100
AcDbMaterial
  1
ByLayer
 72
     0
 43
0.0208333333333333
 43
0.0
 43
0.0
 43
0.0
 43
0.0
 43
0.0208333333333333
 43
0.0
 43
0.0
 43
0.0
 43
0.0
 43
1.0
 43
0.0
 43
0.0
 43
0.0
 43
0.0
 43
1.0
 77
     0
 47
0.0208333333333333
 47
0.0
 47
0.0
 47
0.0
 47
0.0
 47
0.0208333333333333
 47
0.0
 47
0.0
 47
0.0
 47
0.0
 47
1.0
 47
0.0
 47
0.0
 47
0.0
 47
0.0
 47
1.0
171
     0
 49
0.0208333333333333
 49
0.0
 49
0.0
 49
0.0
 49
0.0
 49
0.0208333333333333
 49
0.0
 49
0.0
 49
0.0
 49
0.0
 49
1.0
 49
0.0
 49
0.0
 49
0.0
 49
0.0
 49
1.0
175
     0
142
0.0208333333333333
142
0.0
142
0.0
142
0.0
142
0.0
142
0.0208333333333333
142
0.0
142
0.0
142
0.0
142
0.0
142
1.0
142
0.0
142
0.0
142
0.0
142
0.0
142
1.0
179
     0
144
0.0208333333333333
144
0.0
144
0.0
144
0.0
144
0.0
144
0.0208333333333333
144
0.0
144
0.0
144
0.0
144
0.0
144
1.0
144
0.0
144
0.0
144
0.0
144
0.0
144
1.0
147
0.0208333333333333
147
0.0
147
0.0
147
0.0
147
0.0
147
0.0208333333333333
147
0.0
147
0.0
147
0.0
147
0.0
147
1.0
147
0.0
147
0.0
147
0.0
147
0.0
147
1.0
  0
MATERIAL
  5
1D4EF
102
{ACAD_XDICTIONARY
360
1D4F0
102
}
102
{ACAD_REACTORS
330
1D4DE
102
}
330
1D4DE
100
AcDbMaterial
  1
Global
 72
     0
 43
0.0208333333333333
 43
0.0
 43
0.0
 43
0.0
 43
0.0
 43
0.0208333333333333
 43
0.0
 43
0.0
 43
0.0
 43
0.0
 43
1.0
 43
0.0
 43
0.0
 43
0.0
 43
0.0
 43
1.0
 77
     0
 47
0.0208333333333333
 47
0.0
 47
0.0
 47
0.0
 47
0.0
 47
0.0208333333333333
 47
0.0
 47
0.0
 47
0.0
 47
0.0
 47
1.0
 47
0.0
 47
0.0
 47
0.0
 47
0.0
 47
1.0
171
     0
 49
0.0208333333333333
 49
0.0
 49
0.0
 49
0.0
 49
0.0
 49
0.0208333333333333
 49
0.0
 49
0.0
 49
0.0
 49
0.0
 49
1.0
 49
0.0
 49
0.0
 49
0.0
 49
0.0
 49
1.0
175
     0
142
0.0208333333333333
142
0.0
142
0.0
142
0.0
142
0.0
142
0.0208333333333333
142
0.0
142
0.0
142
0.0
142
0.0
142
1.0
142
0.0
142
0.0
142
0.0
142
0.0
142
1.0
179
     0
144
0.0208333333333333
144
0.0
144
0.0
144
0.0
144
0.0
144
0.0208333333333333
144
0.0
144
0.0
144
0.0
144
0.0
144
1.0
144
0.0
144
0.0
144
0.0
144
0.0
144
1.0
147
0.0208333333333333
147
0.0
147
0.0
147
0.0
147
0.0
147
0.0208333333333333
147
0.0
147
0.0
147
0.0
147
0.0
147
1.0
147
0.0
147
0.0
147
0.0
147
0.0
147
1.0
  0
MLEADERSTYLE
  5
1D526
102
{ACAD_REACTORS
330
1D525
102
}
330
1D525
100
AcDbMLeaderStyle
170
     2
171
     1
172
     0
 90
        2
 40
0.0
 41
0.0
173
     1
 91
-1056964608
340
1D23A
 92
       -2
290
     1
 42
0.09
291
     1
 43
0.36
  3
Standard
 44
0.18
300

342
1D238
174
     1
178
     6
175
     1
176
     0
 93
-1056964608
 45
0.18
292
     0
297
     0
 46
0.18
 94
-1056964608
 47
1.0
 49
1.0
140
1.0
293
     1
141
0.0
294
     1
177
     0
142
1.0
295
     0
296
     0
143
0.125
1001
ACAD_MLEADERVER
1070
     2
  0
MLINESTYLE
  5
1D23E
102
{ACAD_REACTORS
330
1D23D
102
}
330
1D23D
100
AcDbMlineStyle
  2
STANDARD
 70
     0
  3

 62
   256
 51
90.0
 52
90.0
 71
     2
 49
0.5
 62
   256
  6
BYLAYER
 49
-0.5
 62
   256
  6
BYLAYER
  0
ACDBPLACEHOLDER
  5
1D4DD
102
{ACAD_REACTORS
330
1D4DC
102
}
330
1D4DC
  0
SCALE
  5
1D514
102
{ACAD_REACTORS
330
1D513
102
}
330
1D513
100
AcDbScale
 70
     0
300
1:1
140
1.0
141
1.0
290
     1
  0
SCALE
  5
1D515
102
{ACAD_REACTORS
330
1D513
102
}
330
1D513
100
AcDbScale
 70
     0
300
1/128" = 1'-0"
140
0.0078125
141
12.0
290
     0
  0
SCALE
  5
1D516
102
{ACAD_REACTORS
330
1D513
102
}
330
1D513
100
AcDbScale
 70
     0
300
1/64" = 1'-0"
140
0.015625
141
12.0
290
     0
  0
SCALE
  5
1D517
102
{ACAD_REACTORS
330
1D513
102
}
330
1D513
100
AcDbScale
 70
     0
300
1/32" = 1'-0"
140
0.03125
141
12.0
290
     0
  0
SCALE
  5
1D518
102
{ACAD_REACTORS
330
1D513
102
}
330
1D513
100
AcDbScale
 70
     0
300
1/16" = 1'-0"
140
0.0625
141
12.0
290
     0
  0
SCALE
  5
1D519
102
{ACAD_REACTORS
330
1D513
102
}
330
1D513
100
AcDbScale
 70
     0
300
3/32" = 1'-0"
140
0.09375
141
12.0
290
     0
  0
SCALE
  5
1D51A
102
{ACAD_REACTORS
330
1D513
102
}
330
1D513
100
AcDbScale
 70
     0
300
1/8" = 1'-0"
140
0.125
141
12.0
290
     0
  0
SCALE
  5
1D51B
102
{ACAD_REACTORS
330
1D513
102
}
330
1D513
100
AcDbScale
 70
     0
300
3/16" = 1'-0"
140
0.1875
141
12.0
290
     0
  0
SCALE
  5
1D51C
102
{ACAD_REACTORS
330
1D513
102
}
330
1D513
100
AcDbScale
 70
     0
300
1/4" = 1'-0"
140
0.25
141
12.0
290
     0
  0
SCALE
  5
1D51D
102
{ACAD_REACTORS
330
1D513
102
}
330
1D513
100
AcDbScale
 70
     0
300
3/8" = 1'-0"
140
0.375
141
12.0
290
     0
  0
SCALE
  5
1D51E
102
{ACAD_REACTORS
330
1D513
102
}
330
1D513
100
AcDbScale
 70
     0
300
1/2" = 1'-0"
140
0.5
141
12.0
290
     0
  0
SCALE
  5
1D51F
102
{ACAD_REACTORS
330
1D513
102
}
330
1D513
100
AcDbScale
 70
     0
300
3/4" = 1'-0"
140
0.75
141
12.0
290
     0
  0
SCALE
  5
1D520
102
{ACAD_REACTORS
330
1D513
102
}
330
1D513
100
AcDbScale
 70
     0
300
1" = 1'-0"
140
1.0
141
12.0
290
     0
  0
SCALE
  5
1D521
102
{ACAD_REACTORS
330
1D513
102
}
330
1D513
100
AcDbScale
 70
     0
300
1-1/2" = 1'-0"
140
1.5
141
12.0
290
     0
  0
SCALE
  5
1D522
102
{ACAD_REACTORS
330
1D513
102
}
330
1D513
100
AcDbScale
 70
     0
300
3" = 1'-0"
140
3.0
141
12.0
290
     0
  0
SCALE
  5
1D523
102
{ACAD_REACTORS
330
1D513
102
}
330
1D513
100
AcDbScale
 70
     0
300
6" = 1'-0"
140
6.0
141
12.0
290
     0
  0
SCALE
  5
1D524
102
{ACAD_REACTORS
330
1D513
102
}
330
1D513
100
AcDbScale
 70
     0
300
1'-0" = 1'-0"
140
12.0
141
12.0
290
     0
  0
ACDBSECTIONVIEWSTYLE
  5
1D528
102
{ACAD_XDICTIONARY
360
1D583
102
}
102
{ACAD_REACTORS
330
1D527
102
}
330
1D527
100
AcDbModelDocViewStyle
 70
     0
  3
Imperial24
290
     0
100
AcDbSectionViewStyle
 70
     0
 71
     0
 90
       78
 71
     1
340
1D238
 40
0.24
340
0
340
0
 40
0.24
300
I, O, Q, S, X, Z
 40
0.48
 90
        3
 40
0.18
 90
        1
 71
     2
340
1D23C
 90
       25
340
1D23C
 90
       50
 40
0.24
 40
0.0
 40
0.24
 71
     3
340
1D238
 40
0.24
 90
        1
 40
0.75
 90
        1
300
%<\AcVar ViewType \f "%tc1">% %<\AcVar ViewSectionStartId>%-%<\AcVar ViewSectionEndId>%\PSCALE %<\AcVar ViewScale \f "%sn">%
 71
     4
300
ANSI31
 40
1.0
 90
        0
290
     0
290
     0
 90
        6
 40
0.0
 40
1.570796326794896
 40
0.2617993877991494
 40
1.308996938995747
 40
-0.2617993877991494
 40
1.832595714594046
  0
TABLESTYLE
  5
1D512
102
{ACAD_XDICTIONARY
360
1D54A
102
}
102
{ACAD_REACTORS
330
1D511
102
}
330
1D511
100
AcDbTableStyle
  3
Standard
 70
     0
 71
     0
 40
0.06
 41
0.06
280
     0
281
     0
  7
STANDARD
140
0.18
170
     2
 62
     0
 63
     7
283
     0
274
    -2
284
     1
 64
     0
275
    -2
285
     1
 65
     0
276
    -2
286
     1
 66
     0
277
    -2
287
     1
 67
     0
278
    -2
288
     1
 68
     0
279
    -2
289
     1
 69
     0
  7
STANDARD
140
0.25
170
     5
 62
     0
 63
     7
283
     0
274
    -2
284
     1
 64
     0
275
    -2
285
     1
 65
     0
276
    -2
286
     1
 66
     0
277
    -2
287
     1
 67
     0
278
    -2
288
     1
 68
     0
279
    -2
289
     1
 69
     0
  7
STANDARD
140
0.18
170
     5
 62
     0
 63
     7
283
     0
274
    -2
284
     1
 64
     0
275
    -2
285
     1
 65
     0
276
    -2
286
     1
 66
     0
277
    -2
287
     1
 67
     0
278
    -2
288
     1
 68
     0
279
    -2
289
     1
 69
     0
  0
VISUALSTYLE
  5
1D4FD
102
{ACAD_XDICTIONARY
360
1D55B
102
}
102
{ACAD_REACTORS
330
1D4F7
102
}
330
1D4F7
100
AcDbVisualStyle
  2
2dWireframe
 70
     4
 71
     0
 72
     2
 73
     0
 90
        0
 40
-0.6
 41
-30.0
 62
     5
 63
     7
 74
     1
 91
        4
 64
     7
 65
   257
 75
     1
175
     1
 42
1.0
 92
        0
 66
   257
 43
1.0
 76
     1
 77
     6
 78
     2
 67
     7
 79
     5
170
     0
171
     0
290
     0
174
     0
 93
        1
 44
0.0
173
     0
291
     0
 45
0.0
1001
ACAD
1000
AcDbSavedByObjectVersion
1070
     0
  0
VISUALSTYLE
  5
1D4FC
102
{ACAD_XDICTIONARY
360
1D559
102
}
102
{ACAD_REACTORS
330
1D4F7
102
}
330
1D4F7
100
AcDbVisualStyle
  2
Basic
 70
     7
 71
     1
 72
     0
 73
     1
 90
        0
 40
-0.6
 41
-30.0
 62
     5
 63
     7
 74
     0
 91
        4
 64
     7
 65
   257
 75
     1
175
     1
 42
1.0
 92
        8
 66
     7
 43
1.0
 76
     1
 77
     6
 78
     2
 67
     7
 79
     5
170
     0
171
     0
290
     0
174
     0
 93
        1
 44
0.0
173
     0
291
     1
 45
0.0
1001
ACAD
1000
AcDbSavedByObjectVersion
1070
     0
  0
VISUALSTYLE
  5
1D503
102
{ACAD_XDICTIONARY
360
1D567
102
}
102
{ACAD_REACTORS
330
1D4F7
102
}
330
1D4F7
100
AcDbVisualStyle
  2
Brighten
 70
    12
 71
     2
 72
     2
 73
     0
 90
        0
 40
-0.6
 41
-30.0
 62
     5
 63
     7
 74
     1
 91
        4
 64
     7
 65
   257
 75
     1
175
     1
 42
1.0
 92
        8
 66
     7
 43
1.0
 76
     1
 77
     6
 78
     2
 67
     7
 79
     5
170
     0
171
     0
290
     0
174
     0
 93
        1
 44
50.0
173
     0
291
     1
 45
0.0
1001
ACAD
1000
AcDbSavedByObjectVersion
1070
     0
  0
VISUALSTYLE
  5
1D507
102
{ACAD_XDICTIONARY
360
1D56F
102
}
102
{ACAD_REACTORS
330
1D4F7
102
}
330
1D4F7
100
AcDbVisualStyle
  2
ColorChange
 70
    16
 71
     2
 72
     2
 73
     3
 90
        0
 40
-0.6
 41
-30.0
 62
     5
 63
     8
 74
     1
 91
        4
 64
     7
 65
   257
 75
     1
175
     1
 42
1.0
 92
        8
 66
     8
 43
1.0
 76
     1
 77
     6
 78
     2
 67
     7
 79
     5
170
     0
171
     0
290
     0
174
     0
 93
        1
 44
0.0
173
     0
291
     1
 45
0.0
1001
ACAD
1000
AcDbSavedByObjectVersion
1070
     0
  0
VISUALSTYLE
  5
1D500
102
{ACAD_XDICTIONARY
360
1D561
102
}
102
{ACAD_REACTORS
330
1D4F7
102
}
330
1D4F7
100
AcDbVisualStyle
  2
Conceptual
 70
     9
 71
     3
 72
     2
 73
     0
 90
        0
 40
-0.6
 41
-30.0
 62
     5
 63
     7
 74
     2
 91
        2
 64
     7
 65
   257
 75
     1
175
     1
 42
179.0
 92
        8
 66
     7
 43
1.0
 76
     1
 77
     6
 78
     2
 67
     7
 79
     3
170
     0
171
     0
290
     0
174
     0
 93
        1
 44
0.0
173
     0
291
     0
 45
0.0
1001
ACAD
1000
AcDbSavedByObjectVersion
1070
     0
  0
VISUALSTYLE
  5
1D502
102
{ACAD_XDICTIONARY
360
1D565
102
}
102
{ACAD_REACTORS
330
1D4F7
102
}
330
1D4F7
100
AcDbVisualStyle
  2
Dim
 70
    11
 71
     2
 72
     2
 73
     0
 90
        0
 40
-0.6
 41
-30.0
 62
     5
 63
     7
 74
     1
 91
        4
 64
     7
 65
   257
 75
     1
175
     1
 42
1.0
 92
        8
 66
     7
 43
1.0
 76
     1
 77
     6
 78
     2
 67
     7
 79
     5
170
     0
171
     0
290
     0
174
     0
 93
        1
 44
-50.0
173
     0
291
     1
 45
0.0
1001
ACAD
1000
AcDbSavedByObjectVersion
1070
     0
  0
VISUALSTYLE
  5
1D50F
102
{ACAD_XDICTIONARY
360
1D57F
102
}
102
{ACAD_REACTORS
330
1D4F7
102
}
330
1D4F7
100
AcDbVisualStyle
  2
EdgeColorOff
 70
    22
 71
     2
 72
     2
 73
     0
 90
        0
 40
-0.6
 41
-30.0
 62
     5
 63
     7
 74
     1
 91
        4
 64
     7
 65
   257
 75
     1
175
     1
 42
1.0
 92
        8
 66
     7
 43
1.0
 76
     1
 77
     6
 78
     2
 67
     7
 79
     5
170
     0
171
     0
290
     0
174
     0
 93
        1
 44
0.0
173
     0
291
     1
 45
0.0
1001
ACAD
1000
AcDbSavedByObjectVersion
1070
     0
  0
VISUALSTYLE
  5
1D506
102
{ACAD_XDICTIONARY
360
1D56D
102
}
102
{ACAD_REACTORS
330
1D4F7
102
}
330
1D4F7
100
AcDbVisualStyle
  2
Facepattern
 70
    15
 71
     2
 72
     2
 73
     0
 90
        0
 40
-0.6
 41
-30.0
 62
     5
 63
     7
 74
     1
 91
        4
 64
     7
 65
   257
 75
     1
175
     1
 42
1.0
 92
        8
 66
     7
 43
1.0
 76
     1
 77
     6
 78
     2
 67
     7
 79
     5
170
     0
171
     0
290
     0
174
     0
 93
        1
 44
0.0
173
     0
291
     1
 45
0.0
1001
ACAD
1000
AcDbSavedByObjectVersion
1070
     0
  0
VISUALSTYLE
  5
1D4F8
102
{ACAD_XDICTIONARY
360
1D551
102
}
102
{ACAD_REACTORS
330
1D4F7
102
}
330
1D4F7
100
AcDbVisualStyle
  2
Flat
 70
     0
 71
     2
 72
     1
 73
     1
 90
        2
 40
-0.6
 41
30.0
 62
     5
 63
     7
 74
     0
 91
        0
 64
     7
 65
   257
 75
     1
175
     1
 42
1.0
 92
        8
 66
     7
 43
1.0
 76
     1
 77
     6
 78
     2
 67
     7
 79
     5
170
     0
171
     0
290
     0
174
     0
 93
       13
 44
0.0
173
     0
291
     1
 45
0.0
1001
ACAD
1000
AcDbSavedByObjectVersion
1070
     0
  0
VISUALSTYLE
  5
1D4F9
102
{ACAD_XDICTIONARY
360
1D553
102
}
102
{ACAD_REACTORS
330
1D4F7
102
}
330
1D4F7
100
AcDbVisualStyle
  2
FlatWithEdges
 70
     1
 71
     2
 72
     1
 73
     1
 90
        2
 40
-0.6
 41
30.0
 62
     5
 63
     7
 74
     1
 91
        0
 64
     7
 65
   257
 75
     1
175
     1
 42
1.0
 92
        0
 66
   257
 43
1.0
 76
     1
 77
     6
 78
     2
 67
     7
 79
     5
170
     0
171
     0
290
     0
174
     0
 93
       13
 44
0.0
173
     0
291
     1
 45
0.0
1001
ACAD
1000
AcDbSavedByObjectVersion
1070
     0
  0
VISUALSTYLE
  5
1D4FA
102
{ACAD_XDICTIONARY
360
1D555
102
}
102
{ACAD_REACTORS
330
1D4F7
102
}
330
1D4F7
100
AcDbVisualStyle
  2
Gouraud
 70
     2
 71
     2
 72
     2
 73
     1
 90
        2
 40
-0.6
 41
30.0
 62
     5
 63
     7
 74
     0
 91
        0
 64
     7
 65
   257
 75
     1
175
     1
 42
1.0
 92
        0
 66
     7
 43
1.0
 76
     1
 77
     6
 78
     2
 67
     7
 79
     5
170
     0
171
     0
290
     0
174
     0
 93
       13
 44
0.0
173
     0
291
     1
 45
0.0
1001
ACAD
1000
AcDbSavedByObjectVersion
1070
     0
  0
VISUALSTYLE
  5
1D4FB
102
{ACAD_XDICTIONARY
360
1D557
102
}
102
{ACAD_REACTORS
330
1D4F7
102
}
330
1D4F7
100
AcDbVisualStyle
  2
GouraudWithEdges
 70
     3
 71
     2
 72
     2
 73
     1
 90
        2
 40
-0.6
 41
30.0
 62
     5
 63
     7
 74
     1
 91
        0
 64
     7
 65
   257
 75
     1
175
     1
 42
1.0
 92
        0
 66
   257
 43
1.0
 76
     1
 77
     6
 78
     2
 67
     7
 79
     5
170
     0
171
     0
290
     0
174
     0
 93
       13
 44
0.0
173
     0
291
     1
 45
0.0
1001
ACAD
1000
AcDbSavedByObjectVersion
1070
     0
  0
VISUALSTYLE
  5
1D4FF
102
{ACAD_XDICTIONARY
360
1D55F
102
}
102
{ACAD_REACTORS
330
1D4F7
102
}
330
1D4F7
100
AcDbVisualStyle
  2
Hidden
 70
     6
 71
     1
 72
     2
 73
     2
 90
        0
 40
-0.6
 41
-30.0
 62
     5
 63
     7
 74
     2
 91
        2
 64
     7
 65
   257
 75
     2
175
     1
 42
40.0
 92
        0
 66
   257
 43
1.0
 76
     1
 77
     6
 78
     2
 67
     7
 79
     3
170
     0
171
     0
290
     0
174
     0
 93
        1
 44
0.0
173
     0
291
     0
 45
0.0
1001
ACAD
1000
AcDbSavedByObjectVersion
1070
     0
  0
VISUALSTYLE
  5
1D50D
102
{ACAD_XDICTIONARY
360
1D57B
102
}
102
{ACAD_REACTORS
330
1D4F7
102
}
330
1D4F7
100
AcDbVisualStyle
  2
JitterOff
 70
    20
 71
     2
 72
     2
 73
     0
 90
        0
 40
-0.6
 41
-30.0
 62
     5
 63
     7
 74
     1
 91
        4
 64
     7
 65
   257
 75
     1
175
     1
 42
1.0
 92
       10
 66
     7
 43
1.0
 76
     1
 77
     6
 78
     2
 67
     7
 79
     5
170
     0
171
     0
290
     0
174
     0
 93
        1
 44
0.0
173
     0
291
     1
 45
0.0
1001
ACAD
1000
AcDbSavedByObjectVersion
1070
     0
  0
VISUALSTYLE
  5
1D505
102
{ACAD_XDICTIONARY
360
1D56B
102
}
102
{ACAD_REACTORS
330
1D4F7
102
}
330
1D4F7
100
AcDbVisualStyle
  2
Linepattern
 70
    14
 71
     2
 72
     2
 73
     0
 90
        0
 40
-0.6
 41
-30.0
 62
     5
 63
     7
 74
     1
 91
        4
 64
     7
 65
   257
 75
     7
175
     7
 42
1.0
 92
        8
 66
     7
 43
1.0
 76
     1
 77
     6
 78
     2
 67
     7
 79
     5
170
     0
171
     0
290
     0
174
     0
 93
        1
 44
0.0
173
     0
291
     1
 45
0.0
1001
ACAD
1000
AcDbSavedByObjectVersion
1070
     0
  0
VISUALSTYLE
  5
1D50E
102
{ACAD_XDICTIONARY
360
1D57D
102
}
102
{ACAD_REACTORS
330
1D4F7
102
}
330
1D4F7
100
AcDbVisualStyle
  2
OverhangOff
 70
    21
 71
     2
 72
     2
 73
     0
 90
        0
 40
-0.6
 41
-30.0
 62
     5
 63
     7
 74
     1
 91
        4
 64
     7
 65
   257
 75
     1
175
     1
 42
1.0
 92
        9
 66
     7
 43
1.0
 76
     1
 77
     6
 78
     2
 67
     7
 79
     5
170
     0
171
     0
290
     0
174
     0
 93
        1
 44
0.0
173
     0
291
     1
 45
0.0
1001
ACAD
1000
AcDbSavedByObjectVersion
1070
     0
  0
VISUALSTYLE
  5
1D501
102
{ACAD_XDICTIONARY
360
1D563
102
}
102
{ACAD_REACTORS
330
1D4F7
102
}
330
1D4F7
100
AcDbVisualStyle
  2
Realistic
 70
     8
 71
     2
 72
     3
 73
     0
 90
        2
 40
-0.6
 41
30.0
 62
     5
 63
     7
 74
     0
 91
        0
 64
     7
 65
   257
 75
     1
175
     1
 42
1.0
 92
        8
 66
   257
 43
1.0
 76
     1
 77
     6
 78
     2
 67
     7
 79
     3
170
     0
171
     0
290
     0
174
     0
 93
       13
 44
0.0
173
     0
291
     0
 45
0.0
1001
ACAD
1000
AcDbSavedByObjectVersion
1070
     0
  0
VISUALSTYLE
  5
1D50C
102
{ACAD_XDICTIONARY
360
1D579
102
}
102
{ACAD_REACTORS
330
1D4F7
102
}
330
1D4F7
100
AcDbVisualStyle
  2
Shaded
 70
    27
 71
     2
 72
     2
 73
     1
 90
        2
 40
-0.6
 41
30.0
 62
     5
 63
     7
 74
     0
 91
        4
 64
     7
 65
   257
 75
     1
175
     1
 42
1.0
 92
        8
 66
   257
 43
1.0
 76
     1
 77
     6
 78
     2
 67
     8
 79
     3
170
     0
171
     0
290
     0
174
     0
 93
        5
 44
0.0
173
     0
291
     0
 45
0.0
1001
ACAD
1000
AcDbSavedByObjectVersion
1070
     0
  0
VISUALSTYLE
  5
1D50B
102
{ACAD_XDICTIONARY
360
1D577
102
}
102
{ACAD_REACTORS
330
1D4F7
102
}
330
1D4F7
100
AcDbVisualStyle
  2
Shaded with edges
 70
    26
 71
     2
 72
     2
 73
     1
 90
        2
 40
-0.6
 41
30.0
 62
     5
 63
     7
 74
     1
 91
       10
 64
     7
 65
   257
 75
     2
175
     1
 42
1.0
 92
        8
 66
   257
 43
1.0
 76
     1
 77
     6
 78
     2
 67
     7
 79
     3
170
     0
171
     0
290
     0
174
     0
 93
        5
 44
0.0
173
     0
291
     0
 45
0.0
1001
ACAD
1000
AcDbSavedByObjectVersion
1070
     0
  0
VISUALSTYLE
  5
1D508
102
{ACAD_XDICTIONARY
360
1D571
102
}
102
{ACAD_REACTORS
330
1D4F7
102
}
330
1D4F7
100
AcDbVisualStyle
  2
Shades of Gray
 70
    23
 71
     2
 72
     2
 73
     3
 90
        0
 40
-0.6
 41
-30.0
 62
     5
 63
     7
 74
     2
 91
        2
 64
     7
 65
     7
 75
     1
175
     1
 42
40.0
 92
        8
 66
     7
 43
1.0
 76
     1
 77
     6
 78
     2
 67
     7
 79
     3
170
     0
171
     0
290
     0
174
     0
 93
        1
 44
0.0
173
     0
291
     0
 45
0.0
1001
ACAD
1000
AcDbSavedByObjectVersion
1070
     0
  0
VISUALSTYLE
  5
1D509
102
{ACAD_XDICTIONARY
360
1D573
102
}
102
{ACAD_REACTORS
330
1D4F7
102
}
330
1D4F7
100
AcDbVisualStyle
  2
Sketchy
 70
    24
 71
     1
 72
     2
 73
     2
 90
        0
 40
-0.6
 41
-30.0
 62
     5
 63
     7
 74
     2
 91
        2
 64
     7
 65
     7
 75
     1
175
     1
 42
40.0
 92
       11
 66
     7
 43
1.0
 76
     1
 77
     6
 78
     2
 67
     7
 79
     6
170
     0
171
     0
290
     0
174
     0
 93
        1
 44
0.0
173
     0
291
     0
 45
0.0
1001
ACAD
1000
AcDbSavedByObjectVersion
1070
     0
  0
VISUALSTYLE
  5
1D504
102
{ACAD_XDICTIONARY
360
1D569
102
}
102
{ACAD_REACTORS
330
1D4F7
102
}
330
1D4F7
100
AcDbVisualStyle
  2
Thicken
 70
    13
 71
     2
 72
     2
 73
     0
 90
        0
 40
-0.6
 41
-30.0
 62
     5
 63
     7
 74
     1
 91
        4
 64
     7
 65
   257
 75
     1
175
     1
 42
1.0
 92
       12
 66
     7
 43
1.0
 76
     1
 77
     6
 78
     2
 67
     7
 79
     5
170
     0
171
     0
290
     0
174
     0
 93
        1
 44
0.0
173
     0
291
     1
 45
0.0
1001
ACAD
1000
AcDbSavedByObjectVersion
1070
     0
  0
VISUALSTYLE
  5
1D4FE
102
{ACAD_XDICTIONARY
360
1D55D
102
}
102
{ACAD_REACTORS
330
1D4F7
102
}
330
1D4F7
100
AcDbVisualStyle
  2
Wireframe
 70
     5
 71
     0
 72
     2
 73
     0
 90
        0
 40
-0.6
 41
-30.0
 62
     5
 63
     7
 74
     1
 91
        4
 64
     7
 65
   257
 75
     1
175
     1
 42
1.0
 92
        0
 66
   257
 43
1.0
 76
     1
 77
     6
 78
     2
 67
     7
 79
     3
170
     0
171
     0
290
     0
174
     0
 93
        1
 44
0.0
173
     0
291
     0
 45
0.0
1001
ACAD
1000
AcDbSavedByObjectVersion
1070
     0
  0
VISUALSTYLE
  5
1D50A
102
{ACAD_XDICTIONARY
360
1D575
102
}
102
{ACAD_REACTORS
330
1D4F7
102
}
330
1D4F7
100
AcDbVisualStyle
  2
X-Ray
 70
    25
 71
     2
 72
     2
 73
     1
 90
        1
 40
0.5
 41
-30.0
 62
     5
 63
     7
 74
     1
 91
        0
 64
     7
 65
   257
 75
     1
175
     1
 42
1.0
 92
        8
 66
     7
 43
1.0
 76
     1
 77
     6
 78
     2
 67
     7
 79
     3
170
     0
171
     0
290
     0
174
     0
 93
       13
 44
0.0
173
     0
291
     0
 45
0.0
1001
ACAD
1000
AcDbSavedByObjectVersion
1070
     0
  0
DICTIONARYVAR
  5
1D544
102
{ACAD_REACTORS
330
1D53F
102
}
330
1D53F
100
DictionaryVariables
280
     0
  1
1:1
  0
DICTIONARYVAR
  5
1D541
102
{ACAD_REACTORS
330
1D53F
102
}
330
1D53F
100
DictionaryVariables
280
     0
  1
STANDARD
  0
DICTIONARYVAR
  5
1D540
102
{ACAD_REACTORS
330
1D53F
102
}
330
1D53F
100
DictionaryVariables
280
     0
  1
STANDARD
  0
DICTIONARYVAR
  5
1D542
102
{ACAD_REACTORS
330
1D53F
102
}
330
1D53F
100
DictionaryVariables
280
     0
  1
Imperial24
  0
DICTIONARYVAR
  5
1D543
102
{ACAD_REACTORS
330
1D53F
102
}
330
1D53F
100
DictionaryVariables
280
     0
  1
Imperial24
  0
DICTIONARYVAR
  5
1D547
102
{ACAD_REACTORS
330
1D53F
102
}
330
1D53F
100
DictionaryVariables
280
     0
  1
1
  0
DICTIONARYVAR
  5
1D546
102
{ACAD_REACTORS
330
1D53F
102
}
330
1D53F
100
DictionaryVariables
280
     0
  1
0
  0
DICTIONARYVAR
  5
1D545
102
{ACAD_REACTORS
330
1D53F
102
}
330
1D53F
100
DictionaryVariables
280
     0
  1
127
  0
DICTIONARYVAR
  5
1D548
102
{ACAD_REACTORS
330
1D53F
102
}
330
1D53F
100
DictionaryVariables
280
     0
  1
2
  0
DICTIONARY
  5
1D585
330
1D52A
100
AcDbDictionary
280
     1
281
     1
  3
ACAD_XREC_ROUNDTRIP
360
1D586
  0
DICTIONARY
  5
1D587
330
1D52B
100
AcDbDictionary
280
     1
281
     1
  3
ACAD_XREC_ROUNDTRIP
360
1D588
  0
DICTIONARY
  5
1D589
330
1D52C
100
AcDbDictionary
280
     1
281
     1
  3
ACAD_XREC_ROUNDTRIP
360
1D58A
  0
DICTIONARY
  5
1D4E8
330
1D4E7
100
AcDbDictionary
280
     1
281
     1
  3
ACAD_XREC_ROUNDTRIP
360
1D54F
  3
BUMPTILE
360
1D4EA
  3
DIFFUSETILE
360
1D4E9
  3
OPACITYTILE
360
1D4ED
  3
REFLECTIONTILE
360
1D4EC
  3
REFRACTIONTILE
360
1D4EE
  3
SPECULARTILE
360
1D4EB
  0
DICTIONARY
  5
1D4E0
330
1D4DF
100
AcDbDictionary
280
     1
281
     1
  3
ACAD_XREC_ROUNDTRIP
360
1D54E
  3
BUMPTILE
360
1D4E2
  3
DIFFUSETILE
360
1D4E1
  3
OPACITYTILE
360
1D4E5
  3
REFLECTIONTILE
360
1D4E4
  3
REFRACTIONTILE
360
1D4E6
  3
SPECULARTILE
360
1D4E3
  0
DICTIONARY
  5
1D4F0
330
1D4EF
100
AcDbDictionary
280
     1
281
     1
  3
ACAD_XREC_ROUNDTRIP
360
1D550
  3
BUMPTILE
360
1D4F2
  3
DIFFUSETILE
360
1D4F1
  3
OPACITYTILE
360
1D4F5
  3
REFLECTIONTILE
360
1D4F4
  3
REFRACTIONTILE
360
1D4F6
  3
SPECULARTILE
360
1D4F3
  0
DICTIONARY
  5
1D583
330
1D528
100
AcDbDictionary
280
     1
281
     1
  3
ACAD_XREC_ROUNDTRIP
360
1D584
  0
DICTIONARY
  5
1D54A
330
1D512
100
AcDbDictionary
280
     1
281
     1
  3
ACAD_ROUNDTRIP_2008_TABLESTYLE_CELLSTYLEMAP
360
1D54B
  3
ACAD_XREC_ROUNDTRIP
360
1D581
  0
DICTIONARY
  5
1D55B
330
1D4FD
100
AcDbDictionary
280
     1
281
     1
  3
ACAD_XREC_ROUNDTRIP
360
1D55C
  0
DICTIONARY
  5
1D559
330
1D4FC
100
AcDbDictionary
280
     1
281
     1
  3
ACAD_XREC_ROUNDTRIP
360
1D55A
  0
DICTIONARY
  5
1D567
330
1D503
100
AcDbDictionary
280
     1
281
     1
  3
ACAD_XREC_ROUNDTRIP
360
1D568
  0
DICTIONARY
  5
1D56F
330
1D507
100
AcDbDictionary
280
     1
281
     1
  3
ACAD_XREC_ROUNDTRIP
360
1D570
  0
DICTIONARY
  5
1D561
330
1D500
100
AcDbDictionary
280
     1
281
     1
  3
ACAD_XREC_ROUNDTRIP
360
1D562
  0
DICTIONARY
  5
1D565
330
1D502
100
AcDbDictionary
280
     1
281
     1
  3
ACAD_XREC_ROUNDTRIP
360
1D566
  0
DICTIONARY
  5
1D57F
330
1D50F
100
AcDbDictionary
280
     1
281
     1
  3
ACAD_XREC_ROUNDTRIP
360
1D580
  0
DICTIONARY
  5
1D56D
330
1D506
100
AcDbDictionary
280
     1
281
     1
  3
ACAD_XREC_ROUNDTRIP
360
1D56E
  0
DICTIONARY
  5
1D551
330
1D4F8
100
AcDbDictionary
280
     1
281
     1
  3
ACAD_XREC_ROUNDTRIP
360
1D552
  0
DICTIONARY
  5
1D553
330
1D4F9
100
AcDbDictionary
280
     1
281
     1
  3
ACAD_XREC_ROUNDTRIP
360
1D554
  0
DICTIONARY
  5
1D555
330
1D4FA
100
AcDbDictionary
280
     1
281
     1
  3
ACAD_XREC_ROUNDTRIP
360
1D556
  0
DICTIONARY
  5
1D557
330
1D4FB
100
AcDbDictionary
280
     1
281
     1
  3
ACAD_XREC_ROUNDTRIP
360
1D558
  0
DICTIONARY
  5
1D55F
330
1D4FF
100
AcDbDictionary
280
     1
281
     1
  3
ACAD_XREC_ROUNDTRIP
360
1D560
  0
DICTIONARY
  5
1D57B
330
1D50D
100
AcDbDictionary
280
     1
281
     1
  3
ACAD_XREC_ROUNDTRIP
360
1D57C
  0
DICTIONARY
  5
1D56B
330
1D505
100
AcDbDictionary
280
     1
281
     1
  3
ACAD_XREC_ROUNDTRIP
360
1D56C
  0
DICTIONARY
  5
1D57D
330
1D50E
100
AcDbDictionary
280
     1
281
     1
  3
ACAD_XREC_ROUNDTRIP
360
1D57E
  0
DICTIONARY
  5
1D563
330
1D501
100
AcDbDictionary
280
     1
281
     1
  3
ACAD_XREC_ROUNDTRIP
360
1D564
  0
DICTIONARY
  5
1D579
330
1D50C
100
AcDbDictionary
280
     1
281
     1
  3
ACAD_XREC_ROUNDTRIP
360
1D57A
  0
DICTIONARY
  5
1D577
330
1D50B
100
AcDbDictionary
280
     1
281
     1
  3
ACAD_XREC_ROUNDTRIP
360
1D578
  0
DICTIONARY
  5
1D571
330
1D508
100
AcDbDictionary
280
     1
281
     1
  3
ACAD_XREC_ROUNDTRIP
360
1D572
  0
DICTIONARY
  5
1D573
330
1D509
100
AcDbDictionary
280
     1
281
     1
  3
ACAD_XREC_ROUNDTRIP
360
1D574
  0
DICTIONARY
  5
1D569
330
1D504
100
AcDbDictionary
280
     1
281
     1
  3
ACAD_XREC_ROUNDTRIP
360
1D56A
  0
DICTIONARY
  5
1D55D
330
1D4FE
100
AcDbDictionary
280
     1
281
     1
  3
ACAD_XREC_ROUNDTRIP
360
1D55E
  0
DICTIONARY
  5
1D575
330
1D50A
100
AcDbDictionary
280
     1
281
     1
  3
ACAD_XREC_ROUNDTRIP
360
1D576
  0
XRECORD
  5
1D586
102
{ACAD_REACTORS
330
1D585
102
}
330
1D585
100
AcDbXrecord
280
     1
102
DISPLAYNAME
  1
Imperial24
102
FLAGS
 90
        0
  0
XRECORD
  5
1D588
102
{ACAD_REACTORS
330
1D587
102
}
330
1D587
100
AcDbXrecord
280
     1
102
SHADEPLOT
 70
     0
102
SHADEPLOTRESLEVEL
 70
     2
102
SHADEPLOTCUSTOMDPI
 70
   300
  0
XRECORD
  5
1D58A
102
{ACAD_REACTORS
330
1D589
102
}
330
1D589
100
AcDbXrecord
280
     1
102
SHADEPLOT
 70
     0
102
SHADEPLOTRESLEVEL
 70
     2
102
SHADEPLOTCUSTOMDPI
 70
   300
  0
XRECORD
  5
1D54F
102
{ACAD_REACTORS
330
1D4E8
102
}
330
1D4E8
100
AcDbXrecord
280
     1
102
MATERIAL
148
0.0
149
0.0
149
0.0
 93
        0
 94
      127
282
     0
 72
     0
 77
     0
171
     0
175
     0
179
     0
273
     0
  0
XRECORD
  5
1D4EA
102
{ACAD_REACTORS
330
1D4E8
102
}
330
1D4E8
100
AcDbXrecord
280
     1
270
     1
271
     1
  0
XRECORD
  5
1D4E9
102
{ACAD_REACTORS
330
1D4E8
102
}
330
1D4E8
100
AcDbXrecord
280
     1
270
     1
271
     1
  0
XRECORD
  5
1D4ED
102
{ACAD_REACTORS
330
1D4E8
102
}
330
1D4E8
100
AcDbXrecord
280
     1
270
     1
271
     1
  0
XRECORD
  5
1D4EC
102
{ACAD_REACTORS
330
1D4E8
102
}
330
1D4E8
100
AcDbXrecord
280
     1
270
     1
271
     1
  0
XRECORD
  5
1D4EE
102
{ACAD_REACTORS
330
1D4E8
102
}
330
1D4E8
100
AcDbXrecord
280
     1
270
     1
271
     1
  0
XRECORD
  5
1D4EB
102
{ACAD_REACTORS
330
1D4E8
102
}
330
1D4E8
100
AcDbXrecord
280
     1
270
     1
271
     1
  0
XRECORD
  5
1D54E
102
{ACAD_REACTORS
330
1D4E0
102
}
330
1D4E0
100
AcDbXrecord
280
     1
102
MATERIAL
148
0.0
149
0.0
149
0.0
 93
        0
 94
      127
282
     0
 72
     0
 77
     0
171
     0
175
     0
179
     0
273
     0
  0
XRECORD
  5
1D4E2
102
{ACAD_REACTORS
330
1D4E0
102
}
330
1D4E0
100
AcDbXrecord
280
     1
270
     1
271
     1
  0
XRECORD
  5
1D4E1
102
{ACAD_REACTORS
330
1D4E0
102
}
330
1D4E0
100
AcDbXrecord
280
     1
270
     1
271
     1
  0
XRECORD
  5
1D4E5
102
{ACAD_REACTORS
330
1D4E0
102
}
330
1D4E0
100
AcDbXrecord
280
     1
270
     1
271
     1
  0
XRECORD
  5
1D4E4
102
{ACAD_REACTORS
330
1D4E0
102
}
330
1D4E0
100
AcDbXrecord
280
     1
270
     1
271
     1
  0
XRECORD
  5
1D4E6
102
{ACAD_REACTORS
330
1D4E0
102
}
330
1D4E0
100
AcDbXrecord
280
     1
270
     1
271
     1
  0
XRECORD
  5
1D4E3
102
{ACAD_REACTORS
330
1D4E0
102
}
330
1D4E0
100
AcDbXrecord
280
     1
270
     1
271
     1
  0
XRECORD
  5
1D550
102
{ACAD_REACTORS
330
1D4F0
102
}
330
1D4F0
100
AcDbXrecord
280
     1
102
MATERIAL
148
0.0
149
0.0
149
0.0
 93
        0
 94
      127
282
     0
 72
     0
 77
     0
171
     0
175
     0
179
     0
273
     0
  0
XRECORD
  5
1D4F2
102
{ACAD_REACTORS
330
1D4F0
102
}
330
1D4F0
100
AcDbXrecord
280
     1
270
     1
271
     1
  0
XRECORD
  5
1D4F1
102
{ACAD_REACTORS
330
1D4F0
102
}
330
1D4F0
100
AcDbXrecord
280
     1
270
     1
271
     1
  0
XRECORD
  5
1D4F5
102
{ACAD_REACTORS
330
1D4F0
102
}
330
1D4F0
100
AcDbXrecord
280
     1
270
     1
271
     1
  0
XRECORD
  5
1D4F4
102
{ACAD_REACTORS
330
1D4F0
102
}
330
1D4F0
100
AcDbXrecord
280
     1
270
     1
271
     1
  0
XRECORD
  5
1D4F6
102
{ACAD_REACTORS
330
1D4F0
102
}
330
1D4F0
100
AcDbXrecord
280
     1
270
     1
271
     1
  0
XRECORD
  5
1D4F3
102
{ACAD_REACTORS
330
1D4F0
102
}
330
1D4F0
100
AcDbXrecord
280
     1
270
     1
271
     1
  0
XRECORD
  5
1D584
102
{ACAD_REACTORS
330
1D583
102
}
330
1D583
100
AcDbXrecord
280
     1
102
DISPLAYNAME
  1
Imperial24
102
FLAGS
 90
        0
  0
CELLSTYLEMAP
  5
1D54B
102
{ACAD_REACTORS
330
1D54A
102
}
330
1D54A
100
AcDbCellStyleMap
 90
        3
300
CELLSTYLE
  1
TABLEFORMAT_BEGIN
 90
        5
170
     1
 91
        0
 92
    32768
 62
   257
 93
        1
300
CONTENTFORMAT
  1
CONTENTFORMAT_BEGIN
 90
        0
 91
        0
 92
      512
 93
        0
300

 40
0.0
140
1.0
 94
        5
 62
     0
340
1D238
144
0.25
309
CONTENTFORMAT_END
171
     0
 94
        0
309
TABLEFORMAT_END
  1
CELLSTYLE_BEGIN
 90
        1
 91
        1
300
_TITLE
309
CELLSTYLE_END
300
CELLSTYLE
  1
TABLEFORMAT_BEGIN
 90
        5
170
     1
 91
        0
 92
        0
 62
   257
 93
        1
300
CONTENTFORMAT
  1
CONTENTFORMAT_BEGIN
 90
        0
 91
        0
 92
      512
 93
        0
300

 40
0.0
140
1.0
 94
        5
 62
     0
340
1D238
144
0.18
309
CONTENTFORMAT_END
171
     0
 94
        0
309
TABLEFORMAT_END
  1
CELLSTYLE_BEGIN
 90
        2
 91
        1
300
_HEADER
309
CELLSTYLE_END
300
CELLSTYLE
  1
TABLEFORMAT_BEGIN
 90
        5
170
     1
 91
        0
 92
        0
 62
   257
 93
        1
300
CONTENTFORMAT
  1
CONTENTFORMAT_BEGIN
 90
        0
 91
        0
 92
      512
 93
        0
300

 40
0.0
140
1.0
 94
        2
 62
     0
340
1D238
144
0.18
309
CONTENTFORMAT_END
171
     0
 94
        0
309
TABLEFORMAT_END
  1
CELLSTYLE_BEGIN
 90
        3
 91
        2
300
_DATA
309
CELLSTYLE_END
  0
XRECORD
  5
1D581
102
{ACAD_REACTORS
330
1D54A
102
}
330
1D54A
100
AcDbXrecord
280
     1
102
ACAD_ROUNDTRIP_PRE2007_TABLESTYLE
 90
      512
 91
        0
  1

 92
      512
 93
        0
  2

 94
      512
 95
        0
  3

  0
XRECORD
  5
1D55C
102
{ACAD_REACTORS
330
1D55B
102
}
330
1D55B
100
AcDbXrecord
280
     1
102
RTVSPost2010Prop28
280
     1
102
RTVSPost2010PropOp28
 70
     1
102
RTVSPost2010Prop29
280
     1
102
RTVSPost2010PropOp29
 70
     1
102
RTVSPost2010Prop30
280
     0
102
RTVSPost2010PropOp30
 70
     1
102
RTVSPost2010Prop31
280
     0
102
RTVSPost2010PropOp31
 70
     1
102
RTVSPost2010Prop32
280
     0
102
RTVSPost2010PropOp32
 70
     1
102
RTVSPost2010Prop33
280
     0
102
RTVSPost2010PropOp33
 70
     1
102
RTVSPost2010Prop34
280
     0
102
RTVSPost2010PropOp34
 70
     1
102
RTVSPost2010Prop35
280
     0
102
RTVSPost2010PropOp35
 70
     1
102
RTVSPost2010Prop36
280
     0
102
RTVSPost2010PropOp36
 70
     1
102
RTVSPost2010Prop37
 90
       50
102
RTVSPost2010PropOp37
 70
     1
102
RTVSPost2010Prop38
140
0.0
102
RTVSPost2010PropOp38
 70
     1
102
RTVSPost2010Prop39
140
1.0
102
RTVSPost2010PropOp39
 70
     1
102
RTVSPost2010Prop40
 90
        0
102
RTVSPost2010PropOp40
 70
     1
102
RTVSPost2010Prop41ColorIndex
 90
       18
102
RTVSPost2010Prop41ColorRGB
 90
        0
102
RTVSPost2010PropOp41
 70
     1
102
RTVSPost2010Prop42
 90
       50
102
RTVSPost2010PropOp42
 70
     1
102
RTVSPost2010Prop43
 90
        3
102
RTVSPost2010PropOp43
 70
     1
102
RTVSPost2010Prop44ColorIndex
 90
        5
102
RTVSPost2010Prop44ColorRGB
 90
      255
102
RTVSPost2010PropOp44
 70
     1
102
RTVSPost2010Prop45
280
     0
102
RTVSPost2010PropOp45
 70
     1
102
RTVSPost2010Prop46
 90
       50
102
RTVSPost2010PropOp46
 70
     1
102
RTVSPost2010Prop47
 90
       50
102
RTVSPost2010PropOp47
 70
     1
102
RTVSPost2010Prop48
 90
       50
102
RTVSPost2010PropOp48
 70
     1
102
RTVSPost2010Prop49
280
     0
102
RTVSPost2010PropOp49
 70
     1
102
RTVSPost2010Prop50
 90
       50
102
RTVSPost2010PropOp50
 70
     1
102
RTVSPost2010Prop51ColorIndex
 90
      256
102
RTVSPost2010Prop51ColorRGB
 90
-16777216
102
RTVSPost2010PropOp51
 70
     0
102
RTVSPost2010Prop52
140
1.0
102
RTVSPost2010PropOp52
 70
     0
102
RTVSPost2010Prop53
 90
        2
102
RTVSPost2010PropOp53
 70
     1
102
RTVSPost2010Prop54
  1
strokes_ogs.tif
102
RTVSPost2010PropOp54
 70
     1
102
RTVSPost2010Prop55
280
     0
102
RTVSPost2010PropOp55
 70
     1
102
RTVSPost2010Prop56
140
1.0
102
RTVSPost2010PropOp56
 70
     1
102
RTVSPost2010Prop57
140
1.0
102
RTVSPost2010PropOp57
 70
     1
102
RTVSPropertyOp0
 70
     1
102
RTVSPropertyOp1
 70
     1
102
RTVSPropertyOp2
 70
     1
102
RTVSPropertyOp3
 70
     1
102
RTVSPropertyOp4
 70
     1
102
RTVSPropertyOp5
 70
     1
102
RTVSPropertyOp6
 70
     1
102
RTVSPropertyOp7
 70
     1
102
RTVSPropertyOp8
 70
     1
102
RTVSPropertyOp9
 70
     1
102
RTVSPropertyOp10
 70
     1
102
RTVSPropertyOp11
 70
     1
102
RTVSPropertyOp12
 70
     1
102
RTVSPropertyOp13
 70
     1
102
RTVSPropertyOp14
 70
     1
102
RTVSPropertyOp15
 70
     1
102
RTVSPropertyOp16
 70
     1
102
RTVSPropertyOp17
 70
     1
102
RTVSPropertyOp18
 70
     1
102
RTVSPropertyOp19
 70
     1
102
RTVSPropertyOp20
 70
     1
102
RTVSPropertyOp21
 70
     1
102
RTVSPropertyOp22
 70
     1
102
RTVSPropertyOp23
 70
     1
102
RTVSPropertyOp24
 70
     1
102
RTVSPropertyOp25
 70
     1
102
RTVSPropertyOp26
 70
     1
102
RTVSPropertyOp27
 70
     1
102
RTVSPropertyOp28
 70
     1
102
RTVSPropertyOp29
 70
     1
102
RTVSPropertyOp30
 70
     1
102
RTVSPropertyOp31
 70
     1
102
RTVSPropertyOp32
 70
     1
102
RTVSPropertyOp33
 70
     1
102
RTVSPropertyOp34
 70
     1
102
RTVSPropertyOp35
 70
     1
102
RTVSPropertyOp36
 70
     1
102
RTVSPropertyOp37
 70
     1
102
RTVSPropertyOp38
 70
     1
102
RTVSPropertyOp39
 70
     1
102
RTVSPropertyOp40
 70
     1
102
RTVSPropertyOp41
 70
     1
102
RTVSPropertyOp42
 70
     1
102
RTVSPropertyOp43
 70
     1
102
RTVSPropertyOp44
 70
     1
102
RTVSPropertyOp45
 70
     1
102
RTVSPropertyOp46
 70
     1
102
RTVSPropertyOp47
 70
     1
102
RTVSPropertyOp48
 70
     1
102
RTVSPropertyOp49
 70
     1
102
RTVSPropertyOp50
 70
     1
102
RTVSPropertyOp51
 70
     0
102
RTVSPropertyOp52
 70
     0
102
RTVSPropertyOp53
 70
     1
102
RTVSPropertyOp54
 70
     1
102
RTVSPropertyOp55
 70
     1
102
RTVSPropertyOp56
 70
     1
102
RTVSPropertyOp57
 70
     1
102
RTVSPropertyOp58
 70
     1
102
RTVSPropertyOp59
 70
     1
102
RTVSPropertyOp60
 70
     1
102
RTVSPropertyOp61
 70
     1
102
RTVSPropertyOp62
 70
     1
  0
XRECORD
  5
1D55A
102
{ACAD_REACTORS
330
1D559
102
}
330
1D559
100
AcDbXrecord
280
     1
102
RTVSPost2010Prop28
280
     0
102
RTVSPost2010PropOp28
 70
     1
102
RTVSPost2010Prop29
280
     1
102
RTVSPost2010PropOp29
 70
     1
102
RTVSPost2010Prop30
280
     1
102
RTVSPost2010PropOp30
 70
     1
102
RTVSPost2010Prop31
280
     0
102
RTVSPost2010PropOp31
 70
     1
102
RTVSPost2010Prop32
280
     0
102
RTVSPost2010PropOp32
 70
     1
102
RTVSPost2010Prop33
280
     0
102
RTVSPost2010PropOp33
 70
     1
102
RTVSPost2010Prop34
280
     0
102
RTVSPost2010PropOp34
 70
     1
102
RTVSPost2010Prop35
280
     0
102
RTVSPost2010PropOp35
 70
     1
102
RTVSPost2010Prop36
280
     0
102
RTVSPost2010PropOp36
 70
     1
102
RTVSPost2010Prop37
 90
       50
102
RTVSPost2010PropOp37
 70
     1
102
RTVSPost2010Prop38
140
0.0
102
RTVSPost2010PropOp38
 70
     1
102
RTVSPost2010Prop39
140
1.0
102
RTVSPost2010PropOp39
 70
     1
102
RTVSPost2010Prop40
 90
        0
102
RTVSPost2010PropOp40
 70
     1
102
RTVSPost2010Prop41ColorIndex
 90
       18
102
RTVSPost2010Prop41ColorRGB
 90
        0
102
RTVSPost2010PropOp41
 70
     1
102
RTVSPost2010Prop42
 90
       50
102
RTVSPost2010PropOp42
 70
     1
102
RTVSPost2010Prop43
 90
        3
102
RTVSPost2010PropOp43
 70
     1
102
RTVSPost2010Prop44ColorIndex
 90
        5
102
RTVSPost2010Prop44ColorRGB
 90
      255
102
RTVSPost2010PropOp44
 70
     1
102
RTVSPost2010Prop45
280
     0
102
RTVSPost2010PropOp45
 70
     1
102
RTVSPost2010Prop46
 90
       50
102
RTVSPost2010PropOp46
 70
     1
102
RTVSPost2010Prop47
 90
       50
102
RTVSPost2010PropOp47
 70
     1
102
RTVSPost2010Prop48
 90
       50
102
RTVSPost2010PropOp48
 70
     1
102
RTVSPost2010Prop49
280
     0
102
RTVSPost2010PropOp49
 70
     1
102
RTVSPost2010Prop50
 90
       50
102
RTVSPost2010PropOp50
 70
     1
102
RTVSPost2010Prop51ColorIndex
 90
      256
102
RTVSPost2010Prop51ColorRGB
 90
-16777216
102
RTVSPost2010PropOp51
 70
     0
102
RTVSPost2010Prop52
140
1.0
102
RTVSPost2010PropOp52
 70
     0
102
RTVSPost2010Prop53
 90
        2
102
RTVSPost2010PropOp53
 70
     1
102
RTVSPost2010Prop54
  1
strokes_ogs.tif
102
RTVSPost2010PropOp54
 70
     1
102
RTVSPost2010Prop55
280
     0
102
RTVSPost2010PropOp55
 70
     1
102
RTVSPost2010Prop56
140
1.0
102
RTVSPost2010PropOp56
 70
     1
102
RTVSPost2010Prop57
140
1.0
102
RTVSPost2010PropOp57
 70
     1
102
RTVSPropertyOp0
 70
     1
102
RTVSPropertyOp1
 70
     1
102
RTVSPropertyOp2
 70
     1
102
RTVSPropertyOp3
 70
     1
102
RTVSPropertyOp4
 70
     1
102
RTVSPropertyOp5
 70
     1
102
RTVSPropertyOp6
 70
     1
102
RTVSPropertyOp7
 70
     1
102
RTVSPropertyOp8
 70
     1
102
RTVSPropertyOp9
 70
     1
102
RTVSPropertyOp10
 70
     1
102
RTVSPropertyOp11
 70
     1
102
RTVSPropertyOp12
 70
     1
102
RTVSPropertyOp13
 70
     1
102
RTVSPropertyOp14
 70
     1
102
RTVSPropertyOp15
 70
     1
102
RTVSPropertyOp16
 70
     1
102
RTVSPropertyOp17
 70
     1
102
RTVSPropertyOp18
 70
     1
102
RTVSPropertyOp19
 70
     1
102
RTVSPropertyOp20
 70
     1
102
RTVSPropertyOp21
 70
     1
102
RTVSPropertyOp22
 70
     1
102
RTVSPropertyOp23
 70
     1
102
RTVSPropertyOp24
 70
     1
102
RTVSPropertyOp25
 70
     1
102
RTVSPropertyOp26
 70
     1
102
RTVSPropertyOp27
 70
     1
102
RTVSPropertyOp28
 70
     1
102
RTVSPropertyOp29
 70
     1
102
RTVSPropertyOp30
 70
     1
102
RTVSPropertyOp31
 70
     1
102
RTVSPropertyOp32
 70
     1
102
RTVSPropertyOp33
 70
     1
102
RTVSPropertyOp34
 70
     1
102
RTVSPropertyOp35
 70
     1
102
RTVSPropertyOp36
 70
     1
102
RTVSPropertyOp37
 70
     1
102
RTVSPropertyOp38
 70
     1
102
RTVSPropertyOp39
 70
     1
102
RTVSPropertyOp40
 70
     1
102
RTVSPropertyOp41
 70
     1
102
RTVSPropertyOp42
 70
     1
102
RTVSPropertyOp43
 70
     1
102
RTVSPropertyOp44
 70
     1
102
RTVSPropertyOp45
 70
     1
102
RTVSPropertyOp46
 70
     1
102
RTVSPropertyOp47
 70
     1
102
RTVSPropertyOp48
 70
     1
102
RTVSPropertyOp49
 70
     1
102
RTVSPropertyOp50
 70
     1
102
RTVSPropertyOp51
 70
     0
102
RTVSPropertyOp52
 70
     0
102
RTVSPropertyOp53
 70
     1
102
RTVSPropertyOp54
 70
     1
102
RTVSPropertyOp55
 70
     1
102
RTVSPropertyOp56
 70
     1
102
RTVSPropertyOp57
 70
     1
102
RTVSPropertyOp58
 70
     1
102
RTVSPropertyOp59
 70
     1
102
RTVSPropertyOp60
 70
     1
102
RTVSPropertyOp61
 70
     1
102
RTVSPropertyOp62
 70
     1
  0
XRECORD
  5
1D568
102
{ACAD_REACTORS
330
1D567
102
}
330
1D567
100
AcDbXrecord
280
     1
102
RTVSPost2010Prop28
280
     0
102
RTVSPost2010PropOp28
 70
     1
102
RTVSPost2010Prop29
280
     1
102
RTVSPost2010PropOp29
 70
     1
102
RTVSPost2010Prop30
280
     1
102
RTVSPost2010PropOp30
 70
     1
102
RTVSPost2010Prop31
280
     0
102
RTVSPost2010PropOp31
 70
     1
102
RTVSPost2010Prop32
280
     0
102
RTVSPost2010PropOp32
 70
     1
102
RTVSPost2010Prop33
280
     0
102
RTVSPost2010PropOp33
 70
     1
102
RTVSPost2010Prop34
280
     0
102
RTVSPost2010PropOp34
 70
     1
102
RTVSPost2010Prop35
280
     0
102
RTVSPost2010PropOp35
 70
     1
102
RTVSPost2010Prop36
280
     0
102
RTVSPost2010PropOp36
 70
     1
102
RTVSPost2010Prop37
 90
       50
102
RTVSPost2010PropOp37
 70
     1
102
RTVSPost2010Prop38
140
0.0
102
RTVSPost2010PropOp38
 70
     1
102
RTVSPost2010Prop39
140
1.0
102
RTVSPost2010PropOp39
 70
     1
102
RTVSPost2010Prop40
 90
        0
102
RTVSPost2010PropOp40
 70
     1
102
RTVSPost2010Prop41ColorIndex
 90
       18
102
RTVSPost2010Prop41ColorRGB
 90
        0
102
RTVSPost2010PropOp41
 70
     1
102
RTVSPost2010Prop42
 90
       50
102
RTVSPost2010PropOp42
 70
     1
102
RTVSPost2010Prop43
 90
        3
102
RTVSPost2010PropOp43
 70
     1
102
RTVSPost2010Prop44ColorIndex
 90
        5
102
RTVSPost2010Prop44ColorRGB
 90
      255
102
RTVSPost2010PropOp44
 70
     1
102
RTVSPost2010Prop45
280
     0
102
RTVSPost2010PropOp45
 70
     1
102
RTVSPost2010Prop46
 90
       50
102
RTVSPost2010PropOp46
 70
     1
102
RTVSPost2010Prop47
 90
       50
102
RTVSPost2010PropOp47
 70
     1
102
RTVSPost2010Prop48
 90
       50
102
RTVSPost2010PropOp48
 70
     1
102
RTVSPost2010Prop49
280
     0
102
RTVSPost2010PropOp49
 70
     1
102
RTVSPost2010Prop50
 90
       50
102
RTVSPost2010PropOp50
 70
     1
102
RTVSPost2010Prop51ColorIndex
 90
      256
102
RTVSPost2010Prop51ColorRGB
 90
-16777216
102
RTVSPost2010PropOp51
 70
     0
102
RTVSPost2010Prop52
140
1.0
102
RTVSPost2010PropOp52
 70
     0
102
RTVSPost2010Prop53
 90
        2
102
RTVSPost2010PropOp53
 70
     1
102
RTVSPost2010Prop54
  1
strokes_ogs.tif
102
RTVSPost2010PropOp54
 70
     1
102
RTVSPost2010Prop55
280
     0
102
RTVSPost2010PropOp55
 70
     1
102
RTVSPost2010Prop56
140
1.0
102
RTVSPost2010PropOp56
 70
     1
102
RTVSPost2010Prop57
140
1.0
102
RTVSPost2010PropOp57
 70
     1
102
RTVSPropertyOp0
 70
     1
102
RTVSPropertyOp1
 70
     1
102
RTVSPropertyOp2
 70
     1
102
RTVSPropertyOp3
 70
     1
102
RTVSPropertyOp4
 70
     1
102
RTVSPropertyOp5
 70
     1
102
RTVSPropertyOp6
 70
     1
102
RTVSPropertyOp7
 70
     1
102
RTVSPropertyOp8
 70
     1
102
RTVSPropertyOp9
 70
     1
102
RTVSPropertyOp10
 70
     1
102
RTVSPropertyOp11
 70
     1
102
RTVSPropertyOp12
 70
     1
102
RTVSPropertyOp13
 70
     1
102
RTVSPropertyOp14
 70
     1
102
RTVSPropertyOp15
 70
     1
102
RTVSPropertyOp16
 70
     1
102
RTVSPropertyOp17
 70
     1
102
RTVSPropertyOp18
 70
     1
102
RTVSPropertyOp19
 70
     1
102
RTVSPropertyOp20
 70
     1
102
RTVSPropertyOp21
 70
     1
102
RTVSPropertyOp22
 70
     1
102
RTVSPropertyOp23
 70
     1
102
RTVSPropertyOp24
 70
     1
102
RTVSPropertyOp25
 70
     1
102
RTVSPropertyOp26
 70
     1
102
RTVSPropertyOp27
 70
     1
102
RTVSPropertyOp28
 70
     1
102
RTVSPropertyOp29
 70
     1
102
RTVSPropertyOp30
 70
     1
102
RTVSPropertyOp31
 70
     1
102
RTVSPropertyOp32
 70
     1
102
RTVSPropertyOp33
 70
     1
102
RTVSPropertyOp34
 70
     1
102
RTVSPropertyOp35
 70
     1
102
RTVSPropertyOp36
 70
     1
102
RTVSPropertyOp37
 70
     1
102
RTVSPropertyOp38
 70
     1
102
RTVSPropertyOp39
 70
     1
102
RTVSPropertyOp40
 70
     1
102
RTVSPropertyOp41
 70
     1
102
RTVSPropertyOp42
 70
     1
102
RTVSPropertyOp43
 70
     1
102
RTVSPropertyOp44
 70
     1
102
RTVSPropertyOp45
 70
     1
102
RTVSPropertyOp46
 70
     1
102
RTVSPropertyOp47
 70
     1
102
RTVSPropertyOp48
 70
     1
102
RTVSPropertyOp49
 70
     1
102
RTVSPropertyOp50
 70
     1
102
RTVSPropertyOp51
 70
     0
102
RTVSPropertyOp52
 70
     0
102
RTVSPropertyOp53
 70
     1
102
RTVSPropertyOp54
 70
     1
102
RTVSPropertyOp55
 70
     1
102
RTVSPropertyOp56
 70
     1
102
RTVSPropertyOp57
 70
     1
102
RTVSPropertyOp58
 70
     1
102
RTVSPropertyOp59
 70
     1
102
RTVSPropertyOp60
 70
     1
102
RTVSPropertyOp61
 70
     1
102
RTVSPropertyOp62
 70
     1
  0
XRECORD
  5
1D570
102
{ACAD_REACTORS
330
1D56F
102
}
330
1D56F
100
AcDbXrecord
280
     1
102
RTVSPost2010Prop28
280
     0
102
RTVSPost2010PropOp28
 70
     1
102
RTVSPost2010Prop29
280
     1
102
RTVSPost2010PropOp29
 70
     1
102
RTVSPost2010Prop30
280
     1
102
RTVSPost2010PropOp30
 70
     1
102
RTVSPost2010Prop31
280
     0
102
RTVSPost2010PropOp31
 70
     1
102
RTVSPost2010Prop32
280
     0
102
RTVSPost2010PropOp32
 70
     1
102
RTVSPost2010Prop33
280
     0
102
RTVSPost2010PropOp33
 70
     1
102
RTVSPost2010Prop34
280
     0
102
RTVSPost2010PropOp34
 70
     1
102
RTVSPost2010Prop35
280
     0
102
RTVSPost2010PropOp35
 70
     1
102
RTVSPost2010Prop36
280
     0
102
RTVSPost2010PropOp36
 70
     1
102
RTVSPost2010Prop37
 90
       50
102
RTVSPost2010PropOp37
 70
     1
102
RTVSPost2010Prop38
140
0.0
102
RTVSPost2010PropOp38
 70
     1
102
RTVSPost2010Prop39
140
1.0
102
RTVSPost2010PropOp39
 70
     1
102
RTVSPost2010Prop40
 90
        0
102
RTVSPost2010PropOp40
 70
     1
102
RTVSPost2010Prop41ColorIndex
 90
       18
102
RTVSPost2010Prop41ColorRGB
 90
        0
102
RTVSPost2010PropOp41
 70
     1
102
RTVSPost2010Prop42
 90
       50
102
RTVSPost2010PropOp42
 70
     1
102
RTVSPost2010Prop43
 90
        3
102
RTVSPost2010PropOp43
 70
     1
102
RTVSPost2010Prop44ColorIndex
 90
        5
102
RTVSPost2010Prop44ColorRGB
 90
      255
102
RTVSPost2010PropOp44
 70
     1
102
RTVSPost2010Prop45
280
     0
102
RTVSPost2010PropOp45
 70
     1
102
RTVSPost2010Prop46
 90
       50
102
RTVSPost2010PropOp46
 70
     1
102
RTVSPost2010Prop47
 90
       50
102
RTVSPost2010PropOp47
 70
     1
102
RTVSPost2010Prop48
 90
       50
102
RTVSPost2010PropOp48
 70
     1
102
RTVSPost2010Prop49
280
     0
102
RTVSPost2010PropOp49
 70
     1
102
RTVSPost2010Prop50
 90
       50
102
RTVSPost2010PropOp50
 70
     1
102
RTVSPost2010Prop51ColorIndex
 90
      256
102
RTVSPost2010Prop51ColorRGB
 90
-16777216
102
RTVSPost2010PropOp51
 70
     0
102
RTVSPost2010Prop52
140
1.0
102
RTVSPost2010PropOp52
 70
     0
102
RTVSPost2010Prop53
 90
        2
102
RTVSPost2010PropOp53
 70
     1
102
RTVSPost2010Prop54
  1
strokes_ogs.tif
102
RTVSPost2010PropOp54
 70
     1
102
RTVSPost2010Prop55
280
     0
102
RTVSPost2010PropOp55
 70
     1
102
RTVSPost2010Prop56
140
1.0
102
RTVSPost2010PropOp56
 70
     1
102
RTVSPost2010Prop57
140
1.0
102
RTVSPost2010PropOp57
 70
     1
102
RTVSPropertyOp0
 70
     1
102
RTVSPropertyOp1
 70
     1
102
RTVSPropertyOp2
 70
     1
102
RTVSPropertyOp3
 70
     1
102
RTVSPropertyOp4
 70
     1
102
RTVSPropertyOp5
 70
     1
102
RTVSPropertyOp6
 70
     1
102
RTVSPropertyOp7
 70
     1
102
RTVSPropertyOp8
 70
     1
102
RTVSPropertyOp9
 70
     1
102
RTVSPropertyOp10
 70
     1
102
RTVSPropertyOp11
 70
     1
102
RTVSPropertyOp12
 70
     1
102
RTVSPropertyOp13
 70
     1
102
RTVSPropertyOp14
 70
     1
102
RTVSPropertyOp15
 70
     1
102
RTVSPropertyOp16
 70
     1
102
RTVSPropertyOp17
 70
     1
102
RTVSPropertyOp18
 70
     1
102
RTVSPropertyOp19
 70
     1
102
RTVSPropertyOp20
 70
     1
102
RTVSPropertyOp21
 70
     1
102
RTVSPropertyOp22
 70
     1
102
RTVSPropertyOp23
 70
     1
102
RTVSPropertyOp24
 70
     1
102
RTVSPropertyOp25
 70
     1
102
RTVSPropertyOp26
 70
     1
102
RTVSPropertyOp27
 70
     1
102
RTVSPropertyOp28
 70
     1
102
RTVSPropertyOp29
 70
     1
102
RTVSPropertyOp30
 70
     1
102
RTVSPropertyOp31
 70
     1
102
RTVSPropertyOp32
 70
     1
102
RTVSPropertyOp33
 70
     1
102
RTVSPropertyOp34
 70
     1
102
RTVSPropertyOp35
 70
     1
102
RTVSPropertyOp36
 70
     1
102
RTVSPropertyOp37
 70
     1
102
RTVSPropertyOp38
 70
     1
102
RTVSPropertyOp39
 70
     1
102
RTVSPropertyOp40
 70
     1
102
RTVSPropertyOp41
 70
     1
102
RTVSPropertyOp42
 70
     1
102
RTVSPropertyOp43
 70
     1
102
RTVSPropertyOp44
 70
     1
102
RTVSPropertyOp45
 70
     1
102
RTVSPropertyOp46
 70
     1
102
RTVSPropertyOp47
 70
     1
102
RTVSPropertyOp48
 70
     1
102
RTVSPropertyOp49
 70
     1
102
RTVSPropertyOp50
 70
     1
102
RTVSPropertyOp51
 70
     0
102
RTVSPropertyOp52
 70
     0
102
RTVSPropertyOp53
 70
     1
102
RTVSPropertyOp54
 70
     1
102
RTVSPropertyOp55
 70
     1
102
RTVSPropertyOp56
 70
     1
102
RTVSPropertyOp57
 70
     1
102
RTVSPropertyOp58
 70
     1
102
RTVSPropertyOp59
 70
     1
102
RTVSPropertyOp60
 70
     1
102
RTVSPropertyOp61
 70
     1
102
RTVSPropertyOp62
 70
     1
  0
XRECORD
  5
1D562
102
{ACAD_REACTORS
330
1D561
102
}
330
1D561
100
AcDbXrecord
280
     1
102
RTVSPost2010Prop28
280
     0
102
RTVSPost2010PropOp28
 70
     1
102
RTVSPost2010Prop29
280
     1
102
RTVSPost2010PropOp29
 70
     1
102
RTVSPost2010Prop30
280
     1
102
RTVSPost2010PropOp30
 70
     1
102
RTVSPost2010Prop31
280
     0
102
RTVSPost2010PropOp31
 70
     1
102
RTVSPost2010Prop32
280
     0
102
RTVSPost2010PropOp32
 70
     1
102
RTVSPost2010Prop33
280
     0
102
RTVSPost2010PropOp33
 70
     1
102
RTVSPost2010Prop34
280
     0
102
RTVSPost2010PropOp34
 70
     1
102
RTVSPost2010Prop35
280
     0
102
RTVSPost2010PropOp35
 70
     1
102
RTVSPost2010Prop36
280
     0
102
RTVSPost2010PropOp36
 70
     1
102
RTVSPost2010Prop37
 90
       50
102
RTVSPost2010PropOp37
 70
     1
102
RTVSPost2010Prop38
140
0.0
102
RTVSPost2010PropOp38
 70
     1
102
RTVSPost2010Prop39
140
1.0
102
RTVSPost2010PropOp39
 70
     1
102
RTVSPost2010Prop40
 90
        0
102
RTVSPost2010PropOp40
 70
     1
102
RTVSPost2010Prop41ColorIndex
 90
       18
102
RTVSPost2010Prop41ColorRGB
 90
        0
102
RTVSPost2010PropOp41
 70
     1
102
RTVSPost2010Prop42
 90
       50
102
RTVSPost2010PropOp42
 70
     1
102
RTVSPost2010Prop43
 90
        3
102
RTVSPost2010PropOp43
 70
     1
102
RTVSPost2010Prop44ColorIndex
 90
        5
102
RTVSPost2010Prop44ColorRGB
 90
      255
102
RTVSPost2010PropOp44
 70
     1
102
RTVSPost2010Prop45
280
     0
102
RTVSPost2010PropOp45
 70
     1
102
RTVSPost2010Prop46
 90
       50
102
RTVSPost2010PropOp46
 70
     1
102
RTVSPost2010Prop47
 90
       50
102
RTVSPost2010PropOp47
 70
     1
102
RTVSPost2010Prop48
 90
       50
102
RTVSPost2010PropOp48
 70
     1
102
RTVSPost2010Prop49
280
     0
102
RTVSPost2010PropOp49
 70
     1
102
RTVSPost2010Prop50
 90
       50
102
RTVSPost2010PropOp50
 70
     1
102
RTVSPost2010Prop51ColorIndex
 90
      256
102
RTVSPost2010Prop51ColorRGB
 90
-16777216
102
RTVSPost2010PropOp51
 70
     0
102
RTVSPost2010Prop52
140
1.0
102
RTVSPost2010PropOp52
 70
     0
102
RTVSPost2010Prop53
 90
        2
102
RTVSPost2010PropOp53
 70
     1
102
RTVSPost2010Prop54
  1
strokes_ogs.tif
102
RTVSPost2010PropOp54
 70
     1
102
RTVSPost2010Prop55
280
     0
102
RTVSPost2010PropOp55
 70
     1
102
RTVSPost2010Prop56
140
1.0
102
RTVSPost2010PropOp56
 70
     1
102
RTVSPost2010Prop57
140
1.0
102
RTVSPost2010PropOp57
 70
     1
102
RTVSPropertyOp0
 70
     1
102
RTVSPropertyOp1
 70
     1
102
RTVSPropertyOp2
 70
     1
102
RTVSPropertyOp3
 70
     1
102
RTVSPropertyOp4
 70
     1
102
RTVSPropertyOp5
 70
     1
102
RTVSPropertyOp6
 70
     1
102
RTVSPropertyOp7
 70
     1
102
RTVSPropertyOp8
 70
     1
102
RTVSPropertyOp9
 70
     1
102
RTVSPropertyOp10
 70
     1
102
RTVSPropertyOp11
 70
     1
102
RTVSPropertyOp12
 70
     1
102
RTVSPropertyOp13
 70
     1
102
RTVSPropertyOp14
 70
     1
102
RTVSPropertyOp15
 70
     1
102
RTVSPropertyOp16
 70
     1
102
RTVSPropertyOp17
 70
     1
102
RTVSPropertyOp18
 70
     1
102
RTVSPropertyOp19
 70
     1
102
RTVSPropertyOp20
 70
     1
102
RTVSPropertyOp21
 70
     1
102
RTVSPropertyOp22
 70
     1
102
RTVSPropertyOp23
 70
     1
102
RTVSPropertyOp24
 70
     1
102
RTVSPropertyOp25
 70
     1
102
RTVSPropertyOp26
 70
     1
102
RTVSPropertyOp27
 70
     1
102
RTVSPropertyOp28
 70
     1
102
RTVSPropertyOp29
 70
     1
102
RTVSPropertyOp30
 70
     1
102
RTVSPropertyOp31
 70
     1
102
RTVSPropertyOp32
 70
     1
102
RTVSPropertyOp33
 70
     1
102
RTVSPropertyOp34
 70
     1
102
RTVSPropertyOp35
 70
     1
102
RTVSPropertyOp36
 70
     1
102
RTVSPropertyOp37
 70
     1
102
RTVSPropertyOp38
 70
     1
102
RTVSPropertyOp39
 70
     1
102
RTVSPropertyOp40
 70
     1
102
RTVSPropertyOp41
 70
     1
102
RTVSPropertyOp42
 70
     1
102
RTVSPropertyOp43
 70
     1
102
RTVSPropertyOp44
 70
     1
102
RTVSPropertyOp45
 70
     1
102
RTVSPropertyOp46
 70
     1
102
RTVSPropertyOp47
 70
     1
102
RTVSPropertyOp48
 70
     1
102
RTVSPropertyOp49
 70
     1
102
RTVSPropertyOp50
 70
     1
102
RTVSPropertyOp51
 70
     0
102
RTVSPropertyOp52
 70
     0
102
RTVSPropertyOp53
 70
     1
102
RTVSPropertyOp54
 70
     1
102
RTVSPropertyOp55
 70
     1
102
RTVSPropertyOp56
 70
     1
102
RTVSPropertyOp57
 70
     1
102
RTVSPropertyOp58
 70
     1
102
RTVSPropertyOp59
 70
     1
102
RTVSPropertyOp60
 70
     1
102
RTVSPropertyOp61
 70
     1
102
RTVSPropertyOp62
 70
     1
  0
XRECORD
  5
1D566
102
{ACAD_REACTORS
330
1D565
102
}
330
1D565
100
AcDbXrecord
280
     1
102
RTVSPost2010Prop28
280
     0
102
RTVSPost2010PropOp28
 70
     1
102
RTVSPost2010Prop29
280
     1
102
RTVSPost2010PropOp29
 70
     1
102
RTVSPost2010Prop30
280
     1
102
RTVSPost2010PropOp30
 70
     1
102
RTVSPost2010Prop31
280
     0
102
RTVSPost2010PropOp31
 70
     1
102
RTVSPost2010Prop32
280
     0
102
RTVSPost2010PropOp32
 70
     1
102
RTVSPost2010Prop33
280
     0
102
RTVSPost2010PropOp33
 70
     1
102
RTVSPost2010Prop34
280
     0
102
RTVSPost2010PropOp34
 70
     1
102
RTVSPost2010Prop35
280
     0
102
RTVSPost2010PropOp35
 70
     1
102
RTVSPost2010Prop36
280
     0
102
RTVSPost2010PropOp36
 70
     1
102
RTVSPost2010Prop37
 90
       50
102
RTVSPost2010PropOp37
 70
     1
102
RTVSPost2010Prop38
140
0.0
102
RTVSPost2010PropOp38
 70
     1
102
RTVSPost2010Prop39
140
1.0
102
RTVSPost2010PropOp39
 70
     1
102
RTVSPost2010Prop40
 90
        0
102
RTVSPost2010PropOp40
 70
     1
102
RTVSPost2010Prop41ColorIndex
 90
       18
102
RTVSPost2010Prop41ColorRGB
 90
        0
102
RTVSPost2010PropOp41
 70
     1
102
RTVSPost2010Prop42
 90
       50
102
RTVSPost2010PropOp42
 70
     1
102
RTVSPost2010Prop43
 90
        3
102
RTVSPost2010PropOp43
 70
     1
102
RTVSPost2010Prop44ColorIndex
 90
        5
102
RTVSPost2010Prop44ColorRGB
 90
      255
102
RTVSPost2010PropOp44
 70
     1
102
RTVSPost2010Prop45
280
     0
102
RTVSPost2010PropOp45
 70
     1
102
RTVSPost2010Prop46
 90
       50
102
RTVSPost2010PropOp46
 70
     1
102
RTVSPost2010Prop47
 90
       50
102
RTVSPost2010PropOp47
 70
     1
102
RTVSPost2010Prop48
 90
       50
102
RTVSPost2010PropOp48
 70
     1
102
RTVSPost2010Prop49
280
     0
102
RTVSPost2010PropOp49
 70
     1
102
RTVSPost2010Prop50
 90
       50
102
RTVSPost2010PropOp50
 70
     1
102
RTVSPost2010Prop51ColorIndex
 90
      256
102
RTVSPost2010Prop51ColorRGB
 90
-16777216
102
RTVSPost2010PropOp51
 70
     0
102
RTVSPost2010Prop52
140
1.0
102
RTVSPost2010PropOp52
 70
     0
102
RTVSPost2010Prop53
 90
        2
102
RTVSPost2010PropOp53
 70
     1
102
RTVSPost2010Prop54
  1
strokes_ogs.tif
102
RTVSPost2010PropOp54
 70
     1
102
RTVSPost2010Prop55
280
     0
102
RTVSPost2010PropOp55
 70
     1
102
RTVSPost2010Prop56
140
1.0
102
RTVSPost2010PropOp56
 70
     1
102
RTVSPost2010Prop57
140
1.0
102
RTVSPost2010PropOp57
 70
     1
102
RTVSPropertyOp0
 70
     1
102
RTVSPropertyOp1
 70
     1
102
RTVSPropertyOp2
 70
     1
102
RTVSPropertyOp3
 70
     1
102
RTVSPropertyOp4
 70
     1
102
RTVSPropertyOp5
 70
     1
102
RTVSPropertyOp6
 70
     1
102
RTVSPropertyOp7
 70
     1
102
RTVSPropertyOp8
 70
     1
102
RTVSPropertyOp9
 70
     1
102
RTVSPropertyOp10
 70
     1
102
RTVSPropertyOp11
 70
     1
102
RTVSPropertyOp12
 70
     1
102
RTVSPropertyOp13
 70
     1
102
RTVSPropertyOp14
 70
     1
102
RTVSPropertyOp15
 70
     1
102
RTVSPropertyOp16
 70
     1
102
RTVSPropertyOp17
 70
     1
102
RTVSPropertyOp18
 70
     1
102
RTVSPropertyOp19
 70
     1
102
RTVSPropertyOp20
 70
     1
102
RTVSPropertyOp21
 70
     1
102
RTVSPropertyOp22
 70
     1
102
RTVSPropertyOp23
 70
     1
102
RTVSPropertyOp24
 70
     1
102
RTVSPropertyOp25
 70
     1
102
RTVSPropertyOp26
 70
     1
102
RTVSPropertyOp27
 70
     1
102
RTVSPropertyOp28
 70
     1
102
RTVSPropertyOp29
 70
     1
102
RTVSPropertyOp30
 70
     1
102
RTVSPropertyOp31
 70
     1
102
RTVSPropertyOp32
 70
     1
102
RTVSPropertyOp33
 70
     1
102
RTVSPropertyOp34
 70
     1
102
RTVSPropertyOp35
 70
     1
102
RTVSPropertyOp36
 70
     1
102
RTVSPropertyOp37
 70
     1
102
RTVSPropertyOp38
 70
     1
102
RTVSPropertyOp39
 70
     1
102
RTVSPropertyOp40
 70
     1
102
RTVSPropertyOp41
 70
     1
102
RTVSPropertyOp42
 70
     1
102
RTVSPropertyOp43
 70
     1
102
RTVSPropertyOp44
 70
     1
102
RTVSPropertyOp45
 70
     1
102
RTVSPropertyOp46
 70
     1
102
RTVSPropertyOp47
 70
     1
102
RTVSPropertyOp48
 70
     1
102
RTVSPropertyOp49
 70
     1
102
RTVSPropertyOp50
 70
     1
102
RTVSPropertyOp51
 70
     0
102
RTVSPropertyOp52
 70
     0
102
RTVSPropertyOp53
 70
     1
102
RTVSPropertyOp54
 70
     1
102
RTVSPropertyOp55
 70
     1
102
RTVSPropertyOp56
 70
     1
102
RTVSPropertyOp57
 70
     1
102
RTVSPropertyOp58
 70
     1
102
RTVSPropertyOp59
 70
     1
102
RTVSPropertyOp60
 70
     1
102
RTVSPropertyOp61
 70
     1
102
RTVSPropertyOp62
 70
     1
  0
XRECORD
  5
1D580
102
{ACAD_REACTORS
330
1D57F
102
}
330
1D57F
100
AcDbXrecord
280
     1
102
RTVSPost2010Prop28
280
     0
102
RTVSPost2010PropOp28
 70
     1
102
RTVSPost2010Prop29
280
     1
102
RTVSPost2010PropOp29
 70
     1
102
RTVSPost2010Prop30
280
     1
102
RTVSPost2010PropOp30
 70
     1
102
RTVSPost2010Prop31
280
     0
102
RTVSPost2010PropOp31
 70
     1
102
RTVSPost2010Prop32
280
     0
102
RTVSPost2010PropOp32
 70
     1
102
RTVSPost2010Prop33
280
     0
102
RTVSPost2010PropOp33
 70
     1
102
RTVSPost2010Prop34
280
     0
102
RTVSPost2010PropOp34
 70
     1
102
RTVSPost2010Prop35
280
     0
102
RTVSPost2010PropOp35
 70
     1
102
RTVSPost2010Prop36
280
     0
102
RTVSPost2010PropOp36
 70
     1
102
RTVSPost2010Prop37
 90
       50
102
RTVSPost2010PropOp37
 70
     0
102
RTVSPost2010Prop38
140
0.0
102
RTVSPost2010PropOp38
 70
     0
102
RTVSPost2010Prop39
140
1.0
102
RTVSPost2010PropOp39
 70
     0
102
RTVSPost2010Prop40
 90
        0
102
RTVSPost2010PropOp40
 70
     0
102
RTVSPost2010Prop41ColorIndex
 90
       18
102
RTVSPost2010Prop41ColorRGB
 90
        0
102
RTVSPost2010PropOp41
 70
     0
102
RTVSPost2010Prop42
 90
       50
102
RTVSPost2010PropOp42
 70
     0
102
RTVSPost2010Prop43
 90
        3
102
RTVSPost2010PropOp43
 70
     0
102
RTVSPost2010Prop44ColorIndex
 90
        5
102
RTVSPost2010Prop44ColorRGB
 90
      255
102
RTVSPost2010PropOp44
 70
     0
102
RTVSPost2010Prop45
280
     0
102
RTVSPost2010PropOp45
 70
     1
102
RTVSPost2010Prop46
 90
       50
102
RTVSPost2010PropOp46
 70
     0
102
RTVSPost2010Prop47
 90
       50
102
RTVSPost2010PropOp47
 70
     0
102
RTVSPost2010Prop48
 90
       50
102
RTVSPost2010PropOp48
 70
     0
102
RTVSPost2010Prop49
280
     0
102
RTVSPost2010PropOp49
 70
     1
102
RTVSPost2010Prop50
 90
       50
102
RTVSPost2010PropOp50
 70
     0
102
RTVSPost2010Prop51ColorIndex
 90
      256
102
RTVSPost2010Prop51ColorRGB
 90
-16777216
102
RTVSPost2010PropOp51
 70
     0
102
RTVSPost2010Prop52
140
1.0
102
RTVSPost2010PropOp52
 70
     0
102
RTVSPost2010Prop53
 90
        2
102
RTVSPost2010PropOp53
 70
     0
102
RTVSPost2010Prop54
  1
strokes_ogs.tif
102
RTVSPost2010PropOp54
 70
     0
102
RTVSPost2010Prop55
280
     0
102
RTVSPost2010PropOp55
 70
     1
102
RTVSPost2010Prop56
140
1.0
102
RTVSPost2010PropOp56
 70
     0
102
RTVSPost2010Prop57
140
1.0
102
RTVSPost2010PropOp57
 70
     0
102
RTVSPropertyOp0
 70
     0
102
RTVSPropertyOp1
 70
     0
102
RTVSPropertyOp2
 70
     0
102
RTVSPropertyOp3
 70
     0
102
RTVSPropertyOp4
 70
     0
102
RTVSPropertyOp5
 70
     0
102
RTVSPropertyOp6
 70
     0
102
RTVSPropertyOp7
 70
     0
102
RTVSPropertyOp8
 70
     0
102
RTVSPropertyOp9
 70
     0
102
RTVSPropertyOp10
 70
     0
102
RTVSPropertyOp11
 70
     0
102
RTVSPropertyOp12
 70
     0
102
RTVSPropertyOp13
 70
     0
102
RTVSPropertyOp14
 70
     2
102
RTVSPropertyOp15
 70
     0
102
RTVSPropertyOp16
 70
     0
102
RTVSPropertyOp17
 70
     0
102
RTVSPropertyOp18
 70
     0
102
RTVSPropertyOp19
 70
     0
102
RTVSPropertyOp20
 70
     0
102
RTVSPropertyOp21
 70
     0
102
RTVSPropertyOp22
 70
     0
102
RTVSPropertyOp23
 70
     0
102
RTVSPropertyOp24
 70
     0
102
RTVSPropertyOp25
 70
     0
102
RTVSPropertyOp26
 70
     0
102
RTVSPropertyOp27
 70
     0
102
RTVSPropertyOp28
 70
     1
102
RTVSPropertyOp29
 70
     1
102
RTVSPropertyOp30
 70
     1
102
RTVSPropertyOp31
 70
     1
102
RTVSPropertyOp32
 70
     1
102
RTVSPropertyOp33
 70
     1
102
RTVSPropertyOp34
 70
     1
102
RTVSPropertyOp35
 70
     1
102
RTVSPropertyOp36
 70
     1
102
RTVSPropertyOp37
 70
     0
102
RTVSPropertyOp38
 70
     0
102
RTVSPropertyOp39
 70
     0
102
RTVSPropertyOp40
 70
     0
102
RTVSPropertyOp41
 70
     0
102
RTVSPropertyOp42
 70
     0
102
RTVSPropertyOp43
 70
     0
102
RTVSPropertyOp44
 70
     0
102
RTVSPropertyOp45
 70
     1
102
RTVSPropertyOp46
 70
     0
102
RTVSPropertyOp47
 70
     0
102
RTVSPropertyOp48
 70
     0
102
RTVSPropertyOp49
 70
     1
102
RTVSPropertyOp50
 70
     0
102
RTVSPropertyOp51
 70
     0
102
RTVSPropertyOp52
 70
     0
102
RTVSPropertyOp53
 70
     0
102
RTVSPropertyOp54
 70
     0
102
RTVSPropertyOp55
 70
     1
102
RTVSPropertyOp56
 70
     0
102
RTVSPropertyOp57
 70
     0
102
RTVSPropertyOp58
 70
     0
102
RTVSPropertyOp59
 70
     0
102
RTVSPropertyOp60
 70
     0
102
RTVSPropertyOp61
 70
     0
102
RTVSPropertyOp62
 70
     0
  0
XRECORD
  5
1D56E
102
{ACAD_REACTORS
330
1D56D
102
}
330
1D56D
100
AcDbXrecord
280
     1
102
RTVSPost2010Prop28
280
     0
102
RTVSPost2010PropOp28
 70
     1
102
RTVSPost2010Prop29
280
     1
102
RTVSPost2010PropOp29
 70
     1
102
RTVSPost2010Prop30
280
     1
102
RTVSPost2010PropOp30
 70
     1
102
RTVSPost2010Prop31
280
     0
102
RTVSPost2010PropOp31
 70
     1
102
RTVSPost2010Prop32
280
     0
102
RTVSPost2010PropOp32
 70
     1
102
RTVSPost2010Prop33
280
     0
102
RTVSPost2010PropOp33
 70
     1
102
RTVSPost2010Prop34
280
     0
102
RTVSPost2010PropOp34
 70
     1
102
RTVSPost2010Prop35
280
     0
102
RTVSPost2010PropOp35
 70
     1
102
RTVSPost2010Prop36
280
     0
102
RTVSPost2010PropOp36
 70
     1
102
RTVSPost2010Prop37
 90
       50
102
RTVSPost2010PropOp37
 70
     1
102
RTVSPost2010Prop38
140
0.0
102
RTVSPost2010PropOp38
 70
     1
102
RTVSPost2010Prop39
140
1.0
102
RTVSPost2010PropOp39
 70
     1
102
RTVSPost2010Prop40
 90
        0
102
RTVSPost2010PropOp40
 70
     1
102
RTVSPost2010Prop41ColorIndex
 90
       18
102
RTVSPost2010Prop41ColorRGB
 90
        0
102
RTVSPost2010PropOp41
 70
     1
102
RTVSPost2010Prop42
 90
       50
102
RTVSPost2010PropOp42
 70
     1
102
RTVSPost2010Prop43
 90
        3
102
RTVSPost2010PropOp43
 70
     1
102
RTVSPost2010Prop44ColorIndex
 90
        5
102
RTVSPost2010Prop44ColorRGB
 90
      255
102
RTVSPost2010PropOp44
 70
     1
102
RTVSPost2010Prop45
280
     0
102
RTVSPost2010PropOp45
 70
     1
102
RTVSPost2010Prop46
 90
       50
102
RTVSPost2010PropOp46
 70
     1
102
RTVSPost2010Prop47
 90
       50
102
RTVSPost2010PropOp47
 70
     1
102
RTVSPost2010Prop48
 90
       50
102
RTVSPost2010PropOp48
 70
     1
102
RTVSPost2010Prop49
280
     0
102
RTVSPost2010PropOp49
 70
     1
102
RTVSPost2010Prop50
 90
       50
102
RTVSPost2010PropOp50
 70
     1
102
RTVSPost2010Prop51ColorIndex
 90
      256
102
RTVSPost2010Prop51ColorRGB
 90
-16777216
102
RTVSPost2010PropOp51
 70
     0
102
RTVSPost2010Prop52
140
1.0
102
RTVSPost2010PropOp52
 70
     0
102
RTVSPost2010Prop53
 90
        2
102
RTVSPost2010PropOp53
 70
     1
102
RTVSPost2010Prop54
  1
strokes_ogs.tif
102
RTVSPost2010PropOp54
 70
     1
102
RTVSPost2010Prop55
280
     0
102
RTVSPost2010PropOp55
 70
     1
102
RTVSPost2010Prop56
140
1.0
102
RTVSPost2010PropOp56
 70
     1
102
RTVSPost2010Prop57
140
1.0
102
RTVSPost2010PropOp57
 70
     1
102
RTVSPropertyOp0
 70
     1
102
RTVSPropertyOp1
 70
     1
102
RTVSPropertyOp2
 70
     1
102
RTVSPropertyOp3
 70
     1
102
RTVSPropertyOp4
 70
     1
102
RTVSPropertyOp5
 70
     1
102
RTVSPropertyOp6
 70
     1
102
RTVSPropertyOp7
 70
     1
102
RTVSPropertyOp8
 70
     1
102
RTVSPropertyOp9
 70
     1
102
RTVSPropertyOp10
 70
     1
102
RTVSPropertyOp11
 70
     1
102
RTVSPropertyOp12
 70
     1
102
RTVSPropertyOp13
 70
     1
102
RTVSPropertyOp14
 70
     1
102
RTVSPropertyOp15
 70
     1
102
RTVSPropertyOp16
 70
     1
102
RTVSPropertyOp17
 70
     1
102
RTVSPropertyOp18
 70
     1
102
RTVSPropertyOp19
 70
     1
102
RTVSPropertyOp20
 70
     1
102
RTVSPropertyOp21
 70
     1
102
RTVSPropertyOp22
 70
     1
102
RTVSPropertyOp23
 70
     1
102
RTVSPropertyOp24
 70
     1
102
RTVSPropertyOp25
 70
     1
102
RTVSPropertyOp26
 70
     1
102
RTVSPropertyOp27
 70
     1
102
RTVSPropertyOp28
 70
     1
102
RTVSPropertyOp29
 70
     1
102
RTVSPropertyOp30
 70
     1
102
RTVSPropertyOp31
 70
     1
102
RTVSPropertyOp32
 70
     1
102
RTVSPropertyOp33
 70
     1
102
RTVSPropertyOp34
 70
     1
102
RTVSPropertyOp35
 70
     1
102
RTVSPropertyOp36
 70
     1
102
RTVSPropertyOp37
 70
     1
102
RTVSPropertyOp38
 70
     1
102
RTVSPropertyOp39
 70
     1
102
RTVSPropertyOp40
 70
     1
102
RTVSPropertyOp41
 70
     1
102
RTVSPropertyOp42
 70
     1
102
RTVSPropertyOp43
 70
     1
102
RTVSPropertyOp44
 70
     1
102
RTVSPropertyOp45
 70
     1
102
RTVSPropertyOp46
 70
     1
102
RTVSPropertyOp47
 70
     1
102
RTVSPropertyOp48
 70
     1
102
RTVSPropertyOp49
 70
     1
102
RTVSPropertyOp50
 70
     1
102
RTVSPropertyOp51
 70
     0
102
RTVSPropertyOp52
 70
     0
102
RTVSPropertyOp53
 70
     1
102
RTVSPropertyOp54
 70
     1
102
RTVSPropertyOp55
 70
     1
102
RTVSPropertyOp56
 70
     1
102
RTVSPropertyOp57
 70
     1
102
RTVSPropertyOp58
 70
     1
102
RTVSPropertyOp59
 70
     1
102
RTVSPropertyOp60
 70
     1
102
RTVSPropertyOp61
 70
     1
102
RTVSPropertyOp62
 70
     1
  0
XRECORD
  5
1D552
102
{ACAD_REACTORS
330
1D551
102
}
330
1D551
100
AcDbXrecord
280
     1
102
RTVSPost2010Prop28
280
     0
102
RTVSPost2010PropOp28
 70
     1
102
RTVSPost2010Prop29
280
     1
102
RTVSPost2010PropOp29
 70
     1
102
RTVSPost2010Prop30
280
     1
102
RTVSPost2010PropOp30
 70
     1
102
RTVSPost2010Prop31
280
     0
102
RTVSPost2010PropOp31
 70
     1
102
RTVSPost2010Prop32
280
     0
102
RTVSPost2010PropOp32
 70
     1
102
RTVSPost2010Prop33
280
     0
102
RTVSPost2010PropOp33
 70
     1
102
RTVSPost2010Prop34
280
     0
102
RTVSPost2010PropOp34
 70
     1
102
RTVSPost2010Prop35
280
     0
102
RTVSPost2010PropOp35
 70
     1
102
RTVSPost2010Prop36
280
     0
102
RTVSPost2010PropOp36
 70
     1
102
RTVSPost2010Prop37
 90
       50
102
RTVSPost2010PropOp37
 70
     1
102
RTVSPost2010Prop38
140
0.0
102
RTVSPost2010PropOp38
 70
     1
102
RTVSPost2010Prop39
140
1.0
102
RTVSPost2010PropOp39
 70
     1
102
RTVSPost2010Prop40
 90
        0
102
RTVSPost2010PropOp40
 70
     1
102
RTVSPost2010Prop41ColorIndex
 90
       18
102
RTVSPost2010Prop41ColorRGB
 90
        0
102
RTVSPost2010PropOp41
 70
     1
102
RTVSPost2010Prop42
 90
       50
102
RTVSPost2010PropOp42
 70
     1
102
RTVSPost2010Prop43
 90
        3
102
RTVSPost2010PropOp43
 70
     1
102
RTVSPost2010Prop44ColorIndex
 90
        5
102
RTVSPost2010Prop44ColorRGB
 90
      255
102
RTVSPost2010PropOp44
 70
     1
102
RTVSPost2010Prop45
280
     0
102
RTVSPost2010PropOp45
 70
     1
102
RTVSPost2010Prop46
 90
       50
102
RTVSPost2010PropOp46
 70
     1
102
RTVSPost2010Prop47
 90
       50
102
RTVSPost2010PropOp47
 70
     1
102
RTVSPost2010Prop48
 90
       50
102
RTVSPost2010PropOp48
 70
     1
102
RTVSPost2010Prop49
280
     0
102
RTVSPost2010PropOp49
 70
     1
102
RTVSPost2010Prop50
 90
       50
102
RTVSPost2010PropOp50
 70
     1
102
RTVSPost2010Prop51ColorIndex
 90
      256
102
RTVSPost2010Prop51ColorRGB
 90
-16777216
102
RTVSPost2010PropOp51
 70
     0
102
RTVSPost2010Prop52
140
1.0
102
RTVSPost2010PropOp52
 70
     0
102
RTVSPost2010Prop53
 90
        2
102
RTVSPost2010PropOp53
 70
     1
102
RTVSPost2010Prop54
  1
strokes_ogs.tif
102
RTVSPost2010PropOp54
 70
     1
102
RTVSPost2010Prop55
280
     0
102
RTVSPost2010PropOp55
 70
     1
102
RTVSPost2010Prop56
140
1.0
102
RTVSPost2010PropOp56
 70
     1
102
RTVSPost2010Prop57
140
1.0
102
RTVSPost2010PropOp57
 70
     1
102
RTVSPropertyOp0
 70
     1
102
RTVSPropertyOp1
 70
     1
102
RTVSPropertyOp2
 70
     1
102
RTVSPropertyOp3
 70
     1
102
RTVSPropertyOp4
 70
     1
102
RTVSPropertyOp5
 70
     1
102
RTVSPropertyOp6
 70
     1
102
RTVSPropertyOp7
 70
     1
102
RTVSPropertyOp8
 70
     1
102
RTVSPropertyOp9
 70
     1
102
RTVSPropertyOp10
 70
     1
102
RTVSPropertyOp11
 70
     1
102
RTVSPropertyOp12
 70
     1
102
RTVSPropertyOp13
 70
     1
102
RTVSPropertyOp14
 70
     1
102
RTVSPropertyOp15
 70
     1
102
RTVSPropertyOp16
 70
     1
102
RTVSPropertyOp17
 70
     1
102
RTVSPropertyOp18
 70
     1
102
RTVSPropertyOp19
 70
     1
102
RTVSPropertyOp20
 70
     1
102
RTVSPropertyOp21
 70
     1
102
RTVSPropertyOp22
 70
     1
102
RTVSPropertyOp23
 70
     1
102
RTVSPropertyOp24
 70
     1
102
RTVSPropertyOp25
 70
     1
102
RTVSPropertyOp26
 70
     1
102
RTVSPropertyOp27
 70
     1
102
RTVSPropertyOp28
 70
     1
102
RTVSPropertyOp29
 70
     1
102
RTVSPropertyOp30
 70
     1
102
RTVSPropertyOp31
 70
     1
102
RTVSPropertyOp32
 70
     1
102
RTVSPropertyOp33
 70
     1
102
RTVSPropertyOp34
 70
     1
102
RTVSPropertyOp35
 70
     1
102
RTVSPropertyOp36
 70
     1
102
RTVSPropertyOp37
 70
     1
102
RTVSPropertyOp38
 70
     1
102
RTVSPropertyOp39
 70
     1
102
RTVSPropertyOp40
 70
     1
102
RTVSPropertyOp41
 70
     1
102
RTVSPropertyOp42
 70
     1
102
RTVSPropertyOp43
 70
     1
102
RTVSPropertyOp44
 70
     1
102
RTVSPropertyOp45
 70
     1
102
RTVSPropertyOp46
 70
     1
102
RTVSPropertyOp47
 70
     1
102
RTVSPropertyOp48
 70
     1
102
RTVSPropertyOp49
 70
     1
102
RTVSPropertyOp50
 70
     1
102
RTVSPropertyOp51
 70
     0
102
RTVSPropertyOp52
 70
     0
102
RTVSPropertyOp53
 70
     1
102
RTVSPropertyOp54
 70
     1
102
RTVSPropertyOp55
 70
     1
102
RTVSPropertyOp56
 70
     1
102
RTVSPropertyOp57
 70
     1
102
RTVSPropertyOp58
 70
     1
102
RTVSPropertyOp59
 70
     1
102
RTVSPropertyOp60
 70
     1
102
RTVSPropertyOp61
 70
     1
102
RTVSPropertyOp62
 70
     1
  0
XRECORD
  5
1D554
102
{ACAD_REACTORS
330
1D553
102
}
330
1D553
100
AcDbXrecord
280
     1
102
RTVSPost2010Prop28
280
     0
102
RTVSPost2010PropOp28
 70
     1
102
RTVSPost2010Prop29
280
     1
102
RTVSPost2010PropOp29
 70
     1
102
RTVSPost2010Prop30
280
     1
102
RTVSPost2010PropOp30
 70
     1
102
RTVSPost2010Prop31
280
     0
102
RTVSPost2010PropOp31
 70
     1
102
RTVSPost2010Prop32
280
     0
102
RTVSPost2010PropOp32
 70
     1
102
RTVSPost2010Prop33
280
     0
102
RTVSPost2010PropOp33
 70
     1
102
RTVSPost2010Prop34
280
     0
102
RTVSPost2010PropOp34
 70
     1
102
RTVSPost2010Prop35
280
     0
102
RTVSPost2010PropOp35
 70
     1
102
RTVSPost2010Prop36
280
     0
102
RTVSPost2010PropOp36
 70
     1
102
RTVSPost2010Prop37
 90
       50
102
RTVSPost2010PropOp37
 70
     1
102
RTVSPost2010Prop38
140
0.0
102
RTVSPost2010PropOp38
 70
     1
102
RTVSPost2010Prop39
140
1.0
102
RTVSPost2010PropOp39
 70
     1
102
RTVSPost2010Prop40
 90
        0
102
RTVSPost2010PropOp40
 70
     1
102
RTVSPost2010Prop41ColorIndex
 90
       18
102
RTVSPost2010Prop41ColorRGB
 90
        0
102
RTVSPost2010PropOp41
 70
     1
102
RTVSPost2010Prop42
 90
       50
102
RTVSPost2010PropOp42
 70
     1
102
RTVSPost2010Prop43
 90
        3
102
RTVSPost2010PropOp43
 70
     1
102
RTVSPost2010Prop44ColorIndex
 90
        5
102
RTVSPost2010Prop44ColorRGB
 90
      255
102
RTVSPost2010PropOp44
 70
     1
102
RTVSPost2010Prop45
280
     0
102
RTVSPost2010PropOp45
 70
     1
102
RTVSPost2010Prop46
 90
       50
102
RTVSPost2010PropOp46
 70
     1
102
RTVSPost2010Prop47
 90
       50
102
RTVSPost2010PropOp47
 70
     1
102
RTVSPost2010Prop48
 90
       50
102
RTVSPost2010PropOp48
 70
     1
102
RTVSPost2010Prop49
280
     0
102
RTVSPost2010PropOp49
 70
     1
102
RTVSPost2010Prop50
 90
       50
102
RTVSPost2010PropOp50
 70
     1
102
RTVSPost2010Prop51ColorIndex
 90
      256
102
RTVSPost2010Prop51ColorRGB
 90
-16777216
102
RTVSPost2010PropOp51
 70
     0
102
RTVSPost2010Prop52
140
1.0
102
RTVSPost2010PropOp52
 70
     0
102
RTVSPost2010Prop53
 90
        2
102
RTVSPost2010PropOp53
 70
     1
102
RTVSPost2010Prop54
  1
strokes_ogs.tif
102
RTVSPost2010PropOp54
 70
     1
102
RTVSPost2010Prop55
280
     0
102
RTVSPost2010PropOp55
 70
     1
102
RTVSPost2010Prop56
140
1.0
102
RTVSPost2010PropOp56
 70
     1
102
RTVSPost2010Prop57
140
1.0
102
RTVSPost2010PropOp57
 70
     1
102
RTVSPropertyOp0
 70
     1
102
RTVSPropertyOp1
 70
     1
102
RTVSPropertyOp2
 70
     1
102
RTVSPropertyOp3
 70
     1
102
RTVSPropertyOp4
 70
     1
102
RTVSPropertyOp5
 70
     1
102
RTVSPropertyOp6
 70
     1
102
RTVSPropertyOp7
 70
     1
102
RTVSPropertyOp8
 70
     1
102
RTVSPropertyOp9
 70
     1
102
RTVSPropertyOp10
 70
     1
102
RTVSPropertyOp11
 70
     1
102
RTVSPropertyOp12
 70
     1
102
RTVSPropertyOp13
 70
     1
102
RTVSPropertyOp14
 70
     1
102
RTVSPropertyOp15
 70
     1
102
RTVSPropertyOp16
 70
     1
102
RTVSPropertyOp17
 70
     1
102
RTVSPropertyOp18
 70
     1
102
RTVSPropertyOp19
 70
     1
102
RTVSPropertyOp20
 70
     1
102
RTVSPropertyOp21
 70
     1
102
RTVSPropertyOp22
 70
     1
102
RTVSPropertyOp23
 70
     1
102
RTVSPropertyOp24
 70
     1
102
RTVSPropertyOp25
 70
     1
102
RTVSPropertyOp26
 70
     1
102
RTVSPropertyOp27
 70
     1
102
RTVSPropertyOp28
 70
     1
102
RTVSPropertyOp29
 70
     1
102
RTVSPropertyOp30
 70
     1
102
RTVSPropertyOp31
 70
     1
102
RTVSPropertyOp32
 70
     1
102
RTVSPropertyOp33
 70
     1
102
RTVSPropertyOp34
 70
     1
102
RTVSPropertyOp35
 70
     1
102
RTVSPropertyOp36
 70
     1
102
RTVSPropertyOp37
 70
     1
102
RTVSPropertyOp38
 70
     1
102
RTVSPropertyOp39
 70
     1
102
RTVSPropertyOp40
 70
     1
102
RTVSPropertyOp41
 70
     1
102
RTVSPropertyOp42
 70
     1
102
RTVSPropertyOp43
 70
     1
102
RTVSPropertyOp44
 70
     1
102
RTVSPropertyOp45
 70
     1
102
RTVSPropertyOp46
 70
     1
102
RTVSPropertyOp47
 70
     1
102
RTVSPropertyOp48
 70
     1
102
RTVSPropertyOp49
 70
     1
102
RTVSPropertyOp50
 70
     1
102
RTVSPropertyOp51
 70
     0
102
RTVSPropertyOp52
 70
     0
102
RTVSPropertyOp53
 70
     1
102
RTVSPropertyOp54
 70
     1
102
RTVSPropertyOp55
 70
     1
102
RTVSPropertyOp56
 70
     1
102
RTVSPropertyOp57
 70
     1
102
RTVSPropertyOp58
 70
     1
102
RTVSPropertyOp59
 70
     1
102
RTVSPropertyOp60
 70
     1
102
RTVSPropertyOp61
 70
     1
102
RTVSPropertyOp62
 70
     1
  0
XRECORD
  5
1D556
102
{ACAD_REACTORS
330
1D555
102
}
330
1D555
100
AcDbXrecord
280
     1
102
RTVSPost2010Prop28
280
     0
102
RTVSPost2010PropOp28
 70
     1
102
RTVSPost2010Prop29
280
     1
102
RTVSPost2010PropOp29
 70
     1
102
RTVSPost2010Prop30
280
     1
102
RTVSPost2010PropOp30
 70
     1
102
RTVSPost2010Prop31
280
     0
102
RTVSPost2010PropOp31
 70
     1
102
RTVSPost2010Prop32
280
     0
102
RTVSPost2010PropOp32
 70
     1
102
RTVSPost2010Prop33
280
     0
102
RTVSPost2010PropOp33
 70
     1
102
RTVSPost2010Prop34
280
     0
102
RTVSPost2010PropOp34
 70
     1
102
RTVSPost2010Prop35
280
     0
102
RTVSPost2010PropOp35
 70
     1
102
RTVSPost2010Prop36
280
     0
102
RTVSPost2010PropOp36
 70
     1
102
RTVSPost2010Prop37
 90
       50
102
RTVSPost2010PropOp37
 70
     1
102
RTVSPost2010Prop38
140
0.0
102
RTVSPost2010PropOp38
 70
     1
102
RTVSPost2010Prop39
140
1.0
102
RTVSPost2010PropOp39
 70
     1
102
RTVSPost2010Prop40
 90
        0
102
RTVSPost2010PropOp40
 70
     1
102
RTVSPost2010Prop41ColorIndex
 90
       18
102
RTVSPost2010Prop41ColorRGB
 90
        0
102
RTVSPost2010PropOp41
 70
     1
102
RTVSPost2010Prop42
 90
       50
102
RTVSPost2010PropOp42
 70
     1
102
RTVSPost2010Prop43
 90
        3
102
RTVSPost2010PropOp43
 70
     1
102
RTVSPost2010Prop44ColorIndex
 90
        5
102
RTVSPost2010Prop44ColorRGB
 90
      255
102
RTVSPost2010PropOp44
 70
     1
102
RTVSPost2010Prop45
280
     0
102
RTVSPost2010PropOp45
 70
     1
102
RTVSPost2010Prop46
 90
       50
102
RTVSPost2010PropOp46
 70
     1
102
RTVSPost2010Prop47
 90
       50
102
RTVSPost2010PropOp47
 70
     1
102
RTVSPost2010Prop48
 90
       50
102
RTVSPost2010PropOp48
 70
     1
102
RTVSPost2010Prop49
280
     0
102
RTVSPost2010PropOp49
 70
     1
102
RTVSPost2010Prop50
 90
       50
102
RTVSPost2010PropOp50
 70
     1
102
RTVSPost2010Prop51ColorIndex
 90
      256
102
RTVSPost2010Prop51ColorRGB
 90
-16777216
102
RTVSPost2010PropOp51
 70
     0
102
RTVSPost2010Prop52
140
1.0
102
RTVSPost2010PropOp52
 70
     0
102
RTVSPost2010Prop53
 90
        2
102
RTVSPost2010PropOp53
 70
     1
102
RTVSPost2010Prop54
  1
strokes_ogs.tif
102
RTVSPost2010PropOp54
 70
     1
102
RTVSPost2010Prop55
280
     0
102
RTVSPost2010PropOp55
 70
     1
102
RTVSPost2010Prop56
140
1.0
102
RTVSPost2010PropOp56
 70
     1
102
RTVSPost2010Prop57
140
1.0
102
RTVSPost2010PropOp57
 70
     1
102
RTVSPropertyOp0
 70
     1
102
RTVSPropertyOp1
 70
     1
102
RTVSPropertyOp2
 70
     1
102
RTVSPropertyOp3
 70
     1
102
RTVSPropertyOp4
 70
     1
102
RTVSPropertyOp5
 70
     1
102
RTVSPropertyOp6
 70
     1
102
RTVSPropertyOp7
 70
     1
102
RTVSPropertyOp8
 70
     1
102
RTVSPropertyOp9
 70
     1
102
RTVSPropertyOp10
 70
     1
102
RTVSPropertyOp11
 70
     1
102
RTVSPropertyOp12
 70
     1
102
RTVSPropertyOp13
 70
     1
102
RTVSPropertyOp14
 70
     1
102
RTVSPropertyOp15
 70
     1
102
RTVSPropertyOp16
 70
     1
102
RTVSPropertyOp17
 70
     1
102
RTVSPropertyOp18
 70
     1
102
RTVSPropertyOp19
 70
     1
102
RTVSPropertyOp20
 70
     1
102
RTVSPropertyOp21
 70
     1
102
RTVSPropertyOp22
 70
     1
102
RTVSPropertyOp23
 70
     1
102
RTVSPropertyOp24
 70
     1
102
RTVSPropertyOp25
 70
     1
102
RTVSPropertyOp26
 70
     1
102
RTVSPropertyOp27
 70
     1
102
RTVSPropertyOp28
 70
     1
102
RTVSPropertyOp29
 70
     1
102
RTVSPropertyOp30
 70
     1
102
RTVSPropertyOp31
 70
     1
102
RTVSPropertyOp32
 70
     1
102
RTVSPropertyOp33
 70
     1
102
RTVSPropertyOp34
 70
     1
102
RTVSPropertyOp35
 70
     1
102
RTVSPropertyOp36
 70
     1
102
RTVSPropertyOp37
 70
     1
102
RTVSPropertyOp38
 70
     1
102
RTVSPropertyOp39
 70
     1
102
RTVSPropertyOp40
 70
     1
102
RTVSPropertyOp41
 70
     1
102
RTVSPropertyOp42
 70
     1
102
RTVSPropertyOp43
 70
     1
102
RTVSPropertyOp44
 70
     1
102
RTVSPropertyOp45
 70
     1
102
RTVSPropertyOp46
 70
     1
102
RTVSPropertyOp47
 70
     1
102
RTVSPropertyOp48
 70
     1
102
RTVSPropertyOp49
 70
     1
102
RTVSPropertyOp50
 70
     1
102
RTVSPropertyOp51
 70
     0
102
RTVSPropertyOp52
 70
     0
102
RTVSPropertyOp53
 70
     1
102
RTVSPropertyOp54
 70
     1
102
RTVSPropertyOp55
 70
     1
102
RTVSPropertyOp56
 70
     1
102
RTVSPropertyOp57
 70
     1
102
RTVSPropertyOp58
 70
     1
102
RTVSPropertyOp59
 70
     1
102
RTVSPropertyOp60
 70
     1
102
RTVSPropertyOp61
 70
     1
102
RTVSPropertyOp62
 70
     1
  0
XRECORD
  5
1D558
102
{ACAD_REACTORS
330
1D557
102
}
330
1D557
100
AcDbXrecord
280
     1
102
RTVSPost2010Prop28
280
     0
102
RTVSPost2010PropOp28
 70
     1
102
RTVSPost2010Prop29
280
     1
102
RTVSPost2010PropOp29
 70
     1
102
RTVSPost2010Prop30
280
     1
102
RTVSPost2010PropOp30
 70
     1
102
RTVSPost2010Prop31
280
     0
102
RTVSPost2010PropOp31
 70
     1
102
RTVSPost2010Prop32
280
     0
102
RTVSPost2010PropOp32
 70
     1
102
RTVSPost2010Prop33
280
     0
102
RTVSPost2010PropOp33
 70
     1
102
RTVSPost2010Prop34
280
     0
102
RTVSPost2010PropOp34
 70
     1
102
RTVSPost2010Prop35
280
     0
102
RTVSPost2010PropOp35
 70
     1
102
RTVSPost2010Prop36
280
     0
102
RTVSPost2010PropOp36
 70
     1
102
RTVSPost2010Prop37
 90
       50
102
RTVSPost2010PropOp37
 70
     1
102
RTVSPost2010Prop38
140
0.0
102
RTVSPost2010PropOp38
 70
     1
102
RTVSPost2010Prop39
140
1.0
102
RTVSPost2010PropOp39
 70
     1
102
RTVSPost2010Prop40
 90
        0
102
RTVSPost2010PropOp40
 70
     1
102
RTVSPost2010Prop41ColorIndex
 90
       18
102
RTVSPost2010Prop41ColorRGB
 90
        0
102
RTVSPost2010PropOp41
 70
     1
102
RTVSPost2010Prop42
 90
       50
102
RTVSPost2010PropOp42
 70
     1
102
RTVSPost2010Prop43
 90
        3
102
RTVSPost2010PropOp43
 70
     1
102
RTVSPost2010Prop44ColorIndex
 90
        5
102
RTVSPost2010Prop44ColorRGB
 90
      255
102
RTVSPost2010PropOp44
 70
     1
102
RTVSPost2010Prop45
280
     0
102
RTVSPost2010PropOp45
 70
     1
102
RTVSPost2010Prop46
 90
       50
102
RTVSPost2010PropOp46
 70
     1
102
RTVSPost2010Prop47
 90
       50
102
RTVSPost2010PropOp47
 70
     1
102
RTVSPost2010Prop48
 90
       50
102
RTVSPost2010PropOp48
 70
     1
102
RTVSPost2010Prop49
280
     0
102
RTVSPost2010PropOp49
 70
     1
102
RTVSPost2010Prop50
 90
       50
102
RTVSPost2010PropOp50
 70
     1
102
RTVSPost2010Prop51ColorIndex
 90
      256
102
RTVSPost2010Prop51ColorRGB
 90
-16777216
102
RTVSPost2010PropOp51
 70
     0
102
RTVSPost2010Prop52
140
1.0
102
RTVSPost2010PropOp52
 70
     0
102
RTVSPost2010Prop53
 90
        2
102
RTVSPost2010PropOp53
 70
     1
102
RTVSPost2010Prop54
  1
strokes_ogs.tif
102
RTVSPost2010PropOp54
 70
     1
102
RTVSPost2010Prop55
280
     0
102
RTVSPost2010PropOp55
 70
     1
102
RTVSPost2010Prop56
140
1.0
102
RTVSPost2010PropOp56
 70
     1
102
RTVSPost2010Prop57
140
1.0
102
RTVSPost2010PropOp57
 70
     1
102
RTVSPropertyOp0
 70
     1
102
RTVSPropertyOp1
 70
     1
102
RTVSPropertyOp2
 70
     1
102
RTVSPropertyOp3
 70
     1
102
RTVSPropertyOp4
 70
     1
102
RTVSPropertyOp5
 70
     1
102
RTVSPropertyOp6
 70
     1
102
RTVSPropertyOp7
 70
     1
102
RTVSPropertyOp8
 70
     1
102
RTVSPropertyOp9
 70
     1
102
RTVSPropertyOp10
 70
     1
102
RTVSPropertyOp11
 70
     1
102
RTVSPropertyOp12
 70
     1
102
RTVSPropertyOp13
 70
     1
102
RTVSPropertyOp14
 70
     1
102
RTVSPropertyOp15
 70
     1
102
RTVSPropertyOp16
 70
     1
102
RTVSPropertyOp17
 70
     1
102
RTVSPropertyOp18
 70
     1
102
RTVSPropertyOp19
 70
     1
102
RTVSPropertyOp20
 70
     1
102
RTVSPropertyOp21
 70
     1
102
RTVSPropertyOp22
 70
     1
102
RTVSPropertyOp23
 70
     1
102
RTVSPropertyOp24
 70
     1
102
RTVSPropertyOp25
 70
     1
102
RTVSPropertyOp26
 70
     1
102
RTVSPropertyOp27
 70
     1
102
RTVSPropertyOp28
 70
     1
102
RTVSPropertyOp29
 70
     1
102
RTVSPropertyOp30
 70
     1
102
RTVSPropertyOp31
 70
     1
102
RTVSPropertyOp32
 70
     1
102
RTVSPropertyOp33
 70
     1
102
RTVSPropertyOp34
 70
     1
102
RTVSPropertyOp35
 70
     1
102
RTVSPropertyOp36
 70
     1
102
RTVSPropertyOp37
 70
     1
102
RTVSPropertyOp38
 70
     1
102
RTVSPropertyOp39
 70
     1
102
RTVSPropertyOp40
 70
     1
102
RTVSPropertyOp41
 70
     1
102
RTVSPropertyOp42
 70
     1
102
RTVSPropertyOp43
 70
     1
102
RTVSPropertyOp44
 70
     1
102
RTVSPropertyOp45
 70
     1
102
RTVSPropertyOp46
 70
     1
102
RTVSPropertyOp47
 70
     1
102
RTVSPropertyOp48
 70
     1
102
RTVSPropertyOp49
 70
     1
102
RTVSPropertyOp50
 70
     1
102
RTVSPropertyOp51
 70
     0
102
RTVSPropertyOp52
 70
     0
102
RTVSPropertyOp53
 70
     1
102
RTVSPropertyOp54
 70
     1
102
RTVSPropertyOp55
 70
     1
102
RTVSPropertyOp56
 70
     1
102
RTVSPropertyOp57
 70
     1
102
RTVSPropertyOp58
 70
     1
102
RTVSPropertyOp59
 70
     1
102
RTVSPropertyOp60
 70
     1
102
RTVSPropertyOp61
 70
     1
102
RTVSPropertyOp62
 70
     1
  0
XRECORD
  5
1D560
102
{ACAD_REACTORS
330
1D55F
102
}
330
1D55F
100
AcDbXrecord
280
     1
102
RTVSPost2010Prop28
280
     0
102
RTVSPost2010PropOp28
 70
     1
102
RTVSPost2010Prop29
280
     1
102
RTVSPost2010PropOp29
 70
     1
102
RTVSPost2010Prop30
280
     1
102
RTVSPost2010PropOp30
 70
     1
102
RTVSPost2010Prop31
280
     0
102
RTVSPost2010PropOp31
 70
     1
102
RTVSPost2010Prop32
280
     0
102
RTVSPost2010PropOp32
 70
     1
102
RTVSPost2010Prop33
280
     0
102
RTVSPost2010PropOp33
 70
     1
102
RTVSPost2010Prop34
280
     0
102
RTVSPost2010PropOp34
 70
     1
102
RTVSPost2010Prop35
280
     0
102
RTVSPost2010PropOp35
 70
     1
102
RTVSPost2010Prop36
280
     0
102
RTVSPost2010PropOp36
 70
     1
102
RTVSPost2010Prop37
 90
       50
102
RTVSPost2010PropOp37
 70
     1
102
RTVSPost2010Prop38
140
0.0
102
RTVSPost2010PropOp38
 70
     1
102
RTVSPost2010Prop39
140
1.0
102
RTVSPost2010PropOp39
 70
     1
102
RTVSPost2010Prop40
 90
        0
102
RTVSPost2010PropOp40
 70
     1
102
RTVSPost2010Prop41ColorIndex
 90
       18
102
RTVSPost2010Prop41ColorRGB
 90
        0
102
RTVSPost2010PropOp41
 70
     1
102
RTVSPost2010Prop42
 90
       50
102
RTVSPost2010PropOp42
 70
     1
102
RTVSPost2010Prop43
 90
        3
102
RTVSPost2010PropOp43
 70
     1
102
RTVSPost2010Prop44ColorIndex
 90
        5
102
RTVSPost2010Prop44ColorRGB
 90
      255
102
RTVSPost2010PropOp44
 70
     1
102
RTVSPost2010Prop45
280
     0
102
RTVSPost2010PropOp45
 70
     1
102
RTVSPost2010Prop46
 90
       50
102
RTVSPost2010PropOp46
 70
     1
102
RTVSPost2010Prop47
 90
       50
102
RTVSPost2010PropOp47
 70
     1
102
RTVSPost2010Prop48
 90
       50
102
RTVSPost2010PropOp48
 70
     1
102
RTVSPost2010Prop49
280
     0
102
RTVSPost2010PropOp49
 70
     1
102
RTVSPost2010Prop50
 90
       50
102
RTVSPost2010PropOp50
 70
     1
102
RTVSPost2010Prop51ColorIndex
 90
      256
102
RTVSPost2010Prop51ColorRGB
 90
-16777216
102
RTVSPost2010PropOp51
 70
     0
102
RTVSPost2010Prop52
140
1.0
102
RTVSPost2010PropOp52
 70
     0
102
RTVSPost2010Prop53
 90
        2
102
RTVSPost2010PropOp53
 70
     1
102
RTVSPost2010Prop54
  1
strokes_ogs.tif
102
RTVSPost2010PropOp54
 70
     1
102
RTVSPost2010Prop55
280
     0
102
RTVSPost2010PropOp55
 70
     1
102
RTVSPost2010Prop56
140
1.0
102
RTVSPost2010PropOp56
 70
     1
102
RTVSPost2010Prop57
140
1.0
102
RTVSPost2010PropOp57
 70
     1
102
RTVSPropertyOp0
 70
     1
102
RTVSPropertyOp1
 70
     1
102
RTVSPropertyOp2
 70
     1
102
RTVSPropertyOp3
 70
     1
102
RTVSPropertyOp4
 70
     1
102
RTVSPropertyOp5
 70
     1
102
RTVSPropertyOp6
 70
     1
102
RTVSPropertyOp7
 70
     1
102
RTVSPropertyOp8
 70
     1
102
RTVSPropertyOp9
 70
     1
102
RTVSPropertyOp10
 70
     1
102
RTVSPropertyOp11
 70
     1
102
RTVSPropertyOp12
 70
     1
102
RTVSPropertyOp13
 70
     1
102
RTVSPropertyOp14
 70
     1
102
RTVSPropertyOp15
 70
     1
102
RTVSPropertyOp16
 70
     1
102
RTVSPropertyOp17
 70
     1
102
RTVSPropertyOp18
 70
     1
102
RTVSPropertyOp19
 70
     1
102
RTVSPropertyOp20
 70
     1
102
RTVSPropertyOp21
 70
     1
102
RTVSPropertyOp22
 70
     1
102
RTVSPropertyOp23
 70
     1
102
RTVSPropertyOp24
 70
     1
102
RTVSPropertyOp25
 70
     1
102
RTVSPropertyOp26
 70
     1
102
RTVSPropertyOp27
 70
     1
102
RTVSPropertyOp28
 70
     1
102
RTVSPropertyOp29
 70
     1
102
RTVSPropertyOp30
 70
     1
102
RTVSPropertyOp31
 70
     1
102
RTVSPropertyOp32
 70
     1
102
RTVSPropertyOp33
 70
     1
102
RTVSPropertyOp34
 70
     1
102
RTVSPropertyOp35
 70
     1
102
RTVSPropertyOp36
 70
     1
102
RTVSPropertyOp37
 70
     1
102
RTVSPropertyOp38
 70
     1
102
RTVSPropertyOp39
 70
     1
102
RTVSPropertyOp40
 70
     1
102
RTVSPropertyOp41
 70
     1
102
RTVSPropertyOp42
 70
     1
102
RTVSPropertyOp43
 70
     1
102
RTVSPropertyOp44
 70
     1
102
RTVSPropertyOp45
 70
     1
102
RTVSPropertyOp46
 70
     1
102
RTVSPropertyOp47
 70
     1
102
RTVSPropertyOp48
 70
     1
102
RTVSPropertyOp49
 70
     1
102
RTVSPropertyOp50
 70
     1
102
RTVSPropertyOp51
 70
     0
102
RTVSPropertyOp52
 70
     0
102
RTVSPropertyOp53
 70
     1
102
RTVSPropertyOp54
 70
     1
102
RTVSPropertyOp55
 70
     1
102
RTVSPropertyOp56
 70
     1
102
RTVSPropertyOp57
 70
     1
102
RTVSPropertyOp58
 70
     1
102
RTVSPropertyOp59
 70
     1
102
RTVSPropertyOp60
 70
     1
102
RTVSPropertyOp61
 70
     1
102
RTVSPropertyOp62
 70
     1
  0
XRECORD
  5
1D57C
102
{ACAD_REACTORS
330
1D57B
102
}
330
1D57B
100
AcDbXrecord
280
     1
102
RTVSPost2010Prop28
280
     0
102
RTVSPost2010PropOp28
 70
     1
102
RTVSPost2010Prop29
280
     1
102
RTVSPost2010PropOp29
 70
     1
102
RTVSPost2010Prop30
280
     1
102
RTVSPost2010PropOp30
 70
     1
102
RTVSPost2010Prop31
280
     0
102
RTVSPost2010PropOp31
 70
     1
102
RTVSPost2010Prop32
280
     0
102
RTVSPost2010PropOp32
 70
     1
102
RTVSPost2010Prop33
280
     0
102
RTVSPost2010PropOp33
 70
     1
102
RTVSPost2010Prop34
280
     0
102
RTVSPost2010PropOp34
 70
     1
102
RTVSPost2010Prop35
280
     0
102
RTVSPost2010PropOp35
 70
     1
102
RTVSPost2010Prop36
280
     0
102
RTVSPost2010PropOp36
 70
     1
102
RTVSPost2010Prop37
 90
       50
102
RTVSPost2010PropOp37
 70
     0
102
RTVSPost2010Prop38
140
0.0
102
RTVSPost2010PropOp38
 70
     0
102
RTVSPost2010Prop39
140
1.0
102
RTVSPost2010PropOp39
 70
     0
102
RTVSPost2010Prop40
 90
        0
102
RTVSPost2010PropOp40
 70
     0
102
RTVSPost2010Prop41ColorIndex
 90
       18
102
RTVSPost2010Prop41ColorRGB
 90
        0
102
RTVSPost2010PropOp41
 70
     0
102
RTVSPost2010Prop42
 90
       50
102
RTVSPost2010PropOp42
 70
     0
102
RTVSPost2010Prop43
 90
        3
102
RTVSPost2010PropOp43
 70
     0
102
RTVSPost2010Prop44ColorIndex
 90
        5
102
RTVSPost2010Prop44ColorRGB
 90
      255
102
RTVSPost2010PropOp44
 70
     0
102
RTVSPost2010Prop45
280
     0
102
RTVSPost2010PropOp45
 70
     1
102
RTVSPost2010Prop46
 90
       50
102
RTVSPost2010PropOp46
 70
     0
102
RTVSPost2010Prop47
 90
       50
102
RTVSPost2010PropOp47
 70
     0
102
RTVSPost2010Prop48
 90
       50
102
RTVSPost2010PropOp48
 70
     0
102
RTVSPost2010Prop49
280
     0
102
RTVSPost2010PropOp49
 70
     1
102
RTVSPost2010Prop50
 90
       50
102
RTVSPost2010PropOp50
 70
     0
102
RTVSPost2010Prop51ColorIndex
 90
      256
102
RTVSPost2010Prop51ColorRGB
 90
-16777216
102
RTVSPost2010PropOp51
 70
     0
102
RTVSPost2010Prop52
140
1.0
102
RTVSPost2010PropOp52
 70
     0
102
RTVSPost2010Prop53
 90
        2
102
RTVSPost2010PropOp53
 70
     0
102
RTVSPost2010Prop54
  1
strokes_ogs.tif
102
RTVSPost2010PropOp54
 70
     0
102
RTVSPost2010Prop55
280
     0
102
RTVSPost2010PropOp55
 70
     1
102
RTVSPost2010Prop56
140
1.0
102
RTVSPost2010PropOp56
 70
     0
102
RTVSPost2010Prop57
140
1.0
102
RTVSPost2010PropOp57
 70
     0
102
RTVSPropertyOp0
 70
     0
102
RTVSPropertyOp1
 70
     0
102
RTVSPropertyOp2
 70
     0
102
RTVSPropertyOp3
 70
     0
102
RTVSPropertyOp4
 70
     0
102
RTVSPropertyOp5
 70
     0
102
RTVSPropertyOp6
 70
     0
102
RTVSPropertyOp7
 70
     0
102
RTVSPropertyOp8
 70
     0
102
RTVSPropertyOp9
 70
     0
102
RTVSPropertyOp10
 70
     0
102
RTVSPropertyOp11
 70
     0
102
RTVSPropertyOp12
 70
     0
102
RTVSPropertyOp13
 70
     0
102
RTVSPropertyOp14
 70
     2
102
RTVSPropertyOp15
 70
     0
102
RTVSPropertyOp16
 70
     0
102
RTVSPropertyOp17
 70
     0
102
RTVSPropertyOp18
 70
     0
102
RTVSPropertyOp19
 70
     0
102
RTVSPropertyOp20
 70
     0
102
RTVSPropertyOp21
 70
     0
102
RTVSPropertyOp22
 70
     0
102
RTVSPropertyOp23
 70
     0
102
RTVSPropertyOp24
 70
     0
102
RTVSPropertyOp25
 70
     0
102
RTVSPropertyOp26
 70
     0
102
RTVSPropertyOp27
 70
     0
102
RTVSPropertyOp28
 70
     1
102
RTVSPropertyOp29
 70
     1
102
RTVSPropertyOp30
 70
     1
102
RTVSPropertyOp31
 70
     1
102
RTVSPropertyOp32
 70
     1
102
RTVSPropertyOp33
 70
     1
102
RTVSPropertyOp34
 70
     1
102
RTVSPropertyOp35
 70
     1
102
RTVSPropertyOp36
 70
     1
102
RTVSPropertyOp37
 70
     0
102
RTVSPropertyOp38
 70
     0
102
RTVSPropertyOp39
 70
     0
102
RTVSPropertyOp40
 70
     0
102
RTVSPropertyOp41
 70
     0
102
RTVSPropertyOp42
 70
     0
102
RTVSPropertyOp43
 70
     0
102
RTVSPropertyOp44
 70
     0
102
RTVSPropertyOp45
 70
     1
102
RTVSPropertyOp46
 70
     0
102
RTVSPropertyOp47
 70
     0
102
RTVSPropertyOp48
 70
     0
102
RTVSPropertyOp49
 70
     1
102
RTVSPropertyOp50
 70
     0
102
RTVSPropertyOp51
 70
     0
102
RTVSPropertyOp52
 70
     0
102
RTVSPropertyOp53
 70
     0
102
RTVSPropertyOp54
 70
     0
102
RTVSPropertyOp55
 70
     1
102
RTVSPropertyOp56
 70
     0
102
RTVSPropertyOp57
 70
     0
102
RTVSPropertyOp58
 70
     0
102
RTVSPropertyOp59
 70
     0
102
RTVSPropertyOp60
 70
     0
102
RTVSPropertyOp61
 70
     0
102
RTVSPropertyOp62
 70
     0
  0
XRECORD
  5
1D56C
102
{ACAD_REACTORS
330
1D56B
102
}
330
1D56B
100
AcDbXrecord
280
     1
102
RTVSPost2010Prop28
280
     0
102
RTVSPost2010PropOp28
 70
     1
102
RTVSPost2010Prop29
280
     1
102
RTVSPost2010PropOp29
 70
     1
102
RTVSPost2010Prop30
280
     1
102
RTVSPost2010PropOp30
 70
     1
102
RTVSPost2010Prop31
280
     0
102
RTVSPost2010PropOp31
 70
     1
102
RTVSPost2010Prop32
280
     0
102
RTVSPost2010PropOp32
 70
     1
102
RTVSPost2010Prop33
280
     0
102
RTVSPost2010PropOp33
 70
     1
102
RTVSPost2010Prop34
280
     0
102
RTVSPost2010PropOp34
 70
     1
102
RTVSPost2010Prop35
280
     0
102
RTVSPost2010PropOp35
 70
     1
102
RTVSPost2010Prop36
280
     0
102
RTVSPost2010PropOp36
 70
     1
102
RTVSPost2010Prop37
 90
       50
102
RTVSPost2010PropOp37
 70
     1
102
RTVSPost2010Prop38
140
0.0
102
RTVSPost2010PropOp38
 70
     1
102
RTVSPost2010Prop39
140
1.0
102
RTVSPost2010PropOp39
 70
     1
102
RTVSPost2010Prop40
 90
        0
102
RTVSPost2010PropOp40
 70
     1
102
RTVSPost2010Prop41ColorIndex
 90
       18
102
RTVSPost2010Prop41ColorRGB
 90
        0
102
RTVSPost2010PropOp41
 70
     1
102
RTVSPost2010Prop42
 90
       50
102
RTVSPost2010PropOp42
 70
     1
102
RTVSPost2010Prop43
 90
        3
102
RTVSPost2010PropOp43
 70
     1
102
RTVSPost2010Prop44ColorIndex
 90
        5
102
RTVSPost2010Prop44ColorRGB
 90
      255
102
RTVSPost2010PropOp44
 70
     1
102
RTVSPost2010Prop45
280
     0
102
RTVSPost2010PropOp45
 70
     1
102
RTVSPost2010Prop46
 90
       50
102
RTVSPost2010PropOp46
 70
     1
102
RTVSPost2010Prop47
 90
       50
102
RTVSPost2010PropOp47
 70
     1
102
RTVSPost2010Prop48
 90
       50
102
RTVSPost2010PropOp48
 70
     1
102
RTVSPost2010Prop49
280
     0
102
RTVSPost2010PropOp49
 70
     1
102
RTVSPost2010Prop50
 90
       50
102
RTVSPost2010PropOp50
 70
     1
102
RTVSPost2010Prop51ColorIndex
 90
      256
102
RTVSPost2010Prop51ColorRGB
 90
-16777216
102
RTVSPost2010PropOp51
 70
     0
102
RTVSPost2010Prop52
140
1.0
102
RTVSPost2010PropOp52
 70
     0
102
RTVSPost2010Prop53
 90
        2
102
RTVSPost2010PropOp53
 70
     1
102
RTVSPost2010Prop54
  1
strokes_ogs.tif
102
RTVSPost2010PropOp54
 70
     1
102
RTVSPost2010Prop55
280
     0
102
RTVSPost2010PropOp55
 70
     1
102
RTVSPost2010Prop56
140
1.0
102
RTVSPost2010PropOp56
 70
     1
102
RTVSPost2010Prop57
140
1.0
102
RTVSPost2010PropOp57
 70
     1
102
RTVSPropertyOp0
 70
     1
102
RTVSPropertyOp1
 70
     1
102
RTVSPropertyOp2
 70
     1
102
RTVSPropertyOp3
 70
     1
102
RTVSPropertyOp4
 70
     1
102
RTVSPropertyOp5
 70
     1
102
RTVSPropertyOp6
 70
     1
102
RTVSPropertyOp7
 70
     1
102
RTVSPropertyOp8
 70
     1
102
RTVSPropertyOp9
 70
     1
102
RTVSPropertyOp10
 70
     1
102
RTVSPropertyOp11
 70
     1
102
RTVSPropertyOp12
 70
     1
102
RTVSPropertyOp13
 70
     1
102
RTVSPropertyOp14
 70
     1
102
RTVSPropertyOp15
 70
     1
102
RTVSPropertyOp16
 70
     1
102
RTVSPropertyOp17
 70
     1
102
RTVSPropertyOp18
 70
     1
102
RTVSPropertyOp19
 70
     1
102
RTVSPropertyOp20
 70
     1
102
RTVSPropertyOp21
 70
     1
102
RTVSPropertyOp22
 70
     1
102
RTVSPropertyOp23
 70
     1
102
RTVSPropertyOp24
 70
     1
102
RTVSPropertyOp25
 70
     1
102
RTVSPropertyOp26
 70
     1
102
RTVSPropertyOp27
 70
     1
102
RTVSPropertyOp28
 70
     1
102
RTVSPropertyOp29
 70
     1
102
RTVSPropertyOp30
 70
     1
102
RTVSPropertyOp31
 70
     1
102
RTVSPropertyOp32
 70
     1
102
RTVSPropertyOp33
 70
     1
102
RTVSPropertyOp34
 70
     1
102
RTVSPropertyOp35
 70
     1
102
RTVSPropertyOp36
 70
     1
102
RTVSPropertyOp37
 70
     1
102
RTVSPropertyOp38
 70
     1
102
RTVSPropertyOp39
 70
     1
102
RTVSPropertyOp40
 70
     1
102
RTVSPropertyOp41
 70
     1
102
RTVSPropertyOp42
 70
     1
102
RTVSPropertyOp43
 70
     1
102
RTVSPropertyOp44
 70
     1
102
RTVSPropertyOp45
 70
     1
102
RTVSPropertyOp46
 70
     1
102
RTVSPropertyOp47
 70
     1
102
RTVSPropertyOp48
 70
     1
102
RTVSPropertyOp49
 70
     1
102
RTVSPropertyOp50
 70
     1
102
RTVSPropertyOp51
 70
     0
102
RTVSPropertyOp52
 70
     0
102
RTVSPropertyOp53
 70
     1
102
RTVSPropertyOp54
 70
     1
102
RTVSPropertyOp55
 70
     1
102
RTVSPropertyOp56
 70
     1
102
RTVSPropertyOp57
 70
     1
102
RTVSPropertyOp58
 70
     1
102
RTVSPropertyOp59
 70
     1
102
RTVSPropertyOp60
 70
     1
102
RTVSPropertyOp61
 70
     1
102
RTVSPropertyOp62
 70
     1
  0
XRECORD
  5
1D57E
102
{ACAD_REACTORS
330
1D57D
102
}
330
1D57D
100
AcDbXrecord
280
     1
102
RTVSPost2010Prop28
280
     0
102
RTVSPost2010PropOp28
 70
     1
102
RTVSPost2010Prop29
280
     1
102
RTVSPost2010PropOp29
 70
     1
102
RTVSPost2010Prop30
280
     1
102
RTVSPost2010PropOp30
 70
     1
102
RTVSPost2010Prop31
280
     0
102
RTVSPost2010PropOp31
 70
     1
102
RTVSPost2010Prop32
280
     0
102
RTVSPost2010PropOp32
 70
     1
102
RTVSPost2010Prop33
280
     0
102
RTVSPost2010PropOp33
 70
     1
102
RTVSPost2010Prop34
280
     0
102
RTVSPost2010PropOp34
 70
     1
102
RTVSPost2010Prop35
280
     0
102
RTVSPost2010PropOp35
 70
     1
102
RTVSPost2010Prop36
280
     0
102
RTVSPost2010PropOp36
 70
     1
102
RTVSPost2010Prop37
 90
       50
102
RTVSPost2010PropOp37
 70
     0
102
RTVSPost2010Prop38
140
0.0
102
RTVSPost2010PropOp38
 70
     0
102
RTVSPost2010Prop39
140
1.0
102
RTVSPost2010PropOp39
 70
     0
102
RTVSPost2010Prop40
 90
        0
102
RTVSPost2010PropOp40
 70
     0
102
RTVSPost2010Prop41ColorIndex
 90
       18
102
RTVSPost2010Prop41ColorRGB
 90
        0
102
RTVSPost2010PropOp41
 70
     0
102
RTVSPost2010Prop42
 90
       50
102
RTVSPost2010PropOp42
 70
     0
102
RTVSPost2010Prop43
 90
        3
102
RTVSPost2010PropOp43
 70
     0
102
RTVSPost2010Prop44ColorIndex
 90
        5
102
RTVSPost2010Prop44ColorRGB
 90
      255
102
RTVSPost2010PropOp44
 70
     0
102
RTVSPost2010Prop45
280
     0
102
RTVSPost2010PropOp45
 70
     1
102
RTVSPost2010Prop46
 90
       50
102
RTVSPost2010PropOp46
 70
     0
102
RTVSPost2010Prop47
 90
       50
102
RTVSPost2010PropOp47
 70
     0
102
RTVSPost2010Prop48
 90
       50
102
RTVSPost2010PropOp48
 70
     0
102
RTVSPost2010Prop49
280
     0
102
RTVSPost2010PropOp49
 70
     1
102
RTVSPost2010Prop50
 90
       50
102
RTVSPost2010PropOp50
 70
     0
102
RTVSPost2010Prop51ColorIndex
 90
      256
102
RTVSPost2010Prop51ColorRGB
 90
-16777216
102
RTVSPost2010PropOp51
 70
     0
102
RTVSPost2010Prop52
140
1.0
102
RTVSPost2010PropOp52
 70
     0
102
RTVSPost2010Prop53
 90
        2
102
RTVSPost2010PropOp53
 70
     0
102
RTVSPost2010Prop54
  1
strokes_ogs.tif
102
RTVSPost2010PropOp54
 70
     0
102
RTVSPost2010Prop55
280
     0
102
RTVSPost2010PropOp55
 70
     1
102
RTVSPost2010Prop56
140
1.0
102
RTVSPost2010PropOp56
 70
     0
102
RTVSPost2010Prop57
140
1.0
102
RTVSPost2010PropOp57
 70
     0
102
RTVSPropertyOp0
 70
     0
102
RTVSPropertyOp1
 70
     0
102
RTVSPropertyOp2
 70
     0
102
RTVSPropertyOp3
 70
     0
102
RTVSPropertyOp4
 70
     0
102
RTVSPropertyOp5
 70
     0
102
RTVSPropertyOp6
 70
     0
102
RTVSPropertyOp7
 70
     0
102
RTVSPropertyOp8
 70
     0
102
RTVSPropertyOp9
 70
     0
102
RTVSPropertyOp10
 70
     0
102
RTVSPropertyOp11
 70
     0
102
RTVSPropertyOp12
 70
     0
102
RTVSPropertyOp13
 70
     0
102
RTVSPropertyOp14
 70
     2
102
RTVSPropertyOp15
 70
     0
102
RTVSPropertyOp16
 70
     0
102
RTVSPropertyOp17
 70
     0
102
RTVSPropertyOp18
 70
     0
102
RTVSPropertyOp19
 70
     0
102
RTVSPropertyOp20
 70
     0
102
RTVSPropertyOp21
 70
     0
102
RTVSPropertyOp22
 70
     0
102
RTVSPropertyOp23
 70
     0
102
RTVSPropertyOp24
 70
     0
102
RTVSPropertyOp25
 70
     0
102
RTVSPropertyOp26
 70
     0
102
RTVSPropertyOp27
 70
     0
102
RTVSPropertyOp28
 70
     1
102
RTVSPropertyOp29
 70
     1
102
RTVSPropertyOp30
 70
     1
102
RTVSPropertyOp31
 70
     1
102
RTVSPropertyOp32
 70
     1
102
RTVSPropertyOp33
 70
     1
102
RTVSPropertyOp34
 70
     1
102
RTVSPropertyOp35
 70
     1
102
RTVSPropertyOp36
 70
     1
102
RTVSPropertyOp37
 70
     0
102
RTVSPropertyOp38
 70
     0
102
RTVSPropertyOp39
 70
     0
102
RTVSPropertyOp40
 70
     0
102
RTVSPropertyOp41
 70
     0
102
RTVSPropertyOp42
 70
     0
102
RTVSPropertyOp43
 70
     0
102
RTVSPropertyOp44
 70
     0
102
RTVSPropertyOp45
 70
     1
102
RTVSPropertyOp46
 70
     0
102
RTVSPropertyOp47
 70
     0
102
RTVSPropertyOp48
 70
     0
102
RTVSPropertyOp49
 70
     1
102
RTVSPropertyOp50
 70
     0
102
RTVSPropertyOp51
 70
     0
102
RTVSPropertyOp52
 70
     0
102
RTVSPropertyOp53
 70
     0
102
RTVSPropertyOp54
 70
     0
102
RTVSPropertyOp55
 70
     1
102
RTVSPropertyOp56
 70
     0
102
RTVSPropertyOp57
 70
     0
102
RTVSPropertyOp58
 70
     0
102
RTVSPropertyOp59
 70
     0
102
RTVSPropertyOp60
 70
     0
102
RTVSPropertyOp61
 70
     0
102
RTVSPropertyOp62
 70
     0
  0
XRECORD
  5
1D564
102
{ACAD_REACTORS
330
1D563
102
}
330
1D563
100
AcDbXrecord
280
     1
102
RTVSPost2010Prop28
280
     0
102
RTVSPost2010PropOp28
 70
     1
102
RTVSPost2010Prop29
280
     1
102
RTVSPost2010PropOp29
 70
     1
102
RTVSPost2010Prop30
280
     1
102
RTVSPost2010PropOp30
 70
     1
102
RTVSPost2010Prop31
280
     0
102
RTVSPost2010PropOp31
 70
     1
102
RTVSPost2010Prop32
280
     0
102
RTVSPost2010PropOp32
 70
     1
102
RTVSPost2010Prop33
280
     0
102
RTVSPost2010PropOp33
 70
     1
102
RTVSPost2010Prop34
280
     0
102
RTVSPost2010PropOp34
 70
     1
102
RTVSPost2010Prop35
280
     0
102
RTVSPost2010PropOp35
 70
     1
102
RTVSPost2010Prop36
280
     0
102
RTVSPost2010PropOp36
 70
     1
102
RTVSPost2010Prop37
 90
       50
102
RTVSPost2010PropOp37
 70
     1
102
RTVSPost2010Prop38
140
0.0
102
RTVSPost2010PropOp38
 70
     1
102
RTVSPost2010Prop39
140
1.0
102
RTVSPost2010PropOp39
 70
     1
102
RTVSPost2010Prop40
 90
        0
102
RTVSPost2010PropOp40
 70
     1
102
RTVSPost2010Prop41ColorIndex
 90
       18
102
RTVSPost2010Prop41ColorRGB
 90
        0
102
RTVSPost2010PropOp41
 70
     1
102
RTVSPost2010Prop42
 90
       50
102
RTVSPost2010PropOp42
 70
     1
102
RTVSPost2010Prop43
 90
        3
102
RTVSPost2010PropOp43
 70
     1
102
RTVSPost2010Prop44ColorIndex
 90
        5
102
RTVSPost2010Prop44ColorRGB
 90
      255
102
RTVSPost2010PropOp44
 70
     1
102
RTVSPost2010Prop45
280
     0
102
RTVSPost2010PropOp45
 70
     1
102
RTVSPost2010Prop46
 90
       50
102
RTVSPost2010PropOp46
 70
     1
102
RTVSPost2010Prop47
 90
       50
102
RTVSPost2010PropOp47
 70
     1
102
RTVSPost2010Prop48
 90
       50
102
RTVSPost2010PropOp48
 70
     1
102
RTVSPost2010Prop49
280
     0
102
RTVSPost2010PropOp49
 70
     1
102
RTVSPost2010Prop50
 90
       50
102
RTVSPost2010PropOp50
 70
     1
102
RTVSPost2010Prop51ColorIndex
 90
      256
102
RTVSPost2010Prop51ColorRGB
 90
-16777216
102
RTVSPost2010PropOp51
 70
     0
102
RTVSPost2010Prop52
140
1.0
102
RTVSPost2010PropOp52
 70
     0
102
RTVSPost2010Prop53
 90
        2
102
RTVSPost2010PropOp53
 70
     1
102
RTVSPost2010Prop54
  1
strokes_ogs.tif
102
RTVSPost2010PropOp54
 70
     1
102
RTVSPost2010Prop55
280
     0
102
RTVSPost2010PropOp55
 70
     1
102
RTVSPost2010Prop56
140
1.0
102
RTVSPost2010PropOp56
 70
     1
102
RTVSPost2010Prop57
140
1.0
102
RTVSPost2010PropOp57
 70
     1
102
RTVSPropertyOp0
 70
     1
102
RTVSPropertyOp1
 70
     1
102
RTVSPropertyOp2
 70
     1
102
RTVSPropertyOp3
 70
     1
102
RTVSPropertyOp4
 70
     1
102
RTVSPropertyOp5
 70
     1
102
RTVSPropertyOp6
 70
     1
102
RTVSPropertyOp7
 70
     1
102
RTVSPropertyOp8
 70
     1
102
RTVSPropertyOp9
 70
     1
102
RTVSPropertyOp10
 70
     1
102
RTVSPropertyOp11
 70
     1
102
RTVSPropertyOp12
 70
     1
102
RTVSPropertyOp13
 70
     1
102
RTVSPropertyOp14
 70
     1
102
RTVSPropertyOp15
 70
     1
102
RTVSPropertyOp16
 70
     1
102
RTVSPropertyOp17
 70
     1
102
RTVSPropertyOp18
 70
     1
102
RTVSPropertyOp19
 70
     1
102
RTVSPropertyOp20
 70
     1
102
RTVSPropertyOp21
 70
     1
102
RTVSPropertyOp22
 70
     1
102
RTVSPropertyOp23
 70
     1
102
RTVSPropertyOp24
 70
     1
102
RTVSPropertyOp25
 70
     1
102
RTVSPropertyOp26
 70
     1
102
RTVSPropertyOp27
 70
     1
102
RTVSPropertyOp28
 70
     1
102
RTVSPropertyOp29
 70
     1
102
RTVSPropertyOp30
 70
     1
102
RTVSPropertyOp31
 70
     1
102
RTVSPropertyOp32
 70
     1
102
RTVSPropertyOp33
 70
     1
102
RTVSPropertyOp34
 70
     1
102
RTVSPropertyOp35
 70
     1
102
RTVSPropertyOp36
 70
     1
102
RTVSPropertyOp37
 70
     1
102
RTVSPropertyOp38
 70
     1
102
RTVSPropertyOp39
 70
     1
102
RTVSPropertyOp40
 70
     1
102
RTVSPropertyOp41
 70
     1
102
RTVSPropertyOp42
 70
     1
102
RTVSPropertyOp43
 70
     1
102
RTVSPropertyOp44
 70
     1
102
RTVSPropertyOp45
 70
     1
102
RTVSPropertyOp46
 70
     1
102
RTVSPropertyOp47
 70
     1
102
RTVSPropertyOp48
 70
     1
102
RTVSPropertyOp49
 70
     1
102
RTVSPropertyOp50
 70
     1
102
RTVSPropertyOp51
 70
     0
102
RTVSPropertyOp52
 70
     0
102
RTVSPropertyOp53
 70
     1
102
RTVSPropertyOp54
 70
     1
102
RTVSPropertyOp55
 70
     1
102
RTVSPropertyOp56
 70
     1
102
RTVSPropertyOp57
 70
     1
102
RTVSPropertyOp58
 70
     1
102
RTVSPropertyOp59
 70
     1
102
RTVSPropertyOp60
 70
     1
102
RTVSPropertyOp61
 70
     1
102
RTVSPropertyOp62
 70
     1
  0
XRECORD
  5
1D57A
102
{ACAD_REACTORS
330
1D579
102
}
330
1D579
100
AcDbXrecord
280
     1
102
RTVSPost2010Prop28
280
     0
102
RTVSPost2010PropOp28
 70
     1
102
RTVSPost2010Prop29
280
     1
102
RTVSPost2010PropOp29
 70
     1
102
RTVSPost2010Prop30
280
     1
102
RTVSPost2010PropOp30
 70
     1
102
RTVSPost2010Prop31
280
     0
102
RTVSPost2010PropOp31
 70
     1
102
RTVSPost2010Prop32
280
     0
102
RTVSPost2010PropOp32
 70
     1
102
RTVSPost2010Prop33
280
     0
102
RTVSPost2010PropOp33
 70
     1
102
RTVSPost2010Prop34
280
     0
102
RTVSPost2010PropOp34
 70
     1
102
RTVSPost2010Prop35
280
     0
102
RTVSPost2010PropOp35
 70
     1
102
RTVSPost2010Prop36
280
     0
102
RTVSPost2010PropOp36
 70
     1
102
RTVSPost2010Prop37
 90
       50
102
RTVSPost2010PropOp37
 70
     1
102
RTVSPost2010Prop38
140
0.0
102
RTVSPost2010PropOp38
 70
     1
102
RTVSPost2010Prop39
140
1.0
102
RTVSPost2010PropOp39
 70
     1
102
RTVSPost2010Prop40
 90
        0
102
RTVSPost2010PropOp40
 70
     1
102
RTVSPost2010Prop41ColorIndex
 90
       18
102
RTVSPost2010Prop41ColorRGB
 90
        0
102
RTVSPost2010PropOp41
 70
     1
102
RTVSPost2010Prop42
 90
       50
102
RTVSPost2010PropOp42
 70
     1
102
RTVSPost2010Prop43
 90
        3
102
RTVSPost2010PropOp43
 70
     1
102
RTVSPost2010Prop44ColorIndex
 90
        5
102
RTVSPost2010Prop44ColorRGB
 90
      255
102
RTVSPost2010PropOp44
 70
     1
102
RTVSPost2010Prop45
280
     0
102
RTVSPost2010PropOp45
 70
     1
102
RTVSPost2010Prop46
 90
       50
102
RTVSPost2010PropOp46
 70
     1
102
RTVSPost2010Prop47
 90
       50
102
RTVSPost2010PropOp47
 70
     1
102
RTVSPost2010Prop48
 90
       50
102
RTVSPost2010PropOp48
 70
     1
102
RTVSPost2010Prop49
280
     0
102
RTVSPost2010PropOp49
 70
     1
102
RTVSPost2010Prop50
 90
       50
102
RTVSPost2010PropOp50
 70
     1
102
RTVSPost2010Prop51ColorIndex
 90
      256
102
RTVSPost2010Prop51ColorRGB
 90
-16777216
102
RTVSPost2010PropOp51
 70
     0
102
RTVSPost2010Prop52
140
1.0
102
RTVSPost2010PropOp52
 70
     0
102
RTVSPost2010Prop53
 90
        2
102
RTVSPost2010PropOp53
 70
     1
102
RTVSPost2010Prop54
  1
strokes_ogs.tif
102
RTVSPost2010PropOp54
 70
     1
102
RTVSPost2010Prop55
280
     0
102
RTVSPost2010PropOp55
 70
     1
102
RTVSPost2010Prop56
140
1.0
102
RTVSPost2010PropOp56
 70
     1
102
RTVSPost2010Prop57
140
1.0
102
RTVSPost2010PropOp57
 70
     1
102
RTVSPropertyOp0
 70
     1
102
RTVSPropertyOp1
 70
     1
102
RTVSPropertyOp2
 70
     1
102
RTVSPropertyOp3
 70
     1
102
RTVSPropertyOp4
 70
     1
102
RTVSPropertyOp5
 70
     1
102
RTVSPropertyOp6
 70
     1
102
RTVSPropertyOp7
 70
     1
102
RTVSPropertyOp8
 70
     1
102
RTVSPropertyOp9
 70
     1
102
RTVSPropertyOp10
 70
     1
102
RTVSPropertyOp11
 70
     1
102
RTVSPropertyOp12
 70
     1
102
RTVSPropertyOp13
 70
     1
102
RTVSPropertyOp14
 70
     1
102
RTVSPropertyOp15
 70
     1
102
RTVSPropertyOp16
 70
     1
102
RTVSPropertyOp17
 70
     1
102
RTVSPropertyOp18
 70
     1
102
RTVSPropertyOp19
 70
     1
102
RTVSPropertyOp20
 70
     1
102
RTVSPropertyOp21
 70
     1
102
RTVSPropertyOp22
 70
     1
102
RTVSPropertyOp23
 70
     1
102
RTVSPropertyOp24
 70
     1
102
RTVSPropertyOp25
 70
     1
102
RTVSPropertyOp26
 70
     1
102
RTVSPropertyOp27
 70
     1
102
RTVSPropertyOp28
 70
     1
102
RTVSPropertyOp29
 70
     1
102
RTVSPropertyOp30
 70
     1
102
RTVSPropertyOp31
 70
     1
102
RTVSPropertyOp32
 70
     1
102
RTVSPropertyOp33
 70
     1
102
RTVSPropertyOp34
 70
     1
102
RTVSPropertyOp35
 70
     1
102
RTVSPropertyOp36
 70
     1
102
RTVSPropertyOp37
 70
     1
102
RTVSPropertyOp38
 70
     1
102
RTVSPropertyOp39
 70
     1
102
RTVSPropertyOp40
 70
     1
102
RTVSPropertyOp41
 70
     1
102
RTVSPropertyOp42
 70
     1
102
RTVSPropertyOp43
 70
     1
102
RTVSPropertyOp44
 70
     1
102
RTVSPropertyOp45
 70
     1
102
RTVSPropertyOp46
 70
     1
102
RTVSPropertyOp47
 70
     1
102
RTVSPropertyOp48
 70
     1
102
RTVSPropertyOp49
 70
     1
102
RTVSPropertyOp50
 70
     1
102
RTVSPropertyOp51
 70
     0
102
RTVSPropertyOp52
 70
     0
102
RTVSPropertyOp53
 70
     1
102
RTVSPropertyOp54
 70
     1
102
RTVSPropertyOp55
 70
     1
102
RTVSPropertyOp56
 70
     1
102
RTVSPropertyOp57
 70
     1
102
RTVSPropertyOp58
 70
     1
102
RTVSPropertyOp59
 70
     1
102
RTVSPropertyOp60
 70
     1
102
RTVSPropertyOp61
 70
     1
102
RTVSPropertyOp62
 70
     1
  0
XRECORD
  5
1D578
102
{ACAD_REACTORS
330
1D577
102
}
330
1D577
100
AcDbXrecord
280
     1
102
RTVSPost2010Prop28
280
     0
102
RTVSPost2010PropOp28
 70
     1
102
RTVSPost2010Prop29
280
     1
102
RTVSPost2010PropOp29
 70
     1
102
RTVSPost2010Prop30
280
     1
102
RTVSPost2010PropOp30
 70
     1
102
RTVSPost2010Prop31
280
     0
102
RTVSPost2010PropOp31
 70
     1
102
RTVSPost2010Prop32
280
     0
102
RTVSPost2010PropOp32
 70
     1
102
RTVSPost2010Prop33
280
     0
102
RTVSPost2010PropOp33
 70
     1
102
RTVSPost2010Prop34
280
     0
102
RTVSPost2010PropOp34
 70
     1
102
RTVSPost2010Prop35
280
     0
102
RTVSPost2010PropOp35
 70
     1
102
RTVSPost2010Prop36
280
     0
102
RTVSPost2010PropOp36
 70
     1
102
RTVSPost2010Prop37
 90
       50
102
RTVSPost2010PropOp37
 70
     1
102
RTVSPost2010Prop38
140
0.0
102
RTVSPost2010PropOp38
 70
     1
102
RTVSPost2010Prop39
140
1.0
102
RTVSPost2010PropOp39
 70
     1
102
RTVSPost2010Prop40
 90
        0
102
RTVSPost2010PropOp40
 70
     1
102
RTVSPost2010Prop41ColorIndex
 90
       18
102
RTVSPost2010Prop41ColorRGB
 90
        0
102
RTVSPost2010PropOp41
 70
     1
102
RTVSPost2010Prop42
 90
       50
102
RTVSPost2010PropOp42
 70
     1
102
RTVSPost2010Prop43
 90
        3
102
RTVSPost2010PropOp43
 70
     1
102
RTVSPost2010Prop44ColorIndex
 90
        5
102
RTVSPost2010Prop44ColorRGB
 90
      255
102
RTVSPost2010PropOp44
 70
     1
102
RTVSPost2010Prop45
280
     0
102
RTVSPost2010PropOp45
 70
     1
102
RTVSPost2010Prop46
 90
       50
102
RTVSPost2010PropOp46
 70
     1
102
RTVSPost2010Prop47
 90
       50
102
RTVSPost2010PropOp47
 70
     1
102
RTVSPost2010Prop48
 90
       50
102
RTVSPost2010PropOp48
 70
     1
102
RTVSPost2010Prop49
280
     0
102
RTVSPost2010PropOp49
 70
     1
102
RTVSPost2010Prop50
 90
       50
102
RTVSPost2010PropOp50
 70
     1
102
RTVSPost2010Prop51ColorIndex
 90
      256
102
RTVSPost2010Prop51ColorRGB
 90
-16777216
102
RTVSPost2010PropOp51
 70
     0
102
RTVSPost2010Prop52
140
1.0
102
RTVSPost2010PropOp52
 70
     0
102
RTVSPost2010Prop53
 90
        2
102
RTVSPost2010PropOp53
 70
     1
102
RTVSPost2010Prop54
  1
strokes_ogs.tif
102
RTVSPost2010PropOp54
 70
     1
102
RTVSPost2010Prop55
280
     0
102
RTVSPost2010PropOp55
 70
     1
102
RTVSPost2010Prop56
140
1.0
102
RTVSPost2010PropOp56
 70
     1
102
RTVSPost2010Prop57
140
1.0
102
RTVSPost2010PropOp57
 70
     1
102
RTVSPropertyOp0
 70
     1
102
RTVSPropertyOp1
 70
     1
102
RTVSPropertyOp2
 70
     1
102
RTVSPropertyOp3
 70
     1
102
RTVSPropertyOp4
 70
     1
102
RTVSPropertyOp5
 70
     1
102
RTVSPropertyOp6
 70
     1
102
RTVSPropertyOp7
 70
     1
102
RTVSPropertyOp8
 70
     1
102
RTVSPropertyOp9
 70
     1
102
RTVSPropertyOp10
 70
     1
102
RTVSPropertyOp11
 70
     1
102
RTVSPropertyOp12
 70
     1
102
RTVSPropertyOp13
 70
     1
102
RTVSPropertyOp14
 70
     1
102
RTVSPropertyOp15
 70
     1
102
RTVSPropertyOp16
 70
     1
102
RTVSPropertyOp17
 70
     1
102
RTVSPropertyOp18
 70
     1
102
RTVSPropertyOp19
 70
     1
102
RTVSPropertyOp20
 70
     1
102
RTVSPropertyOp21
 70
     1
102
RTVSPropertyOp22
 70
     1
102
RTVSPropertyOp23
 70
     1
102
RTVSPropertyOp24
 70
     1
102
RTVSPropertyOp25
 70
     1
102
RTVSPropertyOp26
 70
     1
102
RTVSPropertyOp27
 70
     1
102
RTVSPropertyOp28
 70
     1
102
RTVSPropertyOp29
 70
     1
102
RTVSPropertyOp30
 70
     1
102
RTVSPropertyOp31
 70
     1
102
RTVSPropertyOp32
 70
     1
102
RTVSPropertyOp33
 70
     1
102
RTVSPropertyOp34
 70
     1
102
RTVSPropertyOp35
 70
     1
102
RTVSPropertyOp36
 70
     1
102
RTVSPropertyOp37
 70
     1
102
RTVSPropertyOp38
 70
     1
102
RTVSPropertyOp39
 70
     1
102
RTVSPropertyOp40
 70
     1
102
RTVSPropertyOp41
 70
     1
102
RTVSPropertyOp42
 70
     1
102
RTVSPropertyOp43
 70
     1
102
RTVSPropertyOp44
 70
     1
102
RTVSPropertyOp45
 70
     1
102
RTVSPropertyOp46
 70
     1
102
RTVSPropertyOp47
 70
     1
102
RTVSPropertyOp48
 70
     1
102
RTVSPropertyOp49
 70
     1
102
RTVSPropertyOp50
 70
     1
102
RTVSPropertyOp51
 70
     0
102
RTVSPropertyOp52
 70
     0
102
RTVSPropertyOp53
 70
     1
102
RTVSPropertyOp54
 70
     1
102
RTVSPropertyOp55
 70
     1
102
RTVSPropertyOp56
 70
     1
102
RTVSPropertyOp57
 70
     1
102
RTVSPropertyOp58
 70
     1
102
RTVSPropertyOp59
 70
     1
102
RTVSPropertyOp60
 70
     1
102
RTVSPropertyOp61
 70
     1
102
RTVSPropertyOp62
 70
     1
  0
XRECORD
  5
1D572
102
{ACAD_REACTORS
330
1D571
102
}
330
1D571
100
AcDbXrecord
280
     1
102
RTVSPost2010Prop28
280
     0
102
RTVSPost2010PropOp28
 70
     1
102
RTVSPost2010Prop29
280
     1
102
RTVSPost2010PropOp29
 70
     1
102
RTVSPost2010Prop30
280
     1
102
RTVSPost2010PropOp30
 70
     1
102
RTVSPost2010Prop31
280
     0
102
RTVSPost2010PropOp31
 70
     1
102
RTVSPost2010Prop32
280
     0
102
RTVSPost2010PropOp32
 70
     1
102
RTVSPost2010Prop33
280
     0
102
RTVSPost2010PropOp33
 70
     1
102
RTVSPost2010Prop34
280
     0
102
RTVSPost2010PropOp34
 70
     1
102
RTVSPost2010Prop35
280
     0
102
RTVSPost2010PropOp35
 70
     1
102
RTVSPost2010Prop36
280
     0
102
RTVSPost2010PropOp36
 70
     1
102
RTVSPost2010Prop37
 90
       50
102
RTVSPost2010PropOp37
 70
     1
102
RTVSPost2010Prop38
140
0.0
102
RTVSPost2010PropOp38
 70
     1
102
RTVSPost2010Prop39
140
1.0
102
RTVSPost2010PropOp39
 70
     1
102
RTVSPost2010Prop40
 90
        0
102
RTVSPost2010PropOp40
 70
     1
102
RTVSPost2010Prop41ColorIndex
 90
       18
102
RTVSPost2010Prop41ColorRGB
 90
        0
102
RTVSPost2010PropOp41
 70
     1
102
RTVSPost2010Prop42
 90
       50
102
RTVSPost2010PropOp42
 70
     1
102
RTVSPost2010Prop43
 90
        3
102
RTVSPost2010PropOp43
 70
     1
102
RTVSPost2010Prop44ColorIndex
 90
        5
102
RTVSPost2010Prop44ColorRGB
 90
      255
102
RTVSPost2010PropOp44
 70
     1
102
RTVSPost2010Prop45
280
     0
102
RTVSPost2010PropOp45
 70
     1
102
RTVSPost2010Prop46
 90
       50
102
RTVSPost2010PropOp46
 70
     1
102
RTVSPost2010Prop47
 90
       50
102
RTVSPost2010PropOp47
 70
     1
102
RTVSPost2010Prop48
 90
       50
102
RTVSPost2010PropOp48
 70
     1
102
RTVSPost2010Prop49
280
     0
102
RTVSPost2010PropOp49
 70
     1
102
RTVSPost2010Prop50
 90
       50
102
RTVSPost2010PropOp50
 70
     1
102
RTVSPost2010Prop51ColorIndex
 90
      256
102
RTVSPost2010Prop51ColorRGB
 90
-16777216
102
RTVSPost2010PropOp51
 70
     0
102
RTVSPost2010Prop52
140
1.0
102
RTVSPost2010PropOp52
 70
     0
102
RTVSPost2010Prop53
 90
        2
102
RTVSPost2010PropOp53
 70
     1
102
RTVSPost2010Prop54
  1
strokes_ogs.tif
102
RTVSPost2010PropOp54
 70
     1
102
RTVSPost2010Prop55
280
     0
102
RTVSPost2010PropOp55
 70
     1
102
RTVSPost2010Prop56
140
1.0
102
RTVSPost2010PropOp56
 70
     1
102
RTVSPost2010Prop57
140
1.0
102
RTVSPost2010PropOp57
 70
     1
102
RTVSPropertyOp0
 70
     1
102
RTVSPropertyOp1
 70
     1
102
RTVSPropertyOp2
 70
     1
102
RTVSPropertyOp3
 70
     1
102
RTVSPropertyOp4
 70
     1
102
RTVSPropertyOp5
 70
     1
102
RTVSPropertyOp6
 70
     1
102
RTVSPropertyOp7
 70
     1
102
RTVSPropertyOp8
 70
     1
102
RTVSPropertyOp9
 70
     1
102
RTVSPropertyOp10
 70
     1
102
RTVSPropertyOp11
 70
     1
102
RTVSPropertyOp12
 70
     1
102
RTVSPropertyOp13
 70
     1
102
RTVSPropertyOp14
 70
     1
102
RTVSPropertyOp15
 70
     1
102
RTVSPropertyOp16
 70
     1
102
RTVSPropertyOp17
 70
     1
102
RTVSPropertyOp18
 70
     1
102
RTVSPropertyOp19
 70
     1
102
RTVSPropertyOp20
 70
     1
102
RTVSPropertyOp21
 70
     1
102
RTVSPropertyOp22
 70
     1
102
RTVSPropertyOp23
 70
     1
102
RTVSPropertyOp24
 70
     1
102
RTVSPropertyOp25
 70
     1
102
RTVSPropertyOp26
 70
     1
102
RTVSPropertyOp27
 70
     1
102
RTVSPropertyOp28
 70
     1
102
RTVSPropertyOp29
 70
     1
102
RTVSPropertyOp30
 70
     1
102
RTVSPropertyOp31
 70
     1
102
RTVSPropertyOp32
 70
     1
102
RTVSPropertyOp33
 70
     1
102
RTVSPropertyOp34
 70
     1
102
RTVSPropertyOp35
 70
     1
102
RTVSPropertyOp36
 70
     1
102
RTVSPropertyOp37
 70
     1
102
RTVSPropertyOp38
 70
     1
102
RTVSPropertyOp39
 70
     1
102
RTVSPropertyOp40
 70
     1
102
RTVSPropertyOp41
 70
     1
102
RTVSPropertyOp42
 70
     1
102
RTVSPropertyOp43
 70
     1
102
RTVSPropertyOp44
 70
     1
102
RTVSPropertyOp45
 70
     1
102
RTVSPropertyOp46
 70
     1
102
RTVSPropertyOp47
 70
     1
102
RTVSPropertyOp48
 70
     1
102
RTVSPropertyOp49
 70
     1
102
RTVSPropertyOp50
 70
     1
102
RTVSPropertyOp51
 70
     0
102
RTVSPropertyOp52
 70
     0
102
RTVSPropertyOp53
 70
     1
102
RTVSPropertyOp54
 70
     1
102
RTVSPropertyOp55
 70
     1
102
RTVSPropertyOp56
 70
     1
102
RTVSPropertyOp57
 70
     1
102
RTVSPropertyOp58
 70
     1
102
RTVSPropertyOp59
 70
     1
102
RTVSPropertyOp60
 70
     1
102
RTVSPropertyOp61
 70
     1
102
RTVSPropertyOp62
 70
     1
  0
XRECORD
  5
1D574
102
{ACAD_REACTORS
330
1D573
102
}
330
1D573
100
AcDbXrecord
280
     1
102
RTVSPost2010Prop28
280
     0
102
RTVSPost2010PropOp28
 70
     1
102
RTVSPost2010Prop29
280
     1
102
RTVSPost2010PropOp29
 70
     1
102
RTVSPost2010Prop30
280
     1
102
RTVSPost2010PropOp30
 70
     1
102
RTVSPost2010Prop31
280
     0
102
RTVSPost2010PropOp31
 70
     1
102
RTVSPost2010Prop32
280
     0
102
RTVSPost2010PropOp32
 70
     1
102
RTVSPost2010Prop33
280
     0
102
RTVSPost2010PropOp33
 70
     1
102
RTVSPost2010Prop34
280
     0
102
RTVSPost2010PropOp34
 70
     1
102
RTVSPost2010Prop35
280
     0
102
RTVSPost2010PropOp35
 70
     1
102
RTVSPost2010Prop36
280
     0
102
RTVSPost2010PropOp36
 70
     1
102
RTVSPost2010Prop37
 90
       50
102
RTVSPost2010PropOp37
 70
     1
102
RTVSPost2010Prop38
140
0.0
102
RTVSPost2010PropOp38
 70
     1
102
RTVSPost2010Prop39
140
1.0
102
RTVSPost2010PropOp39
 70
     1
102
RTVSPost2010Prop40
 90
        0
102
RTVSPost2010PropOp40
 70
     1
102
RTVSPost2010Prop41ColorIndex
 90
       18
102
RTVSPost2010Prop41ColorRGB
 90
        0
102
RTVSPost2010PropOp41
 70
     1
102
RTVSPost2010Prop42
 90
       50
102
RTVSPost2010PropOp42
 70
     1
102
RTVSPost2010Prop43
 90
        3
102
RTVSPost2010PropOp43
 70
     1
102
RTVSPost2010Prop44ColorIndex
 90
        5
102
RTVSPost2010Prop44ColorRGB
 90
      255
102
RTVSPost2010PropOp44
 70
     1
102
RTVSPost2010Prop45
280
     0
102
RTVSPost2010PropOp45
 70
     1
102
RTVSPost2010Prop46
 90
       50
102
RTVSPost2010PropOp46
 70
     1
102
RTVSPost2010Prop47
 90
       50
102
RTVSPost2010PropOp47
 70
     1
102
RTVSPost2010Prop48
 90
       50
102
RTVSPost2010PropOp48
 70
     1
102
RTVSPost2010Prop49
280
     0
102
RTVSPost2010PropOp49
 70
     1
102
RTVSPost2010Prop50
 90
       50
102
RTVSPost2010PropOp50
 70
     1
102
RTVSPost2010Prop51ColorIndex
 90
      256
102
RTVSPost2010Prop51ColorRGB
 90
-16777216
102
RTVSPost2010PropOp51
 70
     0
102
RTVSPost2010Prop52
140
1.0
102
RTVSPost2010PropOp52
 70
     0
102
RTVSPost2010Prop53
 90
        2
102
RTVSPost2010PropOp53
 70
     1
102
RTVSPost2010Prop54
  1
strokes_ogs.tif
102
RTVSPost2010PropOp54
 70
     1
102
RTVSPost2010Prop55
280
     0
102
RTVSPost2010PropOp55
 70
     1
102
RTVSPost2010Prop56
140
1.0
102
RTVSPost2010PropOp56
 70
     1
102
RTVSPost2010Prop57
140
1.0
102
RTVSPost2010PropOp57
 70
     1
102
RTVSPropertyOp0
 70
     1
102
RTVSPropertyOp1
 70
     1
102
RTVSPropertyOp2
 70
     1
102
RTVSPropertyOp3
 70
     1
102
RTVSPropertyOp4
 70
     1
102
RTVSPropertyOp5
 70
     1
102
RTVSPropertyOp6
 70
     1
102
RTVSPropertyOp7
 70
     1
102
RTVSPropertyOp8
 70
     1
102
RTVSPropertyOp9
 70
     1
102
RTVSPropertyOp10
 70
     1
102
RTVSPropertyOp11
 70
     1
102
RTVSPropertyOp12
 70
     1
102
RTVSPropertyOp13
 70
     1
102
RTVSPropertyOp14
 70
     1
102
RTVSPropertyOp15
 70
     1
102
RTVSPropertyOp16
 70
     1
102
RTVSPropertyOp17
 70
     1
102
RTVSPropertyOp18
 70
     1
102
RTVSPropertyOp19
 70
     1
102
RTVSPropertyOp20
 70
     1
102
RTVSPropertyOp21
 70
     1
102
RTVSPropertyOp22
 70
     1
102
RTVSPropertyOp23
 70
     1
102
RTVSPropertyOp24
 70
     1
102
RTVSPropertyOp25
 70
     1
102
RTVSPropertyOp26
 70
     1
102
RTVSPropertyOp27
 70
     1
102
RTVSPropertyOp28
 70
     1
102
RTVSPropertyOp29
 70
     1
102
RTVSPropertyOp30
 70
     1
102
RTVSPropertyOp31
 70
     1
102
RTVSPropertyOp32
 70
     1
102
RTVSPropertyOp33
 70
     1
102
RTVSPropertyOp34
 70
     1
102
RTVSPropertyOp35
 70
     1
102
RTVSPropertyOp36
 70
     1
102
RTVSPropertyOp37
 70
     1
102
RTVSPropertyOp38
 70
     1
102
RTVSPropertyOp39
 70
     1
102
RTVSPropertyOp40
 70
     1
102
RTVSPropertyOp41
 70
     1
102
RTVSPropertyOp42
 70
     1
102
RTVSPropertyOp43
 70
     1
102
RTVSPropertyOp44
 70
     1
102
RTVSPropertyOp45
 70
     1
102
RTVSPropertyOp46
 70
     1
102
RTVSPropertyOp47
 70
     1
102
RTVSPropertyOp48
 70
     1
102
RTVSPropertyOp49
 70
     1
102
RTVSPropertyOp50
 70
     1
102
RTVSPropertyOp51
 70
     0
102
RTVSPropertyOp52
 70
     0
102
RTVSPropertyOp53
 70
     1
102
RTVSPropertyOp54
 70
     1
102
RTVSPropertyOp55
 70
     1
102
RTVSPropertyOp56
 70
     1
102
RTVSPropertyOp57
 70
     1
102
RTVSPropertyOp58
 70
     1
102
RTVSPropertyOp59
 70
     1
102
RTVSPropertyOp60
 70
     1
102
RTVSPropertyOp61
 70
     1
102
RTVSPropertyOp62
 70
     1
  0
XRECORD
  5
1D56A
102
{ACAD_REACTORS
330
1D569
102
}
330
1D569
100
AcDbXrecord
280
     1
102
RTVSPost2010Prop28
280
     0
102
RTVSPost2010PropOp28
 70
     1
102
RTVSPost2010Prop29
280
     1
102
RTVSPost2010PropOp29
 70
     1
102
RTVSPost2010Prop30
280
     1
102
RTVSPost2010PropOp30
 70
     1
102
RTVSPost2010Prop31
280
     0
102
RTVSPost2010PropOp31
 70
     1
102
RTVSPost2010Prop32
280
     0
102
RTVSPost2010PropOp32
 70
     1
102
RTVSPost2010Prop33
280
     0
102
RTVSPost2010PropOp33
 70
     1
102
RTVSPost2010Prop34
280
     0
102
RTVSPost2010PropOp34
 70
     1
102
RTVSPost2010Prop35
280
     0
102
RTVSPost2010PropOp35
 70
     1
102
RTVSPost2010Prop36
280
     0
102
RTVSPost2010PropOp36
 70
     1
102
RTVSPost2010Prop37
 90
       50
102
RTVSPost2010PropOp37
 70
     1
102
RTVSPost2010Prop38
140
0.0
102
RTVSPost2010PropOp38
 70
     1
102
RTVSPost2010Prop39
140
1.0
102
RTVSPost2010PropOp39
 70
     1
102
RTVSPost2010Prop40
 90
        0
102
RTVSPost2010PropOp40
 70
     1
102
RTVSPost2010Prop41ColorIndex
 90
       18
102
RTVSPost2010Prop41ColorRGB
 90
        0
102
RTVSPost2010PropOp41
 70
     1
102
RTVSPost2010Prop42
 90
       50
102
RTVSPost2010PropOp42
 70
     1
102
RTVSPost2010Prop43
 90
        3
102
RTVSPost2010PropOp43
 70
     1
102
RTVSPost2010Prop44ColorIndex
 90
        5
102
RTVSPost2010Prop44ColorRGB
 90
      255
102
RTVSPost2010PropOp44
 70
     1
102
RTVSPost2010Prop45
280
     0
102
RTVSPost2010PropOp45
 70
     1
102
RTVSPost2010Prop46
 90
       50
102
RTVSPost2010PropOp46
 70
     1
102
RTVSPost2010Prop47
 90
       50
102
RTVSPost2010PropOp47
 70
     1
102
RTVSPost2010Prop48
 90
       50
102
RTVSPost2010PropOp48
 70
     1
102
RTVSPost2010Prop49
280
     0
102
RTVSPost2010PropOp49
 70
     1
102
RTVSPost2010Prop50
 90
       50
102
RTVSPost2010PropOp50
 70
     1
102
RTVSPost2010Prop51ColorIndex
 90
      256
102
RTVSPost2010Prop51ColorRGB
 90
-16777216
102
RTVSPost2010PropOp51
 70
     0
102
RTVSPost2010Prop52
140
1.0
102
RTVSPost2010PropOp52
 70
     0
102
RTVSPost2010Prop53
 90
        2
102
RTVSPost2010PropOp53
 70
     1
102
RTVSPost2010Prop54
  1
strokes_ogs.tif
102
RTVSPost2010PropOp54
 70
     1
102
RTVSPost2010Prop55
280
     0
102
RTVSPost2010PropOp55
 70
     1
102
RTVSPost2010Prop56
140
1.0
102
RTVSPost2010PropOp56
 70
     1
102
RTVSPost2010Prop57
140
1.0
102
RTVSPost2010PropOp57
 70
     1
102
RTVSPropertyOp0
 70
     1
102
RTVSPropertyOp1
 70
     1
102
RTVSPropertyOp2
 70
     1
102
RTVSPropertyOp3
 70
     1
102
RTVSPropertyOp4
 70
     1
102
RTVSPropertyOp5
 70
     1
102
RTVSPropertyOp6
 70
     1
102
RTVSPropertyOp7
 70
     1
102
RTVSPropertyOp8
 70
     1
102
RTVSPropertyOp9
 70
     1
102
RTVSPropertyOp10
 70
     1
102
RTVSPropertyOp11
 70
     1
102
RTVSPropertyOp12
 70
     1
102
RTVSPropertyOp13
 70
     1
102
RTVSPropertyOp14
 70
     1
102
RTVSPropertyOp15
 70
     1
102
RTVSPropertyOp16
 70
     1
102
RTVSPropertyOp17
 70
     1
102
RTVSPropertyOp18
 70
     1
102
RTVSPropertyOp19
 70
     1
102
RTVSPropertyOp20
 70
     1
102
RTVSPropertyOp21
 70
     1
102
RTVSPropertyOp22
 70
     1
102
RTVSPropertyOp23
 70
     1
102
RTVSPropertyOp24
 70
     1
102
RTVSPropertyOp25
 70
     1
102
RTVSPropertyOp26
 70
     1
102
RTVSPropertyOp27
 70
     1
102
RTVSPropertyOp28
 70
     1
102
RTVSPropertyOp29
 70
     1
102
RTVSPropertyOp30
 70
     1
102
RTVSPropertyOp31
 70
     1
102
RTVSPropertyOp32
 70
     1
102
RTVSPropertyOp33
 70
     1
102
RTVSPropertyOp34
 70
     1
102
RTVSPropertyOp35
 70
     1
102
RTVSPropertyOp36
 70
     1
102
RTVSPropertyOp37
 70
     1
102
RTVSPropertyOp38
 70
     1
102
RTVSPropertyOp39
 70
     1
102
RTVSPropertyOp40
 70
     1
102
RTVSPropertyOp41
 70
     1
102
RTVSPropertyOp42
 70
     1
102
RTVSPropertyOp43
 70
     1
102
RTVSPropertyOp44
 70
     1
102
RTVSPropertyOp45
 70
     1
102
RTVSPropertyOp46
 70
     1
102
RTVSPropertyOp47
 70
     1
102
RTVSPropertyOp48
 70
     1
102
RTVSPropertyOp49
 70
     1
102
RTVSPropertyOp50
 70
     1
102
RTVSPropertyOp51
 70
     0
102
RTVSPropertyOp52
 70
     0
102
RTVSPropertyOp53
 70
     1
102
RTVSPropertyOp54
 70
     1
102
RTVSPropertyOp55
 70
     1
102
RTVSPropertyOp56
 70
     1
102
RTVSPropertyOp57
 70
     1
102
RTVSPropertyOp58
 70
     1
102
RTVSPropertyOp59
 70
     1
102
RTVSPropertyOp60
 70
     1
102
RTVSPropertyOp61
 70
     1
102
RTVSPropertyOp62
 70
     1
  0
XRECORD
  5
1D55E
102
{ACAD_REACTORS
330
1D55D
102
}
330
1D55D
100
AcDbXrecord
280
     1
102
RTVSPost2010Prop28
280
     0
102
RTVSPost2010PropOp28
 70
     1
102
RTVSPost2010Prop29
280
     1
102
RTVSPost2010PropOp29
 70
     1
102
RTVSPost2010Prop30
280
     1
102
RTVSPost2010PropOp30
 70
     1
102
RTVSPost2010Prop31
280
     0
102
RTVSPost2010PropOp31
 70
     1
102
RTVSPost2010Prop32
280
     0
102
RTVSPost2010PropOp32
 70
     1
102
RTVSPost2010Prop33
280
     0
102
RTVSPost2010PropOp33
 70
     1
102
RTVSPost2010Prop34
280
     0
102
RTVSPost2010PropOp34
 70
     1
102
RTVSPost2010Prop35
280
     0
102
RTVSPost2010PropOp35
 70
     1
102
RTVSPost2010Prop36
280
     0
102
RTVSPost2010PropOp36
 70
     1
102
RTVSPost2010Prop37
 90
       50
102
RTVSPost2010PropOp37
 70
     1
102
RTVSPost2010Prop38
140
0.0
102
RTVSPost2010PropOp38
 70
     1
102
RTVSPost2010Prop39
140
1.0
102
RTVSPost2010PropOp39
 70
     1
102
RTVSPost2010Prop40
 90
        0
102
RTVSPost2010PropOp40
 70
     1
102
RTVSPost2010Prop41ColorIndex
 90
       18
102
RTVSPost2010Prop41ColorRGB
 90
        0
102
RTVSPost2010PropOp41
 70
     1
102
RTVSPost2010Prop42
 90
       50
102
RTVSPost2010PropOp42
 70
     1
102
RTVSPost2010Prop43
 90
        3
102
RTVSPost2010PropOp43
 70
     1
102
RTVSPost2010Prop44ColorIndex
 90
        5
102
RTVSPost2010Prop44ColorRGB
 90
      255
102
RTVSPost2010PropOp44
 70
     1
102
RTVSPost2010Prop45
280
     0
102
RTVSPost2010PropOp45
 70
     1
102
RTVSPost2010Prop46
 90
       50
102
RTVSPost2010PropOp46
 70
     1
102
RTVSPost2010Prop47
 90
       50
102
RTVSPost2010PropOp47
 70
     1
102
RTVSPost2010Prop48
 90
       50
102
RTVSPost2010PropOp48
 70
     1
102
RTVSPost2010Prop49
280
     0
102
RTVSPost2010PropOp49
 70
     1
102
RTVSPost2010Prop50
 90
       50
102
RTVSPost2010PropOp50
 70
     1
102
RTVSPost2010Prop51ColorIndex
 90
      256
102
RTVSPost2010Prop51ColorRGB
 90
-16777216
102
RTVSPost2010PropOp51
 70
     0
102
RTVSPost2010Prop52
140
1.0
102
RTVSPost2010PropOp52
 70
     0
102
RTVSPost2010Prop53
 90
        2
102
RTVSPost2010PropOp53
 70
     1
102
RTVSPost2010Prop54
  1
strokes_ogs.tif
102
RTVSPost2010PropOp54
 70
     1
102
RTVSPost2010Prop55
280
     0
102
RTVSPost2010PropOp55
 70
     1
102
RTVSPost2010Prop56
140
1.0
102
RTVSPost2010PropOp56
 70
     1
102
RTVSPost2010Prop57
140
1.0
102
RTVSPost2010PropOp57
 70
     1
102
RTVSPropertyOp0
 70
     1
102
RTVSPropertyOp1
 70
     1
102
RTVSPropertyOp2
 70
     1
102
RTVSPropertyOp3
 70
     1
102
RTVSPropertyOp4
 70
     1
102
RTVSPropertyOp5
 70
     1
102
RTVSPropertyOp6
 70
     1
102
RTVSPropertyOp7
 70
     1
102
RTVSPropertyOp8
 70
     1
102
RTVSPropertyOp9
 70
     1
102
RTVSPropertyOp10
 70
     1
102
RTVSPropertyOp11
 70
     1
102
RTVSPropertyOp12
 70
     1
102
RTVSPropertyOp13
 70
     1
102
RTVSPropertyOp14
 70
     1
102
RTVSPropertyOp15
 70
     1
102
RTVSPropertyOp16
 70
     1
102
RTVSPropertyOp17
 70
     1
102
RTVSPropertyOp18
 70
     1
102
RTVSPropertyOp19
 70
     1
102
RTVSPropertyOp20
 70
     1
102
RTVSPropertyOp21
 70
     1
102
RTVSPropertyOp22
 70
     1
102
RTVSPropertyOp23
 70
     1
102
RTVSPropertyOp24
 70
     1
102
RTVSPropertyOp25
 70
     1
102
RTVSPropertyOp26
 70
     1
102
RTVSPropertyOp27
 70
     1
102
RTVSPropertyOp28
 70
     1
102
RTVSPropertyOp29
 70
     1
102
RTVSPropertyOp30
 70
     1
102
RTVSPropertyOp31
 70
     1
102
RTVSPropertyOp32
 70
     1
102
RTVSPropertyOp33
 70
     1
102
RTVSPropertyOp34
 70
     1
102
RTVSPropertyOp35
 70
     1
102
RTVSPropertyOp36
 70
     1
102
RTVSPropertyOp37
 70
     1
102
RTVSPropertyOp38
 70
     1
102
RTVSPropertyOp39
 70
     1
102
RTVSPropertyOp40
 70
     1
102
RTVSPropertyOp41
 70
     1
102
RTVSPropertyOp42
 70
     1
102
RTVSPropertyOp43
 70
     1
102
RTVSPropertyOp44
 70
     1
102
RTVSPropertyOp45
 70
     1
102
RTVSPropertyOp46
 70
     1
102
RTVSPropertyOp47
 70
     1
102
RTVSPropertyOp48
 70
     1
102
RTVSPropertyOp49
 70
     1
102
RTVSPropertyOp50
 70
     1
102
RTVSPropertyOp51
 70
     0
102
RTVSPropertyOp52
 70
     0
102
RTVSPropertyOp53
 70
     1
102
RTVSPropertyOp54
 70
     1
102
RTVSPropertyOp55
 70
     1
102
RTVSPropertyOp56
 70
     1
102
RTVSPropertyOp57
 70
     1
102
RTVSPropertyOp58
 70
     1
102
RTVSPropertyOp59
 70
     1
102
RTVSPropertyOp60
 70
     1
102
RTVSPropertyOp61
 70
     1
102
RTVSPropertyOp62
 70
     1
  0
XRECORD
  5
1D576
102
{ACAD_REACTORS
330
1D575
102
}
330
1D575
100
AcDbXrecord
280
     1
102
RTVSPost2010Prop28
280
     0
102
RTVSPost2010PropOp28
 70
     1
102
RTVSPost2010Prop29
280
     1
102
RTVSPost2010PropOp29
 70
     1
102
RTVSPost2010Prop30
280
     1
102
RTVSPost2010PropOp30
 70
     1
102
RTVSPost2010Prop31
280
     0
102
RTVSPost2010PropOp31
 70
     1
102
RTVSPost2010Prop32
280
     0
102
RTVSPost2010PropOp32
 70
     1
102
RTVSPost2010Prop33
280
     0
102
RTVSPost2010PropOp33
 70
     1
102
RTVSPost2010Prop34
280
     0
102
RTVSPost2010PropOp34
 70
     1
102
RTVSPost2010Prop35
280
     0
102
RTVSPost2010PropOp35
 70
     1
102
RTVSPost2010Prop36
280
     0
102
RTVSPost2010PropOp36
 70
     1
102
RTVSPost2010Prop37
 90
       50
102
RTVSPost2010PropOp37
 70
     1
102
RTVSPost2010Prop38
140
0.0
102
RTVSPost2010PropOp38
 70
     1
102
RTVSPost2010Prop39
140
1.0
102
RTVSPost2010PropOp39
 70
     1
102
RTVSPost2010Prop40
 90
        0
102
RTVSPost2010PropOp40
 70
     1
102
RTVSPost2010Prop41ColorIndex
 90
       18
102
RTVSPost2010Prop41ColorRGB
 90
        0
102
RTVSPost2010PropOp41
 70
     1
102
RTVSPost2010Prop42
 90
       50
102
RTVSPost2010PropOp42
 70
     1
102
RTVSPost2010Prop43
 90
        3
102
RTVSPost2010PropOp43
 70
     1
102
RTVSPost2010Prop44ColorIndex
 90
        5
102
RTVSPost2010Prop44ColorRGB
 90
      255
102
RTVSPost2010PropOp44
 70
     1
102
RTVSPost2010Prop45
280
     0
102
RTVSPost2010PropOp45
 70
     1
102
RTVSPost2010Prop46
 90
       50
102
RTVSPost2010PropOp46
 70
     1
102
RTVSPost2010Prop47
 90
       50
102
RTVSPost2010PropOp47
 70
     1
102
RTVSPost2010Prop48
 90
       50
102
RTVSPost2010PropOp48
 70
     1
102
RTVSPost2010Prop49
280
     0
102
RTVSPost2010PropOp49
 70
     1
102
RTVSPost2010Prop50
 90
       50
102
RTVSPost2010PropOp50
 70
     1
102
RTVSPost2010Prop51ColorIndex
 90
      256
102
RTVSPost2010Prop51ColorRGB
 90
-16777216
102
RTVSPost2010PropOp51
 70
     0
102
RTVSPost2010Prop52
140
1.0
102
RTVSPost2010PropOp52
 70
     0
102
RTVSPost2010Prop53
 90
        2
102
RTVSPost2010PropOp53
 70
     1
102
RTVSPost2010Prop54
  1
strokes_ogs.tif
102
RTVSPost2010PropOp54
 70
     1
102
RTVSPost2010Prop55
280
     0
102
RTVSPost2010PropOp55
 70
     1
102
RTVSPost2010Prop56
140
1.0
102
RTVSPost2010PropOp56
 70
     1
102
RTVSPost2010Prop57
140
1.0
102
RTVSPost2010PropOp57
 70
     1
102
RTVSPropertyOp0
 70
     1
102
RTVSPropertyOp1
 70
     1
102
RTVSPropertyOp2
 70
     1
102
RTVSPropertyOp3
 70
     1
102
RTVSPropertyOp4
 70
     1
102
RTVSPropertyOp5
 70
     1
102
RTVSPropertyOp6
 70
     1
102
RTVSPropertyOp7
 70
     1
102
RTVSPropertyOp8
 70
     1
102
RTVSPropertyOp9
 70
     1
102
RTVSPropertyOp10
 70
     1
102
RTVSPropertyOp11
 70
     1
102
RTVSPropertyOp12
 70
     1
102
RTVSPropertyOp13
 70
     1
102
RTVSPropertyOp14
 70
     1
102
RTVSPropertyOp15
 70
     1
102
RTVSPropertyOp16
 70
     1
102
RTVSPropertyOp17
 70
     1
102
RTVSPropertyOp18
 70
     1
102
RTVSPropertyOp19
 70
     1
102
RTVSPropertyOp20
 70
     1
102
RTVSPropertyOp21
 70
     1
102
RTVSPropertyOp22
 70
     1
102
RTVSPropertyOp23
 70
     1
102
RTVSPropertyOp24
 70
     1
102
RTVSPropertyOp25
 70
     1
102
RTVSPropertyOp26
 70
     1
102
RTVSPropertyOp27
 70
     1
102
RTVSPropertyOp28
 70
     1
102
RTVSPropertyOp29
 70
     1
102
RTVSPropertyOp30
 70
     1
102
RTVSPropertyOp31
 70
     1
102
RTVSPropertyOp32
 70
     1
102
RTVSPropertyOp33
 70
     1
102
RTVSPropertyOp34
 70
     1
102
RTVSPropertyOp35
 70
     1
102
RTVSPropertyOp36
 70
     1
102
RTVSPropertyOp37
 70
     1
102
RTVSPropertyOp38
 70
     1
102
RTVSPropertyOp39
 70
     1
102
RTVSPropertyOp40
 70
     1
102
RTVSPropertyOp41
 70
     1
102
RTVSPropertyOp42
 70
     1
102
RTVSPropertyOp43
 70
     1
102
RTVSPropertyOp44
 70
     1
102
RTVSPropertyOp45
 70
     1
102
RTVSPropertyOp46
 70
     1
102
RTVSPropertyOp47
 70
     1
102
RTVSPropertyOp48
 70
     1
102
RTVSPropertyOp49
 70
     1
102
RTVSPropertyOp50
 70
     1
102
RTVSPropertyOp51
 70
     0
102
RTVSPropertyOp52
 70
     0
102
RTVSPropertyOp53
 70
     1
102
RTVSPropertyOp54
 70
     1
102
RTVSPropertyOp55
 70
     1
102
RTVSPropertyOp56
 70
     1
102
RTVSPropertyOp57
 70
     1
102
RTVSPropertyOp58
 70
     1
102
RTVSPropertyOp59
 70
     1
102
RTVSPropertyOp60
 70
     1
102
RTVSPropertyOp61
 70
     1
102
RTVSPropertyOp62
 70
     1
  0
ENDSEC
  0
EOF
