  0
SECTION
  2
HEADER
  9
$ACADVER
  1
AC1015
  9
$ACADMAINTVER
 70
    20
  9
$DWGCODEPAGE
  3
ANSI_932
  9
$INSBASE
 10
0.0
 20
0.0
 30
0.0
  9
$EXTMIN
 10
9.99995
 20
9.999999999999998
 30
0.0
  9
$EXTMAX
 10
377.6094749999999
 20
103.2
 30
0.0
  9
$LIMMIN
 10
0.0
 20
0.0
  9
$LIMMAX
 10
396.0
 20
273.0
  9
$ORTHOMODE
 70
     1
  9
$REGENMODE
 70
     1
  9
$FILLMODE
 70
     1
  9
$QTEXTMODE
 70
     0
  9
$MIRRTEXT
 70
     1
  9
$LTSCALE
 40
20.0
  9
$ATTMODE
 70
     1
  9
$TEXTSIZE
 40
5.0
  9
$TRACEWID
 40
1.0
  9
$TEXTSTYLE
  7
STANDARD
  9
$CLAYER
  8
0
  9
$CELTYPE
  6
BYLAYER
  9
$CECOLOR
 62
   256
  9
$CELTSCALE
 40
1.0
  9
$DISPSILH
 70
     0
  9
$DIMSCALE
 40
1.0
  9
$DIMASZ
 40
3.0
  9
$DIMEXO
 40
1.0
  9
$DIMDLI
 40
10.0
  9
$DIMRND
 40
0.0
  9
$DIMDLE
 40
0.0
  9
$DIMEXE
 40
1.0
  9
$DIMTP
 40
0.0
  9
$DIMTM
 40
0.0
  9
$DIMTXT
 40
3.2
  9
$DIMCEN
 40
0.0
  9
$DIMTSZ
 40
0.0
  9
$DIMTOL
 70
     0
  9
$DIMLIM
 70
     0
  9
$DIMTIH
 70
     0
  9
$DIMTOH
 70
     0
  9
$DIMSE1
 70
     0
  9
$DIMSE2
 70
     0
  9
$DIMTAD
 70
     3
  9
$DIMZIN
 70
     8
  9
$DIMBLK
  1

  9
$DIMASO
 70
     1
  9
$DIMSHO
 70
     1
  9
$DIMPOST
  1

  9
$DIMAPOST
  1

  9
$DIMALT
 70
     0
  9
$DIMALTD
 70
     2
  9
$DIMALTF
 40
25.4
  9
$DIMLFAC
 40
1.0
  9
$DIMTOFL
 70
     1
  9
$DIMTVP
 40
0.0
  9
$DIMTIX
 70
     0
  9
$DIMSOXD
 70
     0
  9
$DIMSAH
 70
     1
  9
$DIMBLK1
  1

  9
$DIMBLK2
  1

  9
$DIMSTYLE
  2
STANDARD
  9
$DIMCLRD
 70
     0
  9
$DIMCLRE
 70
     0
  9
$DIMCLRT
 70
     0
  9
$DIMTFAC
 40
1.0
  9
$DIMGAP
 40
1.0
  9
$DIMJUST
 70
     0
  9
$DIMSD1
 70
     0
  9
$DIMSD2
 70
     0
  9
$DIMTOLJ
 70
     1
  9
$DIMTZIN
 70
     0
  9
$DIMALTZ
 70
     0
  9
$DIMALTTZ
 70
     0
  9
$DIMUPT
 70
     0
  9
$DIMDEC
 70
     4
  9
$DIMTDEC
 70
     4
  9
$DIMALTU
 70
     2
  9
$DIMALTTD
 70
     2
  9
$DIMTXSTY
  7
STANDARD
  9
$DIMAUNIT
 70
     0
  9
$DIMADEC
 70
     0
  9
$DIMALTRND
 40
0.0
  9
$DIMAZIN
 70
     0
  9
$DIMDSEP
 70
    46
  9
$DIMATFIT
 70
     3
  9
$DIMFRAC
 70
     0
  9
$DIMLDRBLK
  1

  9
$DIMLUNIT
 70
     2
  9
$DIMLWD
 70
    -2
  9
$DIMLWE
 70
    -2
  9
$DIMTMOVE
 70
     0
  9
$LUNITS
 70
     2
  9
$LUPREC
 70
     4
  9
$SKETCHINC
 40
1.0
  9
$FILLETRAD
 40
0.75
  9
$AUNITS
 70
     0
  9
$AUPREC
 70
     2
  9
$MENU
  1
.
  9
$ELEVATION
 40
0.0
  9
$PELEVATION
 40
0.0
  9
$THICKNESS
 40
0.0
  9
$LIMCHECK
 70
     0
  9
$CHAMFERA
 40
10.0
  9
$CHAMFERB
 40
10.0
  9
$CHAMFERC
 40
0.0
  9
$CHAMFERD
 40
0.0
  9
$SKPOLY
 70
     0
  9
$TDCREATE
 40
2451285.442851968
  9
$TDUCREATE
 40
2451285.067851968
  9
$TDUPDATE
 40
2457192.656788310
  9
$TDUUPDATE
 40
2457192.281788310
  9
$TDINDWG
 40
0.0000105671
  9
$TDUSRTIMER
 40
0.0000100694
  9
$USRTIMER
 70
     1
  9
$ANGBASE
 50
0.0
  9
$ANGDIR
 70
     0
  9
$PDMODE
 70
    34
  9
$PDSIZE
 40
0.0
  9
$PLINEWID
 40
0.0
  9
$SPLFRAME
 70
     0
  9
$SPLINETYPE
 70
     6
  9
$SPLINESEGS
 70
     8
  9
$HANDSEED
  5
1C4FD
  9
$SURFTAB1
 70
     6
  9
$SURFTAB2
 70
     6
  9
$SURFTYPE
 70
     6
  9
$SURFU
 70
     6
  9
$SURFV
 70
     6
  9
$UCSBASE
  2

  9
$UCSNAME
  2

  9
$UCSORG
 10
0.0
 20
0.0
 30
0.0
  9
$UCSXDIR
 10
1.0
 20
0.0
 30
0.0
  9
$UCSYDIR
 10
0.0
 20
1.0
 30
0.0
  9
$UCSORTHOREF
  2

  9
$UCSORTHOVIEW
 70
     0
  9
$UCSORGTOP
 10
0.0
 20
0.0
 30
0.0
  9
$UCSORGBOTTOM
 10
0.0
 20
0.0
 30
0.0
  9
$UCSORGLEFT
 10
0.0
 20
0.0
 30
0.0
  9
$UCSORGRIGHT
 10
0.0
 20
0.0
 30
0.0
  9
$UCSORGFRONT
 10
0.0
 20
0.0
 30
0.0
  9
$UCSORGBACK
 10
0.0
 20
0.0
 30
0.0
  9
$PUCSBASE
  2

  9
$PUCSNAME
  2

  9
$PUCSORG
 10
0.0
 20
0.0
 30
0.0
  9
$PUCSXDIR
 10
1.0
 20
0.0
 30
0.0
  9
$PUCSYDIR
 10
0.0
 20
1.0
 30
0.0
  9
$PUCSORTHOREF
  2

  9
$PUCSORTHOVIEW
 70
     0
  9
$PUCSORGTOP
 10
0.0
 20
0.0
 30
0.0
  9
$PUCSORGBOTTOM
 10
0.0
 20
0.0
 30
0.0
  9
$PUCSORGLEFT
 10
0.0
 20
0.0
 30
0.0
  9
$PUCSORGRIGHT
 10
0.0
 20
0.0
 30
0.0
  9
$PUCSORGFRONT
 10
0.0
 20
0.0
 30
0.0
  9
$PUCSORGBACK
 10
0.0
 20
0.0
 30
0.0
  9
$USERI1
 70
     0
  9
$USERI2
 70
     0
  9
$USERI3
 70
     0
  9
$USERI4
 70
     0
  9
$USERI5
 70
     0
  9
$USERR1
 40
0.0
  9
$USERR2
 40
0.0
  9
$USERR3
 40
0.0
  9
$USERR4
 40
0.0
  9
$USERR5
 40
0.0
  9
$WORLDVIEW
 70
     1
  9
$SHADEDGE
 70
     3
  9
$SHADEDIF
 70
    70
  9
$TILEMODE
 70
     1
  9
$MAXACTVP
 70
    16
  9
$PINSBASE
 10
0.0
 20
0.0
 30
0.0
  9
$PLIMCHECK
 70
     0
  9
$PEXTMIN
 10
1.000000000000000E+20
 20
1.000000000000000E+20
 30
1.000000000000000E+20
  9
$PEXTMAX
 10
-1.000000000000000E+20
 20
-1.000000000000000E+20
 30
-1.000000000000000E+20
  9
$PLIMMIN
 10
0.0
 20
0.0
  9
$PLIMMAX
 10
420.0
 20
297.0
  9
$UNITMODE
 70
     0
  9
$VISRETAIN
 70
     0
  9
$PLINEGEN
 70
     0
  9
$PSLTSCALE
 70
     0
  9
$TREEDEPTH
 70
  3020
  9
$CMLSTYLE
  2
STANDARD
  9
$CMLJUST
 70
     0
  9
$CMLSCALE
 40
1.0
  9
$PROXYGRAPHICS
 70
     1
  9
$MEASUREMENT
 70
     0
  9
$CELWEIGHT
370
    -1
  9
$ENDCAPS
280
     0
  9
$JOINSTYLE
280
     0
  9
$LWDISPLAY
290
     0
  9
$INSUNITS
 70
     0
  9
$HYPERLINKBASE
  1

  9
$STYLESHEET
  1

  9
$XEDIT
290
     1
  9
$CEPSNTYPE
380
     0
  9
$PSTYLEMODE
290
     1
  9
$FINGERPRINTGUID
  2
{C1602A48-E226-483E-9E6F-30542D380B52}
  9
$VERSIONGUID
  2
{5DEE092B-9BB7-46E4-8074-F168E1207E14}
  9
$EXTNAMES
290
     1
  9
$PSVPSCALE
 40
0.0
  9
$OLESTARTUP
290
     0
  0
ENDSEC
  0
SECTION
  2
CLASSES
  0
CLASS
  1
ACDBDICTIONARYWDFLT
  2
AcDbDictionaryWithDefault
  3
ObjectDBX Classes
 90
        0
280
     0
281
     0
  0
CLASS
  1
ACDBPLACEHOLDER
  2
AcDbPlaceHolder
  3
ObjectDBX Classes
 90
        0
280
     0
281
     0
  0
CLASS
  1
LAYOUT
  2
AcDbLayout
  3
ObjectDBX Classes
 90
        0
280
     0
281
     0
  0
CLASS
  1
DICTIONARYVAR
  2
AcDbDictionaryVar
  3
ObjectDBX Classes
 90
        0
280
     0
281
     0
  0
CLASS
  1
MATERIAL
  2
AcDbMaterial
  3
ObjectDBX Classes
 90
     1153
280
     0
281
     0
  0
CLASS
  1
VISUALSTYLE
  2
AcDbVisualStyle
  3
ObjectDBX Classes
 90
     4095
280
     0
281
     0
  0
CLASS
  1
TABLESTYLE
  2
AcDbTableStyle
  3
ObjectDBX Classes
 90
     4095
280
     0
281
     0
  0
CLASS
  1
SCALE
  2
AcDbScale
  3
ObjectDBX Classes
 90
     1153
280
     0
281
     0
  0
CLASS
  1
MLEADERSTYLE
  2
AcDbMLeaderStyle
  3
ACDB_MLEADERSTYLE_CLASS
 90
     4095
280
     0
281
     0
  0
CLASS
  1
ACDBSECTIONVIEWSTYLE
  2
AcDbSectionViewStyle
  3
ObjectDBX Classes
 90
     1025
280
     0
281
     0
  0
CLASS
  1
ACDBDETAILVIEWSTYLE
  2
AcDbDetailViewStyle
  3
ObjectDBX Classes
 90
     1025
280
     0
281
     0
  0
CLASS
  1
CELLSTYLEMAP
  2
AcDbCellStyleMap
  3
ObjectDBX Classes
 90
     1152
280
     0
281
     0
  0
ENDSEC
  0
SECTION
  2
TABLES
  0
TABLE
  2
VPORT
  5
1C261
330
0
100
AcDbSymbolTable
 70
     1
  0
VPORT
  5
1C446
330
1C261
100
AcDbSymbolTableRecord
100
AcDbViewportTableRecord
  2
*ACTIVE
 70
     0
 10
0.0
 20
0.0
 11
1.0
 21
1.0
 12
257.0956447197334
 22
56.59243065734904
 13
0.0
 23
0.0
 14
10.0
 24
10.0
 15
10.0
 25
10.0
 16
0.0
 26
0.0
 36
1.0
 17
0.0
 27
0.0
 37
0.0
 40
211.3136358793581
 41
1.899603698811096
 42
50.0
 43
0.0
 44
0.0
 50
0.0
 51
0.0
 71
     0
 72
   100
 73
     1
 74
     0
 75
     0
 76
     0
 77
     0
 78
     1
281
     0
 65
     1
110
0.0
120
0.0
130
0.0
111
1.0
121
0.0
131
0.0
112
0.0
122
1.0
132
0.0
 79
     0
146
0.0
1001
ACAD_NAV_VCDISPLAY
1070
     3
  0
ENDTAB
  0
TABLE
  2
LTYPE
  5
1C25E
330
0
100
AcDbSymbolTable
 70
     4
  0
LTYPE
  5
1C26C
330
1C25E
100
AcDbSymbolTableRecord
100
AcDbLinetypeTableRecord
  2
BYBLOCK
 70
     0
  3

 72
    65
 73
     0
 40
0.0
  0
LTYPE
  5
1C26D
330
1C25E
100
AcDbSymbolTableRecord
100
AcDbLinetypeTableRecord
  2
BYLAYER
 70
     0
  3

 72
    65
 73
     0
 40
0.0
  0
LTYPE
  5
1C26E
330
1C25E
100
AcDbSymbolTableRecord
100
AcDbLinetypeTableRecord
  2
CONTINUOUS
 70
     0
  3
Solid line
 72
    65
 73
     0
 40
0.0
  0
LTYPE
  5
1C27C
330
1C25E
100
AcDbSymbolTableRecord
100
AcDbLinetypeTableRecord
  2
DASHED
 70
     0
  3
__ __ __ __ __ __ __ __ __ __ __ __ __ __ __ __
 72
    65
 73
     2
 40
0.75
 49
0.5
 74
     0
 49
-0.25
 74
     0
  0
LTYPE
  5
1C27D
330
1C25E
100
AcDbSymbolTableRecord
100
AcDbLinetypeTableRecord
  2
CENTER
 70
     0
  3
____ _ ____ _ ____ _ ____ _ ____ _ ____ _ ____ 
 72
    65
 73
     4
 40
2.0
 49
1.25
 74
     0
 49
-0.25
 74
     0
 49
0.25
 74
     0
 49
-0.25
 74
     0
  0
LTYPE
  5
1C27E
330
1C25E
100
AcDbSymbolTableRecord
100
AcDbLinetypeTableRecord
  2
PHANTOM
 70
     0
  3
______  __  __  ______  __  __  ______  __  __ 
 72
    65
 73
     6
 40
2.5
 49
1.25
 74
     0
 49
-0.25
 74
     0
 49
0.25
 74
     0
 49
-0.25
 74
     0
 49
0.25
 74
     0
 49
-0.25
 74
     0
  0
ENDTAB
  0
TABLE
  2
LAYER
  5
1C25B
330
0
100
AcDbSymbolTable
 70
     8
  0
LAYER
  5
1C269
102
{ACAD_XDICTIONARY
360
1C4A1
102
}
330
1C25B
100
AcDbSymbolTableRecord
100
AcDbLayerTableRecord
  2
0
 70
     0
 62
     7
  6
CONTINUOUS
370
    -3
390
1C44F
  0
LAYER
  5
1C27F
102
{ACAD_XDICTIONARY
360
1C4A3
102
}
330
1C25B
100
AcDbSymbolTableRecord
100
AcDbLayerTableRecord
  2
4
 70
     0
 62
     1
  6
CENTER
370
    -3
390
1C44F
  0
LAYER
  5
1C280
102
{ACAD_XDICTIONARY
360
1C4A5
102
}
330
1C25B
100
AcDbSymbolTableRecord
100
AcDbLayerTableRecord
  2
5
 70
     0
 62
     6
  6
PHANTOM
370
    -3
390
1C44F
  0
LAYER
  5
1C281
102
{ACAD_XDICTIONARY
360
1C4A7
102
}
330
1C25B
100
AcDbSymbolTableRecord
100
AcDbLayerTableRecord
  2
1
 70
     0
 62
     7
  6
CONTINUOUS
370
    -3
390
1C44F
  0
LAYER
  5
1C282
102
{ACAD_XDICTIONARY
360
1C4A9
102
}
330
1C25B
100
AcDbSymbolTableRecord
100
AcDbLayerTableRecord
  2
2
 70
     0
 62
     4
  6
CONTINUOUS
370
    -3
390
1C44F
  0
LAYER
  5
1C283
102
{ACAD_XDICTIONARY
360
1C4AB
102
}
330
1C25B
100
AcDbSymbolTableRecord
100
AcDbLayerTableRecord
  2
3
 70
     0
 62
     2
  6
DASHED
370
    -3
390
1C44F
  0
LAYER
  5
1C284
102
{ACAD_XDICTIONARY
360
1C4AD
102
}
330
1C25B
100
AcDbSymbolTableRecord
100
AcDbLayerTableRecord
  2
6
 70
     0
 62
     5
  6
CONTINUOUS
370
    -3
390
1C44F
  0
LAYER
  5
1C285
102
{ACAD_XDICTIONARY
360
1C4AF
102
}
330
1C25B
100
AcDbSymbolTableRecord
100
AcDbLayerTableRecord
  2
7
 70
     0
 62
     3
  6
CONTINUOUS
370
    -3
390
1C44F
  0
ENDTAB
  0
TABLE
  2
STYLE
  5
1C25C
330
0
100
AcDbSymbolTable
 70
     1
  0
STYLE
  5
1C26A
330
1C25C
100
AcDbSymbolTableRecord
100
AcDbTextStyleTableRecord
  2
STANDARD
 70
     0
 40
0.0
 41
1.0
 50
0.0
 71
     0
 42
5.0
  3
txt
  4

  0
ENDTAB
  0
TABLE
  2
VIEW
  5
1C25F
330
0
100
AcDbSymbolTable
 70
     2
  0
VIEW
  5
1C286
330
1C25F
100
AcDbSymbolTableRecord
100
AcDbViewTableRecord
  2
7
 70
     0
 40
209.581633
 10
201.8851329999999
 20
104.790817
 41
403.7702649999998
 11
0.0
 21
0.0
 31
1.0
 12
0.0
 22
0.0
 32
0.0
 42
50.0
 43
0.0
 44
0.0
 50
0.0
 71
     0
281
     0
 72
     0
  0
VIEW
  5
1C287
330
1C25F
100
AcDbSymbolTableRecord
100
AcDbViewTableRecord
  2
1
 70
     0
 40
249.466496
 10
136.846708
 20
233.977284
 41
487.485198
 11
0.0
 21
0.0
 31
1.0
 12
0.0
 22
0.0
 32
0.0
 42
50.0
 43
0.0
 44
0.0
 50
0.0
 71
     0
281
     0
 72
     0
  0
ENDTAB
  0
TABLE
  2
UCS
  5
1C260
330
0
100
AcDbSymbolTable
 70
     0
  0
ENDTAB
  0
TABLE
  2
APPID
  5
1C262
330
0
100
AcDbSymbolTable
 70
     3
  0
APPID
  5
1C26B
330
1C262
100
AcDbSymbolTableRecord
100
AcDbRegAppTableRecord
  2
ACAD
 70
     0
  0
APPID
  5
1C4BB
330
1C262
100
AcDbSymbolTableRecord
100
AcDbRegAppTableRecord
  2
ACAD_NAV_VCDISPLAY
 70
     0
  0
APPID
  5
1C4F4
330
1C262
100
AcDbSymbolTableRecord
100
AcDbRegAppTableRecord
  2
ACAD_MLEADERVER
 70
     0
  0
ENDTAB
  0
TABLE
  2
DIMSTYLE
  5
1C263
330
0
100
AcDbSymbolTable
 70
     1
100
AcDbDimStyleTable
 71
     0
  0
DIMSTYLE
105
1C289
330
1C263
100
AcDbSymbolTableRecord
100
AcDbDimStyleTableRecord
  2
STANDARD
 70
     0
 41
3.0
 42
1.0
 43
10.0
 44
1.0
 73
     0
 74
     0
 77
     3
 78
     8
140
3.2
141
0.0
147
1.0
172
     1
173
     1
284
     8
285
     8
286
     8
340
1C26A
  0
ENDTAB
  0
TABLE
  2
BLOCK_RECORD
  5
1C25A
330
0
100
AcDbSymbolTable
 70
     0
  0
BLOCK_RECORD
  5
1C277
102
{ACAD_XDICTIONARY
360
1C449
102
}
330
1C25A
100
AcDbSymbolTableRecord
100
AcDbBlockTableRecord
  2
*MODEL_SPACE
340
1C49D
  0
BLOCK_RECORD
  5
1C273
102
{ACAD_XDICTIONARY
360
1C447
102
}
330
1C25A
100
AcDbSymbolTableRecord
100
AcDbBlockTableRecord
  2
*PAPER_SPACE
340
1C49E
  0
ENDTAB
  0
ENDSEC
  0
SECTION
  2
BLOCKS
  0
BLOCK
  5
1C278
330
1C277
100
AcDbEntity
  8
0
100
AcDbBlockBegin
  2
*MODEL_SPACE
 70
     0
 10
0.0
 20
0.0
 30
0.0
  3
*MODEL_SPACE
  1

  0
ENDBLK
  5
1C279
330
1C277
100
AcDbEntity
  8
0
100
AcDbBlockEnd
  0
BLOCK
  5
1C274
330
1C273
100
AcDbEntity
 67
     1
  8
0
100
AcDbBlockBegin
  2
*PAPER_SPACE
 70
     0
 10
0.0
 20
0.0
 30
0.0
  3
*PAPER_SPACE
  1

  0
ENDBLK
  5
1C275
330
1C273
100
AcDbEntity
 67
     1
  8
0
100
AcDbBlockEnd
  0
ENDSEC
  0
SECTION
  2
ENTITIES
  0
TEXT
  5
1C291
330
1C277
100
AcDbEntity
  8
6
  6
Continuous
100
AcDbText
 10
27.97945
 20
10.0487
 30
0.0
 40
1.399999999999999
  1
6
 41
1.069393
100
AcDbText
  0
TEXT
  5
1C292
330
1C277
100
AcDbEntity
  8
1
  6
Continuous
100
AcDbText
 10
17.97945
 20
10.0487
 30
0.0
 40
1.399999999999999
  1
1
 41
1.069393
100
AcDbText
  0
TEXT
  5
1C293
330
1C277
100
AcDbEntity
  8
1
  6
Continuous
100
AcDbText
 10
9.99995
 20
10.0
 30
0.0
 40
1.399999999999999
  1
LAYER
 41
1.009912999999997
100
AcDbText
  0
TEXT
  5
1C294
330
1C277
100
AcDbEntity
  8
2
  6
Continuous
100
AcDbText
 10
19.97944999999998
 20
10.0487
 30
0.0
 40
1.399999999999999
  1
2
 41
1.069393
100
AcDbText
  0
TEXT
  5
1C295
330
1C277
100
AcDbEntity
  8
3
  6
DASHED
100
AcDbText
 10
21.97945
 20
10.0487
 30
0.0
 40
1.399999999999999
  1
3
 41
1.069393
100
AcDbText
  0
TEXT
  5
1C296
330
1C277
100
AcDbEntity
  8
4
  6
CENTER
100
AcDbText
 10
23.97944999999999
 20
10.0487
 30
0.0
 40
1.399999999999999
  1
4
 41
1.069393
100
AcDbText
  0
TEXT
  5
1C297
330
1C277
100
AcDbEntity
  8
5
  6
PHANTOM
100
AcDbText
 10
25.97945
 20
10.0487
 30
0.0
 40
1.399999999999999
  1
5
 41
1.069393
100
AcDbText
  0
TEXT
  5
1C298
330
1C277
100
AcDbEntity
  8
7
  6
Continuous
100
AcDbText
 10
10.00005
 20
26.0
 30
0.0
 40
3.0
  1
CODE No.5449
 41
1.003962999999999
100
AcDbText
  0
TEXT
  5
1C299
330
1C277
100
AcDbEntity
  8
7
  6
Continuous
100
AcDbText
 10
10.00005
 20
18.0
 30
0.0
 40
3.0
  1
TYPE No.TM-104SUS-11
 41
1.002350999999998
100
AcDbText
  0
TEXT
  5
1C29A
330
1C277
100
AcDbEntity
  8
7
  6
Continuous
100
AcDbText
 10
29.97944999999999
 20
10.0487
 30
0.0
 40
1.399999999999999
  1
7
 41
1.069393
100
AcDbText
  0
ARC
  5
1C29B
330
1C277
100
AcDbEntity
  8
1
  6
Continuous
100
AcDbCircle
 10
298.15
 20
46.55
 30
0.0
 40
5.549999999999998
100
AcDbArc
 50
245.99541
 51
114.00459
  0
ARC
  5
1C29C
330
1C277
100
AcDbEntity
  8
1
  6
Continuous
100
AcDbCircle
 10
286.6
 20
46.55
 30
0.0
 40
1.5
100
AcDbArc
 50
90.0
 51
270.0
  0
ARC
  5
1C29D
330
1C277
100
AcDbEntity
  8
1
  6
Continuous
100
AcDbCircle
 10
298.15
 20
46.55
 30
0.0
 40
2.549999999999998
100
AcDbArc
 50
245.99541
 51
114.00459
  0
ARC
  5
1C29E
330
1C277
100
AcDbEntity
  8
1
  6
Continuous
100
AcDbCircle
 10
286.6
 20
54.05
 30
0.0
 40
9.0
100
AcDbArc
 50
270.0
 51
294.00459
  0
ARC
  5
1C29F
330
1C277
100
AcDbEntity
  8
1
  6
Continuous
100
AcDbCircle
 10
286.6
 20
54.05
 30
0.0
 40
6.0
100
AcDbArc
 50
270.0
 51
294.00459
  0
LINE
  5
1C2A0
330
1C277
100
AcDbEntity
  8
1
  6
Continuous
100
AcDbLine
 10
297.112635
 20
48.879458
 30
0.0
 11
290.2612879999999
 21
45.82838399999999
 31
0.0
  0
LINE
  5
1C2A1
330
1C277
100
AcDbEntity
  8
1
  6
Continuous
100
AcDbLine
 10
295.8922049999998
 20
51.619996
 30
0.0
 11
289.040859
 21
48.568923
 31
0.0
  0
LINE
  5
1C2A2
330
1C277
100
AcDbEntity
  8
1
  6
Continuous
100
AcDbLine
 10
295.8922049999998
 20
41.48000399999999
 30
0.0
 11
290.4325989999999
 21
43.911301
 31
0.0
  0
LINE
  5
1C2A3
330
1C277
100
AcDbEntity
  8
1
  6
Continuous
100
AcDbLine
 10
297.112635
 20
44.220542
 30
0.0
 11
291.8817149999998
 21
46.55
 31
0.0
  0
ARC
  5
1C2A4
330
1C277
100
AcDbEntity
  8
1
  6
Continuous
100
AcDbCircle
 10
286.6
 20
39.04999999999999
 30
0.0
 40
6.0
100
AcDbArc
 50
80.84756099999998
 51
90.0
  0
ARC
  5
1C2A5
330
1C277
100
AcDbEntity
  8
1
  6
Continuous
100
AcDbCircle
 10
285.55
 20
46.55
 30
0.0
 40
5.549999999999998
100
AcDbArc
 50
245.99541
 51
356.3520299999999
  0
LINE
  5
1C2A6
330
1C277
100
AcDbEntity
  8
1
  6
Continuous
100
AcDbLine
 10
283.2922049999999
 20
41.48000399999999
 30
0.0
 11
277.832599
 21
43.911301
 31
0.0
  0
ARC
  5
1C2A7
330
1C277
100
AcDbEntity
  8
1
  6
Continuous
100
AcDbCircle
 10
274.0
 20
54.05
 30
0.0
 40
9.0
100
AcDbArc
 50
270.0
 51
294.00459
  0
LINE
  5
1C2A8
330
1C277
100
AcDbEntity
  8
1
  6
Continuous
100
AcDbLine
 10
283.2922049999999
 20
51.619996
 30
0.0
 11
276.4408589999998
 21
48.568923
 31
0.0
  0
ARC
  5
1C2A9
330
1C277
100
AcDbEntity
  8
1
  6
Continuous
100
AcDbCircle
 10
274.0
 20
46.55
 30
0.0
 40
1.5
100
AcDbArc
 50
90.0
 51
270.0
  0
ARC
  5
1C2AA
330
1C277
100
AcDbEntity
  8
1
  6
Continuous
100
AcDbCircle
 10
274.0
 20
39.04999999999999
 30
0.0
 40
6.0
100
AcDbArc
 50
80.84756099999998
 51
90.0
  0
ARC
  5
1C2AB
330
1C277
100
AcDbEntity
  8
1
  6
Continuous
100
AcDbCircle
 10
274.0
 20
54.05
 30
0.0
 40
6.0
100
AcDbArc
 50
270.0
 51
294.00459
  0
LINE
  5
1C2AC
330
1C277
100
AcDbEntity
  8
1
  6
Continuous
100
AcDbLine
 10
284.512635
 20
44.220542
 30
0.0
 11
279.2817149999998
 21
46.55
 31
0.0
  0
ARC
  5
1C2AD
330
1C277
100
AcDbEntity
  8
1
  6
Continuous
100
AcDbCircle
 10
285.55
 20
46.55
 30
0.0
 40
2.549999999999998
100
AcDbArc
 50
245.99541
 51
325.6770149999999
  0
LINE
  5
1C2AE
330
1C277
100
AcDbEntity
  8
1
  6
Continuous
100
AcDbLine
 10
284.512635
 20
48.879458
 30
0.0
 11
277.661288
 21
45.82838399999999
 31
0.0
  0
ARC
  5
1C2AF
330
1C277
100
AcDbEntity
  8
1
  6
Continuous
100
AcDbCircle
 10
285.55
 20
46.55
 30
0.0
 40
5.549999999999998
100
AcDbArc
 50
28.38808199999999
 51
114.00459
  0
ARC
  5
1C2B0
330
1C277
100
AcDbEntity
  8
1
  6
Continuous
100
AcDbCircle
 10
285.55
 20
46.55
 30
0.0
 40
2.549999999999998
100
AcDbArc
 50
38.18418299999999
 51
114.00459
  0
ARC
  5
1C2B1
330
1C277
100
AcDbEntity
  8
1
  6
Continuous
100
AcDbCircle
 10
272.9499999999998
 20
46.55
 30
0.0
 40
5.549999999999998
100
AcDbArc
 50
28.38808199999999
 51
114.00459
  0
LINE
  5
1C2B2
330
1C277
100
AcDbEntity
  8
1
  6
Continuous
100
AcDbLine
 10
270.692205
 20
41.48000399999999
 30
0.0
 11
265.232599
 21
43.911301
 31
0.0
  0
LINE
  5
1C2B3
330
1C277
100
AcDbEntity
  8
1
  6
Continuous
100
AcDbLine
 10
270.692205
 20
51.619996
 30
0.0
 11
263.8408589999999
 21
48.568923
 31
0.0
  0
LINE
  5
1C2B4
330
1C277
100
AcDbEntity
  8
1
  6
Continuous
100
AcDbLine
 10
271.912635
 20
48.879458
 30
0.0
 11
265.061288
 21
45.82838399999999
 31
0.0
  0
ARC
  5
1C2B5
330
1C277
100
AcDbEntity
  8
1
  6
Continuous
100
AcDbCircle
 10
261.3999999999999
 20
46.55
 30
0.0
 40
1.5
100
AcDbArc
 50
90.0
 51
270.0
  0
ARC
  5
1C2B6
330
1C277
100
AcDbEntity
  8
1
  6
Continuous
100
AcDbCircle
 10
261.3999999999999
 20
54.05
 30
0.0
 40
9.0
100
AcDbArc
 50
270.0
 51
294.00459
  0
ARC
  5
1C2B7
330
1C277
100
AcDbEntity
  8
1
  6
Continuous
100
AcDbCircle
 10
261.3999999999999
 20
39.04999999999999
 30
0.0
 40
6.0
100
AcDbArc
 50
80.84756099999998
 51
90.0
  0
ARC
  5
1C2B8
330
1C277
100
AcDbEntity
  8
1
  6
Continuous
100
AcDbCircle
 10
261.3999999999999
 20
54.05
 30
0.0
 40
6.0
100
AcDbArc
 50
270.0
 51
294.00459
  0
ARC
  5
1C2B9
330
1C277
100
AcDbEntity
  8
1
  6
Continuous
100
AcDbCircle
 10
272.9499999999998
 20
46.55
 30
0.0
 40
2.549999999999998
100
AcDbArc
 50
38.18418299999999
 51
114.00459
  0
ARC
  5
1C2BA
330
1C277
100
AcDbEntity
  8
1
  6
Continuous
100
AcDbCircle
 10
272.9499999999998
 20
46.55
 30
0.0
 40
2.549999999999998
100
AcDbArc
 50
245.99541
 51
325.6770149999999
  0
ARC
  5
1C2BB
330
1C277
100
AcDbEntity
  8
1
  6
Continuous
100
AcDbCircle
 10
272.9499999999998
 20
46.55
 30
0.0
 40
5.549999999999998
100
AcDbArc
 50
245.99541
 51
356.3520299999999
  0
LINE
  5
1C2BC
330
1C277
100
AcDbEntity
  8
1
  6
Continuous
100
AcDbLine
 10
271.912635
 20
44.220542
 30
0.0
 11
266.6817149999999
 21
46.55
 31
0.0
  0
ARC
  5
1C2BD
330
1C277
100
AcDbEntity
  8
1
  6
Continuous
100
AcDbCircle
 10
260.35
 20
46.55
 30
0.0
 40
5.549999999999998
100
AcDbArc
 50
28.38808199999999
 51
114.00459
  0
LINE
  5
1C2BE
330
1C277
100
AcDbEntity
  8
1
  6
Continuous
100
AcDbLine
 10
258.0922049999999
 20
41.48000399999999
 30
0.0
 11
252.632599
 21
43.911301
 31
0.0
  0
LINE
  5
1C2BF
330
1C277
100
AcDbEntity
  8
1
  6
Continuous
100
AcDbLine
 10
258.0922049999999
 20
51.619996
 30
0.0
 11
251.2408589999998
 21
48.568923
 31
0.0
  0
LINE
  5
1C2C0
330
1C277
100
AcDbEntity
  8
1
  6
Continuous
100
AcDbLine
 10
259.3126349999999
 20
48.879458
 30
0.0
 11
252.4612879999998
 21
45.82838399999999
 31
0.0
  0
ARC
  5
1C2C1
330
1C277
100
AcDbEntity
  8
1
  6
Continuous
100
AcDbCircle
 10
248.7999999999999
 20
46.55
 30
0.0
 40
1.5
100
AcDbArc
 50
90.0
 51
270.0
  0
ARC
  5
1C2C2
330
1C277
100
AcDbEntity
  8
1
  6
Continuous
100
AcDbCircle
 10
248.7999999999999
 20
54.05
 30
0.0
 40
9.0
100
AcDbArc
 50
270.0
 51
294.00459
  0
ARC
  5
1C2C3
330
1C277
100
AcDbEntity
  8
1
  6
Continuous
100
AcDbCircle
 10
248.7999999999999
 20
39.04999999999999
 30
0.0
 40
6.0
100
AcDbArc
 50
80.84756099999998
 51
90.0
  0
ARC
  5
1C2C4
330
1C277
100
AcDbEntity
  8
1
  6
Continuous
100
AcDbCircle
 10
248.7999999999999
 20
54.05
 30
0.0
 40
6.0
100
AcDbArc
 50
270.0
 51
294.00459
  0
ARC
  5
1C2C5
330
1C277
100
AcDbEntity
  8
1
  6
Continuous
100
AcDbCircle
 10
260.35
 20
46.55
 30
0.0
 40
2.549999999999998
100
AcDbArc
 50
38.18418299999999
 51
114.00459
  0
ARC
  5
1C2C6
330
1C277
100
AcDbEntity
  8
1
  6
Continuous
100
AcDbCircle
 10
260.35
 20
46.55
 30
0.0
 40
2.549999999999998
100
AcDbArc
 50
245.99541
 51
325.6770149999999
  0
ARC
  5
1C2C7
330
1C277
100
AcDbEntity
  8
1
  6
Continuous
100
AcDbCircle
 10
260.35
 20
46.55
 30
0.0
 40
5.549999999999998
100
AcDbArc
 50
245.99541
 51
356.3520299999999
  0
LINE
  5
1C2C8
330
1C277
100
AcDbEntity
  8
1
  6
Continuous
100
AcDbLine
 10
259.3126349999999
 20
44.220542
 30
0.0
 11
254.081715
 21
46.55
 31
0.0
  0
ARC
  5
1C2C9
330
1C277
100
AcDbEntity
  8
1
  6
Continuous
100
AcDbCircle
 10
247.75
 20
46.55
 30
0.0
 40
5.549999999999998
100
AcDbArc
 50
28.38808199999999
 51
114.00459
  0
LINE
  5
1C2CA
330
1C277
100
AcDbEntity
  8
1
  6
Continuous
100
AcDbLine
 10
245.4922049999999
 20
41.48000399999999
 30
0.0
 11
240.032599
 21
43.911301
 31
0.0
  0
LINE
  5
1C2CB
330
1C277
100
AcDbEntity
  8
1
  6
Continuous
100
AcDbLine
 10
245.4922049999999
 20
51.619996
 30
0.0
 11
238.6408589999998
 21
48.568923
 31
0.0
  0
LINE
  5
1C2CC
330
1C277
100
AcDbEntity
  8
1
  6
Continuous
100
AcDbLine
 10
246.712635
 20
48.879458
 30
0.0
 11
239.8612879999999
 21
45.82838399999999
 31
0.0
  0
ARC
  5
1C2CD
330
1C277
100
AcDbEntity
  8
1
  6
Continuous
100
AcDbCircle
 10
236.2
 20
46.55
 30
0.0
 40
1.5
100
AcDbArc
 50
90.0
 51
270.0
  0
ARC
  5
1C2CE
330
1C277
100
AcDbEntity
  8
1
  6
Continuous
100
AcDbCircle
 10
236.2
 20
54.05
 30
0.0
 40
9.0
100
AcDbArc
 50
270.0
 51
294.00459
  0
ARC
  5
1C2CF
330
1C277
100
AcDbEntity
  8
1
  6
Continuous
100
AcDbCircle
 10
236.2
 20
39.04999999999999
 30
0.0
 40
6.0
100
AcDbArc
 50
80.84756099999998
 51
90.0
  0
ARC
  5
1C2D0
330
1C277
100
AcDbEntity
  8
1
  6
Continuous
100
AcDbCircle
 10
236.2
 20
54.05
 30
0.0
 40
6.0
100
AcDbArc
 50
270.0
 51
294.00459
  0
ARC
  5
1C2D1
330
1C277
100
AcDbEntity
  8
1
  6
Continuous
100
AcDbCircle
 10
247.75
 20
46.55
 30
0.0
 40
2.549999999999998
100
AcDbArc
 50
38.18418299999999
 51
114.00459
  0
ARC
  5
1C2D2
330
1C277
100
AcDbEntity
  8
1
  6
Continuous
100
AcDbCircle
 10
247.75
 20
46.55
 30
0.0
 40
2.549999999999998
100
AcDbArc
 50
245.99541
 51
325.6770149999999
  0
ARC
  5
1C2D3
330
1C277
100
AcDbEntity
  8
1
  6
Continuous
100
AcDbCircle
 10
247.75
 20
46.55
 30
0.0
 40
5.549999999999998
100
AcDbArc
 50
245.99541
 51
356.3520299999999
  0
LINE
  5
1C2D4
330
1C277
100
AcDbEntity
  8
1
  6
Continuous
100
AcDbLine
 10
246.712635
 20
44.220542
 30
0.0
 11
241.4817149999998
 21
46.55
 31
0.0
  0
ARC
  5
1C2D5
330
1C277
100
AcDbEntity
  8
1
  6
Continuous
100
AcDbCircle
 10
235.15
 20
46.55
 30
0.0
 40
5.549999999999998
100
AcDbArc
 50
28.38808199999999
 51
114.00459
  0
LINE
  5
1C2D6
330
1C277
100
AcDbEntity
  8
1
  6
Continuous
100
AcDbLine
 10
232.892205
 20
41.48000399999999
 30
0.0
 11
227.432599
 21
43.911301
 31
0.0
  0
LINE
  5
1C2D7
330
1C277
100
AcDbEntity
  8
1
  6
Continuous
100
AcDbLine
 10
232.892205
 20
51.619996
 30
0.0
 11
226.0408589999999
 21
48.568923
 31
0.0
  0
LINE
  5
1C2D8
330
1C277
100
AcDbEntity
  8
1
  6
Continuous
100
AcDbLine
 10
234.112635
 20
48.879458
 30
0.0
 11
227.261288
 21
45.82838399999999
 31
0.0
  0
ARC
  5
1C2D9
330
1C277
100
AcDbEntity
  8
1
  6
Continuous
100
AcDbCircle
 10
223.6
 20
46.55
 30
0.0
 40
1.5
100
AcDbArc
 50
90.0
 51
270.0
  0
ARC
  5
1C2DA
330
1C277
100
AcDbEntity
  8
1
  6
Continuous
100
AcDbCircle
 10
223.6
 20
54.05
 30
0.0
 40
9.0
100
AcDbArc
 50
270.0
 51
294.00459
  0
ARC
  5
1C2DB
330
1C277
100
AcDbEntity
  8
1
  6
Continuous
100
AcDbCircle
 10
223.6
 20
39.04999999999999
 30
0.0
 40
6.0
100
AcDbArc
 50
80.84756099999998
 51
90.0
  0
ARC
  5
1C2DC
330
1C277
100
AcDbEntity
  8
1
  6
Continuous
100
AcDbCircle
 10
223.6
 20
54.05
 30
0.0
 40
6.0
100
AcDbArc
 50
270.0
 51
294.00459
  0
ARC
  5
1C2DD
330
1C277
100
AcDbEntity
  8
1
  6
Continuous
100
AcDbCircle
 10
235.15
 20
46.55
 30
0.0
 40
2.549999999999998
100
AcDbArc
 50
38.18418299999999
 51
114.00459
  0
ARC
  5
1C2DE
330
1C277
100
AcDbEntity
  8
1
  6
Continuous
100
AcDbCircle
 10
235.15
 20
46.55
 30
0.0
 40
2.549999999999998
100
AcDbArc
 50
245.99541
 51
325.6770149999999
  0
ARC
  5
1C2DF
330
1C277
100
AcDbEntity
  8
1
  6
Continuous
100
AcDbCircle
 10
235.15
 20
46.55
 30
0.0
 40
5.549999999999998
100
AcDbArc
 50
245.99541
 51
356.3520299999999
  0
LINE
  5
1C2E0
330
1C277
100
AcDbEntity
  8
1
  6
Continuous
100
AcDbLine
 10
234.112635
 20
44.220542
 30
0.0
 11
228.8817149999999
 21
46.55
 31
0.0
  0
ARC
  5
1C2E1
330
1C277
100
AcDbEntity
  8
1
  6
Continuous
100
AcDbCircle
 10
222.55
 20
46.55
 30
0.0
 40
5.549999999999998
100
AcDbArc
 50
28.38808199999999
 51
114.00459
  0
LINE
  5
1C2E2
330
1C277
100
AcDbEntity
  8
1
  6
Continuous
100
AcDbLine
 10
220.2922049999999
 20
41.48000399999999
 30
0.0
 11
214.832599
 21
43.911301
 31
0.0
  0
LINE
  5
1C2E3
330
1C277
100
AcDbEntity
  8
1
  6
Continuous
100
AcDbLine
 10
220.2922049999999
 20
51.619996
 30
0.0
 11
213.440859
 21
48.568923
 31
0.0
  0
LINE
  5
1C2E4
330
1C277
100
AcDbEntity
  8
1
  6
Continuous
100
AcDbLine
 10
221.5126349999999
 20
48.879458
 30
0.0
 11
214.6612879999999
 21
45.82838399999999
 31
0.0
  0
ARC
  5
1C2E5
330
1C277
100
AcDbEntity
  8
1
  6
Continuous
100
AcDbCircle
 10
211.0
 20
46.55
 30
0.0
 40
1.5
100
AcDbArc
 50
90.0
 51
270.0
  0
ARC
  5
1C2E6
330
1C277
100
AcDbEntity
  8
1
  6
Continuous
100
AcDbCircle
 10
211.0
 20
54.05
 30
0.0
 40
9.0
100
AcDbArc
 50
270.0
 51
294.00459
  0
ARC
  5
1C2E7
330
1C277
100
AcDbEntity
  8
1
  6
Continuous
100
AcDbCircle
 10
211.0
 20
39.04999999999999
 30
0.0
 40
6.0
100
AcDbArc
 50
80.84756099999998
 51
90.0
  0
ARC
  5
1C2E8
330
1C277
100
AcDbEntity
  8
1
  6
Continuous
100
AcDbCircle
 10
211.0
 20
54.05
 30
0.0
 40
6.0
100
AcDbArc
 50
270.0
 51
294.00459
  0
ARC
  5
1C2E9
330
1C277
100
AcDbEntity
  8
1
  6
Continuous
100
AcDbCircle
 10
222.55
 20
46.55
 30
0.0
 40
2.549999999999998
100
AcDbArc
 50
38.18418299999999
 51
114.00459
  0
ARC
  5
1C2EA
330
1C277
100
AcDbEntity
  8
1
  6
Continuous
100
AcDbCircle
 10
222.55
 20
46.55
 30
0.0
 40
2.549999999999998
100
AcDbArc
 50
245.99541
 51
325.6770149999999
  0
ARC
  5
1C2EB
330
1C277
100
AcDbEntity
  8
1
  6
Continuous
100
AcDbCircle
 10
222.55
 20
46.55
 30
0.0
 40
5.549999999999998
100
AcDbArc
 50
245.99541
 51
356.3520299999999
  0
LINE
  5
1C2EC
330
1C277
100
AcDbEntity
  8
1
  6
Continuous
100
AcDbLine
 10
221.5126349999999
 20
44.220542
 30
0.0
 11
216.2817149999999
 21
46.55
 31
0.0
  0
ARC
  5
1C2ED
330
1C277
100
AcDbEntity
  8
1
  6
Continuous
100
AcDbCircle
 10
209.9499999999999
 20
46.55
 30
0.0
 40
5.549999999999998
100
AcDbArc
 50
28.38808199999999
 51
114.00459
  0
LINE
  5
1C2EE
330
1C277
100
AcDbEntity
  8
1
  6
Continuous
100
AcDbLine
 10
207.6922049999998
 20
41.48000399999999
 30
0.0
 11
202.232599
 21
43.911301
 31
0.0
  0
LINE
  5
1C2EF
330
1C277
100
AcDbEntity
  8
1
  6
Continuous
100
AcDbLine
 10
207.6922049999998
 20
51.619996
 30
0.0
 11
200.840859
 21
48.568923
 31
0.0
  0
LINE
  5
1C2F0
330
1C277
100
AcDbEntity
  8
1
  6
Continuous
100
AcDbLine
 10
208.9126349999999
 20
48.879458
 30
0.0
 11
202.0612879999999
 21
45.82838399999999
 31
0.0
  0
ARC
  5
1C2F1
330
1C277
100
AcDbEntity
  8
1
  6
Continuous
100
AcDbCircle
 10
198.4
 20
46.55
 30
0.0
 40
1.5
100
AcDbArc
 50
90.0
 51
270.0
  0
ARC
  5
1C2F2
330
1C277
100
AcDbEntity
  8
1
  6
Continuous
100
AcDbCircle
 10
198.4
 20
54.05
 30
0.0
 40
9.0
100
AcDbArc
 50
270.0
 51
294.00459
  0
ARC
  5
1C2F3
330
1C277
100
AcDbEntity
  8
1
  6
Continuous
100
AcDbCircle
 10
198.4
 20
39.04999999999999
 30
0.0
 40
6.0
100
AcDbArc
 50
80.84756099999998
 51
90.0
  0
ARC
  5
1C2F4
330
1C277
100
AcDbEntity
  8
1
  6
Continuous
100
AcDbCircle
 10
198.4
 20
54.05
 30
0.0
 40
6.0
100
AcDbArc
 50
270.0
 51
294.00459
  0
ARC
  5
1C2F5
330
1C277
100
AcDbEntity
  8
1
  6
Continuous
100
AcDbCircle
 10
209.9499999999999
 20
46.55
 30
0.0
 40
2.549999999999998
100
AcDbArc
 50
38.18418299999999
 51
114.00459
  0
ARC
  5
1C2F6
330
1C277
100
AcDbEntity
  8
1
  6
Continuous
100
AcDbCircle
 10
209.9499999999999
 20
46.55
 30
0.0
 40
2.549999999999998
100
AcDbArc
 50
245.99541
 51
325.6770149999999
  0
ARC
  5
1C2F7
330
1C277
100
AcDbEntity
  8
1
  6
Continuous
100
AcDbCircle
 10
209.9499999999999
 20
46.55
 30
0.0
 40
5.549999999999998
100
AcDbArc
 50
245.99541
 51
356.3520299999999
  0
LINE
  5
1C2F8
330
1C277
100
AcDbEntity
  8
1
  6
Continuous
100
AcDbLine
 10
208.9126349999999
 20
44.220542
 30
0.0
 11
203.681715
 21
46.55
 31
0.0
  0
ARC
  5
1C2F9
330
1C277
100
AcDbEntity
  8
1
  6
Continuous
100
AcDbCircle
 10
197.3499999999999
 20
46.55
 30
0.0
 40
5.549999999999998
100
AcDbArc
 50
28.38808199999999
 51
114.00459
  0
LINE
  5
1C2FA
330
1C277
100
AcDbEntity
  8
1
  6
Continuous
100
AcDbLine
 10
195.092205
 20
41.48000399999999
 30
0.0
 11
189.632599
 21
43.911301
 31
0.0
  0
LINE
  5
1C2FB
330
1C277
100
AcDbEntity
  8
1
  6
Continuous
100
AcDbLine
 10
195.092205
 20
51.619996
 30
0.0
 11
188.240859
 21
48.568923
 31
0.0
  0
LINE
  5
1C2FC
330
1C277
100
AcDbEntity
  8
1
  6
Continuous
100
AcDbLine
 10
196.3126349999998
 20
48.879458
 30
0.0
 11
189.461288
 21
45.82838399999999
 31
0.0
  0
ARC
  5
1C2FD
330
1C277
100
AcDbEntity
  8
1
  6
Continuous
100
AcDbCircle
 10
185.8
 20
46.55
 30
0.0
 40
1.5
100
AcDbArc
 50
90.0
 51
270.0
  0
ARC
  5
1C2FE
330
1C277
100
AcDbEntity
  8
1
  6
Continuous
100
AcDbCircle
 10
185.8
 20
54.05
 30
0.0
 40
9.0
100
AcDbArc
 50
270.0
 51
294.00459
  0
ARC
  5
1C2FF
330
1C277
100
AcDbEntity
  8
1
  6
Continuous
100
AcDbCircle
 10
185.8
 20
39.04999999999999
 30
0.0
 40
6.0
100
AcDbArc
 50
80.84756099999998
 51
90.0
  0
ARC
  5
1C300
330
1C277
100
AcDbEntity
  8
1
  6
Continuous
100
AcDbCircle
 10
185.8
 20
54.05
 30
0.0
 40
6.0
100
AcDbArc
 50
270.0
 51
294.00459
  0
ARC
  5
1C301
330
1C277
100
AcDbEntity
  8
1
  6
Continuous
100
AcDbCircle
 10
197.3499999999999
 20
46.55
 30
0.0
 40
2.549999999999998
100
AcDbArc
 50
38.18418299999999
 51
114.00459
  0
ARC
  5
1C302
330
1C277
100
AcDbEntity
  8
1
  6
Continuous
100
AcDbCircle
 10
197.3499999999999
 20
46.55
 30
0.0
 40
2.549999999999998
100
AcDbArc
 50
245.99541
 51
325.6770149999999
  0
ARC
  5
1C303
330
1C277
100
AcDbEntity
  8
1
  6
Continuous
100
AcDbCircle
 10
197.3499999999999
 20
46.55
 30
0.0
 40
5.549999999999998
100
AcDbArc
 50
245.99541
 51
356.3520299999999
  0
LINE
  5
1C304
330
1C277
100
AcDbEntity
  8
1
  6
Continuous
100
AcDbLine
 10
196.3126349999998
 20
44.220542
 30
0.0
 11
191.0817149999998
 21
46.55
 31
0.0
  0
ARC
  5
1C305
330
1C277
100
AcDbEntity
  8
1
  6
Continuous
100
AcDbCircle
 10
184.75
 20
46.55
 30
0.0
 40
5.549999999999998
100
AcDbArc
 50
28.38808199999999
 51
114.00459
  0
LINE
  5
1C306
330
1C277
100
AcDbEntity
  8
1
  6
Continuous
100
AcDbLine
 10
182.4922049999999
 20
41.48000399999999
 30
0.0
 11
177.032599
 21
43.911301
 31
0.0
  0
LINE
  5
1C307
330
1C277
100
AcDbEntity
  8
1
  6
Continuous
100
AcDbLine
 10
182.4922049999999
 20
51.619996
 30
0.0
 11
175.640859
 21
48.568923
 31
0.0
  0
LINE
  5
1C308
330
1C277
100
AcDbEntity
  8
1
  6
Continuous
100
AcDbLine
 10
183.712635
 20
48.879458
 30
0.0
 11
176.861288
 21
45.82838399999999
 31
0.0
  0
ARC
  5
1C309
330
1C277
100
AcDbEntity
  8
1
  6
Continuous
100
AcDbCircle
 10
173.2
 20
46.55
 30
0.0
 40
1.5
100
AcDbArc
 50
90.0
 51
270.0
  0
ARC
  5
1C30A
330
1C277
100
AcDbEntity
  8
1
  6
Continuous
100
AcDbCircle
 10
173.2
 20
54.05
 30
0.0
 40
9.0
100
AcDbArc
 50
270.0
 51
294.00459
  0
ARC
  5
1C30B
330
1C277
100
AcDbEntity
  8
1
  6
Continuous
100
AcDbCircle
 10
173.2
 20
39.04999999999999
 30
0.0
 40
6.0
100
AcDbArc
 50
80.84756099999998
 51
90.0
  0
ARC
  5
1C30C
330
1C277
100
AcDbEntity
  8
1
  6
Continuous
100
AcDbCircle
 10
173.2
 20
54.05
 30
0.0
 40
6.0
100
AcDbArc
 50
270.0
 51
294.00459
  0
ARC
  5
1C30D
330
1C277
100
AcDbEntity
  8
1
  6
Continuous
100
AcDbCircle
 10
184.75
 20
46.55
 30
0.0
 40
2.549999999999998
100
AcDbArc
 50
38.18418299999999
 51
114.00459
  0
ARC
  5
1C30E
330
1C277
100
AcDbEntity
  8
1
  6
Continuous
100
AcDbCircle
 10
184.75
 20
46.55
 30
0.0
 40
2.549999999999998
100
AcDbArc
 50
245.99541
 51
325.6770149999999
  0
ARC
  5
1C30F
330
1C277
100
AcDbEntity
  8
1
  6
Continuous
100
AcDbCircle
 10
184.75
 20
46.55
 30
0.0
 40
5.549999999999998
100
AcDbArc
 50
245.99541
 51
356.3520299999999
  0
LINE
  5
1C310
330
1C277
100
AcDbEntity
  8
1
  6
Continuous
100
AcDbLine
 10
183.712635
 20
44.220542
 30
0.0
 11
178.4817149999998
 21
46.55
 31
0.0
  0
ARC
  5
1C311
330
1C277
100
AcDbEntity
  8
1
  6
Continuous
100
AcDbCircle
 10
172.1499999999998
 20
46.55
 30
0.0
 40
5.549999999999998
100
AcDbArc
 50
28.38808199999999
 51
114.00459
  0
LINE
  5
1C312
330
1C277
100
AcDbEntity
  8
1
  6
Continuous
100
AcDbLine
 10
169.892205
 20
41.48000399999999
 30
0.0
 11
164.432599
 21
43.911301
 31
0.0
  0
LINE
  5
1C313
330
1C277
100
AcDbEntity
  8
1
  6
Continuous
100
AcDbLine
 10
169.892205
 20
51.619996
 30
0.0
 11
163.040859
 21
48.568923
 31
0.0
  0
LINE
  5
1C314
330
1C277
100
AcDbEntity
  8
1
  6
Continuous
100
AcDbLine
 10
171.112635
 20
48.879458
 30
0.0
 11
164.2612879999998
 21
45.82838399999999
 31
0.0
  0
ARC
  5
1C315
330
1C277
100
AcDbEntity
  8
1
  6
Continuous
100
AcDbCircle
 10
160.5999999999999
 20
46.55
 30
0.0
 40
1.5
100
AcDbArc
 50
90.0
 51
270.0
  0
ARC
  5
1C316
330
1C277
100
AcDbEntity
  8
1
  6
Continuous
100
AcDbCircle
 10
160.5999999999999
 20
54.05
 30
0.0
 40
9.0
100
AcDbArc
 50
270.0
 51
294.00459
  0
ARC
  5
1C317
330
1C277
100
AcDbEntity
  8
1
  6
Continuous
100
AcDbCircle
 10
160.5999999999999
 20
39.04999999999999
 30
0.0
 40
6.0
100
AcDbArc
 50
80.84756099999998
 51
90.0
  0
ARC
  5
1C318
330
1C277
100
AcDbEntity
  8
1
  6
Continuous
100
AcDbCircle
 10
160.5999999999999
 20
54.05
 30
0.0
 40
6.0
100
AcDbArc
 50
270.0
 51
294.00459
  0
ARC
  5
1C319
330
1C277
100
AcDbEntity
  8
1
  6
Continuous
100
AcDbCircle
 10
172.1499999999998
 20
46.55
 30
0.0
 40
2.549999999999998
100
AcDbArc
 50
38.18418299999999
 51
114.00459
  0
ARC
  5
1C31A
330
1C277
100
AcDbEntity
  8
1
  6
Continuous
100
AcDbCircle
 10
172.1499999999998
 20
46.55
 30
0.0
 40
2.549999999999998
100
AcDbArc
 50
245.99541
 51
325.6770149999999
  0
ARC
  5
1C31B
330
1C277
100
AcDbEntity
  8
1
  6
Continuous
100
AcDbCircle
 10
172.1499999999998
 20
46.55
 30
0.0
 40
5.549999999999998
100
AcDbArc
 50
245.99541
 51
356.3520299999999
  0
LINE
  5
1C31C
330
1C277
100
AcDbEntity
  8
1
  6
Continuous
100
AcDbLine
 10
171.112635
 20
44.220542
 30
0.0
 11
165.8817149999999
 21
46.55
 31
0.0
  0
ARC
  5
1C31D
330
1C277
100
AcDbEntity
  8
1
  6
Continuous
100
AcDbCircle
 10
159.55
 20
46.55
 30
0.0
 40
5.549999999999998
100
AcDbArc
 50
28.38808199999999
 51
114.00459
  0
LINE
  5
1C31E
330
1C277
100
AcDbEntity
  8
1
  6
Continuous
100
AcDbLine
 10
157.292205
 20
41.48000399999999
 30
0.0
 11
151.8325989999999
 21
43.911301
 31
0.0
  0
LINE
  5
1C31F
330
1C277
100
AcDbEntity
  8
1
  6
Continuous
100
AcDbLine
 10
157.292205
 20
51.619996
 30
0.0
 11
150.4408589999999
 21
48.568923
 31
0.0
  0
LINE
  5
1C320
330
1C277
100
AcDbEntity
  8
1
  6
Continuous
100
AcDbLine
 10
158.5126349999999
 20
48.879458
 30
0.0
 11
151.6612879999998
 21
45.82838399999999
 31
0.0
  0
ARC
  5
1C321
330
1C277
100
AcDbEntity
  8
1
  6
Continuous
100
AcDbCircle
 10
148.0
 20
46.55
 30
0.0
 40
1.5
100
AcDbArc
 50
90.0
 51
270.0
  0
ARC
  5
1C322
330
1C277
100
AcDbEntity
  8
1
  6
Continuous
100
AcDbCircle
 10
148.0
 20
54.05
 30
0.0
 40
9.0
100
AcDbArc
 50
270.0
 51
294.00459
  0
ARC
  5
1C323
330
1C277
100
AcDbEntity
  8
1
  6
Continuous
100
AcDbCircle
 10
148.0
 20
39.04999999999999
 30
0.0
 40
6.0
100
AcDbArc
 50
80.84756099999998
 51
90.0
  0
ARC
  5
1C324
330
1C277
100
AcDbEntity
  8
1
  6
Continuous
100
AcDbCircle
 10
148.0
 20
54.05
 30
0.0
 40
6.0
100
AcDbArc
 50
270.0
 51
294.00459
  0
ARC
  5
1C325
330
1C277
100
AcDbEntity
  8
1
  6
Continuous
100
AcDbCircle
 10
159.55
 20
46.55
 30
0.0
 40
2.549999999999998
100
AcDbArc
 50
38.18418299999999
 51
114.00459
  0
ARC
  5
1C326
330
1C277
100
AcDbEntity
  8
1
  6
Continuous
100
AcDbCircle
 10
159.55
 20
46.55
 30
0.0
 40
2.549999999999998
100
AcDbArc
 50
245.99541
 51
325.6770149999999
  0
ARC
  5
1C327
330
1C277
100
AcDbEntity
  8
1
  6
Continuous
100
AcDbCircle
 10
159.55
 20
46.55
 30
0.0
 40
5.549999999999998
100
AcDbArc
 50
245.99541
 51
356.3520299999999
  0
LINE
  5
1C328
330
1C277
100
AcDbEntity
  8
1
  6
Continuous
100
AcDbLine
 10
158.5126349999999
 20
44.220542
 30
0.0
 11
153.2817149999999
 21
46.55
 31
0.0
  0
ARC
  5
1C329
330
1C277
100
AcDbEntity
  8
1
  6
Continuous
100
AcDbCircle
 10
146.9499999999999
 20
46.55
 30
0.0
 40
5.549999999999998
100
AcDbArc
 50
28.38808199999999
 51
114.00459
  0
LINE
  5
1C32A
330
1C277
100
AcDbEntity
  8
1
  6
Continuous
100
AcDbLine
 10
144.6922049999998
 20
41.48000399999999
 30
0.0
 11
139.232599
 21
43.911301
 31
0.0
  0
LINE
  5
1C32B
330
1C277
100
AcDbEntity
  8
1
  6
Continuous
100
AcDbLine
 10
144.6922049999998
 20
51.619996
 30
0.0
 11
137.840859
 21
48.568923
 31
0.0
  0
LINE
  5
1C32C
330
1C277
100
AcDbEntity
  8
1
  6
Continuous
100
AcDbLine
 10
145.912635
 20
48.879458
 30
0.0
 11
139.0612879999999
 21
45.82838399999999
 31
0.0
  0
ARC
  5
1C32D
330
1C277
100
AcDbEntity
  8
1
  6
Continuous
100
AcDbCircle
 10
135.4
 20
46.55
 30
0.0
 40
1.5
100
AcDbArc
 50
90.0
 51
270.0
  0
ARC
  5
1C32E
330
1C277
100
AcDbEntity
  8
1
  6
Continuous
100
AcDbCircle
 10
135.4
 20
54.05
 30
0.0
 40
9.0
100
AcDbArc
 50
270.0
 51
294.00459
  0
ARC
  5
1C32F
330
1C277
100
AcDbEntity
  8
1
  6
Continuous
100
AcDbCircle
 10
135.4
 20
39.04999999999999
 30
0.0
 40
6.0
100
AcDbArc
 50
80.84756099999998
 51
90.0
  0
ARC
  5
1C330
330
1C277
100
AcDbEntity
  8
1
  6
Continuous
100
AcDbCircle
 10
135.4
 20
54.05
 30
0.0
 40
6.0
100
AcDbArc
 50
270.0
 51
294.00459
  0
ARC
  5
1C331
330
1C277
100
AcDbEntity
  8
1
  6
Continuous
100
AcDbCircle
 10
146.9499999999999
 20
46.55
 30
0.0
 40
2.549999999999998
100
AcDbArc
 50
38.18418299999999
 51
114.00459
  0
ARC
  5
1C332
330
1C277
100
AcDbEntity
  8
1
  6
Continuous
100
AcDbCircle
 10
146.9499999999999
 20
46.55
 30
0.0
 40
2.549999999999998
100
AcDbArc
 50
245.99541
 51
325.6770149999999
  0
ARC
  5
1C333
330
1C277
100
AcDbEntity
  8
1
  6
Continuous
100
AcDbCircle
 10
146.9499999999999
 20
46.55
 30
0.0
 40
5.549999999999998
100
AcDbArc
 50
245.99541
 51
356.3520299999999
  0
LINE
  5
1C334
330
1C277
100
AcDbEntity
  8
1
  6
Continuous
100
AcDbLine
 10
145.912635
 20
44.220542
 30
0.0
 11
140.681715
 21
46.55
 31
0.0
  0
ARC
  5
1C335
330
1C277
100
AcDbEntity
  8
1
  6
Continuous
100
AcDbCircle
 10
134.3499999999999
 20
46.55
 30
0.0
 40
5.549999999999998
100
AcDbArc
 50
28.38808199999999
 51
114.00459
  0
LINE
  5
1C336
330
1C277
100
AcDbEntity
  8
1
  6
Continuous
100
AcDbLine
 10
132.092205
 20
41.48000399999999
 30
0.0
 11
126.632599
 21
43.911301
 31
0.0
  0
LINE
  5
1C337
330
1C277
100
AcDbEntity
  8
1
  6
Continuous
100
AcDbLine
 10
132.092205
 20
51.619996
 30
0.0
 11
125.240859
 21
48.568923
 31
0.0
  0
LINE
  5
1C338
330
1C277
100
AcDbEntity
  8
1
  6
Continuous
100
AcDbLine
 10
133.312635
 20
48.879458
 30
0.0
 11
126.4612879999999
 21
45.82838399999999
 31
0.0
  0
ARC
  5
1C339
330
1C277
100
AcDbEntity
  8
1
  6
Continuous
100
AcDbCircle
 10
122.7999999999999
 20
46.55
 30
0.0
 40
1.5
100
AcDbArc
 50
90.0
 51
270.0
  0
ARC
  5
1C33A
330
1C277
100
AcDbEntity
  8
1
  6
Continuous
100
AcDbCircle
 10
122.7999999999999
 20
54.05
 30
0.0
 40
9.0
100
AcDbArc
 50
270.0
 51
294.00459
  0
ARC
  5
1C33B
330
1C277
100
AcDbEntity
  8
1
  6
Continuous
100
AcDbCircle
 10
122.7999999999999
 20
39.04999999999999
 30
0.0
 40
6.0
100
AcDbArc
 50
80.84756099999998
 51
90.0
  0
ARC
  5
1C33C
330
1C277
100
AcDbEntity
  8
1
  6
Continuous
100
AcDbCircle
 10
122.7999999999999
 20
54.05
 30
0.0
 40
6.0
100
AcDbArc
 50
270.0
 51
294.00459
  0
ARC
  5
1C33D
330
1C277
100
AcDbEntity
  8
1
  6
Continuous
100
AcDbCircle
 10
134.3499999999999
 20
46.55
 30
0.0
 40
2.549999999999998
100
AcDbArc
 50
38.18418299999999
 51
114.00459
  0
ARC
  5
1C33E
330
1C277
100
AcDbEntity
  8
1
  6
Continuous
100
AcDbCircle
 10
134.3499999999999
 20
46.55
 30
0.0
 40
2.549999999999998
100
AcDbArc
 50
245.99541
 51
325.6770149999999
  0
ARC
  5
1C33F
330
1C277
100
AcDbEntity
  8
1
  6
Continuous
100
AcDbCircle
 10
134.3499999999999
 20
46.55
 30
0.0
 40
5.549999999999998
100
AcDbArc
 50
245.99541
 51
356.3520299999999
  0
LINE
  5
1C340
330
1C277
100
AcDbEntity
  8
1
  6
Continuous
100
AcDbLine
 10
133.312635
 20
44.220542
 30
0.0
 11
128.081715
 21
46.55
 31
0.0
  0
ARC
  5
1C341
330
1C277
100
AcDbEntity
  8
1
  6
Continuous
100
AcDbCircle
 10
121.75
 20
46.55
 30
0.0
 40
5.549999999999998
100
AcDbArc
 50
28.38808199999999
 51
114.00459
  0
LINE
  5
1C342
330
1C277
100
AcDbEntity
  8
1
  6
Continuous
100
AcDbLine
 10
119.4922049999999
 20
41.48000399999999
 30
0.0
 11
114.032599
 21
43.911301
 31
0.0
  0
LINE
  5
1C343
330
1C277
100
AcDbEntity
  8
1
  6
Continuous
100
AcDbLine
 10
119.4922049999999
 20
51.619996
 30
0.0
 11
112.640859
 21
48.568923
 31
0.0
  0
LINE
  5
1C344
330
1C277
100
AcDbEntity
  8
1
  6
Continuous
100
AcDbLine
 10
120.712635
 20
48.879458
 30
0.0
 11
113.8612879999999
 21
45.82838399999999
 31
0.0
  0
ARC
  5
1C345
330
1C277
100
AcDbEntity
  8
1
  6
Continuous
100
AcDbCircle
 10
110.2
 20
46.55
 30
0.0
 40
1.5
100
AcDbArc
 50
90.0
 51
270.0
  0
ARC
  5
1C346
330
1C277
100
AcDbEntity
  8
1
  6
Continuous
100
AcDbCircle
 10
110.2
 20
54.05
 30
0.0
 40
9.0
100
AcDbArc
 50
270.0
 51
294.00459
  0
ARC
  5
1C347
330
1C277
100
AcDbEntity
  8
1
  6
Continuous
100
AcDbCircle
 10
110.2
 20
39.04999999999999
 30
0.0
 40
6.0
100
AcDbArc
 50
80.84756099999998
 51
90.0
  0
ARC
  5
1C348
330
1C277
100
AcDbEntity
  8
1
  6
Continuous
100
AcDbCircle
 10
110.2
 20
54.05
 30
0.0
 40
6.0
100
AcDbArc
 50
270.0
 51
294.00459
  0
ARC
  5
1C349
330
1C277
100
AcDbEntity
  8
1
  6
Continuous
100
AcDbCircle
 10
121.75
 20
46.55
 30
0.0
 40
2.549999999999998
100
AcDbArc
 50
38.18418299999999
 51
114.00459
  0
ARC
  5
1C34A
330
1C277
100
AcDbEntity
  8
1
  6
Continuous
100
AcDbCircle
 10
121.75
 20
46.55
 30
0.0
 40
2.549999999999998
100
AcDbArc
 50
245.99541
 51
325.6770149999999
  0
ARC
  5
1C34B
330
1C277
100
AcDbEntity
  8
1
  6
Continuous
100
AcDbCircle
 10
121.75
 20
46.55
 30
0.0
 40
5.549999999999998
100
AcDbArc
 50
245.99541
 51
356.3520299999999
  0
LINE
  5
1C34C
330
1C277
100
AcDbEntity
  8
1
  6
Continuous
100
AcDbLine
 10
120.712635
 20
44.220542
 30
0.0
 11
115.4817149999998
 21
46.55
 31
0.0
  0
ARC
  5
1C34D
330
1C277
100
AcDbEntity
  8
1
  6
Continuous
100
AcDbCircle
 10
109.15
 20
46.55
 30
0.0
 40
5.549999999999998
100
AcDbArc
 50
28.38808199999999
 51
114.00459
  0
LINE
  5
1C34E
330
1C277
100
AcDbEntity
  8
1
  6
Continuous
100
AcDbLine
 10
106.892205
 20
41.48000399999999
 30
0.0
 11
100.0408589999999
 21
44.531077
 31
0.0
  0
LINE
  5
1C34F
330
1C277
100
AcDbEntity
  8
1
  6
Continuous
100
AcDbLine
 10
106.892205
 20
51.619996
 30
0.0
 11
100.0408589999999
 21
48.568923
 31
0.0
  0
LINE
  5
1C350
330
1C277
100
AcDbEntity
  8
1
  6
Continuous
100
AcDbLine
 10
108.112635
 20
48.879458
 30
0.0
 11
101.261288
 21
45.82838399999999
 31
0.0
  0
ARC
  5
1C351
330
1C277
100
AcDbEntity
  8
1
  6
Continuous
100
AcDbCircle
 10
97.59999999999999
 20
46.55
 30
0.0
 40
1.5
100
AcDbArc
 50
90.0
 51
270.0
  0
ARC
  5
1C352
330
1C277
100
AcDbEntity
  8
1
  6
Continuous
100
AcDbCircle
 10
97.59999999999999
 20
54.05
 30
0.0
 40
9.0
100
AcDbArc
 50
270.0
 51
294.00459
  0
ARC
  5
1C353
330
1C277
100
AcDbEntity
  8
1
  6
Continuous
100
AcDbCircle
 10
97.59999999999999
 20
39.04999999999999
 30
0.0
 40
6.0
100
AcDbArc
 50
65.99540999999999
 51
90.0
  0
ARC
  5
1C354
330
1C277
100
AcDbEntity
  8
1
  6
Continuous
100
AcDbCircle
 10
97.59999999999999
 20
54.05
 30
0.0
 40
6.0
100
AcDbArc
 50
270.0
 51
294.00459
  0
ARC
  5
1C355
330
1C277
100
AcDbEntity
  8
1
  6
Continuous
100
AcDbCircle
 10
109.15
 20
46.55
 30
0.0
 40
2.549999999999998
100
AcDbArc
 50
38.18418299999999
 51
114.00459
  0
ARC
  5
1C356
330
1C277
100
AcDbEntity
  8
1
  6
Continuous
100
AcDbCircle
 10
109.15
 20
46.55
 30
0.0
 40
2.549999999999998
100
AcDbArc
 50
245.99541
 51
325.6770149999999
  0
ARC
  5
1C357
330
1C277
100
AcDbEntity
  8
1
  6
Continuous
100
AcDbCircle
 10
109.15
 20
46.55
 30
0.0
 40
5.549999999999998
100
AcDbArc
 50
245.99541
 51
356.3520299999999
  0
LINE
  5
1C358
330
1C277
100
AcDbEntity
  8
1
  6
Continuous
100
AcDbLine
 10
108.112635
 20
44.220542
 30
0.0
 11
102.881715
 21
46.55
 31
0.0
  0
LINE
  5
1C359
330
1C277
100
AcDbEntity
  8
1
  6
Continuous
100
AcDbLine
 10
217.307795
 20
102.7199959999999
 30
0.0
 11
222.7674009999998
 21
100.2886989999998
 31
0.0
  0
LINE
  5
1C35A
330
1C277
100
AcDbEntity
  8
1
  6
Continuous
100
AcDbLine
 10
216.0873649999998
 20
99.979458
 30
0.0
 11
221.3182849999999
 21
97.65
 31
0.0
  0
LINE
  5
1C35B
330
1C277
100
AcDbEntity
  8
1
  6
Continuous
100
AcDbLine
 10
216.0873649999998
 20
95.32054200000001
 30
0.0
 11
222.938712
 21
98.37161600000001
 31
0.0
  0
LINE
  5
1C35C
330
1C277
100
AcDbEntity
  8
1
  6
Continuous
100
AcDbLine
 10
217.307795
 20
92.580004
 30
0.0
 11
224.159141
 21
95.63107700000001
 31
0.0
  0
ARC
  5
1C35D
330
1C277
100
AcDbEntity
  8
1
  6
Continuous
100
AcDbCircle
 10
290.6499999999999
 20
97.65
 30
0.0
 40
5.549999999999998
100
AcDbArc
 50
208.388082
 51
294.00459
  0
ARC
  5
1C35E
330
1C277
100
AcDbEntity
  8
1
  6
Continuous
100
AcDbCircle
 10
278.0499999999999
 20
97.65
 30
0.0
 40
5.549999999999998
100
AcDbArc
 50
208.388082
 51
294.00459
  0
ARC
  5
1C35F
330
1C277
100
AcDbEntity
  8
1
  6
Continuous
100
AcDbCircle
 10
265.45
 20
97.65
 30
0.0
 40
5.549999999999998
100
AcDbArc
 50
208.388082
 51
294.00459
  0
ARC
  5
1C360
330
1C277
100
AcDbEntity
  8
1
  6
Continuous
100
AcDbCircle
 10
252.85
 20
97.65
 30
0.0
 40
5.549999999999998
100
AcDbArc
 50
208.388082
 51
294.00459
  0
ARC
  5
1C361
330
1C277
100
AcDbEntity
  8
1
  6
Continuous
100
AcDbCircle
 10
240.2499999999998
 20
97.65
 30
0.0
 40
5.549999999999998
100
AcDbArc
 50
208.388082
 51
294.00459
  0
ARC
  5
1C362
330
1C277
100
AcDbEntity
  8
1
  6
Continuous
100
AcDbCircle
 10
227.6499999999999
 20
97.65
 30
0.0
 40
5.549999999999998
100
AcDbArc
 50
208.388082
 51
294.00459
  0
LINE
  5
1C363
330
1C277
100
AcDbEntity
  8
1
  6
Continuous
100
AcDbLine
 10
280.307795
 20
102.7199959999999
 30
0.0
 11
285.7674009999998
 21
100.2886989999998
 31
0.0
  0
LINE
  5
1C364
330
1C277
100
AcDbEntity
  8
1
  6
Continuous
100
AcDbLine
 10
279.0873649999999
 20
99.979458
 30
0.0
 11
284.318285
 21
97.65
 31
0.0
  0
LINE
  5
1C365
330
1C277
100
AcDbEntity
  8
1
  6
Continuous
100
AcDbLine
 10
279.0873649999999
 20
95.32054200000001
 30
0.0
 11
285.938712
 21
98.37161600000001
 31
0.0
  0
LINE
  5
1C366
330
1C277
100
AcDbEntity
  8
1
  6
Continuous
100
AcDbLine
 10
280.307795
 20
92.580004
 30
0.0
 11
287.1591409999999
 21
95.63107700000001
 31
0.0
  0
LINE
  5
1C367
330
1C277
100
AcDbEntity
  8
1
  6
Continuous
100
AcDbLine
 10
291.6873649999999
 20
95.32054200000001
 30
0.0
 11
298.538712
 21
98.37161600000001
 31
0.0
  0
LINE
  5
1C368
330
1C277
100
AcDbEntity
  8
1
  6
Continuous
100
AcDbLine
 10
292.907795
 20
92.580004
 30
0.0
 11
299.759141
 21
95.63107700000001
 31
0.0
  0
LINE
  5
1C369
330
1C277
100
AcDbEntity
  8
1
  6
Continuous
100
AcDbLine
 10
292.907795
 20
102.7199959999999
 30
0.0
 11
299.759141
 21
99.66892300000001
 31
0.0
  0
ARC
  5
1C36A
330
1C277
100
AcDbEntity
  8
1
  6
Continuous
100
AcDbCircle
 10
302.1999999999998
 20
97.65
 30
0.0
 40
1.5
100
AcDbArc
 50
270.0
 51
90.0
  0
ARC
  5
1C36B
330
1C277
100
AcDbEntity
  8
1
  6
Continuous
100
AcDbCircle
 10
302.1999999999998
 20
90.15
 30
0.0
 40
6.0
100
AcDbArc
 50
90.0
 51
114.00459
  0
ARC
  5
1C36C
330
1C277
100
AcDbEntity
  8
1
  6
Continuous
100
AcDbCircle
 10
302.1999999999998
 20
105.15
 30
0.0
 40
6.0
100
AcDbArc
 50
245.99541
 51
270.0
  0
ARC
  5
1C36D
330
1C277
100
AcDbEntity
  8
1
  6
Continuous
100
AcDbCircle
 10
302.1999999999998
 20
90.15
 30
0.0
 40
9.0
100
AcDbArc
 50
90.0
 51
114.00459
  0
ARC
  5
1C36E
330
1C277
100
AcDbEntity
  8
1
  6
Continuous
100
AcDbCircle
 10
289.6
 20
105.15
 30
0.0
 40
6.0
100
AcDbArc
 50
260.8475609999999
 51
270.0
  0
ARC
  5
1C36F
330
1C277
100
AcDbEntity
  8
1
  6
Continuous
100
AcDbCircle
 10
289.6
 20
97.65
 30
0.0
 40
1.5
100
AcDbArc
 50
270.0
 51
90.0
  0
ARC
  5
1C370
330
1C277
100
AcDbEntity
  8
1
  6
Continuous
100
AcDbCircle
 10
290.6499999999999
 20
97.65
 30
0.0
 40
2.549999999999998
100
AcDbArc
 50
218.1841829999999
 51
294.00459
  0
LINE
  5
1C371
330
1C277
100
AcDbEntity
  8
1
  6
Continuous
100
AcDbLine
 10
291.6873649999999
 20
99.979458
 30
0.0
 11
296.9182850000001
 21
97.65
 31
0.0
  0
ARC
  5
1C372
330
1C277
100
AcDbEntity
  8
1
  6
Continuous
100
AcDbCircle
 10
290.6499999999999
 20
97.65
 30
0.0
 40
5.549999999999998
100
AcDbArc
 50
65.99540999999999
 51
176.35203
  0
ARC
  5
1C373
330
1C277
100
AcDbEntity
  8
1
  6
Continuous
100
AcDbCircle
 10
290.6499999999999
 20
97.65
 30
0.0
 40
2.549999999999998
100
AcDbArc
 50
65.99540999999999
 51
145.6770149999998
  0
ARC
  5
1C374
330
1C277
100
AcDbEntity
  8
1
  6
Continuous
100
AcDbCircle
 10
289.6
 20
90.15
 30
0.0
 40
6.0
100
AcDbArc
 50
90.0
 51
114.00459
  0
ARC
  5
1C375
330
1C277
100
AcDbEntity
  8
1
  6
Continuous
100
AcDbCircle
 10
289.6
 20
90.15
 30
0.0
 40
9.0
100
AcDbArc
 50
90.0
 51
114.00459
  0
ARC
  5
1C376
330
1C277
100
AcDbEntity
  8
1
  6
Continuous
100
AcDbCircle
 10
252.85
 20
97.65
 30
0.0
 40
5.549999999999998
100
AcDbArc
 50
65.99540999999999
 51
176.35203
  0
ARC
  5
1C377
330
1C277
100
AcDbEntity
  8
1
  6
Continuous
100
AcDbCircle
 10
251.8
 20
90.15
 30
0.0
 40
6.0
100
AcDbArc
 50
90.0
 51
114.00459
  0
ARC
  5
1C378
330
1C277
100
AcDbEntity
  8
1
  6
Continuous
100
AcDbCircle
 10
251.8
 20
90.15
 30
0.0
 40
9.0
100
AcDbArc
 50
90.0
 51
114.00459
  0
ARC
  5
1C379
330
1C277
100
AcDbEntity
  8
1
  6
Continuous
100
AcDbCircle
 10
264.3999999999999
 20
97.65
 30
0.0
 40
1.5
100
AcDbArc
 50
270.0
 51
90.0
  0
ARC
  5
1C37A
330
1C277
100
AcDbEntity
  8
1
  6
Continuous
100
AcDbCircle
 10
265.45
 20
97.65
 30
0.0
 40
2.549999999999998
100
AcDbArc
 50
218.1841829999999
 51
294.00459
  0
ARC
  5
1C37B
330
1C277
100
AcDbEntity
  8
1
  6
Continuous
100
AcDbCircle
 10
265.45
 20
97.65
 30
0.0
 40
5.549999999999998
100
AcDbArc
 50
65.99540999999999
 51
176.35203
  0
ARC
  5
1C37C
330
1C277
100
AcDbEntity
  8
1
  6
Continuous
100
AcDbCircle
 10
265.45
 20
97.65
 30
0.0
 40
2.549999999999998
100
AcDbArc
 50
65.99540999999999
 51
145.6770149999998
  0
LINE
  5
1C37D
330
1C277
100
AcDbEntity
  8
1
  6
Continuous
100
AcDbLine
 10
267.7077949999999
 20
102.7199959999999
 30
0.0
 11
273.1674009999999
 21
100.2886989999998
 31
0.0
  0
ARC
  5
1C37E
330
1C277
100
AcDbEntity
  8
1
  6
Continuous
100
AcDbCircle
 10
277.0
 20
105.15
 30
0.0
 40
6.0
100
AcDbArc
 50
260.8475609999999
 51
270.0
  0
ARC
  5
1C37F
330
1C277
100
AcDbEntity
  8
1
  6
Continuous
100
AcDbCircle
 10
278.0499999999999
 20
97.65
 30
0.0
 40
2.549999999999998
100
AcDbArc
 50
218.1841829999999
 51
294.00459
  0
ARC
  5
1C380
330
1C277
100
AcDbEntity
  8
1
  6
Continuous
100
AcDbCircle
 10
277.0
 20
97.65
 30
0.0
 40
1.5
100
AcDbArc
 50
270.0
 51
90.0
  0
ARC
  5
1C381
330
1C277
100
AcDbEntity
  8
1
  6
Continuous
100
AcDbCircle
 10
278.0499999999999
 20
97.65
 30
0.0
 40
5.549999999999998
100
AcDbArc
 50
65.99540999999999
 51
176.35203
  0
ARC
  5
1C382
330
1C277
100
AcDbEntity
  8
1
  6
Continuous
100
AcDbCircle
 10
278.0499999999999
 20
97.65
 30
0.0
 40
2.549999999999998
100
AcDbArc
 50
65.99540999999999
 51
145.6770149999998
  0
LINE
  5
1C383
330
1C277
100
AcDbEntity
  8
1
  6
Continuous
100
AcDbLine
 10
266.487365
 20
99.979458
 30
0.0
 11
271.7182849999999
 21
97.65
 31
0.0
  0
ARC
  5
1C384
330
1C277
100
AcDbEntity
  8
1
  6
Continuous
100
AcDbCircle
 10
277.0
 20
90.15
 30
0.0
 40
6.0
100
AcDbArc
 50
90.0
 51
114.00459
  0
ARC
  5
1C385
330
1C277
100
AcDbEntity
  8
1
  6
Continuous
100
AcDbCircle
 10
277.0
 20
90.15
 30
0.0
 40
9.0
100
AcDbArc
 50
90.0
 51
114.00459
  0
LINE
  5
1C386
330
1C277
100
AcDbEntity
  8
1
  6
Continuous
100
AcDbLine
 10
266.487365
 20
95.32054200000001
 30
0.0
 11
273.3387119999998
 21
98.37161600000001
 31
0.0
  0
LINE
  5
1C387
330
1C277
100
AcDbEntity
  8
1
  6
Continuous
100
AcDbLine
 10
267.7077949999999
 20
92.580004
 30
0.0
 11
274.559141
 21
95.63107700000001
 31
0.0
  0
ARC
  5
1C388
330
1C277
100
AcDbEntity
  8
1
  6
Continuous
100
AcDbCircle
 10
251.8
 20
105.15
 30
0.0
 40
6.0
100
AcDbArc
 50
260.8475609999999
 51
270.0
  0
ARC
  5
1C389
330
1C277
100
AcDbEntity
  8
1
  6
Continuous
100
AcDbCircle
 10
251.8
 20
97.65
 30
0.0
 40
1.5
100
AcDbArc
 50
270.0
 51
90.0
  0
ARC
  5
1C38A
330
1C277
100
AcDbEntity
  8
1
  6
Continuous
100
AcDbCircle
 10
252.85
 20
97.65
 30
0.0
 40
2.549999999999998
100
AcDbArc
 50
218.1841829999999
 51
294.00459
  0
LINE
  5
1C38B
330
1C277
100
AcDbEntity
  8
1
  6
Continuous
100
AcDbLine
 10
255.107795
 20
102.7199959999999
 30
0.0
 11
260.5674009999999
 21
100.2886989999998
 31
0.0
  0
ARC
  5
1C38C
330
1C277
100
AcDbEntity
  8
1
  6
Continuous
100
AcDbCircle
 10
264.3999999999999
 20
105.15
 30
0.0
 40
6.0
100
AcDbArc
 50
260.8475609999999
 51
270.0
  0
LINE
  5
1C38D
330
1C277
100
AcDbEntity
  8
1
  6
Continuous
100
AcDbLine
 10
253.8873649999999
 20
99.979458
 30
0.0
 11
259.118285
 21
97.65
 31
0.0
  0
ARC
  5
1C38E
330
1C277
100
AcDbEntity
  8
1
  6
Continuous
100
AcDbCircle
 10
252.85
 20
97.65
 30
0.0
 40
2.549999999999998
100
AcDbArc
 50
65.99540999999999
 51
145.6770149999998
  0
ARC
  5
1C38F
330
1C277
100
AcDbEntity
  8
1
  6
Continuous
100
AcDbCircle
 10
264.3999999999999
 20
90.15
 30
0.0
 40
6.0
100
AcDbArc
 50
90.0
 51
114.00459
  0
ARC
  5
1C390
330
1C277
100
AcDbEntity
  8
1
  6
Continuous
100
AcDbCircle
 10
264.3999999999999
 20
90.15
 30
0.0
 40
9.0
100
AcDbArc
 50
90.0
 51
114.00459
  0
LINE
  5
1C391
330
1C277
100
AcDbEntity
  8
1
  6
Continuous
100
AcDbLine
 10
253.8873649999999
 20
95.32054200000001
 30
0.0
 11
260.738712
 21
98.37161600000001
 31
0.0
  0
LINE
  5
1C392
330
1C277
100
AcDbEntity
  8
1
  6
Continuous
100
AcDbLine
 10
255.107795
 20
92.580004
 30
0.0
 11
261.9591409999998
 21
95.63107700000001
 31
0.0
  0
LINE
  5
1C393
330
1C277
100
AcDbEntity
  8
1
  6
Continuous
100
AcDbLine
 10
229.907795
 20
102.7199959999999
 30
0.0
 11
235.3674009999998
 21
100.2886989999998
 31
0.0
  0
ARC
  5
1C394
330
1C277
100
AcDbEntity
  8
1
  6
Continuous
100
AcDbCircle
 10
240.2499999999998
 20
97.65
 30
0.0
 40
5.549999999999998
100
AcDbArc
 50
65.99540999999999
 51
176.35203
  0
LINE
  5
1C395
330
1C277
100
AcDbEntity
  8
1
  6
Continuous
100
AcDbLine
 10
228.6873649999999
 20
99.979458
 30
0.0
 11
233.9182849999999
 21
97.65
 31
0.0
  0
LINE
  5
1C396
330
1C277
100
AcDbEntity
  8
1
  6
Continuous
100
AcDbLine
 10
228.6873649999999
 20
95.32054200000001
 30
0.0
 11
235.538712
 21
98.37161600000001
 31
0.0
  0
LINE
  5
1C397
330
1C277
100
AcDbEntity
  8
1
  6
Continuous
100
AcDbLine
 10
229.907795
 20
92.580004
 30
0.0
 11
236.759141
 21
95.63107700000001
 31
0.0
  0
ARC
  5
1C398
330
1C277
100
AcDbEntity
  8
1
  6
Continuous
100
AcDbCircle
 10
239.1999999999999
 20
105.15
 30
0.0
 40
6.0
100
AcDbArc
 50
260.8475609999999
 51
270.0
  0
ARC
  5
1C399
330
1C277
100
AcDbEntity
  8
1
  6
Continuous
100
AcDbCircle
 10
239.1999999999999
 20
97.65
 30
0.0
 40
1.5
100
AcDbArc
 50
270.0
 51
90.0
  0
ARC
  5
1C39A
330
1C277
100
AcDbEntity
  8
1
  6
Continuous
100
AcDbCircle
 10
240.2499999999998
 20
97.65
 30
0.0
 40
2.549999999999998
100
AcDbArc
 50
218.1841829999999
 51
294.00459
  0
LINE
  5
1C39B
330
1C277
100
AcDbEntity
  8
1
  6
Continuous
100
AcDbLine
 10
242.5077949999999
 20
102.7199959999999
 30
0.0
 11
247.9674009999999
 21
100.2886989999998
 31
0.0
  0
LINE
  5
1C39C
330
1C277
100
AcDbEntity
  8
1
  6
Continuous
100
AcDbLine
 10
241.2873649999999
 20
99.979458
 30
0.0
 11
246.518285
 21
97.65
 31
0.0
  0
ARC
  5
1C39D
330
1C277
100
AcDbEntity
  8
1
  6
Continuous
100
AcDbCircle
 10
240.2499999999998
 20
97.65
 30
0.0
 40
2.549999999999998
100
AcDbArc
 50
65.99540999999999
 51
145.6770149999998
  0
LINE
  5
1C39E
330
1C277
100
AcDbEntity
  8
1
  6
Continuous
100
AcDbLine
 10
241.2873649999999
 20
95.32054200000001
 30
0.0
 11
248.1387119999999
 21
98.37161600000001
 31
0.0
  0
LINE
  5
1C39F
330
1C277
100
AcDbEntity
  8
1
  6
Continuous
100
AcDbLine
 10
242.5077949999999
 20
92.580004
 30
0.0
 11
249.359141
 21
95.63107700000001
 31
0.0
  0
ARC
  5
1C3A0
330
1C277
100
AcDbEntity
  8
1
  6
Continuous
100
AcDbCircle
 10
239.1999999999999
 20
90.15
 30
0.0
 40
6.0
100
AcDbArc
 50
90.0
 51
114.00459
  0
ARC
  5
1C3A1
330
1C277
100
AcDbEntity
  8
1
  6
Continuous
100
AcDbCircle
 10
239.1999999999999
 20
90.15
 30
0.0
 40
9.0
100
AcDbArc
 50
90.0
 51
114.00459
  0
ARC
  5
1C3A2
330
1C277
100
AcDbEntity
  8
1
  6
Continuous
100
AcDbCircle
 10
226.6
 20
105.15
 30
0.0
 40
6.0
100
AcDbArc
 50
260.8475609999999
 51
270.0
  0
ARC
  5
1C3A3
330
1C277
100
AcDbEntity
  8
1
  6
Continuous
100
AcDbCircle
 10
226.6
 20
97.65
 30
0.0
 40
1.5
100
AcDbArc
 50
270.0
 51
90.0
  0
ARC
  5
1C3A4
330
1C277
100
AcDbEntity
  8
1
  6
Continuous
100
AcDbCircle
 10
227.6499999999999
 20
97.65
 30
0.0
 40
2.549999999999998
100
AcDbArc
 50
218.1841829999999
 51
294.00459
  0
ARC
  5
1C3A5
330
1C277
100
AcDbEntity
  8
1
  6
Continuous
100
AcDbCircle
 10
227.6499999999999
 20
97.65
 30
0.0
 40
5.549999999999998
100
AcDbArc
 50
65.99540999999999
 51
176.35203
  0
ARC
  5
1C3A6
330
1C277
100
AcDbEntity
  8
1
  6
Continuous
100
AcDbCircle
 10
227.6499999999999
 20
97.65
 30
0.0
 40
2.549999999999998
100
AcDbArc
 50
65.99540999999999
 51
145.6770149999998
  0
ARC
  5
1C3A7
330
1C277
100
AcDbEntity
  8
1
  6
Continuous
100
AcDbCircle
 10
226.6
 20
90.15
 30
0.0
 40
6.0
100
AcDbArc
 50
90.0
 51
114.00459
  0
ARC
  5
1C3A8
330
1C277
100
AcDbEntity
  8
1
  6
Continuous
100
AcDbCircle
 10
226.6
 20
90.15
 30
0.0
 40
9.0
100
AcDbArc
 50
90.0
 51
114.00459
  0
ARC
  5
1C3A9
330
1C277
100
AcDbEntity
  8
1
  6
Continuous
100
AcDbCircle
 10
215.05
 20
97.65
 30
0.0
 40
5.549999999999998
100
AcDbArc
 50
208.388082
 51
294.00459
  0
ARC
  5
1C3AA
330
1C277
100
AcDbEntity
  8
1
  6
Continuous
100
AcDbCircle
 10
202.4499999999999
 20
97.65
 30
0.0
 40
5.549999999999998
100
AcDbArc
 50
208.388082
 51
294.00459
  0
ARC
  5
1C3AB
330
1C277
100
AcDbEntity
  8
1
  6
Continuous
100
AcDbCircle
 10
189.85
 20
97.65
 30
0.0
 40
5.549999999999998
100
AcDbArc
 50
208.388082
 51
294.00459
  0
ARC
  5
1C3AC
330
1C277
100
AcDbEntity
  8
1
  6
Continuous
100
AcDbCircle
 10
177.2499999999998
 20
97.65
 30
0.0
 40
5.549999999999998
100
AcDbArc
 50
208.388082
 51
294.00459
  0
ARC
  5
1C3AD
330
1C277
100
AcDbEntity
  8
1
  6
Continuous
100
AcDbCircle
 10
164.65
 20
97.65
 30
0.0
 40
5.549999999999998
100
AcDbArc
 50
208.388082
 51
294.00459
  0
ARC
  5
1C3AE
330
1C277
100
AcDbEntity
  8
1
  6
Continuous
100
AcDbCircle
 10
152.05
 20
97.65
 30
0.0
 40
5.549999999999998
100
AcDbArc
 50
208.388082
 51
294.00459
  0
ARC
  5
1C3AF
330
1C277
100
AcDbEntity
  8
1
  6
Continuous
100
AcDbCircle
 10
139.4499999999998
 20
97.65
 30
0.0
 40
5.549999999999998
100
AcDbArc
 50
208.388082
 51
294.00459
  0
ARC
  5
1C3B0
330
1C277
100
AcDbEntity
  8
1
  6
Continuous
100
AcDbCircle
 10
126.8499999999998
 20
97.65
 30
0.0
 40
5.549999999999998
100
AcDbArc
 50
208.388082
 51
294.00459
  0
ARC
  5
1C3B1
330
1C277
100
AcDbEntity
  8
1
  6
Continuous
100
AcDbCircle
 10
114.25
 20
97.65
 30
0.0
 40
5.549999999999998
100
AcDbArc
 50
208.388082
 51
294.00459
  0
ARC
  5
1C3B2
330
1C277
100
AcDbEntity
  8
1
  6
Continuous
100
AcDbCircle
 10
101.65
 20
97.65
 30
0.0
 40
5.549999999999998
100
AcDbArc
 50
65.99540999999999
 51
294.00459
  0
LINE
  5
1C3B3
330
1C277
100
AcDbEntity
  8
1
  6
Continuous
100
AcDbLine
 10
153.0873649999998
 20
99.979458
 30
0.0
 11
158.318285
 21
97.65
 31
0.0
  0
ARC
  5
1C3B4
330
1C277
100
AcDbEntity
  8
1
  6
Continuous
100
AcDbCircle
 10
152.05
 20
97.65
 30
0.0
 40
5.549999999999998
100
AcDbArc
 50
65.99540999999999
 51
176.35203
  0
LINE
  5
1C3B5
330
1C277
100
AcDbEntity
  8
1
  6
Continuous
100
AcDbLine
 10
153.0873649999998
 20
95.32054200000001
 30
0.0
 11
159.938712
 21
98.37161600000001
 31
0.0
  0
ARC
  5
1C3B6
330
1C277
100
AcDbEntity
  8
1
  6
Continuous
100
AcDbCircle
 10
189.85
 20
97.65
 30
0.0
 40
5.549999999999998
100
AcDbArc
 50
65.99540999999999
 51
176.35203
  0
ARC
  5
1C3B7
330
1C277
100
AcDbEntity
  8
1
  6
Continuous
100
AcDbCircle
 10
188.8
 20
90.15
 30
0.0
 40
9.0
100
AcDbArc
 50
90.0
 51
114.00459
  0
LINE
  5
1C3B8
330
1C277
100
AcDbEntity
  8
1
  6
Continuous
100
AcDbLine
 10
179.5077949999999
 20
92.580004
 30
0.0
 11
186.3591409999999
 21
95.63107700000001
 31
0.0
  0
ARC
  5
1C3B9
330
1C277
100
AcDbEntity
  8
1
  6
Continuous
100
AcDbCircle
 10
201.4
 20
97.65
 30
0.0
 40
1.5
100
AcDbArc
 50
270.0
 51
90.0
  0
ARC
  5
1C3BA
330
1C277
100
AcDbEntity
  8
1
  6
Continuous
100
AcDbCircle
 10
202.4499999999999
 20
97.65
 30
0.0
 40
2.549999999999998
100
AcDbArc
 50
218.1841829999999
 51
294.00459
  0
ARC
  5
1C3BB
330
1C277
100
AcDbEntity
  8
1
  6
Continuous
100
AcDbCircle
 10
202.4499999999999
 20
97.65
 30
0.0
 40
5.549999999999998
100
AcDbArc
 50
65.99540999999999
 51
176.35203
  0
ARC
  5
1C3BC
330
1C277
100
AcDbEntity
  8
1
  6
Continuous
100
AcDbCircle
 10
202.4499999999999
 20
97.65
 30
0.0
 40
2.549999999999998
100
AcDbArc
 50
65.99540999999999
 51
145.6770149999998
  0
LINE
  5
1C3BD
330
1C277
100
AcDbEntity
  8
1
  6
Continuous
100
AcDbLine
 10
204.707795
 20
102.7199959999999
 30
0.0
 11
210.1674009999999
 21
100.2886989999998
 31
0.0
  0
ARC
  5
1C3BE
330
1C277
100
AcDbEntity
  8
1
  6
Continuous
100
AcDbCircle
 10
214.0
 20
105.15
 30
0.0
 40
6.0
100
AcDbArc
 50
260.8475609999999
 51
270.0
  0
ARC
  5
1C3BF
330
1C277
100
AcDbEntity
  8
1
  6
Continuous
100
AcDbCircle
 10
214.0
 20
97.65
 30
0.0
 40
1.5
100
AcDbArc
 50
270.0
 51
90.0
  0
ARC
  5
1C3C0
330
1C277
100
AcDbEntity
  8
1
  6
Continuous
100
AcDbCircle
 10
215.05
 20
97.65
 30
0.0
 40
2.549999999999998
100
AcDbArc
 50
218.1841829999999
 51
294.00459
  0
ARC
  5
1C3C1
330
1C277
100
AcDbEntity
  8
1
  6
Continuous
100
AcDbCircle
 10
215.05
 20
97.65
 30
0.0
 40
5.549999999999998
100
AcDbArc
 50
65.99540999999999
 51
176.35203
  0
ARC
  5
1C3C2
330
1C277
100
AcDbEntity
  8
1
  6
Continuous
100
AcDbCircle
 10
215.05
 20
97.65
 30
0.0
 40
2.549999999999998
100
AcDbArc
 50
65.99540999999999
 51
145.6770149999998
  0
LINE
  5
1C3C3
330
1C277
100
AcDbEntity
  8
1
  6
Continuous
100
AcDbLine
 10
203.4873649999999
 20
99.979458
 30
0.0
 11
208.718285
 21
97.65
 31
0.0
  0
ARC
  5
1C3C4
330
1C277
100
AcDbEntity
  8
1
  6
Continuous
100
AcDbCircle
 10
214.0
 20
90.15
 30
0.0
 40
6.0
100
AcDbArc
 50
90.0
 51
114.00459
  0
ARC
  5
1C3C5
330
1C277
100
AcDbEntity
  8
1
  6
Continuous
100
AcDbCircle
 10
214.0
 20
90.15
 30
0.0
 40
9.0
100
AcDbArc
 50
90.0
 51
114.00459
  0
LINE
  5
1C3C6
330
1C277
100
AcDbEntity
  8
1
  6
Continuous
100
AcDbLine
 10
203.4873649999999
 20
95.32054200000001
 30
0.0
 11
210.3387119999999
 21
98.37161600000001
 31
0.0
  0
LINE
  5
1C3C7
330
1C277
100
AcDbEntity
  8
1
  6
Continuous
100
AcDbLine
 10
204.707795
 20
92.580004
 30
0.0
 11
211.5591409999999
 21
95.63107700000001
 31
0.0
  0
ARC
  5
1C3C8
330
1C277
100
AcDbEntity
  8
1
  6
Continuous
100
AcDbCircle
 10
188.8
 20
105.15
 30
0.0
 40
6.0
100
AcDbArc
 50
260.8475609999999
 51
270.0
  0
ARC
  5
1C3C9
330
1C277
100
AcDbEntity
  8
1
  6
Continuous
100
AcDbCircle
 10
188.8
 20
97.65
 30
0.0
 40
1.5
100
AcDbArc
 50
270.0
 51
90.0
  0
ARC
  5
1C3CA
330
1C277
100
AcDbEntity
  8
1
  6
Continuous
100
AcDbCircle
 10
189.85
 20
97.65
 30
0.0
 40
2.549999999999998
100
AcDbArc
 50
218.1841829999999
 51
294.00459
  0
LINE
  5
1C3CB
330
1C277
100
AcDbEntity
  8
1
  6
Continuous
100
AcDbLine
 10
192.1077949999999
 20
102.7199959999999
 30
0.0
 11
197.5674009999999
 21
100.2886989999998
 31
0.0
  0
ARC
  5
1C3CC
330
1C277
100
AcDbEntity
  8
1
  6
Continuous
100
AcDbCircle
 10
201.4
 20
105.15
 30
0.0
 40
6.0
100
AcDbArc
 50
260.8475609999999
 51
270.0
  0
LINE
  5
1C3CD
330
1C277
100
AcDbEntity
  8
1
  6
Continuous
100
AcDbLine
 10
190.8873649999999
 20
99.979458
 30
0.0
 11
196.1182849999999
 21
97.65
 31
0.0
  0
ARC
  5
1C3CE
330
1C277
100
AcDbEntity
  8
1
  6
Continuous
100
AcDbCircle
 10
189.85
 20
97.65
 30
0.0
 40
2.549999999999998
100
AcDbArc
 50
65.99540999999999
 51
145.6770149999998
  0
ARC
  5
1C3CF
330
1C277
100
AcDbEntity
  8
1
  6
Continuous
100
AcDbCircle
 10
201.4
 20
90.15
 30
0.0
 40
6.0
100
AcDbArc
 50
90.0
 51
114.00459
  0
ARC
  5
1C3D0
330
1C277
100
AcDbEntity
  8
1
  6
Continuous
100
AcDbCircle
 10
201.4
 20
90.15
 30
0.0
 40
9.0
100
AcDbArc
 50
90.0
 51
114.00459
  0
LINE
  5
1C3D1
330
1C277
100
AcDbEntity
  8
1
  6
Continuous
100
AcDbLine
 10
190.8873649999999
 20
95.32054200000001
 30
0.0
 11
197.7387119999999
 21
98.37161600000001
 31
0.0
  0
LINE
  5
1C3D2
330
1C277
100
AcDbEntity
  8
1
  6
Continuous
100
AcDbLine
 10
192.1077949999999
 20
92.580004
 30
0.0
 11
198.9591409999999
 21
95.63107700000001
 31
0.0
  0
ARC
  5
1C3D3
330
1C277
100
AcDbEntity
  8
1
  6
Continuous
100
AcDbCircle
 10
188.8
 20
90.15
 30
0.0
 40
6.0
100
AcDbArc
 50
90.0
 51
114.00459
  0
LINE
  5
1C3D4
330
1C277
100
AcDbEntity
  8
1
  6
Continuous
100
AcDbLine
 10
166.9077949999999
 20
102.7199959999999
 30
0.0
 11
172.367401
 21
100.2886989999998
 31
0.0
  0
LINE
  5
1C3D5
330
1C277
100
AcDbEntity
  8
1
  6
Continuous
100
AcDbLine
 10
165.687365
 20
99.979458
 30
0.0
 11
170.9182849999999
 21
97.65
 31
0.0
  0
LINE
  5
1C3D6
330
1C277
100
AcDbEntity
  8
1
  6
Continuous
100
AcDbLine
 10
165.687365
 20
95.32054200000001
 30
0.0
 11
172.538712
 21
98.37161600000001
 31
0.0
  0
LINE
  5
1C3D7
330
1C277
100
AcDbEntity
  8
1
  6
Continuous
100
AcDbLine
 10
166.9077949999999
 20
92.580004
 30
0.0
 11
173.759141
 21
95.63107700000001
 31
0.0
  0
ARC
  5
1C3D8
330
1C277
100
AcDbEntity
  8
1
  6
Continuous
100
AcDbCircle
 10
176.2
 20
105.15
 30
0.0
 40
6.0
100
AcDbArc
 50
260.8475609999999
 51
270.0
  0
ARC
  5
1C3D9
330
1C277
100
AcDbEntity
  8
1
  6
Continuous
100
AcDbCircle
 10
176.2
 20
97.65
 30
0.0
 40
1.5
100
AcDbArc
 50
270.0
 51
90.0
  0
ARC
  5
1C3DA
330
1C277
100
AcDbEntity
  8
1
  6
Continuous
100
AcDbCircle
 10
177.2499999999998
 20
97.65
 30
0.0
 40
2.549999999999998
100
AcDbArc
 50
218.1841829999999
 51
294.00459
  0
LINE
  5
1C3DB
330
1C277
100
AcDbEntity
  8
1
  6
Continuous
100
AcDbLine
 10
179.5077949999999
 20
102.7199959999999
 30
0.0
 11
184.967401
 21
100.2886989999998
 31
0.0
  0
LINE
  5
1C3DC
330
1C277
100
AcDbEntity
  8
1
  6
Continuous
100
AcDbLine
 10
178.2873649999999
 20
99.979458
 30
0.0
 11
183.5182849999999
 21
97.65
 31
0.0
  0
ARC
  5
1C3DD
330
1C277
100
AcDbEntity
  8
1
  6
Continuous
100
AcDbCircle
 10
177.2499999999998
 20
97.65
 30
0.0
 40
5.549999999999998
100
AcDbArc
 50
65.99540999999999
 51
176.35203
  0
ARC
  5
1C3DE
330
1C277
100
AcDbEntity
  8
1
  6
Continuous
100
AcDbCircle
 10
177.2499999999998
 20
97.65
 30
0.0
 40
2.549999999999998
100
AcDbArc
 50
65.99540999999999
 51
145.6770149999998
  0
LINE
  5
1C3DF
330
1C277
100
AcDbEntity
  8
1
  6
Continuous
100
AcDbLine
 10
178.2873649999999
 20
95.32054200000001
 30
0.0
 11
185.138712
 21
98.37161600000001
 31
0.0
  0
ARC
  5
1C3E0
330
1C277
100
AcDbEntity
  8
1
  6
Continuous
100
AcDbCircle
 10
176.2
 20
90.15
 30
0.0
 40
6.0
100
AcDbArc
 50
90.0
 51
114.00459
  0
ARC
  5
1C3E1
330
1C277
100
AcDbEntity
  8
1
  6
Continuous
100
AcDbCircle
 10
176.2
 20
90.15
 30
0.0
 40
9.0
100
AcDbArc
 50
90.0
 51
114.00459
  0
LINE
  5
1C3E2
330
1C277
100
AcDbEntity
  8
1
  6
Continuous
100
AcDbLine
 10
154.3077949999999
 20
102.7199959999999
 30
0.0
 11
159.767401
 21
100.2886989999998
 31
0.0
  0
ARC
  5
1C3E3
330
1C277
100
AcDbEntity
  8
1
  6
Continuous
100
AcDbCircle
 10
163.5999999999999
 20
105.15
 30
0.0
 40
6.0
100
AcDbArc
 50
260.8475609999999
 51
270.0
  0
ARC
  5
1C3E4
330
1C277
100
AcDbEntity
  8
1
  6
Continuous
100
AcDbCircle
 10
163.5999999999999
 20
97.65
 30
0.0
 40
1.5
100
AcDbArc
 50
270.0
 51
90.0
  0
ARC
  5
1C3E5
330
1C277
100
AcDbEntity
  8
1
  6
Continuous
100
AcDbCircle
 10
164.65
 20
97.65
 30
0.0
 40
2.549999999999998
100
AcDbArc
 50
218.1841829999999
 51
294.00459
  0
ARC
  5
1C3E6
330
1C277
100
AcDbEntity
  8
1
  6
Continuous
100
AcDbCircle
 10
164.65
 20
97.65
 30
0.0
 40
5.549999999999998
100
AcDbArc
 50
65.99540999999999
 51
176.35203
  0
ARC
  5
1C3E7
330
1C277
100
AcDbEntity
  8
1
  6
Continuous
100
AcDbCircle
 10
164.65
 20
97.65
 30
0.0
 40
2.549999999999998
100
AcDbArc
 50
65.99540999999999
 51
145.6770149999998
  0
ARC
  5
1C3E8
330
1C277
100
AcDbEntity
  8
1
  6
Continuous
100
AcDbCircle
 10
163.5999999999999
 20
90.15
 30
0.0
 40
6.0
100
AcDbArc
 50
90.0
 51
114.00459
  0
ARC
  5
1C3E9
330
1C277
100
AcDbEntity
  8
1
  6
Continuous
100
AcDbCircle
 10
163.5999999999999
 20
90.15
 30
0.0
 40
9.0
100
AcDbArc
 50
90.0
 51
114.00459
  0
LINE
  5
1C3EA
330
1C277
100
AcDbEntity
  8
1
  6
Continuous
100
AcDbLine
 10
154.3077949999999
 20
92.580004
 30
0.0
 11
161.159141
 21
95.63107700000001
 31
0.0
  0
ARC
  5
1C3EB
330
1C277
100
AcDbEntity
  8
1
  6
Continuous
100
AcDbCircle
 10
126.8499999999998
 20
97.65
 30
0.0
 40
5.549999999999998
100
AcDbArc
 50
65.99540999999999
 51
176.35203
  0
LINE
  5
1C3EC
330
1C277
100
AcDbEntity
  8
1
  6
Continuous
100
AcDbLine
 10
116.507795
 20
92.580004
 30
0.0
 11
123.359141
 21
95.63107700000001
 31
0.0
  0
LINE
  5
1C3ED
330
1C277
100
AcDbEntity
  8
1
  6
Continuous
100
AcDbLine
 10
115.2873649999998
 20
95.32054200000001
 30
0.0
 11
122.138712
 21
98.37161600000001
 31
0.0
  0
ARC
  5
1C3EE
330
1C277
100
AcDbEntity
  8
1
  6
Continuous
100
AcDbCircle
 10
138.4
 20
105.15
 30
0.0
 40
6.0
100
AcDbArc
 50
260.8475609999999
 51
270.0
  0
ARC
  5
1C3EF
330
1C277
100
AcDbEntity
  8
1
  6
Continuous
100
AcDbCircle
 10
139.4499999999998
 20
97.65
 30
0.0
 40
2.549999999999998
100
AcDbArc
 50
218.1841829999999
 51
294.00459
  0
ARC
  5
1C3F0
330
1C277
100
AcDbEntity
  8
1
  6
Continuous
100
AcDbCircle
 10
139.4499999999998
 20
97.65
 30
0.0
 40
5.549999999999998
100
AcDbArc
 50
65.99540999999999
 51
176.35203
  0
ARC
  5
1C3F1
330
1C277
100
AcDbEntity
  8
1
  6
Continuous
100
AcDbCircle
 10
139.4499999999998
 20
97.65
 30
0.0
 40
2.549999999999998
100
AcDbArc
 50
65.99540999999999
 51
145.6770149999998
  0
ARC
  5
1C3F2
330
1C277
100
AcDbEntity
  8
1
  6
Continuous
100
AcDbCircle
 10
138.4
 20
90.15
 30
0.0
 40
6.0
100
AcDbArc
 50
90.0
 51
114.00459
  0
ARC
  5
1C3F3
330
1C277
100
AcDbEntity
  8
1
  6
Continuous
100
AcDbCircle
 10
138.4
 20
90.15
 30
0.0
 40
9.0
100
AcDbArc
 50
90.0
 51
114.00459
  0
ARC
  5
1C3F4
330
1C277
100
AcDbEntity
  8
1
  6
Continuous
100
AcDbCircle
 10
138.4
 20
97.65
 30
0.0
 40
1.5
100
AcDbArc
 50
270.0
 51
90.0
  0
LINE
  5
1C3F5
330
1C277
100
AcDbEntity
  8
1
  6
Continuous
100
AcDbLine
 10
141.707795
 20
102.7199959999999
 30
0.0
 11
147.167401
 21
100.2886989999998
 31
0.0
  0
ARC
  5
1C3F6
330
1C277
100
AcDbEntity
  8
1
  6
Continuous
100
AcDbCircle
 10
151.0
 20
105.15
 30
0.0
 40
6.0
100
AcDbArc
 50
260.8475609999999
 51
270.0
  0
ARC
  5
1C3F7
330
1C277
100
AcDbEntity
  8
1
  6
Continuous
100
AcDbCircle
 10
151.0
 20
97.65
 30
0.0
 40
1.5
100
AcDbArc
 50
270.0
 51
90.0
  0
ARC
  5
1C3F8
330
1C277
100
AcDbEntity
  8
1
  6
Continuous
100
AcDbCircle
 10
152.05
 20
97.65
 30
0.0
 40
2.549999999999998
100
AcDbArc
 50
218.1841829999999
 51
294.00459
  0
ARC
  5
1C3F9
330
1C277
100
AcDbEntity
  8
1
  6
Continuous
100
AcDbCircle
 10
152.05
 20
97.65
 30
0.0
 40
2.549999999999998
100
AcDbArc
 50
65.99540999999999
 51
145.6770149999998
  0
LINE
  5
1C3FA
330
1C277
100
AcDbEntity
  8
1
  6
Continuous
100
AcDbLine
 10
140.4873649999998
 20
99.979458
 30
0.0
 11
145.718285
 21
97.65
 31
0.0
  0
ARC
  5
1C3FB
330
1C277
100
AcDbEntity
  8
1
  6
Continuous
100
AcDbCircle
 10
151.0
 20
90.15
 30
0.0
 40
6.0
100
AcDbArc
 50
90.0
 51
114.00459
  0
ARC
  5
1C3FC
330
1C277
100
AcDbEntity
  8
1
  6
Continuous
100
AcDbCircle
 10
151.0
 20
90.15
 30
0.0
 40
9.0
100
AcDbArc
 50
90.0
 51
114.00459
  0
LINE
  5
1C3FD
330
1C277
100
AcDbEntity
  8
1
  6
Continuous
100
AcDbLine
 10
140.4873649999998
 20
95.32054200000001
 30
0.0
 11
147.3387119999999
 21
98.37161600000001
 31
0.0
  0
LINE
  5
1C3FE
330
1C277
100
AcDbEntity
  8
1
  6
Continuous
100
AcDbLine
 10
141.707795
 20
92.580004
 30
0.0
 11
148.5591409999998
 21
95.63107700000001
 31
0.0
  0
ARC
  5
1C3FF
330
1C277
100
AcDbEntity
  8
1
  6
Continuous
100
AcDbCircle
 10
125.8
 20
105.15
 30
0.0
 40
6.0
100
AcDbArc
 50
260.8475609999999
 51
270.0
  0
ARC
  5
1C400
330
1C277
100
AcDbEntity
  8
1
  6
Continuous
100
AcDbCircle
 10
125.8
 20
97.65
 30
0.0
 40
1.5
100
AcDbArc
 50
270.0
 51
90.0
  0
ARC
  5
1C401
330
1C277
100
AcDbEntity
  8
1
  6
Continuous
100
AcDbCircle
 10
126.8499999999998
 20
97.65
 30
0.0
 40
2.549999999999998
100
AcDbArc
 50
218.1841829999999
 51
294.00459
  0
LINE
  5
1C402
330
1C277
100
AcDbEntity
  8
1
  6
Continuous
100
AcDbLine
 10
129.1077949999998
 20
102.7199959999999
 30
0.0
 11
134.5674009999999
 21
100.2886989999998
 31
0.0
  0
LINE
  5
1C403
330
1C277
100
AcDbEntity
  8
1
  6
Continuous
100
AcDbLine
 10
127.8873649999999
 20
99.979458
 30
0.0
 11
133.1182849999999
 21
97.65
 31
0.0
  0
ARC
  5
1C404
330
1C277
100
AcDbEntity
  8
1
  6
Continuous
100
AcDbCircle
 10
126.8499999999998
 20
97.65
 30
0.0
 40
2.549999999999998
100
AcDbArc
 50
65.99540999999999
 51
145.6770149999998
  0
LINE
  5
1C405
330
1C277
100
AcDbEntity
  8
1
  6
Continuous
100
AcDbLine
 10
127.8873649999999
 20
95.32054200000001
 30
0.0
 11
134.738712
 21
98.37161600000001
 31
0.0
  0
LINE
  5
1C406
330
1C277
100
AcDbEntity
  8
1
  6
Continuous
100
AcDbLine
 10
129.1077949999998
 20
92.580004
 30
0.0
 11
135.9591409999999
 21
95.63107700000001
 31
0.0
  0
ARC
  5
1C407
330
1C277
100
AcDbEntity
  8
1
  6
Continuous
100
AcDbCircle
 10
125.8
 20
90.15
 30
0.0
 40
9.0
100
AcDbArc
 50
90.0
 51
114.00459
  0
ARC
  5
1C408
330
1C277
100
AcDbEntity
  8
1
  6
Continuous
100
AcDbCircle
 10
125.8
 20
90.15
 30
0.0
 40
6.0
100
AcDbArc
 50
90.0
 51
114.00459
  0
LINE
  5
1C409
330
1C277
100
AcDbEntity
  8
1
  6
Continuous
100
AcDbLine
 10
103.907795
 20
102.7199959999999
 30
0.0
 11
109.3674009999999
 21
100.2886989999998
 31
0.0
  0
LINE
  5
1C40A
330
1C277
100
AcDbEntity
  8
1
  6
Continuous
100
AcDbLine
 10
102.6873649999999
 20
95.32054200000001
 30
0.0
 11
109.538712
 21
98.37161600000001
 31
0.0
  0
LINE
  5
1C40B
330
1C277
100
AcDbEntity
  8
1
  6
Continuous
100
AcDbLine
 10
102.6873649999999
 20
99.979458
 30
0.0
 11
107.918285
 21
97.65
 31
0.0
  0
LINE
  5
1C40C
330
1C277
100
AcDbEntity
  8
1
  6
Continuous
100
AcDbLine
 10
103.907795
 20
92.580004
 30
0.0
 11
110.7591409999999
 21
95.63107700000001
 31
0.0
  0
ARC
  5
1C40D
330
1C277
100
AcDbEntity
  8
1
  6
Continuous
100
AcDbCircle
 10
114.25
 20
97.65
 30
0.0
 40
2.549999999999998
100
AcDbArc
 50
218.1841829999999
 51
294.00459
  0
LINE
  5
1C40E
330
1C277
100
AcDbEntity
  8
1
  6
Continuous
100
AcDbLine
 10
116.507795
 20
102.7199959999999
 30
0.0
 11
121.967401
 21
100.2886989999998
 31
0.0
  0
ARC
  5
1C40F
330
1C277
100
AcDbEntity
  8
1
  6
Continuous
100
AcDbCircle
 10
113.2
 20
105.15
 30
0.0
 40
6.0
100
AcDbArc
 50
260.8475609999999
 51
270.0
  0
ARC
  5
1C410
330
1C277
100
AcDbEntity
  8
1
  6
Continuous
100
AcDbCircle
 10
114.25
 20
97.65
 30
0.0
 40
2.549999999999998
100
AcDbArc
 50
65.99540999999999
 51
145.6770149999998
  0
ARC
  5
1C411
330
1C277
100
AcDbEntity
  8
1
  6
Continuous
100
AcDbCircle
 10
114.25
 20
97.65
 30
0.0
 40
5.549999999999998
100
AcDbArc
 50
65.99540999999999
 51
176.35203
  0
ARC
  5
1C412
330
1C277
100
AcDbEntity
  8
1
  6
Continuous
100
AcDbCircle
 10
113.2
 20
97.65
 30
0.0
 40
1.5
100
AcDbArc
 50
270.0
 51
90.0
  0
ARC
  5
1C413
330
1C277
100
AcDbEntity
  8
1
  6
Continuous
100
AcDbCircle
 10
113.2
 20
90.15
 30
0.0
 40
6.0
100
AcDbArc
 50
90.0
 51
114.00459
  0
LINE
  5
1C414
330
1C277
100
AcDbEntity
  8
1
  6
Continuous
100
AcDbLine
 10
115.2873649999998
 20
99.979458
 30
0.0
 11
120.518285
 21
97.65
 31
0.0
  0
ARC
  5
1C415
330
1C277
100
AcDbEntity
  8
1
  6
Continuous
100
AcDbCircle
 10
113.2
 20
90.15
 30
0.0
 40
9.0
100
AcDbArc
 50
90.0
 51
114.00459
  0
ARC
  5
1C416
330
1C277
100
AcDbEntity
  8
1
  6
Continuous
100
AcDbCircle
 10
101.65
 20
97.65
 30
0.0
 40
2.549999999999998
100
AcDbArc
 50
65.99540999999999
 51
294.00459
  0
LINE
  5
1C417
330
1C277
100
AcDbEntity
  8
4
  6
CENTER
100
AcDbLine
 10
360.890525
 20
46.55
 30
0.0
 11
377.6094749999999
 21
46.55
 31
0.0
  0
LINE
  5
1C418
330
1C277
100
AcDbEntity
  8
4
  6
CENTER
100
AcDbLine
 10
369.2499999999999
 20
55.074937
 30
0.0
 11
369.2499999999999
 21
38.02506300000001
 31
0.0
  0
LINE
  5
1C419
330
1C277
100
AcDbEntity
  8
1
  6
Continuous
100
AcDbLine
 10
367.75
 20
49.100429
 30
0.0
 11
367.75
 21
43.0
 31
0.0
  0
LINE
  5
1C41A
330
1C277
100
AcDbEntity
  8
1
  6
Continuous
100
AcDbLine
 10
370.75
 20
43.999571
 30
0.0
 11
370.75
 21
50.1
 31
0.0
  0
LINE
  5
1C41B
330
1C277
100
AcDbEntity
  8
1
  6
Continuous
100
AcDbLine
 10
366.6999999999999
 20
45.04999999999999
 30
0.0
 11
367.75
 21
45.04999999999999
 31
0.0
  0
LINE
  5
1C41C
330
1C277
100
AcDbEntity
  8
1
  6
Continuous
100
AcDbLine
 10
367.75
 20
48.04999999999999
 30
0.0
 11
366.6999999999999
 21
48.04999999999999
 31
0.0
  0
ARC
  5
1C41D
330
1C277
100
AcDbEntity
  8
1
  6
Continuous
100
AcDbCircle
 10
368.75
 20
50.1
 30
0.0
 40
2.0
100
AcDbArc
 50
0.0
 51
104.697313
  0
ARC
  5
1C41E
330
1C277
100
AcDbEntity
  8
1
  6
Continuous
100
AcDbCircle
 10
367.2499999999998
 20
49.100429
 30
0.0
 40
0.5
100
AcDbArc
 50
0.0
 51
90.0
  0
ARC
  5
1C41F
330
1C277
100
AcDbEntity
  8
1
  6
Continuous
100
AcDbCircle
 10
366.6999999999999
 20
48.04999999999999
 30
0.0
 40
3.0
100
AcDbArc
 50
125.648735
 51
270.0
  0
ARC
  5
1C420
330
1C277
100
AcDbEntity
  8
1
  6
Continuous
100
AcDbCircle
 10
370.779701
 20
42.361763
 30
0.0
 40
10.0
100
AcDbArc
 50
104.697313
 51
125.648735
  0
ARC
  5
1C421
330
1C277
100
AcDbEntity
  8
1
  6
Continuous
100
AcDbCircle
 10
370.779701
 20
42.361763
 30
0.0
 40
7.0
100
AcDbArc
 50
115.6463009999997
 51
126.12052
  0
ARC
  5
1C422
330
1C277
100
AcDbEntity
  8
1
  6
Continuous
100
AcDbCircle
 10
367.3042259999999
 20
47.12424399999998
 30
0.0
 40
1.104225999999999
100
AcDbArc
 50
126.12052
 51
236.8252549999999
  0
ARC
  5
1C423
330
1C277
100
AcDbEntity
  8
1
  6
Continuous
100
AcDbCircle
 10
371.2499999999999
 20
43.999571
 30
0.0
 40
0.5
100
AcDbArc
 50
180.0
 51
270.0
  0
ARC
  5
1C424
330
1C277
100
AcDbEntity
  8
1
  6
Continuous
100
AcDbCircle
 10
367.720299
 20
50.738237
 30
0.0
 40
10.0
100
AcDbArc
 50
284.697313
 51
305.6487349999998
  0
ARC
  5
1C425
330
1C277
100
AcDbEntity
  8
1
  6
Continuous
100
AcDbCircle
 10
369.75
 20
43.0
 30
0.0
 40
2.0
100
AcDbArc
 50
180.0
 51
284.697313
  0
LINE
  5
1C426
330
1C277
100
AcDbEntity
  8
1
  6
Continuous
100
AcDbLine
 10
370.75
 20
48.04999999999999
 30
0.0
 11
371.7999999999999
 21
48.04999999999999
 31
0.0
  0
ARC
  5
1C427
330
1C277
100
AcDbEntity
  8
1
  6
Continuous
100
AcDbCircle
 10
367.720299
 20
50.738237
 30
0.0
 40
7.0
100
AcDbArc
 50
295.6463009999998
 51
306.1205199999998
  0
ARC
  5
1C428
330
1C277
100
AcDbEntity
  8
1
  6
Continuous
100
AcDbCircle
 10
371.1957739999999
 20
45.97575599999998
 30
0.0
 40
1.104225999999999
100
AcDbArc
 50
306.1205199999998
 51
56.82525499999999
  0
ARC
  5
1C429
330
1C277
100
AcDbEntity
  8
1
  6
Continuous
100
AcDbCircle
 10
371.7999999999999
 20
45.04999999999999
 30
0.0
 40
3.0
100
AcDbArc
 50
305.6487349999998
 51
90.0
  0
LINE
  5
1C42A
330
1C277
100
AcDbEntity
  8
1
  6
Continuous
100
AcDbLine
 10
370.75
 20
45.04999999999999
 30
0.0
 11
371.7999999999999
 21
45.04999999999999
 31
0.0
  0
LINE
  5
1C42B
330
1C277
100
AcDbEntity
  8
4
  6
CENTER
100
AcDbLine
 10
91.09999999999999
 20
46.55
 30
0.0
 11
308.6999999999998
 21
46.55
 31
0.0
  0
LINE
  5
1C42C
330
1C277
100
AcDbEntity
  8
4
  6
CENTER
100
AcDbLine
 10
91.09999999999999
 20
97.65
 30
0.0
 11
308.6999999999998
 21
97.65
 31
0.0
  0
LINE
  5
1C42D
330
1C277
100
AcDbEntity
  8
4
  6
CENTER
100
AcDbLine
 10
30.55
 20
55.074937
 30
0.0
 11
30.55
 21
38.02506300000001
 31
0.0
  0
ARC
  5
1C42E
330
1C277
100
AcDbEntity
  8
1
  6
Continuous
100
AcDbCircle
 10
31.05
 20
50.1
 30
0.0
 40
2.0
100
AcDbArc
 50
75.302687
 51
180.0
  0
ARC
  5
1C42F
330
1C277
100
AcDbEntity
  8
1
  6
Continuous
100
AcDbCircle
 10
29.020299
 20
42.361763
 30
0.0
 40
10.0
100
AcDbArc
 50
54.351265
 51
75.302687
  0
ARC
  5
1C430
330
1C277
100
AcDbEntity
  8
1
  6
Continuous
100
AcDbCircle
 10
28.0
 20
45.04999999999999
 30
0.0
 40
3.0
100
AcDbArc
 50
90.0
 51
234.3512649999999
  0
ARC
  5
1C431
330
1C277
100
AcDbEntity
  8
1
  6
Continuous
100
AcDbCircle
 10
32.079701
 20
50.738237
 30
0.0
 40
10.0
100
AcDbArc
 50
234.3512649999999
 51
255.302687
  0
LINE
  5
1C432
330
1C277
100
AcDbEntity
  8
4
  6
CENTER
100
AcDbLine
 10
22.190525
 20
46.55
 30
0.0
 11
38.909475
 21
46.55
 31
0.0
  0
LINE
  5
1C433
330
1C277
100
AcDbEntity
  8
1
  6
Continuous
100
AcDbLine
 10
33.1
 20
45.04999999999999
 30
0.0
 11
27.47439
 21
45.04999999999999
 31
0.0
  0
LINE
  5
1C434
330
1C277
100
AcDbEntity
  8
1
  6
Continuous
100
AcDbLine
 10
28.0
 20
48.04999999999999
 30
0.0
 11
33.62560999999999
 21
48.04999999999999
 31
0.0
  0
LINE
  5
1C435
330
1C277
100
AcDbEntity
  8
1
  6
Continuous
100
AcDbLine
 10
29.05
 20
44.42785599999999
 30
0.0
 11
29.05
 21
45.04999999999999
 31
0.0
  0
LINE
  5
1C436
330
1C277
100
AcDbEntity
  8
1
  6
Continuous
100
AcDbLine
 10
32.05
 20
48.672144
 30
0.0
 11
32.05
 21
48.04999999999999
 31
0.0
  0
ARC
  5
1C437
330
1C277
100
AcDbEntity
  8
1
  6
Continuous
100
AcDbCircle
 10
30.05
 20
43.0
 30
0.0
 40
2.0
100
AcDbArc
 50
255.302687
 51
0.0
  0
ARC
  5
1C438
330
1C277
100
AcDbEntity
  8
1
  6
Continuous
100
AcDbCircle
 10
29.020299
 20
42.361763
 30
0.0
 40
7.0
100
AcDbArc
 50
53.87948000000001
 51
76.388419
  0
ARC
  5
1C439
330
1C277
100
AcDbEntity
  8
1
  6
Continuous
100
AcDbCircle
 10
33.1
 20
48.04999999999999
 30
0.0
 40
3.0
100
AcDbArc
 50
270.0
 51
54.351265
  0
ARC
  5
1C43A
330
1C277
100
AcDbEntity
  8
1
  6
Continuous
100
AcDbCircle
 10
30.55
 20
48.6792
 30
0.0
 40
0.5
100
AcDbArc
 50
76.388419
 51
180.0
  0
ARC
  5
1C43B
330
1C277
100
AcDbEntity
  8
1
  6
Continuous
100
AcDbCircle
 10
33.62560999999999
 20
48.79999999999999
 30
0.0
 40
0.75
100
AcDbArc
 50
270.0
 51
0.0
  0
LINE
  5
1C43C
330
1C277
100
AcDbEntity
  8
1
  6
Continuous
100
AcDbLine
 10
32.05
 20
45.04999999999999
 30
0.0
 11
32.05
 21
43.0
 31
0.0
  0
LINE
  5
1C43D
330
1C277
100
AcDbEntity
  8
1
  6
Continuous
100
AcDbLine
 10
29.05
 20
48.04999999999999
 30
0.0
 11
29.05
 21
50.1
 31
0.0
  0
ARC
  5
1C43E
330
1C277
100
AcDbEntity
  8
1
  6
Continuous
100
AcDbCircle
 10
27.47439
 20
44.29999999999998
 30
0.0
 40
0.75
100
AcDbArc
 50
90.0
 51
180.0
  0
ARC
  5
1C43F
330
1C277
100
AcDbEntity
  8
1
  6
Continuous
100
AcDbCircle
 10
32.079701
 20
50.738237
 30
0.0
 40
7.0
100
AcDbArc
 50
233.8794799999998
 51
256.388419
  0
ARC
  5
1C440
330
1C277
100
AcDbEntity
  8
1
  6
Continuous
100
AcDbCircle
 10
30.55
 20
44.42079999999999
 30
0.0
 40
0.5
100
AcDbArc
 50
256.388419
 51
0.0
  0
ENDSEC
  0
SECTION
  2
OBJECTS
  0
DICTIONARY
  5
1C265
330
0
100
AcDbDictionary
281
     1
  3
ACAD_CIP_PREVIOUS_PRODUCT_INFO
350
1C4A0
  3
ACAD_COLOR
350
1C482
  3
ACAD_DETAILVIEWSTYLE
350
1C49B
  3
ACAD_GROUP
350
1C266
  3
ACAD_LAYOUT
350
1C272
  3
ACAD_MATERIAL
350
1C450
  3
ACAD_MLEADERSTYLE
350
1C497
  3
ACAD_MLINESTYLE
350
1C26F
  3
ACAD_PLOTSETTINGS
350
1C271
  3
ACAD_PLOTSTYLENAME
350
1C44E
  3
ACAD_SCALELIST
350
1C485
  3
ACAD_SECTIONVIEWSTYLE
350
1C499
  3
ACAD_TABLESTYLE
350
1C483
  3
ACAD_VISUALSTYLE
350
1C469
  3
ACDB_RECOMPOSE_DATA
350
1C4BE
  3
AcDbVariableDictionary
350
1C4B1
  3
DWGPROPS
350
1C4BF
  0
DICTIONARY
  5
1C4A1
330
1C269
100
AcDbDictionary
280
     1
281
     1
  3
ADSK_XREC_LAYER_RECONCILED
360
1C4A2
  0
DICTIONARY
  5
1C4A3
330
1C27F
100
AcDbDictionary
280
     1
281
     1
  3
ADSK_XREC_LAYER_RECONCILED
360
1C4A4
  0
DICTIONARY
  5
1C4A5
330
1C280
100
AcDbDictionary
280
     1
281
     1
  3
ADSK_XREC_LAYER_RECONCILED
360
1C4A6
  0
DICTIONARY
  5
1C4A7
330
1C281
100
AcDbDictionary
280
     1
281
     1
  3
ADSK_XREC_LAYER_RECONCILED
360
1C4A8
  0
DICTIONARY
  5
1C4A9
330
1C282
100
AcDbDictionary
280
     1
281
     1
  3
ADSK_XREC_LAYER_RECONCILED
360
1C4AA
  0
DICTIONARY
  5
1C4AB
330
1C283
100
AcDbDictionary
280
     1
281
     1
  3
ADSK_XREC_LAYER_RECONCILED
360
1C4AC
  0
DICTIONARY
  5
1C4AD
330
1C284
100
AcDbDictionary
280
     1
281
     1
  3
ADSK_XREC_LAYER_RECONCILED
360
1C4AE
  0
DICTIONARY
  5
1C4AF
330
1C285
100
AcDbDictionary
280
     1
281
     1
  3
ADSK_XREC_LAYER_RECONCILED
360
1C4B0
  0
DICTIONARY
  5
1C449
330
1C277
100
AcDbDictionary
281
     1
  3
ACAD_LAYOUTSELFREF
350
1C44A
  0
DICTIONARY
  5
1C447
330
1C273
100
AcDbDictionary
281
     1
  3
ACAD_LAYOUTSELFREF
350
1C448
  0
XRECORD
  5
1C4A0
102
{ACAD_REACTORS
330
1C265
102
}
330
1C265
100
AcDbXrecord
280
     1
300
ACDLT
300
2014
300
ACDLT_F_S
  0
DICTIONARY
  5
1C482
102
{ACAD_REACTORS
330
1C265
102
}
330
1C265
100
AcDbDictionary
281
     1
  0
DICTIONARY
  5
1C49B
102
{ACAD_REACTORS
330
1C265
102
}
330
1C265
100
AcDbDictionary
281
     1
  3
Imperial24
350
1C49C
  0
DICTIONARY
  5
1C266
102
{ACAD_REACTORS
330
1C265
102
}
330
1C265
100
AcDbDictionary
281
     1
  0
DICTIONARY
  5
1C272
102
{ACAD_REACTORS
330
1C265
102
}
330
1C265
100
AcDbDictionary
281
     1
  3
Model
350
1C49D
  3
レイアウト1
350
1C49E
  0
DICTIONARY
  5
1C450
102
{ACAD_REACTORS
330
1C265
102
}
330
1C265
100
AcDbDictionary
281
     1
  3
ByBlock
350
1C459
  3
ByLayer
350
1C451
  3
Global
350
1C461
  0
DICTIONARY
  5
1C497
102
{ACAD_REACTORS
330
1C265
102
}
330
1C265
100
AcDbDictionary
281
     1
  3
Standard
350
1C498
  0
DICTIONARY
  5
1C26F
102
{ACAD_REACTORS
330
1C265
102
}
330
1C265
100
AcDbDictionary
281
     1
  3
STANDARD
350
1C270
  0
DICTIONARY
  5
1C271
102
{ACAD_REACTORS
330
1C265
102
}
330
1C265
100
AcDbDictionary
281
     1
  0
ACDBDICTIONARYWDFLT
  5
1C44E
102
{ACAD_REACTORS
330
1C265
102
}
330
1C265
100
AcDbDictionary
281
     1
  3
Normal
350
1C44F
100
AcDbDictionaryWithDefault
340
1C44F
  0
DICTIONARY
  5
1C485
102
{ACAD_REACTORS
330
1C265
102
}
330
1C265
100
AcDbDictionary
281
     1
  3
A0
350
1C486
  3
A1
350
1C487
  3
A2
350
1C488
  3
A3
350
1C489
  3
A4
350
1C48A
  3
A5
350
1C48B
  3
A6
350
1C48C
  3
A7
350
1C48D
  3
A8
350
1C48E
  3
A9
350
1C48F
  3
B0
350
1C490
  3
B1
350
1C491
  3
B2
350
1C492
  3
B3
350
1C493
  3
B4
350
1C494
  3
B5
350
1C495
  3
B6
350
1C496
  0
DICTIONARY
  5
1C499
102
{ACAD_REACTORS
330
1C265
102
}
330
1C265
100
AcDbDictionary
281
     1
  3
Imperial24
350
1C49A
  0
DICTIONARY
  5
1C483
102
{ACAD_REACTORS
330
1C265
102
}
330
1C265
100
AcDbDictionary
281
     1
  3
Standard
350
1C484
  0
DICTIONARY
  5
1C469
102
{ACAD_REACTORS
330
1C265
102
}
330
1C265
100
AcDbDictionary
281
     1
  3
2dWireframe
350
1C46F
  3
Basic
350
1C46E
  3
Brighten
350
1C475
  3
ColorChange
350
1C479
  3
Conceptual
350
1C472
  3
Dim
350
1C474
  3
EdgeColorOff
350
1C481
  3
Facepattern
350
1C478
  3
Flat
350
1C46A
  3
FlatWithEdges
350
1C46B
  3
Gouraud
350
1C46C
  3
GouraudWithEdges
350
1C46D
  3
Hidden
350
1C471
  3
JitterOff
350
1C47F
  3
Linepattern
350
1C477
  3
OverhangOff
350
1C480
  3
Realistic
350
1C473
  3
Shaded
350
1C47E
  3
Shaded with edges
350
1C47D
  3
Shades of Gray
350
1C47A
  3
Sketchy
350
1C47B
  3
Thicken
350
1C476
  3
Wireframe
350
1C470
  3
X-Ray
350
1C47C
  0
XRECORD
  5
1C4BE
102
{ACAD_REACTORS
330
1C265
102
}
330
1C265
100
AcDbXrecord
280
     1
 90
        1
330
1C484
  0
DICTIONARY
  5
1C4B1
102
{ACAD_REACTORS
330
1C265
102
}
330
1C265
100
AcDbDictionary
281
     1
  3
CANNOSCALE
350
1C4B6
  3
CMLEADERSTYLE
350
1C4B3
  3
CTABLESTYLE
350
1C4B2
  3
CVIEWDETAILSTYLE
350
1C4B4
  3
CVIEWSECTIONSTYLE
350
1C4B5
  3
DIMASSOC
350
1C4B9
  3
INDEXCTL
350
1C4B8
  3
SORTENTS
350
1C4B7
  3
XCLIPFRAME
350
1C4BA
  0
XRECORD
  5
1C4BF
102
{ACAD_REACTORS
330
1C265
102
}
330
1C265
100
AcDbXrecord
280
     1
  1
DWGPROPS COOKIE
  2

  3

  4

  6

  7

  8
Yoshitsune
  9

300
=
301
=
302
=
303
=
304
=
305
=
306
=
307
=
308
=
309
=
 40
0.0000098842592593
 41
2451285.442851968
 42
2457192.65678831
  1

 90
        0
  0
XRECORD
  5
1C4A2
102
{ACAD_REACTORS
330
1C4A1
102
}
330
1C4A1
100
AcDbXrecord
280
     1
290
     1
  0
XRECORD
  5
1C4A4
102
{ACAD_REACTORS
330
1C4A3
102
}
330
1C4A3
100
AcDbXrecord
280
     1
290
     1
  0
XRECORD
  5
1C4A6
102
{ACAD_REACTORS
330
1C4A5
102
}
330
1C4A5
100
AcDbXrecord
280
     1
290
     1
  0
XRECORD
  5
1C4A8
102
{ACAD_REACTORS
330
1C4A7
102
}
330
1C4A7
100
AcDbXrecord
280
     1
290
     1
  0
XRECORD
  5
1C4AA
102
{ACAD_REACTORS
330
1C4A9
102
}
330
1C4A9
100
AcDbXrecord
280
     1
290
     1
  0
XRECORD
  5
1C4AC
102
{ACAD_REACTORS
330
1C4AB
102
}
330
1C4AB
100
AcDbXrecord
280
     1
290
     1
  0
XRECORD
  5
1C4AE
102
{ACAD_REACTORS
330
1C4AD
102
}
330
1C4AD
100
AcDbXrecord
280
     1
290
     1
  0
XRECORD
  5
1C4B0
102
{ACAD_REACTORS
330
1C4AF
102
}
330
1C4AF
100
AcDbXrecord
280
     1
290
     1
  0
XRECORD
  5
1C44A
102
{ACAD_REACTORS
330
1C449
102
}
330
1C449
100
AcDbXrecord
280
     1
340
1C277
  0
XRECORD
  5
1C448
102
{ACAD_REACTORS
330
1C447
102
}
330
1C447
100
AcDbXrecord
280
     1
340
1C273
  0
ACDBDETAILVIEWSTYLE
  5
1C49C
102
{ACAD_XDICTIONARY
360
1C4F7
102
}
102
{ACAD_REACTORS
330
1C49B
102
}
330
1C49B
100
AcDbModelDocViewStyle
 70
     0
  3
Imperial24
290
     0
100
AcDbDetailViewStyle
 70
     0
 71
     0
 90
        3
 71
     1
340
1C26A
 40
0.24
340
0
 40
0.24
300

 40
0.36
280
     3
 71
     2
340
1C26E
 90
       25
 71
     3
340
1C26A
 40
0.24
 90
        1
 40
0.75
 90
        1
300
%<\AcVar ViewType \f "%tc1">% %<\AcVar ViewDetailId>%\PSCALE %<\AcVar ViewScale \f "%sn">%
 71
     4
340
1C26E
 90
       25
340
1C26E
 90
       25
280
     0
  0
LAYOUT
  5
1C49D
102
{ACAD_XDICTIONARY
360
1C4F9
102
}
102
{ACAD_REACTORS
330
1C272
102
}
330
1C272
100
AcDbPlotSettings
  1

  2
Canon LBP9100C
  4

  6

 40
0.0
 41
0.0
 42
0.0
 43
0.0
 44
0.0
 45
0.0
 46
0.0
 47
0.0
 48
0.0
 49
0.0
140
0.0
141
0.0
142
1.0
143
1.0
 70
  1712
 72
     0
 73
     0
 74
     0
  7

 75
     0
147
1.0
148
0.0
149
0.0
100
AcDbLayout
  1
Model
 70
     1
 71
     0
 10
0.0
 20
0.0
 11
12.0
 21
9.0
 12
0.0
 22
0.0
 32
0.0
 14
0.0
 24
0.0
 34
0.0
 15
0.0
 25
0.0
 35
0.0
146
0.0
 13
0.0
 23
0.0
 33
0.0
 16
1.0
 26
0.0
 36
0.0
 17
0.0
 27
1.0
 37
0.0
 76
     0
330
1C277
331
1C446
  0
LAYOUT
  5
1C49E
102
{ACAD_XDICTIONARY
360
1C4FB
102
}
102
{ACAD_REACTORS
330
1C272
102
}
330
1C272
100
AcDbPlotSettings
  1

  2
Canon LBP9100C
  4

  6

 40
0.0
 41
0.0
 42
0.0
 43
0.0
 44
0.0
 45
0.0
 46
0.0
 47
0.0
 48
0.0
 49
0.0
140
0.0
141
0.0
142
1.0
143
1.0
 70
   688
 72
     0
 73
     0
 74
     5
  7

 75
    16
147
1.0
148
0.0
149
0.0
100
AcDbLayout
  1
レイアウト1
 70
     0
 71
     1
 10
0.0
 20
0.0
 11
420.0
 21
297.0
 12
0.0
 22
0.0
 32
0.0
 14
1.000000000000000E+20
 24
1.000000000000000E+20
 34
1.000000000000000E+20
 15
-1.000000000000000E+20
 25
-1.000000000000000E+20
 35
-1.000000000000000E+20
146
0.0
 13
0.0
 23
0.0
 33
0.0
 16
1.0
 26
0.0
 36
0.0
 17
0.0
 27
1.0
 37
0.0
 76
     0
330
1C273
  0
MATERIAL
  5
1C459
102
{ACAD_XDICTIONARY
360
1C45A
102
}
102
{ACAD_REACTORS
330
1C450
102
}
330
1C450
100
AcDbMaterial
  1
ByBlock
 72
     0
 43
0.0208333333333333
 43
0.0
 43
0.0
 43
0.0
 43
0.0
 43
0.0208333333333333
 43
0.0
 43
0.0
 43
0.0
 43
0.0
 43
1.0
 43
0.0
 43
0.0
 43
0.0
 43
0.0
 43
1.0
 77
     0
 47
0.0208333333333333
 47
0.0
 47
0.0
 47
0.0
 47
0.0
 47
0.0208333333333333
 47
0.0
 47
0.0
 47
0.0
 47
0.0
 47
1.0
 47
0.0
 47
0.0
 47
0.0
 47
0.0
 47
1.0
171
     0
 49
0.0208333333333333
 49
0.0
 49
0.0
 49
0.0
 49
0.0
 49
0.0208333333333333
 49
0.0
 49
0.0
 49
0.0
 49
0.0
 49
1.0
 49
0.0
 49
0.0
 49
0.0
 49
0.0
 49
1.0
175
     0
142
0.0208333333333333
142
0.0
142
0.0
142
0.0
142
0.0
142
0.0208333333333333
142
0.0
142
0.0
142
0.0
142
0.0
142
1.0
142
0.0
142
0.0
142
0.0
142
0.0
142
1.0
179
     0
144
0.0208333333333333
144
0.0
144
0.0
144
0.0
144
0.0
144
0.0208333333333333
144
0.0
144
0.0
144
0.0
144
0.0
144
1.0
144
0.0
144
0.0
144
0.0
144
0.0
144
1.0
147
0.0208333333333333
147
0.0
147
0.0
147
0.0
147
0.0
147
0.0208333333333333
147
0.0
147
0.0
147
0.0
147
0.0
147
1.0
147
0.0
147
0.0
147
0.0
147
0.0
147
1.0
  0
MATERIAL
  5
1C451
102
{ACAD_XDICTIONARY
360
1C452
102
}
102
{ACAD_REACTORS
330
1C450
102
}
330
1C450
100
AcDbMaterial
  1
ByLayer
 72
     0
 43
0.0208333333333333
 43
0.0
 43
0.0
 43
0.0
 43
0.0
 43
0.0208333333333333
 43
0.0
 43
0.0
 43
0.0
 43
0.0
 43
1.0
 43
0.0
 43
0.0
 43
0.0
 43
0.0
 43
1.0
 77
     0
 47
0.0208333333333333
 47
0.0
 47
0.0
 47
0.0
 47
0.0
 47
0.0208333333333333
 47
0.0
 47
0.0
 47
0.0
 47
0.0
 47
1.0
 47
0.0
 47
0.0
 47
0.0
 47
0.0
 47
1.0
171
     0
 49
0.0208333333333333
 49
0.0
 49
0.0
 49
0.0
 49
0.0
 49
0.0208333333333333
 49
0.0
 49
0.0
 49
0.0
 49
0.0
 49
1.0
 49
0.0
 49
0.0
 49
0.0
 49
0.0
 49
1.0
175
     0
142
0.0208333333333333
142
0.0
142
0.0
142
0.0
142
0.0
142
0.0208333333333333
142
0.0
142
0.0
142
0.0
142
0.0
142
1.0
142
0.0
142
0.0
142
0.0
142
0.0
142
1.0
179
     0
144
0.0208333333333333
144
0.0
144
0.0
144
0.0
144
0.0
144
0.0208333333333333
144
0.0
144
0.0
144
0.0
144
0.0
144
1.0
144
0.0
144
0.0
144
0.0
144
0.0
144
1.0
147
0.0208333333333333
147
0.0
147
0.0
147
0.0
147
0.0
147
0.0208333333333333
147
0.0
147
0.0
147
0.0
147
0.0
147
1.0
147
0.0
147
0.0
147
0.0
147
0.0
147
1.0
  0
MATERIAL
  5
1C461
102
{ACAD_XDICTIONARY
360
1C462
102
}
102
{ACAD_REACTORS
330
1C450
102
}
330
1C450
100
AcDbMaterial
  1
Global
 72
     0
 43
0.0208333333333333
 43
0.0
 43
0.0
 43
0.0
 43
0.0
 43
0.0208333333333333
 43
0.0
 43
0.0
 43
0.0
 43
0.0
 43
1.0
 43
0.0
 43
0.0
 43
0.0
 43
0.0
 43
1.0
 77
     0
 47
0.0208333333333333
 47
0.0
 47
0.0
 47
0.0
 47
0.0
 47
0.0208333333333333
 47
0.0
 47
0.0
 47
0.0
 47
0.0
 47
1.0
 47
0.0
 47
0.0
 47
0.0
 47
0.0
 47
1.0
171
     0
 49
0.0208333333333333
 49
0.0
 49
0.0
 49
0.0
 49
0.0
 49
0.0208333333333333
 49
0.0
 49
0.0
 49
0.0
 49
0.0
 49
1.0
 49
0.0
 49
0.0
 49
0.0
 49
0.0
 49
1.0
175
     0
142
0.0208333333333333
142
0.0
142
0.0
142
0.0
142
0.0
142
0.0208333333333333
142
0.0
142
0.0
142
0.0
142
0.0
142
1.0
142
0.0
142
0.0
142
0.0
142
0.0
142
1.0
179
     0
144
0.0208333333333333
144
0.0
144
0.0
144
0.0
144
0.0
144
0.0208333333333333
144
0.0
144
0.0
144
0.0
144
0.0
144
1.0
144
0.0
144
0.0
144
0.0
144
0.0
144
1.0
147
0.0208333333333333
147
0.0
147
0.0
147
0.0
147
0.0
147
0.0208333333333333
147
0.0
147
0.0
147
0.0
147
0.0
147
1.0
147
0.0
147
0.0
147
0.0
147
0.0
147
1.0
  0
MLEADERSTYLE
  5
1C498
102
{ACAD_REACTORS
330
1C497
102
}
330
1C497
100
AcDbMLeaderStyle
170
     2
171
     1
172
     0
 90
        2
 40
0.0
 41
0.0
173
     1
 91
-1056964608
340
1C26C
 92
       -2
290
     1
 42
0.09
291
     1
 43
0.36
  3
Standard
 44
0.18
300

342
1C26A
174
     1
178
     6
175
     1
176
     0
 93
-1056964608
 45
0.18
292
     0
297
     0
 46
0.18
 94
-1056964608
 47
1.0
 49
1.0
140
1.0
293
     1
141
0.0
294
     1
177
     0
142
1.0
295
     0
296
     0
143
0.125
1001
ACAD_MLEADERVER
1070
     2
  0
MLINESTYLE
  5
1C270
102
{ACAD_REACTORS
330
1C26F
102
}
330
1C26F
100
AcDbMlineStyle
  2
STANDARD
 70
     0
  3

 62
   256
 51
90.0
 52
90.0
 71
     2
 49
0.5
 62
   256
  6
BYLAYER
 49
-0.5
 62
   256
  6
BYLAYER
  0
ACDBPLACEHOLDER
  5
1C44F
102
{ACAD_REACTORS
330
1C44E
102
}
330
1C44E
  0
SCALE
  5
1C486
102
{ACAD_REACTORS
330
1C485
102
}
330
1C485
100
AcDbScale
 70
     0
300
1:1
140
1.0
141
1.0
290
     1
  0
SCALE
  5
1C487
102
{ACAD_REACTORS
330
1C485
102
}
330
1C485
100
AcDbScale
 70
     0
300
1/128" = 1'-0"
140
0.0078125
141
12.0
290
     0
  0
SCALE
  5
1C488
102
{ACAD_REACTORS
330
1C485
102
}
330
1C485
100
AcDbScale
 70
     0
300
1/64" = 1'-0"
140
0.015625
141
12.0
290
     0
  0
SCALE
  5
1C489
102
{ACAD_REACTORS
330
1C485
102
}
330
1C485
100
AcDbScale
 70
     0
300
1/32" = 1'-0"
140
0.03125
141
12.0
290
     0
  0
SCALE
  5
1C48A
102
{ACAD_REACTORS
330
1C485
102
}
330
1C485
100
AcDbScale
 70
     0
300
1/16" = 1'-0"
140
0.0625
141
12.0
290
     0
  0
SCALE
  5
1C48B
102
{ACAD_REACTORS
330
1C485
102
}
330
1C485
100
AcDbScale
 70
     0
300
3/32" = 1'-0"
140
0.09375
141
12.0
290
     0
  0
SCALE
  5
1C48C
102
{ACAD_REACTORS
330
1C485
102
}
330
1C485
100
AcDbScale
 70
     0
300
1/8" = 1'-0"
140
0.125
141
12.0
290
     0
  0
SCALE
  5
1C48D
102
{ACAD_REACTORS
330
1C485
102
}
330
1C485
100
AcDbScale
 70
     0
300
3/16" = 1'-0"
140
0.1875
141
12.0
290
     0
  0
SCALE
  5
1C48E
102
{ACAD_REACTORS
330
1C485
102
}
330
1C485
100
AcDbScale
 70
     0
300
1/4" = 1'-0"
140
0.25
141
12.0
290
     0
  0
SCALE
  5
1C48F
102
{ACAD_REACTORS
330
1C485
102
}
330
1C485
100
AcDbScale
 70
     0
300
3/8" = 1'-0"
140
0.375
141
12.0
290
     0
  0
SCALE
  5
1C490
102
{ACAD_REACTORS
330
1C485
102
}
330
1C485
100
AcDbScale
 70
     0
300
1/2" = 1'-0"
140
0.5
141
12.0
290
     0
  0
SCALE
  5
1C491
102
{ACAD_REACTORS
330
1C485
102
}
330
1C485
100
AcDbScale
 70
     0
300
3/4" = 1'-0"
140
0.75
141
12.0
290
     0
  0
SCALE
  5
1C492
102
{ACAD_REACTORS
330
1C485
102
}
330
1C485
100
AcDbScale
 70
     0
300
1" = 1'-0"
140
1.0
141
12.0
290
     0
  0
SCALE
  5
1C493
102
{ACAD_REACTORS
330
1C485
102
}
330
1C485
100
AcDbScale
 70
     0
300
1-1/2" = 1'-0"
140
1.5
141
12.0
290
     0
  0
SCALE
  5
1C494
102
{ACAD_REACTORS
330
1C485
102
}
330
1C485
100
AcDbScale
 70
     0
300
3" = 1'-0"
140
3.0
141
12.0
290
     0
  0
SCALE
  5
1C495
102
{ACAD_REACTORS
330
1C485
102
}
330
1C485
100
AcDbScale
 70
     0
300
6" = 1'-0"
140
6.0
141
12.0
290
     0
  0
SCALE
  5
1C496
102
{ACAD_REACTORS
330
1C485
102
}
330
1C485
100
AcDbScale
 70
     0
300
1'-0" = 1'-0"
140
12.0
141
12.0
290
     0
  0
ACDBSECTIONVIEWSTYLE
  5
1C49A
102
{ACAD_XDICTIONARY
360
1C4F5
102
}
102
{ACAD_REACTORS
330
1C499
102
}
330
1C499
100
AcDbModelDocViewStyle
 70
     0
  3
Imperial24
290
     0
100
AcDbSectionViewStyle
 70
     0
 71
     0
 90
       78
 71
     1
340
1C26A
 40
0.24
340
0
340
0
 40
0.24
300
I, O, Q, S, X, Z
 40
0.48
 90
        3
 40
0.18
 90
        1
 71
     2
340
1C26E
 90
       25
340
1C26E
 90
       50
 40
0.24
 40
0.0
 40
0.24
 71
     3
340
1C26A
 40
0.24
 90
        1
 40
0.75
 90
        1
300
%<\AcVar ViewType \f "%tc1">% %<\AcVar ViewSectionStartId>%-%<\AcVar ViewSectionEndId>%\PSCALE %<\AcVar ViewScale \f "%sn">%
 71
     4
300
ANSI31
 40
1.0
 90
        0
290
     0
290
     0
 90
        6
 40
0.0
 40
1.570796326794896
 40
0.2617993877991494
 40
1.308996938995747
 40
-0.2617993877991494
 40
1.832595714594046
  0
TABLESTYLE
  5
1C484
102
{ACAD_XDICTIONARY
360
1C4BC
102
}
102
{ACAD_REACTORS
330
1C483
102
}
330
1C483
100
AcDbTableStyle
  3
Standard
 70
     0
 71
     0
 40
0.06
 41
0.06
280
     0
281
     0
  7
STANDARD
140
0.18
170
     2
 62
     0
 63
     7
283
     0
274
    -2
284
     1
 64
     0
275
    -2
285
     1
 65
     0
276
    -2
286
     1
 66
     0
277
    -2
287
     1
 67
     0
278
    -2
288
     1
 68
     0
279
    -2
289
     1
 69
     0
  7
STANDARD
140
0.25
170
     5
 62
     0
 63
     7
283
     0
274
    -2
284
     1
 64
     0
275
    -2
285
     1
 65
     0
276
    -2
286
     1
 66
     0
277
    -2
287
     1
 67
     0
278
    -2
288
     1
 68
     0
279
    -2
289
     1
 69
     0
  7
STANDARD
140
0.18
170
     5
 62
     0
 63
     7
283
     0
274
    -2
284
     1
 64
     0
275
    -2
285
     1
 65
     0
276
    -2
286
     1
 66
     0
277
    -2
287
     1
 67
     0
278
    -2
288
     1
 68
     0
279
    -2
289
     1
 69
     0
  0
VISUALSTYLE
  5
1C46F
102
{ACAD_XDICTIONARY
360
1C4CD
102
}
102
{ACAD_REACTORS
330
1C469
102
}
330
1C469
100
AcDbVisualStyle
  2
2dWireframe
 70
     4
 71
     0
 72
     2
 73
     0
 90
        0
 40
-0.6
 41
-30.0
 62
     5
 63
     7
 74
     1
 91
        4
 64
     7
 65
   257
 75
     1
175
     1
 42
1.0
 92
        0
 66
   257
 43
1.0
 76
     1
 77
     6
 78
     2
 67
     7
 79
     5
170
     0
171
     0
290
     0
174
     0
 93
        1
 44
0.0
173
     0
291
     0
 45
0.0
1001
ACAD
1000
AcDbSavedByObjectVersion
1070
     0
  0
VISUALSTYLE
  5
1C46E
102
{ACAD_XDICTIONARY
360
1C4CB
102
}
102
{ACAD_REACTORS
330
1C469
102
}
330
1C469
100
AcDbVisualStyle
  2
Basic
 70
     7
 71
     1
 72
     0
 73
     1
 90
        0
 40
-0.6
 41
-30.0
 62
     5
 63
     7
 74
     0
 91
        4
 64
     7
 65
   257
 75
     1
175
     1
 42
1.0
 92
        8
 66
     7
 43
1.0
 76
     1
 77
     6
 78
     2
 67
     7
 79
     5
170
     0
171
     0
290
     0
174
     0
 93
        1
 44
0.0
173
     0
291
     1
 45
0.0
1001
ACAD
1000
AcDbSavedByObjectVersion
1070
     0
  0
VISUALSTYLE
  5
1C475
102
{ACAD_XDICTIONARY
360
1C4D9
102
}
102
{ACAD_REACTORS
330
1C469
102
}
330
1C469
100
AcDbVisualStyle
  2
Brighten
 70
    12
 71
     2
 72
     2
 73
     0
 90
        0
 40
-0.6
 41
-30.0
 62
     5
 63
     7
 74
     1
 91
        4
 64
     7
 65
   257
 75
     1
175
     1
 42
1.0
 92
        8
 66
     7
 43
1.0
 76
     1
 77
     6
 78
     2
 67
     7
 79
     5
170
     0
171
     0
290
     0
174
     0
 93
        1
 44
50.0
173
     0
291
     1
 45
0.0
1001
ACAD
1000
AcDbSavedByObjectVersion
1070
     0
  0
VISUALSTYLE
  5
1C479
102
{ACAD_XDICTIONARY
360
1C4E1
102
}
102
{ACAD_REACTORS
330
1C469
102
}
330
1C469
100
AcDbVisualStyle
  2
ColorChange
 70
    16
 71
     2
 72
     2
 73
     3
 90
        0
 40
-0.6
 41
-30.0
 62
     5
 63
     8
 74
     1
 91
        4
 64
     7
 65
   257
 75
     1
175
     1
 42
1.0
 92
        8
 66
     8
 43
1.0
 76
     1
 77
     6
 78
     2
 67
     7
 79
     5
170
     0
171
     0
290
     0
174
     0
 93
        1
 44
0.0
173
     0
291
     1
 45
0.0
1001
ACAD
1000
AcDbSavedByObjectVersion
1070
     0
  0
VISUALSTYLE
  5
1C472
102
{ACAD_XDICTIONARY
360
1C4D3
102
}
102
{ACAD_REACTORS
330
1C469
102
}
330
1C469
100
AcDbVisualStyle
  2
Conceptual
 70
     9
 71
     3
 72
     2
 73
     0
 90
        0
 40
-0.6
 41
-30.0
 62
     5
 63
     7
 74
     2
 91
        2
 64
     7
 65
   257
 75
     1
175
     1
 42
179.0
 92
        8
 66
     7
 43
1.0
 76
     1
 77
     6
 78
     2
 67
     7
 79
     3
170
     0
171
     0
290
     0
174
     0
 93
        1
 44
0.0
173
     0
291
     0
 45
0.0
1001
ACAD
1000
AcDbSavedByObjectVersion
1070
     0
  0
VISUALSTYLE
  5
1C474
102
{ACAD_XDICTIONARY
360
1C4D7
102
}
102
{ACAD_REACTORS
330
1C469
102
}
330
1C469
100
AcDbVisualStyle
  2
Dim
 70
    11
 71
     2
 72
     2
 73
     0
 90
        0
 40
-0.6
 41
-30.0
 62
     5
 63
     7
 74
     1
 91
        4
 64
     7
 65
   257
 75
     1
175
     1
 42
1.0
 92
        8
 66
     7
 43
1.0
 76
     1
 77
     6
 78
     2
 67
     7
 79
     5
170
     0
171
     0
290
     0
174
     0
 93
        1
 44
-50.0
173
     0
291
     1
 45
0.0
1001
ACAD
1000
AcDbSavedByObjectVersion
1070
     0
  0
VISUALSTYLE
  5
1C481
102
{ACAD_XDICTIONARY
360
1C4F1
102
}
102
{ACAD_REACTORS
330
1C469
102
}
330
1C469
100
AcDbVisualStyle
  2
EdgeColorOff
 70
    22
 71
     2
 72
     2
 73
     0
 90
        0
 40
-0.6
 41
-30.0
 62
     5
 63
     7
 74
     1
 91
        4
 64
     7
 65
   257
 75
     1
175
     1
 42
1.0
 92
        8
 66
     7
 43
1.0
 76
     1
 77
     6
 78
     2
 67
     7
 79
     5
170
     0
171
     0
290
     0
174
     0
 93
        1
 44
0.0
173
     0
291
     1
 45
0.0
1001
ACAD
1000
AcDbSavedByObjectVersion
1070
     0
  0
VISUALSTYLE
  5
1C478
102
{ACAD_XDICTIONARY
360
1C4DF
102
}
102
{ACAD_REACTORS
330
1C469
102
}
330
1C469
100
AcDbVisualStyle
  2
Facepattern
 70
    15
 71
     2
 72
     2
 73
     0
 90
        0
 40
-0.6
 41
-30.0
 62
     5
 63
     7
 74
     1
 91
        4
 64
     7
 65
   257
 75
     1
175
     1
 42
1.0
 92
        8
 66
     7
 43
1.0
 76
     1
 77
     6
 78
     2
 67
     7
 79
     5
170
     0
171
     0
290
     0
174
     0
 93
        1
 44
0.0
173
     0
291
     1
 45
0.0
1001
ACAD
1000
AcDbSavedByObjectVersion
1070
     0
  0
VISUALSTYLE
  5
1C46A
102
{ACAD_XDICTIONARY
360
1C4C3
102
}
102
{ACAD_REACTORS
330
1C469
102
}
330
1C469
100
AcDbVisualStyle
  2
Flat
 70
     0
 71
     2
 72
     1
 73
     1
 90
        2
 40
-0.6
 41
30.0
 62
     5
 63
     7
 74
     0
 91
        0
 64
     7
 65
   257
 75
     1
175
     1
 42
1.0
 92
        8
 66
     7
 43
1.0
 76
     1
 77
     6
 78
     2
 67
     7
 79
     5
170
     0
171
     0
290
     0
174
     0
 93
       13
 44
0.0
173
     0
291
     1
 45
0.0
1001
ACAD
1000
AcDbSavedByObjectVersion
1070
     0
  0
VISUALSTYLE
  5
1C46B
102
{ACAD_XDICTIONARY
360
1C4C5
102
}
102
{ACAD_REACTORS
330
1C469
102
}
330
1C469
100
AcDbVisualStyle
  2
FlatWithEdges
 70
     1
 71
     2
 72
     1
 73
     1
 90
        2
 40
-0.6
 41
30.0
 62
     5
 63
     7
 74
     1
 91
        0
 64
     7
 65
   257
 75
     1
175
     1
 42
1.0
 92
        0
 66
   257
 43
1.0
 76
     1
 77
     6
 78
     2
 67
     7
 79
     5
170
     0
171
     0
290
     0
174
     0
 93
       13
 44
0.0
173
     0
291
     1
 45
0.0
1001
ACAD
1000
AcDbSavedByObjectVersion
1070
     0
  0
VISUALSTYLE
  5
1C46C
102
{ACAD_XDICTIONARY
360
1C4C7
102
}
102
{ACAD_REACTORS
330
1C469
102
}
330
1C469
100
AcDbVisualStyle
  2
Gouraud
 70
     2
 71
     2
 72
     2
 73
     1
 90
        2
 40
-0.6
 41
30.0
 62
     5
 63
     7
 74
     0
 91
        0
 64
     7
 65
   257
 75
     1
175
     1
 42
1.0
 92
        0
 66
     7
 43
1.0
 76
     1
 77
     6
 78
     2
 67
     7
 79
     5
170
     0
171
     0
290
     0
174
     0
 93
       13
 44
0.0
173
     0
291
     1
 45
0.0
1001
ACAD
1000
AcDbSavedByObjectVersion
1070
     0
  0
VISUALSTYLE
  5
1C46D
102
{ACAD_XDICTIONARY
360
1C4C9
102
}
102
{ACAD_REACTORS
330
1C469
102
}
330
1C469
100
AcDbVisualStyle
  2
GouraudWithEdges
 70
     3
 71
     2
 72
     2
 73
     1
 90
        2
 40
-0.6
 41
30.0
 62
     5
 63
     7
 74
     1
 91
        0
 64
     7
 65
   257
 75
     1
175
     1
 42
1.0
 92
        0
 66
   257
 43
1.0
 76
     1
 77
     6
 78
     2
 67
     7
 79
     5
170
     0
171
     0
290
     0
174
     0
 93
       13
 44
0.0
173
     0
291
     1
 45
0.0
1001
ACAD
1000
AcDbSavedByObjectVersion
1070
     0
  0
VISUALSTYLE
  5
1C471
102
{ACAD_XDICTIONARY
360
1C4D1
102
}
102
{ACAD_REACTORS
330
1C469
102
}
330
1C469
100
AcDbVisualStyle
  2
Hidden
 70
     6
 71
     1
 72
     2
 73
     2
 90
        0
 40
-0.6
 41
-30.0
 62
     5
 63
     7
 74
     2
 91
        2
 64
     7
 65
   257
 75
     2
175
     1
 42
40.0
 92
        0
 66
   257
 43
1.0
 76
     1
 77
     6
 78
     2
 67
     7
 79
     3
170
     0
171
     0
290
     0
174
     0
 93
        1
 44
0.0
173
     0
291
     0
 45
0.0
1001
ACAD
1000
AcDbSavedByObjectVersion
1070
     0
  0
VISUALSTYLE
  5
1C47F
102
{ACAD_XDICTIONARY
360
1C4ED
102
}
102
{ACAD_REACTORS
330
1C469
102
}
330
1C469
100
AcDbVisualStyle
  2
JitterOff
 70
    20
 71
     2
 72
     2
 73
     0
 90
        0
 40
-0.6
 41
-30.0
 62
     5
 63
     7
 74
     1
 91
        4
 64
     7
 65
   257
 75
     1
175
     1
 42
1.0
 92
       10
 66
     7
 43
1.0
 76
     1
 77
     6
 78
     2
 67
     7
 79
     5
170
     0
171
     0
290
     0
174
     0
 93
        1
 44
0.0
173
     0
291
     1
 45
0.0
1001
ACAD
1000
AcDbSavedByObjectVersion
1070
     0
  0
VISUALSTYLE
  5
1C477
102
{ACAD_XDICTIONARY
360
1C4DD
102
}
102
{ACAD_REACTORS
330
1C469
102
}
330
1C469
100
AcDbVisualStyle
  2
Linepattern
 70
    14
 71
     2
 72
     2
 73
     0
 90
        0
 40
-0.6
 41
-30.0
 62
     5
 63
     7
 74
     1
 91
        4
 64
     7
 65
   257
 75
     7
175
     7
 42
1.0
 92
        8
 66
     7
 43
1.0
 76
     1
 77
     6
 78
     2
 67
     7
 79
     5
170
     0
171
     0
290
     0
174
     0
 93
        1
 44
0.0
173
     0
291
     1
 45
0.0
1001
ACAD
1000
AcDbSavedByObjectVersion
1070
     0
  0
VISUALSTYLE
  5
1C480
102
{ACAD_XDICTIONARY
360
1C4EF
102
}
102
{ACAD_REACTORS
330
1C469
102
}
330
1C469
100
AcDbVisualStyle
  2
OverhangOff
 70
    21
 71
     2
 72
     2
 73
     0
 90
        0
 40
-0.6
 41
-30.0
 62
     5
 63
     7
 74
     1
 91
        4
 64
     7
 65
   257
 75
     1
175
     1
 42
1.0
 92
        9
 66
     7
 43
1.0
 76
     1
 77
     6
 78
     2
 67
     7
 79
     5
170
     0
171
     0
290
     0
174
     0
 93
        1
 44
0.0
173
     0
291
     1
 45
0.0
1001
ACAD
1000
AcDbSavedByObjectVersion
1070
     0
  0
VISUALSTYLE
  5
1C473
102
{ACAD_XDICTIONARY
360
1C4D5
102
}
102
{ACAD_REACTORS
330
1C469
102
}
330
1C469
100
AcDbVisualStyle
  2
Realistic
 70
     8
 71
     2
 72
     3
 73
     0
 90
        2
 40
-0.6
 41
30.0
 62
     5
 63
     7
 74
     0
 91
        0
 64
     7
 65
   257
 75
     1
175
     1
 42
1.0
 92
        8
 66
   257
 43
1.0
 76
     1
 77
     6
 78
     2
 67
     7
 79
     3
170
     0
171
     0
290
     0
174
     0
 93
       13
 44
0.0
173
     0
291
     0
 45
0.0
1001
ACAD
1000
AcDbSavedByObjectVersion
1070
     0
  0
VISUALSTYLE
  5
1C47E
102
{ACAD_XDICTIONARY
360
1C4EB
102
}
102
{ACAD_REACTORS
330
1C469
102
}
330
1C469
100
AcDbVisualStyle
  2
Shaded
 70
    27
 71
     2
 72
     2
 73
     1
 90
        2
 40
-0.6
 41
30.0
 62
     5
 63
     7
 74
     0
 91
        4
 64
     7
 65
   257
 75
     1
175
     1
 42
1.0
 92
        8
 66
   257
 43
1.0
 76
     1
 77
     6
 78
     2
 67
     8
 79
     3
170
     0
171
     0
290
     0
174
     0
 93
        5
 44
0.0
173
     0
291
     0
 45
0.0
1001
ACAD
1000
AcDbSavedByObjectVersion
1070
     0
  0
VISUALSTYLE
  5
1C47D
102
{ACAD_XDICTIONARY
360
1C4E9
102
}
102
{ACAD_REACTORS
330
1C469
102
}
330
1C469
100
AcDbVisualStyle
  2
Shaded with edges
 70
    26
 71
     2
 72
     2
 73
     1
 90
        2
 40
-0.6
 41
30.0
 62
     5
 63
     7
 74
     1
 91
       10
 64
     7
 65
   257
 75
     2
175
     1
 42
1.0
 92
        8
 66
   257
 43
1.0
 76
     1
 77
     6
 78
     2
 67
     7
 79
     3
170
     0
171
     0
290
     0
174
     0
 93
        5
 44
0.0
173
     0
291
     0
 45
0.0
1001
ACAD
1000
AcDbSavedByObjectVersion
1070
     0
  0
VISUALSTYLE
  5
1C47A
102
{ACAD_XDICTIONARY
360
1C4E3
102
}
102
{ACAD_REACTORS
330
1C469
102
}
330
1C469
100
AcDbVisualStyle
  2
Shades of Gray
 70
    23
 71
     2
 72
     2
 73
     3
 90
        0
 40
-0.6
 41
-30.0
 62
     5
 63
     7
 74
     2
 91
        2
 64
     7
 65
     7
 75
     1
175
     1
 42
40.0
 92
        8
 66
     7
 43
1.0
 76
     1
 77
     6
 78
     2
 67
     7
 79
     3
170
     0
171
     0
290
     0
174
     0
 93
        1
 44
0.0
173
     0
291
     0
 45
0.0
1001
ACAD
1000
AcDbSavedByObjectVersion
1070
     0
  0
VISUALSTYLE
  5
1C47B
102
{ACAD_XDICTIONARY
360
1C4E5
102
}
102
{ACAD_REACTORS
330
1C469
102
}
330
1C469
100
AcDbVisualStyle
  2
Sketchy
 70
    24
 71
     1
 72
     2
 73
     2
 90
        0
 40
-0.6
 41
-30.0
 62
     5
 63
     7
 74
     2
 91
        2
 64
     7
 65
     7
 75
     1
175
     1
 42
40.0
 92
       11
 66
     7
 43
1.0
 76
     1
 77
     6
 78
     2
 67
     7
 79
     6
170
     0
171
     0
290
     0
174
     0
 93
        1
 44
0.0
173
     0
291
     0
 45
0.0
1001
ACAD
1000
AcDbSavedByObjectVersion
1070
     0
  0
VISUALSTYLE
  5
1C476
102
{ACAD_XDICTIONARY
360
1C4DB
102
}
102
{ACAD_REACTORS
330
1C469
102
}
330
1C469
100
AcDbVisualStyle
  2
Thicken
 70
    13
 71
     2
 72
     2
 73
     0
 90
        0
 40
-0.6
 41
-30.0
 62
     5
 63
     7
 74
     1
 91
        4
 64
     7
 65
   257
 75
     1
175
     1
 42
1.0
 92
       12
 66
     7
 43
1.0
 76
     1
 77
     6
 78
     2
 67
     7
 79
     5
170
     0
171
     0
290
     0
174
     0
 93
        1
 44
0.0
173
     0
291
     1
 45
0.0
1001
ACAD
1000
AcDbSavedByObjectVersion
1070
     0
  0
VISUALSTYLE
  5
1C470
102
{ACAD_XDICTIONARY
360
1C4CF
102
}
102
{ACAD_REACTORS
330
1C469
102
}
330
1C469
100
AcDbVisualStyle
  2
Wireframe
 70
     5
 71
     0
 72
     2
 73
     0
 90
        0
 40
-0.6
 41
-30.0
 62
     5
 63
     7
 74
     1
 91
        4
 64
     7
 65
   257
 75
     1
175
     1
 42
1.0
 92
        0
 66
   257
 43
1.0
 76
     1
 77
     6
 78
     2
 67
     7
 79
     3
170
     0
171
     0
290
     0
174
     0
 93
        1
 44
0.0
173
     0
291
     0
 45
0.0
1001
ACAD
1000
AcDbSavedByObjectVersion
1070
     0
  0
VISUALSTYLE
  5
1C47C
102
{ACAD_XDICTIONARY
360
1C4E7
102
}
102
{ACAD_REACTORS
330
1C469
102
}
330
1C469
100
AcDbVisualStyle
  2
X-Ray
 70
    25
 71
     2
 72
     2
 73
     1
 90
        1
 40
0.5
 41
-30.0
 62
     5
 63
     7
 74
     1
 91
        0
 64
     7
 65
   257
 75
     1
175
     1
 42
1.0
 92
        8
 66
     7
 43
1.0
 76
     1
 77
     6
 78
     2
 67
     7
 79
     3
170
     0
171
     0
290
     0
174
     0
 93
       13
 44
0.0
173
     0
291
     0
 45
0.0
1001
ACAD
1000
AcDbSavedByObjectVersion
1070
     0
  0
DICTIONARYVAR
  5
1C4B6
102
{ACAD_REACTORS
330
1C4B1
102
}
330
1C4B1
100
DictionaryVariables
280
     0
  1
1:1
  0
DICTIONARYVAR
  5
1C4B3
102
{ACAD_REACTORS
330
1C4B1
102
}
330
1C4B1
100
DictionaryVariables
280
     0
  1
STANDARD
  0
DICTIONARYVAR
  5
1C4B2
102
{ACAD_REACTORS
330
1C4B1
102
}
330
1C4B1
100
DictionaryVariables
280
     0
  1
STANDARD
  0
DICTIONARYVAR
  5
1C4B4
102
{ACAD_REACTORS
330
1C4B1
102
}
330
1C4B1
100
DictionaryVariables
280
     0
  1
Imperial24
  0
DICTIONARYVAR
  5
1C4B5
102
{ACAD_REACTORS
330
1C4B1
102
}
330
1C4B1
100
DictionaryVariables
280
     0
  1
Imperial24
  0
DICTIONARYVAR
  5
1C4B9
102
{ACAD_REACTORS
330
1C4B1
102
}
330
1C4B1
100
DictionaryVariables
280
     0
  1
1
  0
DICTIONARYVAR
  5
1C4B8
102
{ACAD_REACTORS
330
1C4B1
102
}
330
1C4B1
100
DictionaryVariables
280
     0
  1
0
  0
DICTIONARYVAR
  5
1C4B7
102
{ACAD_REACTORS
330
1C4B1
102
}
330
1C4B1
100
DictionaryVariables
280
     0
  1
127
  0
DICTIONARYVAR
  5
1C4BA
102
{ACAD_REACTORS
330
1C4B1
102
}
330
1C4B1
100
DictionaryVariables
280
     0
  1
2
  0
DICTIONARY
  5
1C4F7
330
1C49C
100
AcDbDictionary
280
     1
281
     1
  3
ACAD_XREC_ROUNDTRIP
360
1C4F8
  0
DICTIONARY
  5
1C4F9
330
1C49D
100
AcDbDictionary
280
     1
281
     1
  3
ACAD_XREC_ROUNDTRIP
360
1C4FA
  0
DICTIONARY
  5
1C4FB
330
1C49E
100
AcDbDictionary
280
     1
281
     1
  3
ACAD_XREC_ROUNDTRIP
360
1C4FC
  0
DICTIONARY
  5
1C45A
330
1C459
100
AcDbDictionary
280
     1
281
     1
  3
ACAD_XREC_ROUNDTRIP
360
1C4C1
  3
BUMPTILE
360
1C45C
  3
DIFFUSETILE
360
1C45B
  3
OPACITYTILE
360
1C45F
  3
REFLECTIONTILE
360
1C45E
  3
REFRACTIONTILE
360
1C460
  3
SPECULARTILE
360
1C45D
  0
DICTIONARY
  5
1C452
330
1C451
100
AcDbDictionary
280
     1
281
     1
  3
ACAD_XREC_ROUNDTRIP
360
1C4C0
  3
BUMPTILE
360
1C454
  3
DIFFUSETILE
360
1C453
  3
OPACITYTILE
360
1C457
  3
REFLECTIONTILE
360
1C456
  3
REFRACTIONTILE
360
1C458
  3
SPECULARTILE
360
1C455
  0
DICTIONARY
  5
1C462
330
1C461
100
AcDbDictionary
280
     1
281
     1
  3
ACAD_XREC_ROUNDTRIP
360
1C4C2
  3
BUMPTILE
360
1C464
  3
DIFFUSETILE
360
1C463
  3
OPACITYTILE
360
1C467
  3
REFLECTIONTILE
360
1C466
  3
REFRACTIONTILE
360
1C468
  3
SPECULARTILE
360
1C465
  0
DICTIONARY
  5
1C4F5
330
1C49A
100
AcDbDictionary
280
     1
281
     1
  3
ACAD_XREC_ROUNDTRIP
360
1C4F6
  0
DICTIONARY
  5
1C4BC
330
1C484
100
AcDbDictionary
280
     1
281
     1
  3
ACAD_ROUNDTRIP_2008_TABLESTYLE_CELLSTYLEMAP
360
1C4BD
  3
ACAD_XREC_ROUNDTRIP
360
1C4F3
  0
DICTIONARY
  5
1C4CD
330
1C46F
100
AcDbDictionary
280
     1
281
     1
  3
ACAD_XREC_ROUNDTRIP
360
1C4CE
  0
DICTIONARY
  5
1C4CB
330
1C46E
100
AcDbDictionary
280
     1
281
     1
  3
ACAD_XREC_ROUNDTRIP
360
1C4CC
  0
DICTIONARY
  5
1C4D9
330
1C475
100
AcDbDictionary
280
     1
281
     1
  3
ACAD_XREC_ROUNDTRIP
360
1C4DA
  0
DICTIONARY
  5
1C4E1
330
1C479
100
AcDbDictionary
280
     1
281
     1
  3
ACAD_XREC_ROUNDTRIP
360
1C4E2
  0
DICTIONARY
  5
1C4D3
330
1C472
100
AcDbDictionary
280
     1
281
     1
  3
ACAD_XREC_ROUNDTRIP
360
1C4D4
  0
DICTIONARY
  5
1C4D7
330
1C474
100
AcDbDictionary
280
     1
281
     1
  3
ACAD_XREC_ROUNDTRIP
360
1C4D8
  0
DICTIONARY
  5
1C4F1
330
1C481
100
AcDbDictionary
280
     1
281
     1
  3
ACAD_XREC_ROUNDTRIP
360
1C4F2
  0
DICTIONARY
  5
1C4DF
330
1C478
100
AcDbDictionary
280
     1
281
     1
  3
ACAD_XREC_ROUNDTRIP
360
1C4E0
  0
DICTIONARY
  5
1C4C3
330
1C46A
100
AcDbDictionary
280
     1
281
     1
  3
ACAD_XREC_ROUNDTRIP
360
1C4C4
  0
DICTIONARY
  5
1C4C5
330
1C46B
100
AcDbDictionary
280
     1
281
     1
  3
ACAD_XREC_ROUNDTRIP
360
1C4C6
  0
DICTIONARY
  5
1C4C7
330
1C46C
100
AcDbDictionary
280
     1
281
     1
  3
ACAD_XREC_ROUNDTRIP
360
1C4C8
  0
DICTIONARY
  5
1C4C9
330
1C46D
100
AcDbDictionary
280
     1
281
     1
  3
ACAD_XREC_ROUNDTRIP
360
1C4CA
  0
DICTIONARY
  5
1C4D1
330
1C471
100
AcDbDictionary
280
     1
281
     1
  3
ACAD_XREC_ROUNDTRIP
360
1C4D2
  0
DICTIONARY
  5
1C4ED
330
1C47F
100
AcDbDictionary
280
     1
281
     1
  3
ACAD_XREC_ROUNDTRIP
360
1C4EE
  0
DICTIONARY
  5
1C4DD
330
1C477
100
AcDbDictionary
280
     1
281
     1
  3
ACAD_XREC_ROUNDTRIP
360
1C4DE
  0
DICTIONARY
  5
1C4EF
330
1C480
100
AcDbDictionary
280
     1
281
     1
  3
ACAD_XREC_ROUNDTRIP
360
1C4F0
  0
DICTIONARY
  5
1C4D5
330
1C473
100
AcDbDictionary
280
     1
281
     1
  3
ACAD_XREC_ROUNDTRIP
360
1C4D6
  0
DICTIONARY
  5
1C4EB
330
1C47E
100
AcDbDictionary
280
     1
281
     1
  3
ACAD_XREC_ROUNDTRIP
360
1C4EC
  0
DICTIONARY
  5
1C4E9
330
1C47D
100
AcDbDictionary
280
     1
281
     1
  3
ACAD_XREC_ROUNDTRIP
360
1C4EA
  0
DICTIONARY
  5
1C4E3
330
1C47A
100
AcDbDictionary
280
     1
281
     1
  3
ACAD_XREC_ROUNDTRIP
360
1C4E4
  0
DICTIONARY
  5
1C4E5
330
1C47B
100
AcDbDictionary
280
     1
281
     1
  3
ACAD_XREC_ROUNDTRIP
360
1C4E6
  0
DICTIONARY
  5
1C4DB
330
1C476
100
AcDbDictionary
280
     1
281
     1
  3
ACAD_XREC_ROUNDTRIP
360
1C4DC
  0
DICTIONARY
  5
1C4CF
330
1C470
100
AcDbDictionary
280
     1
281
     1
  3
ACAD_XREC_ROUNDTRIP
360
1C4D0
  0
DICTIONARY
  5
1C4E7
330
1C47C
100
AcDbDictionary
280
     1
281
     1
  3
ACAD_XREC_ROUNDTRIP
360
1C4E8
  0
XRECORD
  5
1C4F8
102
{ACAD_REACTORS
330
1C4F7
102
}
330
1C4F7
100
AcDbXrecord
280
     1
102
DISPLAYNAME
  1
Imperial24
102
FLAGS
 90
        0
  0
XRECORD
  5
1C4FA
102
{ACAD_REACTORS
330
1C4F9
102
}
330
1C4F9
100
AcDbXrecord
280
     1
102
SHADEPLOT
 70
     0
102
SHADEPLOTRESLEVEL
 70
     2
102
SHADEPLOTCUSTOMDPI
 70
   300
  0
XRECORD
  5
1C4FC
102
{ACAD_REACTORS
330
1C4FB
102
}
330
1C4FB
100
AcDbXrecord
280
     1
102
SHADEPLOT
 70
     0
102
SHADEPLOTRESLEVEL
 70
     2
102
SHADEPLOTCUSTOMDPI
 70
   300
  0
XRECORD
  5
1C4C1
102
{ACAD_REACTORS
330
1C45A
102
}
330
1C45A
100
AcDbXrecord
280
     1
102
MATERIAL
148
0.0
149
0.0
149
0.0
 93
        0
 94
      127
282
     0
 72
     0
 77
     0
171
     0
175
     0
179
     0
273
     0
  0
XRECORD
  5
1C45C
102
{ACAD_REACTORS
330
1C45A
102
}
330
1C45A
100
AcDbXrecord
280
     1
270
     1
271
     1
  0
XRECORD
  5
1C45B
102
{ACAD_REACTORS
330
1C45A
102
}
330
1C45A
100
AcDbXrecord
280
     1
270
     1
271
     1
  0
XRECORD
  5
1C45F
102
{ACAD_REACTORS
330
1C45A
102
}
330
1C45A
100
AcDbXrecord
280
     1
270
     1
271
     1
  0
XRECORD
  5
1C45E
102
{ACAD_REACTORS
330
1C45A
102
}
330
1C45A
100
AcDbXrecord
280
     1
270
     1
271
     1
  0
XRECORD
  5
1C460
102
{ACAD_REACTORS
330
1C45A
102
}
330
1C45A
100
AcDbXrecord
280
     1
270
     1
271
     1
  0
XRECORD
  5
1C45D
102
{ACAD_REACTORS
330
1C45A
102
}
330
1C45A
100
AcDbXrecord
280
     1
270
     1
271
     1
  0
XRECORD
  5
1C4C0
102
{ACAD_REACTORS
330
1C452
102
}
330
1C452
100
AcDbXrecord
280
     1
102
MATERIAL
148
0.0
149
0.0
149
0.0
 93
        0
 94
      127
282
     0
 72
     0
 77
     0
171
     0
175
     0
179
     0
273
     0
  0
XRECORD
  5
1C454
102
{ACAD_REACTORS
330
1C452
102
}
330
1C452
100
AcDbXrecord
280
     1
270
     1
271
     1
  0
XRECORD
  5
1C453
102
{ACAD_REACTORS
330
1C452
102
}
330
1C452
100
AcDbXrecord
280
     1
270
     1
271
     1
  0
XRECORD
  5
1C457
102
{ACAD_REACTORS
330
1C452
102
}
330
1C452
100
AcDbXrecord
280
     1
270
     1
271
     1
  0
XRECORD
  5
1C456
102
{ACAD_REACTORS
330
1C452
102
}
330
1C452
100
AcDbXrecord
280
     1
270
     1
271
     1
  0
XRECORD
  5
1C458
102
{ACAD_REACTORS
330
1C452
102
}
330
1C452
100
AcDbXrecord
280
     1
270
     1
271
     1
  0
XRECORD
  5
1C455
102
{ACAD_REACTORS
330
1C452
102
}
330
1C452
100
AcDbXrecord
280
     1
270
     1
271
     1
  0
XRECORD
  5
1C4C2
102
{ACAD_REACTORS
330
1C462
102
}
330
1C462
100
AcDbXrecord
280
     1
102
MATERIAL
148
0.0
149
0.0
149
0.0
 93
        0
 94
      127
282
     0
 72
     0
 77
     0
171
     0
175
     0
179
     0
273
     0
  0
XRECORD
  5
1C464
102
{ACAD_REACTORS
330
1C462
102
}
330
1C462
100
AcDbXrecord
280
     1
270
     1
271
     1
  0
XRECORD
  5
1C463
102
{ACAD_REACTORS
330
1C462
102
}
330
1C462
100
AcDbXrecord
280
     1
270
     1
271
     1
  0
XRECORD
  5
1C467
102
{ACAD_REACTORS
330
1C462
102
}
330
1C462
100
AcDbXrecord
280
     1
270
     1
271
     1
  0
XRECORD
  5
1C466
102
{ACAD_REACTORS
330
1C462
102
}
330
1C462
100
AcDbXrecord
280
     1
270
     1
271
     1
  0
XRECORD
  5
1C468
102
{ACAD_REACTORS
330
1C462
102
}
330
1C462
100
AcDbXrecord
280
     1
270
     1
271
     1
  0
XRECORD
  5
1C465
102
{ACAD_REACTORS
330
1C462
102
}
330
1C462
100
AcDbXrecord
280
     1
270
     1
271
     1
  0
XRECORD
  5
1C4F6
102
{ACAD_REACTORS
330
1C4F5
102
}
330
1C4F5
100
AcDbXrecord
280
     1
102
DISPLAYNAME
  1
Imperial24
102
FLAGS
 90
        0
  0
CELLSTYLEMAP
  5
1C4BD
102
{ACAD_REACTORS
330
1C4BC
102
}
330
1C4BC
100
AcDbCellStyleMap
 90
        3
300
CELLSTYLE
  1
TABLEFORMAT_BEGIN
 90
        5
170
     1
 91
        0
 92
    32768
 62
   257
 93
        1
300
CONTENTFORMAT
  1
CONTENTFORMAT_BEGIN
 90
        0
 91
        0
 92
      512
 93
        0
300

 40
0.0
140
1.0
 94
        5
 62
     0
340
1C26A
144
0.25
309
CONTENTFORMAT_END
171
     0
 94
        0
309
TABLEFORMAT_END
  1
CELLSTYLE_BEGIN
 90
        1
 91
        1
300
_TITLE
309
CELLSTYLE_END
300
CELLSTYLE
  1
TABLEFORMAT_BEGIN
 90
        5
170
     1
 91
        0
 92
        0
 62
   257
 93
        1
300
CONTENTFORMAT
  1
CONTENTFORMAT_BEGIN
 90
        0
 91
        0
 92
      512
 93
        0
300

 40
0.0
140
1.0
 94
        5
 62
     0
340
1C26A
144
0.18
309
CONTENTFORMAT_END
171
     0
 94
        0
309
TABLEFORMAT_END
  1
CELLSTYLE_BEGIN
 90
        2
 91
        1
300
_HEADER
309
CELLSTYLE_END
300
CELLSTYLE
  1
TABLEFORMAT_BEGIN
 90
        5
170
     1
 91
        0
 92
        0
 62
   257
 93
        1
300
CONTENTFORMAT
  1
CONTENTFORMAT_BEGIN
 90
        0
 91
        0
 92
      512
 93
        0
300

 40
0.0
140
1.0
 94
        2
 62
     0
340
1C26A
144
0.18
309
CONTENTFORMAT_END
171
     0
 94
        0
309
TABLEFORMAT_END
  1
CELLSTYLE_BEGIN
 90
        3
 91
        2
300
_DATA
309
CELLSTYLE_END
  0
XRECORD
  5
1C4F3
102
{ACAD_REACTORS
330
1C4BC
102
}
330
1C4BC
100
AcDbXrecord
280
     1
102
ACAD_ROUNDTRIP_PRE2007_TABLESTYLE
 90
      512
 91
        0
  1

 92
      512
 93
        0
  2

 94
      512
 95
        0
  3

  0
XRECORD
  5
1C4CE
102
{ACAD_REACTORS
330
1C4CD
102
}
330
1C4CD
100
AcDbXrecord
280
     1
102
RTVSPost2010Prop28
280
     1
102
RTVSPost2010PropOp28
 70
     1
102
RTVSPost2010Prop29
280
     1
102
RTVSPost2010PropOp29
 70
     1
102
RTVSPost2010Prop30
280
     0
102
RTVSPost2010PropOp30
 70
     1
102
RTVSPost2010Prop31
280
     0
102
RTVSPost2010PropOp31
 70
     1
102
RTVSPost2010Prop32
280
     0
102
RTVSPost2010PropOp32
 70
     1
102
RTVSPost2010Prop33
280
     0
102
RTVSPost2010PropOp33
 70
     1
102
RTVSPost2010Prop34
280
     0
102
RTVSPost2010PropOp34
 70
     1
102
RTVSPost2010Prop35
280
     0
102
RTVSPost2010PropOp35
 70
     1
102
RTVSPost2010Prop36
280
     0
102
RTVSPost2010PropOp36
 70
     1
102
RTVSPost2010Prop37
 90
       50
102
RTVSPost2010PropOp37
 70
     1
102
RTVSPost2010Prop38
140
0.0
102
RTVSPost2010PropOp38
 70
     1
102
RTVSPost2010Prop39
140
1.0
102
RTVSPost2010PropOp39
 70
     1
102
RTVSPost2010Prop40
 90
        0
102
RTVSPost2010PropOp40
 70
     1
102
RTVSPost2010Prop41ColorIndex
 90
       18
102
RTVSPost2010Prop41ColorRGB
 90
        0
102
RTVSPost2010PropOp41
 70
     1
102
RTVSPost2010Prop42
 90
       50
102
RTVSPost2010PropOp42
 70
     1
102
RTVSPost2010Prop43
 90
        3
102
RTVSPost2010PropOp43
 70
     1
102
RTVSPost2010Prop44ColorIndex
 90
        5
102
RTVSPost2010Prop44ColorRGB
 90
      255
102
RTVSPost2010PropOp44
 70
     1
102
RTVSPost2010Prop45
280
     0
102
RTVSPost2010PropOp45
 70
     1
102
RTVSPost2010Prop46
 90
       50
102
RTVSPost2010PropOp46
 70
     1
102
RTVSPost2010Prop47
 90
       50
102
RTVSPost2010PropOp47
 70
     1
102
RTVSPost2010Prop48
 90
       50
102
RTVSPost2010PropOp48
 70
     1
102
RTVSPost2010Prop49
280
     0
102
RTVSPost2010PropOp49
 70
     1
102
RTVSPost2010Prop50
 90
       50
102
RTVSPost2010PropOp50
 70
     1
102
RTVSPost2010Prop51ColorIndex
 90
      256
102
RTVSPost2010Prop51ColorRGB
 90
-16777216
102
RTVSPost2010PropOp51
 70
     0
102
RTVSPost2010Prop52
140
1.0
102
RTVSPost2010PropOp52
 70
     0
102
RTVSPost2010Prop53
 90
        2
102
RTVSPost2010PropOp53
 70
     1
102
RTVSPost2010Prop54
  1
strokes_ogs.tif
102
RTVSPost2010PropOp54
 70
     1
102
RTVSPost2010Prop55
280
     0
102
RTVSPost2010PropOp55
 70
     1
102
RTVSPost2010Prop56
140
1.0
102
RTVSPost2010PropOp56
 70
     1
102
RTVSPost2010Prop57
140
1.0
102
RTVSPost2010PropOp57
 70
     1
102
RTVSPropertyOp0
 70
     1
102
RTVSPropertyOp1
 70
     1
102
RTVSPropertyOp2
 70
     1
102
RTVSPropertyOp3
 70
     1
102
RTVSPropertyOp4
 70
     1
102
RTVSPropertyOp5
 70
     1
102
RTVSPropertyOp6
 70
     1
102
RTVSPropertyOp7
 70
     1
102
RTVSPropertyOp8
 70
     1
102
RTVSPropertyOp9
 70
     1
102
RTVSPropertyOp10
 70
     1
102
RTVSPropertyOp11
 70
     1
102
RTVSPropertyOp12
 70
     1
102
RTVSPropertyOp13
 70
     1
102
RTVSPropertyOp14
 70
     1
102
RTVSPropertyOp15
 70
     1
102
RTVSPropertyOp16
 70
     1
102
RTVSPropertyOp17
 70
     1
102
RTVSPropertyOp18
 70
     1
102
RTVSPropertyOp19
 70
     1
102
RTVSPropertyOp20
 70
     1
102
RTVSPropertyOp21
 70
     1
102
RTVSPropertyOp22
 70
     1
102
RTVSPropertyOp23
 70
     1
102
RTVSPropertyOp24
 70
     1
102
RTVSPropertyOp25
 70
     1
102
RTVSPropertyOp26
 70
     1
102
RTVSPropertyOp27
 70
     1
102
RTVSPropertyOp28
 70
     1
102
RTVSPropertyOp29
 70
     1
102
RTVSPropertyOp30
 70
     1
102
RTVSPropertyOp31
 70
     1
102
RTVSPropertyOp32
 70
     1
102
RTVSPropertyOp33
 70
     1
102
RTVSPropertyOp34
 70
     1
102
RTVSPropertyOp35
 70
     1
102
RTVSPropertyOp36
 70
     1
102
RTVSPropertyOp37
 70
     1
102
RTVSPropertyOp38
 70
     1
102
RTVSPropertyOp39
 70
     1
102
RTVSPropertyOp40
 70
     1
102
RTVSPropertyOp41
 70
     1
102
RTVSPropertyOp42
 70
     1
102
RTVSPropertyOp43
 70
     1
102
RTVSPropertyOp44
 70
     1
102
RTVSPropertyOp45
 70
     1
102
RTVSPropertyOp46
 70
     1
102
RTVSPropertyOp47
 70
     1
102
RTVSPropertyOp48
 70
     1
102
RTVSPropertyOp49
 70
     1
102
RTVSPropertyOp50
 70
     1
102
RTVSPropertyOp51
 70
     0
102
RTVSPropertyOp52
 70
     0
102
RTVSPropertyOp53
 70
     1
102
RTVSPropertyOp54
 70
     1
102
RTVSPropertyOp55
 70
     1
102
RTVSPropertyOp56
 70
     1
102
RTVSPropertyOp57
 70
     1
102
RTVSPropertyOp58
 70
     1
102
RTVSPropertyOp59
 70
     1
102
RTVSPropertyOp60
 70
     1
102
RTVSPropertyOp61
 70
     1
102
RTVSPropertyOp62
 70
     1
  0
XRECORD
  5
1C4CC
102
{ACAD_REACTORS
330
1C4CB
102
}
330
1C4CB
100
AcDbXrecord
280
     1
102
RTVSPost2010Prop28
280
     0
102
RTVSPost2010PropOp28
 70
     1
102
RTVSPost2010Prop29
280
     1
102
RTVSPost2010PropOp29
 70
     1
102
RTVSPost2010Prop30
280
     1
102
RTVSPost2010PropOp30
 70
     1
102
RTVSPost2010Prop31
280
     0
102
RTVSPost2010PropOp31
 70
     1
102
RTVSPost2010Prop32
280
     0
102
RTVSPost2010PropOp32
 70
     1
102
RTVSPost2010Prop33
280
     0
102
RTVSPost2010PropOp33
 70
     1
102
RTVSPost2010Prop34
280
     0
102
RTVSPost2010PropOp34
 70
     1
102
RTVSPost2010Prop35
280
     0
102
RTVSPost2010PropOp35
 70
     1
102
RTVSPost2010Prop36
280
     0
102
RTVSPost2010PropOp36
 70
     1
102
RTVSPost2010Prop37
 90
       50
102
RTVSPost2010PropOp37
 70
     1
102
RTVSPost2010Prop38
140
0.0
102
RTVSPost2010PropOp38
 70
     1
102
RTVSPost2010Prop39
140
1.0
102
RTVSPost2010PropOp39
 70
     1
102
RTVSPost2010Prop40
 90
        0
102
RTVSPost2010PropOp40
 70
     1
102
RTVSPost2010Prop41ColorIndex
 90
       18
102
RTVSPost2010Prop41ColorRGB
 90
        0
102
RTVSPost2010PropOp41
 70
     1
102
RTVSPost2010Prop42
 90
       50
102
RTVSPost2010PropOp42
 70
     1
102
RTVSPost2010Prop43
 90
        3
102
RTVSPost2010PropOp43
 70
     1
102
RTVSPost2010Prop44ColorIndex
 90
        5
102
RTVSPost2010Prop44ColorRGB
 90
      255
102
RTVSPost2010PropOp44
 70
     1
102
RTVSPost2010Prop45
280
     0
102
RTVSPost2010PropOp45
 70
     1
102
RTVSPost2010Prop46
 90
       50
102
RTVSPost2010PropOp46
 70
     1
102
RTVSPost2010Prop47
 90
       50
102
RTVSPost2010PropOp47
 70
     1
102
RTVSPost2010Prop48
 90
       50
102
RTVSPost2010PropOp48
 70
     1
102
RTVSPost2010Prop49
280
     0
102
RTVSPost2010PropOp49
 70
     1
102
RTVSPost2010Prop50
 90
       50
102
RTVSPost2010PropOp50
 70
     1
102
RTVSPost2010Prop51ColorIndex
 90
      256
102
RTVSPost2010Prop51ColorRGB
 90
-16777216
102
RTVSPost2010PropOp51
 70
     0
102
RTVSPost2010Prop52
140
1.0
102
RTVSPost2010PropOp52
 70
     0
102
RTVSPost2010Prop53
 90
        2
102
RTVSPost2010PropOp53
 70
     1
102
RTVSPost2010Prop54
  1
strokes_ogs.tif
102
RTVSPost2010PropOp54
 70
     1
102
RTVSPost2010Prop55
280
     0
102
RTVSPost2010PropOp55
 70
     1
102
RTVSPost2010Prop56
140
1.0
102
RTVSPost2010PropOp56
 70
     1
102
RTVSPost2010Prop57
140
1.0
102
RTVSPost2010PropOp57
 70
     1
102
RTVSPropertyOp0
 70
     1
102
RTVSPropertyOp1
 70
     1
102
RTVSPropertyOp2
 70
     1
102
RTVSPropertyOp3
 70
     1
102
RTVSPropertyOp4
 70
     1
102
RTVSPropertyOp5
 70
     1
102
RTVSPropertyOp6
 70
     1
102
RTVSPropertyOp7
 70
     1
102
RTVSPropertyOp8
 70
     1
102
RTVSPropertyOp9
 70
     1
102
RTVSPropertyOp10
 70
     1
102
RTVSPropertyOp11
 70
     1
102
RTVSPropertyOp12
 70
     1
102
RTVSPropertyOp13
 70
     1
102
RTVSPropertyOp14
 70
     1
102
RTVSPropertyOp15
 70
     1
102
RTVSPropertyOp16
 70
     1
102
RTVSPropertyOp17
 70
     1
102
RTVSPropertyOp18
 70
     1
102
RTVSPropertyOp19
 70
     1
102
RTVSPropertyOp20
 70
     1
102
RTVSPropertyOp21
 70
     1
102
RTVSPropertyOp22
 70
     1
102
RTVSPropertyOp23
 70
     1
102
RTVSPropertyOp24
 70
     1
102
RTVSPropertyOp25
 70
     1
102
RTVSPropertyOp26
 70
     1
102
RTVSPropertyOp27
 70
     1
102
RTVSPropertyOp28
 70
     1
102
RTVSPropertyOp29
 70
     1
102
RTVSPropertyOp30
 70
     1
102
RTVSPropertyOp31
 70
     1
102
RTVSPropertyOp32
 70
     1
102
RTVSPropertyOp33
 70
     1
102
RTVSPropertyOp34
 70
     1
102
RTVSPropertyOp35
 70
     1
102
RTVSPropertyOp36
 70
     1
102
RTVSPropertyOp37
 70
     1
102
RTVSPropertyOp38
 70
     1
102
RTVSPropertyOp39
 70
     1
102
RTVSPropertyOp40
 70
     1
102
RTVSPropertyOp41
 70
     1
102
RTVSPropertyOp42
 70
     1
102
RTVSPropertyOp43
 70
     1
102
RTVSPropertyOp44
 70
     1
102
RTVSPropertyOp45
 70
     1
102
RTVSPropertyOp46
 70
     1
102
RTVSPropertyOp47
 70
     1
102
RTVSPropertyOp48
 70
     1
102
RTVSPropertyOp49
 70
     1
102
RTVSPropertyOp50
 70
     1
102
RTVSPropertyOp51
 70
     0
102
RTVSPropertyOp52
 70
     0
102
RTVSPropertyOp53
 70
     1
102
RTVSPropertyOp54
 70
     1
102
RTVSPropertyOp55
 70
     1
102
RTVSPropertyOp56
 70
     1
102
RTVSPropertyOp57
 70
     1
102
RTVSPropertyOp58
 70
     1
102
RTVSPropertyOp59
 70
     1
102
RTVSPropertyOp60
 70
     1
102
RTVSPropertyOp61
 70
     1
102
RTVSPropertyOp62
 70
     1
  0
XRECORD
  5
1C4DA
102
{ACAD_REACTORS
330
1C4D9
102
}
330
1C4D9
100
AcDbXrecord
280
     1
102
RTVSPost2010Prop28
280
     0
102
RTVSPost2010PropOp28
 70
     1
102
RTVSPost2010Prop29
280
     1
102
RTVSPost2010PropOp29
 70
     1
102
RTVSPost2010Prop30
280
     1
102
RTVSPost2010PropOp30
 70
     1
102
RTVSPost2010Prop31
280
     0
102
RTVSPost2010PropOp31
 70
     1
102
RTVSPost2010Prop32
280
     0
102
RTVSPost2010PropOp32
 70
     1
102
RTVSPost2010Prop33
280
     0
102
RTVSPost2010PropOp33
 70
     1
102
RTVSPost2010Prop34
280
     0
102
RTVSPost2010PropOp34
 70
     1
102
RTVSPost2010Prop35
280
     0
102
RTVSPost2010PropOp35
 70
     1
102
RTVSPost2010Prop36
280
     0
102
RTVSPost2010PropOp36
 70
     1
102
RTVSPost2010Prop37
 90
       50
102
RTVSPost2010PropOp37
 70
     1
102
RTVSPost2010Prop38
140
0.0
102
RTVSPost2010PropOp38
 70
     1
102
RTVSPost2010Prop39
140
1.0
102
RTVSPost2010PropOp39
 70
     1
102
RTVSPost2010Prop40
 90
        0
102
RTVSPost2010PropOp40
 70
     1
102
RTVSPost2010Prop41ColorIndex
 90
       18
102
RTVSPost2010Prop41ColorRGB
 90
        0
102
RTVSPost2010PropOp41
 70
     1
102
RTVSPost2010Prop42
 90
       50
102
RTVSPost2010PropOp42
 70
     1
102
RTVSPost2010Prop43
 90
        3
102
RTVSPost2010PropOp43
 70
     1
102
RTVSPost2010Prop44ColorIndex
 90
        5
102
RTVSPost2010Prop44ColorRGB
 90
      255
102
RTVSPost2010PropOp44
 70
     1
102
RTVSPost2010Prop45
280
     0
102
RTVSPost2010PropOp45
 70
     1
102
RTVSPost2010Prop46
 90
       50
102
RTVSPost2010PropOp46
 70
     1
102
RTVSPost2010Prop47
 90
       50
102
RTVSPost2010PropOp47
 70
     1
102
RTVSPost2010Prop48
 90
       50
102
RTVSPost2010PropOp48
 70
     1
102
RTVSPost2010Prop49
280
     0
102
RTVSPost2010PropOp49
 70
     1
102
RTVSPost2010Prop50
 90
       50
102
RTVSPost2010PropOp50
 70
     1
102
RTVSPost2010Prop51ColorIndex
 90
      256
102
RTVSPost2010Prop51ColorRGB
 90
-16777216
102
RTVSPost2010PropOp51
 70
     0
102
RTVSPost2010Prop52
140
1.0
102
RTVSPost2010PropOp52
 70
     0
102
RTVSPost2010Prop53
 90
        2
102
RTVSPost2010PropOp53
 70
     1
102
RTVSPost2010Prop54
  1
strokes_ogs.tif
102
RTVSPost2010PropOp54
 70
     1
102
RTVSPost2010Prop55
280
     0
102
RTVSPost2010PropOp55
 70
     1
102
RTVSPost2010Prop56
140
1.0
102
RTVSPost2010PropOp56
 70
     1
102
RTVSPost2010Prop57
140
1.0
102
RTVSPost2010PropOp57
 70
     1
102
RTVSPropertyOp0
 70
     1
102
RTVSPropertyOp1
 70
     1
102
RTVSPropertyOp2
 70
     1
102
RTVSPropertyOp3
 70
     1
102
RTVSPropertyOp4
 70
     1
102
RTVSPropertyOp5
 70
     1
102
RTVSPropertyOp6
 70
     1
102
RTVSPropertyOp7
 70
     1
102
RTVSPropertyOp8
 70
     1
102
RTVSPropertyOp9
 70
     1
102
RTVSPropertyOp10
 70
     1
102
RTVSPropertyOp11
 70
     1
102
RTVSPropertyOp12
 70
     1
102
RTVSPropertyOp13
 70
     1
102
RTVSPropertyOp14
 70
     1
102
RTVSPropertyOp15
 70
     1
102
RTVSPropertyOp16
 70
     1
102
RTVSPropertyOp17
 70
     1
102
RTVSPropertyOp18
 70
     1
102
RTVSPropertyOp19
 70
     1
102
RTVSPropertyOp20
 70
     1
102
RTVSPropertyOp21
 70
     1
102
RTVSPropertyOp22
 70
     1
102
RTVSPropertyOp23
 70
     1
102
RTVSPropertyOp24
 70
     1
102
RTVSPropertyOp25
 70
     1
102
RTVSPropertyOp26
 70
     1
102
RTVSPropertyOp27
 70
     1
102
RTVSPropertyOp28
 70
     1
102
RTVSPropertyOp29
 70
     1
102
RTVSPropertyOp30
 70
     1
102
RTVSPropertyOp31
 70
     1
102
RTVSPropertyOp32
 70
     1
102
RTVSPropertyOp33
 70
     1
102
RTVSPropertyOp34
 70
     1
102
RTVSPropertyOp35
 70
     1
102
RTVSPropertyOp36
 70
     1
102
RTVSPropertyOp37
 70
     1
102
RTVSPropertyOp38
 70
     1
102
RTVSPropertyOp39
 70
     1
102
RTVSPropertyOp40
 70
     1
102
RTVSPropertyOp41
 70
     1
102
RTVSPropertyOp42
 70
     1
102
RTVSPropertyOp43
 70
     1
102
RTVSPropertyOp44
 70
     1
102
RTVSPropertyOp45
 70
     1
102
RTVSPropertyOp46
 70
     1
102
RTVSPropertyOp47
 70
     1
102
RTVSPropertyOp48
 70
     1
102
RTVSPropertyOp49
 70
     1
102
RTVSPropertyOp50
 70
     1
102
RTVSPropertyOp51
 70
     0
102
RTVSPropertyOp52
 70
     0
102
RTVSPropertyOp53
 70
     1
102
RTVSPropertyOp54
 70
     1
102
RTVSPropertyOp55
 70
     1
102
RTVSPropertyOp56
 70
     1
102
RTVSPropertyOp57
 70
     1
102
RTVSPropertyOp58
 70
     1
102
RTVSPropertyOp59
 70
     1
102
RTVSPropertyOp60
 70
     1
102
RTVSPropertyOp61
 70
     1
102
RTVSPropertyOp62
 70
     1
  0
XRECORD
  5
1C4E2
102
{ACAD_REACTORS
330
1C4E1
102
}
330
1C4E1
100
AcDbXrecord
280
     1
102
RTVSPost2010Prop28
280
     0
102
RTVSPost2010PropOp28
 70
     1
102
RTVSPost2010Prop29
280
     1
102
RTVSPost2010PropOp29
 70
     1
102
RTVSPost2010Prop30
280
     1
102
RTVSPost2010PropOp30
 70
     1
102
RTVSPost2010Prop31
280
     0
102
RTVSPost2010PropOp31
 70
     1
102
RTVSPost2010Prop32
280
     0
102
RTVSPost2010PropOp32
 70
     1
102
RTVSPost2010Prop33
280
     0
102
RTVSPost2010PropOp33
 70
     1
102
RTVSPost2010Prop34
280
     0
102
RTVSPost2010PropOp34
 70
     1
102
RTVSPost2010Prop35
280
     0
102
RTVSPost2010PropOp35
 70
     1
102
RTVSPost2010Prop36
280
     0
102
RTVSPost2010PropOp36
 70
     1
102
RTVSPost2010Prop37
 90
       50
102
RTVSPost2010PropOp37
 70
     1
102
RTVSPost2010Prop38
140
0.0
102
RTVSPost2010PropOp38
 70
     1
102
RTVSPost2010Prop39
140
1.0
102
RTVSPost2010PropOp39
 70
     1
102
RTVSPost2010Prop40
 90
        0
102
RTVSPost2010PropOp40
 70
     1
102
RTVSPost2010Prop41ColorIndex
 90
       18
102
RTVSPost2010Prop41ColorRGB
 90
        0
102
RTVSPost2010PropOp41
 70
     1
102
RTVSPost2010Prop42
 90
       50
102
RTVSPost2010PropOp42
 70
     1
102
RTVSPost2010Prop43
 90
        3
102
RTVSPost2010PropOp43
 70
     1
102
RTVSPost2010Prop44ColorIndex
 90
        5
102
RTVSPost2010Prop44ColorRGB
 90
      255
102
RTVSPost2010PropOp44
 70
     1
102
RTVSPost2010Prop45
280
     0
102
RTVSPost2010PropOp45
 70
     1
102
RTVSPost2010Prop46
 90
       50
102
RTVSPost2010PropOp46
 70
     1
102
RTVSPost2010Prop47
 90
       50
102
RTVSPost2010PropOp47
 70
     1
102
RTVSPost2010Prop48
 90
       50
102
RTVSPost2010PropOp48
 70
     1
102
RTVSPost2010Prop49
280
     0
102
RTVSPost2010PropOp49
 70
     1
102
RTVSPost2010Prop50
 90
       50
102
RTVSPost2010PropOp50
 70
     1
102
RTVSPost2010Prop51ColorIndex
 90
      256
102
RTVSPost2010Prop51ColorRGB
 90
-16777216
102
RTVSPost2010PropOp51
 70
     0
102
RTVSPost2010Prop52
140
1.0
102
RTVSPost2010PropOp52
 70
     0
102
RTVSPost2010Prop53
 90
        2
102
RTVSPost2010PropOp53
 70
     1
102
RTVSPost2010Prop54
  1
strokes_ogs.tif
102
RTVSPost2010PropOp54
 70
     1
102
RTVSPost2010Prop55
280
     0
102
RTVSPost2010PropOp55
 70
     1
102
RTVSPost2010Prop56
140
1.0
102
RTVSPost2010PropOp56
 70
     1
102
RTVSPost2010Prop57
140
1.0
102
RTVSPost2010PropOp57
 70
     1
102
RTVSPropertyOp0
 70
     1
102
RTVSPropertyOp1
 70
     1
102
RTVSPropertyOp2
 70
     1
102
RTVSPropertyOp3
 70
     1
102
RTVSPropertyOp4
 70
     1
102
RTVSPropertyOp5
 70
     1
102
RTVSPropertyOp6
 70
     1
102
RTVSPropertyOp7
 70
     1
102
RTVSPropertyOp8
 70
     1
102
RTVSPropertyOp9
 70
     1
102
RTVSPropertyOp10
 70
     1
102
RTVSPropertyOp11
 70
     1
102
RTVSPropertyOp12
 70
     1
102
RTVSPropertyOp13
 70
     1
102
RTVSPropertyOp14
 70
     1
102
RTVSPropertyOp15
 70
     1
102
RTVSPropertyOp16
 70
     1
102
RTVSPropertyOp17
 70
     1
102
RTVSPropertyOp18
 70
     1
102
RTVSPropertyOp19
 70
     1
102
RTVSPropertyOp20
 70
     1
102
RTVSPropertyOp21
 70
     1
102
RTVSPropertyOp22
 70
     1
102
RTVSPropertyOp23
 70
     1
102
RTVSPropertyOp24
 70
     1
102
RTVSPropertyOp25
 70
     1
102
RTVSPropertyOp26
 70
     1
102
RTVSPropertyOp27
 70
     1
102
RTVSPropertyOp28
 70
     1
102
RTVSPropertyOp29
 70
     1
102
RTVSPropertyOp30
 70
     1
102
RTVSPropertyOp31
 70
     1
102
RTVSPropertyOp32
 70
     1
102
RTVSPropertyOp33
 70
     1
102
RTVSPropertyOp34
 70
     1
102
RTVSPropertyOp35
 70
     1
102
RTVSPropertyOp36
 70
     1
102
RTVSPropertyOp37
 70
     1
102
RTVSPropertyOp38
 70
     1
102
RTVSPropertyOp39
 70
     1
102
RTVSPropertyOp40
 70
     1
102
RTVSPropertyOp41
 70
     1
102
RTVSPropertyOp42
 70
     1
102
RTVSPropertyOp43
 70
     1
102
RTVSPropertyOp44
 70
     1
102
RTVSPropertyOp45
 70
     1
102
RTVSPropertyOp46
 70
     1
102
RTVSPropertyOp47
 70
     1
102
RTVSPropertyOp48
 70
     1
102
RTVSPropertyOp49
 70
     1
102
RTVSPropertyOp50
 70
     1
102
RTVSPropertyOp51
 70
     0
102
RTVSPropertyOp52
 70
     0
102
RTVSPropertyOp53
 70
     1
102
RTVSPropertyOp54
 70
     1
102
RTVSPropertyOp55
 70
     1
102
RTVSPropertyOp56
 70
     1
102
RTVSPropertyOp57
 70
     1
102
RTVSPropertyOp58
 70
     1
102
RTVSPropertyOp59
 70
     1
102
RTVSPropertyOp60
 70
     1
102
RTVSPropertyOp61
 70
     1
102
RTVSPropertyOp62
 70
     1
  0
XRECORD
  5
1C4D4
102
{ACAD_REACTORS
330
1C4D3
102
}
330
1C4D3
100
AcDbXrecord
280
     1
102
RTVSPost2010Prop28
280
     0
102
RTVSPost2010PropOp28
 70
     1
102
RTVSPost2010Prop29
280
     1
102
RTVSPost2010PropOp29
 70
     1
102
RTVSPost2010Prop30
280
     1
102
RTVSPost2010PropOp30
 70
     1
102
RTVSPost2010Prop31
280
     0
102
RTVSPost2010PropOp31
 70
     1
102
RTVSPost2010Prop32
280
     0
102
RTVSPost2010PropOp32
 70
     1
102
RTVSPost2010Prop33
280
     0
102
RTVSPost2010PropOp33
 70
     1
102
RTVSPost2010Prop34
280
     0
102
RTVSPost2010PropOp34
 70
     1
102
RTVSPost2010Prop35
280
     0
102
RTVSPost2010PropOp35
 70
     1
102
RTVSPost2010Prop36
280
     0
102
RTVSPost2010PropOp36
 70
     1
102
RTVSPost2010Prop37
 90
       50
102
RTVSPost2010PropOp37
 70
     1
102
RTVSPost2010Prop38
140
0.0
102
RTVSPost2010PropOp38
 70
     1
102
RTVSPost2010Prop39
140
1.0
102
RTVSPost2010PropOp39
 70
     1
102
RTVSPost2010Prop40
 90
        0
102
RTVSPost2010PropOp40
 70
     1
102
RTVSPost2010Prop41ColorIndex
 90
       18
102
RTVSPost2010Prop41ColorRGB
 90
        0
102
RTVSPost2010PropOp41
 70
     1
102
RTVSPost2010Prop42
 90
       50
102
RTVSPost2010PropOp42
 70
     1
102
RTVSPost2010Prop43
 90
        3
102
RTVSPost2010PropOp43
 70
     1
102
RTVSPost2010Prop44ColorIndex
 90
        5
102
RTVSPost2010Prop44ColorRGB
 90
      255
102
RTVSPost2010PropOp44
 70
     1
102
RTVSPost2010Prop45
280
     0
102
RTVSPost2010PropOp45
 70
     1
102
RTVSPost2010Prop46
 90
       50
102
RTVSPost2010PropOp46
 70
     1
102
RTVSPost2010Prop47
 90
       50
102
RTVSPost2010PropOp47
 70
     1
102
RTVSPost2010Prop48
 90
       50
102
RTVSPost2010PropOp48
 70
     1
102
RTVSPost2010Prop49
280
     0
102
RTVSPost2010PropOp49
 70
     1
102
RTVSPost2010Prop50
 90
       50
102
RTVSPost2010PropOp50
 70
     1
102
RTVSPost2010Prop51ColorIndex
 90
      256
102
RTVSPost2010Prop51ColorRGB
 90
-16777216
102
RTVSPost2010PropOp51
 70
     0
102
RTVSPost2010Prop52
140
1.0
102
RTVSPost2010PropOp52
 70
     0
102
RTVSPost2010Prop53
 90
        2
102
RTVSPost2010PropOp53
 70
     1
102
RTVSPost2010Prop54
  1
strokes_ogs.tif
102
RTVSPost2010PropOp54
 70
     1
102
RTVSPost2010Prop55
280
     0
102
RTVSPost2010PropOp55
 70
     1
102
RTVSPost2010Prop56
140
1.0
102
RTVSPost2010PropOp56
 70
     1
102
RTVSPost2010Prop57
140
1.0
102
RTVSPost2010PropOp57
 70
     1
102
RTVSPropertyOp0
 70
     1
102
RTVSPropertyOp1
 70
     1
102
RTVSPropertyOp2
 70
     1
102
RTVSPropertyOp3
 70
     1
102
RTVSPropertyOp4
 70
     1
102
RTVSPropertyOp5
 70
     1
102
RTVSPropertyOp6
 70
     1
102
RTVSPropertyOp7
 70
     1
102
RTVSPropertyOp8
 70
     1
102
RTVSPropertyOp9
 70
     1
102
RTVSPropertyOp10
 70
     1
102
RTVSPropertyOp11
 70
     1
102
RTVSPropertyOp12
 70
     1
102
RTVSPropertyOp13
 70
     1
102
RTVSPropertyOp14
 70
     1
102
RTVSPropertyOp15
 70
     1
102
RTVSPropertyOp16
 70
     1
102
RTVSPropertyOp17
 70
     1
102
RTVSPropertyOp18
 70
     1
102
RTVSPropertyOp19
 70
     1
102
RTVSPropertyOp20
 70
     1
102
RTVSPropertyOp21
 70
     1
102
RTVSPropertyOp22
 70
     1
102
RTVSPropertyOp23
 70
     1
102
RTVSPropertyOp24
 70
     1
102
RTVSPropertyOp25
 70
     1
102
RTVSPropertyOp26
 70
     1
102
RTVSPropertyOp27
 70
     1
102
RTVSPropertyOp28
 70
     1
102
RTVSPropertyOp29
 70
     1
102
RTVSPropertyOp30
 70
     1
102
RTVSPropertyOp31
 70
     1
102
RTVSPropertyOp32
 70
     1
102
RTVSPropertyOp33
 70
     1
102
RTVSPropertyOp34
 70
     1
102
RTVSPropertyOp35
 70
     1
102
RTVSPropertyOp36
 70
     1
102
RTVSPropertyOp37
 70
     1
102
RTVSPropertyOp38
 70
     1
102
RTVSPropertyOp39
 70
     1
102
RTVSPropertyOp40
 70
     1
102
RTVSPropertyOp41
 70
     1
102
RTVSPropertyOp42
 70
     1
102
RTVSPropertyOp43
 70
     1
102
RTVSPropertyOp44
 70
     1
102
RTVSPropertyOp45
 70
     1
102
RTVSPropertyOp46
 70
     1
102
RTVSPropertyOp47
 70
     1
102
RTVSPropertyOp48
 70
     1
102
RTVSPropertyOp49
 70
     1
102
RTVSPropertyOp50
 70
     1
102
RTVSPropertyOp51
 70
     0
102
RTVSPropertyOp52
 70
     0
102
RTVSPropertyOp53
 70
     1
102
RTVSPropertyOp54
 70
     1
102
RTVSPropertyOp55
 70
     1
102
RTVSPropertyOp56
 70
     1
102
RTVSPropertyOp57
 70
     1
102
RTVSPropertyOp58
 70
     1
102
RTVSPropertyOp59
 70
     1
102
RTVSPropertyOp60
 70
     1
102
RTVSPropertyOp61
 70
     1
102
RTVSPropertyOp62
 70
     1
  0
XRECORD
  5
1C4D8
102
{ACAD_REACTORS
330
1C4D7
102
}
330
1C4D7
100
AcDbXrecord
280
     1
102
RTVSPost2010Prop28
280
     0
102
RTVSPost2010PropOp28
 70
     1
102
RTVSPost2010Prop29
280
     1
102
RTVSPost2010PropOp29
 70
     1
102
RTVSPost2010Prop30
280
     1
102
RTVSPost2010PropOp30
 70
     1
102
RTVSPost2010Prop31
280
     0
102
RTVSPost2010PropOp31
 70
     1
102
RTVSPost2010Prop32
280
     0
102
RTVSPost2010PropOp32
 70
     1
102
RTVSPost2010Prop33
280
     0
102
RTVSPost2010PropOp33
 70
     1
102
RTVSPost2010Prop34
280
     0
102
RTVSPost2010PropOp34
 70
     1
102
RTVSPost2010Prop35
280
     0
102
RTVSPost2010PropOp35
 70
     1
102
RTVSPost2010Prop36
280
     0
102
RTVSPost2010PropOp36
 70
     1
102
RTVSPost2010Prop37
 90
       50
102
RTVSPost2010PropOp37
 70
     1
102
RTVSPost2010Prop38
140
0.0
102
RTVSPost2010PropOp38
 70
     1
102
RTVSPost2010Prop39
140
1.0
102
RTVSPost2010PropOp39
 70
     1
102
RTVSPost2010Prop40
 90
        0
102
RTVSPost2010PropOp40
 70
     1
102
RTVSPost2010Prop41ColorIndex
 90
       18
102
RTVSPost2010Prop41ColorRGB
 90
        0
102
RTVSPost2010PropOp41
 70
     1
102
RTVSPost2010Prop42
 90
       50
102
RTVSPost2010PropOp42
 70
     1
102
RTVSPost2010Prop43
 90
        3
102
RTVSPost2010PropOp43
 70
     1
102
RTVSPost2010Prop44ColorIndex
 90
        5
102
RTVSPost2010Prop44ColorRGB
 90
      255
102
RTVSPost2010PropOp44
 70
     1
102
RTVSPost2010Prop45
280
     0
102
RTVSPost2010PropOp45
 70
     1
102
RTVSPost2010Prop46
 90
       50
102
RTVSPost2010PropOp46
 70
     1
102
RTVSPost2010Prop47
 90
       50
102
RTVSPost2010PropOp47
 70
     1
102
RTVSPost2010Prop48
 90
       50
102
RTVSPost2010PropOp48
 70
     1
102
RTVSPost2010Prop49
280
     0
102
RTVSPost2010PropOp49
 70
     1
102
RTVSPost2010Prop50
 90
       50
102
RTVSPost2010PropOp50
 70
     1
102
RTVSPost2010Prop51ColorIndex
 90
      256
102
RTVSPost2010Prop51ColorRGB
 90
-16777216
102
RTVSPost2010PropOp51
 70
     0
102
RTVSPost2010Prop52
140
1.0
102
RTVSPost2010PropOp52
 70
     0
102
RTVSPost2010Prop53
 90
        2
102
RTVSPost2010PropOp53
 70
     1
102
RTVSPost2010Prop54
  1
strokes_ogs.tif
102
RTVSPost2010PropOp54
 70
     1
102
RTVSPost2010Prop55
280
     0
102
RTVSPost2010PropOp55
 70
     1
102
RTVSPost2010Prop56
140
1.0
102
RTVSPost2010PropOp56
 70
     1
102
RTVSPost2010Prop57
140
1.0
102
RTVSPost2010PropOp57
 70
     1
102
RTVSPropertyOp0
 70
     1
102
RTVSPropertyOp1
 70
     1
102
RTVSPropertyOp2
 70
     1
102
RTVSPropertyOp3
 70
     1
102
RTVSPropertyOp4
 70
     1
102
RTVSPropertyOp5
 70
     1
102
RTVSPropertyOp6
 70
     1
102
RTVSPropertyOp7
 70
     1
102
RTVSPropertyOp8
 70
     1
102
RTVSPropertyOp9
 70
     1
102
RTVSPropertyOp10
 70
     1
102
RTVSPropertyOp11
 70
     1
102
RTVSPropertyOp12
 70
     1
102
RTVSPropertyOp13
 70
     1
102
RTVSPropertyOp14
 70
     1
102
RTVSPropertyOp15
 70
     1
102
RTVSPropertyOp16
 70
     1
102
RTVSPropertyOp17
 70
     1
102
RTVSPropertyOp18
 70
     1
102
RTVSPropertyOp19
 70
     1
102
RTVSPropertyOp20
 70
     1
102
RTVSPropertyOp21
 70
     1
102
RTVSPropertyOp22
 70
     1
102
RTVSPropertyOp23
 70
     1
102
RTVSPropertyOp24
 70
     1
102
RTVSPropertyOp25
 70
     1
102
RTVSPropertyOp26
 70
     1
102
RTVSPropertyOp27
 70
     1
102
RTVSPropertyOp28
 70
     1
102
RTVSPropertyOp29
 70
     1
102
RTVSPropertyOp30
 70
     1
102
RTVSPropertyOp31
 70
     1
102
RTVSPropertyOp32
 70
     1
102
RTVSPropertyOp33
 70
     1
102
RTVSPropertyOp34
 70
     1
102
RTVSPropertyOp35
 70
     1
102
RTVSPropertyOp36
 70
     1
102
RTVSPropertyOp37
 70
     1
102
RTVSPropertyOp38
 70
     1
102
RTVSPropertyOp39
 70
     1
102
RTVSPropertyOp40
 70
     1
102
RTVSPropertyOp41
 70
     1
102
RTVSPropertyOp42
 70
     1
102
RTVSPropertyOp43
 70
     1
102
RTVSPropertyOp44
 70
     1
102
RTVSPropertyOp45
 70
     1
102
RTVSPropertyOp46
 70
     1
102
RTVSPropertyOp47
 70
     1
102
RTVSPropertyOp48
 70
     1
102
RTVSPropertyOp49
 70
     1
102
RTVSPropertyOp50
 70
     1
102
RTVSPropertyOp51
 70
     0
102
RTVSPropertyOp52
 70
     0
102
RTVSPropertyOp53
 70
     1
102
RTVSPropertyOp54
 70
     1
102
RTVSPropertyOp55
 70
     1
102
RTVSPropertyOp56
 70
     1
102
RTVSPropertyOp57
 70
     1
102
RTVSPropertyOp58
 70
     1
102
RTVSPropertyOp59
 70
     1
102
RTVSPropertyOp60
 70
     1
102
RTVSPropertyOp61
 70
     1
102
RTVSPropertyOp62
 70
     1
  0
XRECORD
  5
1C4F2
102
{ACAD_REACTORS
330
1C4F1
102
}
330
1C4F1
100
AcDbXrecord
280
     1
102
RTVSPost2010Prop28
280
     0
102
RTVSPost2010PropOp28
 70
     1
102
RTVSPost2010Prop29
280
     1
102
RTVSPost2010PropOp29
 70
     1
102
RTVSPost2010Prop30
280
     1
102
RTVSPost2010PropOp30
 70
     1
102
RTVSPost2010Prop31
280
     0
102
RTVSPost2010PropOp31
 70
     1
102
RTVSPost2010Prop32
280
     0
102
RTVSPost2010PropOp32
 70
     1
102
RTVSPost2010Prop33
280
     0
102
RTVSPost2010PropOp33
 70
     1
102
RTVSPost2010Prop34
280
     0
102
RTVSPost2010PropOp34
 70
     1
102
RTVSPost2010Prop35
280
     0
102
RTVSPost2010PropOp35
 70
     1
102
RTVSPost2010Prop36
280
     0
102
RTVSPost2010PropOp36
 70
     1
102
RTVSPost2010Prop37
 90
       50
102
RTVSPost2010PropOp37
 70
     0
102
RTVSPost2010Prop38
140
0.0
102
RTVSPost2010PropOp38
 70
     0
102
RTVSPost2010Prop39
140
1.0
102
RTVSPost2010PropOp39
 70
     0
102
RTVSPost2010Prop40
 90
        0
102
RTVSPost2010PropOp40
 70
     0
102
RTVSPost2010Prop41ColorIndex
 90
       18
102
RTVSPost2010Prop41ColorRGB
 90
        0
102
RTVSPost2010PropOp41
 70
     0
102
RTVSPost2010Prop42
 90
       50
102
RTVSPost2010PropOp42
 70
     0
102
RTVSPost2010Prop43
 90
        3
102
RTVSPost2010PropOp43
 70
     0
102
RTVSPost2010Prop44ColorIndex
 90
        5
102
RTVSPost2010Prop44ColorRGB
 90
      255
102
RTVSPost2010PropOp44
 70
     0
102
RTVSPost2010Prop45
280
     0
102
RTVSPost2010PropOp45
 70
     1
102
RTVSPost2010Prop46
 90
       50
102
RTVSPost2010PropOp46
 70
     0
102
RTVSPost2010Prop47
 90
       50
102
RTVSPost2010PropOp47
 70
     0
102
RTVSPost2010Prop48
 90
       50
102
RTVSPost2010PropOp48
 70
     0
102
RTVSPost2010Prop49
280
     0
102
RTVSPost2010PropOp49
 70
     1
102
RTVSPost2010Prop50
 90
       50
102
RTVSPost2010PropOp50
 70
     0
102
RTVSPost2010Prop51ColorIndex
 90
      256
102
RTVSPost2010Prop51ColorRGB
 90
-16777216
102
RTVSPost2010PropOp51
 70
     0
102
RTVSPost2010Prop52
140
1.0
102
RTVSPost2010PropOp52
 70
     0
102
RTVSPost2010Prop53
 90
        2
102
RTVSPost2010PropOp53
 70
     0
102
RTVSPost2010Prop54
  1
strokes_ogs.tif
102
RTVSPost2010PropOp54
 70
     0
102
RTVSPost2010Prop55
280
     0
102
RTVSPost2010PropOp55
 70
     1
102
RTVSPost2010Prop56
140
1.0
102
RTVSPost2010PropOp56
 70
     0
102
RTVSPost2010Prop57
140
1.0
102
RTVSPost2010PropOp57
 70
     0
102
RTVSPropertyOp0
 70
     0
102
RTVSPropertyOp1
 70
     0
102
RTVSPropertyOp2
 70
     0
102
RTVSPropertyOp3
 70
     0
102
RTVSPropertyOp4
 70
     0
102
RTVSPropertyOp5
 70
     0
102
RTVSPropertyOp6
 70
     0
102
RTVSPropertyOp7
 70
     0
102
RTVSPropertyOp8
 70
     0
102
RTVSPropertyOp9
 70
     0
102
RTVSPropertyOp10
 70
     0
102
RTVSPropertyOp11
 70
     0
102
RTVSPropertyOp12
 70
     0
102
RTVSPropertyOp13
 70
     0
102
RTVSPropertyOp14
 70
     2
102
RTVSPropertyOp15
 70
     0
102
RTVSPropertyOp16
 70
     0
102
RTVSPropertyOp17
 70
     0
102
RTVSPropertyOp18
 70
     0
102
RTVSPropertyOp19
 70
     0
102
RTVSPropertyOp20
 70
     0
102
RTVSPropertyOp21
 70
     0
102
RTVSPropertyOp22
 70
     0
102
RTVSPropertyOp23
 70
     0
102
RTVSPropertyOp24
 70
     0
102
RTVSPropertyOp25
 70
     0
102
RTVSPropertyOp26
 70
     0
102
RTVSPropertyOp27
 70
     0
102
RTVSPropertyOp28
 70
     1
102
RTVSPropertyOp29
 70
     1
102
RTVSPropertyOp30
 70
     1
102
RTVSPropertyOp31
 70
     1
102
RTVSPropertyOp32
 70
     1
102
RTVSPropertyOp33
 70
     1
102
RTVSPropertyOp34
 70
     1
102
RTVSPropertyOp35
 70
     1
102
RTVSPropertyOp36
 70
     1
102
RTVSPropertyOp37
 70
     0
102
RTVSPropertyOp38
 70
     0
102
RTVSPropertyOp39
 70
     0
102
RTVSPropertyOp40
 70
     0
102
RTVSPropertyOp41
 70
     0
102
RTVSPropertyOp42
 70
     0
102
RTVSPropertyOp43
 70
     0
102
RTVSPropertyOp44
 70
     0
102
RTVSPropertyOp45
 70
     1
102
RTVSPropertyOp46
 70
     0
102
RTVSPropertyOp47
 70
     0
102
RTVSPropertyOp48
 70
     0
102
RTVSPropertyOp49
 70
     1
102
RTVSPropertyOp50
 70
     0
102
RTVSPropertyOp51
 70
     0
102
RTVSPropertyOp52
 70
     0
102
RTVSPropertyOp53
 70
     0
102
RTVSPropertyOp54
 70
     0
102
RTVSPropertyOp55
 70
     1
102
RTVSPropertyOp56
 70
     0
102
RTVSPropertyOp57
 70
     0
102
RTVSPropertyOp58
 70
     0
102
RTVSPropertyOp59
 70
     0
102
RTVSPropertyOp60
 70
     0
102
RTVSPropertyOp61
 70
     0
102
RTVSPropertyOp62
 70
     0
  0
XRECORD
  5
1C4E0
102
{ACAD_REACTORS
330
1C4DF
102
}
330
1C4DF
100
AcDbXrecord
280
     1
102
RTVSPost2010Prop28
280
     0
102
RTVSPost2010PropOp28
 70
     1
102
RTVSPost2010Prop29
280
     1
102
RTVSPost2010PropOp29
 70
     1
102
RTVSPost2010Prop30
280
     1
102
RTVSPost2010PropOp30
 70
     1
102
RTVSPost2010Prop31
280
     0
102
RTVSPost2010PropOp31
 70
     1
102
RTVSPost2010Prop32
280
     0
102
RTVSPost2010PropOp32
 70
     1
102
RTVSPost2010Prop33
280
     0
102
RTVSPost2010PropOp33
 70
     1
102
RTVSPost2010Prop34
280
     0
102
RTVSPost2010PropOp34
 70
     1
102
RTVSPost2010Prop35
280
     0
102
RTVSPost2010PropOp35
 70
     1
102
RTVSPost2010Prop36
280
     0
102
RTVSPost2010PropOp36
 70
     1
102
RTVSPost2010Prop37
 90
       50
102
RTVSPost2010PropOp37
 70
     1
102
RTVSPost2010Prop38
140
0.0
102
RTVSPost2010PropOp38
 70
     1
102
RTVSPost2010Prop39
140
1.0
102
RTVSPost2010PropOp39
 70
     1
102
RTVSPost2010Prop40
 90
        0
102
RTVSPost2010PropOp40
 70
     1
102
RTVSPost2010Prop41ColorIndex
 90
       18
102
RTVSPost2010Prop41ColorRGB
 90
        0
102
RTVSPost2010PropOp41
 70
     1
102
RTVSPost2010Prop42
 90
       50
102
RTVSPost2010PropOp42
 70
     1
102
RTVSPost2010Prop43
 90
        3
102
RTVSPost2010PropOp43
 70
     1
102
RTVSPost2010Prop44ColorIndex
 90
        5
102
RTVSPost2010Prop44ColorRGB
 90
      255
102
RTVSPost2010PropOp44
 70
     1
102
RTVSPost2010Prop45
280
     0
102
RTVSPost2010PropOp45
 70
     1
102
RTVSPost2010Prop46
 90
       50
102
RTVSPost2010PropOp46
 70
     1
102
RTVSPost2010Prop47
 90
       50
102
RTVSPost2010PropOp47
 70
     1
102
RTVSPost2010Prop48
 90
       50
102
RTVSPost2010PropOp48
 70
     1
102
RTVSPost2010Prop49
280
     0
102
RTVSPost2010PropOp49
 70
     1
102
RTVSPost2010Prop50
 90
       50
102
RTVSPost2010PropOp50
 70
     1
102
RTVSPost2010Prop51ColorIndex
 90
      256
102
RTVSPost2010Prop51ColorRGB
 90
-16777216
102
RTVSPost2010PropOp51
 70
     0
102
RTVSPost2010Prop52
140
1.0
102
RTVSPost2010PropOp52
 70
     0
102
RTVSPost2010Prop53
 90
        2
102
RTVSPost2010PropOp53
 70
     1
102
RTVSPost2010Prop54
  1
strokes_ogs.tif
102
RTVSPost2010PropOp54
 70
     1
102
RTVSPost2010Prop55
280
     0
102
RTVSPost2010PropOp55
 70
     1
102
RTVSPost2010Prop56
140
1.0
102
RTVSPost2010PropOp56
 70
     1
102
RTVSPost2010Prop57
140
1.0
102
RTVSPost2010PropOp57
 70
     1
102
RTVSPropertyOp0
 70
     1
102
RTVSPropertyOp1
 70
     1
102
RTVSPropertyOp2
 70
     1
102
RTVSPropertyOp3
 70
     1
102
RTVSPropertyOp4
 70
     1
102
RTVSPropertyOp5
 70
     1
102
RTVSPropertyOp6
 70
     1
102
RTVSPropertyOp7
 70
     1
102
RTVSPropertyOp8
 70
     1
102
RTVSPropertyOp9
 70
     1
102
RTVSPropertyOp10
 70
     1
102
RTVSPropertyOp11
 70
     1
102
RTVSPropertyOp12
 70
     1
102
RTVSPropertyOp13
 70
     1
102
RTVSPropertyOp14
 70
     1
102
RTVSPropertyOp15
 70
     1
102
RTVSPropertyOp16
 70
     1
102
RTVSPropertyOp17
 70
     1
102
RTVSPropertyOp18
 70
     1
102
RTVSPropertyOp19
 70
     1
102
RTVSPropertyOp20
 70
     1
102
RTVSPropertyOp21
 70
     1
102
RTVSPropertyOp22
 70
     1
102
RTVSPropertyOp23
 70
     1
102
RTVSPropertyOp24
 70
     1
102
RTVSPropertyOp25
 70
     1
102
RTVSPropertyOp26
 70
     1
102
RTVSPropertyOp27
 70
     1
102
RTVSPropertyOp28
 70
     1
102
RTVSPropertyOp29
 70
     1
102
RTVSPropertyOp30
 70
     1
102
RTVSPropertyOp31
 70
     1
102
RTVSPropertyOp32
 70
     1
102
RTVSPropertyOp33
 70
     1
102
RTVSPropertyOp34
 70
     1
102
RTVSPropertyOp35
 70
     1
102
RTVSPropertyOp36
 70
     1
102
RTVSPropertyOp37
 70
     1
102
RTVSPropertyOp38
 70
     1
102
RTVSPropertyOp39
 70
     1
102
RTVSPropertyOp40
 70
     1
102
RTVSPropertyOp41
 70
     1
102
RTVSPropertyOp42
 70
     1
102
RTVSPropertyOp43
 70
     1
102
RTVSPropertyOp44
 70
     1
102
RTVSPropertyOp45
 70
     1
102
RTVSPropertyOp46
 70
     1
102
RTVSPropertyOp47
 70
     1
102
RTVSPropertyOp48
 70
     1
102
RTVSPropertyOp49
 70
     1
102
RTVSPropertyOp50
 70
     1
102
RTVSPropertyOp51
 70
     0
102
RTVSPropertyOp52
 70
     0
102
RTVSPropertyOp53
 70
     1
102
RTVSPropertyOp54
 70
     1
102
RTVSPropertyOp55
 70
     1
102
RTVSPropertyOp56
 70
     1
102
RTVSPropertyOp57
 70
     1
102
RTVSPropertyOp58
 70
     1
102
RTVSPropertyOp59
 70
     1
102
RTVSPropertyOp60
 70
     1
102
RTVSPropertyOp61
 70
     1
102
RTVSPropertyOp62
 70
     1
  0
XRECORD
  5
1C4C4
102
{ACAD_REACTORS
330
1C4C3
102
}
330
1C4C3
100
AcDbXrecord
280
     1
102
RTVSPost2010Prop28
280
     0
102
RTVSPost2010PropOp28
 70
     1
102
RTVSPost2010Prop29
280
     1
102
RTVSPost2010PropOp29
 70
     1
102
RTVSPost2010Prop30
280
     1
102
RTVSPost2010PropOp30
 70
     1
102
RTVSPost2010Prop31
280
     0
102
RTVSPost2010PropOp31
 70
     1
102
RTVSPost2010Prop32
280
     0
102
RTVSPost2010PropOp32
 70
     1
102
RTVSPost2010Prop33
280
     0
102
RTVSPost2010PropOp33
 70
     1
102
RTVSPost2010Prop34
280
     0
102
RTVSPost2010PropOp34
 70
     1
102
RTVSPost2010Prop35
280
     0
102
RTVSPost2010PropOp35
 70
     1
102
RTVSPost2010Prop36
280
     0
102
RTVSPost2010PropOp36
 70
     1
102
RTVSPost2010Prop37
 90
       50
102
RTVSPost2010PropOp37
 70
     1
102
RTVSPost2010Prop38
140
0.0
102
RTVSPost2010PropOp38
 70
     1
102
RTVSPost2010Prop39
140
1.0
102
RTVSPost2010PropOp39
 70
     1
102
RTVSPost2010Prop40
 90
        0
102
RTVSPost2010PropOp40
 70
     1
102
RTVSPost2010Prop41ColorIndex
 90
       18
102
RTVSPost2010Prop41ColorRGB
 90
        0
102
RTVSPost2010PropOp41
 70
     1
102
RTVSPost2010Prop42
 90
       50
102
RTVSPost2010PropOp42
 70
     1
102
RTVSPost2010Prop43
 90
        3
102
RTVSPost2010PropOp43
 70
     1
102
RTVSPost2010Prop44ColorIndex
 90
        5
102
RTVSPost2010Prop44ColorRGB
 90
      255
102
RTVSPost2010PropOp44
 70
     1
102
RTVSPost2010Prop45
280
     0
102
RTVSPost2010PropOp45
 70
     1
102
RTVSPost2010Prop46
 90
       50
102
RTVSPost2010PropOp46
 70
     1
102
RTVSPost2010Prop47
 90
       50
102
RTVSPost2010PropOp47
 70
     1
102
RTVSPost2010Prop48
 90
       50
102
RTVSPost2010PropOp48
 70
     1
102
RTVSPost2010Prop49
280
     0
102
RTVSPost2010PropOp49
 70
     1
102
RTVSPost2010Prop50
 90
       50
102
RTVSPost2010PropOp50
 70
     1
102
RTVSPost2010Prop51ColorIndex
 90
      256
102
RTVSPost2010Prop51ColorRGB
 90
-16777216
102
RTVSPost2010PropOp51
 70
     0
102
RTVSPost2010Prop52
140
1.0
102
RTVSPost2010PropOp52
 70
     0
102
RTVSPost2010Prop53
 90
        2
102
RTVSPost2010PropOp53
 70
     1
102
RTVSPost2010Prop54
  1
strokes_ogs.tif
102
RTVSPost2010PropOp54
 70
     1
102
RTVSPost2010Prop55
280
     0
102
RTVSPost2010PropOp55
 70
     1
102
RTVSPost2010Prop56
140
1.0
102
RTVSPost2010PropOp56
 70
     1
102
RTVSPost2010Prop57
140
1.0
102
RTVSPost2010PropOp57
 70
     1
102
RTVSPropertyOp0
 70
     1
102
RTVSPropertyOp1
 70
     1
102
RTVSPropertyOp2
 70
     1
102
RTVSPropertyOp3
 70
     1
102
RTVSPropertyOp4
 70
     1
102
RTVSPropertyOp5
 70
     1
102
RTVSPropertyOp6
 70
     1
102
RTVSPropertyOp7
 70
     1
102
RTVSPropertyOp8
 70
     1
102
RTVSPropertyOp9
 70
     1
102
RTVSPropertyOp10
 70
     1
102
RTVSPropertyOp11
 70
     1
102
RTVSPropertyOp12
 70
     1
102
RTVSPropertyOp13
 70
     1
102
RTVSPropertyOp14
 70
     1
102
RTVSPropertyOp15
 70
     1
102
RTVSPropertyOp16
 70
     1
102
RTVSPropertyOp17
 70
     1
102
RTVSPropertyOp18
 70
     1
102
RTVSPropertyOp19
 70
     1
102
RTVSPropertyOp20
 70
     1
102
RTVSPropertyOp21
 70
     1
102
RTVSPropertyOp22
 70
     1
102
RTVSPropertyOp23
 70
     1
102
RTVSPropertyOp24
 70
     1
102
RTVSPropertyOp25
 70
     1
102
RTVSPropertyOp26
 70
     1
102
RTVSPropertyOp27
 70
     1
102
RTVSPropertyOp28
 70
     1
102
RTVSPropertyOp29
 70
     1
102
RTVSPropertyOp30
 70
     1
102
RTVSPropertyOp31
 70
     1
102
RTVSPropertyOp32
 70
     1
102
RTVSPropertyOp33
 70
     1
102
RTVSPropertyOp34
 70
     1
102
RTVSPropertyOp35
 70
     1
102
RTVSPropertyOp36
 70
     1
102
RTVSPropertyOp37
 70
     1
102
RTVSPropertyOp38
 70
     1
102
RTVSPropertyOp39
 70
     1
102
RTVSPropertyOp40
 70
     1
102
RTVSPropertyOp41
 70
     1
102
RTVSPropertyOp42
 70
     1
102
RTVSPropertyOp43
 70
     1
102
RTVSPropertyOp44
 70
     1
102
RTVSPropertyOp45
 70
     1
102
RTVSPropertyOp46
 70
     1
102
RTVSPropertyOp47
 70
     1
102
RTVSPropertyOp48
 70
     1
102
RTVSPropertyOp49
 70
     1
102
RTVSPropertyOp50
 70
     1
102
RTVSPropertyOp51
 70
     0
102
RTVSPropertyOp52
 70
     0
102
RTVSPropertyOp53
 70
     1
102
RTVSPropertyOp54
 70
     1
102
RTVSPropertyOp55
 70
     1
102
RTVSPropertyOp56
 70
     1
102
RTVSPropertyOp57
 70
     1
102
RTVSPropertyOp58
 70
     1
102
RTVSPropertyOp59
 70
     1
102
RTVSPropertyOp60
 70
     1
102
RTVSPropertyOp61
 70
     1
102
RTVSPropertyOp62
 70
     1
  0
XRECORD
  5
1C4C6
102
{ACAD_REACTORS
330
1C4C5
102
}
330
1C4C5
100
AcDbXrecord
280
     1
102
RTVSPost2010Prop28
280
     0
102
RTVSPost2010PropOp28
 70
     1
102
RTVSPost2010Prop29
280
     1
102
RTVSPost2010PropOp29
 70
     1
102
RTVSPost2010Prop30
280
     1
102
RTVSPost2010PropOp30
 70
     1
102
RTVSPost2010Prop31
280
     0
102
RTVSPost2010PropOp31
 70
     1
102
RTVSPost2010Prop32
280
     0
102
RTVSPost2010PropOp32
 70
     1
102
RTVSPost2010Prop33
280
     0
102
RTVSPost2010PropOp33
 70
     1
102
RTVSPost2010Prop34
280
     0
102
RTVSPost2010PropOp34
 70
     1
102
RTVSPost2010Prop35
280
     0
102
RTVSPost2010PropOp35
 70
     1
102
RTVSPost2010Prop36
280
     0
102
RTVSPost2010PropOp36
 70
     1
102
RTVSPost2010Prop37
 90
       50
102
RTVSPost2010PropOp37
 70
     1
102
RTVSPost2010Prop38
140
0.0
102
RTVSPost2010PropOp38
 70
     1
102
RTVSPost2010Prop39
140
1.0
102
RTVSPost2010PropOp39
 70
     1
102
RTVSPost2010Prop40
 90
        0
102
RTVSPost2010PropOp40
 70
     1
102
RTVSPost2010Prop41ColorIndex
 90
       18
102
RTVSPost2010Prop41ColorRGB
 90
        0
102
RTVSPost2010PropOp41
 70
     1
102
RTVSPost2010Prop42
 90
       50
102
RTVSPost2010PropOp42
 70
     1
102
RTVSPost2010Prop43
 90
        3
102
RTVSPost2010PropOp43
 70
     1
102
RTVSPost2010Prop44ColorIndex
 90
        5
102
RTVSPost2010Prop44ColorRGB
 90
      255
102
RTVSPost2010PropOp44
 70
     1
102
RTVSPost2010Prop45
280
     0
102
RTVSPost2010PropOp45
 70
     1
102
RTVSPost2010Prop46
 90
       50
102
RTVSPost2010PropOp46
 70
     1
102
RTVSPost2010Prop47
 90
       50
102
RTVSPost2010PropOp47
 70
     1
102
RTVSPost2010Prop48
 90
       50
102
RTVSPost2010PropOp48
 70
     1
102
RTVSPost2010Prop49
280
     0
102
RTVSPost2010PropOp49
 70
     1
102
RTVSPost2010Prop50
 90
       50
102
RTVSPost2010PropOp50
 70
     1
102
RTVSPost2010Prop51ColorIndex
 90
      256
102
RTVSPost2010Prop51ColorRGB
 90
-16777216
102
RTVSPost2010PropOp51
 70
     0
102
RTVSPost2010Prop52
140
1.0
102
RTVSPost2010PropOp52
 70
     0
102
RTVSPost2010Prop53
 90
        2
102
RTVSPost2010PropOp53
 70
     1
102
RTVSPost2010Prop54
  1
strokes_ogs.tif
102
RTVSPost2010PropOp54
 70
     1
102
RTVSPost2010Prop55
280
     0
102
RTVSPost2010PropOp55
 70
     1
102
RTVSPost2010Prop56
140
1.0
102
RTVSPost2010PropOp56
 70
     1
102
RTVSPost2010Prop57
140
1.0
102
RTVSPost2010PropOp57
 70
     1
102
RTVSPropertyOp0
 70
     1
102
RTVSPropertyOp1
 70
     1
102
RTVSPropertyOp2
 70
     1
102
RTVSPropertyOp3
 70
     1
102
RTVSPropertyOp4
 70
     1
102
RTVSPropertyOp5
 70
     1
102
RTVSPropertyOp6
 70
     1
102
RTVSPropertyOp7
 70
     1
102
RTVSPropertyOp8
 70
     1
102
RTVSPropertyOp9
 70
     1
102
RTVSPropertyOp10
 70
     1
102
RTVSPropertyOp11
 70
     1
102
RTVSPropertyOp12
 70
     1
102
RTVSPropertyOp13
 70
     1
102
RTVSPropertyOp14
 70
     1
102
RTVSPropertyOp15
 70
     1
102
RTVSPropertyOp16
 70
     1
102
RTVSPropertyOp17
 70
     1
102
RTVSPropertyOp18
 70
     1
102
RTVSPropertyOp19
 70
     1
102
RTVSPropertyOp20
 70
     1
102
RTVSPropertyOp21
 70
     1
102
RTVSPropertyOp22
 70
     1
102
RTVSPropertyOp23
 70
     1
102
RTVSPropertyOp24
 70
     1
102
RTVSPropertyOp25
 70
     1
102
RTVSPropertyOp26
 70
     1
102
RTVSPropertyOp27
 70
     1
102
RTVSPropertyOp28
 70
     1
102
RTVSPropertyOp29
 70
     1
102
RTVSPropertyOp30
 70
     1
102
RTVSPropertyOp31
 70
     1
102
RTVSPropertyOp32
 70
     1
102
RTVSPropertyOp33
 70
     1
102
RTVSPropertyOp34
 70
     1
102
RTVSPropertyOp35
 70
     1
102
RTVSPropertyOp36
 70
     1
102
RTVSPropertyOp37
 70
     1
102
RTVSPropertyOp38
 70
     1
102
RTVSPropertyOp39
 70
     1
102
RTVSPropertyOp40
 70
     1
102
RTVSPropertyOp41
 70
     1
102
RTVSPropertyOp42
 70
     1
102
RTVSPropertyOp43
 70
     1
102
RTVSPropertyOp44
 70
     1
102
RTVSPropertyOp45
 70
     1
102
RTVSPropertyOp46
 70
     1
102
RTVSPropertyOp47
 70
     1
102
RTVSPropertyOp48
 70
     1
102
RTVSPropertyOp49
 70
     1
102
RTVSPropertyOp50
 70
     1
102
RTVSPropertyOp51
 70
     0
102
RTVSPropertyOp52
 70
     0
102
RTVSPropertyOp53
 70
     1
102
RTVSPropertyOp54
 70
     1
102
RTVSPropertyOp55
 70
     1
102
RTVSPropertyOp56
 70
     1
102
RTVSPropertyOp57
 70
     1
102
RTVSPropertyOp58
 70
     1
102
RTVSPropertyOp59
 70
     1
102
RTVSPropertyOp60
 70
     1
102
RTVSPropertyOp61
 70
     1
102
RTVSPropertyOp62
 70
     1
  0
XRECORD
  5
1C4C8
102
{ACAD_REACTORS
330
1C4C7
102
}
330
1C4C7
100
AcDbXrecord
280
     1
102
RTVSPost2010Prop28
280
     0
102
RTVSPost2010PropOp28
 70
     1
102
RTVSPost2010Prop29
280
     1
102
RTVSPost2010PropOp29
 70
     1
102
RTVSPost2010Prop30
280
     1
102
RTVSPost2010PropOp30
 70
     1
102
RTVSPost2010Prop31
280
     0
102
RTVSPost2010PropOp31
 70
     1
102
RTVSPost2010Prop32
280
     0
102
RTVSPost2010PropOp32
 70
     1
102
RTVSPost2010Prop33
280
     0
102
RTVSPost2010PropOp33
 70
     1
102
RTVSPost2010Prop34
280
     0
102
RTVSPost2010PropOp34
 70
     1
102
RTVSPost2010Prop35
280
     0
102
RTVSPost2010PropOp35
 70
     1
102
RTVSPost2010Prop36
280
     0
102
RTVSPost2010PropOp36
 70
     1
102
RTVSPost2010Prop37
 90
       50
102
RTVSPost2010PropOp37
 70
     1
102
RTVSPost2010Prop38
140
0.0
102
RTVSPost2010PropOp38
 70
     1
102
RTVSPost2010Prop39
140
1.0
102
RTVSPost2010PropOp39
 70
     1
102
RTVSPost2010Prop40
 90
        0
102
RTVSPost2010PropOp40
 70
     1
102
RTVSPost2010Prop41ColorIndex
 90
       18
102
RTVSPost2010Prop41ColorRGB
 90
        0
102
RTVSPost2010PropOp41
 70
     1
102
RTVSPost2010Prop42
 90
       50
102
RTVSPost2010PropOp42
 70
     1
102
RTVSPost2010Prop43
 90
        3
102
RTVSPost2010PropOp43
 70
     1
102
RTVSPost2010Prop44ColorIndex
 90
        5
102
RTVSPost2010Prop44ColorRGB
 90
      255
102
RTVSPost2010PropOp44
 70
     1
102
RTVSPost2010Prop45
280
     0
102
RTVSPost2010PropOp45
 70
     1
102
RTVSPost2010Prop46
 90
       50
102
RTVSPost2010PropOp46
 70
     1
102
RTVSPost2010Prop47
 90
       50
102
RTVSPost2010PropOp47
 70
     1
102
RTVSPost2010Prop48
 90
       50
102
RTVSPost2010PropOp48
 70
     1
102
RTVSPost2010Prop49
280
     0
102
RTVSPost2010PropOp49
 70
     1
102
RTVSPost2010Prop50
 90
       50
102
RTVSPost2010PropOp50
 70
     1
102
RTVSPost2010Prop51ColorIndex
 90
      256
102
RTVSPost2010Prop51ColorRGB
 90
-16777216
102
RTVSPost2010PropOp51
 70
     0
102
RTVSPost2010Prop52
140
1.0
102
RTVSPost2010PropOp52
 70
     0
102
RTVSPost2010Prop53
 90
        2
102
RTVSPost2010PropOp53
 70
     1
102
RTVSPost2010Prop54
  1
strokes_ogs.tif
102
RTVSPost2010PropOp54
 70
     1
102
RTVSPost2010Prop55
280
     0
102
RTVSPost2010PropOp55
 70
     1
102
RTVSPost2010Prop56
140
1.0
102
RTVSPost2010PropOp56
 70
     1
102
RTVSPost2010Prop57
140
1.0
102
RTVSPost2010PropOp57
 70
     1
102
RTVSPropertyOp0
 70
     1
102
RTVSPropertyOp1
 70
     1
102
RTVSPropertyOp2
 70
     1
102
RTVSPropertyOp3
 70
     1
102
RTVSPropertyOp4
 70
     1
102
RTVSPropertyOp5
 70
     1
102
RTVSPropertyOp6
 70
     1
102
RTVSPropertyOp7
 70
     1
102
RTVSPropertyOp8
 70
     1
102
RTVSPropertyOp9
 70
     1
102
RTVSPropertyOp10
 70
     1
102
RTVSPropertyOp11
 70
     1
102
RTVSPropertyOp12
 70
     1
102
RTVSPropertyOp13
 70
     1
102
RTVSPropertyOp14
 70
     1
102
RTVSPropertyOp15
 70
     1
102
RTVSPropertyOp16
 70
     1
102
RTVSPropertyOp17
 70
     1
102
RTVSPropertyOp18
 70
     1
102
RTVSPropertyOp19
 70
     1
102
RTVSPropertyOp20
 70
     1
102
RTVSPropertyOp21
 70
     1
102
RTVSPropertyOp22
 70
     1
102
RTVSPropertyOp23
 70
     1
102
RTVSPropertyOp24
 70
     1
102
RTVSPropertyOp25
 70
     1
102
RTVSPropertyOp26
 70
     1
102
RTVSPropertyOp27
 70
     1
102
RTVSPropertyOp28
 70
     1
102
RTVSPropertyOp29
 70
     1
102
RTVSPropertyOp30
 70
     1
102
RTVSPropertyOp31
 70
     1
102
RTVSPropertyOp32
 70
     1
102
RTVSPropertyOp33
 70
     1
102
RTVSPropertyOp34
 70
     1
102
RTVSPropertyOp35
 70
     1
102
RTVSPropertyOp36
 70
     1
102
RTVSPropertyOp37
 70
     1
102
RTVSPropertyOp38
 70
     1
102
RTVSPropertyOp39
 70
     1
102
RTVSPropertyOp40
 70
     1
102
RTVSPropertyOp41
 70
     1
102
RTVSPropertyOp42
 70
     1
102
RTVSPropertyOp43
 70
     1
102
RTVSPropertyOp44
 70
     1
102
RTVSPropertyOp45
 70
     1
102
RTVSPropertyOp46
 70
     1
102
RTVSPropertyOp47
 70
     1
102
RTVSPropertyOp48
 70
     1
102
RTVSPropertyOp49
 70
     1
102
RTVSPropertyOp50
 70
     1
102
RTVSPropertyOp51
 70
     0
102
RTVSPropertyOp52
 70
     0
102
RTVSPropertyOp53
 70
     1
102
RTVSPropertyOp54
 70
     1
102
RTVSPropertyOp55
 70
     1
102
RTVSPropertyOp56
 70
     1
102
RTVSPropertyOp57
 70
     1
102
RTVSPropertyOp58
 70
     1
102
RTVSPropertyOp59
 70
     1
102
RTVSPropertyOp60
 70
     1
102
RTVSPropertyOp61
 70
     1
102
RTVSPropertyOp62
 70
     1
  0
XRECORD
  5
1C4CA
102
{ACAD_REACTORS
330
1C4C9
102
}
330
1C4C9
100
AcDbXrecord
280
     1
102
RTVSPost2010Prop28
280
     0
102
RTVSPost2010PropOp28
 70
     1
102
RTVSPost2010Prop29
280
     1
102
RTVSPost2010PropOp29
 70
     1
102
RTVSPost2010Prop30
280
     1
102
RTVSPost2010PropOp30
 70
     1
102
RTVSPost2010Prop31
280
     0
102
RTVSPost2010PropOp31
 70
     1
102
RTVSPost2010Prop32
280
     0
102
RTVSPost2010PropOp32
 70
     1
102
RTVSPost2010Prop33
280
     0
102
RTVSPost2010PropOp33
 70
     1
102
RTVSPost2010Prop34
280
     0
102
RTVSPost2010PropOp34
 70
     1
102
RTVSPost2010Prop35
280
     0
102
RTVSPost2010PropOp35
 70
     1
102
RTVSPost2010Prop36
280
     0
102
RTVSPost2010PropOp36
 70
     1
102
RTVSPost2010Prop37
 90
       50
102
RTVSPost2010PropOp37
 70
     1
102
RTVSPost2010Prop38
140
0.0
102
RTVSPost2010PropOp38
 70
     1
102
RTVSPost2010Prop39
140
1.0
102
RTVSPost2010PropOp39
 70
     1
102
RTVSPost2010Prop40
 90
        0
102
RTVSPost2010PropOp40
 70
     1
102
RTVSPost2010Prop41ColorIndex
 90
       18
102
RTVSPost2010Prop41ColorRGB
 90
        0
102
RTVSPost2010PropOp41
 70
     1
102
RTVSPost2010Prop42
 90
       50
102
RTVSPost2010PropOp42
 70
     1
102
RTVSPost2010Prop43
 90
        3
102
RTVSPost2010PropOp43
 70
     1
102
RTVSPost2010Prop44ColorIndex
 90
        5
102
RTVSPost2010Prop44ColorRGB
 90
      255
102
RTVSPost2010PropOp44
 70
     1
102
RTVSPost2010Prop45
280
     0
102
RTVSPost2010PropOp45
 70
     1
102
RTVSPost2010Prop46
 90
       50
102
RTVSPost2010PropOp46
 70
     1
102
RTVSPost2010Prop47
 90
       50
102
RTVSPost2010PropOp47
 70
     1
102
RTVSPost2010Prop48
 90
       50
102
RTVSPost2010PropOp48
 70
     1
102
RTVSPost2010Prop49
280
     0
102
RTVSPost2010PropOp49
 70
     1
102
RTVSPost2010Prop50
 90
       50
102
RTVSPost2010PropOp50
 70
     1
102
RTVSPost2010Prop51ColorIndex
 90
      256
102
RTVSPost2010Prop51ColorRGB
 90
-16777216
102
RTVSPost2010PropOp51
 70
     0
102
RTVSPost2010Prop52
140
1.0
102
RTVSPost2010PropOp52
 70
     0
102
RTVSPost2010Prop53
 90
        2
102
RTVSPost2010PropOp53
 70
     1
102
RTVSPost2010Prop54
  1
strokes_ogs.tif
102
RTVSPost2010PropOp54
 70
     1
102
RTVSPost2010Prop55
280
     0
102
RTVSPost2010PropOp55
 70
     1
102
RTVSPost2010Prop56
140
1.0
102
RTVSPost2010PropOp56
 70
     1
102
RTVSPost2010Prop57
140
1.0
102
RTVSPost2010PropOp57
 70
     1
102
RTVSPropertyOp0
 70
     1
102
RTVSPropertyOp1
 70
     1
102
RTVSPropertyOp2
 70
     1
102
RTVSPropertyOp3
 70
     1
102
RTVSPropertyOp4
 70
     1
102
RTVSPropertyOp5
 70
     1
102
RTVSPropertyOp6
 70
     1
102
RTVSPropertyOp7
 70
     1
102
RTVSPropertyOp8
 70
     1
102
RTVSPropertyOp9
 70
     1
102
RTVSPropertyOp10
 70
     1
102
RTVSPropertyOp11
 70
     1
102
RTVSPropertyOp12
 70
     1
102
RTVSPropertyOp13
 70
     1
102
RTVSPropertyOp14
 70
     1
102
RTVSPropertyOp15
 70
     1
102
RTVSPropertyOp16
 70
     1
102
RTVSPropertyOp17
 70
     1
102
RTVSPropertyOp18
 70
     1
102
RTVSPropertyOp19
 70
     1
102
RTVSPropertyOp20
 70
     1
102
RTVSPropertyOp21
 70
     1
102
RTVSPropertyOp22
 70
     1
102
RTVSPropertyOp23
 70
     1
102
RTVSPropertyOp24
 70
     1
102
RTVSPropertyOp25
 70
     1
102
RTVSPropertyOp26
 70
     1
102
RTVSPropertyOp27
 70
     1
102
RTVSPropertyOp28
 70
     1
102
RTVSPropertyOp29
 70
     1
102
RTVSPropertyOp30
 70
     1
102
RTVSPropertyOp31
 70
     1
102
RTVSPropertyOp32
 70
     1
102
RTVSPropertyOp33
 70
     1
102
RTVSPropertyOp34
 70
     1
102
RTVSPropertyOp35
 70
     1
102
RTVSPropertyOp36
 70
     1
102
RTVSPropertyOp37
 70
     1
102
RTVSPropertyOp38
 70
     1
102
RTVSPropertyOp39
 70
     1
102
RTVSPropertyOp40
 70
     1
102
RTVSPropertyOp41
 70
     1
102
RTVSPropertyOp42
 70
     1
102
RTVSPropertyOp43
 70
     1
102
RTVSPropertyOp44
 70
     1
102
RTVSPropertyOp45
 70
     1
102
RTVSPropertyOp46
 70
     1
102
RTVSPropertyOp47
 70
     1
102
RTVSPropertyOp48
 70
     1
102
RTVSPropertyOp49
 70
     1
102
RTVSPropertyOp50
 70
     1
102
RTVSPropertyOp51
 70
     0
102
RTVSPropertyOp52
 70
     0
102
RTVSPropertyOp53
 70
     1
102
RTVSPropertyOp54
 70
     1
102
RTVSPropertyOp55
 70
     1
102
RTVSPropertyOp56
 70
     1
102
RTVSPropertyOp57
 70
     1
102
RTVSPropertyOp58
 70
     1
102
RTVSPropertyOp59
 70
     1
102
RTVSPropertyOp60
 70
     1
102
RTVSPropertyOp61
 70
     1
102
RTVSPropertyOp62
 70
     1
  0
XRECORD
  5
1C4D2
102
{ACAD_REACTORS
330
1C4D1
102
}
330
1C4D1
100
AcDbXrecord
280
     1
102
RTVSPost2010Prop28
280
     0
102
RTVSPost2010PropOp28
 70
     1
102
RTVSPost2010Prop29
280
     1
102
RTVSPost2010PropOp29
 70
     1
102
RTVSPost2010Prop30
280
     1
102
RTVSPost2010PropOp30
 70
     1
102
RTVSPost2010Prop31
280
     0
102
RTVSPost2010PropOp31
 70
     1
102
RTVSPost2010Prop32
280
     0
102
RTVSPost2010PropOp32
 70
     1
102
RTVSPost2010Prop33
280
     0
102
RTVSPost2010PropOp33
 70
     1
102
RTVSPost2010Prop34
280
     0
102
RTVSPost2010PropOp34
 70
     1
102
RTVSPost2010Prop35
280
     0
102
RTVSPost2010PropOp35
 70
     1
102
RTVSPost2010Prop36
280
     0
102
RTVSPost2010PropOp36
 70
     1
102
RTVSPost2010Prop37
 90
       50
102
RTVSPost2010PropOp37
 70
     1
102
RTVSPost2010Prop38
140
0.0
102
RTVSPost2010PropOp38
 70
     1
102
RTVSPost2010Prop39
140
1.0
102
RTVSPost2010PropOp39
 70
     1
102
RTVSPost2010Prop40
 90
        0
102
RTVSPost2010PropOp40
 70
     1
102
RTVSPost2010Prop41ColorIndex
 90
       18
102
RTVSPost2010Prop41ColorRGB
 90
        0
102
RTVSPost2010PropOp41
 70
     1
102
RTVSPost2010Prop42
 90
       50
102
RTVSPost2010PropOp42
 70
     1
102
RTVSPost2010Prop43
 90
        3
102
RTVSPost2010PropOp43
 70
     1
102
RTVSPost2010Prop44ColorIndex
 90
        5
102
RTVSPost2010Prop44ColorRGB
 90
      255
102
RTVSPost2010PropOp44
 70
     1
102
RTVSPost2010Prop45
280
     0
102
RTVSPost2010PropOp45
 70
     1
102
RTVSPost2010Prop46
 90
       50
102
RTVSPost2010PropOp46
 70
     1
102
RTVSPost2010Prop47
 90
       50
102
RTVSPost2010PropOp47
 70
     1
102
RTVSPost2010Prop48
 90
       50
102
RTVSPost2010PropOp48
 70
     1
102
RTVSPost2010Prop49
280
     0
102
RTVSPost2010PropOp49
 70
     1
102
RTVSPost2010Prop50
 90
       50
102
RTVSPost2010PropOp50
 70
     1
102
RTVSPost2010Prop51ColorIndex
 90
      256
102
RTVSPost2010Prop51ColorRGB
 90
-16777216
102
RTVSPost2010PropOp51
 70
     0
102
RTVSPost2010Prop52
140
1.0
102
RTVSPost2010PropOp52
 70
     0
102
RTVSPost2010Prop53
 90
        2
102
RTVSPost2010PropOp53
 70
     1
102
RTVSPost2010Prop54
  1
strokes_ogs.tif
102
RTVSPost2010PropOp54
 70
     1
102
RTVSPost2010Prop55
280
     0
102
RTVSPost2010PropOp55
 70
     1
102
RTVSPost2010Prop56
140
1.0
102
RTVSPost2010PropOp56
 70
     1
102
RTVSPost2010Prop57
140
1.0
102
RTVSPost2010PropOp57
 70
     1
102
RTVSPropertyOp0
 70
     1
102
RTVSPropertyOp1
 70
     1
102
RTVSPropertyOp2
 70
     1
102
RTVSPropertyOp3
 70
     1
102
RTVSPropertyOp4
 70
     1
102
RTVSPropertyOp5
 70
     1
102
RTVSPropertyOp6
 70
     1
102
RTVSPropertyOp7
 70
     1
102
RTVSPropertyOp8
 70
     1
102
RTVSPropertyOp9
 70
     1
102
RTVSPropertyOp10
 70
     1
102
RTVSPropertyOp11
 70
     1
102
RTVSPropertyOp12
 70
     1
102
RTVSPropertyOp13
 70
     1
102
RTVSPropertyOp14
 70
     1
102
RTVSPropertyOp15
 70
     1
102
RTVSPropertyOp16
 70
     1
102
RTVSPropertyOp17
 70
     1
102
RTVSPropertyOp18
 70
     1
102
RTVSPropertyOp19
 70
     1
102
RTVSPropertyOp20
 70
     1
102
RTVSPropertyOp21
 70
     1
102
RTVSPropertyOp22
 70
     1
102
RTVSPropertyOp23
 70
     1
102
RTVSPropertyOp24
 70
     1
102
RTVSPropertyOp25
 70
     1
102
RTVSPropertyOp26
 70
     1
102
RTVSPropertyOp27
 70
     1
102
RTVSPropertyOp28
 70
     1
102
RTVSPropertyOp29
 70
     1
102
RTVSPropertyOp30
 70
     1
102
RTVSPropertyOp31
 70
     1
102
RTVSPropertyOp32
 70
     1
102
RTVSPropertyOp33
 70
     1
102
RTVSPropertyOp34
 70
     1
102
RTVSPropertyOp35
 70
     1
102
RTVSPropertyOp36
 70
     1
102
RTVSPropertyOp37
 70
     1
102
RTVSPropertyOp38
 70
     1
102
RTVSPropertyOp39
 70
     1
102
RTVSPropertyOp40
 70
     1
102
RTVSPropertyOp41
 70
     1
102
RTVSPropertyOp42
 70
     1
102
RTVSPropertyOp43
 70
     1
102
RTVSPropertyOp44
 70
     1
102
RTVSPropertyOp45
 70
     1
102
RTVSPropertyOp46
 70
     1
102
RTVSPropertyOp47
 70
     1
102
RTVSPropertyOp48
 70
     1
102
RTVSPropertyOp49
 70
     1
102
RTVSPropertyOp50
 70
     1
102
RTVSPropertyOp51
 70
     0
102
RTVSPropertyOp52
 70
     0
102
RTVSPropertyOp53
 70
     1
102
RTVSPropertyOp54
 70
     1
102
RTVSPropertyOp55
 70
     1
102
RTVSPropertyOp56
 70
     1
102
RTVSPropertyOp57
 70
     1
102
RTVSPropertyOp58
 70
     1
102
RTVSPropertyOp59
 70
     1
102
RTVSPropertyOp60
 70
     1
102
RTVSPropertyOp61
 70
     1
102
RTVSPropertyOp62
 70
     1
  0
XRECORD
  5
1C4EE
102
{ACAD_REACTORS
330
1C4ED
102
}
330
1C4ED
100
AcDbXrecord
280
     1
102
RTVSPost2010Prop28
280
     0
102
RTVSPost2010PropOp28
 70
     1
102
RTVSPost2010Prop29
280
     1
102
RTVSPost2010PropOp29
 70
     1
102
RTVSPost2010Prop30
280
     1
102
RTVSPost2010PropOp30
 70
     1
102
RTVSPost2010Prop31
280
     0
102
RTVSPost2010PropOp31
 70
     1
102
RTVSPost2010Prop32
280
     0
102
RTVSPost2010PropOp32
 70
     1
102
RTVSPost2010Prop33
280
     0
102
RTVSPost2010PropOp33
 70
     1
102
RTVSPost2010Prop34
280
     0
102
RTVSPost2010PropOp34
 70
     1
102
RTVSPost2010Prop35
280
     0
102
RTVSPost2010PropOp35
 70
     1
102
RTVSPost2010Prop36
280
     0
102
RTVSPost2010PropOp36
 70
     1
102
RTVSPost2010Prop37
 90
       50
102
RTVSPost2010PropOp37
 70
     0
102
RTVSPost2010Prop38
140
0.0
102
RTVSPost2010PropOp38
 70
     0
102
RTVSPost2010Prop39
140
1.0
102
RTVSPost2010PropOp39
 70
     0
102
RTVSPost2010Prop40
 90
        0
102
RTVSPost2010PropOp40
 70
     0
102
RTVSPost2010Prop41ColorIndex
 90
       18
102
RTVSPost2010Prop41ColorRGB
 90
        0
102
RTVSPost2010PropOp41
 70
     0
102
RTVSPost2010Prop42
 90
       50
102
RTVSPost2010PropOp42
 70
     0
102
RTVSPost2010Prop43
 90
        3
102
RTVSPost2010PropOp43
 70
     0
102
RTVSPost2010Prop44ColorIndex
 90
        5
102
RTVSPost2010Prop44ColorRGB
 90
      255
102
RTVSPost2010PropOp44
 70
     0
102
RTVSPost2010Prop45
280
     0
102
RTVSPost2010PropOp45
 70
     1
102
RTVSPost2010Prop46
 90
       50
102
RTVSPost2010PropOp46
 70
     0
102
RTVSPost2010Prop47
 90
       50
102
RTVSPost2010PropOp47
 70
     0
102
RTVSPost2010Prop48
 90
       50
102
RTVSPost2010PropOp48
 70
     0
102
RTVSPost2010Prop49
280
     0
102
RTVSPost2010PropOp49
 70
     1
102
RTVSPost2010Prop50
 90
       50
102
RTVSPost2010PropOp50
 70
     0
102
RTVSPost2010Prop51ColorIndex
 90
      256
102
RTVSPost2010Prop51ColorRGB
 90
-16777216
102
RTVSPost2010PropOp51
 70
     0
102
RTVSPost2010Prop52
140
1.0
102
RTVSPost2010PropOp52
 70
     0
102
RTVSPost2010Prop53
 90
        2
102
RTVSPost2010PropOp53
 70
     0
102
RTVSPost2010Prop54
  1
strokes_ogs.tif
102
RTVSPost2010PropOp54
 70
     0
102
RTVSPost2010Prop55
280
     0
102
RTVSPost2010PropOp55
 70
     1
102
RTVSPost2010Prop56
140
1.0
102
RTVSPost2010PropOp56
 70
     0
102
RTVSPost2010Prop57
140
1.0
102
RTVSPost2010PropOp57
 70
     0
102
RTVSPropertyOp0
 70
     0
102
RTVSPropertyOp1
 70
     0
102
RTVSPropertyOp2
 70
     0
102
RTVSPropertyOp3
 70
     0
102
RTVSPropertyOp4
 70
     0
102
RTVSPropertyOp5
 70
     0
102
RTVSPropertyOp6
 70
     0
102
RTVSPropertyOp7
 70
     0
102
RTVSPropertyOp8
 70
     0
102
RTVSPropertyOp9
 70
     0
102
RTVSPropertyOp10
 70
     0
102
RTVSPropertyOp11
 70
     0
102
RTVSPropertyOp12
 70
     0
102
RTVSPropertyOp13
 70
     0
102
RTVSPropertyOp14
 70
     2
102
RTVSPropertyOp15
 70
     0
102
RTVSPropertyOp16
 70
     0
102
RTVSPropertyOp17
 70
     0
102
RTVSPropertyOp18
 70
     0
102
RTVSPropertyOp19
 70
     0
102
RTVSPropertyOp20
 70
     0
102
RTVSPropertyOp21
 70
     0
102
RTVSPropertyOp22
 70
     0
102
RTVSPropertyOp23
 70
     0
102
RTVSPropertyOp24
 70
     0
102
RTVSPropertyOp25
 70
     0
102
RTVSPropertyOp26
 70
     0
102
RTVSPropertyOp27
 70
     0
102
RTVSPropertyOp28
 70
     1
102
RTVSPropertyOp29
 70
     1
102
RTVSPropertyOp30
 70
     1
102
RTVSPropertyOp31
 70
     1
102
RTVSPropertyOp32
 70
     1
102
RTVSPropertyOp33
 70
     1
102
RTVSPropertyOp34
 70
     1
102
RTVSPropertyOp35
 70
     1
102
RTVSPropertyOp36
 70
     1
102
RTVSPropertyOp37
 70
     0
102
RTVSPropertyOp38
 70
     0
102
RTVSPropertyOp39
 70
     0
102
RTVSPropertyOp40
 70
     0
102
RTVSPropertyOp41
 70
     0
102
RTVSPropertyOp42
 70
     0
102
RTVSPropertyOp43
 70
     0
102
RTVSPropertyOp44
 70
     0
102
RTVSPropertyOp45
 70
     1
102
RTVSPropertyOp46
 70
     0
102
RTVSPropertyOp47
 70
     0
102
RTVSPropertyOp48
 70
     0
102
RTVSPropertyOp49
 70
     1
102
RTVSPropertyOp50
 70
     0
102
RTVSPropertyOp51
 70
     0
102
RTVSPropertyOp52
 70
     0
102
RTVSPropertyOp53
 70
     0
102
RTVSPropertyOp54
 70
     0
102
RTVSPropertyOp55
 70
     1
102
RTVSPropertyOp56
 70
     0
102
RTVSPropertyOp57
 70
     0
102
RTVSPropertyOp58
 70
     0
102
RTVSPropertyOp59
 70
     0
102
RTVSPropertyOp60
 70
     0
102
RTVSPropertyOp61
 70
     0
102
RTVSPropertyOp62
 70
     0
  0
XRECORD
  5
1C4DE
102
{ACAD_REACTORS
330
1C4DD
102
}
330
1C4DD
100
AcDbXrecord
280
     1
102
RTVSPost2010Prop28
280
     0
102
RTVSPost2010PropOp28
 70
     1
102
RTVSPost2010Prop29
280
     1
102
RTVSPost2010PropOp29
 70
     1
102
RTVSPost2010Prop30
280
     1
102
RTVSPost2010PropOp30
 70
     1
102
RTVSPost2010Prop31
280
     0
102
RTVSPost2010PropOp31
 70
     1
102
RTVSPost2010Prop32
280
     0
102
RTVSPost2010PropOp32
 70
     1
102
RTVSPost2010Prop33
280
     0
102
RTVSPost2010PropOp33
 70
     1
102
RTVSPost2010Prop34
280
     0
102
RTVSPost2010PropOp34
 70
     1
102
RTVSPost2010Prop35
280
     0
102
RTVSPost2010PropOp35
 70
     1
102
RTVSPost2010Prop36
280
     0
102
RTVSPost2010PropOp36
 70
     1
102
RTVSPost2010Prop37
 90
       50
102
RTVSPost2010PropOp37
 70
     1
102
RTVSPost2010Prop38
140
0.0
102
RTVSPost2010PropOp38
 70
     1
102
RTVSPost2010Prop39
140
1.0
102
RTVSPost2010PropOp39
 70
     1
102
RTVSPost2010Prop40
 90
        0
102
RTVSPost2010PropOp40
 70
     1
102
RTVSPost2010Prop41ColorIndex
 90
       18
102
RTVSPost2010Prop41ColorRGB
 90
        0
102
RTVSPost2010PropOp41
 70
     1
102
RTVSPost2010Prop42
 90
       50
102
RTVSPost2010PropOp42
 70
     1
102
RTVSPost2010Prop43
 90
        3
102
RTVSPost2010PropOp43
 70
     1
102
RTVSPost2010Prop44ColorIndex
 90
        5
102
RTVSPost2010Prop44ColorRGB
 90
      255
102
RTVSPost2010PropOp44
 70
     1
102
RTVSPost2010Prop45
280
     0
102
RTVSPost2010PropOp45
 70
     1
102
RTVSPost2010Prop46
 90
       50
102
RTVSPost2010PropOp46
 70
     1
102
RTVSPost2010Prop47
 90
       50
102
RTVSPost2010PropOp47
 70
     1
102
RTVSPost2010Prop48
 90
       50
102
RTVSPost2010PropOp48
 70
     1
102
RTVSPost2010Prop49
280
     0
102
RTVSPost2010PropOp49
 70
     1
102
RTVSPost2010Prop50
 90
       50
102
RTVSPost2010PropOp50
 70
     1
102
RTVSPost2010Prop51ColorIndex
 90
      256
102
RTVSPost2010Prop51ColorRGB
 90
-16777216
102
RTVSPost2010PropOp51
 70
     0
102
RTVSPost2010Prop52
140
1.0
102
RTVSPost2010PropOp52
 70
     0
102
RTVSPost2010Prop53
 90
        2
102
RTVSPost2010PropOp53
 70
     1
102
RTVSPost2010Prop54
  1
strokes_ogs.tif
102
RTVSPost2010PropOp54
 70
     1
102
RTVSPost2010Prop55
280
     0
102
RTVSPost2010PropOp55
 70
     1
102
RTVSPost2010Prop56
140
1.0
102
RTVSPost2010PropOp56
 70
     1
102
RTVSPost2010Prop57
140
1.0
102
RTVSPost2010PropOp57
 70
     1
102
RTVSPropertyOp0
 70
     1
102
RTVSPropertyOp1
 70
     1
102
RTVSPropertyOp2
 70
     1
102
RTVSPropertyOp3
 70
     1
102
RTVSPropertyOp4
 70
     1
102
RTVSPropertyOp5
 70
     1
102
RTVSPropertyOp6
 70
     1
102
RTVSPropertyOp7
 70
     1
102
RTVSPropertyOp8
 70
     1
102
RTVSPropertyOp9
 70
     1
102
RTVSPropertyOp10
 70
     1
102
RTVSPropertyOp11
 70
     1
102
RTVSPropertyOp12
 70
     1
102
RTVSPropertyOp13
 70
     1
102
RTVSPropertyOp14
 70
     1
102
RTVSPropertyOp15
 70
     1
102
RTVSPropertyOp16
 70
     1
102
RTVSPropertyOp17
 70
     1
102
RTVSPropertyOp18
 70
     1
102
RTVSPropertyOp19
 70
     1
102
RTVSPropertyOp20
 70
     1
102
RTVSPropertyOp21
 70
     1
102
RTVSPropertyOp22
 70
     1
102
RTVSPropertyOp23
 70
     1
102
RTVSPropertyOp24
 70
     1
102
RTVSPropertyOp25
 70
     1
102
RTVSPropertyOp26
 70
     1
102
RTVSPropertyOp27
 70
     1
102
RTVSPropertyOp28
 70
     1
102
RTVSPropertyOp29
 70
     1
102
RTVSPropertyOp30
 70
     1
102
RTVSPropertyOp31
 70
     1
102
RTVSPropertyOp32
 70
     1
102
RTVSPropertyOp33
 70
     1
102
RTVSPropertyOp34
 70
     1
102
RTVSPropertyOp35
 70
     1
102
RTVSPropertyOp36
 70
     1
102
RTVSPropertyOp37
 70
     1
102
RTVSPropertyOp38
 70
     1
102
RTVSPropertyOp39
 70
     1
102
RTVSPropertyOp40
 70
     1
102
RTVSPropertyOp41
 70
     1
102
RTVSPropertyOp42
 70
     1
102
RTVSPropertyOp43
 70
     1
102
RTVSPropertyOp44
 70
     1
102
RTVSPropertyOp45
 70
     1
102
RTVSPropertyOp46
 70
     1
102
RTVSPropertyOp47
 70
     1
102
RTVSPropertyOp48
 70
     1
102
RTVSPropertyOp49
 70
     1
102
RTVSPropertyOp50
 70
     1
102
RTVSPropertyOp51
 70
     0
102
RTVSPropertyOp52
 70
     0
102
RTVSPropertyOp53
 70
     1
102
RTVSPropertyOp54
 70
     1
102
RTVSPropertyOp55
 70
     1
102
RTVSPropertyOp56
 70
     1
102
RTVSPropertyOp57
 70
     1
102
RTVSPropertyOp58
 70
     1
102
RTVSPropertyOp59
 70
     1
102
RTVSPropertyOp60
 70
     1
102
RTVSPropertyOp61
 70
     1
102
RTVSPropertyOp62
 70
     1
  0
XRECORD
  5
1C4F0
102
{ACAD_REACTORS
330
1C4EF
102
}
330
1C4EF
100
AcDbXrecord
280
     1
102
RTVSPost2010Prop28
280
     0
102
RTVSPost2010PropOp28
 70
     1
102
RTVSPost2010Prop29
280
     1
102
RTVSPost2010PropOp29
 70
     1
102
RTVSPost2010Prop30
280
     1
102
RTVSPost2010PropOp30
 70
     1
102
RTVSPost2010Prop31
280
     0
102
RTVSPost2010PropOp31
 70
     1
102
RTVSPost2010Prop32
280
     0
102
RTVSPost2010PropOp32
 70
     1
102
RTVSPost2010Prop33
280
     0
102
RTVSPost2010PropOp33
 70
     1
102
RTVSPost2010Prop34
280
     0
102
RTVSPost2010PropOp34
 70
     1
102
RTVSPost2010Prop35
280
     0
102
RTVSPost2010PropOp35
 70
     1
102
RTVSPost2010Prop36
280
     0
102
RTVSPost2010PropOp36
 70
     1
102
RTVSPost2010Prop37
 90
       50
102
RTVSPost2010PropOp37
 70
     0
102
RTVSPost2010Prop38
140
0.0
102
RTVSPost2010PropOp38
 70
     0
102
RTVSPost2010Prop39
140
1.0
102
RTVSPost2010PropOp39
 70
     0
102
RTVSPost2010Prop40
 90
        0
102
RTVSPost2010PropOp40
 70
     0
102
RTVSPost2010Prop41ColorIndex
 90
       18
102
RTVSPost2010Prop41ColorRGB
 90
        0
102
RTVSPost2010PropOp41
 70
     0
102
RTVSPost2010Prop42
 90
       50
102
RTVSPost2010PropOp42
 70
     0
102
RTVSPost2010Prop43
 90
        3
102
RTVSPost2010PropOp43
 70
     0
102
RTVSPost2010Prop44ColorIndex
 90
        5
102
RTVSPost2010Prop44ColorRGB
 90
      255
102
RTVSPost2010PropOp44
 70
     0
102
RTVSPost2010Prop45
280
     0
102
RTVSPost2010PropOp45
 70
     1
102
RTVSPost2010Prop46
 90
       50
102
RTVSPost2010PropOp46
 70
     0
102
RTVSPost2010Prop47
 90
       50
102
RTVSPost2010PropOp47
 70
     0
102
RTVSPost2010Prop48
 90
       50
102
RTVSPost2010PropOp48
 70
     0
102
RTVSPost2010Prop49
280
     0
102
RTVSPost2010PropOp49
 70
     1
102
RTVSPost2010Prop50
 90
       50
102
RTVSPost2010PropOp50
 70
     0
102
RTVSPost2010Prop51ColorIndex
 90
      256
102
RTVSPost2010Prop51ColorRGB
 90
-16777216
102
RTVSPost2010PropOp51
 70
     0
102
RTVSPost2010Prop52
140
1.0
102
RTVSPost2010PropOp52
 70
     0
102
RTVSPost2010Prop53
 90
        2
102
RTVSPost2010PropOp53
 70
     0
102
RTVSPost2010Prop54
  1
strokes_ogs.tif
102
RTVSPost2010PropOp54
 70
     0
102
RTVSPost2010Prop55
280
     0
102
RTVSPost2010PropOp55
 70
     1
102
RTVSPost2010Prop56
140
1.0
102
RTVSPost2010PropOp56
 70
     0
102
RTVSPost2010Prop57
140
1.0
102
RTVSPost2010PropOp57
 70
     0
102
RTVSPropertyOp0
 70
     0
102
RTVSPropertyOp1
 70
     0
102
RTVSPropertyOp2
 70
     0
102
RTVSPropertyOp3
 70
     0
102
RTVSPropertyOp4
 70
     0
102
RTVSPropertyOp5
 70
     0
102
RTVSPropertyOp6
 70
     0
102
RTVSPropertyOp7
 70
     0
102
RTVSPropertyOp8
 70
     0
102
RTVSPropertyOp9
 70
     0
102
RTVSPropertyOp10
 70
     0
102
RTVSPropertyOp11
 70
     0
102
RTVSPropertyOp12
 70
     0
102
RTVSPropertyOp13
 70
     0
102
RTVSPropertyOp14
 70
     2
102
RTVSPropertyOp15
 70
     0
102
RTVSPropertyOp16
 70
     0
102
RTVSPropertyOp17
 70
     0
102
RTVSPropertyOp18
 70
     0
102
RTVSPropertyOp19
 70
     0
102
RTVSPropertyOp20
 70
     0
102
RTVSPropertyOp21
 70
     0
102
RTVSPropertyOp22
 70
     0
102
RTVSPropertyOp23
 70
     0
102
RTVSPropertyOp24
 70
     0
102
RTVSPropertyOp25
 70
     0
102
RTVSPropertyOp26
 70
     0
102
RTVSPropertyOp27
 70
     0
102
RTVSPropertyOp28
 70
     1
102
RTVSPropertyOp29
 70
     1
102
RTVSPropertyOp30
 70
     1
102
RTVSPropertyOp31
 70
     1
102
RTVSPropertyOp32
 70
     1
102
RTVSPropertyOp33
 70
     1
102
RTVSPropertyOp34
 70
     1
102
RTVSPropertyOp35
 70
     1
102
RTVSPropertyOp36
 70
     1
102
RTVSPropertyOp37
 70
     0
102
RTVSPropertyOp38
 70
     0
102
RTVSPropertyOp39
 70
     0
102
RTVSPropertyOp40
 70
     0
102
RTVSPropertyOp41
 70
     0
102
RTVSPropertyOp42
 70
     0
102
RTVSPropertyOp43
 70
     0
102
RTVSPropertyOp44
 70
     0
102
RTVSPropertyOp45
 70
     1
102
RTVSPropertyOp46
 70
     0
102
RTVSPropertyOp47
 70
     0
102
RTVSPropertyOp48
 70
     0
102
RTVSPropertyOp49
 70
     1
102
RTVSPropertyOp50
 70
     0
102
RTVSPropertyOp51
 70
     0
102
RTVSPropertyOp52
 70
     0
102
RTVSPropertyOp53
 70
     0
102
RTVSPropertyOp54
 70
     0
102
RTVSPropertyOp55
 70
     1
102
RTVSPropertyOp56
 70
     0
102
RTVSPropertyOp57
 70
     0
102
RTVSPropertyOp58
 70
     0
102
RTVSPropertyOp59
 70
     0
102
RTVSPropertyOp60
 70
     0
102
RTVSPropertyOp61
 70
     0
102
RTVSPropertyOp62
 70
     0
  0
XRECORD
  5
1C4D6
102
{ACAD_REACTORS
330
1C4D5
102
}
330
1C4D5
100
AcDbXrecord
280
     1
102
RTVSPost2010Prop28
280
     0
102
RTVSPost2010PropOp28
 70
     1
102
RTVSPost2010Prop29
280
     1
102
RTVSPost2010PropOp29
 70
     1
102
RTVSPost2010Prop30
280
     1
102
RTVSPost2010PropOp30
 70
     1
102
RTVSPost2010Prop31
280
     0
102
RTVSPost2010PropOp31
 70
     1
102
RTVSPost2010Prop32
280
     0
102
RTVSPost2010PropOp32
 70
     1
102
RTVSPost2010Prop33
280
     0
102
RTVSPost2010PropOp33
 70
     1
102
RTVSPost2010Prop34
280
     0
102
RTVSPost2010PropOp34
 70
     1
102
RTVSPost2010Prop35
280
     0
102
RTVSPost2010PropOp35
 70
     1
102
RTVSPost2010Prop36
280
     0
102
RTVSPost2010PropOp36
 70
     1
102
RTVSPost2010Prop37
 90
       50
102
RTVSPost2010PropOp37
 70
     1
102
RTVSPost2010Prop38
140
0.0
102
RTVSPost2010PropOp38
 70
     1
102
RTVSPost2010Prop39
140
1.0
102
RTVSPost2010PropOp39
 70
     1
102
RTVSPost2010Prop40
 90
        0
102
RTVSPost2010PropOp40
 70
     1
102
RTVSPost2010Prop41ColorIndex
 90
       18
102
RTVSPost2010Prop41ColorRGB
 90
        0
102
RTVSPost2010PropOp41
 70
     1
102
RTVSPost2010Prop42
 90
       50
102
RTVSPost2010PropOp42
 70
     1
102
RTVSPost2010Prop43
 90
        3
102
RTVSPost2010PropOp43
 70
     1
102
RTVSPost2010Prop44ColorIndex
 90
        5
102
RTVSPost2010Prop44ColorRGB
 90
      255
102
RTVSPost2010PropOp44
 70
     1
102
RTVSPost2010Prop45
280
     0
102
RTVSPost2010PropOp45
 70
     1
102
RTVSPost2010Prop46
 90
       50
102
RTVSPost2010PropOp46
 70
     1
102
RTVSPost2010Prop47
 90
       50
102
RTVSPost2010PropOp47
 70
     1
102
RTVSPost2010Prop48
 90
       50
102
RTVSPost2010PropOp48
 70
     1
102
RTVSPost2010Prop49
280
     0
102
RTVSPost2010PropOp49
 70
     1
102
RTVSPost2010Prop50
 90
       50
102
RTVSPost2010PropOp50
 70
     1
102
RTVSPost2010Prop51ColorIndex
 90
      256
102
RTVSPost2010Prop51ColorRGB
 90
-16777216
102
RTVSPost2010PropOp51
 70
     0
102
RTVSPost2010Prop52
140
1.0
102
RTVSPost2010PropOp52
 70
     0
102
RTVSPost2010Prop53
 90
        2
102
RTVSPost2010PropOp53
 70
     1
102
RTVSPost2010Prop54
  1
strokes_ogs.tif
102
RTVSPost2010PropOp54
 70
     1
102
RTVSPost2010Prop55
280
     0
102
RTVSPost2010PropOp55
 70
     1
102
RTVSPost2010Prop56
140
1.0
102
RTVSPost2010PropOp56
 70
     1
102
RTVSPost2010Prop57
140
1.0
102
RTVSPost2010PropOp57
 70
     1
102
RTVSPropertyOp0
 70
     1
102
RTVSPropertyOp1
 70
     1
102
RTVSPropertyOp2
 70
     1
102
RTVSPropertyOp3
 70
     1
102
RTVSPropertyOp4
 70
     1
102
RTVSPropertyOp5
 70
     1
102
RTVSPropertyOp6
 70
     1
102
RTVSPropertyOp7
 70
     1
102
RTVSPropertyOp8
 70
     1
102
RTVSPropertyOp9
 70
     1
102
RTVSPropertyOp10
 70
     1
102
RTVSPropertyOp11
 70
     1
102
RTVSPropertyOp12
 70
     1
102
RTVSPropertyOp13
 70
     1
102
RTVSPropertyOp14
 70
     1
102
RTVSPropertyOp15
 70
     1
102
RTVSPropertyOp16
 70
     1
102
RTVSPropertyOp17
 70
     1
102
RTVSPropertyOp18
 70
     1
102
RTVSPropertyOp19
 70
     1
102
RTVSPropertyOp20
 70
     1
102
RTVSPropertyOp21
 70
     1
102
RTVSPropertyOp22
 70
     1
102
RTVSPropertyOp23
 70
     1
102
RTVSPropertyOp24
 70
     1
102
RTVSPropertyOp25
 70
     1
102
RTVSPropertyOp26
 70
     1
102
RTVSPropertyOp27
 70
     1
102
RTVSPropertyOp28
 70
     1
102
RTVSPropertyOp29
 70
     1
102
RTVSPropertyOp30
 70
     1
102
RTVSPropertyOp31
 70
     1
102
RTVSPropertyOp32
 70
     1
102
RTVSPropertyOp33
 70
     1
102
RTVSPropertyOp34
 70
     1
102
RTVSPropertyOp35
 70
     1
102
RTVSPropertyOp36
 70
     1
102
RTVSPropertyOp37
 70
     1
102
RTVSPropertyOp38
 70
     1
102
RTVSPropertyOp39
 70
     1
102
RTVSPropertyOp40
 70
     1
102
RTVSPropertyOp41
 70
     1
102
RTVSPropertyOp42
 70
     1
102
RTVSPropertyOp43
 70
     1
102
RTVSPropertyOp44
 70
     1
102
RTVSPropertyOp45
 70
     1
102
RTVSPropertyOp46
 70
     1
102
RTVSPropertyOp47
 70
     1
102
RTVSPropertyOp48
 70
     1
102
RTVSPropertyOp49
 70
     1
102
RTVSPropertyOp50
 70
     1
102
RTVSPropertyOp51
 70
     0
102
RTVSPropertyOp52
 70
     0
102
RTVSPropertyOp53
 70
     1
102
RTVSPropertyOp54
 70
     1
102
RTVSPropertyOp55
 70
     1
102
RTVSPropertyOp56
 70
     1
102
RTVSPropertyOp57
 70
     1
102
RTVSPropertyOp58
 70
     1
102
RTVSPropertyOp59
 70
     1
102
RTVSPropertyOp60
 70
     1
102
RTVSPropertyOp61
 70
     1
102
RTVSPropertyOp62
 70
     1
  0
XRECORD
  5
1C4EC
102
{ACAD_REACTORS
330
1C4EB
102
}
330
1C4EB
100
AcDbXrecord
280
     1
102
RTVSPost2010Prop28
280
     0
102
RTVSPost2010PropOp28
 70
     1
102
RTVSPost2010Prop29
280
     1
102
RTVSPost2010PropOp29
 70
     1
102
RTVSPost2010Prop30
280
     1
102
RTVSPost2010PropOp30
 70
     1
102
RTVSPost2010Prop31
280
     0
102
RTVSPost2010PropOp31
 70
     1
102
RTVSPost2010Prop32
280
     0
102
RTVSPost2010PropOp32
 70
     1
102
RTVSPost2010Prop33
280
     0
102
RTVSPost2010PropOp33
 70
     1
102
RTVSPost2010Prop34
280
     0
102
RTVSPost2010PropOp34
 70
     1
102
RTVSPost2010Prop35
280
     0
102
RTVSPost2010PropOp35
 70
     1
102
RTVSPost2010Prop36
280
     0
102
RTVSPost2010PropOp36
 70
     1
102
RTVSPost2010Prop37
 90
       50
102
RTVSPost2010PropOp37
 70
     1
102
RTVSPost2010Prop38
140
0.0
102
RTVSPost2010PropOp38
 70
     1
102
RTVSPost2010Prop39
140
1.0
102
RTVSPost2010PropOp39
 70
     1
102
RTVSPost2010Prop40
 90
        0
102
RTVSPost2010PropOp40
 70
     1
102
RTVSPost2010Prop41ColorIndex
 90
       18
102
RTVSPost2010Prop41ColorRGB
 90
        0
102
RTVSPost2010PropOp41
 70
     1
102
RTVSPost2010Prop42
 90
       50
102
RTVSPost2010PropOp42
 70
     1
102
RTVSPost2010Prop43
 90
        3
102
RTVSPost2010PropOp43
 70
     1
102
RTVSPost2010Prop44ColorIndex
 90
        5
102
RTVSPost2010Prop44ColorRGB
 90
      255
102
RTVSPost2010PropOp44
 70
     1
102
RTVSPost2010Prop45
280
     0
102
RTVSPost2010PropOp45
 70
     1
102
RTVSPost2010Prop46
 90
       50
102
RTVSPost2010PropOp46
 70
     1
102
RTVSPost2010Prop47
 90
       50
102
RTVSPost2010PropOp47
 70
     1
102
RTVSPost2010Prop48
 90
       50
102
RTVSPost2010PropOp48
 70
     1
102
RTVSPost2010Prop49
280
     0
102
RTVSPost2010PropOp49
 70
     1
102
RTVSPost2010Prop50
 90
       50
102
RTVSPost2010PropOp50
 70
     1
102
RTVSPost2010Prop51ColorIndex
 90
      256
102
RTVSPost2010Prop51ColorRGB
 90
-16777216
102
RTVSPost2010PropOp51
 70
     0
102
RTVSPost2010Prop52
140
1.0
102
RTVSPost2010PropOp52
 70
     0
102
RTVSPost2010Prop53
 90
        2
102
RTVSPost2010PropOp53
 70
     1
102
RTVSPost2010Prop54
  1
strokes_ogs.tif
102
RTVSPost2010PropOp54
 70
     1
102
RTVSPost2010Prop55
280
     0
102
RTVSPost2010PropOp55
 70
     1
102
RTVSPost2010Prop56
140
1.0
102
RTVSPost2010PropOp56
 70
     1
102
RTVSPost2010Prop57
140
1.0
102
RTVSPost2010PropOp57
 70
     1
102
RTVSPropertyOp0
 70
     1
102
RTVSPropertyOp1
 70
     1
102
RTVSPropertyOp2
 70
     1
102
RTVSPropertyOp3
 70
     1
102
RTVSPropertyOp4
 70
     1
102
RTVSPropertyOp5
 70
     1
102
RTVSPropertyOp6
 70
     1
102
RTVSPropertyOp7
 70
     1
102
RTVSPropertyOp8
 70
     1
102
RTVSPropertyOp9
 70
     1
102
RTVSPropertyOp10
 70
     1
102
RTVSPropertyOp11
 70
     1
102
RTVSPropertyOp12
 70
     1
102
RTVSPropertyOp13
 70
     1
102
RTVSPropertyOp14
 70
     1
102
RTVSPropertyOp15
 70
     1
102
RTVSPropertyOp16
 70
     1
102
RTVSPropertyOp17
 70
     1
102
RTVSPropertyOp18
 70
     1
102
RTVSPropertyOp19
 70
     1
102
RTVSPropertyOp20
 70
     1
102
RTVSPropertyOp21
 70
     1
102
RTVSPropertyOp22
 70
     1
102
RTVSPropertyOp23
 70
     1
102
RTVSPropertyOp24
 70
     1
102
RTVSPropertyOp25
 70
     1
102
RTVSPropertyOp26
 70
     1
102
RTVSPropertyOp27
 70
     1
102
RTVSPropertyOp28
 70
     1
102
RTVSPropertyOp29
 70
     1
102
RTVSPropertyOp30
 70
     1
102
RTVSPropertyOp31
 70
     1
102
RTVSPropertyOp32
 70
     1
102
RTVSPropertyOp33
 70
     1
102
RTVSPropertyOp34
 70
     1
102
RTVSPropertyOp35
 70
     1
102
RTVSPropertyOp36
 70
     1
102
RTVSPropertyOp37
 70
     1
102
RTVSPropertyOp38
 70
     1
102
RTVSPropertyOp39
 70
     1
102
RTVSPropertyOp40
 70
     1
102
RTVSPropertyOp41
 70
     1
102
RTVSPropertyOp42
 70
     1
102
RTVSPropertyOp43
 70
     1
102
RTVSPropertyOp44
 70
     1
102
RTVSPropertyOp45
 70
     1
102
RTVSPropertyOp46
 70
     1
102
RTVSPropertyOp47
 70
     1
102
RTVSPropertyOp48
 70
     1
102
RTVSPropertyOp49
 70
     1
102
RTVSPropertyOp50
 70
     1
102
RTVSPropertyOp51
 70
     0
102
RTVSPropertyOp52
 70
     0
102
RTVSPropertyOp53
 70
     1
102
RTVSPropertyOp54
 70
     1
102
RTVSPropertyOp55
 70
     1
102
RTVSPropertyOp56
 70
     1
102
RTVSPropertyOp57
 70
     1
102
RTVSPropertyOp58
 70
     1
102
RTVSPropertyOp59
 70
     1
102
RTVSPropertyOp60
 70
     1
102
RTVSPropertyOp61
 70
     1
102
RTVSPropertyOp62
 70
     1
  0
XRECORD
  5
1C4EA
102
{ACAD_REACTORS
330
1C4E9
102
}
330
1C4E9
100
AcDbXrecord
280
     1
102
RTVSPost2010Prop28
280
     0
102
RTVSPost2010PropOp28
 70
     1
102
RTVSPost2010Prop29
280
     1
102
RTVSPost2010PropOp29
 70
     1
102
RTVSPost2010Prop30
280
     1
102
RTVSPost2010PropOp30
 70
     1
102
RTVSPost2010Prop31
280
     0
102
RTVSPost2010PropOp31
 70
     1
102
RTVSPost2010Prop32
280
     0
102
RTVSPost2010PropOp32
 70
     1
102
RTVSPost2010Prop33
280
     0
102
RTVSPost2010PropOp33
 70
     1
102
RTVSPost2010Prop34
280
     0
102
RTVSPost2010PropOp34
 70
     1
102
RTVSPost2010Prop35
280
     0
102
RTVSPost2010PropOp35
 70
     1
102
RTVSPost2010Prop36
280
     0
102
RTVSPost2010PropOp36
 70
     1
102
RTVSPost2010Prop37
 90
       50
102
RTVSPost2010PropOp37
 70
     1
102
RTVSPost2010Prop38
140
0.0
102
RTVSPost2010PropOp38
 70
     1
102
RTVSPost2010Prop39
140
1.0
102
RTVSPost2010PropOp39
 70
     1
102
RTVSPost2010Prop40
 90
        0
102
RTVSPost2010PropOp40
 70
     1
102
RTVSPost2010Prop41ColorIndex
 90
       18
102
RTVSPost2010Prop41ColorRGB
 90
        0
102
RTVSPost2010PropOp41
 70
     1
102
RTVSPost2010Prop42
 90
       50
102
RTVSPost2010PropOp42
 70
     1
102
RTVSPost2010Prop43
 90
        3
102
RTVSPost2010PropOp43
 70
     1
102
RTVSPost2010Prop44ColorIndex
 90
        5
102
RTVSPost2010Prop44ColorRGB
 90
      255
102
RTVSPost2010PropOp44
 70
     1
102
RTVSPost2010Prop45
280
     0
102
RTVSPost2010PropOp45
 70
     1
102
RTVSPost2010Prop46
 90
       50
102
RTVSPost2010PropOp46
 70
     1
102
RTVSPost2010Prop47
 90
       50
102
RTVSPost2010PropOp47
 70
     1
102
RTVSPost2010Prop48
 90
       50
102
RTVSPost2010PropOp48
 70
     1
102
RTVSPost2010Prop49
280
     0
102
RTVSPost2010PropOp49
 70
     1
102
RTVSPost2010Prop50
 90
       50
102
RTVSPost2010PropOp50
 70
     1
102
RTVSPost2010Prop51ColorIndex
 90
      256
102
RTVSPost2010Prop51ColorRGB
 90
-16777216
102
RTVSPost2010PropOp51
 70
     0
102
RTVSPost2010Prop52
140
1.0
102
RTVSPost2010PropOp52
 70
     0
102
RTVSPost2010Prop53
 90
        2
102
RTVSPost2010PropOp53
 70
     1
102
RTVSPost2010Prop54
  1
strokes_ogs.tif
102
RTVSPost2010PropOp54
 70
     1
102
RTVSPost2010Prop55
280
     0
102
RTVSPost2010PropOp55
 70
     1
102
RTVSPost2010Prop56
140
1.0
102
RTVSPost2010PropOp56
 70
     1
102
RTVSPost2010Prop57
140
1.0
102
RTVSPost2010PropOp57
 70
     1
102
RTVSPropertyOp0
 70
     1
102
RTVSPropertyOp1
 70
     1
102
RTVSPropertyOp2
 70
     1
102
RTVSPropertyOp3
 70
     1
102
RTVSPropertyOp4
 70
     1
102
RTVSPropertyOp5
 70
     1
102
RTVSPropertyOp6
 70
     1
102
RTVSPropertyOp7
 70
     1
102
RTVSPropertyOp8
 70
     1
102
RTVSPropertyOp9
 70
     1
102
RTVSPropertyOp10
 70
     1
102
RTVSPropertyOp11
 70
     1
102
RTVSPropertyOp12
 70
     1
102
RTVSPropertyOp13
 70
     1
102
RTVSPropertyOp14
 70
     1
102
RTVSPropertyOp15
 70
     1
102
RTVSPropertyOp16
 70
     1
102
RTVSPropertyOp17
 70
     1
102
RTVSPropertyOp18
 70
     1
102
RTVSPropertyOp19
 70
     1
102
RTVSPropertyOp20
 70
     1
102
RTVSPropertyOp21
 70
     1
102
RTVSPropertyOp22
 70
     1
102
RTVSPropertyOp23
 70
     1
102
RTVSPropertyOp24
 70
     1
102
RTVSPropertyOp25
 70
     1
102
RTVSPropertyOp26
 70
     1
102
RTVSPropertyOp27
 70
     1
102
RTVSPropertyOp28
 70
     1
102
RTVSPropertyOp29
 70
     1
102
RTVSPropertyOp30
 70
     1
102
RTVSPropertyOp31
 70
     1
102
RTVSPropertyOp32
 70
     1
102
RTVSPropertyOp33
 70
     1
102
RTVSPropertyOp34
 70
     1
102
RTVSPropertyOp35
 70
     1
102
RTVSPropertyOp36
 70
     1
102
RTVSPropertyOp37
 70
     1
102
RTVSPropertyOp38
 70
     1
102
RTVSPropertyOp39
 70
     1
102
RTVSPropertyOp40
 70
     1
102
RTVSPropertyOp41
 70
     1
102
RTVSPropertyOp42
 70
     1
102
RTVSPropertyOp43
 70
     1
102
RTVSPropertyOp44
 70
     1
102
RTVSPropertyOp45
 70
     1
102
RTVSPropertyOp46
 70
     1
102
RTVSPropertyOp47
 70
     1
102
RTVSPropertyOp48
 70
     1
102
RTVSPropertyOp49
 70
     1
102
RTVSPropertyOp50
 70
     1
102
RTVSPropertyOp51
 70
     0
102
RTVSPropertyOp52
 70
     0
102
RTVSPropertyOp53
 70
     1
102
RTVSPropertyOp54
 70
     1
102
RTVSPropertyOp55
 70
     1
102
RTVSPropertyOp56
 70
     1
102
RTVSPropertyOp57
 70
     1
102
RTVSPropertyOp58
 70
     1
102
RTVSPropertyOp59
 70
     1
102
RTVSPropertyOp60
 70
     1
102
RTVSPropertyOp61
 70
     1
102
RTVSPropertyOp62
 70
     1
  0
XRECORD
  5
1C4E4
102
{ACAD_REACTORS
330
1C4E3
102
}
330
1C4E3
100
AcDbXrecord
280
     1
102
RTVSPost2010Prop28
280
     0
102
RTVSPost2010PropOp28
 70
     1
102
RTVSPost2010Prop29
280
     1
102
RTVSPost2010PropOp29
 70
     1
102
RTVSPost2010Prop30
280
     1
102
RTVSPost2010PropOp30
 70
     1
102
RTVSPost2010Prop31
280
     0
102
RTVSPost2010PropOp31
 70
     1
102
RTVSPost2010Prop32
280
     0
102
RTVSPost2010PropOp32
 70
     1
102
RTVSPost2010Prop33
280
     0
102
RTVSPost2010PropOp33
 70
     1
102
RTVSPost2010Prop34
280
     0
102
RTVSPost2010PropOp34
 70
     1
102
RTVSPost2010Prop35
280
     0
102
RTVSPost2010PropOp35
 70
     1
102
RTVSPost2010Prop36
280
     0
102
RTVSPost2010PropOp36
 70
     1
102
RTVSPost2010Prop37
 90
       50
102
RTVSPost2010PropOp37
 70
     1
102
RTVSPost2010Prop38
140
0.0
102
RTVSPost2010PropOp38
 70
     1
102
RTVSPost2010Prop39
140
1.0
102
RTVSPost2010PropOp39
 70
     1
102
RTVSPost2010Prop40
 90
        0
102
RTVSPost2010PropOp40
 70
     1
102
RTVSPost2010Prop41ColorIndex
 90
       18
102
RTVSPost2010Prop41ColorRGB
 90
        0
102
RTVSPost2010PropOp41
 70
     1
102
RTVSPost2010Prop42
 90
       50
102
RTVSPost2010PropOp42
 70
     1
102
RTVSPost2010Prop43
 90
        3
102
RTVSPost2010PropOp43
 70
     1
102
RTVSPost2010Prop44ColorIndex
 90
        5
102
RTVSPost2010Prop44ColorRGB
 90
      255
102
RTVSPost2010PropOp44
 70
     1
102
RTVSPost2010Prop45
280
     0
102
RTVSPost2010PropOp45
 70
     1
102
RTVSPost2010Prop46
 90
       50
102
RTVSPost2010PropOp46
 70
     1
102
RTVSPost2010Prop47
 90
       50
102
RTVSPost2010PropOp47
 70
     1
102
RTVSPost2010Prop48
 90
       50
102
RTVSPost2010PropOp48
 70
     1
102
RTVSPost2010Prop49
280
     0
102
RTVSPost2010PropOp49
 70
     1
102
RTVSPost2010Prop50
 90
       50
102
RTVSPost2010PropOp50
 70
     1
102
RTVSPost2010Prop51ColorIndex
 90
      256
102
RTVSPost2010Prop51ColorRGB
 90
-16777216
102
RTVSPost2010PropOp51
 70
     0
102
RTVSPost2010Prop52
140
1.0
102
RTVSPost2010PropOp52
 70
     0
102
RTVSPost2010Prop53
 90
        2
102
RTVSPost2010PropOp53
 70
     1
102
RTVSPost2010Prop54
  1
strokes_ogs.tif
102
RTVSPost2010PropOp54
 70
     1
102
RTVSPost2010Prop55
280
     0
102
RTVSPost2010PropOp55
 70
     1
102
RTVSPost2010Prop56
140
1.0
102
RTVSPost2010PropOp56
 70
     1
102
RTVSPost2010Prop57
140
1.0
102
RTVSPost2010PropOp57
 70
     1
102
RTVSPropertyOp0
 70
     1
102
RTVSPropertyOp1
 70
     1
102
RTVSPropertyOp2
 70
     1
102
RTVSPropertyOp3
 70
     1
102
RTVSPropertyOp4
 70
     1
102
RTVSPropertyOp5
 70
     1
102
RTVSPropertyOp6
 70
     1
102
RTVSPropertyOp7
 70
     1
102
RTVSPropertyOp8
 70
     1
102
RTVSPropertyOp9
 70
     1
102
RTVSPropertyOp10
 70
     1
102
RTVSPropertyOp11
 70
     1
102
RTVSPropertyOp12
 70
     1
102
RTVSPropertyOp13
 70
     1
102
RTVSPropertyOp14
 70
     1
102
RTVSPropertyOp15
 70
     1
102
RTVSPropertyOp16
 70
     1
102
RTVSPropertyOp17
 70
     1
102
RTVSPropertyOp18
 70
     1
102
RTVSPropertyOp19
 70
     1
102
RTVSPropertyOp20
 70
     1
102
RTVSPropertyOp21
 70
     1
102
RTVSPropertyOp22
 70
     1
102
RTVSPropertyOp23
 70
     1
102
RTVSPropertyOp24
 70
     1
102
RTVSPropertyOp25
 70
     1
102
RTVSPropertyOp26
 70
     1
102
RTVSPropertyOp27
 70
     1
102
RTVSPropertyOp28
 70
     1
102
RTVSPropertyOp29
 70
     1
102
RTVSPropertyOp30
 70
     1
102
RTVSPropertyOp31
 70
     1
102
RTVSPropertyOp32
 70
     1
102
RTVSPropertyOp33
 70
     1
102
RTVSPropertyOp34
 70
     1
102
RTVSPropertyOp35
 70
     1
102
RTVSPropertyOp36
 70
     1
102
RTVSPropertyOp37
 70
     1
102
RTVSPropertyOp38
 70
     1
102
RTVSPropertyOp39
 70
     1
102
RTVSPropertyOp40
 70
     1
102
RTVSPropertyOp41
 70
     1
102
RTVSPropertyOp42
 70
     1
102
RTVSPropertyOp43
 70
     1
102
RTVSPropertyOp44
 70
     1
102
RTVSPropertyOp45
 70
     1
102
RTVSPropertyOp46
 70
     1
102
RTVSPropertyOp47
 70
     1
102
RTVSPropertyOp48
 70
     1
102
RTVSPropertyOp49
 70
     1
102
RTVSPropertyOp50
 70
     1
102
RTVSPropertyOp51
 70
     0
102
RTVSPropertyOp52
 70
     0
102
RTVSPropertyOp53
 70
     1
102
RTVSPropertyOp54
 70
     1
102
RTVSPropertyOp55
 70
     1
102
RTVSPropertyOp56
 70
     1
102
RTVSPropertyOp57
 70
     1
102
RTVSPropertyOp58
 70
     1
102
RTVSPropertyOp59
 70
     1
102
RTVSPropertyOp60
 70
     1
102
RTVSPropertyOp61
 70
     1
102
RTVSPropertyOp62
 70
     1
  0
XRECORD
  5
1C4E6
102
{ACAD_REACTORS
330
1C4E5
102
}
330
1C4E5
100
AcDbXrecord
280
     1
102
RTVSPost2010Prop28
280
     0
102
RTVSPost2010PropOp28
 70
     1
102
RTVSPost2010Prop29
280
     1
102
RTVSPost2010PropOp29
 70
     1
102
RTVSPost2010Prop30
280
     1
102
RTVSPost2010PropOp30
 70
     1
102
RTVSPost2010Prop31
280
     0
102
RTVSPost2010PropOp31
 70
     1
102
RTVSPost2010Prop32
280
     0
102
RTVSPost2010PropOp32
 70
     1
102
RTVSPost2010Prop33
280
     0
102
RTVSPost2010PropOp33
 70
     1
102
RTVSPost2010Prop34
280
     0
102
RTVSPost2010PropOp34
 70
     1
102
RTVSPost2010Prop35
280
     0
102
RTVSPost2010PropOp35
 70
     1
102
RTVSPost2010Prop36
280
     0
102
RTVSPost2010PropOp36
 70
     1
102
RTVSPost2010Prop37
 90
       50
102
RTVSPost2010PropOp37
 70
     1
102
RTVSPost2010Prop38
140
0.0
102
RTVSPost2010PropOp38
 70
     1
102
RTVSPost2010Prop39
140
1.0
102
RTVSPost2010PropOp39
 70
     1
102
RTVSPost2010Prop40
 90
        0
102
RTVSPost2010PropOp40
 70
     1
102
RTVSPost2010Prop41ColorIndex
 90
       18
102
RTVSPost2010Prop41ColorRGB
 90
        0
102
RTVSPost2010PropOp41
 70
     1
102
RTVSPost2010Prop42
 90
       50
102
RTVSPost2010PropOp42
 70
     1
102
RTVSPost2010Prop43
 90
        3
102
RTVSPost2010PropOp43
 70
     1
102
RTVSPost2010Prop44ColorIndex
 90
        5
102
RTVSPost2010Prop44ColorRGB
 90
      255
102
RTVSPost2010PropOp44
 70
     1
102
RTVSPost2010Prop45
280
     0
102
RTVSPost2010PropOp45
 70
     1
102
RTVSPost2010Prop46
 90
       50
102
RTVSPost2010PropOp46
 70
     1
102
RTVSPost2010Prop47
 90
       50
102
RTVSPost2010PropOp47
 70
     1
102
RTVSPost2010Prop48
 90
       50
102
RTVSPost2010PropOp48
 70
     1
102
RTVSPost2010Prop49
280
     0
102
RTVSPost2010PropOp49
 70
     1
102
RTVSPost2010Prop50
 90
       50
102
RTVSPost2010PropOp50
 70
     1
102
RTVSPost2010Prop51ColorIndex
 90
      256
102
RTVSPost2010Prop51ColorRGB
 90
-16777216
102
RTVSPost2010PropOp51
 70
     0
102
RTVSPost2010Prop52
140
1.0
102
RTVSPost2010PropOp52
 70
     0
102
RTVSPost2010Prop53
 90
        2
102
RTVSPost2010PropOp53
 70
     1
102
RTVSPost2010Prop54
  1
strokes_ogs.tif
102
RTVSPost2010PropOp54
 70
     1
102
RTVSPost2010Prop55
280
     0
102
RTVSPost2010PropOp55
 70
     1
102
RTVSPost2010Prop56
140
1.0
102
RTVSPost2010PropOp56
 70
     1
102
RTVSPost2010Prop57
140
1.0
102
RTVSPost2010PropOp57
 70
     1
102
RTVSPropertyOp0
 70
     1
102
RTVSPropertyOp1
 70
     1
102
RTVSPropertyOp2
 70
     1
102
RTVSPropertyOp3
 70
     1
102
RTVSPropertyOp4
 70
     1
102
RTVSPropertyOp5
 70
     1
102
RTVSPropertyOp6
 70
     1
102
RTVSPropertyOp7
 70
     1
102
RTVSPropertyOp8
 70
     1
102
RTVSPropertyOp9
 70
     1
102
RTVSPropertyOp10
 70
     1
102
RTVSPropertyOp11
 70
     1
102
RTVSPropertyOp12
 70
     1
102
RTVSPropertyOp13
 70
     1
102
RTVSPropertyOp14
 70
     1
102
RTVSPropertyOp15
 70
     1
102
RTVSPropertyOp16
 70
     1
102
RTVSPropertyOp17
 70
     1
102
RTVSPropertyOp18
 70
     1
102
RTVSPropertyOp19
 70
     1
102
RTVSPropertyOp20
 70
     1
102
RTVSPropertyOp21
 70
     1
102
RTVSPropertyOp22
 70
     1
102
RTVSPropertyOp23
 70
     1
102
RTVSPropertyOp24
 70
     1
102
RTVSPropertyOp25
 70
     1
102
RTVSPropertyOp26
 70
     1
102
RTVSPropertyOp27
 70
     1
102
RTVSPropertyOp28
 70
     1
102
RTVSPropertyOp29
 70
     1
102
RTVSPropertyOp30
 70
     1
102
RTVSPropertyOp31
 70
     1
102
RTVSPropertyOp32
 70
     1
102
RTVSPropertyOp33
 70
     1
102
RTVSPropertyOp34
 70
     1
102
RTVSPropertyOp35
 70
     1
102
RTVSPropertyOp36
 70
     1
102
RTVSPropertyOp37
 70
     1
102
RTVSPropertyOp38
 70
     1
102
RTVSPropertyOp39
 70
     1
102
RTVSPropertyOp40
 70
     1
102
RTVSPropertyOp41
 70
     1
102
RTVSPropertyOp42
 70
     1
102
RTVSPropertyOp43
 70
     1
102
RTVSPropertyOp44
 70
     1
102
RTVSPropertyOp45
 70
     1
102
RTVSPropertyOp46
 70
     1
102
RTVSPropertyOp47
 70
     1
102
RTVSPropertyOp48
 70
     1
102
RTVSPropertyOp49
 70
     1
102
RTVSPropertyOp50
 70
     1
102
RTVSPropertyOp51
 70
     0
102
RTVSPropertyOp52
 70
     0
102
RTVSPropertyOp53
 70
     1
102
RTVSPropertyOp54
 70
     1
102
RTVSPropertyOp55
 70
     1
102
RTVSPropertyOp56
 70
     1
102
RTVSPropertyOp57
 70
     1
102
RTVSPropertyOp58
 70
     1
102
RTVSPropertyOp59
 70
     1
102
RTVSPropertyOp60
 70
     1
102
RTVSPropertyOp61
 70
     1
102
RTVSPropertyOp62
 70
     1
  0
XRECORD
  5
1C4DC
102
{ACAD_REACTORS
330
1C4DB
102
}
330
1C4DB
100
AcDbXrecord
280
     1
102
RTVSPost2010Prop28
280
     0
102
RTVSPost2010PropOp28
 70
     1
102
RTVSPost2010Prop29
280
     1
102
RTVSPost2010PropOp29
 70
     1
102
RTVSPost2010Prop30
280
     1
102
RTVSPost2010PropOp30
 70
     1
102
RTVSPost2010Prop31
280
     0
102
RTVSPost2010PropOp31
 70
     1
102
RTVSPost2010Prop32
280
     0
102
RTVSPost2010PropOp32
 70
     1
102
RTVSPost2010Prop33
280
     0
102
RTVSPost2010PropOp33
 70
     1
102
RTVSPost2010Prop34
280
     0
102
RTVSPost2010PropOp34
 70
     1
102
RTVSPost2010Prop35
280
     0
102
RTVSPost2010PropOp35
 70
     1
102
RTVSPost2010Prop36
280
     0
102
RTVSPost2010PropOp36
 70
     1
102
RTVSPost2010Prop37
 90
       50
102
RTVSPost2010PropOp37
 70
     1
102
RTVSPost2010Prop38
140
0.0
102
RTVSPost2010PropOp38
 70
     1
102
RTVSPost2010Prop39
140
1.0
102
RTVSPost2010PropOp39
 70
     1
102
RTVSPost2010Prop40
 90
        0
102
RTVSPost2010PropOp40
 70
     1
102
RTVSPost2010Prop41ColorIndex
 90
       18
102
RTVSPost2010Prop41ColorRGB
 90
        0
102
RTVSPost2010PropOp41
 70
     1
102
RTVSPost2010Prop42
 90
       50
102
RTVSPost2010PropOp42
 70
     1
102
RTVSPost2010Prop43
 90
        3
102
RTVSPost2010PropOp43
 70
     1
102
RTVSPost2010Prop44ColorIndex
 90
        5
102
RTVSPost2010Prop44ColorRGB
 90
      255
102
RTVSPost2010PropOp44
 70
     1
102
RTVSPost2010Prop45
280
     0
102
RTVSPost2010PropOp45
 70
     1
102
RTVSPost2010Prop46
 90
       50
102
RTVSPost2010PropOp46
 70
     1
102
RTVSPost2010Prop47
 90
       50
102
RTVSPost2010PropOp47
 70
     1
102
RTVSPost2010Prop48
 90
       50
102
RTVSPost2010PropOp48
 70
     1
102
RTVSPost2010Prop49
280
     0
102
RTVSPost2010PropOp49
 70
     1
102
RTVSPost2010Prop50
 90
       50
102
RTVSPost2010PropOp50
 70
     1
102
RTVSPost2010Prop51ColorIndex
 90
      256
102
RTVSPost2010Prop51ColorRGB
 90
-16777216
102
RTVSPost2010PropOp51
 70
     0
102
RTVSPost2010Prop52
140
1.0
102
RTVSPost2010PropOp52
 70
     0
102
RTVSPost2010Prop53
 90
        2
102
RTVSPost2010PropOp53
 70
     1
102
RTVSPost2010Prop54
  1
strokes_ogs.tif
102
RTVSPost2010PropOp54
 70
     1
102
RTVSPost2010Prop55
280
     0
102
RTVSPost2010PropOp55
 70
     1
102
RTVSPost2010Prop56
140
1.0
102
RTVSPost2010PropOp56
 70
     1
102
RTVSPost2010Prop57
140
1.0
102
RTVSPost2010PropOp57
 70
     1
102
RTVSPropertyOp0
 70
     1
102
RTVSPropertyOp1
 70
     1
102
RTVSPropertyOp2
 70
     1
102
RTVSPropertyOp3
 70
     1
102
RTVSPropertyOp4
 70
     1
102
RTVSPropertyOp5
 70
     1
102
RTVSPropertyOp6
 70
     1
102
RTVSPropertyOp7
 70
     1
102
RTVSPropertyOp8
 70
     1
102
RTVSPropertyOp9
 70
     1
102
RTVSPropertyOp10
 70
     1
102
RTVSPropertyOp11
 70
     1
102
RTVSPropertyOp12
 70
     1
102
RTVSPropertyOp13
 70
     1
102
RTVSPropertyOp14
 70
     1
102
RTVSPropertyOp15
 70
     1
102
RTVSPropertyOp16
 70
     1
102
RTVSPropertyOp17
 70
     1
102
RTVSPropertyOp18
 70
     1
102
RTVSPropertyOp19
 70
     1
102
RTVSPropertyOp20
 70
     1
102
RTVSPropertyOp21
 70
     1
102
RTVSPropertyOp22
 70
     1
102
RTVSPropertyOp23
 70
     1
102
RTVSPropertyOp24
 70
     1
102
RTVSPropertyOp25
 70
     1
102
RTVSPropertyOp26
 70
     1
102
RTVSPropertyOp27
 70
     1
102
RTVSPropertyOp28
 70
     1
102
RTVSPropertyOp29
 70
     1
102
RTVSPropertyOp30
 70
     1
102
RTVSPropertyOp31
 70
     1
102
RTVSPropertyOp32
 70
     1
102
RTVSPropertyOp33
 70
     1
102
RTVSPropertyOp34
 70
     1
102
RTVSPropertyOp35
 70
     1
102
RTVSPropertyOp36
 70
     1
102
RTVSPropertyOp37
 70
     1
102
RTVSPropertyOp38
 70
     1
102
RTVSPropertyOp39
 70
     1
102
RTVSPropertyOp40
 70
     1
102
RTVSPropertyOp41
 70
     1
102
RTVSPropertyOp42
 70
     1
102
RTVSPropertyOp43
 70
     1
102
RTVSPropertyOp44
 70
     1
102
RTVSPropertyOp45
 70
     1
102
RTVSPropertyOp46
 70
     1
102
RTVSPropertyOp47
 70
     1
102
RTVSPropertyOp48
 70
     1
102
RTVSPropertyOp49
 70
     1
102
RTVSPropertyOp50
 70
     1
102
RTVSPropertyOp51
 70
     0
102
RTVSPropertyOp52
 70
     0
102
RTVSPropertyOp53
 70
     1
102
RTVSPropertyOp54
 70
     1
102
RTVSPropertyOp55
 70
     1
102
RTVSPropertyOp56
 70
     1
102
RTVSPropertyOp57
 70
     1
102
RTVSPropertyOp58
 70
     1
102
RTVSPropertyOp59
 70
     1
102
RTVSPropertyOp60
 70
     1
102
RTVSPropertyOp61
 70
     1
102
RTVSPropertyOp62
 70
     1
  0
XRECORD
  5
1C4D0
102
{ACAD_REACTORS
330
1C4CF
102
}
330
1C4CF
100
AcDbXrecord
280
     1
102
RTVSPost2010Prop28
280
     0
102
RTVSPost2010PropOp28
 70
     1
102
RTVSPost2010Prop29
280
     1
102
RTVSPost2010PropOp29
 70
     1
102
RTVSPost2010Prop30
280
     1
102
RTVSPost2010PropOp30
 70
     1
102
RTVSPost2010Prop31
280
     0
102
RTVSPost2010PropOp31
 70
     1
102
RTVSPost2010Prop32
280
     0
102
RTVSPost2010PropOp32
 70
     1
102
RTVSPost2010Prop33
280
     0
102
RTVSPost2010PropOp33
 70
     1
102
RTVSPost2010Prop34
280
     0
102
RTVSPost2010PropOp34
 70
     1
102
RTVSPost2010Prop35
280
     0
102
RTVSPost2010PropOp35
 70
     1
102
RTVSPost2010Prop36
280
     0
102
RTVSPost2010PropOp36
 70
     1
102
RTVSPost2010Prop37
 90
       50
102
RTVSPost2010PropOp37
 70
     1
102
RTVSPost2010Prop38
140
0.0
102
RTVSPost2010PropOp38
 70
     1
102
RTVSPost2010Prop39
140
1.0
102
RTVSPost2010PropOp39
 70
     1
102
RTVSPost2010Prop40
 90
        0
102
RTVSPost2010PropOp40
 70
     1
102
RTVSPost2010Prop41ColorIndex
 90
       18
102
RTVSPost2010Prop41ColorRGB
 90
        0
102
RTVSPost2010PropOp41
 70
     1
102
RTVSPost2010Prop42
 90
       50
102
RTVSPost2010PropOp42
 70
     1
102
RTVSPost2010Prop43
 90
        3
102
RTVSPost2010PropOp43
 70
     1
102
RTVSPost2010Prop44ColorIndex
 90
        5
102
RTVSPost2010Prop44ColorRGB
 90
      255
102
RTVSPost2010PropOp44
 70
     1
102
RTVSPost2010Prop45
280
     0
102
RTVSPost2010PropOp45
 70
     1
102
RTVSPost2010Prop46
 90
       50
102
RTVSPost2010PropOp46
 70
     1
102
RTVSPost2010Prop47
 90
       50
102
RTVSPost2010PropOp47
 70
     1
102
RTVSPost2010Prop48
 90
       50
102
RTVSPost2010PropOp48
 70
     1
102
RTVSPost2010Prop49
280
     0
102
RTVSPost2010PropOp49
 70
     1
102
RTVSPost2010Prop50
 90
       50
102
RTVSPost2010PropOp50
 70
     1
102
RTVSPost2010Prop51ColorIndex
 90
      256
102
RTVSPost2010Prop51ColorRGB
 90
-16777216
102
RTVSPost2010PropOp51
 70
     0
102
RTVSPost2010Prop52
140
1.0
102
RTVSPost2010PropOp52
 70
     0
102
RTVSPost2010Prop53
 90
        2
102
RTVSPost2010PropOp53
 70
     1
102
RTVSPost2010Prop54
  1
strokes_ogs.tif
102
RTVSPost2010PropOp54
 70
     1
102
RTVSPost2010Prop55
280
     0
102
RTVSPost2010PropOp55
 70
     1
102
RTVSPost2010Prop56
140
1.0
102
RTVSPost2010PropOp56
 70
     1
102
RTVSPost2010Prop57
140
1.0
102
RTVSPost2010PropOp57
 70
     1
102
RTVSPropertyOp0
 70
     1
102
RTVSPropertyOp1
 70
     1
102
RTVSPropertyOp2
 70
     1
102
RTVSPropertyOp3
 70
     1
102
RTVSPropertyOp4
 70
     1
102
RTVSPropertyOp5
 70
     1
102
RTVSPropertyOp6
 70
     1
102
RTVSPropertyOp7
 70
     1
102
RTVSPropertyOp8
 70
     1
102
RTVSPropertyOp9
 70
     1
102
RTVSPropertyOp10
 70
     1
102
RTVSPropertyOp11
 70
     1
102
RTVSPropertyOp12
 70
     1
102
RTVSPropertyOp13
 70
     1
102
RTVSPropertyOp14
 70
     1
102
RTVSPropertyOp15
 70
     1
102
RTVSPropertyOp16
 70
     1
102
RTVSPropertyOp17
 70
     1
102
RTVSPropertyOp18
 70
     1
102
RTVSPropertyOp19
 70
     1
102
RTVSPropertyOp20
 70
     1
102
RTVSPropertyOp21
 70
     1
102
RTVSPropertyOp22
 70
     1
102
RTVSPropertyOp23
 70
     1
102
RTVSPropertyOp24
 70
     1
102
RTVSPropertyOp25
 70
     1
102
RTVSPropertyOp26
 70
     1
102
RTVSPropertyOp27
 70
     1
102
RTVSPropertyOp28
 70
     1
102
RTVSPropertyOp29
 70
     1
102
RTVSPropertyOp30
 70
     1
102
RTVSPropertyOp31
 70
     1
102
RTVSPropertyOp32
 70
     1
102
RTVSPropertyOp33
 70
     1
102
RTVSPropertyOp34
 70
     1
102
RTVSPropertyOp35
 70
     1
102
RTVSPropertyOp36
 70
     1
102
RTVSPropertyOp37
 70
     1
102
RTVSPropertyOp38
 70
     1
102
RTVSPropertyOp39
 70
     1
102
RTVSPropertyOp40
 70
     1
102
RTVSPropertyOp41
 70
     1
102
RTVSPropertyOp42
 70
     1
102
RTVSPropertyOp43
 70
     1
102
RTVSPropertyOp44
 70
     1
102
RTVSPropertyOp45
 70
     1
102
RTVSPropertyOp46
 70
     1
102
RTVSPropertyOp47
 70
     1
102
RTVSPropertyOp48
 70
     1
102
RTVSPropertyOp49
 70
     1
102
RTVSPropertyOp50
 70
     1
102
RTVSPropertyOp51
 70
     0
102
RTVSPropertyOp52
 70
     0
102
RTVSPropertyOp53
 70
     1
102
RTVSPropertyOp54
 70
     1
102
RTVSPropertyOp55
 70
     1
102
RTVSPropertyOp56
 70
     1
102
RTVSPropertyOp57
 70
     1
102
RTVSPropertyOp58
 70
     1
102
RTVSPropertyOp59
 70
     1
102
RTVSPropertyOp60
 70
     1
102
RTVSPropertyOp61
 70
     1
102
RTVSPropertyOp62
 70
     1
  0
XRECORD
  5
1C4E8
102
{ACAD_REACTORS
330
1C4E7
102
}
330
1C4E7
100
AcDbXrecord
280
     1
102
RTVSPost2010Prop28
280
     0
102
RTVSPost2010PropOp28
 70
     1
102
RTVSPost2010Prop29
280
     1
102
RTVSPost2010PropOp29
 70
     1
102
RTVSPost2010Prop30
280
     1
102
RTVSPost2010PropOp30
 70
     1
102
RTVSPost2010Prop31
280
     0
102
RTVSPost2010PropOp31
 70
     1
102
RTVSPost2010Prop32
280
     0
102
RTVSPost2010PropOp32
 70
     1
102
RTVSPost2010Prop33
280
     0
102
RTVSPost2010PropOp33
 70
     1
102
RTVSPost2010Prop34
280
     0
102
RTVSPost2010PropOp34
 70
     1
102
RTVSPost2010Prop35
280
     0
102
RTVSPost2010PropOp35
 70
     1
102
RTVSPost2010Prop36
280
     0
102
RTVSPost2010PropOp36
 70
     1
102
RTVSPost2010Prop37
 90
       50
102
RTVSPost2010PropOp37
 70
     1
102
RTVSPost2010Prop38
140
0.0
102
RTVSPost2010PropOp38
 70
     1
102
RTVSPost2010Prop39
140
1.0
102
RTVSPost2010PropOp39
 70
     1
102
RTVSPost2010Prop40
 90
        0
102
RTVSPost2010PropOp40
 70
     1
102
RTVSPost2010Prop41ColorIndex
 90
       18
102
RTVSPost2010Prop41ColorRGB
 90
        0
102
RTVSPost2010PropOp41
 70
     1
102
RTVSPost2010Prop42
 90
       50
102
RTVSPost2010PropOp42
 70
     1
102
RTVSPost2010Prop43
 90
        3
102
RTVSPost2010PropOp43
 70
     1
102
RTVSPost2010Prop44ColorIndex
 90
        5
102
RTVSPost2010Prop44ColorRGB
 90
      255
102
RTVSPost2010PropOp44
 70
     1
102
RTVSPost2010Prop45
280
     0
102
RTVSPost2010PropOp45
 70
     1
102
RTVSPost2010Prop46
 90
       50
102
RTVSPost2010PropOp46
 70
     1
102
RTVSPost2010Prop47
 90
       50
102
RTVSPost2010PropOp47
 70
     1
102
RTVSPost2010Prop48
 90
       50
102
RTVSPost2010PropOp48
 70
     1
102
RTVSPost2010Prop49
280
     0
102
RTVSPost2010PropOp49
 70
     1
102
RTVSPost2010Prop50
 90
       50
102
RTVSPost2010PropOp50
 70
     1
102
RTVSPost2010Prop51ColorIndex
 90
      256
102
RTVSPost2010Prop51ColorRGB
 90
-16777216
102
RTVSPost2010PropOp51
 70
     0
102
RTVSPost2010Prop52
140
1.0
102
RTVSPost2010PropOp52
 70
     0
102
RTVSPost2010Prop53
 90
        2
102
RTVSPost2010PropOp53
 70
     1
102
RTVSPost2010Prop54
  1
strokes_ogs.tif
102
RTVSPost2010PropOp54
 70
     1
102
RTVSPost2010Prop55
280
     0
102
RTVSPost2010PropOp55
 70
     1
102
RTVSPost2010Prop56
140
1.0
102
RTVSPost2010PropOp56
 70
     1
102
RTVSPost2010Prop57
140
1.0
102
RTVSPost2010PropOp57
 70
     1
102
RTVSPropertyOp0
 70
     1
102
RTVSPropertyOp1
 70
     1
102
RTVSPropertyOp2
 70
     1
102
RTVSPropertyOp3
 70
     1
102
RTVSPropertyOp4
 70
     1
102
RTVSPropertyOp5
 70
     1
102
RTVSPropertyOp6
 70
     1
102
RTVSPropertyOp7
 70
     1
102
RTVSPropertyOp8
 70
     1
102
RTVSPropertyOp9
 70
     1
102
RTVSPropertyOp10
 70
     1
102
RTVSPropertyOp11
 70
     1
102
RTVSPropertyOp12
 70
     1
102
RTVSPropertyOp13
 70
     1
102
RTVSPropertyOp14
 70
     1
102
RTVSPropertyOp15
 70
     1
102
RTVSPropertyOp16
 70
     1
102
RTVSPropertyOp17
 70
     1
102
RTVSPropertyOp18
 70
     1
102
RTVSPropertyOp19
 70
     1
102
RTVSPropertyOp20
 70
     1
102
RTVSPropertyOp21
 70
     1
102
RTVSPropertyOp22
 70
     1
102
RTVSPropertyOp23
 70
     1
102
RTVSPropertyOp24
 70
     1
102
RTVSPropertyOp25
 70
     1
102
RTVSPropertyOp26
 70
     1
102
RTVSPropertyOp27
 70
     1
102
RTVSPropertyOp28
 70
     1
102
RTVSPropertyOp29
 70
     1
102
RTVSPropertyOp30
 70
     1
102
RTVSPropertyOp31
 70
     1
102
RTVSPropertyOp32
 70
     1
102
RTVSPropertyOp33
 70
     1
102
RTVSPropertyOp34
 70
     1
102
RTVSPropertyOp35
 70
     1
102
RTVSPropertyOp36
 70
     1
102
RTVSPropertyOp37
 70
     1
102
RTVSPropertyOp38
 70
     1
102
RTVSPropertyOp39
 70
     1
102
RTVSPropertyOp40
 70
     1
102
RTVSPropertyOp41
 70
     1
102
RTVSPropertyOp42
 70
     1
102
RTVSPropertyOp43
 70
     1
102
RTVSPropertyOp44
 70
     1
102
RTVSPropertyOp45
 70
     1
102
RTVSPropertyOp46
 70
     1
102
RTVSPropertyOp47
 70
     1
102
RTVSPropertyOp48
 70
     1
102
RTVSPropertyOp49
 70
     1
102
RTVSPropertyOp50
 70
     1
102
RTVSPropertyOp51
 70
     0
102
RTVSPropertyOp52
 70
     0
102
RTVSPropertyOp53
 70
     1
102
RTVSPropertyOp54
 70
     1
102
RTVSPropertyOp55
 70
     1
102
RTVSPropertyOp56
 70
     1
102
RTVSPropertyOp57
 70
     1
102
RTVSPropertyOp58
 70
     1
102
RTVSPropertyOp59
 70
     1
102
RTVSPropertyOp60
 70
     1
102
RTVSPropertyOp61
 70
     1
102
RTVSPropertyOp62
 70
     1
  0
ENDSEC
  0
EOF
