  0
SECTION
  2
HEADER
  9
$ACADVER
  1
AC1015
  9
$ACADMAINTVER
 70
    20
  9
$DWGCODEPAGE
  3
ANSI_932
  9
$INSBASE
 10
0.0
 20
0.0
 30
0.0
  9
$EXTMIN
 10
9.99995
 20
9.999999999999998
 30
0.0
  9
$EXTMAX
 10
367.828043
 20
95.355197
 30
0.0
  9
$LIMMIN
 10
0.0
 20
0.0
  9
$LIMMAX
 10
396.0
 20
273.0
  9
$ORTHOMODE
 70
     1
  9
$REGENMODE
 70
     1
  9
$FILLMODE
 70
     1
  9
$QTEXTMODE
 70
     0
  9
$MIRRTEXT
 70
     1
  9
$LTSCALE
 40
20.0
  9
$ATTMODE
 70
     1
  9
$TEXTSIZE
 40
5.0
  9
$TRACEWID
 40
1.0
  9
$TEXTSTYLE
  7
STANDARD
  9
$CLAYER
  8
0
  9
$CELTYPE
  6
BYLAYER
  9
$CECOLOR
 62
   256
  9
$CELTSCALE
 40
1.0
  9
$DISPSILH
 70
     0
  9
$DIMSCALE
 40
1.0
  9
$DIMASZ
 40
3.0
  9
$DIMEXO
 40
1.0
  9
$DIMDLI
 40
10.0
  9
$DIMRND
 40
0.0
  9
$DIMDLE
 40
0.0
  9
$DIMEXE
 40
1.0
  9
$DIMTP
 40
0.0
  9
$DIMTM
 40
0.0
  9
$DIMTXT
 40
3.2
  9
$DIMCEN
 40
0.0
  9
$DIMTSZ
 40
0.0
  9
$DIMTOL
 70
     0
  9
$DIMLIM
 70
     0
  9
$DIMTIH
 70
     0
  9
$DIMTOH
 70
     0
  9
$DIMSE1
 70
     0
  9
$DIMSE2
 70
     0
  9
$DIMTAD
 70
     3
  9
$DIMZIN
 70
     8
  9
$DIMBLK
  1

  9
$DIMASO
 70
     1
  9
$DIMSHO
 70
     1
  9
$DIMPOST
  1

  9
$DIMAPOST
  1

  9
$DIMALT
 70
     0
  9
$DIMALTD
 70
     2
  9
$DIMALTF
 40
25.4
  9
$DIMLFAC
 40
1.0
  9
$DIMTOFL
 70
     1
  9
$DIMTVP
 40
0.0
  9
$DIMTIX
 70
     0
  9
$DIMSOXD
 70
     0
  9
$DIMSAH
 70
     1
  9
$DIMBLK1
  1

  9
$DIMBLK2
  1

  9
$DIMSTYLE
  2
STANDARD
  9
$DIMCLRD
 70
     0
  9
$DIMCLRE
 70
     0
  9
$DIMCLRT
 70
     0
  9
$DIMTFAC
 40
1.0
  9
$DIMGAP
 40
1.0
  9
$DIMJUST
 70
     0
  9
$DIMSD1
 70
     0
  9
$DIMSD2
 70
     0
  9
$DIMTOLJ
 70
     1
  9
$DIMTZIN
 70
     0
  9
$DIMALTZ
 70
     0
  9
$DIMALTTZ
 70
     0
  9
$DIMUPT
 70
     0
  9
$DIMDEC
 70
     4
  9
$DIMTDEC
 70
     4
  9
$DIMALTU
 70
     2
  9
$DIMALTTD
 70
     2
  9
$DIMTXSTY
  7
STANDARD
  9
$DIMAUNIT
 70
     0
  9
$DIMADEC
 70
     0
  9
$DIMALTRND
 40
0.0
  9
$DIMAZIN
 70
     0
  9
$DIMDSEP
 70
    46
  9
$DIMATFIT
 70
     3
  9
$DIMFRAC
 70
     0
  9
$DIMLDRBLK
  1

  9
$DIMLUNIT
 70
     2
  9
$DIMLWD
 70
    -2
  9
$DIMLWE
 70
    -2
  9
$DIMTMOVE
 70
     0
  9
$LUNITS
 70
     2
  9
$LUPREC
 70
     4
  9
$SKETCHINC
 40
1.0
  9
$FILLETRAD
 40
0.5
  9
$AUNITS
 70
     0
  9
$AUPREC
 70
     2
  9
$MENU
  1
.
  9
$ELEVATION
 40
0.0
  9
$PELEVATION
 40
0.0
  9
$THICKNESS
 40
0.0
  9
$LIMCHECK
 70
     0
  9
$CHAMFERA
 40
10.0
  9
$CHAMFERB
 40
10.0
  9
$CHAMFERC
 40
0.0
  9
$CHAMFERD
 40
0.0
  9
$SKPOLY
 70
     0
  9
$TDCREATE
 40
2451285.443022338
  9
$TDUCREATE
 40
2451285.068022338
  9
$TDUPDATE
 40
2457192.656798148
  9
$TDUUPDATE
 40
2457192.281798148
  9
$TDINDWG
 40
0.0000105903
  9
$TDUSRTIMER
 40
0.0000102894
  9
$USRTIMER
 70
     1
  9
$ANGBASE
 50
0.0
  9
$ANGDIR
 70
     0
  9
$PDMODE
 70
    34
  9
$PDSIZE
 40
0.0
  9
$PLINEWID
 40
0.0
  9
$SPLFRAME
 70
     0
  9
$SPLINETYPE
 70
     6
  9
$SPLINESEGS
 70
     8
  9
$HANDSEED
  5
1D1B3
  9
$SURFTAB1
 70
     6
  9
$SURFTAB2
 70
     6
  9
$SURFTYPE
 70
     6
  9
$SURFU
 70
     6
  9
$SURFV
 70
     6
  9
$UCSBASE
  2

  9
$UCSNAME
  2

  9
$UCSORG
 10
0.0
 20
0.0
 30
0.0
  9
$UCSXDIR
 10
1.0
 20
0.0
 30
0.0
  9
$UCSYDIR
 10
0.0
 20
1.0
 30
0.0
  9
$UCSORTHOREF
  2

  9
$UCSORTHOVIEW
 70
     0
  9
$UCSORGTOP
 10
0.0
 20
0.0
 30
0.0
  9
$UCSORGBOTTOM
 10
0.0
 20
0.0
 30
0.0
  9
$UCSORGLEFT
 10
0.0
 20
0.0
 30
0.0
  9
$UCSORGRIGHT
 10
0.0
 20
0.0
 30
0.0
  9
$UCSORGFRONT
 10
0.0
 20
0.0
 30
0.0
  9
$UCSORGBACK
 10
0.0
 20
0.0
 30
0.0
  9
$PUCSBASE
  2

  9
$PUCSNAME
  2

  9
$PUCSORG
 10
0.0
 20
0.0
 30
0.0
  9
$PUCSXDIR
 10
1.0
 20
0.0
 30
0.0
  9
$PUCSYDIR
 10
0.0
 20
1.0
 30
0.0
  9
$PUCSORTHOREF
  2

  9
$PUCSORTHOVIEW
 70
     0
  9
$PUCSORGTOP
 10
0.0
 20
0.0
 30
0.0
  9
$PUCSORGBOTTOM
 10
0.0
 20
0.0
 30
0.0
  9
$PUCSORGLEFT
 10
0.0
 20
0.0
 30
0.0
  9
$PUCSORGRIGHT
 10
0.0
 20
0.0
 30
0.0
  9
$PUCSORGFRONT
 10
0.0
 20
0.0
 30
0.0
  9
$PUCSORGBACK
 10
0.0
 20
0.0
 30
0.0
  9
$USERI1
 70
     0
  9
$USERI2
 70
     0
  9
$USERI3
 70
     0
  9
$USERI4
 70
     0
  9
$USERI5
 70
     0
  9
$USERR1
 40
0.0
  9
$USERR2
 40
0.0
  9
$USERR3
 40
0.0
  9
$USERR4
 40
0.0
  9
$USERR5
 40
0.0
  9
$WORLDVIEW
 70
     1
  9
$SHADEDGE
 70
     3
  9
$SHADEDIF
 70
    70
  9
$TILEMODE
 70
     1
  9
$MAXACTVP
 70
    16
  9
$PINSBASE
 10
0.0
 20
0.0
 30
0.0
  9
$PLIMCHECK
 70
     0
  9
$PEXTMIN
 10
1.000000000000000E+20
 20
1.000000000000000E+20
 30
1.000000000000000E+20
  9
$PEXTMAX
 10
-1.000000000000000E+20
 20
-1.000000000000000E+20
 30
-1.000000000000000E+20
  9
$PLIMMIN
 10
0.0
 20
0.0
  9
$PLIMMAX
 10
420.0
 20
297.0
  9
$UNITMODE
 70
     0
  9
$VISRETAIN
 70
     0
  9
$PLINEGEN
 70
     0
  9
$PSLTSCALE
 70
     0
  9
$TREEDEPTH
 70
  3020
  9
$CMLSTYLE
  2
STANDARD
  9
$CMLJUST
 70
     0
  9
$CMLSCALE
 40
1.0
  9
$PROXYGRAPHICS
 70
     1
  9
$MEASUREMENT
 70
     0
  9
$CELWEIGHT
370
    -1
  9
$ENDCAPS
280
     0
  9
$JOINSTYLE
280
     0
  9
$LWDISPLAY
290
     0
  9
$INSUNITS
 70
     0
  9
$HYPERLINKBASE
  1

  9
$STYLESHEET
  1

  9
$XEDIT
290
     1
  9
$CEPSNTYPE
380
     0
  9
$PSTYLEMODE
290
     1
  9
$FINGERPRINTGUID
  2
{92C6E4E8-CFD6-4B3C-A0B0-6F494C15A194}
  9
$VERSIONGUID
  2
{83ABA1D7-68D0-4B0D-9C06-4E67701D08A0}
  9
$EXTNAMES
290
     1
  9
$PSVPSCALE
 40
0.0
  9
$OLESTARTUP
290
     0
  0
ENDSEC
  0
SECTION
  2
CLASSES
  0
CLASS
  1
ACDBDICTIONARYWDFLT
  2
AcDbDictionaryWithDefault
  3
ObjectDBX Classes
 90
        0
280
     0
281
     0
  0
CLASS
  1
ACDBPLACEHOLDER
  2
AcDbPlaceHolder
  3
ObjectDBX Classes
 90
        0
280
     0
281
     0
  0
CLASS
  1
LAYOUT
  2
AcDbLayout
  3
ObjectDBX Classes
 90
        0
280
     0
281
     0
  0
CLASS
  1
DICTIONARYVAR
  2
AcDbDictionaryVar
  3
ObjectDBX Classes
 90
        0
280
     0
281
     0
  0
CLASS
  1
MATERIAL
  2
AcDbMaterial
  3
ObjectDBX Classes
 90
     1153
280
     0
281
     0
  0
CLASS
  1
VISUALSTYLE
  2
AcDbVisualStyle
  3
ObjectDBX Classes
 90
     4095
280
     0
281
     0
  0
CLASS
  1
TABLESTYLE
  2
AcDbTableStyle
  3
ObjectDBX Classes
 90
     4095
280
     0
281
     0
  0
CLASS
  1
SCALE
  2
AcDbScale
  3
ObjectDBX Classes
 90
     1153
280
     0
281
     0
  0
CLASS
  1
MLEADERSTYLE
  2
AcDbMLeaderStyle
  3
ACDB_MLEADERSTYLE_CLASS
 90
     4095
280
     0
281
     0
  0
CLASS
  1
ACDBSECTIONVIEWSTYLE
  2
AcDbSectionViewStyle
  3
ObjectDBX Classes
 90
     1025
280
     0
281
     0
  0
CLASS
  1
ACDBDETAILVIEWSTYLE
  2
AcDbDetailViewStyle
  3
ObjectDBX Classes
 90
     1025
280
     0
281
     0
  0
CLASS
  1
CELLSTYLEMAP
  2
AcDbCellStyleMap
  3
ObjectDBX Classes
 90
     1152
280
     0
281
     0
  0
ENDSEC
  0
SECTION
  2
TABLES
  0
TABLE
  2
VPORT
  5
1CE99
330
0
100
AcDbSymbolTable
 70
     1
  0
VPORT
  5
1D0FC
330
1CE99
100
AcDbSymbolTableRecord
100
AcDbViewportTableRecord
  2
*ACTIVE
 70
     0
 10
0.0
 20
0.0
 11
1.0
 21
1.0
 12
250.5361692173004
 22
52.63506370938268
 13
0.0
 23
0.0
 14
10.0
 24
10.0
 15
10.0
 25
10.0
 16
0.0
 26
0.0
 36
1.0
 17
0.0
 27
0.0
 37
0.0
 40
205.7043077667163
 41
1.899603698811096
 42
50.0
 43
0.0
 44
0.0
 50
0.0
 51
0.0
 71
     0
 72
   100
 73
     1
 74
     0
 75
     0
 76
     0
 77
     0
 78
     1
281
     0
 65
     1
110
0.0
120
0.0
130
0.0
111
1.0
121
0.0
131
0.0
112
0.0
122
1.0
132
0.0
 79
     0
146
0.0
1001
ACAD_NAV_VCDISPLAY
1070
     3
  0
ENDTAB
  0
TABLE
  2
LTYPE
  5
1CE96
330
0
100
AcDbSymbolTable
 70
     4
  0
LTYPE
  5
1CEA4
330
1CE96
100
AcDbSymbolTableRecord
100
AcDbLinetypeTableRecord
  2
BYBLOCK
 70
     0
  3

 72
    65
 73
     0
 40
0.0
  0
LTYPE
  5
1CEA5
330
1CE96
100
AcDbSymbolTableRecord
100
AcDbLinetypeTableRecord
  2
BYLAYER
 70
     0
  3

 72
    65
 73
     0
 40
0.0
  0
LTYPE
  5
1CEA6
330
1CE96
100
AcDbSymbolTableRecord
100
AcDbLinetypeTableRecord
  2
CONTINUOUS
 70
     0
  3
Solid line
 72
    65
 73
     0
 40
0.0
  0
LTYPE
  5
1CEB4
330
1CE96
100
AcDbSymbolTableRecord
100
AcDbLinetypeTableRecord
  2
DASHED
 70
     0
  3
__ __ __ __ __ __ __ __ __ __ __ __ __ __ __ __
 72
    65
 73
     2
 40
0.75
 49
0.5
 74
     0
 49
-0.25
 74
     0
  0
LTYPE
  5
1CEB5
330
1CE96
100
AcDbSymbolTableRecord
100
AcDbLinetypeTableRecord
  2
CENTER
 70
     0
  3
____ _ ____ _ ____ _ ____ _ ____ _ ____ _ ____ 
 72
    65
 73
     4
 40
2.0
 49
1.25
 74
     0
 49
-0.25
 74
     0
 49
0.25
 74
     0
 49
-0.25
 74
     0
  0
LTYPE
  5
1CEB6
330
1CE96
100
AcDbSymbolTableRecord
100
AcDbLinetypeTableRecord
  2
PHANTOM
 70
     0
  3
______  __  __  ______  __  __  ______  __  __ 
 72
    65
 73
     6
 40
2.5
 49
1.25
 74
     0
 49
-0.25
 74
     0
 49
0.25
 74
     0
 49
-0.25
 74
     0
 49
0.25
 74
     0
 49
-0.25
 74
     0
  0
ENDTAB
  0
TABLE
  2
LAYER
  5
1CE93
330
0
100
AcDbSymbolTable
 70
     8
  0
LAYER
  5
1CEA1
102
{ACAD_XDICTIONARY
360
1D157
102
}
330
1CE93
100
AcDbSymbolTableRecord
100
AcDbLayerTableRecord
  2
0
 70
     0
 62
     7
  6
CONTINUOUS
370
    -3
390
1D105
  0
LAYER
  5
1CEB7
102
{ACAD_XDICTIONARY
360
1D159
102
}
330
1CE93
100
AcDbSymbolTableRecord
100
AcDbLayerTableRecord
  2
4
 70
     0
 62
     1
  6
CENTER
370
    -3
390
1D105
  0
LAYER
  5
1CEB8
102
{ACAD_XDICTIONARY
360
1D15B
102
}
330
1CE93
100
AcDbSymbolTableRecord
100
AcDbLayerTableRecord
  2
5
 70
     0
 62
     6
  6
PHANTOM
370
    -3
390
1D105
  0
LAYER
  5
1CEB9
102
{ACAD_XDICTIONARY
360
1D15D
102
}
330
1CE93
100
AcDbSymbolTableRecord
100
AcDbLayerTableRecord
  2
1
 70
     0
 62
     7
  6
CONTINUOUS
370
    -3
390
1D105
  0
LAYER
  5
1CEBA
102
{ACAD_XDICTIONARY
360
1D15F
102
}
330
1CE93
100
AcDbSymbolTableRecord
100
AcDbLayerTableRecord
  2
2
 70
     0
 62
     4
  6
CONTINUOUS
370
    -3
390
1D105
  0
LAYER
  5
1CEBB
102
{ACAD_XDICTIONARY
360
1D161
102
}
330
1CE93
100
AcDbSymbolTableRecord
100
AcDbLayerTableRecord
  2
3
 70
     0
 62
     2
  6
DASHED
370
    -3
390
1D105
  0
LAYER
  5
1CEBC
102
{ACAD_XDICTIONARY
360
1D163
102
}
330
1CE93
100
AcDbSymbolTableRecord
100
AcDbLayerTableRecord
  2
6
 70
     0
 62
     5
  6
CONTINUOUS
370
    -3
390
1D105
  0
LAYER
  5
1CEBD
102
{ACAD_XDICTIONARY
360
1D165
102
}
330
1CE93
100
AcDbSymbolTableRecord
100
AcDbLayerTableRecord
  2
7
 70
     0
 62
     3
  6
CONTINUOUS
370
    -3
390
1D105
  0
ENDTAB
  0
TABLE
  2
STYLE
  5
1CE94
330
0
100
AcDbSymbolTable
 70
     1
  0
STYLE
  5
1CEA2
330
1CE94
100
AcDbSymbolTableRecord
100
AcDbTextStyleTableRecord
  2
STANDARD
 70
     0
 40
0.0
 41
1.0
 50
0.0
 71
     0
 42
5.0
  3
txt
  4

  0
ENDTAB
  0
TABLE
  2
VIEW
  5
1CE97
330
0
100
AcDbSymbolTable
 70
     2
  0
VIEW
  5
1CEBE
330
1CE97
100
AcDbSymbolTableRecord
100
AcDbViewTableRecord
  2
7
 70
     0
 40
200.0275739999999
 10
192.681928
 20
100.0137869999998
 41
385.363857
 11
0.0
 21
0.0
 31
1.0
 12
0.0
 22
0.0
 32
0.0
 42
50.0
 43
0.0
 44
0.0
 50
0.0
 71
     0
281
     0
 72
     0
  0
VIEW
  5
1CEBF
330
1CE97
100
AcDbSymbolTableRecord
100
AcDbViewTableRecord
  2
1
 70
     0
 40
249.466496
 10
136.846708
 20
233.977284
 41
487.485198
 11
0.0
 21
0.0
 31
1.0
 12
0.0
 22
0.0
 32
0.0
 42
50.0
 43
0.0
 44
0.0
 50
0.0
 71
     0
281
     0
 72
     0
  0
ENDTAB
  0
TABLE
  2
UCS
  5
1CE98
330
0
100
AcDbSymbolTable
 70
     0
  0
ENDTAB
  0
TABLE
  2
APPID
  5
1CE9A
330
0
100
AcDbSymbolTable
 70
     3
  0
APPID
  5
1CEA3
330
1CE9A
100
AcDbSymbolTableRecord
100
AcDbRegAppTableRecord
  2
ACAD
 70
     0
  0
APPID
  5
1D171
330
1CE9A
100
AcDbSymbolTableRecord
100
AcDbRegAppTableRecord
  2
ACAD_NAV_VCDISPLAY
 70
     0
  0
APPID
  5
1D1AA
330
1CE9A
100
AcDbSymbolTableRecord
100
AcDbRegAppTableRecord
  2
ACAD_MLEADERVER
 70
     0
  0
ENDTAB
  0
TABLE
  2
DIMSTYLE
  5
1CE9B
330
0
100
AcDbSymbolTable
 70
     1
100
AcDbDimStyleTable
 71
     0
  0
DIMSTYLE
105
1CEC1
330
1CE9B
100
AcDbSymbolTableRecord
100
AcDbDimStyleTableRecord
  2
STANDARD
 70
     0
 41
3.0
 42
1.0
 43
10.0
 44
1.0
 73
     0
 74
     0
 77
     3
 78
     8
140
3.2
141
0.0
147
1.0
172
     1
173
     1
284
     8
285
     8
286
     8
340
1CEA2
  0
ENDTAB
  0
TABLE
  2
BLOCK_RECORD
  5
1CE92
330
0
100
AcDbSymbolTable
 70
     0
  0
BLOCK_RECORD
  5
1CEAF
102
{ACAD_XDICTIONARY
360
1D0FF
102
}
330
1CE92
100
AcDbSymbolTableRecord
100
AcDbBlockTableRecord
  2
*MODEL_SPACE
340
1D153
  0
BLOCK_RECORD
  5
1CEAB
102
{ACAD_XDICTIONARY
360
1D0FD
102
}
330
1CE92
100
AcDbSymbolTableRecord
100
AcDbBlockTableRecord
  2
*PAPER_SPACE
340
1D154
  0
ENDTAB
  0
ENDSEC
  0
SECTION
  2
BLOCKS
  0
BLOCK
  5
1CEB0
330
1CEAF
100
AcDbEntity
  8
0
100
AcDbBlockBegin
  2
*MODEL_SPACE
 70
     0
 10
0.0
 20
0.0
 30
0.0
  3
*MODEL_SPACE
  1

  0
ENDBLK
  5
1CEB1
330
1CEAF
100
AcDbEntity
  8
0
100
AcDbBlockEnd
  0
BLOCK
  5
1CEAC
330
1CEAB
100
AcDbEntity
 67
     1
  8
0
100
AcDbBlockBegin
  2
*PAPER_SPACE
 70
     0
 10
0.0
 20
0.0
 30
0.0
  3
*PAPER_SPACE
  1

  0
ENDBLK
  5
1CEAD
330
1CEAB
100
AcDbEntity
 67
     1
  8
0
100
AcDbBlockEnd
  0
ENDSEC
  0
SECTION
  2
ENTITIES
  0
TEXT
  5
1CEC9
330
1CEAF
100
AcDbEntity
  8
6
  6
Continuous
100
AcDbText
 10
27.97945
 20
10.0487
 30
0.0
 40
1.399999999999999
  1
6
 41
1.069393
100
AcDbText
  0
TEXT
  5
1CECA
330
1CEAF
100
AcDbEntity
  8
1
  6
Continuous
100
AcDbText
 10
17.97945
 20
10.0487
 30
0.0
 40
1.399999999999999
  1
1
 41
1.069393
100
AcDbText
  0
TEXT
  5
1CECB
330
1CEAF
100
AcDbEntity
  8
1
  6
Continuous
100
AcDbText
 10
9.99995
 20
10.0
 30
0.0
 40
1.399999999999999
  1
LAYER
 41
1.009912999999997
100
AcDbText
  0
TEXT
  5
1CECC
330
1CEAF
100
AcDbEntity
  8
2
  6
Continuous
100
AcDbText
 10
19.97944999999998
 20
10.0487
 30
0.0
 40
1.399999999999999
  1
2
 41
1.069393
100
AcDbText
  0
TEXT
  5
1CECD
330
1CEAF
100
AcDbEntity
  8
3
  6
DASHED
100
AcDbText
 10
21.97945
 20
10.0487
 30
0.0
 40
1.399999999999999
  1
3
 41
1.069393
100
AcDbText
  0
TEXT
  5
1CECE
330
1CEAF
100
AcDbEntity
  8
4
  6
CENTER
100
AcDbText
 10
23.97944999999999
 20
10.0487
 30
0.0
 40
1.399999999999999
  1
4
 41
1.069393
100
AcDbText
  0
TEXT
  5
1CECF
330
1CEAF
100
AcDbEntity
  8
5
  6
PHANTOM
100
AcDbText
 10
25.97945
 20
10.0487
 30
0.0
 40
1.399999999999999
  1
5
 41
1.069393
100
AcDbText
  0
TEXT
  5
1CED0
330
1CEAF
100
AcDbEntity
  8
7
  6
Continuous
100
AcDbText
 10
10.00005
 20
26.0
 30
0.0
 40
3.0
  1
CODE No.5450
 41
1.003962999999999
100
AcDbText
  0
TEXT
  5
1CED1
330
1CEAF
100
AcDbEntity
  8
7
  6
Continuous
100
AcDbText
 10
10.00005
 20
18.0
 30
0.0
 40
3.0
  1
TYPE No.TM-104SUS-14
 41
1.002350999999998
100
AcDbText
  0
TEXT
  5
1CED2
330
1CEAF
100
AcDbEntity
  8
7
  6
Continuous
100
AcDbText
 10
29.97944999999999
 20
10.0487
 30
0.0
 40
1.399999999999999
  1
7
 41
1.069393
100
AcDbText
  0
LINE
  5
1CED3
330
1CEAF
100
AcDbEntity
  8
4
  6
CENTER
100
AcDbLine
 10
354.849242
 20
44.55519699999999
 30
0.0
 11
367.828043
 21
44.55519699999999
 31
0.0
  0
LINE
  5
1CED4
330
1CEAF
100
AcDbEntity
  8
4
  6
CENTER
100
AcDbLine
 10
361.3999999999998
 20
51.141094
 30
0.0
 11
361.3999999999998
 21
37.969301
 31
0.0
  0
LINE
  5
1CED5
330
1CEAF
100
AcDbEntity
  8
1
  6
Continuous
100
AcDbLine
 10
360.3999999999999
 20
46.08424
 30
0.0
 11
360.3999999999999
 21
42.305197
 31
0.0
  0
LINE
  5
1CED6
330
1CEAF
100
AcDbEntity
  8
1
  6
Continuous
100
AcDbLine
 10
362.3999999999999
 20
43.02615499999999
 30
0.0
 11
362.3999999999999
 21
46.805197
 31
0.0
  0
LINE
  5
1CED7
330
1CEAF
100
AcDbEntity
  8
1
  6
Continuous
100
AcDbLine
 10
359.8
 20
43.555197
 30
0.0
 11
360.3999999999999
 21
43.555197
 31
0.0
  0
LINE
  5
1CED8
330
1CEAF
100
AcDbEntity
  8
1
  6
Continuous
100
AcDbLine
 10
360.3999999999999
 20
45.555197
 30
0.0
 11
359.8
 21
45.555197
 31
0.0
  0
LINE
  5
1CED9
330
1CEAF
100
AcDbEntity
  8
1
  6
Continuous
100
AcDbLine
 10
362.3999999999999
 20
45.555197
 30
0.0
 11
363.0
 21
45.555197
 31
0.0
  0
LINE
  5
1CEDA
330
1CEAF
100
AcDbEntity
  8
1
  6
Continuous
100
AcDbLine
 10
362.3999999999999
 20
43.555197
 30
0.0
 11
363.0
 21
43.555197
 31
0.0
  0
ARC
  5
1CEDB
330
1CEAF
100
AcDbEntity
  8
1
  6
Continuous
100
AcDbCircle
 10
285.1999999999998
 20
44.55519699999999
 30
0.0
 40
1.0
100
AcDbArc
 50
90.0
 51
270.0
  0
ARC
  5
1CEDC
330
1CEAF
100
AcDbEntity
  8
1
  6
Continuous
100
AcDbCircle
 10
294.1999999999998
 20
44.55519699999999
 30
0.0
 40
3.6
100
AcDbArc
 50
251.4782279999999
 51
108.5217719999999
  0
LINE
  5
1CEDD
330
1CEAF
100
AcDbEntity
  8
1
  6
Continuous
100
AcDbLine
 10
287.1059899999999
 20
43.86597899999999
 30
0.0
 11
293.6917359999998
 21
46.072322
 31
0.0
  0
ARC
  5
1CEDE
330
1CEAF
100
AcDbEntity
  8
1
  6
Continuous
100
AcDbCircle
 10
294.1999999999998
 20
44.55519699999999
 30
0.0
 40
1.6
100
AcDbArc
 50
251.4782279999999
 51
108.5217719999999
  0
LINE
  5
1CEDF
330
1CEAF
100
AcDbEntity
  8
1
  6
Continuous
100
AcDbLine
 10
289.163247
 20
44.55519699999999
 30
0.0
 11
293.6917359999998
 21
43.03807299999999
 31
0.0
  0
LINE
  5
1CEE0
330
1CEAF
100
AcDbEntity
  8
1
  6
Continuous
100
AcDbLine
 10
287.798549
 20
42.903143
 30
0.0
 11
293.056406
 21
41.141667
 31
0.0
  0
ARC
  5
1CEE1
330
1CEAF
100
AcDbEntity
  8
1
  6
Continuous
100
AcDbCircle
 10
285.1999999999998
 20
39.55519699999999
 30
0.0
 40
4.0
100
AcDbArc
 50
81.22743299999998
 51
90.0
  0
ARC
  5
1CEE2
330
1CEAF
100
AcDbEntity
  8
1
  6
Continuous
100
AcDbCircle
 10
285.1999999999998
 20
49.55519699999999
 30
0.0
 40
4.0
100
AcDbArc
 50
270.0
 51
288.5217719999999
  0
LINE
  5
1CEE3
330
1CEAF
100
AcDbEntity
  8
1
  6
Continuous
100
AcDbLine
 10
293.056406
 20
47.968728
 30
0.0
 11
286.47066
 21
45.76238499999997
 31
0.0
  0
ARC
  5
1CEE4
330
1CEAF
100
AcDbEntity
  8
1
  6
Continuous
100
AcDbCircle
 10
285.1999999999998
 20
49.55519699999999
 30
0.0
 40
6.0
100
AcDbArc
 50
270.0
 51
288.5217719999999
  0
ARC
  5
1CEE5
330
1CEAF
100
AcDbEntity
  8
1
  6
Continuous
100
AcDbCircle
 10
284.6
 20
44.55519699999999
 30
0.0
 40
3.6
100
AcDbArc
 50
251.4782279999999
 51
354.777061
  0
LINE
  5
1CEE6
330
1CEAF
100
AcDbEntity
  8
1
  6
Continuous
100
AcDbLine
 10
279.5632470000001
 20
44.55519699999999
 30
0.0
 11
284.0917359999999
 21
43.03807299999999
 31
0.0
  0
ARC
  5
1CEE7
330
1CEAF
100
AcDbEntity
  8
1
  6
Continuous
100
AcDbCircle
 10
284.6
 20
44.55519699999999
 30
0.0
 40
1.6
100
AcDbArc
 50
251.4782279999999
 51
323.064374
  0
LINE
  5
1CEE8
330
1CEAF
100
AcDbEntity
  8
1
  6
Continuous
100
AcDbLine
 10
277.50599
 20
43.86597899999999
 30
0.0
 11
284.0917359999999
 21
46.072322
 31
0.0
  0
ARC
  5
1CEE9
330
1CEAF
100
AcDbEntity
  8
1
  6
Continuous
100
AcDbCircle
 10
275.6
 20
44.55519699999999
 30
0.0
 40
1.0
100
AcDbArc
 50
90.0
 51
270.0
  0
ARC
  5
1CEEA
330
1CEAF
100
AcDbEntity
  8
1
  6
Continuous
100
AcDbCircle
 10
275.6
 20
49.55519699999999
 30
0.0
 40
6.0
100
AcDbArc
 50
270.0
 51
288.5217719999999
  0
ARC
  5
1CEEB
330
1CEAF
100
AcDbEntity
  8
1
  6
Continuous
100
AcDbCircle
 10
275.6
 20
49.55519699999999
 30
0.0
 40
4.0
100
AcDbArc
 50
270.0
 51
288.5217719999999
  0
LINE
  5
1CEEC
330
1CEAF
100
AcDbEntity
  8
1
  6
Continuous
100
AcDbLine
 10
283.456406
 20
47.968728
 30
0.0
 11
276.8706599999998
 21
45.76238499999997
 31
0.0
  0
ARC
  5
1CEED
330
1CEAF
100
AcDbEntity
  8
1
  6
Continuous
100
AcDbCircle
 10
275.6
 20
39.55519699999999
 30
0.0
 40
4.0
100
AcDbArc
 50
81.22743299999998
 51
90.0
  0
LINE
  5
1CEEE
330
1CEAF
100
AcDbEntity
  8
1
  6
Continuous
100
AcDbLine
 10
278.198549
 20
42.903143
 30
0.0
 11
283.456406
 21
41.141667
 31
0.0
  0
ARC
  5
1CEEF
330
1CEAF
100
AcDbEntity
  8
1
  6
Continuous
100
AcDbCircle
 10
284.6
 20
44.55519699999999
 30
0.0
 40
3.6
100
AcDbArc
 50
27.31641
 51
108.5217719999999
  0
ARC
  5
1CEF0
330
1CEAF
100
AcDbEntity
  8
1
  6
Continuous
100
AcDbCircle
 10
284.6
 20
44.55519699999999
 30
0.0
 40
1.6
100
AcDbArc
 50
40.862518
 51
108.5217719999999
  0
LINE
  5
1CEF1
330
1CEAF
100
AcDbEntity
  8
1
  6
Continuous
100
AcDbLine
 10
273.8564059999998
 20
47.968728
 30
0.0
 11
267.27066
 21
45.76238499999997
 31
0.0
  0
LINE
  5
1CEF2
330
1CEAF
100
AcDbEntity
  8
1
  6
Continuous
100
AcDbLine
 10
268.5985489999999
 20
42.903143
 30
0.0
 11
273.8564059999998
 21
41.141667
 31
0.0
  0
LINE
  5
1CEF3
330
1CEAF
100
AcDbEntity
  8
1
  6
Continuous
100
AcDbLine
 10
267.9059899999999
 20
43.86597899999999
 30
0.0
 11
274.491736
 21
46.072322
 31
0.0
  0
LINE
  5
1CEF4
330
1CEAF
100
AcDbEntity
  8
1
  6
Continuous
100
AcDbLine
 10
269.963247
 20
44.55519699999999
 30
0.0
 11
274.491736
 21
43.03807299999999
 31
0.0
  0
ARC
  5
1CEF5
330
1CEAF
100
AcDbEntity
  8
1
  6
Continuous
100
AcDbCircle
 10
275.0
 20
44.55519699999999
 30
0.0
 40
3.6
100
AcDbArc
 50
251.4782279999999
 51
354.777061
  0
ARC
  5
1CEF6
330
1CEAF
100
AcDbEntity
  8
1
  6
Continuous
100
AcDbCircle
 10
256.3999999999999
 20
44.55519699999999
 30
0.0
 40
1.0
100
AcDbArc
 50
90.0
 51
270.0
  0
ARC
  5
1CEF7
330
1CEAF
100
AcDbEntity
  8
1
  6
Continuous
100
AcDbCircle
 10
256.3999999999999
 20
49.55519699999999
 30
0.0
 40
4.0
100
AcDbArc
 50
270.0
 51
288.5217719999999
  0
ARC
  5
1CEF8
330
1CEAF
100
AcDbEntity
  8
1
  6
Continuous
100
AcDbCircle
 10
256.3999999999999
 20
39.55519699999999
 30
0.0
 40
4.0
100
AcDbArc
 50
81.22743299999998
 51
90.0
  0
ARC
  5
1CEF9
330
1CEAF
100
AcDbEntity
  8
1
  6
Continuous
100
AcDbCircle
 10
256.3999999999999
 20
49.55519699999999
 30
0.0
 40
6.0
100
AcDbArc
 50
270.0
 51
288.5217719999999
  0
ARC
  5
1CEFA
330
1CEAF
100
AcDbEntity
  8
1
  6
Continuous
100
AcDbCircle
 10
266.0
 20
49.55519699999999
 30
0.0
 40
4.0
100
AcDbArc
 50
270.0
 51
288.5217719999999
  0
ARC
  5
1CEFB
330
1CEAF
100
AcDbEntity
  8
1
  6
Continuous
100
AcDbCircle
 10
266.0
 20
49.55519699999999
 30
0.0
 40
6.0
100
AcDbArc
 50
270.0
 51
288.5217719999999
  0
LINE
  5
1CEFC
330
1CEAF
100
AcDbEntity
  8
1
  6
Continuous
100
AcDbLine
 10
260.3632469999999
 20
44.55519699999999
 30
0.0
 11
264.8917359999999
 21
43.03807299999999
 31
0.0
  0
LINE
  5
1CEFD
330
1CEAF
100
AcDbEntity
  8
1
  6
Continuous
100
AcDbLine
 10
258.30599
 20
43.86597899999999
 30
0.0
 11
264.8917359999999
 21
46.072322
 31
0.0
  0
ARC
  5
1CEFE
330
1CEAF
100
AcDbEntity
  8
1
  6
Continuous
100
AcDbCircle
 10
265.3999999999999
 20
44.55519699999999
 30
0.0
 40
3.6
100
AcDbArc
 50
251.4782279999999
 51
354.777061
  0
ARC
  5
1CEFF
330
1CEAF
100
AcDbEntity
  8
1
  6
Continuous
100
AcDbCircle
 10
265.3999999999999
 20
44.55519699999999
 30
0.0
 40
3.6
100
AcDbArc
 50
27.31641
 51
108.5217719999999
  0
ARC
  5
1CF00
330
1CEAF
100
AcDbEntity
  8
1
  6
Continuous
100
AcDbCircle
 10
265.3999999999999
 20
44.55519699999999
 30
0.0
 40
1.6
100
AcDbArc
 50
251.4782279999999
 51
323.064374
  0
ARC
  5
1CF01
330
1CEAF
100
AcDbEntity
  8
1
  6
Continuous
100
AcDbCircle
 10
265.3999999999999
 20
44.55519699999999
 30
0.0
 40
1.6
100
AcDbArc
 50
40.862518
 51
108.5217719999999
  0
ARC
  5
1CF02
330
1CEAF
100
AcDbEntity
  8
1
  6
Continuous
100
AcDbCircle
 10
266.0
 20
44.55519699999999
 30
0.0
 40
1.0
100
AcDbArc
 50
90.0
 51
270.0
  0
ARC
  5
1CF03
330
1CEAF
100
AcDbEntity
  8
1
  6
Continuous
100
AcDbCircle
 10
266.0
 20
39.55519699999999
 30
0.0
 40
4.0
100
AcDbArc
 50
81.22743299999998
 51
90.0
  0
LINE
  5
1CF04
330
1CEAF
100
AcDbEntity
  8
1
  6
Continuous
100
AcDbLine
 10
264.256406
 20
47.968728
 30
0.0
 11
257.67066
 21
45.76238499999997
 31
0.0
  0
LINE
  5
1CF05
330
1CEAF
100
AcDbEntity
  8
1
  6
Continuous
100
AcDbLine
 10
258.998549
 20
42.903143
 30
0.0
 11
264.256406
 21
41.141667
 31
0.0
  0
ARC
  5
1CF06
330
1CEAF
100
AcDbEntity
  8
1
  6
Continuous
100
AcDbCircle
 10
275.0
 20
44.55519699999999
 30
0.0
 40
1.6
100
AcDbArc
 50
251.4782279999999
 51
323.064374
  0
LINE
  5
1CF07
330
1CEAF
100
AcDbEntity
  8
1
  6
Continuous
100
AcDbLine
 10
254.656406
 20
47.968728
 30
0.0
 11
248.0706599999999
 21
45.76238499999997
 31
0.0
  0
LINE
  5
1CF08
330
1CEAF
100
AcDbEntity
  8
1
  6
Continuous
100
AcDbLine
 10
249.398549
 20
42.903143
 30
0.0
 11
254.656406
 21
41.141667
 31
0.0
  0
LINE
  5
1CF09
330
1CEAF
100
AcDbEntity
  8
1
  6
Continuous
100
AcDbLine
 10
248.7059899999999
 20
43.86597899999999
 30
0.0
 11
255.2917359999999
 21
46.072322
 31
0.0
  0
LINE
  5
1CF0A
330
1CEAF
100
AcDbEntity
  8
1
  6
Continuous
100
AcDbLine
 10
250.763247
 20
44.55519699999999
 30
0.0
 11
255.2917359999999
 21
43.03807299999999
 31
0.0
  0
ARC
  5
1CF0B
330
1CEAF
100
AcDbEntity
  8
1
  6
Continuous
100
AcDbCircle
 10
255.8
 20
44.55519699999999
 30
0.0
 40
3.6
100
AcDbArc
 50
251.4782279999999
 51
354.777061
  0
ARC
  5
1CF0C
330
1CEAF
100
AcDbEntity
  8
1
  6
Continuous
100
AcDbCircle
 10
237.1999999999999
 20
44.55519699999999
 30
0.0
 40
1.0
100
AcDbArc
 50
90.0
 51
270.0
  0
ARC
  5
1CF0D
330
1CEAF
100
AcDbEntity
  8
1
  6
Continuous
100
AcDbCircle
 10
237.1999999999999
 20
49.55519699999999
 30
0.0
 40
4.0
100
AcDbArc
 50
270.0
 51
288.5217719999999
  0
ARC
  5
1CF0E
330
1CEAF
100
AcDbEntity
  8
1
  6
Continuous
100
AcDbCircle
 10
237.1999999999999
 20
39.55519699999999
 30
0.0
 40
4.0
100
AcDbArc
 50
81.22743299999998
 51
90.0
  0
ARC
  5
1CF0F
330
1CEAF
100
AcDbEntity
  8
1
  6
Continuous
100
AcDbCircle
 10
237.1999999999999
 20
49.55519699999999
 30
0.0
 40
6.0
100
AcDbArc
 50
270.0
 51
288.5217719999999
  0
ARC
  5
1CF10
330
1CEAF
100
AcDbEntity
  8
1
  6
Continuous
100
AcDbCircle
 10
246.7999999999999
 20
49.55519699999999
 30
0.0
 40
4.0
100
AcDbArc
 50
270.0
 51
288.5217719999999
  0
ARC
  5
1CF11
330
1CEAF
100
AcDbEntity
  8
1
  6
Continuous
100
AcDbCircle
 10
246.7999999999999
 20
49.55519699999999
 30
0.0
 40
6.0
100
AcDbArc
 50
270.0
 51
288.5217719999999
  0
LINE
  5
1CF12
330
1CEAF
100
AcDbEntity
  8
1
  6
Continuous
100
AcDbLine
 10
241.163247
 20
44.55519699999999
 30
0.0
 11
245.6917359999999
 21
43.03807299999999
 31
0.0
  0
LINE
  5
1CF13
330
1CEAF
100
AcDbEntity
  8
1
  6
Continuous
100
AcDbLine
 10
239.10599
 20
43.86597899999999
 30
0.0
 11
245.6917359999999
 21
46.072322
 31
0.0
  0
ARC
  5
1CF14
330
1CEAF
100
AcDbEntity
  8
1
  6
Continuous
100
AcDbCircle
 10
246.1999999999999
 20
44.55519699999999
 30
0.0
 40
3.6
100
AcDbArc
 50
251.4782279999999
 51
354.777061
  0
ARC
  5
1CF15
330
1CEAF
100
AcDbEntity
  8
1
  6
Continuous
100
AcDbCircle
 10
246.1999999999999
 20
44.55519699999999
 30
0.0
 40
3.6
100
AcDbArc
 50
27.31641
 51
108.5217719999999
  0
ARC
  5
1CF16
330
1CEAF
100
AcDbEntity
  8
1
  6
Continuous
100
AcDbCircle
 10
246.1999999999999
 20
44.55519699999999
 30
0.0
 40
1.6
100
AcDbArc
 50
251.4782279999999
 51
323.064374
  0
ARC
  5
1CF17
330
1CEAF
100
AcDbEntity
  8
1
  6
Continuous
100
AcDbCircle
 10
246.1999999999999
 20
44.55519699999999
 30
0.0
 40
1.6
100
AcDbArc
 50
40.862518
 51
108.5217719999999
  0
ARC
  5
1CF18
330
1CEAF
100
AcDbEntity
  8
1
  6
Continuous
100
AcDbCircle
 10
246.7999999999999
 20
44.55519699999999
 30
0.0
 40
1.0
100
AcDbArc
 50
90.0
 51
270.0
  0
ARC
  5
1CF19
330
1CEAF
100
AcDbEntity
  8
1
  6
Continuous
100
AcDbCircle
 10
246.7999999999999
 20
39.55519699999999
 30
0.0
 40
4.0
100
AcDbArc
 50
81.22743299999998
 51
90.0
  0
LINE
  5
1CF1A
330
1CEAF
100
AcDbEntity
  8
1
  6
Continuous
100
AcDbLine
 10
245.056406
 20
47.968728
 30
0.0
 11
238.47066
 21
45.76238499999997
 31
0.0
  0
LINE
  5
1CF1B
330
1CEAF
100
AcDbEntity
  8
1
  6
Continuous
100
AcDbLine
 10
239.7985489999999
 20
42.903143
 30
0.0
 11
245.056406
 21
41.141667
 31
0.0
  0
ARC
  5
1CF1C
330
1CEAF
100
AcDbEntity
  8
1
  6
Continuous
100
AcDbCircle
 10
255.8
 20
44.55519699999999
 30
0.0
 40
1.6
100
AcDbArc
 50
251.4782279999999
 51
323.064374
  0
LINE
  5
1CF1D
330
1CEAF
100
AcDbEntity
  8
1
  6
Continuous
100
AcDbLine
 10
235.4564059999999
 20
47.968728
 30
0.0
 11
228.8706599999999
 21
45.76238499999997
 31
0.0
  0
LINE
  5
1CF1E
330
1CEAF
100
AcDbEntity
  8
1
  6
Continuous
100
AcDbLine
 10
230.198549
 20
42.903143
 30
0.0
 11
235.4564059999999
 21
41.141667
 31
0.0
  0
LINE
  5
1CF1F
330
1CEAF
100
AcDbEntity
  8
1
  6
Continuous
100
AcDbLine
 10
229.50599
 20
43.86597899999999
 30
0.0
 11
236.091736
 21
46.072322
 31
0.0
  0
LINE
  5
1CF20
330
1CEAF
100
AcDbEntity
  8
1
  6
Continuous
100
AcDbLine
 10
231.563247
 20
44.55519699999999
 30
0.0
 11
236.091736
 21
43.03807299999999
 31
0.0
  0
ARC
  5
1CF21
330
1CEAF
100
AcDbEntity
  8
1
  6
Continuous
100
AcDbCircle
 10
236.6
 20
44.55519699999999
 30
0.0
 40
3.6
100
AcDbArc
 50
251.4782279999999
 51
354.777061
  0
ARC
  5
1CF22
330
1CEAF
100
AcDbEntity
  8
1
  6
Continuous
100
AcDbCircle
 10
218.0
 20
44.55519699999999
 30
0.0
 40
1.0
100
AcDbArc
 50
90.0
 51
270.0
  0
ARC
  5
1CF23
330
1CEAF
100
AcDbEntity
  8
1
  6
Continuous
100
AcDbCircle
 10
218.0
 20
49.55519699999999
 30
0.0
 40
4.0
100
AcDbArc
 50
270.0
 51
288.5217719999999
  0
ARC
  5
1CF24
330
1CEAF
100
AcDbEntity
  8
1
  6
Continuous
100
AcDbCircle
 10
218.0
 20
39.55519699999999
 30
0.0
 40
4.0
100
AcDbArc
 50
81.22743299999998
 51
90.0
  0
ARC
  5
1CF25
330
1CEAF
100
AcDbEntity
  8
1
  6
Continuous
100
AcDbCircle
 10
218.0
 20
49.55519699999999
 30
0.0
 40
6.0
100
AcDbArc
 50
270.0
 51
288.5217719999999
  0
ARC
  5
1CF26
330
1CEAF
100
AcDbEntity
  8
1
  6
Continuous
100
AcDbCircle
 10
227.5999999999999
 20
49.55519699999999
 30
0.0
 40
4.0
100
AcDbArc
 50
270.0
 51
288.5217719999999
  0
ARC
  5
1CF27
330
1CEAF
100
AcDbEntity
  8
1
  6
Continuous
100
AcDbCircle
 10
227.5999999999999
 20
49.55519699999999
 30
0.0
 40
6.0
100
AcDbArc
 50
270.0
 51
288.5217719999999
  0
LINE
  5
1CF28
330
1CEAF
100
AcDbEntity
  8
1
  6
Continuous
100
AcDbLine
 10
221.963247
 20
44.55519699999999
 30
0.0
 11
226.4917359999998
 21
43.03807299999999
 31
0.0
  0
LINE
  5
1CF29
330
1CEAF
100
AcDbEntity
  8
1
  6
Continuous
100
AcDbLine
 10
219.9059899999999
 20
43.86597899999999
 30
0.0
 11
226.4917359999998
 21
46.072322
 31
0.0
  0
ARC
  5
1CF2A
330
1CEAF
100
AcDbEntity
  8
1
  6
Continuous
100
AcDbCircle
 10
227.0
 20
44.55519699999999
 30
0.0
 40
3.6
100
AcDbArc
 50
251.4782279999999
 51
354.777061
  0
ARC
  5
1CF2B
330
1CEAF
100
AcDbEntity
  8
1
  6
Continuous
100
AcDbCircle
 10
227.0
 20
44.55519699999999
 30
0.0
 40
3.6
100
AcDbArc
 50
27.31641
 51
108.5217719999999
  0
ARC
  5
1CF2C
330
1CEAF
100
AcDbEntity
  8
1
  6
Continuous
100
AcDbCircle
 10
227.0
 20
44.55519699999999
 30
0.0
 40
1.6
100
AcDbArc
 50
251.4782279999999
 51
323.064374
  0
ARC
  5
1CF2D
330
1CEAF
100
AcDbEntity
  8
1
  6
Continuous
100
AcDbCircle
 10
227.0
 20
44.55519699999999
 30
0.0
 40
1.6
100
AcDbArc
 50
40.862518
 51
108.5217719999999
  0
ARC
  5
1CF2E
330
1CEAF
100
AcDbEntity
  8
1
  6
Continuous
100
AcDbCircle
 10
227.5999999999999
 20
44.55519699999999
 30
0.0
 40
1.0
100
AcDbArc
 50
90.0
 51
270.0
  0
ARC
  5
1CF2F
330
1CEAF
100
AcDbEntity
  8
1
  6
Continuous
100
AcDbCircle
 10
227.5999999999999
 20
39.55519699999999
 30
0.0
 40
4.0
100
AcDbArc
 50
81.22743299999998
 51
90.0
  0
LINE
  5
1CF30
330
1CEAF
100
AcDbEntity
  8
1
  6
Continuous
100
AcDbLine
 10
225.8564059999999
 20
47.968728
 30
0.0
 11
219.27066
 21
45.76238499999997
 31
0.0
  0
LINE
  5
1CF31
330
1CEAF
100
AcDbEntity
  8
1
  6
Continuous
100
AcDbLine
 10
220.5985489999999
 20
42.903143
 30
0.0
 11
225.8564059999999
 21
41.141667
 31
0.0
  0
ARC
  5
1CF32
330
1CEAF
100
AcDbEntity
  8
1
  6
Continuous
100
AcDbCircle
 10
236.6
 20
44.55519699999999
 30
0.0
 40
1.6
100
AcDbArc
 50
251.4782279999999
 51
323.064374
  0
LINE
  5
1CF33
330
1CEAF
100
AcDbEntity
  8
1
  6
Continuous
100
AcDbLine
 10
216.256406
 20
47.968728
 30
0.0
 11
209.67066
 21
45.76238499999997
 31
0.0
  0
LINE
  5
1CF34
330
1CEAF
100
AcDbEntity
  8
1
  6
Continuous
100
AcDbLine
 10
210.998549
 20
42.903143
 30
0.0
 11
216.256406
 21
41.141667
 31
0.0
  0
LINE
  5
1CF35
330
1CEAF
100
AcDbEntity
  8
1
  6
Continuous
100
AcDbLine
 10
210.3059899999998
 20
43.86597899999999
 30
0.0
 11
216.891736
 21
46.072322
 31
0.0
  0
LINE
  5
1CF36
330
1CEAF
100
AcDbEntity
  8
1
  6
Continuous
100
AcDbLine
 10
212.363247
 20
44.55519699999999
 30
0.0
 11
216.891736
 21
43.03807299999999
 31
0.0
  0
ARC
  5
1CF37
330
1CEAF
100
AcDbEntity
  8
1
  6
Continuous
100
AcDbCircle
 10
217.3999999999999
 20
44.55519699999999
 30
0.0
 40
3.6
100
AcDbArc
 50
251.4782279999999
 51
354.777061
  0
ARC
  5
1CF38
330
1CEAF
100
AcDbEntity
  8
1
  6
Continuous
100
AcDbCircle
 10
198.8
 20
44.55519699999999
 30
0.0
 40
1.0
100
AcDbArc
 50
90.0
 51
270.0
  0
ARC
  5
1CF39
330
1CEAF
100
AcDbEntity
  8
1
  6
Continuous
100
AcDbCircle
 10
198.8
 20
49.55519699999999
 30
0.0
 40
4.0
100
AcDbArc
 50
270.0
 51
288.5217719999999
  0
ARC
  5
1CF3A
330
1CEAF
100
AcDbEntity
  8
1
  6
Continuous
100
AcDbCircle
 10
198.8
 20
39.55519699999999
 30
0.0
 40
4.0
100
AcDbArc
 50
81.22743299999998
 51
90.0
  0
ARC
  5
1CF3B
330
1CEAF
100
AcDbEntity
  8
1
  6
Continuous
100
AcDbCircle
 10
198.8
 20
49.55519699999999
 30
0.0
 40
6.0
100
AcDbArc
 50
270.0
 51
288.5217719999999
  0
ARC
  5
1CF3C
330
1CEAF
100
AcDbEntity
  8
1
  6
Continuous
100
AcDbCircle
 10
208.4
 20
49.55519699999999
 30
0.0
 40
4.0
100
AcDbArc
 50
270.0
 51
288.5217719999999
  0
ARC
  5
1CF3D
330
1CEAF
100
AcDbEntity
  8
1
  6
Continuous
100
AcDbCircle
 10
208.4
 20
49.55519699999999
 30
0.0
 40
6.0
100
AcDbArc
 50
270.0
 51
288.5217719999999
  0
LINE
  5
1CF3E
330
1CEAF
100
AcDbEntity
  8
1
  6
Continuous
100
AcDbLine
 10
202.7632469999999
 20
44.55519699999999
 30
0.0
 11
207.2917359999999
 21
43.03807299999999
 31
0.0
  0
LINE
  5
1CF3F
330
1CEAF
100
AcDbEntity
  8
1
  6
Continuous
100
AcDbLine
 10
200.7059899999999
 20
43.86597899999999
 30
0.0
 11
207.2917359999999
 21
46.072322
 31
0.0
  0
ARC
  5
1CF40
330
1CEAF
100
AcDbEntity
  8
1
  6
Continuous
100
AcDbCircle
 10
207.8
 20
44.55519699999999
 30
0.0
 40
3.6
100
AcDbArc
 50
251.4782279999999
 51
354.777061
  0
ARC
  5
1CF41
330
1CEAF
100
AcDbEntity
  8
1
  6
Continuous
100
AcDbCircle
 10
207.8
 20
44.55519699999999
 30
0.0
 40
3.6
100
AcDbArc
 50
27.31641
 51
108.5217719999999
  0
ARC
  5
1CF42
330
1CEAF
100
AcDbEntity
  8
1
  6
Continuous
100
AcDbCircle
 10
207.8
 20
44.55519699999999
 30
0.0
 40
1.6
100
AcDbArc
 50
251.4782279999999
 51
323.064374
  0
ARC
  5
1CF43
330
1CEAF
100
AcDbEntity
  8
1
  6
Continuous
100
AcDbCircle
 10
207.8
 20
44.55519699999999
 30
0.0
 40
1.6
100
AcDbArc
 50
40.862518
 51
108.5217719999999
  0
ARC
  5
1CF44
330
1CEAF
100
AcDbEntity
  8
1
  6
Continuous
100
AcDbCircle
 10
208.4
 20
44.55519699999999
 30
0.0
 40
1.0
100
AcDbArc
 50
90.0
 51
270.0
  0
ARC
  5
1CF45
330
1CEAF
100
AcDbEntity
  8
1
  6
Continuous
100
AcDbCircle
 10
208.4
 20
39.55519699999999
 30
0.0
 40
4.0
100
AcDbArc
 50
81.22743299999998
 51
90.0
  0
LINE
  5
1CF46
330
1CEAF
100
AcDbEntity
  8
1
  6
Continuous
100
AcDbLine
 10
206.656406
 20
47.968728
 30
0.0
 11
200.07066
 21
45.76238499999997
 31
0.0
  0
LINE
  5
1CF47
330
1CEAF
100
AcDbEntity
  8
1
  6
Continuous
100
AcDbLine
 10
201.398549
 20
42.903143
 30
0.0
 11
206.656406
 21
41.141667
 31
0.0
  0
ARC
  5
1CF48
330
1CEAF
100
AcDbEntity
  8
1
  6
Continuous
100
AcDbCircle
 10
217.3999999999999
 20
44.55519699999999
 30
0.0
 40
1.6
100
AcDbArc
 50
251.4782279999999
 51
323.064374
  0
LINE
  5
1CF49
330
1CEAF
100
AcDbEntity
  8
1
  6
Continuous
100
AcDbLine
 10
197.056406
 20
47.968728
 30
0.0
 11
190.47066
 21
45.76238499999997
 31
0.0
  0
LINE
  5
1CF4A
330
1CEAF
100
AcDbEntity
  8
1
  6
Continuous
100
AcDbLine
 10
191.798549
 20
42.903143
 30
0.0
 11
197.056406
 21
41.141667
 31
0.0
  0
LINE
  5
1CF4B
330
1CEAF
100
AcDbEntity
  8
1
  6
Continuous
100
AcDbLine
 10
191.1059899999999
 20
43.86597899999999
 30
0.0
 11
197.691736
 21
46.072322
 31
0.0
  0
LINE
  5
1CF4C
330
1CEAF
100
AcDbEntity
  8
1
  6
Continuous
100
AcDbLine
 10
193.1632469999999
 20
44.55519699999999
 30
0.0
 11
197.691736
 21
43.03807299999999
 31
0.0
  0
ARC
  5
1CF4D
330
1CEAF
100
AcDbEntity
  8
1
  6
Continuous
100
AcDbCircle
 10
198.2
 20
44.55519699999999
 30
0.0
 40
3.6
100
AcDbArc
 50
251.4782279999999
 51
354.777061
  0
ARC
  5
1CF4E
330
1CEAF
100
AcDbEntity
  8
1
  6
Continuous
100
AcDbCircle
 10
179.6
 20
44.55519699999999
 30
0.0
 40
1.0
100
AcDbArc
 50
90.0
 51
270.0
  0
ARC
  5
1CF4F
330
1CEAF
100
AcDbEntity
  8
1
  6
Continuous
100
AcDbCircle
 10
179.6
 20
49.55519699999999
 30
0.0
 40
4.0
100
AcDbArc
 50
270.0
 51
288.5217719999999
  0
ARC
  5
1CF50
330
1CEAF
100
AcDbEntity
  8
1
  6
Continuous
100
AcDbCircle
 10
179.6
 20
39.55519699999999
 30
0.0
 40
4.0
100
AcDbArc
 50
81.22743299999998
 51
90.0
  0
ARC
  5
1CF51
330
1CEAF
100
AcDbEntity
  8
1
  6
Continuous
100
AcDbCircle
 10
179.6
 20
49.55519699999999
 30
0.0
 40
6.0
100
AcDbArc
 50
270.0
 51
288.5217719999999
  0
ARC
  5
1CF52
330
1CEAF
100
AcDbEntity
  8
1
  6
Continuous
100
AcDbCircle
 10
189.1999999999999
 20
49.55519699999999
 30
0.0
 40
4.0
100
AcDbArc
 50
270.0
 51
288.5217719999999
  0
ARC
  5
1CF53
330
1CEAF
100
AcDbEntity
  8
1
  6
Continuous
100
AcDbCircle
 10
189.1999999999999
 20
49.55519699999999
 30
0.0
 40
6.0
100
AcDbArc
 50
270.0
 51
288.5217719999999
  0
LINE
  5
1CF54
330
1CEAF
100
AcDbEntity
  8
1
  6
Continuous
100
AcDbLine
 10
183.563247
 20
44.55519699999999
 30
0.0
 11
188.0917359999999
 21
43.03807299999999
 31
0.0
  0
LINE
  5
1CF55
330
1CEAF
100
AcDbEntity
  8
1
  6
Continuous
100
AcDbLine
 10
181.5059899999999
 20
43.86597899999999
 30
0.0
 11
188.0917359999999
 21
46.072322
 31
0.0
  0
ARC
  5
1CF56
330
1CEAF
100
AcDbEntity
  8
1
  6
Continuous
100
AcDbCircle
 10
188.5999999999999
 20
44.55519699999999
 30
0.0
 40
3.6
100
AcDbArc
 50
251.4782279999999
 51
354.777061
  0
ARC
  5
1CF57
330
1CEAF
100
AcDbEntity
  8
1
  6
Continuous
100
AcDbCircle
 10
188.5999999999999
 20
44.55519699999999
 30
0.0
 40
3.6
100
AcDbArc
 50
27.31641
 51
108.5217719999999
  0
ARC
  5
1CF58
330
1CEAF
100
AcDbEntity
  8
1
  6
Continuous
100
AcDbCircle
 10
188.5999999999999
 20
44.55519699999999
 30
0.0
 40
1.6
100
AcDbArc
 50
251.4782279999999
 51
323.064374
  0
ARC
  5
1CF59
330
1CEAF
100
AcDbEntity
  8
1
  6
Continuous
100
AcDbCircle
 10
188.5999999999999
 20
44.55519699999999
 30
0.0
 40
1.6
100
AcDbArc
 50
40.862518
 51
108.5217719999999
  0
ARC
  5
1CF5A
330
1CEAF
100
AcDbEntity
  8
1
  6
Continuous
100
AcDbCircle
 10
189.1999999999999
 20
44.55519699999999
 30
0.0
 40
1.0
100
AcDbArc
 50
90.0
 51
270.0
  0
ARC
  5
1CF5B
330
1CEAF
100
AcDbEntity
  8
1
  6
Continuous
100
AcDbCircle
 10
189.1999999999999
 20
39.55519699999999
 30
0.0
 40
4.0
100
AcDbArc
 50
81.22743299999998
 51
90.0
  0
LINE
  5
1CF5C
330
1CEAF
100
AcDbEntity
  8
1
  6
Continuous
100
AcDbLine
 10
187.4564059999999
 20
47.968728
 30
0.0
 11
180.8706599999999
 21
45.76238499999997
 31
0.0
  0
LINE
  5
1CF5D
330
1CEAF
100
AcDbEntity
  8
1
  6
Continuous
100
AcDbLine
 10
182.1985489999999
 20
42.903143
 30
0.0
 11
187.4564059999999
 21
41.141667
 31
0.0
  0
ARC
  5
1CF5E
330
1CEAF
100
AcDbEntity
  8
1
  6
Continuous
100
AcDbCircle
 10
198.2
 20
44.55519699999999
 30
0.0
 40
1.6
100
AcDbArc
 50
251.4782279999999
 51
323.064374
  0
LINE
  5
1CF5F
330
1CEAF
100
AcDbEntity
  8
1
  6
Continuous
100
AcDbLine
 10
177.8564059999999
 20
47.968728
 30
0.0
 11
171.2706599999999
 21
45.76238499999997
 31
0.0
  0
LINE
  5
1CF60
330
1CEAF
100
AcDbEntity
  8
1
  6
Continuous
100
AcDbLine
 10
172.598549
 20
42.903143
 30
0.0
 11
177.8564059999999
 21
41.141667
 31
0.0
  0
LINE
  5
1CF61
330
1CEAF
100
AcDbEntity
  8
1
  6
Continuous
100
AcDbLine
 10
171.9059899999998
 20
43.86597899999999
 30
0.0
 11
178.491736
 21
46.072322
 31
0.0
  0
LINE
  5
1CF62
330
1CEAF
100
AcDbEntity
  8
1
  6
Continuous
100
AcDbLine
 10
173.963247
 20
44.55519699999999
 30
0.0
 11
178.491736
 21
43.03807299999999
 31
0.0
  0
ARC
  5
1CF63
330
1CEAF
100
AcDbEntity
  8
1
  6
Continuous
100
AcDbCircle
 10
179.0
 20
44.55519699999999
 30
0.0
 40
3.6
100
AcDbArc
 50
251.4782279999999
 51
354.777061
  0
ARC
  5
1CF64
330
1CEAF
100
AcDbEntity
  8
1
  6
Continuous
100
AcDbCircle
 10
160.4
 20
44.55519699999999
 30
0.0
 40
1.0
100
AcDbArc
 50
90.0
 51
270.0
  0
ARC
  5
1CF65
330
1CEAF
100
AcDbEntity
  8
1
  6
Continuous
100
AcDbCircle
 10
160.4
 20
49.55519699999999
 30
0.0
 40
4.0
100
AcDbArc
 50
270.0
 51
288.5217719999999
  0
ARC
  5
1CF66
330
1CEAF
100
AcDbEntity
  8
1
  6
Continuous
100
AcDbCircle
 10
160.4
 20
39.55519699999999
 30
0.0
 40
4.0
100
AcDbArc
 50
81.22743299999998
 51
90.0
  0
ARC
  5
1CF67
330
1CEAF
100
AcDbEntity
  8
1
  6
Continuous
100
AcDbCircle
 10
160.4
 20
49.55519699999999
 30
0.0
 40
6.0
100
AcDbArc
 50
270.0
 51
288.5217719999999
  0
ARC
  5
1CF68
330
1CEAF
100
AcDbEntity
  8
1
  6
Continuous
100
AcDbCircle
 10
170.0
 20
49.55519699999999
 30
0.0
 40
4.0
100
AcDbArc
 50
270.0
 51
288.5217719999999
  0
ARC
  5
1CF69
330
1CEAF
100
AcDbEntity
  8
1
  6
Continuous
100
AcDbCircle
 10
170.0
 20
49.55519699999999
 30
0.0
 40
6.0
100
AcDbArc
 50
270.0
 51
288.5217719999999
  0
LINE
  5
1CF6A
330
1CEAF
100
AcDbEntity
  8
1
  6
Continuous
100
AcDbLine
 10
164.363247
 20
44.55519699999999
 30
0.0
 11
168.891736
 21
43.03807299999999
 31
0.0
  0
LINE
  5
1CF6B
330
1CEAF
100
AcDbEntity
  8
1
  6
Continuous
100
AcDbLine
 10
162.3059899999998
 20
43.86597899999999
 30
0.0
 11
168.891736
 21
46.072322
 31
0.0
  0
ARC
  5
1CF6C
330
1CEAF
100
AcDbEntity
  8
1
  6
Continuous
100
AcDbCircle
 10
169.4
 20
44.55519699999999
 30
0.0
 40
3.6
100
AcDbArc
 50
251.4782279999999
 51
354.777061
  0
ARC
  5
1CF6D
330
1CEAF
100
AcDbEntity
  8
1
  6
Continuous
100
AcDbCircle
 10
169.4
 20
44.55519699999999
 30
0.0
 40
3.6
100
AcDbArc
 50
27.31641
 51
108.5217719999999
  0
ARC
  5
1CF6E
330
1CEAF
100
AcDbEntity
  8
1
  6
Continuous
100
AcDbCircle
 10
169.4
 20
44.55519699999999
 30
0.0
 40
1.6
100
AcDbArc
 50
251.4782279999999
 51
323.064374
  0
ARC
  5
1CF6F
330
1CEAF
100
AcDbEntity
  8
1
  6
Continuous
100
AcDbCircle
 10
169.4
 20
44.55519699999999
 30
0.0
 40
1.6
100
AcDbArc
 50
40.862518
 51
108.5217719999999
  0
ARC
  5
1CF70
330
1CEAF
100
AcDbEntity
  8
1
  6
Continuous
100
AcDbCircle
 10
170.0
 20
44.55519699999999
 30
0.0
 40
1.0
100
AcDbArc
 50
90.0
 51
270.0
  0
ARC
  5
1CF71
330
1CEAF
100
AcDbEntity
  8
1
  6
Continuous
100
AcDbCircle
 10
170.0
 20
39.55519699999999
 30
0.0
 40
4.0
100
AcDbArc
 50
81.22743299999998
 51
90.0
  0
LINE
  5
1CF72
330
1CEAF
100
AcDbEntity
  8
1
  6
Continuous
100
AcDbLine
 10
168.2564059999999
 20
47.968728
 30
0.0
 11
161.67066
 21
45.76238499999997
 31
0.0
  0
LINE
  5
1CF73
330
1CEAF
100
AcDbEntity
  8
1
  6
Continuous
100
AcDbLine
 10
162.9985489999999
 20
42.903143
 30
0.0
 11
168.2564059999999
 21
41.141667
 31
0.0
  0
ARC
  5
1CF74
330
1CEAF
100
AcDbEntity
  8
1
  6
Continuous
100
AcDbCircle
 10
179.0
 20
44.55519699999999
 30
0.0
 40
1.6
100
AcDbArc
 50
251.4782279999999
 51
323.064374
  0
LINE
  5
1CF75
330
1CEAF
100
AcDbEntity
  8
1
  6
Continuous
100
AcDbLine
 10
158.656406
 20
47.968728
 30
0.0
 11
152.07066
 21
45.76238499999997
 31
0.0
  0
LINE
  5
1CF76
330
1CEAF
100
AcDbEntity
  8
1
  6
Continuous
100
AcDbLine
 10
153.398549
 20
42.903143
 30
0.0
 11
158.656406
 21
41.141667
 31
0.0
  0
LINE
  5
1CF77
330
1CEAF
100
AcDbEntity
  8
1
  6
Continuous
100
AcDbLine
 10
152.7059899999999
 20
43.86597899999999
 30
0.0
 11
159.2917359999999
 21
46.072322
 31
0.0
  0
LINE
  5
1CF78
330
1CEAF
100
AcDbEntity
  8
1
  6
Continuous
100
AcDbLine
 10
154.763247
 20
44.55519699999999
 30
0.0
 11
159.2917359999999
 21
43.03807299999999
 31
0.0
  0
ARC
  5
1CF79
330
1CEAF
100
AcDbEntity
  8
1
  6
Continuous
100
AcDbCircle
 10
159.8
 20
44.55519699999999
 30
0.0
 40
3.6
100
AcDbArc
 50
251.4782279999999
 51
354.777061
  0
ARC
  5
1CF7A
330
1CEAF
100
AcDbEntity
  8
1
  6
Continuous
100
AcDbCircle
 10
141.1999999999999
 20
44.55519699999999
 30
0.0
 40
1.0
100
AcDbArc
 50
90.0
 51
270.0
  0
ARC
  5
1CF7B
330
1CEAF
100
AcDbEntity
  8
1
  6
Continuous
100
AcDbCircle
 10
141.1999999999999
 20
49.55519699999999
 30
0.0
 40
4.0
100
AcDbArc
 50
270.0
 51
288.5217719999999
  0
ARC
  5
1CF7C
330
1CEAF
100
AcDbEntity
  8
1
  6
Continuous
100
AcDbCircle
 10
141.1999999999999
 20
39.55519699999999
 30
0.0
 40
4.0
100
AcDbArc
 50
81.22743299999998
 51
90.0
  0
ARC
  5
1CF7D
330
1CEAF
100
AcDbEntity
  8
1
  6
Continuous
100
AcDbCircle
 10
141.1999999999999
 20
49.55519699999999
 30
0.0
 40
6.0
100
AcDbArc
 50
270.0
 51
288.5217719999999
  0
ARC
  5
1CF7E
330
1CEAF
100
AcDbEntity
  8
1
  6
Continuous
100
AcDbCircle
 10
150.8
 20
49.55519699999999
 30
0.0
 40
4.0
100
AcDbArc
 50
270.0
 51
288.5217719999999
  0
ARC
  5
1CF7F
330
1CEAF
100
AcDbEntity
  8
1
  6
Continuous
100
AcDbCircle
 10
150.8
 20
49.55519699999999
 30
0.0
 40
6.0
100
AcDbArc
 50
270.0
 51
288.5217719999999
  0
LINE
  5
1CF80
330
1CEAF
100
AcDbEntity
  8
1
  6
Continuous
100
AcDbLine
 10
145.1632469999998
 20
44.55519699999999
 30
0.0
 11
149.6917359999999
 21
43.03807299999999
 31
0.0
  0
LINE
  5
1CF81
330
1CEAF
100
AcDbEntity
  8
1
  6
Continuous
100
AcDbLine
 10
143.1059899999999
 20
43.86597899999999
 30
0.0
 11
149.6917359999999
 21
46.072322
 31
0.0
  0
ARC
  5
1CF82
330
1CEAF
100
AcDbEntity
  8
1
  6
Continuous
100
AcDbCircle
 10
150.1999999999999
 20
44.55519699999999
 30
0.0
 40
3.6
100
AcDbArc
 50
251.4782279999999
 51
354.777061
  0
ARC
  5
1CF83
330
1CEAF
100
AcDbEntity
  8
1
  6
Continuous
100
AcDbCircle
 10
150.1999999999999
 20
44.55519699999999
 30
0.0
 40
3.6
100
AcDbArc
 50
27.31641
 51
108.5217719999999
  0
ARC
  5
1CF84
330
1CEAF
100
AcDbEntity
  8
1
  6
Continuous
100
AcDbCircle
 10
150.1999999999999
 20
44.55519699999999
 30
0.0
 40
1.6
100
AcDbArc
 50
251.4782279999999
 51
323.064374
  0
ARC
  5
1CF85
330
1CEAF
100
AcDbEntity
  8
1
  6
Continuous
100
AcDbCircle
 10
150.1999999999999
 20
44.55519699999999
 30
0.0
 40
1.6
100
AcDbArc
 50
40.862518
 51
108.5217719999999
  0
ARC
  5
1CF86
330
1CEAF
100
AcDbEntity
  8
1
  6
Continuous
100
AcDbCircle
 10
150.8
 20
44.55519699999999
 30
0.0
 40
1.0
100
AcDbArc
 50
90.0
 51
270.0
  0
ARC
  5
1CF87
330
1CEAF
100
AcDbEntity
  8
1
  6
Continuous
100
AcDbCircle
 10
150.8
 20
39.55519699999999
 30
0.0
 40
4.0
100
AcDbArc
 50
81.22743299999998
 51
90.0
  0
LINE
  5
1CF88
330
1CEAF
100
AcDbEntity
  8
1
  6
Continuous
100
AcDbLine
 10
149.056406
 20
47.968728
 30
0.0
 11
142.47066
 21
45.76238499999997
 31
0.0
  0
LINE
  5
1CF89
330
1CEAF
100
AcDbEntity
  8
1
  6
Continuous
100
AcDbLine
 10
143.798549
 20
42.903143
 30
0.0
 11
149.056406
 21
41.141667
 31
0.0
  0
ARC
  5
1CF8A
330
1CEAF
100
AcDbEntity
  8
1
  6
Continuous
100
AcDbCircle
 10
159.8
 20
44.55519699999999
 30
0.0
 40
1.6
100
AcDbArc
 50
251.4782279999999
 51
323.064374
  0
LINE
  5
1CF8B
330
1CEAF
100
AcDbEntity
  8
1
  6
Continuous
100
AcDbLine
 10
139.4564059999999
 20
47.968728
 30
0.0
 11
132.8706599999999
 21
45.76238499999997
 31
0.0
  0
LINE
  5
1CF8C
330
1CEAF
100
AcDbEntity
  8
1
  6
Continuous
100
AcDbLine
 10
134.1985489999999
 20
42.903143
 30
0.0
 11
139.4564059999999
 21
41.141667
 31
0.0
  0
LINE
  5
1CF8D
330
1CEAF
100
AcDbEntity
  8
1
  6
Continuous
100
AcDbLine
 10
133.50599
 20
43.86597899999999
 30
0.0
 11
140.091736
 21
46.072322
 31
0.0
  0
LINE
  5
1CF8E
330
1CEAF
100
AcDbEntity
  8
1
  6
Continuous
100
AcDbLine
 10
135.5632469999999
 20
44.55519699999999
 30
0.0
 11
140.091736
 21
43.03807299999999
 31
0.0
  0
ARC
  5
1CF8F
330
1CEAF
100
AcDbEntity
  8
1
  6
Continuous
100
AcDbCircle
 10
140.5999999999999
 20
44.55519699999999
 30
0.0
 40
3.6
100
AcDbArc
 50
251.4782279999999
 51
354.777061
  0
ARC
  5
1CF90
330
1CEAF
100
AcDbEntity
  8
1
  6
Continuous
100
AcDbCircle
 10
122.0
 20
44.55519699999999
 30
0.0
 40
1.0
100
AcDbArc
 50
90.0
 51
270.0
  0
ARC
  5
1CF91
330
1CEAF
100
AcDbEntity
  8
1
  6
Continuous
100
AcDbCircle
 10
122.0
 20
49.55519699999999
 30
0.0
 40
4.0
100
AcDbArc
 50
270.0
 51
288.5217719999999
  0
ARC
  5
1CF92
330
1CEAF
100
AcDbEntity
  8
1
  6
Continuous
100
AcDbCircle
 10
122.0
 20
39.55519699999999
 30
0.0
 40
4.0
100
AcDbArc
 50
81.22743299999998
 51
90.0
  0
ARC
  5
1CF93
330
1CEAF
100
AcDbEntity
  8
1
  6
Continuous
100
AcDbCircle
 10
122.0
 20
49.55519699999999
 30
0.0
 40
6.0
100
AcDbArc
 50
270.0
 51
288.5217719999999
  0
ARC
  5
1CF94
330
1CEAF
100
AcDbEntity
  8
1
  6
Continuous
100
AcDbCircle
 10
131.6
 20
49.55519699999999
 30
0.0
 40
4.0
100
AcDbArc
 50
270.0
 51
288.5217719999999
  0
ARC
  5
1CF95
330
1CEAF
100
AcDbEntity
  8
1
  6
Continuous
100
AcDbCircle
 10
131.6
 20
49.55519699999999
 30
0.0
 40
6.0
100
AcDbArc
 50
270.0
 51
288.5217719999999
  0
LINE
  5
1CF96
330
1CEAF
100
AcDbEntity
  8
1
  6
Continuous
100
AcDbLine
 10
125.9632469999999
 20
44.55519699999999
 30
0.0
 11
130.491736
 21
43.03807299999999
 31
0.0
  0
LINE
  5
1CF97
330
1CEAF
100
AcDbEntity
  8
1
  6
Continuous
100
AcDbLine
 10
123.9059899999999
 20
43.86597899999999
 30
0.0
 11
130.491736
 21
46.072322
 31
0.0
  0
ARC
  5
1CF98
330
1CEAF
100
AcDbEntity
  8
1
  6
Continuous
100
AcDbCircle
 10
131.0
 20
44.55519699999999
 30
0.0
 40
3.6
100
AcDbArc
 50
251.4782279999999
 51
354.777061
  0
ARC
  5
1CF99
330
1CEAF
100
AcDbEntity
  8
1
  6
Continuous
100
AcDbCircle
 10
131.0
 20
44.55519699999999
 30
0.0
 40
3.6
100
AcDbArc
 50
27.31641
 51
108.5217719999999
  0
ARC
  5
1CF9A
330
1CEAF
100
AcDbEntity
  8
1
  6
Continuous
100
AcDbCircle
 10
131.0
 20
44.55519699999999
 30
0.0
 40
1.6
100
AcDbArc
 50
251.4782279999999
 51
323.064374
  0
ARC
  5
1CF9B
330
1CEAF
100
AcDbEntity
  8
1
  6
Continuous
100
AcDbCircle
 10
131.0
 20
44.55519699999999
 30
0.0
 40
1.6
100
AcDbArc
 50
40.862518
 51
108.5217719999999
  0
ARC
  5
1CF9C
330
1CEAF
100
AcDbEntity
  8
1
  6
Continuous
100
AcDbCircle
 10
131.6
 20
44.55519699999999
 30
0.0
 40
1.0
100
AcDbArc
 50
90.0
 51
270.0
  0
ARC
  5
1CF9D
330
1CEAF
100
AcDbEntity
  8
1
  6
Continuous
100
AcDbCircle
 10
131.6
 20
39.55519699999999
 30
0.0
 40
4.0
100
AcDbArc
 50
81.22743299999998
 51
90.0
  0
LINE
  5
1CF9E
330
1CEAF
100
AcDbEntity
  8
1
  6
Continuous
100
AcDbLine
 10
129.8564059999999
 20
47.968728
 30
0.0
 11
123.2706599999999
 21
45.76238499999997
 31
0.0
  0
LINE
  5
1CF9F
330
1CEAF
100
AcDbEntity
  8
1
  6
Continuous
100
AcDbLine
 10
124.598549
 20
42.903143
 30
0.0
 11
129.8564059999999
 21
41.141667
 31
0.0
  0
ARC
  5
1CFA0
330
1CEAF
100
AcDbEntity
  8
1
  6
Continuous
100
AcDbCircle
 10
140.5999999999999
 20
44.55519699999999
 30
0.0
 40
1.6
100
AcDbArc
 50
251.4782279999999
 51
323.064374
  0
LINE
  5
1CFA1
330
1CEAF
100
AcDbEntity
  8
1
  6
Continuous
100
AcDbLine
 10
120.256406
 20
47.968728
 30
0.0
 11
113.67066
 21
45.76238499999997
 31
0.0
  0
LINE
  5
1CFA2
330
1CEAF
100
AcDbEntity
  8
1
  6
Continuous
100
AcDbLine
 10
114.9985489999999
 20
42.903143
 30
0.0
 11
120.256406
 21
41.141667
 31
0.0
  0
LINE
  5
1CFA3
330
1CEAF
100
AcDbEntity
  8
1
  6
Continuous
100
AcDbLine
 10
114.3059899999998
 20
43.86597899999999
 30
0.0
 11
120.891736
 21
46.072322
 31
0.0
  0
LINE
  5
1CFA4
330
1CEAF
100
AcDbEntity
  8
1
  6
Continuous
100
AcDbLine
 10
116.363247
 20
44.55519699999999
 30
0.0
 11
120.891736
 21
43.03807299999999
 31
0.0
  0
ARC
  5
1CFA5
330
1CEAF
100
AcDbEntity
  8
1
  6
Continuous
100
AcDbCircle
 10
121.4
 20
44.55519699999999
 30
0.0
 40
3.6
100
AcDbArc
 50
251.4782279999999
 51
354.777061
  0
ARC
  5
1CFA6
330
1CEAF
100
AcDbEntity
  8
1
  6
Continuous
100
AcDbCircle
 10
102.8
 20
44.55519699999999
 30
0.0
 40
1.0
100
AcDbArc
 50
90.0
 51
270.0
  0
ARC
  5
1CFA7
330
1CEAF
100
AcDbEntity
  8
1
  6
Continuous
100
AcDbCircle
 10
102.8
 20
49.55519699999999
 30
0.0
 40
4.0
100
AcDbArc
 50
270.0
 51
288.5217719999999
  0
ARC
  5
1CFA8
330
1CEAF
100
AcDbEntity
  8
1
  6
Continuous
100
AcDbCircle
 10
102.8
 20
39.55519699999999
 30
0.0
 40
4.0
100
AcDbArc
 50
81.22743299999998
 51
90.0
  0
ARC
  5
1CFA9
330
1CEAF
100
AcDbEntity
  8
1
  6
Continuous
100
AcDbCircle
 10
102.8
 20
49.55519699999999
 30
0.0
 40
6.0
100
AcDbArc
 50
270.0
 51
288.5217719999999
  0
ARC
  5
1CFAA
330
1CEAF
100
AcDbEntity
  8
1
  6
Continuous
100
AcDbCircle
 10
112.4
 20
49.55519699999999
 30
0.0
 40
4.0
100
AcDbArc
 50
270.0
 51
288.5217719999999
  0
ARC
  5
1CFAB
330
1CEAF
100
AcDbEntity
  8
1
  6
Continuous
100
AcDbCircle
 10
112.4
 20
49.55519699999999
 30
0.0
 40
6.0
100
AcDbArc
 50
270.0
 51
288.5217719999999
  0
LINE
  5
1CFAC
330
1CEAF
100
AcDbEntity
  8
1
  6
Continuous
100
AcDbLine
 10
106.7632469999998
 20
44.55519699999999
 30
0.0
 11
111.291736
 21
43.03807299999999
 31
0.0
  0
LINE
  5
1CFAD
330
1CEAF
100
AcDbEntity
  8
1
  6
Continuous
100
AcDbLine
 10
104.70599
 20
43.86597899999999
 30
0.0
 11
111.291736
 21
46.072322
 31
0.0
  0
ARC
  5
1CFAE
330
1CEAF
100
AcDbEntity
  8
1
  6
Continuous
100
AcDbCircle
 10
111.8
 20
44.55519699999999
 30
0.0
 40
3.6
100
AcDbArc
 50
251.4782279999999
 51
354.777061
  0
ARC
  5
1CFAF
330
1CEAF
100
AcDbEntity
  8
1
  6
Continuous
100
AcDbCircle
 10
111.8
 20
44.55519699999999
 30
0.0
 40
3.6
100
AcDbArc
 50
27.31641
 51
108.5217719999999
  0
ARC
  5
1CFB0
330
1CEAF
100
AcDbEntity
  8
1
  6
Continuous
100
AcDbCircle
 10
111.8
 20
44.55519699999999
 30
0.0
 40
1.6
100
AcDbArc
 50
251.4782279999999
 51
323.064374
  0
ARC
  5
1CFB1
330
1CEAF
100
AcDbEntity
  8
1
  6
Continuous
100
AcDbCircle
 10
111.8
 20
44.55519699999999
 30
0.0
 40
1.6
100
AcDbArc
 50
40.862518
 51
108.5217719999999
  0
ARC
  5
1CFB2
330
1CEAF
100
AcDbEntity
  8
1
  6
Continuous
100
AcDbCircle
 10
112.4
 20
44.55519699999999
 30
0.0
 40
1.0
100
AcDbArc
 50
90.0
 51
270.0
  0
ARC
  5
1CFB3
330
1CEAF
100
AcDbEntity
  8
1
  6
Continuous
100
AcDbCircle
 10
112.4
 20
39.55519699999999
 30
0.0
 40
4.0
100
AcDbArc
 50
81.22743299999998
 51
90.0
  0
LINE
  5
1CFB4
330
1CEAF
100
AcDbEntity
  8
1
  6
Continuous
100
AcDbLine
 10
110.6564059999999
 20
47.968728
 30
0.0
 11
104.07066
 21
45.76238499999997
 31
0.0
  0
LINE
  5
1CFB5
330
1CEAF
100
AcDbEntity
  8
1
  6
Continuous
100
AcDbLine
 10
105.398549
 20
42.903143
 30
0.0
 11
110.6564059999999
 21
41.141667
 31
0.0
  0
ARC
  5
1CFB6
330
1CEAF
100
AcDbEntity
  8
1
  6
Continuous
100
AcDbCircle
 10
121.4
 20
44.55519699999999
 30
0.0
 40
1.6
100
AcDbArc
 50
251.4782279999999
 51
323.064374
  0
LINE
  5
1CFB7
330
1CEAF
100
AcDbEntity
  8
1
  6
Continuous
100
AcDbLine
 10
95.10599
 20
43.86597899999999
 30
0.0
 11
101.6917359999999
 21
46.072322
 31
0.0
  0
LINE
  5
1CFB8
330
1CEAF
100
AcDbEntity
  8
1
  6
Continuous
100
AcDbLine
 10
94.47065999999999
 20
43.348009
 30
0.0
 11
101.056406
 21
41.141667
 31
0.0
  0
LINE
  5
1CFB9
330
1CEAF
100
AcDbEntity
  8
1
  6
Continuous
100
AcDbLine
 10
101.056406
 20
47.968728
 30
0.0
 11
94.47065999999999
 21
45.76238499999997
 31
0.0
  0
ARC
  5
1CFBA
330
1CEAF
100
AcDbEntity
  8
1
  6
Continuous
100
AcDbCircle
 10
93.2
 20
39.55519699999999
 30
0.0
 40
4.0
100
AcDbArc
 50
71.478228
 51
90.0
  0
ARC
  5
1CFBB
330
1CEAF
100
AcDbEntity
  8
1
  6
Continuous
100
AcDbCircle
 10
93.2
 20
44.55519699999999
 30
0.0
 40
1.0
100
AcDbArc
 50
90.0
 51
270.0
  0
ARC
  5
1CFBC
330
1CEAF
100
AcDbEntity
  8
1
  6
Continuous
100
AcDbCircle
 10
93.2
 20
49.55519699999999
 30
0.0
 40
6.0
100
AcDbArc
 50
270.0
 51
288.5217719999999
  0
ARC
  5
1CFBD
330
1CEAF
100
AcDbEntity
  8
1
  6
Continuous
100
AcDbCircle
 10
93.2
 20
49.55519699999999
 30
0.0
 40
4.0
100
AcDbArc
 50
270.0
 51
288.5217719999999
  0
ARC
  5
1CFBE
330
1CEAF
100
AcDbEntity
  8
1
  6
Continuous
100
AcDbCircle
 10
102.2
 20
44.55519699999999
 30
0.0
 40
1.6
100
AcDbArc
 50
251.4782279999999
 51
323.064374
  0
ARC
  5
1CFBF
330
1CEAF
100
AcDbEntity
  8
1
  6
Continuous
100
AcDbCircle
 10
102.2
 20
44.55519699999999
 30
0.0
 40
3.6
100
AcDbArc
 50
251.4782279999999
 51
354.777061
  0
LINE
  5
1CFC0
330
1CEAF
100
AcDbEntity
  8
1
  6
Continuous
100
AcDbLine
 10
97.16324700000001
 20
44.55519699999999
 30
0.0
 11
101.6917359999999
 21
43.03807299999999
 31
0.0
  0
ARC
  5
1CFC1
330
1CEAF
100
AcDbEntity
  8
1
  6
Continuous
100
AcDbCircle
 10
102.8
 20
49.55519699999999
 30
0.0
 40
6.0
100
AcDbArc
 50
270.0
 51
288.5217719999999
  0
ARC
  5
1CFC2
330
1CEAF
100
AcDbEntity
  8
1
  6
Continuous
100
AcDbCircle
 10
102.8
 20
39.55519699999999
 30
0.0
 40
4.0
100
AcDbArc
 50
81.22743299999998
 51
90.0
  0
ARC
  5
1CFC3
330
1CEAF
100
AcDbEntity
  8
1
  6
Continuous
100
AcDbCircle
 10
102.8
 20
49.55519699999999
 30
0.0
 40
4.0
100
AcDbArc
 50
270.0
 51
288.5217719999999
  0
ARC
  5
1CFC4
330
1CEAF
100
AcDbEntity
  8
1
  6
Continuous
100
AcDbCircle
 10
102.2
 20
44.55519699999999
 30
0.0
 40
3.6
100
AcDbArc
 50
27.31641
 51
108.5217719999999
  0
ARC
  5
1CFC5
330
1CEAF
100
AcDbEntity
  8
1
  6
Continuous
100
AcDbCircle
 10
102.2
 20
44.55519699999999
 30
0.0
 40
1.6
100
AcDbArc
 50
40.862518
 51
108.5217719999999
  0
ARC
  5
1CFC6
330
1CEAF
100
AcDbEntity
  8
1
  6
Continuous
100
AcDbCircle
 10
121.4
 20
44.55519699999999
 30
0.0
 40
3.6
100
AcDbArc
 50
27.31641
 51
108.5217719999999
  0
ARC
  5
1CFC7
330
1CEAF
100
AcDbEntity
  8
1
  6
Continuous
100
AcDbCircle
 10
121.4
 20
44.55519699999999
 30
0.0
 40
1.6
100
AcDbArc
 50
40.862518
 51
108.5217719999999
  0
ARC
  5
1CFC8
330
1CEAF
100
AcDbEntity
  8
1
  6
Continuous
100
AcDbCircle
 10
140.5999999999999
 20
44.55519699999999
 30
0.0
 40
1.6
100
AcDbArc
 50
40.862518
 51
108.5217719999999
  0
ARC
  5
1CFC9
330
1CEAF
100
AcDbEntity
  8
1
  6
Continuous
100
AcDbCircle
 10
140.5999999999999
 20
44.55519699999999
 30
0.0
 40
3.6
100
AcDbArc
 50
27.31641
 51
108.5217719999999
  0
ARC
  5
1CFCA
330
1CEAF
100
AcDbEntity
  8
1
  6
Continuous
100
AcDbCircle
 10
159.8
 20
44.55519699999999
 30
0.0
 40
3.6
100
AcDbArc
 50
27.31641
 51
108.5217719999999
  0
ARC
  5
1CFCB
330
1CEAF
100
AcDbEntity
  8
1
  6
Continuous
100
AcDbCircle
 10
159.8
 20
44.55519699999999
 30
0.0
 40
1.6
100
AcDbArc
 50
40.862518
 51
108.5217719999999
  0
ARC
  5
1CFCC
330
1CEAF
100
AcDbEntity
  8
1
  6
Continuous
100
AcDbCircle
 10
179.0
 20
44.55519699999999
 30
0.0
 40
3.6
100
AcDbArc
 50
27.31641
 51
108.5217719999999
  0
ARC
  5
1CFCD
330
1CEAF
100
AcDbEntity
  8
1
  6
Continuous
100
AcDbCircle
 10
179.0
 20
44.55519699999999
 30
0.0
 40
1.6
100
AcDbArc
 50
40.862518
 51
108.5217719999999
  0
ARC
  5
1CFCE
330
1CEAF
100
AcDbEntity
  8
1
  6
Continuous
100
AcDbCircle
 10
198.2
 20
44.55519699999999
 30
0.0
 40
3.6
100
AcDbArc
 50
27.31641
 51
108.5217719999999
  0
ARC
  5
1CFCF
330
1CEAF
100
AcDbEntity
  8
1
  6
Continuous
100
AcDbCircle
 10
198.2
 20
44.55519699999999
 30
0.0
 40
1.6
100
AcDbArc
 50
40.862518
 51
108.5217719999999
  0
ARC
  5
1CFD0
330
1CEAF
100
AcDbEntity
  8
1
  6
Continuous
100
AcDbCircle
 10
217.3999999999999
 20
44.55519699999999
 30
0.0
 40
3.6
100
AcDbArc
 50
27.31641
 51
108.5217719999999
  0
ARC
  5
1CFD1
330
1CEAF
100
AcDbEntity
  8
1
  6
Continuous
100
AcDbCircle
 10
217.3999999999999
 20
44.55519699999999
 30
0.0
 40
1.6
100
AcDbArc
 50
40.862518
 51
108.5217719999999
  0
ARC
  5
1CFD2
330
1CEAF
100
AcDbEntity
  8
1
  6
Continuous
100
AcDbCircle
 10
236.6
 20
44.55519699999999
 30
0.0
 40
3.6
100
AcDbArc
 50
27.31641
 51
108.5217719999999
  0
ARC
  5
1CFD3
330
1CEAF
100
AcDbEntity
  8
1
  6
Continuous
100
AcDbCircle
 10
236.6
 20
44.55519699999999
 30
0.0
 40
1.6
100
AcDbArc
 50
40.862518
 51
108.5217719999999
  0
ARC
  5
1CFD4
330
1CEAF
100
AcDbEntity
  8
1
  6
Continuous
100
AcDbCircle
 10
255.8
 20
44.55519699999999
 30
0.0
 40
3.6
100
AcDbArc
 50
27.31641
 51
108.5217719999999
  0
ARC
  5
1CFD5
330
1CEAF
100
AcDbEntity
  8
1
  6
Continuous
100
AcDbCircle
 10
255.8
 20
44.55519699999999
 30
0.0
 40
1.6
100
AcDbArc
 50
40.862518
 51
108.5217719999999
  0
ARC
  5
1CFD6
330
1CEAF
100
AcDbEntity
  8
1
  6
Continuous
100
AcDbCircle
 10
275.0
 20
44.55519699999999
 30
0.0
 40
3.6
100
AcDbArc
 50
27.31641
 51
108.5217719999999
  0
ARC
  5
1CFD7
330
1CEAF
100
AcDbEntity
  8
1
  6
Continuous
100
AcDbCircle
 10
275.0
 20
44.55519699999999
 30
0.0
 40
1.6
100
AcDbArc
 50
40.862518
 51
108.5217719999999
  0
LINE
  5
1CFD8
330
1CEAF
100
AcDbEntity
  8
1
  6
Continuous
100
AcDbLine
 10
131.001451
 20
93.40725199999999
 30
0.0
 11
125.7435939999999
 21
95.16872799999999
 31
0.0
  0
ARC
  5
1CFD9
330
1CEAF
100
AcDbEntity
  8
1
  6
Continuous
100
AcDbCircle
 10
134.1999999999998
 20
91.755197
 30
0.0
 40
3.6
100
AcDbArc
 50
71.478228
 51
174.777061
  0
LINE
  5
1CFDA
330
1CEAF
100
AcDbEntity
  8
1
  6
Continuous
100
AcDbLine
 10
125.7435939999999
 20
88.341667
 30
0.0
 11
132.32934
 21
90.548009
 31
0.0
  0
LINE
  5
1CFDB
330
1CEAF
100
AcDbEntity
  8
1
  6
Continuous
100
AcDbLine
 10
131.6940099999999
 20
92.444415
 30
0.0
 11
125.1082639999999
 21
90.23807299999999
 31
0.0
  0
ARC
  5
1CFDC
330
1CEAF
100
AcDbEntity
  8
1
  6
Continuous
100
AcDbCircle
 10
259.0
 20
91.755197
 30
0.0
 40
1.6
100
AcDbArc
 50
71.478228
 51
143.0643739999998
  0
ARC
  5
1CFDD
330
1CEAF
100
AcDbEntity
  8
1
  6
Continuous
100
AcDbCircle
 10
259.0
 20
91.755197
 30
0.0
 40
3.6
100
AcDbArc
 50
207.3164099999999
 51
288.5217719999999
  0
ARC
  5
1CFDE
330
1CEAF
100
AcDbEntity
  8
1
  6
Continuous
100
AcDbCircle
 10
259.0
 20
91.755197
 30
0.0
 40
3.6
100
AcDbArc
 50
71.478228
 51
174.777061
  0
ARC
  5
1CFDF
330
1CEAF
100
AcDbEntity
  8
1
  6
Continuous
100
AcDbCircle
 10
258.3999999999999
 20
86.75519699999998
 30
0.0
 40
6.0
100
AcDbArc
 50
90.0
 51
108.5217719999999
  0
ARC
  5
1CFE0
330
1CEAF
100
AcDbEntity
  8
1
  6
Continuous
100
AcDbCircle
 10
258.3999999999999
 20
86.75519699999998
 30
0.0
 40
4.0
100
AcDbArc
 50
90.0
 51
108.5217719999999
  0
LINE
  5
1CFE1
330
1CEAF
100
AcDbEntity
  8
1
  6
Continuous
100
AcDbLine
 10
295.52934
 20
92.96238499999999
 30
0.0
 11
288.943594
 21
95.16872799999999
 31
0.0
  0
LINE
  5
1CFE2
330
1CEAF
100
AcDbEntity
  8
1
  6
Continuous
100
AcDbLine
 10
292.836753
 20
91.755197
 30
0.0
 11
288.3082639999999
 21
93.272322
 31
0.0
  0
LINE
  5
1CFE3
330
1CEAF
100
AcDbEntity
  8
1
  6
Continuous
100
AcDbLine
 10
288.943594
 20
88.341667
 30
0.0
 11
295.52934
 21
90.548009
 31
0.0
  0
LINE
  5
1CFE4
330
1CEAF
100
AcDbEntity
  8
1
  6
Continuous
100
AcDbLine
 10
294.8940099999999
 20
92.444415
 30
0.0
 11
288.3082639999999
 21
90.23807299999999
 31
0.0
  0
ARC
  5
1CFE5
330
1CEAF
100
AcDbEntity
  8
1
  6
Continuous
100
AcDbCircle
 10
296.7999999999999
 20
96.755197
 30
0.0
 40
4.0
100
AcDbArc
 50
251.4782279999999
 51
270.0
  0
ARC
  5
1CFE6
330
1CEAF
100
AcDbEntity
  8
1
  6
Continuous
100
AcDbCircle
 10
296.7999999999999
 20
86.75519699999998
 30
0.0
 40
4.0
100
AcDbArc
 50
90.0
 51
108.5217719999999
  0
ARC
  5
1CFE7
330
1CEAF
100
AcDbEntity
  8
1
  6
Continuous
100
AcDbCircle
 10
296.7999999999999
 20
86.75519699999998
 30
0.0
 40
6.0
100
AcDbArc
 50
90.0
 51
108.5217719999999
  0
ARC
  5
1CFE8
330
1CEAF
100
AcDbEntity
  8
1
  6
Continuous
100
AcDbCircle
 10
296.7999999999999
 20
91.755197
 30
0.0
 40
1.0
100
AcDbArc
 50
270.0
 51
90.0
  0
LINE
  5
1CFE9
330
1CEAF
100
AcDbEntity
  8
1
  6
Continuous
100
AcDbLine
 10
275.69401
 20
92.444415
 30
0.0
 11
269.108264
 21
90.23807299999999
 31
0.0
  0
LINE
  5
1CFEA
330
1CEAF
100
AcDbEntity
  8
1
  6
Continuous
100
AcDbLine
 10
275.0014509999999
 20
93.40725199999999
 30
0.0
 11
269.7435939999999
 21
95.16872799999999
 31
0.0
  0
LINE
  5
1CFEB
330
1CEAF
100
AcDbEntity
  8
1
  6
Continuous
100
AcDbLine
 10
269.7435939999999
 20
88.341667
 30
0.0
 11
276.32934
 21
90.548009
 31
0.0
  0
ARC
  5
1CFEC
330
1CEAF
100
AcDbEntity
  8
1
  6
Continuous
100
AcDbCircle
 10
287.1999999999998
 20
96.755197
 30
0.0
 40
4.0
100
AcDbArc
 50
261.227433
 51
270.0
  0
ARC
  5
1CFED
330
1CEAF
100
AcDbEntity
  8
1
  6
Continuous
100
AcDbCircle
 10
287.1999999999998
 20
96.755197
 30
0.0
 40
4.0
100
AcDbArc
 50
261.227433
 51
270.0
  0
LINE
  5
1CFEE
330
1CEAF
100
AcDbEntity
  8
1
  6
Continuous
100
AcDbLine
 10
284.6014509999998
 20
93.40725199999999
 30
0.0
 11
279.343594
 21
95.16872799999999
 31
0.0
  0
ARC
  5
1CFEF
330
1CEAF
100
AcDbEntity
  8
1
  6
Continuous
100
AcDbCircle
 10
287.1999999999998
 20
91.755197
 30
0.0
 40
1.0
100
AcDbArc
 50
270.0
 51
90.0
  0
ARC
  5
1CFF0
330
1CEAF
100
AcDbEntity
  8
1
  6
Continuous
100
AcDbCircle
 10
287.8
 20
91.755197
 30
0.0
 40
1.6
100
AcDbArc
 50
220.862518
 51
288.5217719999999
  0
ARC
  5
1CFF1
330
1CEAF
100
AcDbEntity
  8
1
  6
Continuous
100
AcDbCircle
 10
287.8
 20
91.755197
 30
0.0
 40
1.6
100
AcDbArc
 50
71.478228
 51
143.0643739999998
  0
ARC
  5
1CFF2
330
1CEAF
100
AcDbEntity
  8
1
  6
Continuous
100
AcDbCircle
 10
287.8
 20
91.755197
 30
0.0
 40
3.6
100
AcDbArc
 50
207.3164099999999
 51
288.5217719999999
  0
ARC
  5
1CFF3
330
1CEAF
100
AcDbEntity
  8
1
  6
Continuous
100
AcDbCircle
 10
287.8
 20
91.755197
 30
0.0
 40
3.6
100
AcDbArc
 50
71.478228
 51
174.777061
  0
ARC
  5
1CFF4
330
1CEAF
100
AcDbEntity
  8
1
  6
Continuous
100
AcDbCircle
 10
287.1999999999998
 20
86.75519699999998
 30
0.0
 40
4.0
100
AcDbArc
 50
90.0
 51
108.5217719999999
  0
ARC
  5
1CFF5
330
1CEAF
100
AcDbEntity
  8
1
  6
Continuous
100
AcDbCircle
 10
287.1999999999998
 20
86.75519699999998
 30
0.0
 40
6.0
100
AcDbArc
 50
90.0
 51
108.5217719999999
  0
LINE
  5
1CFF6
330
1CEAF
100
AcDbEntity
  8
1
  6
Continuous
100
AcDbLine
 10
279.343594
 20
88.341667
 30
0.0
 11
285.9293399999998
 21
90.548009
 31
0.0
  0
ARC
  5
1CFF7
330
1CEAF
100
AcDbEntity
  8
1
  6
Continuous
100
AcDbCircle
 10
277.6
 20
96.755197
 30
0.0
 40
4.0
100
AcDbArc
 50
261.227433
 51
270.0
  0
ARC
  5
1CFF8
330
1CEAF
100
AcDbEntity
  8
1
  6
Continuous
100
AcDbCircle
 10
277.6
 20
91.755197
 30
0.0
 40
1.0
100
AcDbArc
 50
270.0
 51
90.0
  0
ARC
  5
1CFF9
330
1CEAF
100
AcDbEntity
  8
1
  6
Continuous
100
AcDbCircle
 10
278.2
 20
91.755197
 30
0.0
 40
1.6
100
AcDbArc
 50
220.862518
 51
288.5217719999999
  0
ARC
  5
1CFFA
330
1CEAF
100
AcDbEntity
  8
1
  6
Continuous
100
AcDbCircle
 10
278.2
 20
91.755197
 30
0.0
 40
1.6
100
AcDbArc
 50
71.478228
 51
143.0643739999998
  0
ARC
  5
1CFFB
330
1CEAF
100
AcDbEntity
  8
1
  6
Continuous
100
AcDbCircle
 10
278.2
 20
91.755197
 30
0.0
 40
3.6
100
AcDbArc
 50
207.3164099999999
 51
288.5217719999999
  0
ARC
  5
1CFFC
330
1CEAF
100
AcDbEntity
  8
1
  6
Continuous
100
AcDbCircle
 10
278.2
 20
91.755197
 30
0.0
 40
3.6
100
AcDbArc
 50
71.478228
 51
174.777061
  0
LINE
  5
1CFFD
330
1CEAF
100
AcDbEntity
  8
1
  6
Continuous
100
AcDbLine
 10
285.29401
 20
92.444415
 30
0.0
 11
278.7082639999998
 21
90.23807299999999
 31
0.0
  0
LINE
  5
1CFFE
330
1CEAF
100
AcDbEntity
  8
1
  6
Continuous
100
AcDbLine
 10
283.2367529999999
 20
91.755197
 30
0.0
 11
278.7082639999998
 21
93.272322
 31
0.0
  0
ARC
  5
1CFFF
330
1CEAF
100
AcDbEntity
  8
1
  6
Continuous
100
AcDbCircle
 10
277.6
 20
86.75519699999998
 30
0.0
 40
6.0
100
AcDbArc
 50
90.0
 51
108.5217719999999
  0
ARC
  5
1D000
330
1CEAF
100
AcDbEntity
  8
1
  6
Continuous
100
AcDbCircle
 10
277.6
 20
86.75519699999998
 30
0.0
 40
4.0
100
AcDbArc
 50
90.0
 51
108.5217719999999
  0
ARC
  5
1D001
330
1CEAF
100
AcDbEntity
  8
1
  6
Continuous
100
AcDbCircle
 10
287.1999999999998
 20
86.75519699999998
 30
0.0
 40
6.0
100
AcDbArc
 50
90.0
 51
108.5217719999999
  0
ARC
  5
1D002
330
1CEAF
100
AcDbEntity
  8
1
  6
Continuous
100
AcDbCircle
 10
287.1999999999998
 20
86.75519699999998
 30
0.0
 40
4.0
100
AcDbArc
 50
90.0
 51
108.5217719999999
  0
ARC
  5
1D003
330
1CEAF
100
AcDbEntity
  8
1
  6
Continuous
100
AcDbCircle
 10
268.0
 20
96.755197
 30
0.0
 40
4.0
100
AcDbArc
 50
261.227433
 51
270.0
  0
LINE
  5
1D004
330
1CEAF
100
AcDbEntity
  8
1
  6
Continuous
100
AcDbLine
 10
265.401451
 20
93.40725199999999
 30
0.0
 11
260.143594
 21
95.16872799999999
 31
0.0
  0
ARC
  5
1D005
330
1CEAF
100
AcDbEntity
  8
1
  6
Continuous
100
AcDbCircle
 10
268.6
 20
91.755197
 30
0.0
 40
1.6
100
AcDbArc
 50
220.862518
 51
288.5217719999999
  0
ARC
  5
1D006
330
1CEAF
100
AcDbEntity
  8
1
  6
Continuous
100
AcDbCircle
 10
268.6
 20
91.755197
 30
0.0
 40
1.6
100
AcDbArc
 50
71.478228
 51
143.0643739999998
  0
ARC
  5
1D007
330
1CEAF
100
AcDbEntity
  8
1
  6
Continuous
100
AcDbCircle
 10
268.0
 20
91.755197
 30
0.0
 40
1.0
100
AcDbArc
 50
270.0
 51
90.0
  0
ARC
  5
1D008
330
1CEAF
100
AcDbEntity
  8
1
  6
Continuous
100
AcDbCircle
 10
268.6
 20
91.755197
 30
0.0
 40
3.6
100
AcDbArc
 50
207.3164099999999
 51
288.5217719999999
  0
ARC
  5
1D009
330
1CEAF
100
AcDbEntity
  8
1
  6
Continuous
100
AcDbCircle
 10
268.6
 20
91.755197
 30
0.0
 40
3.6
100
AcDbArc
 50
71.478228
 51
174.777061
  0
LINE
  5
1D00A
330
1CEAF
100
AcDbEntity
  8
1
  6
Continuous
100
AcDbLine
 10
273.6367529999998
 20
91.755197
 30
0.0
 11
269.108264
 21
93.272322
 31
0.0
  0
LINE
  5
1D00B
330
1CEAF
100
AcDbEntity
  8
1
  6
Continuous
100
AcDbLine
 10
260.143594
 20
88.341667
 30
0.0
 11
266.7293399999999
 21
90.548009
 31
0.0
  0
ARC
  5
1D00C
330
1CEAF
100
AcDbEntity
  8
1
  6
Continuous
100
AcDbCircle
 10
258.3999999999999
 20
96.755197
 30
0.0
 40
4.0
100
AcDbArc
 50
261.227433
 51
270.0
  0
ARC
  5
1D00D
330
1CEAF
100
AcDbEntity
  8
1
  6
Continuous
100
AcDbCircle
 10
258.3999999999999
 20
91.755197
 30
0.0
 40
1.0
100
AcDbArc
 50
270.0
 51
90.0
  0
ARC
  5
1D00E
330
1CEAF
100
AcDbEntity
  8
1
  6
Continuous
100
AcDbCircle
 10
259.0
 20
91.755197
 30
0.0
 40
1.6
100
AcDbArc
 50
220.862518
 51
288.5217719999999
  0
LINE
  5
1D00F
330
1CEAF
100
AcDbEntity
  8
1
  6
Continuous
100
AcDbLine
 10
266.09401
 20
92.444415
 30
0.0
 11
259.508264
 21
90.23807299999999
 31
0.0
  0
LINE
  5
1D010
330
1CEAF
100
AcDbEntity
  8
1
  6
Continuous
100
AcDbLine
 10
264.0367529999999
 20
91.755197
 30
0.0
 11
259.508264
 21
93.272322
 31
0.0
  0
ARC
  5
1D011
330
1CEAF
100
AcDbEntity
  8
1
  6
Continuous
100
AcDbCircle
 10
268.0
 20
86.75519699999998
 30
0.0
 40
6.0
100
AcDbArc
 50
90.0
 51
108.5217719999999
  0
ARC
  5
1D012
330
1CEAF
100
AcDbEntity
  8
1
  6
Continuous
100
AcDbCircle
 10
268.0
 20
86.75519699999998
 30
0.0
 40
4.0
100
AcDbArc
 50
90.0
 51
108.5217719999999
  0
LINE
  5
1D013
330
1CEAF
100
AcDbEntity
  8
1
  6
Continuous
100
AcDbLine
 10
196.8367529999999
 20
91.755197
 30
0.0
 11
192.3082639999998
 21
93.272322
 31
0.0
  0
LINE
  5
1D014
330
1CEAF
100
AcDbEntity
  8
1
  6
Continuous
100
AcDbLine
 10
198.89401
 20
92.444415
 30
0.0
 11
192.3082639999998
 21
90.23807299999999
 31
0.0
  0
LINE
  5
1D015
330
1CEAF
100
AcDbEntity
  8
1
  6
Continuous
100
AcDbLine
 10
198.2014509999999
 20
93.40725199999999
 30
0.0
 11
192.9435939999999
 21
95.16872799999999
 31
0.0
  0
LINE
  5
1D016
330
1CEAF
100
AcDbEntity
  8
1
  6
Continuous
100
AcDbLine
 10
192.9435939999999
 20
88.341667
 30
0.0
 11
199.5293399999999
 21
90.548009
 31
0.0
  0
LINE
  5
1D017
330
1CEAF
100
AcDbEntity
  8
1
  6
Continuous
100
AcDbLine
 10
227.0014509999998
 20
93.40725199999999
 30
0.0
 11
221.743594
 21
95.16872799999999
 31
0.0
  0
LINE
  5
1D018
330
1CEAF
100
AcDbEntity
  8
1
  6
Continuous
100
AcDbLine
 10
221.743594
 20
88.341667
 30
0.0
 11
228.32934
 21
90.548009
 31
0.0
  0
LINE
  5
1D019
330
1CEAF
100
AcDbEntity
  8
1
  6
Continuous
100
AcDbLine
 10
227.69401
 20
92.444415
 30
0.0
 11
221.1082639999999
 21
90.23807299999999
 31
0.0
  0
LINE
  5
1D01A
330
1CEAF
100
AcDbEntity
  8
1
  6
Continuous
100
AcDbLine
 10
246.2014509999999
 20
93.40725199999999
 30
0.0
 11
240.9435939999999
 21
95.16872799999999
 31
0.0
  0
LINE
  5
1D01B
330
1CEAF
100
AcDbEntity
  8
1
  6
Continuous
100
AcDbLine
 10
240.9435939999999
 20
88.341667
 30
0.0
 11
247.5293399999999
 21
90.548009
 31
0.0
  0
LINE
  5
1D01C
330
1CEAF
100
AcDbEntity
  8
1
  6
Continuous
100
AcDbLine
 10
246.89401
 20
92.444415
 30
0.0
 11
240.308264
 21
90.23807299999999
 31
0.0
  0
LINE
  5
1D01D
330
1CEAF
100
AcDbEntity
  8
1
  6
Continuous
100
AcDbLine
 10
244.836753
 20
91.755197
 30
0.0
 11
240.308264
 21
93.272322
 31
0.0
  0
ARC
  5
1D01E
330
1CEAF
100
AcDbEntity
  8
1
  6
Continuous
100
AcDbCircle
 10
248.7999999999999
 20
96.755197
 30
0.0
 40
4.0
100
AcDbArc
 50
261.227433
 51
270.0
  0
ARC
  5
1D01F
330
1CEAF
100
AcDbEntity
  8
1
  6
Continuous
100
AcDbCircle
 10
249.4
 20
91.755197
 30
0.0
 40
3.6
100
AcDbArc
 50
207.3164099999999
 51
288.5217719999999
  0
ARC
  5
1D020
330
1CEAF
100
AcDbEntity
  8
1
  6
Continuous
100
AcDbCircle
 10
249.4
 20
91.755197
 30
0.0
 40
3.6
100
AcDbArc
 50
71.478228
 51
174.777061
  0
ARC
  5
1D021
330
1CEAF
100
AcDbEntity
  8
1
  6
Continuous
100
AcDbCircle
 10
248.7999999999999
 20
91.755197
 30
0.0
 40
1.0
100
AcDbArc
 50
270.0
 51
90.0
  0
ARC
  5
1D022
330
1CEAF
100
AcDbEntity
  8
1
  6
Continuous
100
AcDbCircle
 10
249.4
 20
91.755197
 30
0.0
 40
1.6
100
AcDbArc
 50
220.862518
 51
288.5217719999999
  0
ARC
  5
1D023
330
1CEAF
100
AcDbEntity
  8
1
  6
Continuous
100
AcDbCircle
 10
249.4
 20
91.755197
 30
0.0
 40
1.6
100
AcDbArc
 50
71.478228
 51
143.0643739999998
  0
LINE
  5
1D024
330
1CEAF
100
AcDbEntity
  8
1
  6
Continuous
100
AcDbLine
 10
254.4367529999999
 20
91.755197
 30
0.0
 11
249.908264
 21
93.272322
 31
0.0
  0
LINE
  5
1D025
330
1CEAF
100
AcDbEntity
  8
1
  6
Continuous
100
AcDbLine
 10
256.49401
 20
92.444415
 30
0.0
 11
249.908264
 21
90.23807299999999
 31
0.0
  0
LINE
  5
1D026
330
1CEAF
100
AcDbEntity
  8
1
  6
Continuous
100
AcDbLine
 10
255.801451
 20
93.40725199999999
 30
0.0
 11
250.5435939999999
 21
95.16872799999999
 31
0.0
  0
LINE
  5
1D027
330
1CEAF
100
AcDbEntity
  8
1
  6
Continuous
100
AcDbLine
 10
250.5435939999999
 20
88.341667
 30
0.0
 11
257.12934
 21
90.548009
 31
0.0
  0
ARC
  5
1D028
330
1CEAF
100
AcDbEntity
  8
1
  6
Continuous
100
AcDbCircle
 10
248.7999999999999
 20
86.75519699999998
 30
0.0
 40
6.0
100
AcDbArc
 50
90.0
 51
108.5217719999999
  0
ARC
  5
1D029
330
1CEAF
100
AcDbEntity
  8
1
  6
Continuous
100
AcDbCircle
 10
248.7999999999999
 20
86.75519699999998
 30
0.0
 40
4.0
100
AcDbArc
 50
90.0
 51
108.5217719999999
  0
ARC
  5
1D02A
330
1CEAF
100
AcDbEntity
  8
1
  6
Continuous
100
AcDbCircle
 10
229.5999999999999
 20
96.755197
 30
0.0
 40
4.0
100
AcDbArc
 50
261.227433
 51
270.0
  0
ARC
  5
1D02B
330
1CEAF
100
AcDbEntity
  8
1
  6
Continuous
100
AcDbCircle
 10
229.5999999999999
 20
91.755197
 30
0.0
 40
1.0
100
AcDbArc
 50
270.0
 51
90.0
  0
ARC
  5
1D02C
330
1CEAF
100
AcDbEntity
  8
1
  6
Continuous
100
AcDbCircle
 10
230.2
 20
91.755197
 30
0.0
 40
1.6
100
AcDbArc
 50
220.862518
 51
288.5217719999999
  0
ARC
  5
1D02D
330
1CEAF
100
AcDbEntity
  8
1
  6
Continuous
100
AcDbCircle
 10
230.2
 20
91.755197
 30
0.0
 40
1.6
100
AcDbArc
 50
71.478228
 51
143.0643739999998
  0
ARC
  5
1D02E
330
1CEAF
100
AcDbEntity
  8
1
  6
Continuous
100
AcDbCircle
 10
230.2
 20
91.755197
 30
0.0
 40
3.6
100
AcDbArc
 50
207.3164099999999
 51
288.5217719999999
  0
ARC
  5
1D02F
330
1CEAF
100
AcDbEntity
  8
1
  6
Continuous
100
AcDbCircle
 10
230.2
 20
91.755197
 30
0.0
 40
3.6
100
AcDbArc
 50
71.478228
 51
174.777061
  0
ARC
  5
1D030
330
1CEAF
100
AcDbEntity
  8
1
  6
Continuous
100
AcDbCircle
 10
239.1999999999999
 20
96.755197
 30
0.0
 40
4.0
100
AcDbArc
 50
261.227433
 51
270.0
  0
ARC
  5
1D031
330
1CEAF
100
AcDbEntity
  8
1
  6
Continuous
100
AcDbCircle
 10
239.1999999999999
 20
91.755197
 30
0.0
 40
1.0
100
AcDbArc
 50
270.0
 51
90.0
  0
ARC
  5
1D032
330
1CEAF
100
AcDbEntity
  8
1
  6
Continuous
100
AcDbCircle
 10
239.8
 20
91.755197
 30
0.0
 40
1.6
100
AcDbArc
 50
220.862518
 51
288.5217719999999
  0
ARC
  5
1D033
330
1CEAF
100
AcDbEntity
  8
1
  6
Continuous
100
AcDbCircle
 10
239.8
 20
91.755197
 30
0.0
 40
1.6
100
AcDbArc
 50
71.478228
 51
143.0643739999998
  0
ARC
  5
1D034
330
1CEAF
100
AcDbEntity
  8
1
  6
Continuous
100
AcDbCircle
 10
239.8
 20
91.755197
 30
0.0
 40
3.6
100
AcDbArc
 50
207.3164099999999
 51
288.5217719999999
  0
ARC
  5
1D035
330
1CEAF
100
AcDbEntity
  8
1
  6
Continuous
100
AcDbCircle
 10
239.8
 20
91.755197
 30
0.0
 40
3.6
100
AcDbArc
 50
71.478228
 51
174.777061
  0
ARC
  5
1D036
330
1CEAF
100
AcDbEntity
  8
1
  6
Continuous
100
AcDbCircle
 10
239.1999999999999
 20
86.75519699999998
 30
0.0
 40
6.0
100
AcDbArc
 50
90.0
 51
108.5217719999999
  0
ARC
  5
1D037
330
1CEAF
100
AcDbEntity
  8
1
  6
Continuous
100
AcDbCircle
 10
239.1999999999999
 20
86.75519699999998
 30
0.0
 40
4.0
100
AcDbArc
 50
90.0
 51
108.5217719999999
  0
LINE
  5
1D038
330
1CEAF
100
AcDbEntity
  8
1
  6
Continuous
100
AcDbLine
 10
235.2367529999999
 20
91.755197
 30
0.0
 11
230.708264
 21
93.272322
 31
0.0
  0
LINE
  5
1D039
330
1CEAF
100
AcDbEntity
  8
1
  6
Continuous
100
AcDbLine
 10
237.29401
 20
92.444415
 30
0.0
 11
230.708264
 21
90.23807299999999
 31
0.0
  0
LINE
  5
1D03A
330
1CEAF
100
AcDbEntity
  8
1
  6
Continuous
100
AcDbLine
 10
236.6014509999998
 20
93.40725199999999
 30
0.0
 11
231.343594
 21
95.16872799999999
 31
0.0
  0
LINE
  5
1D03B
330
1CEAF
100
AcDbEntity
  8
1
  6
Continuous
100
AcDbLine
 10
231.343594
 20
88.341667
 30
0.0
 11
237.9293399999999
 21
90.548009
 31
0.0
  0
ARC
  5
1D03C
330
1CEAF
100
AcDbEntity
  8
1
  6
Continuous
100
AcDbCircle
 10
229.5999999999999
 20
86.75519699999998
 30
0.0
 40
6.0
100
AcDbArc
 50
90.0
 51
108.5217719999999
  0
ARC
  5
1D03D
330
1CEAF
100
AcDbEntity
  8
1
  6
Continuous
100
AcDbCircle
 10
229.5999999999999
 20
86.75519699999998
 30
0.0
 40
4.0
100
AcDbArc
 50
90.0
 51
108.5217719999999
  0
ARC
  5
1D03E
330
1CEAF
100
AcDbEntity
  8
1
  6
Continuous
100
AcDbCircle
 10
210.4
 20
96.755197
 30
0.0
 40
4.0
100
AcDbArc
 50
261.227433
 51
270.0
  0
ARC
  5
1D03F
330
1CEAF
100
AcDbEntity
  8
1
  6
Continuous
100
AcDbCircle
 10
211.0
 20
91.755197
 30
0.0
 40
1.6
100
AcDbArc
 50
220.862518
 51
288.5217719999999
  0
ARC
  5
1D040
330
1CEAF
100
AcDbEntity
  8
1
  6
Continuous
100
AcDbCircle
 10
211.0
 20
91.755197
 30
0.0
 40
1.6
100
AcDbArc
 50
71.478228
 51
143.0643739999998
  0
ARC
  5
1D041
330
1CEAF
100
AcDbEntity
  8
1
  6
Continuous
100
AcDbCircle
 10
211.0
 20
91.755197
 30
0.0
 40
3.6
100
AcDbArc
 50
207.3164099999999
 51
288.5217719999999
  0
ARC
  5
1D042
330
1CEAF
100
AcDbEntity
  8
1
  6
Continuous
100
AcDbCircle
 10
211.0
 20
91.755197
 30
0.0
 40
3.6
100
AcDbArc
 50
71.478228
 51
174.777061
  0
ARC
  5
1D043
330
1CEAF
100
AcDbEntity
  8
1
  6
Continuous
100
AcDbCircle
 10
210.4
 20
86.75519699999998
 30
0.0
 40
6.0
100
AcDbArc
 50
90.0
 51
108.5217719999999
  0
ARC
  5
1D044
330
1CEAF
100
AcDbEntity
  8
1
  6
Continuous
100
AcDbCircle
 10
210.4
 20
86.75519699999998
 30
0.0
 40
4.0
100
AcDbArc
 50
90.0
 51
108.5217719999999
  0
ARC
  5
1D045
330
1CEAF
100
AcDbEntity
  8
1
  6
Continuous
100
AcDbCircle
 10
210.4
 20
91.755197
 30
0.0
 40
1.0
100
AcDbArc
 50
270.0
 51
90.0
  0
ARC
  5
1D046
330
1CEAF
100
AcDbEntity
  8
1
  6
Continuous
100
AcDbCircle
 10
220.0
 20
96.755197
 30
0.0
 40
4.0
100
AcDbArc
 50
261.227433
 51
270.0
  0
ARC
  5
1D047
330
1CEAF
100
AcDbEntity
  8
1
  6
Continuous
100
AcDbCircle
 10
220.0
 20
91.755197
 30
0.0
 40
1.0
100
AcDbArc
 50
270.0
 51
90.0
  0
ARC
  5
1D048
330
1CEAF
100
AcDbEntity
  8
1
  6
Continuous
100
AcDbCircle
 10
220.5999999999999
 20
91.755197
 30
0.0
 40
1.6
100
AcDbArc
 50
220.862518
 51
288.5217719999999
  0
ARC
  5
1D049
330
1CEAF
100
AcDbEntity
  8
1
  6
Continuous
100
AcDbCircle
 10
220.5999999999999
 20
91.755197
 30
0.0
 40
1.6
100
AcDbArc
 50
71.478228
 51
143.0643739999998
  0
ARC
  5
1D04A
330
1CEAF
100
AcDbEntity
  8
1
  6
Continuous
100
AcDbCircle
 10
220.5999999999999
 20
91.755197
 30
0.0
 40
3.6
100
AcDbArc
 50
207.3164099999999
 51
288.5217719999999
  0
ARC
  5
1D04B
330
1CEAF
100
AcDbEntity
  8
1
  6
Continuous
100
AcDbCircle
 10
220.5999999999999
 20
91.755197
 30
0.0
 40
3.6
100
AcDbArc
 50
71.478228
 51
174.777061
  0
LINE
  5
1D04C
330
1CEAF
100
AcDbEntity
  8
1
  6
Continuous
100
AcDbLine
 10
225.6367529999999
 20
91.755197
 30
0.0
 11
221.1082639999999
 21
93.272322
 31
0.0
  0
ARC
  5
1D04D
330
1CEAF
100
AcDbEntity
  8
1
  6
Continuous
100
AcDbCircle
 10
220.0
 20
86.75519699999998
 30
0.0
 40
6.0
100
AcDbArc
 50
90.0
 51
108.5217719999999
  0
ARC
  5
1D04E
330
1CEAF
100
AcDbEntity
  8
1
  6
Continuous
100
AcDbCircle
 10
220.0
 20
86.75519699999998
 30
0.0
 40
4.0
100
AcDbArc
 50
90.0
 51
108.5217719999999
  0
LINE
  5
1D04F
330
1CEAF
100
AcDbEntity
  8
1
  6
Continuous
100
AcDbLine
 10
216.0367529999998
 20
91.755197
 30
0.0
 11
211.508264
 21
93.272322
 31
0.0
  0
LINE
  5
1D050
330
1CEAF
100
AcDbEntity
  8
1
  6
Continuous
100
AcDbLine
 10
218.0940099999999
 20
92.444415
 30
0.0
 11
211.508264
 21
90.23807299999999
 31
0.0
  0
LINE
  5
1D051
330
1CEAF
100
AcDbEntity
  8
1
  6
Continuous
100
AcDbLine
 10
217.4014509999998
 20
93.40725199999999
 30
0.0
 11
212.143594
 21
95.16872799999999
 31
0.0
  0
LINE
  5
1D052
330
1CEAF
100
AcDbEntity
  8
1
  6
Continuous
100
AcDbLine
 10
212.143594
 20
88.341667
 30
0.0
 11
218.7293399999998
 21
90.548009
 31
0.0
  0
LINE
  5
1D053
330
1CEAF
100
AcDbEntity
  8
1
  6
Continuous
100
AcDbLine
 10
207.801451
 20
93.40725199999999
 30
0.0
 11
202.5435939999999
 21
95.16872799999999
 31
0.0
  0
LINE
  5
1D054
330
1CEAF
100
AcDbEntity
  8
1
  6
Continuous
100
AcDbLine
 10
202.5435939999999
 20
88.341667
 30
0.0
 11
209.12934
 21
90.548009
 31
0.0
  0
ARC
  5
1D055
330
1CEAF
100
AcDbEntity
  8
1
  6
Continuous
100
AcDbCircle
 10
200.8
 20
96.755197
 30
0.0
 40
4.0
100
AcDbArc
 50
261.227433
 51
270.0
  0
ARC
  5
1D056
330
1CEAF
100
AcDbEntity
  8
1
  6
Continuous
100
AcDbCircle
 10
200.8
 20
91.755197
 30
0.0
 40
1.0
100
AcDbArc
 50
270.0
 51
90.0
  0
ARC
  5
1D057
330
1CEAF
100
AcDbEntity
  8
1
  6
Continuous
100
AcDbCircle
 10
201.4
 20
91.755197
 30
0.0
 40
1.6
100
AcDbArc
 50
220.862518
 51
288.5217719999999
  0
ARC
  5
1D058
330
1CEAF
100
AcDbEntity
  8
1
  6
Continuous
100
AcDbCircle
 10
201.4
 20
91.755197
 30
0.0
 40
1.6
100
AcDbArc
 50
71.478228
 51
143.0643739999998
  0
ARC
  5
1D059
330
1CEAF
100
AcDbEntity
  8
1
  6
Continuous
100
AcDbCircle
 10
201.4
 20
91.755197
 30
0.0
 40
3.6
100
AcDbArc
 50
207.3164099999999
 51
288.5217719999999
  0
ARC
  5
1D05A
330
1CEAF
100
AcDbEntity
  8
1
  6
Continuous
100
AcDbCircle
 10
201.4
 20
91.755197
 30
0.0
 40
3.6
100
AcDbArc
 50
71.478228
 51
174.777061
  0
LINE
  5
1D05B
330
1CEAF
100
AcDbEntity
  8
1
  6
Continuous
100
AcDbLine
 10
208.4940099999998
 20
92.444415
 30
0.0
 11
201.908264
 21
90.23807299999999
 31
0.0
  0
LINE
  5
1D05C
330
1CEAF
100
AcDbEntity
  8
1
  6
Continuous
100
AcDbLine
 10
206.436753
 20
91.755197
 30
0.0
 11
201.908264
 21
93.272322
 31
0.0
  0
ARC
  5
1D05D
330
1CEAF
100
AcDbEntity
  8
1
  6
Continuous
100
AcDbCircle
 10
200.8
 20
86.75519699999998
 30
0.0
 40
6.0
100
AcDbArc
 50
90.0
 51
108.5217719999999
  0
ARC
  5
1D05E
330
1CEAF
100
AcDbEntity
  8
1
  6
Continuous
100
AcDbCircle
 10
200.8
 20
86.75519699999998
 30
0.0
 40
4.0
100
AcDbArc
 50
90.0
 51
108.5217719999999
  0
ARC
  5
1D05F
330
1CEAF
100
AcDbEntity
  8
1
  6
Continuous
100
AcDbCircle
 10
162.4
 20
96.755197
 30
0.0
 40
4.0
100
AcDbArc
 50
261.227433
 51
270.0
  0
ARC
  5
1D060
330
1CEAF
100
AcDbEntity
  8
1
  6
Continuous
100
AcDbCircle
 10
163.0
 20
91.755197
 30
0.0
 40
1.6
100
AcDbArc
 50
220.862518
 51
288.5217719999999
  0
ARC
  5
1D061
330
1CEAF
100
AcDbEntity
  8
1
  6
Continuous
100
AcDbCircle
 10
163.0
 20
91.755197
 30
0.0
 40
1.6
100
AcDbArc
 50
71.478228
 51
143.0643739999998
  0
ARC
  5
1D062
330
1CEAF
100
AcDbEntity
  8
1
  6
Continuous
100
AcDbCircle
 10
163.0
 20
91.755197
 30
0.0
 40
3.6
100
AcDbArc
 50
207.3164099999999
 51
288.5217719999999
  0
ARC
  5
1D063
330
1CEAF
100
AcDbEntity
  8
1
  6
Continuous
100
AcDbCircle
 10
163.0
 20
91.755197
 30
0.0
 40
3.6
100
AcDbArc
 50
71.478228
 51
174.777061
  0
ARC
  5
1D064
330
1CEAF
100
AcDbEntity
  8
1
  6
Continuous
100
AcDbCircle
 10
162.4
 20
86.75519699999998
 30
0.0
 40
6.0
100
AcDbArc
 50
90.0
 51
108.5217719999999
  0
ARC
  5
1D065
330
1CEAF
100
AcDbEntity
  8
1
  6
Continuous
100
AcDbCircle
 10
162.4
 20
86.75519699999998
 30
0.0
 40
4.0
100
AcDbArc
 50
90.0
 51
108.5217719999999
  0
ARC
  5
1D066
330
1CEAF
100
AcDbEntity
  8
1
  6
Continuous
100
AcDbCircle
 10
182.1999999999999
 20
91.755197
 30
0.0
 40
3.6
100
AcDbArc
 50
71.478228
 51
174.777061
  0
LINE
  5
1D067
330
1CEAF
100
AcDbEntity
  8
1
  6
Continuous
100
AcDbLine
 10
179.69401
 20
92.444415
 30
0.0
 11
173.1082639999999
 21
90.23807299999999
 31
0.0
  0
LINE
  5
1D068
330
1CEAF
100
AcDbEntity
  8
1
  6
Continuous
100
AcDbLine
 10
179.0014509999998
 20
93.40725199999999
 30
0.0
 11
173.743594
 21
95.16872799999999
 31
0.0
  0
LINE
  5
1D069
330
1CEAF
100
AcDbEntity
  8
1
  6
Continuous
100
AcDbLine
 10
173.743594
 20
88.341667
 30
0.0
 11
180.32934
 21
90.548009
 31
0.0
  0
ARC
  5
1D06A
330
1CEAF
100
AcDbEntity
  8
1
  6
Continuous
100
AcDbCircle
 10
191.1999999999999
 20
96.755197
 30
0.0
 40
4.0
100
AcDbArc
 50
261.227433
 51
270.0
  0
LINE
  5
1D06B
330
1CEAF
100
AcDbEntity
  8
1
  6
Continuous
100
AcDbLine
 10
188.601451
 20
93.40725199999999
 30
0.0
 11
183.343594
 21
95.16872799999999
 31
0.0
  0
ARC
  5
1D06C
330
1CEAF
100
AcDbEntity
  8
1
  6
Continuous
100
AcDbCircle
 10
191.1999999999999
 20
91.755197
 30
0.0
 40
1.0
100
AcDbArc
 50
270.0
 51
90.0
  0
ARC
  5
1D06D
330
1CEAF
100
AcDbEntity
  8
1
  6
Continuous
100
AcDbCircle
 10
191.8
 20
91.755197
 30
0.0
 40
1.6
100
AcDbArc
 50
220.862518
 51
288.5217719999999
  0
ARC
  5
1D06E
330
1CEAF
100
AcDbEntity
  8
1
  6
Continuous
100
AcDbCircle
 10
191.8
 20
91.755197
 30
0.0
 40
1.6
100
AcDbArc
 50
71.478228
 51
143.0643739999998
  0
ARC
  5
1D06F
330
1CEAF
100
AcDbEntity
  8
1
  6
Continuous
100
AcDbCircle
 10
191.8
 20
91.755197
 30
0.0
 40
3.6
100
AcDbArc
 50
207.3164099999999
 51
288.5217719999999
  0
ARC
  5
1D070
330
1CEAF
100
AcDbEntity
  8
1
  6
Continuous
100
AcDbCircle
 10
191.8
 20
91.755197
 30
0.0
 40
3.6
100
AcDbArc
 50
71.478228
 51
174.777061
  0
LINE
  5
1D071
330
1CEAF
100
AcDbEntity
  8
1
  6
Continuous
100
AcDbLine
 10
183.343594
 20
88.341667
 30
0.0
 11
189.9293399999999
 21
90.548009
 31
0.0
  0
ARC
  5
1D072
330
1CEAF
100
AcDbEntity
  8
1
  6
Continuous
100
AcDbCircle
 10
181.6
 20
96.755197
 30
0.0
 40
4.0
100
AcDbArc
 50
261.227433
 51
270.0
  0
ARC
  5
1D073
330
1CEAF
100
AcDbEntity
  8
1
  6
Continuous
100
AcDbCircle
 10
181.6
 20
91.755197
 30
0.0
 40
1.0
100
AcDbArc
 50
270.0
 51
90.0
  0
ARC
  5
1D074
330
1CEAF
100
AcDbEntity
  8
1
  6
Continuous
100
AcDbCircle
 10
182.1999999999999
 20
91.755197
 30
0.0
 40
1.6
100
AcDbArc
 50
220.862518
 51
288.5217719999999
  0
ARC
  5
1D075
330
1CEAF
100
AcDbEntity
  8
1
  6
Continuous
100
AcDbCircle
 10
182.1999999999999
 20
91.755197
 30
0.0
 40
1.6
100
AcDbArc
 50
71.478228
 51
143.0643739999998
  0
ARC
  5
1D076
330
1CEAF
100
AcDbEntity
  8
1
  6
Continuous
100
AcDbCircle
 10
182.1999999999999
 20
91.755197
 30
0.0
 40
3.6
100
AcDbArc
 50
207.3164099999999
 51
288.5217719999999
  0
LINE
  5
1D077
330
1CEAF
100
AcDbEntity
  8
1
  6
Continuous
100
AcDbLine
 10
189.2940099999999
 20
92.444415
 30
0.0
 11
182.708264
 21
90.23807299999999
 31
0.0
  0
LINE
  5
1D078
330
1CEAF
100
AcDbEntity
  8
1
  6
Continuous
100
AcDbLine
 10
187.236753
 20
91.755197
 30
0.0
 11
182.708264
 21
93.272322
 31
0.0
  0
ARC
  5
1D079
330
1CEAF
100
AcDbEntity
  8
1
  6
Continuous
100
AcDbCircle
 10
181.6
 20
86.75519699999998
 30
0.0
 40
6.0
100
AcDbArc
 50
90.0
 51
108.5217719999999
  0
ARC
  5
1D07A
330
1CEAF
100
AcDbEntity
  8
1
  6
Continuous
100
AcDbCircle
 10
181.6
 20
86.75519699999998
 30
0.0
 40
4.0
100
AcDbArc
 50
90.0
 51
108.5217719999999
  0
ARC
  5
1D07B
330
1CEAF
100
AcDbEntity
  8
1
  6
Continuous
100
AcDbCircle
 10
191.1999999999999
 20
86.75519699999998
 30
0.0
 40
6.0
100
AcDbArc
 50
90.0
 51
108.5217719999999
  0
ARC
  5
1D07C
330
1CEAF
100
AcDbEntity
  8
1
  6
Continuous
100
AcDbCircle
 10
191.1999999999999
 20
86.75519699999998
 30
0.0
 40
4.0
100
AcDbArc
 50
90.0
 51
108.5217719999999
  0
ARC
  5
1D07D
330
1CEAF
100
AcDbEntity
  8
1
  6
Continuous
100
AcDbCircle
 10
172.0
 20
96.755197
 30
0.0
 40
4.0
100
AcDbArc
 50
261.227433
 51
270.0
  0
LINE
  5
1D07E
330
1CEAF
100
AcDbEntity
  8
1
  6
Continuous
100
AcDbLine
 10
169.401451
 20
93.40725199999999
 30
0.0
 11
164.143594
 21
95.16872799999999
 31
0.0
  0
ARC
  5
1D07F
330
1CEAF
100
AcDbEntity
  8
1
  6
Continuous
100
AcDbCircle
 10
172.0
 20
91.755197
 30
0.0
 40
1.0
100
AcDbArc
 50
270.0
 51
90.0
  0
ARC
  5
1D080
330
1CEAF
100
AcDbEntity
  8
1
  6
Continuous
100
AcDbCircle
 10
172.5999999999999
 20
91.755197
 30
0.0
 40
1.6
100
AcDbArc
 50
220.862518
 51
288.5217719999999
  0
ARC
  5
1D081
330
1CEAF
100
AcDbEntity
  8
1
  6
Continuous
100
AcDbCircle
 10
172.5999999999999
 20
91.755197
 30
0.0
 40
1.6
100
AcDbArc
 50
71.478228
 51
143.0643739999998
  0
ARC
  5
1D082
330
1CEAF
100
AcDbEntity
  8
1
  6
Continuous
100
AcDbCircle
 10
172.5999999999999
 20
91.755197
 30
0.0
 40
3.6
100
AcDbArc
 50
207.3164099999999
 51
288.5217719999999
  0
ARC
  5
1D083
330
1CEAF
100
AcDbEntity
  8
1
  6
Continuous
100
AcDbCircle
 10
172.5999999999999
 20
91.755197
 30
0.0
 40
3.6
100
AcDbArc
 50
71.478228
 51
174.777061
  0
LINE
  5
1D084
330
1CEAF
100
AcDbEntity
  8
1
  6
Continuous
100
AcDbLine
 10
177.6367529999999
 20
91.755197
 30
0.0
 11
173.1082639999999
 21
93.272322
 31
0.0
  0
LINE
  5
1D085
330
1CEAF
100
AcDbEntity
  8
1
  6
Continuous
100
AcDbLine
 10
164.143594
 20
88.341667
 30
0.0
 11
170.7293399999998
 21
90.548009
 31
0.0
  0
ARC
  5
1D086
330
1CEAF
100
AcDbEntity
  8
1
  6
Continuous
100
AcDbCircle
 10
162.4
 20
91.755197
 30
0.0
 40
1.0
100
AcDbArc
 50
270.0
 51
90.0
  0
LINE
  5
1D087
330
1CEAF
100
AcDbEntity
  8
1
  6
Continuous
100
AcDbLine
 10
170.0940099999999
 20
92.444415
 30
0.0
 11
163.508264
 21
90.23807299999999
 31
0.0
  0
LINE
  5
1D088
330
1CEAF
100
AcDbEntity
  8
1
  6
Continuous
100
AcDbLine
 10
168.036753
 20
91.755197
 30
0.0
 11
163.508264
 21
93.272322
 31
0.0
  0
ARC
  5
1D089
330
1CEAF
100
AcDbEntity
  8
1
  6
Continuous
100
AcDbCircle
 10
172.0
 20
86.75519699999998
 30
0.0
 40
6.0
100
AcDbArc
 50
90.0
 51
108.5217719999999
  0
ARC
  5
1D08A
330
1CEAF
100
AcDbEntity
  8
1
  6
Continuous
100
AcDbCircle
 10
172.0
 20
86.75519699999998
 30
0.0
 40
4.0
100
AcDbArc
 50
90.0
 51
108.5217719999999
  0
LINE
  5
1D08B
330
1CEAF
100
AcDbEntity
  8
1
  6
Continuous
100
AcDbLine
 10
150.2014509999999
 20
93.40725199999999
 30
0.0
 11
144.9435939999998
 21
95.16872799999999
 31
0.0
  0
LINE
  5
1D08C
330
1CEAF
100
AcDbEntity
  8
1
  6
Continuous
100
AcDbLine
 10
144.9435939999998
 20
88.341667
 30
0.0
 11
151.52934
 21
90.548009
 31
0.0
  0
LINE
  5
1D08D
330
1CEAF
100
AcDbEntity
  8
1
  6
Continuous
100
AcDbLine
 10
150.89401
 20
92.444415
 30
0.0
 11
144.3082639999998
 21
90.23807299999999
 31
0.0
  0
LINE
  5
1D08E
330
1CEAF
100
AcDbEntity
  8
1
  6
Continuous
100
AcDbLine
 10
148.8367529999999
 20
91.755197
 30
0.0
 11
144.3082639999998
 21
93.272322
 31
0.0
  0
ARC
  5
1D08F
330
1CEAF
100
AcDbEntity
  8
1
  6
Continuous
100
AcDbCircle
 10
152.8
 20
96.755197
 30
0.0
 40
4.0
100
AcDbArc
 50
261.227433
 51
270.0
  0
ARC
  5
1D090
330
1CEAF
100
AcDbEntity
  8
1
  6
Continuous
100
AcDbCircle
 10
152.8
 20
91.755197
 30
0.0
 40
1.0
100
AcDbArc
 50
270.0
 51
90.0
  0
ARC
  5
1D091
330
1CEAF
100
AcDbEntity
  8
1
  6
Continuous
100
AcDbCircle
 10
153.3999999999998
 20
91.755197
 30
0.0
 40
1.6
100
AcDbArc
 50
220.862518
 51
288.5217719999999
  0
ARC
  5
1D092
330
1CEAF
100
AcDbEntity
  8
1
  6
Continuous
100
AcDbCircle
 10
153.3999999999998
 20
91.755197
 30
0.0
 40
1.6
100
AcDbArc
 50
71.478228
 51
143.0643739999998
  0
ARC
  5
1D093
330
1CEAF
100
AcDbEntity
  8
1
  6
Continuous
100
AcDbCircle
 10
153.3999999999998
 20
91.755197
 30
0.0
 40
3.6
100
AcDbArc
 50
207.3164099999999
 51
288.5217719999999
  0
ARC
  5
1D094
330
1CEAF
100
AcDbEntity
  8
1
  6
Continuous
100
AcDbCircle
 10
153.3999999999998
 20
91.755197
 30
0.0
 40
3.6
100
AcDbArc
 50
71.478228
 51
174.777061
  0
LINE
  5
1D095
330
1CEAF
100
AcDbEntity
  8
1
  6
Continuous
100
AcDbLine
 10
158.436753
 20
91.755197
 30
0.0
 11
153.908264
 21
93.272322
 31
0.0
  0
LINE
  5
1D096
330
1CEAF
100
AcDbEntity
  8
1
  6
Continuous
100
AcDbLine
 10
160.49401
 20
92.444415
 30
0.0
 11
153.908264
 21
90.23807299999999
 31
0.0
  0
LINE
  5
1D097
330
1CEAF
100
AcDbEntity
  8
1
  6
Continuous
100
AcDbLine
 10
159.8014509999999
 20
93.40725199999999
 30
0.0
 11
154.5435939999999
 21
95.16872799999999
 31
0.0
  0
LINE
  5
1D098
330
1CEAF
100
AcDbEntity
  8
1
  6
Continuous
100
AcDbLine
 10
154.5435939999999
 20
88.341667
 30
0.0
 11
161.1293399999999
 21
90.548009
 31
0.0
  0
ARC
  5
1D099
330
1CEAF
100
AcDbEntity
  8
1
  6
Continuous
100
AcDbCircle
 10
152.8
 20
86.75519699999998
 30
0.0
 40
6.0
100
AcDbArc
 50
90.0
 51
108.5217719999999
  0
ARC
  5
1D09A
330
1CEAF
100
AcDbEntity
  8
1
  6
Continuous
100
AcDbCircle
 10
152.8
 20
86.75519699999998
 30
0.0
 40
4.0
100
AcDbArc
 50
90.0
 51
108.5217719999999
  0
ARC
  5
1D09B
330
1CEAF
100
AcDbEntity
  8
1
  6
Continuous
100
AcDbCircle
 10
133.6
 20
96.755197
 30
0.0
 40
4.0
100
AcDbArc
 50
261.227433
 51
270.0
  0
ARC
  5
1D09C
330
1CEAF
100
AcDbEntity
  8
1
  6
Continuous
100
AcDbCircle
 10
133.6
 20
91.755197
 30
0.0
 40
1.0
100
AcDbArc
 50
270.0
 51
90.0
  0
ARC
  5
1D09D
330
1CEAF
100
AcDbEntity
  8
1
  6
Continuous
100
AcDbCircle
 10
134.1999999999998
 20
91.755197
 30
0.0
 40
1.6
100
AcDbArc
 50
220.862518
 51
288.5217719999999
  0
ARC
  5
1D09E
330
1CEAF
100
AcDbEntity
  8
1
  6
Continuous
100
AcDbCircle
 10
134.1999999999998
 20
91.755197
 30
0.0
 40
1.6
100
AcDbArc
 50
71.478228
 51
143.0643739999998
  0
ARC
  5
1D09F
330
1CEAF
100
AcDbEntity
  8
1
  6
Continuous
100
AcDbCircle
 10
134.1999999999998
 20
91.755197
 30
0.0
 40
3.6
100
AcDbArc
 50
207.3164099999999
 51
288.5217719999999
  0
ARC
  5
1D0A0
330
1CEAF
100
AcDbEntity
  8
1
  6
Continuous
100
AcDbCircle
 10
143.1999999999999
 20
96.755197
 30
0.0
 40
4.0
100
AcDbArc
 50
261.227433
 51
270.0
  0
ARC
  5
1D0A1
330
1CEAF
100
AcDbEntity
  8
1
  6
Continuous
100
AcDbCircle
 10
143.1999999999999
 20
91.755197
 30
0.0
 40
1.0
100
AcDbArc
 50
270.0
 51
90.0
  0
ARC
  5
1D0A2
330
1CEAF
100
AcDbEntity
  8
1
  6
Continuous
100
AcDbCircle
 10
143.8
 20
91.755197
 30
0.0
 40
1.6
100
AcDbArc
 50
220.862518
 51
288.5217719999999
  0
ARC
  5
1D0A3
330
1CEAF
100
AcDbEntity
  8
1
  6
Continuous
100
AcDbCircle
 10
143.8
 20
91.755197
 30
0.0
 40
1.6
100
AcDbArc
 50
71.478228
 51
143.0643739999998
  0
ARC
  5
1D0A4
330
1CEAF
100
AcDbEntity
  8
1
  6
Continuous
100
AcDbCircle
 10
143.8
 20
91.755197
 30
0.0
 40
3.6
100
AcDbArc
 50
207.3164099999999
 51
288.5217719999999
  0
ARC
  5
1D0A5
330
1CEAF
100
AcDbEntity
  8
1
  6
Continuous
100
AcDbCircle
 10
143.8
 20
91.755197
 30
0.0
 40
3.6
100
AcDbArc
 50
71.478228
 51
174.777061
  0
ARC
  5
1D0A6
330
1CEAF
100
AcDbEntity
  8
1
  6
Continuous
100
AcDbCircle
 10
143.1999999999999
 20
86.75519699999998
 30
0.0
 40
6.0
100
AcDbArc
 50
90.0
 51
108.5217719999999
  0
ARC
  5
1D0A7
330
1CEAF
100
AcDbEntity
  8
1
  6
Continuous
100
AcDbCircle
 10
143.1999999999999
 20
86.75519699999998
 30
0.0
 40
4.0
100
AcDbArc
 50
90.0
 51
108.5217719999999
  0
LINE
  5
1D0A8
330
1CEAF
100
AcDbEntity
  8
1
  6
Continuous
100
AcDbLine
 10
139.236753
 20
91.755197
 30
0.0
 11
134.7082639999999
 21
93.272322
 31
0.0
  0
LINE
  5
1D0A9
330
1CEAF
100
AcDbEntity
  8
1
  6
Continuous
100
AcDbLine
 10
141.2940099999999
 20
92.444415
 30
0.0
 11
134.7082639999999
 21
90.23807299999999
 31
0.0
  0
LINE
  5
1D0AA
330
1CEAF
100
AcDbEntity
  8
1
  6
Continuous
100
AcDbLine
 10
140.601451
 20
93.40725199999999
 30
0.0
 11
135.343594
 21
95.16872799999999
 31
0.0
  0
LINE
  5
1D0AB
330
1CEAF
100
AcDbEntity
  8
1
  6
Continuous
100
AcDbLine
 10
135.343594
 20
88.341667
 30
0.0
 11
141.9293399999999
 21
90.548009
 31
0.0
  0
ARC
  5
1D0AC
330
1CEAF
100
AcDbEntity
  8
1
  6
Continuous
100
AcDbCircle
 10
133.6
 20
86.75519699999998
 30
0.0
 40
6.0
100
AcDbArc
 50
90.0
 51
108.5217719999999
  0
ARC
  5
1D0AD
330
1CEAF
100
AcDbEntity
  8
1
  6
Continuous
100
AcDbCircle
 10
133.6
 20
86.75519699999998
 30
0.0
 40
4.0
100
AcDbArc
 50
90.0
 51
108.5217719999999
  0
LINE
  5
1D0AE
330
1CEAF
100
AcDbEntity
  8
1
  6
Continuous
100
AcDbLine
 10
96.94359400000001
 20
88.341667
 30
0.0
 11
103.52934
 21
90.548009
 31
0.0
  0
LINE
  5
1D0AF
330
1CEAF
100
AcDbEntity
  8
1
  6
Continuous
100
AcDbLine
 10
102.2014509999999
 20
93.40725199999999
 30
0.0
 11
96.94359400000001
 21
95.16872799999999
 31
0.0
  0
LINE
  5
1D0B0
330
1CEAF
100
AcDbEntity
  8
1
  6
Continuous
100
AcDbLine
 10
102.89401
 20
92.444415
 30
0.0
 11
96.30826400000001
 21
90.23807299999999
 31
0.0
  0
LINE
  5
1D0B1
330
1CEAF
100
AcDbEntity
  8
1
  6
Continuous
100
AcDbLine
 10
100.836753
 20
91.755197
 30
0.0
 11
96.30826400000001
 21
93.272322
 31
0.0
  0
ARC
  5
1D0B2
330
1CEAF
100
AcDbEntity
  8
1
  6
Continuous
100
AcDbCircle
 10
95.8
 20
91.755197
 30
0.0
 40
3.6
100
AcDbArc
 50
71.478228
 51
288.5217719999999
  0
ARC
  5
1D0B3
330
1CEAF
100
AcDbEntity
  8
1
  6
Continuous
100
AcDbCircle
 10
114.4
 20
96.755197
 30
0.0
 40
4.0
100
AcDbArc
 50
261.227433
 51
270.0
  0
ARC
  5
1D0B4
330
1CEAF
100
AcDbEntity
  8
1
  6
Continuous
100
AcDbCircle
 10
115.0
 20
91.755197
 30
0.0
 40
1.6
100
AcDbArc
 50
220.862518
 51
288.5217719999999
  0
ARC
  5
1D0B5
330
1CEAF
100
AcDbEntity
  8
1
  6
Continuous
100
AcDbCircle
 10
115.0
 20
91.755197
 30
0.0
 40
1.6
100
AcDbArc
 50
71.478228
 51
143.0643739999998
  0
ARC
  5
1D0B6
330
1CEAF
100
AcDbEntity
  8
1
  6
Continuous
100
AcDbCircle
 10
115.0
 20
91.755197
 30
0.0
 40
3.6
100
AcDbArc
 50
207.3164099999999
 51
288.5217719999999
  0
ARC
  5
1D0B7
330
1CEAF
100
AcDbEntity
  8
1
  6
Continuous
100
AcDbCircle
 10
115.0
 20
91.755197
 30
0.0
 40
3.6
100
AcDbArc
 50
71.478228
 51
174.777061
  0
ARC
  5
1D0B8
330
1CEAF
100
AcDbEntity
  8
1
  6
Continuous
100
AcDbCircle
 10
114.4
 20
86.75519699999998
 30
0.0
 40
4.0
100
AcDbArc
 50
90.0
 51
108.5217719999999
  0
ARC
  5
1D0B9
330
1CEAF
100
AcDbEntity
  8
1
  6
Continuous
100
AcDbCircle
 10
114.4
 20
86.75519699999998
 30
0.0
 40
6.0
100
AcDbArc
 50
90.0
 51
108.5217719999999
  0
ARC
  5
1D0BA
330
1CEAF
100
AcDbEntity
  8
1
  6
Continuous
100
AcDbCircle
 10
114.4
 20
91.755197
 30
0.0
 40
1.0
100
AcDbArc
 50
270.0
 51
90.0
  0
ARC
  5
1D0BB
330
1CEAF
100
AcDbEntity
  8
1
  6
Continuous
100
AcDbCircle
 10
124.0
 20
96.755197
 30
0.0
 40
4.0
100
AcDbArc
 50
261.227433
 51
270.0
  0
ARC
  5
1D0BC
330
1CEAF
100
AcDbEntity
  8
1
  6
Continuous
100
AcDbCircle
 10
124.0
 20
91.755197
 30
0.0
 40
1.0
100
AcDbArc
 50
270.0
 51
90.0
  0
ARC
  5
1D0BD
330
1CEAF
100
AcDbEntity
  8
1
  6
Continuous
100
AcDbCircle
 10
124.5999999999998
 20
91.755197
 30
0.0
 40
1.6
100
AcDbArc
 50
220.862518
 51
288.5217719999999
  0
ARC
  5
1D0BE
330
1CEAF
100
AcDbEntity
  8
1
  6
Continuous
100
AcDbCircle
 10
124.5999999999998
 20
91.755197
 30
0.0
 40
1.6
100
AcDbArc
 50
71.478228
 51
143.0643739999998
  0
ARC
  5
1D0BF
330
1CEAF
100
AcDbEntity
  8
1
  6
Continuous
100
AcDbCircle
 10
124.5999999999998
 20
91.755197
 30
0.0
 40
3.6
100
AcDbArc
 50
207.3164099999999
 51
288.5217719999999
  0
ARC
  5
1D0C0
330
1CEAF
100
AcDbEntity
  8
1
  6
Continuous
100
AcDbCircle
 10
124.5999999999998
 20
91.755197
 30
0.0
 40
3.6
100
AcDbArc
 50
71.478228
 51
174.777061
  0
LINE
  5
1D0C1
330
1CEAF
100
AcDbEntity
  8
1
  6
Continuous
100
AcDbLine
 10
129.6367529999999
 20
91.755197
 30
0.0
 11
125.1082639999999
 21
93.272322
 31
0.0
  0
ARC
  5
1D0C2
330
1CEAF
100
AcDbEntity
  8
1
  6
Continuous
100
AcDbCircle
 10
124.0
 20
86.75519699999998
 30
0.0
 40
6.0
100
AcDbArc
 50
90.0
 51
108.5217719999999
  0
ARC
  5
1D0C3
330
1CEAF
100
AcDbEntity
  8
1
  6
Continuous
100
AcDbCircle
 10
124.0
 20
86.75519699999998
 30
0.0
 40
4.0
100
AcDbArc
 50
90.0
 51
108.5217719999999
  0
LINE
  5
1D0C4
330
1CEAF
100
AcDbEntity
  8
1
  6
Continuous
100
AcDbLine
 10
120.036753
 20
91.755197
 30
0.0
 11
115.5082639999999
 21
93.272322
 31
0.0
  0
LINE
  5
1D0C5
330
1CEAF
100
AcDbEntity
  8
1
  6
Continuous
100
AcDbLine
 10
122.09401
 20
92.444415
 30
0.0
 11
115.5082639999999
 21
90.23807299999999
 31
0.0
  0
LINE
  5
1D0C6
330
1CEAF
100
AcDbEntity
  8
1
  6
Continuous
100
AcDbLine
 10
121.4014509999998
 20
93.40725199999999
 30
0.0
 11
116.143594
 21
95.16872799999999
 31
0.0
  0
LINE
  5
1D0C7
330
1CEAF
100
AcDbEntity
  8
1
  6
Continuous
100
AcDbLine
 10
116.143594
 20
88.341667
 30
0.0
 11
122.7293399999998
 21
90.548009
 31
0.0
  0
LINE
  5
1D0C8
330
1CEAF
100
AcDbEntity
  8
1
  6
Continuous
100
AcDbLine
 10
111.801451
 20
93.40725199999999
 30
0.0
 11
106.5435939999999
 21
95.16872799999999
 31
0.0
  0
ARC
  5
1D0C9
330
1CEAF
100
AcDbEntity
  8
1
  6
Continuous
100
AcDbCircle
 10
104.8
 20
86.75519699999998
 30
0.0
 40
4.0
100
AcDbArc
 50
90.0
 51
108.5217719999999
  0
ARC
  5
1D0CA
330
1CEAF
100
AcDbEntity
  8
1
  6
Continuous
100
AcDbCircle
 10
104.8
 20
86.75519699999998
 30
0.0
 40
6.0
100
AcDbArc
 50
90.0
 51
108.5217719999999
  0
LINE
  5
1D0CB
330
1CEAF
100
AcDbEntity
  8
1
  6
Continuous
100
AcDbLine
 10
110.4367529999999
 20
91.755197
 30
0.0
 11
105.9082639999999
 21
93.272322
 31
0.0
  0
LINE
  5
1D0CC
330
1CEAF
100
AcDbEntity
  8
1
  6
Continuous
100
AcDbLine
 10
112.49401
 20
92.444415
 30
0.0
 11
105.9082639999999
 21
90.23807299999999
 31
0.0
  0
ARC
  5
1D0CD
330
1CEAF
100
AcDbEntity
  8
1
  6
Continuous
100
AcDbCircle
 10
105.4
 20
91.755197
 30
0.0
 40
3.6
100
AcDbArc
 50
71.478228
 51
174.777061
  0
ARC
  5
1D0CE
330
1CEAF
100
AcDbEntity
  8
1
  6
Continuous
100
AcDbCircle
 10
105.4
 20
91.755197
 30
0.0
 40
3.6
100
AcDbArc
 50
207.3164099999999
 51
288.5217719999999
  0
ARC
  5
1D0CF
330
1CEAF
100
AcDbEntity
  8
1
  6
Continuous
100
AcDbCircle
 10
105.4
 20
91.755197
 30
0.0
 40
1.6
100
AcDbArc
 50
71.478228
 51
143.0643739999998
  0
ARC
  5
1D0D0
330
1CEAF
100
AcDbEntity
  8
1
  6
Continuous
100
AcDbCircle
 10
105.4
 20
91.755197
 30
0.0
 40
1.6
100
AcDbArc
 50
220.862518
 51
288.5217719999999
  0
ARC
  5
1D0D1
330
1CEAF
100
AcDbEntity
  8
1
  6
Continuous
100
AcDbCircle
 10
104.8
 20
91.755197
 30
0.0
 40
1.0
100
AcDbArc
 50
270.0
 51
90.0
  0
ARC
  5
1D0D2
330
1CEAF
100
AcDbEntity
  8
1
  6
Continuous
100
AcDbCircle
 10
104.8
 20
96.755197
 30
0.0
 40
4.0
100
AcDbArc
 50
261.227433
 51
270.0
  0
LINE
  5
1D0D3
330
1CEAF
100
AcDbEntity
  8
1
  6
Continuous
100
AcDbLine
 10
106.5435939999999
 20
88.341667
 30
0.0
 11
113.1293399999999
 21
90.548009
 31
0.0
  0
ARC
  5
1D0D4
330
1CEAF
100
AcDbEntity
  8
1
  6
Continuous
100
AcDbCircle
 10
95.8
 20
91.755197
 30
0.0
 40
1.6
100
AcDbArc
 50
71.478228
 51
288.5217719999999
  0
LINE
  5
1D0D5
330
1CEAF
100
AcDbEntity
  8
4
  6
CENTER
100
AcDbLine
 10
302.8
 20
91.755197
 30
0.0
 11
87.2
 21
91.755197
 31
0.0
  0
ARC
  5
1D0D6
330
1CEAF
100
AcDbEntity
  8
1
  6
Continuous
100
AcDbCircle
 10
361.05
 20
46.805197
 30
0.0
 40
1.35
100
AcDbArc
 50
0.0
 51
104.802353
  0
ARC
  5
1D0D7
330
1CEAF
100
AcDbEntity
  8
1
  6
Continuous
100
AcDbCircle
 10
359.8
 20
45.555197
 30
0.0
 40
2.0
100
AcDbArc
 50
122.5950889999999
 51
270.0
  0
ARC
  5
1D0D8
330
1CEAF
100
AcDbEntity
  8
1
  6
Continuous
100
AcDbCircle
 10
362.493493
 20
41.342705
 30
0.0
 40
7.0
100
AcDbArc
 50
104.802353
 51
122.5950889999999
  0
ARC
  5
1D0D9
330
1CEAF
100
AcDbEntity
  8
1
  6
Continuous
100
AcDbCircle
 10
362.493493
 20
41.342705
 30
0.0
 40
5.0
100
AcDbArc
 50
114.75245
 51
125.3516169999999
  0
ARC
  5
1D0DA
330
1CEAF
100
AcDbEntity
  8
1
  6
Continuous
100
AcDbCircle
 10
360.0
 20
46.08424
 30
0.0
 40
0.4
100
AcDbArc
 50
0.0
 51
90.0
  0
ARC
  5
1D0DB
330
1CEAF
100
AcDbEntity
  8
1
  6
Continuous
100
AcDbCircle
 10
360.053314
 20
44.78251799999998
 30
0.0
 40
0.782561
100
AcDbArc
 50
125.3516169999999
 51
222.3641269999999
  0
ARC
  5
1D0DC
330
1CEAF
100
AcDbEntity
  8
1
  6
Continuous
100
AcDbCircle
 10
360.3065069999999
 20
47.76769
 30
0.0
 40
5.0
100
AcDbArc
 50
294.75245
 51
305.3516169999999
  0
ARC
  5
1D0DD
330
1CEAF
100
AcDbEntity
  8
1
  6
Continuous
100
AcDbCircle
 10
360.3065069999999
 20
47.76769
 30
0.0
 40
7.0
100
AcDbArc
 50
284.802353
 51
302.595089
  0
ARC
  5
1D0DE
330
1CEAF
100
AcDbEntity
  8
1
  6
Continuous
100
AcDbCircle
 10
363.0
 20
43.555197
 30
0.0
 40
2.0
100
AcDbArc
 50
302.595089
 51
90.0
  0
ARC
  5
1D0DF
330
1CEAF
100
AcDbEntity
  8
1
  6
Continuous
100
AcDbCircle
 10
361.75
 20
42.305197
 30
0.0
 40
1.35
100
AcDbArc
 50
180.0
 51
284.802353
  0
ARC
  5
1D0E0
330
1CEAF
100
AcDbEntity
  8
1
  6
Continuous
100
AcDbCircle
 10
362.8
 20
43.02615499999999
 30
0.0
 40
0.4
100
AcDbArc
 50
180.0
 51
270.0
  0
ARC
  5
1D0E1
330
1CEAF
100
AcDbEntity
  8
1
  6
Continuous
100
AcDbCircle
 10
362.746686
 20
44.327877
 30
0.0
 40
0.782561
100
AcDbArc
 50
305.3516169999999
 51
42.364127
  0
LINE
  5
1D0E2
330
1CEAF
100
AcDbEntity
  8
4
  6
CENTER
100
AcDbLine
 10
302.8
 20
44.55519699999999
 30
0.0
 11
87.2
 21
44.55519699999999
 31
0.0
  0
LINE
  5
1D0E3
330
1CEAF
100
AcDbEntity
  8
4
  6
CENTER
100
AcDbLine
 10
35.150758
 20
44.55519699999999
 30
0.0
 11
22.17195699999999
 21
44.55519699999999
 31
0.0
  0
LINE
  5
1D0E4
330
1CEAF
100
AcDbEntity
  8
1
  6
Continuous
100
AcDbLine
 10
27.6
 20
43.227064
 30
0.0
 11
27.6
 21
43.555197
 31
0.0
  0
LINE
  5
1D0E5
330
1CEAF
100
AcDbEntity
  8
1
  6
Continuous
100
AcDbLine
 10
29.6
 20
45.88333099999998
 30
0.0
 11
29.6
 21
45.555197
 31
0.0
  0
LINE
  5
1D0E6
330
1CEAF
100
AcDbEntity
  8
1
  6
Continuous
100
AcDbLine
 10
30.2
 20
43.555197
 30
0.0
 11
26.89999999999999
 21
43.555197
 31
0.0
  0
ARC
  5
1D0E7
330
1CEAF
100
AcDbEntity
  8
1
  6
Continuous
100
AcDbCircle
 10
28.25
 20
42.305197
 30
0.0
 40
1.35
100
AcDbArc
 50
255.197647
 51
0.0
  0
ARC
  5
1D0E8
330
1CEAF
100
AcDbEntity
  8
1
  6
Continuous
100
AcDbCircle
 10
29.693493
 20
47.76769
 30
0.0
 40
7.0
100
AcDbArc
 50
237.404911
 51
255.197647
  0
ARC
  5
1D0E9
330
1CEAF
100
AcDbEntity
  8
1
  6
Continuous
100
AcDbCircle
 10
27.0
 20
43.555197
 30
0.0
 40
2.0
100
AcDbArc
 50
90.0
 51
237.404911
  0
ARC
  5
1D0EA
330
1CEAF
100
AcDbEntity
  8
1
  6
Continuous
100
AcDbCircle
 10
27.506507
 20
41.342705
 30
0.0
 40
5.0
100
AcDbArc
 50
57.40491099999999
 51
77.52716499999998
  0
LINE
  5
1D0EB
330
1CEAF
100
AcDbEntity
  8
1
  6
Continuous
100
AcDbLine
 10
27.0
 20
45.555197
 30
0.0
 11
30.3
 21
45.555197
 31
0.0
  0
ARC
  5
1D0EC
330
1CEAF
100
AcDbEntity
  8
1
  6
Continuous
100
AcDbCircle
 10
28.94999999999999
 20
46.805197
 30
0.0
 40
1.35
100
AcDbArc
 50
75.197647
 51
180.0
  0
ARC
  5
1D0ED
330
1CEAF
100
AcDbEntity
  8
1
  6
Continuous
100
AcDbCircle
 10
30.2
 20
45.555197
 30
0.0
 40
2.0
100
AcDbArc
 50
270.0
 51
57.40491099999999
  0
ARC
  5
1D0EE
330
1CEAF
100
AcDbEntity
  8
1
  6
Continuous
100
AcDbCircle
 10
27.506507
 20
41.342705
 30
0.0
 40
7.0
100
AcDbArc
 50
57.40491099999999
 51
75.197647
  0
LINE
  5
1D0EF
330
1CEAF
100
AcDbEntity
  8
4
  6
CENTER
100
AcDbLine
 10
28.6
 20
51.141094
 30
0.0
 11
28.6
 21
37.969301
 31
0.0
  0
LINE
  5
1D0F0
330
1CEAF
100
AcDbEntity
  8
1
  6
Continuous
100
AcDbLine
 10
27.6
 20
45.555197
 30
0.0
 11
27.6
 21
46.805197
 31
0.0
  0
LINE
  5
1D0F1
330
1CEAF
100
AcDbEntity
  8
1
  6
Continuous
100
AcDbLine
 10
29.6
 20
43.555197
 30
0.0
 11
29.6
 21
42.305197
 31
0.0
  0
ARC
  5
1D0F2
330
1CEAF
100
AcDbEntity
  8
1
  6
Continuous
100
AcDbCircle
 10
28.5
 20
45.834138
 30
0.0
 40
0.4
100
AcDbArc
 50
77.52716499999998
 51
180.0
  0
ARC
  5
1D0F3
330
1CEAF
100
AcDbEntity
  8
1
  6
Continuous
100
AcDbCircle
 10
30.3
 20
46.055197
 30
0.0
 40
0.5
100
AcDbArc
 50
270.0
 51
0.0
  0
ARC
  5
1D0F4
330
1CEAF
100
AcDbEntity
  8
1
  6
Continuous
100
AcDbCircle
 10
26.89999999999999
 20
43.055197
 30
0.0
 40
0.5
100
AcDbArc
 50
90.0
 51
180.0
  0
ARC
  5
1D0F5
330
1CEAF
100
AcDbEntity
  8
1
  6
Continuous
100
AcDbCircle
 10
29.693493
 20
47.76769
 30
0.0
 40
5.0
100
AcDbArc
 50
237.404911
 51
257.5271649999999
  0
ARC
  5
1D0F6
330
1CEAF
100
AcDbEntity
  8
1
  6
Continuous
100
AcDbCircle
 10
28.7
 20
43.276257
 30
0.0
 40
0.4
100
AcDbArc
 50
257.5271649999999
 51
0.0
  0
ENDSEC
  0
SECTION
  2
OBJECTS
  0
DICTIONARY
  5
1CE9D
330
0
100
AcDbDictionary
281
     1
  3
ACAD_CIP_PREVIOUS_PRODUCT_INFO
350
1D156
  3
ACAD_COLOR
350
1D138
  3
ACAD_DETAILVIEWSTYLE
350
1D151
  3
ACAD_GROUP
350
1CE9E
  3
ACAD_LAYOUT
350
1CEAA
  3
ACAD_MATERIAL
350
1D106
  3
ACAD_MLEADERSTYLE
350
1D14D
  3
ACAD_MLINESTYLE
350
1CEA7
  3
ACAD_PLOTSETTINGS
350
1CEA9
  3
ACAD_PLOTSTYLENAME
350
1D104
  3
ACAD_SCALELIST
350
1D13B
  3
ACAD_SECTIONVIEWSTYLE
350
1D14F
  3
ACAD_TABLESTYLE
350
1D139
  3
ACAD_VISUALSTYLE
350
1D11F
  3
ACDB_RECOMPOSE_DATA
350
1D174
  3
AcDbVariableDictionary
350
1D167
  3
DWGPROPS
350
1D175
  0
DICTIONARY
  5
1D157
330
1CEA1
100
AcDbDictionary
280
     1
281
     1
  3
ADSK_XREC_LAYER_RECONCILED
360
1D158
  0
DICTIONARY
  5
1D159
330
1CEB7
100
AcDbDictionary
280
     1
281
     1
  3
ADSK_XREC_LAYER_RECONCILED
360
1D15A
  0
DICTIONARY
  5
1D15B
330
1CEB8
100
AcDbDictionary
280
     1
281
     1
  3
ADSK_XREC_LAYER_RECONCILED
360
1D15C
  0
DICTIONARY
  5
1D15D
330
1CEB9
100
AcDbDictionary
280
     1
281
     1
  3
ADSK_XREC_LAYER_RECONCILED
360
1D15E
  0
DICTIONARY
  5
1D15F
330
1CEBA
100
AcDbDictionary
280
     1
281
     1
  3
ADSK_XREC_LAYER_RECONCILED
360
1D160
  0
DICTIONARY
  5
1D161
330
1CEBB
100
AcDbDictionary
280
     1
281
     1
  3
ADSK_XREC_LAYER_RECONCILED
360
1D162
  0
DICTIONARY
  5
1D163
330
1CEBC
100
AcDbDictionary
280
     1
281
     1
  3
ADSK_XREC_LAYER_RECONCILED
360
1D164
  0
DICTIONARY
  5
1D165
330
1CEBD
100
AcDbDictionary
280
     1
281
     1
  3
ADSK_XREC_LAYER_RECONCILED
360
1D166
  0
DICTIONARY
  5
1D0FF
330
1CEAF
100
AcDbDictionary
281
     1
  3
ACAD_LAYOUTSELFREF
350
1D100
  0
DICTIONARY
  5
1D0FD
330
1CEAB
100
AcDbDictionary
281
     1
  3
ACAD_LAYOUTSELFREF
350
1D0FE
  0
XRECORD
  5
1D156
102
{ACAD_REACTORS
330
1CE9D
102
}
330
1CE9D
100
AcDbXrecord
280
     1
300
ACDLT
300
2014
300
ACDLT_F_S
  0
DICTIONARY
  5
1D138
102
{ACAD_REACTORS
330
1CE9D
102
}
330
1CE9D
100
AcDbDictionary
281
     1
  0
DICTIONARY
  5
1D151
102
{ACAD_REACTORS
330
1CE9D
102
}
330
1CE9D
100
AcDbDictionary
281
     1
  3
Imperial24
350
1D152
  0
DICTIONARY
  5
1CE9E
102
{ACAD_REACTORS
330
1CE9D
102
}
330
1CE9D
100
AcDbDictionary
281
     1
  0
DICTIONARY
  5
1CEAA
102
{ACAD_REACTORS
330
1CE9D
102
}
330
1CE9D
100
AcDbDictionary
281
     1
  3
Model
350
1D153
  3
レイアウト1
350
1D154
  0
DICTIONARY
  5
1D106
102
{ACAD_REACTORS
330
1CE9D
102
}
330
1CE9D
100
AcDbDictionary
281
     1
  3
ByBlock
350
1D10F
  3
ByLayer
350
1D107
  3
Global
350
1D117
  0
DICTIONARY
  5
1D14D
102
{ACAD_REACTORS
330
1CE9D
102
}
330
1CE9D
100
AcDbDictionary
281
     1
  3
Standard
350
1D14E
  0
DICTIONARY
  5
1CEA7
102
{ACAD_REACTORS
330
1CE9D
102
}
330
1CE9D
100
AcDbDictionary
281
     1
  3
STANDARD
350
1CEA8
  0
DICTIONARY
  5
1CEA9
102
{ACAD_REACTORS
330
1CE9D
102
}
330
1CE9D
100
AcDbDictionary
281
     1
  0
ACDBDICTIONARYWDFLT
  5
1D104
102
{ACAD_REACTORS
330
1CE9D
102
}
330
1CE9D
100
AcDbDictionary
281
     1
  3
Normal
350
1D105
100
AcDbDictionaryWithDefault
340
1D105
  0
DICTIONARY
  5
1D13B
102
{ACAD_REACTORS
330
1CE9D
102
}
330
1CE9D
100
AcDbDictionary
281
     1
  3
A0
350
1D13C
  3
A1
350
1D13D
  3
A2
350
1D13E
  3
A3
350
1D13F
  3
A4
350
1D140
  3
A5
350
1D141
  3
A6
350
1D142
  3
A7
350
1D143
  3
A8
350
1D144
  3
A9
350
1D145
  3
B0
350
1D146
  3
B1
350
1D147
  3
B2
350
1D148
  3
B3
350
1D149
  3
B4
350
1D14A
  3
B5
350
1D14B
  3
B6
350
1D14C
  0
DICTIONARY
  5
1D14F
102
{ACAD_REACTORS
330
1CE9D
102
}
330
1CE9D
100
AcDbDictionary
281
     1
  3
Imperial24
350
1D150
  0
DICTIONARY
  5
1D139
102
{ACAD_REACTORS
330
1CE9D
102
}
330
1CE9D
100
AcDbDictionary
281
     1
  3
Standard
350
1D13A
  0
DICTIONARY
  5
1D11F
102
{ACAD_REACTORS
330
1CE9D
102
}
330
1CE9D
100
AcDbDictionary
281
     1
  3
2dWireframe
350
1D125
  3
Basic
350
1D124
  3
Brighten
350
1D12B
  3
ColorChange
350
1D12F
  3
Conceptual
350
1D128
  3
Dim
350
1D12A
  3
EdgeColorOff
350
1D137
  3
Facepattern
350
1D12E
  3
Flat
350
1D120
  3
FlatWithEdges
350
1D121
  3
Gouraud
350
1D122
  3
GouraudWithEdges
350
1D123
  3
Hidden
350
1D127
  3
JitterOff
350
1D135
  3
Linepattern
350
1D12D
  3
OverhangOff
350
1D136
  3
Realistic
350
1D129
  3
Shaded
350
1D134
  3
Shaded with edges
350
1D133
  3
Shades of Gray
350
1D130
  3
Sketchy
350
1D131
  3
Thicken
350
1D12C
  3
Wireframe
350
1D126
  3
X-Ray
350
1D132
  0
XRECORD
  5
1D174
102
{ACAD_REACTORS
330
1CE9D
102
}
330
1CE9D
100
AcDbXrecord
280
     1
 90
        1
330
1D13A
  0
DICTIONARY
  5
1D167
102
{ACAD_REACTORS
330
1CE9D
102
}
330
1CE9D
100
AcDbDictionary
281
     1
  3
CANNOSCALE
350
1D16C
  3
CMLEADERSTYLE
350
1D169
  3
CTABLESTYLE
350
1D168
  3
CVIEWDETAILSTYLE
350
1D16A
  3
CVIEWSECTIONSTYLE
350
1D16B
  3
DIMASSOC
350
1D16F
  3
INDEXCTL
350
1D16E
  3
SORTENTS
350
1D16D
  3
XCLIPFRAME
350
1D170
  0
XRECORD
  5
1D175
102
{ACAD_REACTORS
330
1CE9D
102
}
330
1CE9D
100
AcDbXrecord
280
     1
  1
DWGPROPS COOKIE
  2

  3

  4

  6

  7

  8
Yoshitsune
  9

300
=
301
=
302
=
303
=
304
=
305
=
306
=
307
=
308
=
309
=
 40
0.0000098726851852
 41
2451285.443022338
 42
2457192.656798148
  1

 90
        0
  0
XRECORD
  5
1D158
102
{ACAD_REACTORS
330
1D157
102
}
330
1D157
100
AcDbXrecord
280
     1
290
     1
  0
XRECORD
  5
1D15A
102
{ACAD_REACTORS
330
1D159
102
}
330
1D159
100
AcDbXrecord
280
     1
290
     1
  0
XRECORD
  5
1D15C
102
{ACAD_REACTORS
330
1D15B
102
}
330
1D15B
100
AcDbXrecord
280
     1
290
     1
  0
XRECORD
  5
1D15E
102
{ACAD_REACTORS
330
1D15D
102
}
330
1D15D
100
AcDbXrecord
280
     1
290
     1
  0
XRECORD
  5
1D160
102
{ACAD_REACTORS
330
1D15F
102
}
330
1D15F
100
AcDbXrecord
280
     1
290
     1
  0
XRECORD
  5
1D162
102
{ACAD_REACTORS
330
1D161
102
}
330
1D161
100
AcDbXrecord
280
     1
290
     1
  0
XRECORD
  5
1D164
102
{ACAD_REACTORS
330
1D163
102
}
330
1D163
100
AcDbXrecord
280
     1
290
     1
  0
XRECORD
  5
1D166
102
{ACAD_REACTORS
330
1D165
102
}
330
1D165
100
AcDbXrecord
280
     1
290
     1
  0
XRECORD
  5
1D100
102
{ACAD_REACTORS
330
1D0FF
102
}
330
1D0FF
100
AcDbXrecord
280
     1
340
1CEAF
  0
XRECORD
  5
1D0FE
102
{ACAD_REACTORS
330
1D0FD
102
}
330
1D0FD
100
AcDbXrecord
280
     1
340
1CEAB
  0
ACDBDETAILVIEWSTYLE
  5
1D152
102
{ACAD_XDICTIONARY
360
1D1AD
102
}
102
{ACAD_REACTORS
330
1D151
102
}
330
1D151
100
AcDbModelDocViewStyle
 70
     0
  3
Imperial24
290
     0
100
AcDbDetailViewStyle
 70
     0
 71
     0
 90
        3
 71
     1
340
1CEA2
 40
0.24
340
0
 40
0.24
300

 40
0.36
280
     3
 71
     2
340
1CEA6
 90
       25
 71
     3
340
1CEA2
 40
0.24
 90
        1
 40
0.75
 90
        1
300
%<\AcVar ViewType \f "%tc1">% %<\AcVar ViewDetailId>%\PSCALE %<\AcVar ViewScale \f "%sn">%
 71
     4
340
1CEA6
 90
       25
340
1CEA6
 90
       25
280
     0
  0
LAYOUT
  5
1D153
102
{ACAD_XDICTIONARY
360
1D1AF
102
}
102
{ACAD_REACTORS
330
1CEAA
102
}
330
1CEAA
100
AcDbPlotSettings
  1

  2
Canon LBP9100C
  4

  6

 40
0.0
 41
0.0
 42
0.0
 43
0.0
 44
0.0
 45
0.0
 46
0.0
 47
0.0
 48
0.0
 49
0.0
140
0.0
141
0.0
142
1.0
143
1.0
 70
  1712
 72
     0
 73
     0
 74
     0
  7

 75
     0
147
1.0
148
0.0
149
0.0
100
AcDbLayout
  1
Model
 70
     1
 71
     0
 10
0.0
 20
0.0
 11
12.0
 21
9.0
 12
0.0
 22
0.0
 32
0.0
 14
0.0
 24
0.0
 34
0.0
 15
0.0
 25
0.0
 35
0.0
146
0.0
 13
0.0
 23
0.0
 33
0.0
 16
1.0
 26
0.0
 36
0.0
 17
0.0
 27
1.0
 37
0.0
 76
     0
330
1CEAF
331
1D0FC
  0
LAYOUT
  5
1D154
102
{ACAD_XDICTIONARY
360
1D1B1
102
}
102
{ACAD_REACTORS
330
1CEAA
102
}
330
1CEAA
100
AcDbPlotSettings
  1

  2
Canon LBP9100C
  4

  6

 40
0.0
 41
0.0
 42
0.0
 43
0.0
 44
0.0
 45
0.0
 46
0.0
 47
0.0
 48
0.0
 49
0.0
140
0.0
141
0.0
142
1.0
143
1.0
 70
   688
 72
     0
 73
     0
 74
     5
  7

 75
    16
147
1.0
148
0.0
149
0.0
100
AcDbLayout
  1
レイアウト1
 70
     0
 71
     1
 10
0.0
 20
0.0
 11
420.0
 21
297.0
 12
0.0
 22
0.0
 32
0.0
 14
1.000000000000000E+20
 24
1.000000000000000E+20
 34
1.000000000000000E+20
 15
-1.000000000000000E+20
 25
-1.000000000000000E+20
 35
-1.000000000000000E+20
146
0.0
 13
0.0
 23
0.0
 33
0.0
 16
1.0
 26
0.0
 36
0.0
 17
0.0
 27
1.0
 37
0.0
 76
     0
330
1CEAB
  0
MATERIAL
  5
1D10F
102
{ACAD_XDICTIONARY
360
1D110
102
}
102
{ACAD_REACTORS
330
1D106
102
}
330
1D106
100
AcDbMaterial
  1
ByBlock
 72
     0
 43
0.0208333333333333
 43
0.0
 43
0.0
 43
0.0
 43
0.0
 43
0.0208333333333333
 43
0.0
 43
0.0
 43
0.0
 43
0.0
 43
1.0
 43
0.0
 43
0.0
 43
0.0
 43
0.0
 43
1.0
 77
     0
 47
0.0208333333333333
 47
0.0
 47
0.0
 47
0.0
 47
0.0
 47
0.0208333333333333
 47
0.0
 47
0.0
 47
0.0
 47
0.0
 47
1.0
 47
0.0
 47
0.0
 47
0.0
 47
0.0
 47
1.0
171
     0
 49
0.0208333333333333
 49
0.0
 49
0.0
 49
0.0
 49
0.0
 49
0.0208333333333333
 49
0.0
 49
0.0
 49
0.0
 49
0.0
 49
1.0
 49
0.0
 49
0.0
 49
0.0
 49
0.0
 49
1.0
175
     0
142
0.0208333333333333
142
0.0
142
0.0
142
0.0
142
0.0
142
0.0208333333333333
142
0.0
142
0.0
142
0.0
142
0.0
142
1.0
142
0.0
142
0.0
142
0.0
142
0.0
142
1.0
179
     0
144
0.0208333333333333
144
0.0
144
0.0
144
0.0
144
0.0
144
0.0208333333333333
144
0.0
144
0.0
144
0.0
144
0.0
144
1.0
144
0.0
144
0.0
144
0.0
144
0.0
144
1.0
147
0.0208333333333333
147
0.0
147
0.0
147
0.0
147
0.0
147
0.0208333333333333
147
0.0
147
0.0
147
0.0
147
0.0
147
1.0
147
0.0
147
0.0
147
0.0
147
0.0
147
1.0
  0
MATERIAL
  5
1D107
102
{ACAD_XDICTIONARY
360
1D108
102
}
102
{ACAD_REACTORS
330
1D106
102
}
330
1D106
100
AcDbMaterial
  1
ByLayer
 72
     0
 43
0.0208333333333333
 43
0.0
 43
0.0
 43
0.0
 43
0.0
 43
0.0208333333333333
 43
0.0
 43
0.0
 43
0.0
 43
0.0
 43
1.0
 43
0.0
 43
0.0
 43
0.0
 43
0.0
 43
1.0
 77
     0
 47
0.0208333333333333
 47
0.0
 47
0.0
 47
0.0
 47
0.0
 47
0.0208333333333333
 47
0.0
 47
0.0
 47
0.0
 47
0.0
 47
1.0
 47
0.0
 47
0.0
 47
0.0
 47
0.0
 47
1.0
171
     0
 49
0.0208333333333333
 49
0.0
 49
0.0
 49
0.0
 49
0.0
 49
0.0208333333333333
 49
0.0
 49
0.0
 49
0.0
 49
0.0
 49
1.0
 49
0.0
 49
0.0
 49
0.0
 49
0.0
 49
1.0
175
     0
142
0.0208333333333333
142
0.0
142
0.0
142
0.0
142
0.0
142
0.0208333333333333
142
0.0
142
0.0
142
0.0
142
0.0
142
1.0
142
0.0
142
0.0
142
0.0
142
0.0
142
1.0
179
     0
144
0.0208333333333333
144
0.0
144
0.0
144
0.0
144
0.0
144
0.0208333333333333
144
0.0
144
0.0
144
0.0
144
0.0
144
1.0
144
0.0
144
0.0
144
0.0
144
0.0
144
1.0
147
0.0208333333333333
147
0.0
147
0.0
147
0.0
147
0.0
147
0.0208333333333333
147
0.0
147
0.0
147
0.0
147
0.0
147
1.0
147
0.0
147
0.0
147
0.0
147
0.0
147
1.0
  0
MATERIAL
  5
1D117
102
{ACAD_XDICTIONARY
360
1D118
102
}
102
{ACAD_REACTORS
330
1D106
102
}
330
1D106
100
AcDbMaterial
  1
Global
 72
     0
 43
0.0208333333333333
 43
0.0
 43
0.0
 43
0.0
 43
0.0
 43
0.0208333333333333
 43
0.0
 43
0.0
 43
0.0
 43
0.0
 43
1.0
 43
0.0
 43
0.0
 43
0.0
 43
0.0
 43
1.0
 77
     0
 47
0.0208333333333333
 47
0.0
 47
0.0
 47
0.0
 47
0.0
 47
0.0208333333333333
 47
0.0
 47
0.0
 47
0.0
 47
0.0
 47
1.0
 47
0.0
 47
0.0
 47
0.0
 47
0.0
 47
1.0
171
     0
 49
0.0208333333333333
 49
0.0
 49
0.0
 49
0.0
 49
0.0
 49
0.0208333333333333
 49
0.0
 49
0.0
 49
0.0
 49
0.0
 49
1.0
 49
0.0
 49
0.0
 49
0.0
 49
0.0
 49
1.0
175
     0
142
0.0208333333333333
142
0.0
142
0.0
142
0.0
142
0.0
142
0.0208333333333333
142
0.0
142
0.0
142
0.0
142
0.0
142
1.0
142
0.0
142
0.0
142
0.0
142
0.0
142
1.0
179
     0
144
0.0208333333333333
144
0.0
144
0.0
144
0.0
144
0.0
144
0.0208333333333333
144
0.0
144
0.0
144
0.0
144
0.0
144
1.0
144
0.0
144
0.0
144
0.0
144
0.0
144
1.0
147
0.0208333333333333
147
0.0
147
0.0
147
0.0
147
0.0
147
0.0208333333333333
147
0.0
147
0.0
147
0.0
147
0.0
147
1.0
147
0.0
147
0.0
147
0.0
147
0.0
147
1.0
  0
MLEADERSTYLE
  5
1D14E
102
{ACAD_REACTORS
330
1D14D
102
}
330
1D14D
100
AcDbMLeaderStyle
170
     2
171
     1
172
     0
 90
        2
 40
0.0
 41
0.0
173
     1
 91
-1056964608
340
1CEA4
 92
       -2
290
     1
 42
0.09
291
     1
 43
0.36
  3
Standard
 44
0.18
300

342
1CEA2
174
     1
178
     6
175
     1
176
     0
 93
-1056964608
 45
0.18
292
     0
297
     0
 46
0.18
 94
-1056964608
 47
1.0
 49
1.0
140
1.0
293
     1
141
0.0
294
     1
177
     0
142
1.0
295
     0
296
     0
143
0.125
1001
ACAD_MLEADERVER
1070
     2
  0
MLINESTYLE
  5
1CEA8
102
{ACAD_REACTORS
330
1CEA7
102
}
330
1CEA7
100
AcDbMlineStyle
  2
STANDARD
 70
     0
  3

 62
   256
 51
90.0
 52
90.0
 71
     2
 49
0.5
 62
   256
  6
BYLAYER
 49
-0.5
 62
   256
  6
BYLAYER
  0
ACDBPLACEHOLDER
  5
1D105
102
{ACAD_REACTORS
330
1D104
102
}
330
1D104
  0
SCALE
  5
1D13C
102
{ACAD_REACTORS
330
1D13B
102
}
330
1D13B
100
AcDbScale
 70
     0
300
1:1
140
1.0
141
1.0
290
     1
  0
SCALE
  5
1D13D
102
{ACAD_REACTORS
330
1D13B
102
}
330
1D13B
100
AcDbScale
 70
     0
300
1/128" = 1'-0"
140
0.0078125
141
12.0
290
     0
  0
SCALE
  5
1D13E
102
{ACAD_REACTORS
330
1D13B
102
}
330
1D13B
100
AcDbScale
 70
     0
300
1/64" = 1'-0"
140
0.015625
141
12.0
290
     0
  0
SCALE
  5
1D13F
102
{ACAD_REACTORS
330
1D13B
102
}
330
1D13B
100
AcDbScale
 70
     0
300
1/32" = 1'-0"
140
0.03125
141
12.0
290
     0
  0
SCALE
  5
1D140
102
{ACAD_REACTORS
330
1D13B
102
}
330
1D13B
100
AcDbScale
 70
     0
300
1/16" = 1'-0"
140
0.0625
141
12.0
290
     0
  0
SCALE
  5
1D141
102
{ACAD_REACTORS
330
1D13B
102
}
330
1D13B
100
AcDbScale
 70
     0
300
3/32" = 1'-0"
140
0.09375
141
12.0
290
     0
  0
SCALE
  5
1D142
102
{ACAD_REACTORS
330
1D13B
102
}
330
1D13B
100
AcDbScale
 70
     0
300
1/8" = 1'-0"
140
0.125
141
12.0
290
     0
  0
SCALE
  5
1D143
102
{ACAD_REACTORS
330
1D13B
102
}
330
1D13B
100
AcDbScale
 70
     0
300
3/16" = 1'-0"
140
0.1875
141
12.0
290
     0
  0
SCALE
  5
1D144
102
{ACAD_REACTORS
330
1D13B
102
}
330
1D13B
100
AcDbScale
 70
     0
300
1/4" = 1'-0"
140
0.25
141
12.0
290
     0
  0
SCALE
  5
1D145
102
{ACAD_REACTORS
330
1D13B
102
}
330
1D13B
100
AcDbScale
 70
     0
300
3/8" = 1'-0"
140
0.375
141
12.0
290
     0
  0
SCALE
  5
1D146
102
{ACAD_REACTORS
330
1D13B
102
}
330
1D13B
100
AcDbScale
 70
     0
300
1/2" = 1'-0"
140
0.5
141
12.0
290
     0
  0
SCALE
  5
1D147
102
{ACAD_REACTORS
330
1D13B
102
}
330
1D13B
100
AcDbScale
 70
     0
300
3/4" = 1'-0"
140
0.75
141
12.0
290
     0
  0
SCALE
  5
1D148
102
{ACAD_REACTORS
330
1D13B
102
}
330
1D13B
100
AcDbScale
 70
     0
300
1" = 1'-0"
140
1.0
141
12.0
290
     0
  0
SCALE
  5
1D149
102
{ACAD_REACTORS
330
1D13B
102
}
330
1D13B
100
AcDbScale
 70
     0
300
1-1/2" = 1'-0"
140
1.5
141
12.0
290
     0
  0
SCALE
  5
1D14A
102
{ACAD_REACTORS
330
1D13B
102
}
330
1D13B
100
AcDbScale
 70
     0
300
3" = 1'-0"
140
3.0
141
12.0
290
     0
  0
SCALE
  5
1D14B
102
{ACAD_REACTORS
330
1D13B
102
}
330
1D13B
100
AcDbScale
 70
     0
300
6" = 1'-0"
140
6.0
141
12.0
290
     0
  0
SCALE
  5
1D14C
102
{ACAD_REACTORS
330
1D13B
102
}
330
1D13B
100
AcDbScale
 70
     0
300
1'-0" = 1'-0"
140
12.0
141
12.0
290
     0
  0
ACDBSECTIONVIEWSTYLE
  5
1D150
102
{ACAD_XDICTIONARY
360
1D1AB
102
}
102
{ACAD_REACTORS
330
1D14F
102
}
330
1D14F
100
AcDbModelDocViewStyle
 70
     0
  3
Imperial24
290
     0
100
AcDbSectionViewStyle
 70
     0
 71
     0
 90
       78
 71
     1
340
1CEA2
 40
0.24
340
0
340
0
 40
0.24
300
I, O, Q, S, X, Z
 40
0.48
 90
        3
 40
0.18
 90
        1
 71
     2
340
1CEA6
 90
       25
340
1CEA6
 90
       50
 40
0.24
 40
0.0
 40
0.24
 71
     3
340
1CEA2
 40
0.24
 90
        1
 40
0.75
 90
        1
300
%<\AcVar ViewType \f "%tc1">% %<\AcVar ViewSectionStartId>%-%<\AcVar ViewSectionEndId>%\PSCALE %<\AcVar ViewScale \f "%sn">%
 71
     4
300
ANSI31
 40
1.0
 90
        0
290
     0
290
     0
 90
        6
 40
0.0
 40
1.570796326794896
 40
0.2617993877991494
 40
1.308996938995747
 40
-0.2617993877991494
 40
1.832595714594046
  0
TABLESTYLE
  5
1D13A
102
{ACAD_XDICTIONARY
360
1D172
102
}
102
{ACAD_REACTORS
330
1D139
102
}
330
1D139
100
AcDbTableStyle
  3
Standard
 70
     0
 71
     0
 40
0.06
 41
0.06
280
     0
281
     0
  7
STANDARD
140
0.18
170
     2
 62
     0
 63
     7
283
     0
274
    -2
284
     1
 64
     0
275
    -2
285
     1
 65
     0
276
    -2
286
     1
 66
     0
277
    -2
287
     1
 67
     0
278
    -2
288
     1
 68
     0
279
    -2
289
     1
 69
     0
  7
STANDARD
140
0.25
170
     5
 62
     0
 63
     7
283
     0
274
    -2
284
     1
 64
     0
275
    -2
285
     1
 65
     0
276
    -2
286
     1
 66
     0
277
    -2
287
     1
 67
     0
278
    -2
288
     1
 68
     0
279
    -2
289
     1
 69
     0
  7
STANDARD
140
0.18
170
     5
 62
     0
 63
     7
283
     0
274
    -2
284
     1
 64
     0
275
    -2
285
     1
 65
     0
276
    -2
286
     1
 66
     0
277
    -2
287
     1
 67
     0
278
    -2
288
     1
 68
     0
279
    -2
289
     1
 69
     0
  0
VISUALSTYLE
  5
1D125
102
{ACAD_XDICTIONARY
360
1D183
102
}
102
{ACAD_REACTORS
330
1D11F
102
}
330
1D11F
100
AcDbVisualStyle
  2
2dWireframe
 70
     4
 71
     0
 72
     2
 73
     0
 90
        0
 40
-0.6
 41
-30.0
 62
     5
 63
     7
 74
     1
 91
        4
 64
     7
 65
   257
 75
     1
175
     1
 42
1.0
 92
        0
 66
   257
 43
1.0
 76
     1
 77
     6
 78
     2
 67
     7
 79
     5
170
     0
171
     0
290
     0
174
     0
 93
        1
 44
0.0
173
     0
291
     0
 45
0.0
1001
ACAD
1000
AcDbSavedByObjectVersion
1070
     0
  0
VISUALSTYLE
  5
1D124
102
{ACAD_XDICTIONARY
360
1D181
102
}
102
{ACAD_REACTORS
330
1D11F
102
}
330
1D11F
100
AcDbVisualStyle
  2
Basic
 70
     7
 71
     1
 72
     0
 73
     1
 90
        0
 40
-0.6
 41
-30.0
 62
     5
 63
     7
 74
     0
 91
        4
 64
     7
 65
   257
 75
     1
175
     1
 42
1.0
 92
        8
 66
     7
 43
1.0
 76
     1
 77
     6
 78
     2
 67
     7
 79
     5
170
     0
171
     0
290
     0
174
     0
 93
        1
 44
0.0
173
     0
291
     1
 45
0.0
1001
ACAD
1000
AcDbSavedByObjectVersion
1070
     0
  0
VISUALSTYLE
  5
1D12B
102
{ACAD_XDICTIONARY
360
1D18F
102
}
102
{ACAD_REACTORS
330
1D11F
102
}
330
1D11F
100
AcDbVisualStyle
  2
Brighten
 70
    12
 71
     2
 72
     2
 73
     0
 90
        0
 40
-0.6
 41
-30.0
 62
     5
 63
     7
 74
     1
 91
        4
 64
     7
 65
   257
 75
     1
175
     1
 42
1.0
 92
        8
 66
     7
 43
1.0
 76
     1
 77
     6
 78
     2
 67
     7
 79
     5
170
     0
171
     0
290
     0
174
     0
 93
        1
 44
50.0
173
     0
291
     1
 45
0.0
1001
ACAD
1000
AcDbSavedByObjectVersion
1070
     0
  0
VISUALSTYLE
  5
1D12F
102
{ACAD_XDICTIONARY
360
1D197
102
}
102
{ACAD_REACTORS
330
1D11F
102
}
330
1D11F
100
AcDbVisualStyle
  2
ColorChange
 70
    16
 71
     2
 72
     2
 73
     3
 90
        0
 40
-0.6
 41
-30.0
 62
     5
 63
     8
 74
     1
 91
        4
 64
     7
 65
   257
 75
     1
175
     1
 42
1.0
 92
        8
 66
     8
 43
1.0
 76
     1
 77
     6
 78
     2
 67
     7
 79
     5
170
     0
171
     0
290
     0
174
     0
 93
        1
 44
0.0
173
     0
291
     1
 45
0.0
1001
ACAD
1000
AcDbSavedByObjectVersion
1070
     0
  0
VISUALSTYLE
  5
1D128
102
{ACAD_XDICTIONARY
360
1D189
102
}
102
{ACAD_REACTORS
330
1D11F
102
}
330
1D11F
100
AcDbVisualStyle
  2
Conceptual
 70
     9
 71
     3
 72
     2
 73
     0
 90
        0
 40
-0.6
 41
-30.0
 62
     5
 63
     7
 74
     2
 91
        2
 64
     7
 65
   257
 75
     1
175
     1
 42
179.0
 92
        8
 66
     7
 43
1.0
 76
     1
 77
     6
 78
     2
 67
     7
 79
     3
170
     0
171
     0
290
     0
174
     0
 93
        1
 44
0.0
173
     0
291
     0
 45
0.0
1001
ACAD
1000
AcDbSavedByObjectVersion
1070
     0
  0
VISUALSTYLE
  5
1D12A
102
{ACAD_XDICTIONARY
360
1D18D
102
}
102
{ACAD_REACTORS
330
1D11F
102
}
330
1D11F
100
AcDbVisualStyle
  2
Dim
 70
    11
 71
     2
 72
     2
 73
     0
 90
        0
 40
-0.6
 41
-30.0
 62
     5
 63
     7
 74
     1
 91
        4
 64
     7
 65
   257
 75
     1
175
     1
 42
1.0
 92
        8
 66
     7
 43
1.0
 76
     1
 77
     6
 78
     2
 67
     7
 79
     5
170
     0
171
     0
290
     0
174
     0
 93
        1
 44
-50.0
173
     0
291
     1
 45
0.0
1001
ACAD
1000
AcDbSavedByObjectVersion
1070
     0
  0
VISUALSTYLE
  5
1D137
102
{ACAD_XDICTIONARY
360
1D1A7
102
}
102
{ACAD_REACTORS
330
1D11F
102
}
330
1D11F
100
AcDbVisualStyle
  2
EdgeColorOff
 70
    22
 71
     2
 72
     2
 73
     0
 90
        0
 40
-0.6
 41
-30.0
 62
     5
 63
     7
 74
     1
 91
        4
 64
     7
 65
   257
 75
     1
175
     1
 42
1.0
 92
        8
 66
     7
 43
1.0
 76
     1
 77
     6
 78
     2
 67
     7
 79
     5
170
     0
171
     0
290
     0
174
     0
 93
        1
 44
0.0
173
     0
291
     1
 45
0.0
1001
ACAD
1000
AcDbSavedByObjectVersion
1070
     0
  0
VISUALSTYLE
  5
1D12E
102
{ACAD_XDICTIONARY
360
1D195
102
}
102
{ACAD_REACTORS
330
1D11F
102
}
330
1D11F
100
AcDbVisualStyle
  2
Facepattern
 70
    15
 71
     2
 72
     2
 73
     0
 90
        0
 40
-0.6
 41
-30.0
 62
     5
 63
     7
 74
     1
 91
        4
 64
     7
 65
   257
 75
     1
175
     1
 42
1.0
 92
        8
 66
     7
 43
1.0
 76
     1
 77
     6
 78
     2
 67
     7
 79
     5
170
     0
171
     0
290
     0
174
     0
 93
        1
 44
0.0
173
     0
291
     1
 45
0.0
1001
ACAD
1000
AcDbSavedByObjectVersion
1070
     0
  0
VISUALSTYLE
  5
1D120
102
{ACAD_XDICTIONARY
360
1D179
102
}
102
{ACAD_REACTORS
330
1D11F
102
}
330
1D11F
100
AcDbVisualStyle
  2
Flat
 70
     0
 71
     2
 72
     1
 73
     1
 90
        2
 40
-0.6
 41
30.0
 62
     5
 63
     7
 74
     0
 91
        0
 64
     7
 65
   257
 75
     1
175
     1
 42
1.0
 92
        8
 66
     7
 43
1.0
 76
     1
 77
     6
 78
     2
 67
     7
 79
     5
170
     0
171
     0
290
     0
174
     0
 93
       13
 44
0.0
173
     0
291
     1
 45
0.0
1001
ACAD
1000
AcDbSavedByObjectVersion
1070
     0
  0
VISUALSTYLE
  5
1D121
102
{ACAD_XDICTIONARY
360
1D17B
102
}
102
{ACAD_REACTORS
330
1D11F
102
}
330
1D11F
100
AcDbVisualStyle
  2
FlatWithEdges
 70
     1
 71
     2
 72
     1
 73
     1
 90
        2
 40
-0.6
 41
30.0
 62
     5
 63
     7
 74
     1
 91
        0
 64
     7
 65
   257
 75
     1
175
     1
 42
1.0
 92
        0
 66
   257
 43
1.0
 76
     1
 77
     6
 78
     2
 67
     7
 79
     5
170
     0
171
     0
290
     0
174
     0
 93
       13
 44
0.0
173
     0
291
     1
 45
0.0
1001
ACAD
1000
AcDbSavedByObjectVersion
1070
     0
  0
VISUALSTYLE
  5
1D122
102
{ACAD_XDICTIONARY
360
1D17D
102
}
102
{ACAD_REACTORS
330
1D11F
102
}
330
1D11F
100
AcDbVisualStyle
  2
Gouraud
 70
     2
 71
     2
 72
     2
 73
     1
 90
        2
 40
-0.6
 41
30.0
 62
     5
 63
     7
 74
     0
 91
        0
 64
     7
 65
   257
 75
     1
175
     1
 42
1.0
 92
        0
 66
     7
 43
1.0
 76
     1
 77
     6
 78
     2
 67
     7
 79
     5
170
     0
171
     0
290
     0
174
     0
 93
       13
 44
0.0
173
     0
291
     1
 45
0.0
1001
ACAD
1000
AcDbSavedByObjectVersion
1070
     0
  0
VISUALSTYLE
  5
1D123
102
{ACAD_XDICTIONARY
360
1D17F
102
}
102
{ACAD_REACTORS
330
1D11F
102
}
330
1D11F
100
AcDbVisualStyle
  2
GouraudWithEdges
 70
     3
 71
     2
 72
     2
 73
     1
 90
        2
 40
-0.6
 41
30.0
 62
     5
 63
     7
 74
     1
 91
        0
 64
     7
 65
   257
 75
     1
175
     1
 42
1.0
 92
        0
 66
   257
 43
1.0
 76
     1
 77
     6
 78
     2
 67
     7
 79
     5
170
     0
171
     0
290
     0
174
     0
 93
       13
 44
0.0
173
     0
291
     1
 45
0.0
1001
ACAD
1000
AcDbSavedByObjectVersion
1070
     0
  0
VISUALSTYLE
  5
1D127
102
{ACAD_XDICTIONARY
360
1D187
102
}
102
{ACAD_REACTORS
330
1D11F
102
}
330
1D11F
100
AcDbVisualStyle
  2
Hidden
 70
     6
 71
     1
 72
     2
 73
     2
 90
        0
 40
-0.6
 41
-30.0
 62
     5
 63
     7
 74
     2
 91
        2
 64
     7
 65
   257
 75
     2
175
     1
 42
40.0
 92
        0
 66
   257
 43
1.0
 76
     1
 77
     6
 78
     2
 67
     7
 79
     3
170
     0
171
     0
290
     0
174
     0
 93
        1
 44
0.0
173
     0
291
     0
 45
0.0
1001
ACAD
1000
AcDbSavedByObjectVersion
1070
     0
  0
VISUALSTYLE
  5
1D135
102
{ACAD_XDICTIONARY
360
1D1A3
102
}
102
{ACAD_REACTORS
330
1D11F
102
}
330
1D11F
100
AcDbVisualStyle
  2
JitterOff
 70
    20
 71
     2
 72
     2
 73
     0
 90
        0
 40
-0.6
 41
-30.0
 62
     5
 63
     7
 74
     1
 91
        4
 64
     7
 65
   257
 75
     1
175
     1
 42
1.0
 92
       10
 66
     7
 43
1.0
 76
     1
 77
     6
 78
     2
 67
     7
 79
     5
170
     0
171
     0
290
     0
174
     0
 93
        1
 44
0.0
173
     0
291
     1
 45
0.0
1001
ACAD
1000
AcDbSavedByObjectVersion
1070
     0
  0
VISUALSTYLE
  5
1D12D
102
{ACAD_XDICTIONARY
360
1D193
102
}
102
{ACAD_REACTORS
330
1D11F
102
}
330
1D11F
100
AcDbVisualStyle
  2
Linepattern
 70
    14
 71
     2
 72
     2
 73
     0
 90
        0
 40
-0.6
 41
-30.0
 62
     5
 63
     7
 74
     1
 91
        4
 64
     7
 65
   257
 75
     7
175
     7
 42
1.0
 92
        8
 66
     7
 43
1.0
 76
     1
 77
     6
 78
     2
 67
     7
 79
     5
170
     0
171
     0
290
     0
174
     0
 93
        1
 44
0.0
173
     0
291
     1
 45
0.0
1001
ACAD
1000
AcDbSavedByObjectVersion
1070
     0
  0
VISUALSTYLE
  5
1D136
102
{ACAD_XDICTIONARY
360
1D1A5
102
}
102
{ACAD_REACTORS
330
1D11F
102
}
330
1D11F
100
AcDbVisualStyle
  2
OverhangOff
 70
    21
 71
     2
 72
     2
 73
     0
 90
        0
 40
-0.6
 41
-30.0
 62
     5
 63
     7
 74
     1
 91
        4
 64
     7
 65
   257
 75
     1
175
     1
 42
1.0
 92
        9
 66
     7
 43
1.0
 76
     1
 77
     6
 78
     2
 67
     7
 79
     5
170
     0
171
     0
290
     0
174
     0
 93
        1
 44
0.0
173
     0
291
     1
 45
0.0
1001
ACAD
1000
AcDbSavedByObjectVersion
1070
     0
  0
VISUALSTYLE
  5
1D129
102
{ACAD_XDICTIONARY
360
1D18B
102
}
102
{ACAD_REACTORS
330
1D11F
102
}
330
1D11F
100
AcDbVisualStyle
  2
Realistic
 70
     8
 71
     2
 72
     3
 73
     0
 90
        2
 40
-0.6
 41
30.0
 62
     5
 63
     7
 74
     0
 91
        0
 64
     7
 65
   257
 75
     1
175
     1
 42
1.0
 92
        8
 66
   257
 43
1.0
 76
     1
 77
     6
 78
     2
 67
     7
 79
     3
170
     0
171
     0
290
     0
174
     0
 93
       13
 44
0.0
173
     0
291
     0
 45
0.0
1001
ACAD
1000
AcDbSavedByObjectVersion
1070
     0
  0
VISUALSTYLE
  5
1D134
102
{ACAD_XDICTIONARY
360
1D1A1
102
}
102
{ACAD_REACTORS
330
1D11F
102
}
330
1D11F
100
AcDbVisualStyle
  2
Shaded
 70
    27
 71
     2
 72
     2
 73
     1
 90
        2
 40
-0.6
 41
30.0
 62
     5
 63
     7
 74
     0
 91
        4
 64
     7
 65
   257
 75
     1
175
     1
 42
1.0
 92
        8
 66
   257
 43
1.0
 76
     1
 77
     6
 78
     2
 67
     8
 79
     3
170
     0
171
     0
290
     0
174
     0
 93
        5
 44
0.0
173
     0
291
     0
 45
0.0
1001
ACAD
1000
AcDbSavedByObjectVersion
1070
     0
  0
VISUALSTYLE
  5
1D133
102
{ACAD_XDICTIONARY
360
1D19F
102
}
102
{ACAD_REACTORS
330
1D11F
102
}
330
1D11F
100
AcDbVisualStyle
  2
Shaded with edges
 70
    26
 71
     2
 72
     2
 73
     1
 90
        2
 40
-0.6
 41
30.0
 62
     5
 63
     7
 74
     1
 91
       10
 64
     7
 65
   257
 75
     2
175
     1
 42
1.0
 92
        8
 66
   257
 43
1.0
 76
     1
 77
     6
 78
     2
 67
     7
 79
     3
170
     0
171
     0
290
     0
174
     0
 93
        5
 44
0.0
173
     0
291
     0
 45
0.0
1001
ACAD
1000
AcDbSavedByObjectVersion
1070
     0
  0
VISUALSTYLE
  5
1D130
102
{ACAD_XDICTIONARY
360
1D199
102
}
102
{ACAD_REACTORS
330
1D11F
102
}
330
1D11F
100
AcDbVisualStyle
  2
Shades of Gray
 70
    23
 71
     2
 72
     2
 73
     3
 90
        0
 40
-0.6
 41
-30.0
 62
     5
 63
     7
 74
     2
 91
        2
 64
     7
 65
     7
 75
     1
175
     1
 42
40.0
 92
        8
 66
     7
 43
1.0
 76
     1
 77
     6
 78
     2
 67
     7
 79
     3
170
     0
171
     0
290
     0
174
     0
 93
        1
 44
0.0
173
     0
291
     0
 45
0.0
1001
ACAD
1000
AcDbSavedByObjectVersion
1070
     0
  0
VISUALSTYLE
  5
1D131
102
{ACAD_XDICTIONARY
360
1D19B
102
}
102
{ACAD_REACTORS
330
1D11F
102
}
330
1D11F
100
AcDbVisualStyle
  2
Sketchy
 70
    24
 71
     1
 72
     2
 73
     2
 90
        0
 40
-0.6
 41
-30.0
 62
     5
 63
     7
 74
     2
 91
        2
 64
     7
 65
     7
 75
     1
175
     1
 42
40.0
 92
       11
 66
     7
 43
1.0
 76
     1
 77
     6
 78
     2
 67
     7
 79
     6
170
     0
171
     0
290
     0
174
     0
 93
        1
 44
0.0
173
     0
291
     0
 45
0.0
1001
ACAD
1000
AcDbSavedByObjectVersion
1070
     0
  0
VISUALSTYLE
  5
1D12C
102
{ACAD_XDICTIONARY
360
1D191
102
}
102
{ACAD_REACTORS
330
1D11F
102
}
330
1D11F
100
AcDbVisualStyle
  2
Thicken
 70
    13
 71
     2
 72
     2
 73
     0
 90
        0
 40
-0.6
 41
-30.0
 62
     5
 63
     7
 74
     1
 91
        4
 64
     7
 65
   257
 75
     1
175
     1
 42
1.0
 92
       12
 66
     7
 43
1.0
 76
     1
 77
     6
 78
     2
 67
     7
 79
     5
170
     0
171
     0
290
     0
174
     0
 93
        1
 44
0.0
173
     0
291
     1
 45
0.0
1001
ACAD
1000
AcDbSavedByObjectVersion
1070
     0
  0
VISUALSTYLE
  5
1D126
102
{ACAD_XDICTIONARY
360
1D185
102
}
102
{ACAD_REACTORS
330
1D11F
102
}
330
1D11F
100
AcDbVisualStyle
  2
Wireframe
 70
     5
 71
     0
 72
     2
 73
     0
 90
        0
 40
-0.6
 41
-30.0
 62
     5
 63
     7
 74
     1
 91
        4
 64
     7
 65
   257
 75
     1
175
     1
 42
1.0
 92
        0
 66
   257
 43
1.0
 76
     1
 77
     6
 78
     2
 67
     7
 79
     3
170
     0
171
     0
290
     0
174
     0
 93
        1
 44
0.0
173
     0
291
     0
 45
0.0
1001
ACAD
1000
AcDbSavedByObjectVersion
1070
     0
  0
VISUALSTYLE
  5
1D132
102
{ACAD_XDICTIONARY
360
1D19D
102
}
102
{ACAD_REACTORS
330
1D11F
102
}
330
1D11F
100
AcDbVisualStyle
  2
X-Ray
 70
    25
 71
     2
 72
     2
 73
     1
 90
        1
 40
0.5
 41
-30.0
 62
     5
 63
     7
 74
     1
 91
        0
 64
     7
 65
   257
 75
     1
175
     1
 42
1.0
 92
        8
 66
     7
 43
1.0
 76
     1
 77
     6
 78
     2
 67
     7
 79
     3
170
     0
171
     0
290
     0
174
     0
 93
       13
 44
0.0
173
     0
291
     0
 45
0.0
1001
ACAD
1000
AcDbSavedByObjectVersion
1070
     0
  0
DICTIONARYVAR
  5
1D16C
102
{ACAD_REACTORS
330
1D167
102
}
330
1D167
100
DictionaryVariables
280
     0
  1
1:1
  0
DICTIONARYVAR
  5
1D169
102
{ACAD_REACTORS
330
1D167
102
}
330
1D167
100
DictionaryVariables
280
     0
  1
STANDARD
  0
DICTIONARYVAR
  5
1D168
102
{ACAD_REACTORS
330
1D167
102
}
330
1D167
100
DictionaryVariables
280
     0
  1
STANDARD
  0
DICTIONARYVAR
  5
1D16A
102
{ACAD_REACTORS
330
1D167
102
}
330
1D167
100
DictionaryVariables
280
     0
  1
Imperial24
  0
DICTIONARYVAR
  5
1D16B
102
{ACAD_REACTORS
330
1D167
102
}
330
1D167
100
DictionaryVariables
280
     0
  1
Imperial24
  0
DICTIONARYVAR
  5
1D16F
102
{ACAD_REACTORS
330
1D167
102
}
330
1D167
100
DictionaryVariables
280
     0
  1
1
  0
DICTIONARYVAR
  5
1D16E
102
{ACAD_REACTORS
330
1D167
102
}
330
1D167
100
DictionaryVariables
280
     0
  1
0
  0
DICTIONARYVAR
  5
1D16D
102
{ACAD_REACTORS
330
1D167
102
}
330
1D167
100
DictionaryVariables
280
     0
  1
127
  0
DICTIONARYVAR
  5
1D170
102
{ACAD_REACTORS
330
1D167
102
}
330
1D167
100
DictionaryVariables
280
     0
  1
2
  0
DICTIONARY
  5
1D1AD
330
1D152
100
AcDbDictionary
280
     1
281
     1
  3
ACAD_XREC_ROUNDTRIP
360
1D1AE
  0
DICTIONARY
  5
1D1AF
330
1D153
100
AcDbDictionary
280
     1
281
     1
  3
ACAD_XREC_ROUNDTRIP
360
1D1B0
  0
DICTIONARY
  5
1D1B1
330
1D154
100
AcDbDictionary
280
     1
281
     1
  3
ACAD_XREC_ROUNDTRIP
360
1D1B2
  0
DICTIONARY
  5
1D110
330
1D10F
100
AcDbDictionary
280
     1
281
     1
  3
ACAD_XREC_ROUNDTRIP
360
1D177
  3
BUMPTILE
360
1D112
  3
DIFFUSETILE
360
1D111
  3
OPACITYTILE
360
1D115
  3
REFLECTIONTILE
360
1D114
  3
REFRACTIONTILE
360
1D116
  3
SPECULARTILE
360
1D113
  0
DICTIONARY
  5
1D108
330
1D107
100
AcDbDictionary
280
     1
281
     1
  3
ACAD_XREC_ROUNDTRIP
360
1D176
  3
BUMPTILE
360
1D10A
  3
DIFFUSETILE
360
1D109
  3
OPACITYTILE
360
1D10D
  3
REFLECTIONTILE
360
1D10C
  3
REFRACTIONTILE
360
1D10E
  3
SPECULARTILE
360
1D10B
  0
DICTIONARY
  5
1D118
330
1D117
100
AcDbDictionary
280
     1
281
     1
  3
ACAD_XREC_ROUNDTRIP
360
1D178
  3
BUMPTILE
360
1D11A
  3
DIFFUSETILE
360
1D119
  3
OPACITYTILE
360
1D11D
  3
REFLECTIONTILE
360
1D11C
  3
REFRACTIONTILE
360
1D11E
  3
SPECULARTILE
360
1D11B
  0
DICTIONARY
  5
1D1AB
330
1D150
100
AcDbDictionary
280
     1
281
     1
  3
ACAD_XREC_ROUNDTRIP
360
1D1AC
  0
DICTIONARY
  5
1D172
330
1D13A
100
AcDbDictionary
280
     1
281
     1
  3
ACAD_ROUNDTRIP_2008_TABLESTYLE_CELLSTYLEMAP
360
1D173
  3
ACAD_XREC_ROUNDTRIP
360
1D1A9
  0
DICTIONARY
  5
1D183
330
1D125
100
AcDbDictionary
280
     1
281
     1
  3
ACAD_XREC_ROUNDTRIP
360
1D184
  0
DICTIONARY
  5
1D181
330
1D124
100
AcDbDictionary
280
     1
281
     1
  3
ACAD_XREC_ROUNDTRIP
360
1D182
  0
DICTIONARY
  5
1D18F
330
1D12B
100
AcDbDictionary
280
     1
281
     1
  3
ACAD_XREC_ROUNDTRIP
360
1D190
  0
DICTIONARY
  5
1D197
330
1D12F
100
AcDbDictionary
280
     1
281
     1
  3
ACAD_XREC_ROUNDTRIP
360
1D198
  0
DICTIONARY
  5
1D189
330
1D128
100
AcDbDictionary
280
     1
281
     1
  3
ACAD_XREC_ROUNDTRIP
360
1D18A
  0
DICTIONARY
  5
1D18D
330
1D12A
100
AcDbDictionary
280
     1
281
     1
  3
ACAD_XREC_ROUNDTRIP
360
1D18E
  0
DICTIONARY
  5
1D1A7
330
1D137
100
AcDbDictionary
280
     1
281
     1
  3
ACAD_XREC_ROUNDTRIP
360
1D1A8
  0
DICTIONARY
  5
1D195
330
1D12E
100
AcDbDictionary
280
     1
281
     1
  3
ACAD_XREC_ROUNDTRIP
360
1D196
  0
DICTIONARY
  5
1D179
330
1D120
100
AcDbDictionary
280
     1
281
     1
  3
ACAD_XREC_ROUNDTRIP
360
1D17A
  0
DICTIONARY
  5
1D17B
330
1D121
100
AcDbDictionary
280
     1
281
     1
  3
ACAD_XREC_ROUNDTRIP
360
1D17C
  0
DICTIONARY
  5
1D17D
330
1D122
100
AcDbDictionary
280
     1
281
     1
  3
ACAD_XREC_ROUNDTRIP
360
1D17E
  0
DICTIONARY
  5
1D17F
330
1D123
100
AcDbDictionary
280
     1
281
     1
  3
ACAD_XREC_ROUNDTRIP
360
1D180
  0
DICTIONARY
  5
1D187
330
1D127
100
AcDbDictionary
280
     1
281
     1
  3
ACAD_XREC_ROUNDTRIP
360
1D188
  0
DICTIONARY
  5
1D1A3
330
1D135
100
AcDbDictionary
280
     1
281
     1
  3
ACAD_XREC_ROUNDTRIP
360
1D1A4
  0
DICTIONARY
  5
1D193
330
1D12D
100
AcDbDictionary
280
     1
281
     1
  3
ACAD_XREC_ROUNDTRIP
360
1D194
  0
DICTIONARY
  5
1D1A5
330
1D136
100
AcDbDictionary
280
     1
281
     1
  3
ACAD_XREC_ROUNDTRIP
360
1D1A6
  0
DICTIONARY
  5
1D18B
330
1D129
100
AcDbDictionary
280
     1
281
     1
  3
ACAD_XREC_ROUNDTRIP
360
1D18C
  0
DICTIONARY
  5
1D1A1
330
1D134
100
AcDbDictionary
280
     1
281
     1
  3
ACAD_XREC_ROUNDTRIP
360
1D1A2
  0
DICTIONARY
  5
1D19F
330
1D133
100
AcDbDictionary
280
     1
281
     1
  3
ACAD_XREC_ROUNDTRIP
360
1D1A0
  0
DICTIONARY
  5
1D199
330
1D130
100
AcDbDictionary
280
     1
281
     1
  3
ACAD_XREC_ROUNDTRIP
360
1D19A
  0
DICTIONARY
  5
1D19B
330
1D131
100
AcDbDictionary
280
     1
281
     1
  3
ACAD_XREC_ROUNDTRIP
360
1D19C
  0
DICTIONARY
  5
1D191
330
1D12C
100
AcDbDictionary
280
     1
281
     1
  3
ACAD_XREC_ROUNDTRIP
360
1D192
  0
DICTIONARY
  5
1D185
330
1D126
100
AcDbDictionary
280
     1
281
     1
  3
ACAD_XREC_ROUNDTRIP
360
1D186
  0
DICTIONARY
  5
1D19D
330
1D132
100
AcDbDictionary
280
     1
281
     1
  3
ACAD_XREC_ROUNDTRIP
360
1D19E
  0
XRECORD
  5
1D1AE
102
{ACAD_REACTORS
330
1D1AD
102
}
330
1D1AD
100
AcDbXrecord
280
     1
102
DISPLAYNAME
  1
Imperial24
102
FLAGS
 90
        0
  0
XRECORD
  5
1D1B0
102
{ACAD_REACTORS
330
1D1AF
102
}
330
1D1AF
100
AcDbXrecord
280
     1
102
SHADEPLOT
 70
     0
102
SHADEPLOTRESLEVEL
 70
     2
102
SHADEPLOTCUSTOMDPI
 70
   300
  0
XRECORD
  5
1D1B2
102
{ACAD_REACTORS
330
1D1B1
102
}
330
1D1B1
100
AcDbXrecord
280
     1
102
SHADEPLOT
 70
     0
102
SHADEPLOTRESLEVEL
 70
     2
102
SHADEPLOTCUSTOMDPI
 70
   300
  0
XRECORD
  5
1D177
102
{ACAD_REACTORS
330
1D110
102
}
330
1D110
100
AcDbXrecord
280
     1
102
MATERIAL
148
0.0
149
0.0
149
0.0
 93
        0
 94
      127
282
     0
 72
     0
 77
     0
171
     0
175
     0
179
     0
273
     0
  0
XRECORD
  5
1D112
102
{ACAD_REACTORS
330
1D110
102
}
330
1D110
100
AcDbXrecord
280
     1
270
     1
271
     1
  0
XRECORD
  5
1D111
102
{ACAD_REACTORS
330
1D110
102
}
330
1D110
100
AcDbXrecord
280
     1
270
     1
271
     1
  0
XRECORD
  5
1D115
102
{ACAD_REACTORS
330
1D110
102
}
330
1D110
100
AcDbXrecord
280
     1
270
     1
271
     1
  0
XRECORD
  5
1D114
102
{ACAD_REACTORS
330
1D110
102
}
330
1D110
100
AcDbXrecord
280
     1
270
     1
271
     1
  0
XRECORD
  5
1D116
102
{ACAD_REACTORS
330
1D110
102
}
330
1D110
100
AcDbXrecord
280
     1
270
     1
271
     1
  0
XRECORD
  5
1D113
102
{ACAD_REACTORS
330
1D110
102
}
330
1D110
100
AcDbXrecord
280
     1
270
     1
271
     1
  0
XRECORD
  5
1D176
102
{ACAD_REACTORS
330
1D108
102
}
330
1D108
100
AcDbXrecord
280
     1
102
MATERIAL
148
0.0
149
0.0
149
0.0
 93
        0
 94
      127
282
     0
 72
     0
 77
     0
171
     0
175
     0
179
     0
273
     0
  0
XRECORD
  5
1D10A
102
{ACAD_REACTORS
330
1D108
102
}
330
1D108
100
AcDbXrecord
280
     1
270
     1
271
     1
  0
XRECORD
  5
1D109
102
{ACAD_REACTORS
330
1D108
102
}
330
1D108
100
AcDbXrecord
280
     1
270
     1
271
     1
  0
XRECORD
  5
1D10D
102
{ACAD_REACTORS
330
1D108
102
}
330
1D108
100
AcDbXrecord
280
     1
270
     1
271
     1
  0
XRECORD
  5
1D10C
102
{ACAD_REACTORS
330
1D108
102
}
330
1D108
100
AcDbXrecord
280
     1
270
     1
271
     1
  0
XRECORD
  5
1D10E
102
{ACAD_REACTORS
330
1D108
102
}
330
1D108
100
AcDbXrecord
280
     1
270
     1
271
     1
  0
XRECORD
  5
1D10B
102
{ACAD_REACTORS
330
1D108
102
}
330
1D108
100
AcDbXrecord
280
     1
270
     1
271
     1
  0
XRECORD
  5
1D178
102
{ACAD_REACTORS
330
1D118
102
}
330
1D118
100
AcDbXrecord
280
     1
102
MATERIAL
148
0.0
149
0.0
149
0.0
 93
        0
 94
      127
282
     0
 72
     0
 77
     0
171
     0
175
     0
179
     0
273
     0
  0
XRECORD
  5
1D11A
102
{ACAD_REACTORS
330
1D118
102
}
330
1D118
100
AcDbXrecord
280
     1
270
     1
271
     1
  0
XRECORD
  5
1D119
102
{ACAD_REACTORS
330
1D118
102
}
330
1D118
100
AcDbXrecord
280
     1
270
     1
271
     1
  0
XRECORD
  5
1D11D
102
{ACAD_REACTORS
330
1D118
102
}
330
1D118
100
AcDbXrecord
280
     1
270
     1
271
     1
  0
XRECORD
  5
1D11C
102
{ACAD_REACTORS
330
1D118
102
}
330
1D118
100
AcDbXrecord
280
     1
270
     1
271
     1
  0
XRECORD
  5
1D11E
102
{ACAD_REACTORS
330
1D118
102
}
330
1D118
100
AcDbXrecord
280
     1
270
     1
271
     1
  0
XRECORD
  5
1D11B
102
{ACAD_REACTORS
330
1D118
102
}
330
1D118
100
AcDbXrecord
280
     1
270
     1
271
     1
  0
XRECORD
  5
1D1AC
102
{ACAD_REACTORS
330
1D1AB
102
}
330
1D1AB
100
AcDbXrecord
280
     1
102
DISPLAYNAME
  1
Imperial24
102
FLAGS
 90
        0
  0
CELLSTYLEMAP
  5
1D173
102
{ACAD_REACTORS
330
1D172
102
}
330
1D172
100
AcDbCellStyleMap
 90
        3
300
CELLSTYLE
  1
TABLEFORMAT_BEGIN
 90
        5
170
     1
 91
        0
 92
    32768
 62
   257
 93
        1
300
CONTENTFORMAT
  1
CONTENTFORMAT_BEGIN
 90
        0
 91
        0
 92
      512
 93
        0
300

 40
0.0
140
1.0
 94
        5
 62
     0
340
1CEA2
144
0.25
309
CONTENTFORMAT_END
171
     0
 94
        0
309
TABLEFORMAT_END
  1
CELLSTYLE_BEGIN
 90
        1
 91
        1
300
_TITLE
309
CELLSTYLE_END
300
CELLSTYLE
  1
TABLEFORMAT_BEGIN
 90
        5
170
     1
 91
        0
 92
        0
 62
   257
 93
        1
300
CONTENTFORMAT
  1
CONTENTFORMAT_BEGIN
 90
        0
 91
        0
 92
      512
 93
        0
300

 40
0.0
140
1.0
 94
        5
 62
     0
340
1CEA2
144
0.18
309
CONTENTFORMAT_END
171
     0
 94
        0
309
TABLEFORMAT_END
  1
CELLSTYLE_BEGIN
 90
        2
 91
        1
300
_HEADER
309
CELLSTYLE_END
300
CELLSTYLE
  1
TABLEFORMAT_BEGIN
 90
        5
170
     1
 91
        0
 92
        0
 62
   257
 93
        1
300
CONTENTFORMAT
  1
CONTENTFORMAT_BEGIN
 90
        0
 91
        0
 92
      512
 93
        0
300

 40
0.0
140
1.0
 94
        2
 62
     0
340
1CEA2
144
0.18
309
CONTENTFORMAT_END
171
     0
 94
        0
309
TABLEFORMAT_END
  1
CELLSTYLE_BEGIN
 90
        3
 91
        2
300
_DATA
309
CELLSTYLE_END
  0
XRECORD
  5
1D1A9
102
{ACAD_REACTORS
330
1D172
102
}
330
1D172
100
AcDbXrecord
280
     1
102
ACAD_ROUNDTRIP_PRE2007_TABLESTYLE
 90
      512
 91
        0
  1

 92
      512
 93
        0
  2

 94
      512
 95
        0
  3

  0
XRECORD
  5
1D184
102
{ACAD_REACTORS
330
1D183
102
}
330
1D183
100
AcDbXrecord
280
     1
102
RTVSPost2010Prop28
280
     1
102
RTVSPost2010PropOp28
 70
     1
102
RTVSPost2010Prop29
280
     1
102
RTVSPost2010PropOp29
 70
     1
102
RTVSPost2010Prop30
280
     0
102
RTVSPost2010PropOp30
 70
     1
102
RTVSPost2010Prop31
280
     0
102
RTVSPost2010PropOp31
 70
     1
102
RTVSPost2010Prop32
280
     0
102
RTVSPost2010PropOp32
 70
     1
102
RTVSPost2010Prop33
280
     0
102
RTVSPost2010PropOp33
 70
     1
102
RTVSPost2010Prop34
280
     0
102
RTVSPost2010PropOp34
 70
     1
102
RTVSPost2010Prop35
280
     0
102
RTVSPost2010PropOp35
 70
     1
102
RTVSPost2010Prop36
280
     0
102
RTVSPost2010PropOp36
 70
     1
102
RTVSPost2010Prop37
 90
       50
102
RTVSPost2010PropOp37
 70
     1
102
RTVSPost2010Prop38
140
0.0
102
RTVSPost2010PropOp38
 70
     1
102
RTVSPost2010Prop39
140
1.0
102
RTVSPost2010PropOp39
 70
     1
102
RTVSPost2010Prop40
 90
        0
102
RTVSPost2010PropOp40
 70
     1
102
RTVSPost2010Prop41ColorIndex
 90
       18
102
RTVSPost2010Prop41ColorRGB
 90
        0
102
RTVSPost2010PropOp41
 70
     1
102
RTVSPost2010Prop42
 90
       50
102
RTVSPost2010PropOp42
 70
     1
102
RTVSPost2010Prop43
 90
        3
102
RTVSPost2010PropOp43
 70
     1
102
RTVSPost2010Prop44ColorIndex
 90
        5
102
RTVSPost2010Prop44ColorRGB
 90
      255
102
RTVSPost2010PropOp44
 70
     1
102
RTVSPost2010Prop45
280
     0
102
RTVSPost2010PropOp45
 70
     1
102
RTVSPost2010Prop46
 90
       50
102
RTVSPost2010PropOp46
 70
     1
102
RTVSPost2010Prop47
 90
       50
102
RTVSPost2010PropOp47
 70
     1
102
RTVSPost2010Prop48
 90
       50
102
RTVSPost2010PropOp48
 70
     1
102
RTVSPost2010Prop49
280
     0
102
RTVSPost2010PropOp49
 70
     1
102
RTVSPost2010Prop50
 90
       50
102
RTVSPost2010PropOp50
 70
     1
102
RTVSPost2010Prop51ColorIndex
 90
      256
102
RTVSPost2010Prop51ColorRGB
 90
-16777216
102
RTVSPost2010PropOp51
 70
     0
102
RTVSPost2010Prop52
140
1.0
102
RTVSPost2010PropOp52
 70
     0
102
RTVSPost2010Prop53
 90
        2
102
RTVSPost2010PropOp53
 70
     1
102
RTVSPost2010Prop54
  1
strokes_ogs.tif
102
RTVSPost2010PropOp54
 70
     1
102
RTVSPost2010Prop55
280
     0
102
RTVSPost2010PropOp55
 70
     1
102
RTVSPost2010Prop56
140
1.0
102
RTVSPost2010PropOp56
 70
     1
102
RTVSPost2010Prop57
140
1.0
102
RTVSPost2010PropOp57
 70
     1
102
RTVSPropertyOp0
 70
     1
102
RTVSPropertyOp1
 70
     1
102
RTVSPropertyOp2
 70
     1
102
RTVSPropertyOp3
 70
     1
102
RTVSPropertyOp4
 70
     1
102
RTVSPropertyOp5
 70
     1
102
RTVSPropertyOp6
 70
     1
102
RTVSPropertyOp7
 70
     1
102
RTVSPropertyOp8
 70
     1
102
RTVSPropertyOp9
 70
     1
102
RTVSPropertyOp10
 70
     1
102
RTVSPropertyOp11
 70
     1
102
RTVSPropertyOp12
 70
     1
102
RTVSPropertyOp13
 70
     1
102
RTVSPropertyOp14
 70
     1
102
RTVSPropertyOp15
 70
     1
102
RTVSPropertyOp16
 70
     1
102
RTVSPropertyOp17
 70
     1
102
RTVSPropertyOp18
 70
     1
102
RTVSPropertyOp19
 70
     1
102
RTVSPropertyOp20
 70
     1
102
RTVSPropertyOp21
 70
     1
102
RTVSPropertyOp22
 70
     1
102
RTVSPropertyOp23
 70
     1
102
RTVSPropertyOp24
 70
     1
102
RTVSPropertyOp25
 70
     1
102
RTVSPropertyOp26
 70
     1
102
RTVSPropertyOp27
 70
     1
102
RTVSPropertyOp28
 70
     1
102
RTVSPropertyOp29
 70
     1
102
RTVSPropertyOp30
 70
     1
102
RTVSPropertyOp31
 70
     1
102
RTVSPropertyOp32
 70
     1
102
RTVSPropertyOp33
 70
     1
102
RTVSPropertyOp34
 70
     1
102
RTVSPropertyOp35
 70
     1
102
RTVSPropertyOp36
 70
     1
102
RTVSPropertyOp37
 70
     1
102
RTVSPropertyOp38
 70
     1
102
RTVSPropertyOp39
 70
     1
102
RTVSPropertyOp40
 70
     1
102
RTVSPropertyOp41
 70
     1
102
RTVSPropertyOp42
 70
     1
102
RTVSPropertyOp43
 70
     1
102
RTVSPropertyOp44
 70
     1
102
RTVSPropertyOp45
 70
     1
102
RTVSPropertyOp46
 70
     1
102
RTVSPropertyOp47
 70
     1
102
RTVSPropertyOp48
 70
     1
102
RTVSPropertyOp49
 70
     1
102
RTVSPropertyOp50
 70
     1
102
RTVSPropertyOp51
 70
     0
102
RTVSPropertyOp52
 70
     0
102
RTVSPropertyOp53
 70
     1
102
RTVSPropertyOp54
 70
     1
102
RTVSPropertyOp55
 70
     1
102
RTVSPropertyOp56
 70
     1
102
RTVSPropertyOp57
 70
     1
102
RTVSPropertyOp58
 70
     1
102
RTVSPropertyOp59
 70
     1
102
RTVSPropertyOp60
 70
     1
102
RTVSPropertyOp61
 70
     1
102
RTVSPropertyOp62
 70
     1
  0
XRECORD
  5
1D182
102
{ACAD_REACTORS
330
1D181
102
}
330
1D181
100
AcDbXrecord
280
     1
102
RTVSPost2010Prop28
280
     0
102
RTVSPost2010PropOp28
 70
     1
102
RTVSPost2010Prop29
280
     1
102
RTVSPost2010PropOp29
 70
     1
102
RTVSPost2010Prop30
280
     1
102
RTVSPost2010PropOp30
 70
     1
102
RTVSPost2010Prop31
280
     0
102
RTVSPost2010PropOp31
 70
     1
102
RTVSPost2010Prop32
280
     0
102
RTVSPost2010PropOp32
 70
     1
102
RTVSPost2010Prop33
280
     0
102
RTVSPost2010PropOp33
 70
     1
102
RTVSPost2010Prop34
280
     0
102
RTVSPost2010PropOp34
 70
     1
102
RTVSPost2010Prop35
280
     0
102
RTVSPost2010PropOp35
 70
     1
102
RTVSPost2010Prop36
280
     0
102
RTVSPost2010PropOp36
 70
     1
102
RTVSPost2010Prop37
 90
       50
102
RTVSPost2010PropOp37
 70
     1
102
RTVSPost2010Prop38
140
0.0
102
RTVSPost2010PropOp38
 70
     1
102
RTVSPost2010Prop39
140
1.0
102
RTVSPost2010PropOp39
 70
     1
102
RTVSPost2010Prop40
 90
        0
102
RTVSPost2010PropOp40
 70
     1
102
RTVSPost2010Prop41ColorIndex
 90
       18
102
RTVSPost2010Prop41ColorRGB
 90
        0
102
RTVSPost2010PropOp41
 70
     1
102
RTVSPost2010Prop42
 90
       50
102
RTVSPost2010PropOp42
 70
     1
102
RTVSPost2010Prop43
 90
        3
102
RTVSPost2010PropOp43
 70
     1
102
RTVSPost2010Prop44ColorIndex
 90
        5
102
RTVSPost2010Prop44ColorRGB
 90
      255
102
RTVSPost2010PropOp44
 70
     1
102
RTVSPost2010Prop45
280
     0
102
RTVSPost2010PropOp45
 70
     1
102
RTVSPost2010Prop46
 90
       50
102
RTVSPost2010PropOp46
 70
     1
102
RTVSPost2010Prop47
 90
       50
102
RTVSPost2010PropOp47
 70
     1
102
RTVSPost2010Prop48
 90
       50
102
RTVSPost2010PropOp48
 70
     1
102
RTVSPost2010Prop49
280
     0
102
RTVSPost2010PropOp49
 70
     1
102
RTVSPost2010Prop50
 90
       50
102
RTVSPost2010PropOp50
 70
     1
102
RTVSPost2010Prop51ColorIndex
 90
      256
102
RTVSPost2010Prop51ColorRGB
 90
-16777216
102
RTVSPost2010PropOp51
 70
     0
102
RTVSPost2010Prop52
140
1.0
102
RTVSPost2010PropOp52
 70
     0
102
RTVSPost2010Prop53
 90
        2
102
RTVSPost2010PropOp53
 70
     1
102
RTVSPost2010Prop54
  1
strokes_ogs.tif
102
RTVSPost2010PropOp54
 70
     1
102
RTVSPost2010Prop55
280
     0
102
RTVSPost2010PropOp55
 70
     1
102
RTVSPost2010Prop56
140
1.0
102
RTVSPost2010PropOp56
 70
     1
102
RTVSPost2010Prop57
140
1.0
102
RTVSPost2010PropOp57
 70
     1
102
RTVSPropertyOp0
 70
     1
102
RTVSPropertyOp1
 70
     1
102
RTVSPropertyOp2
 70
     1
102
RTVSPropertyOp3
 70
     1
102
RTVSPropertyOp4
 70
     1
102
RTVSPropertyOp5
 70
     1
102
RTVSPropertyOp6
 70
     1
102
RTVSPropertyOp7
 70
     1
102
RTVSPropertyOp8
 70
     1
102
RTVSPropertyOp9
 70
     1
102
RTVSPropertyOp10
 70
     1
102
RTVSPropertyOp11
 70
     1
102
RTVSPropertyOp12
 70
     1
102
RTVSPropertyOp13
 70
     1
102
RTVSPropertyOp14
 70
     1
102
RTVSPropertyOp15
 70
     1
102
RTVSPropertyOp16
 70
     1
102
RTVSPropertyOp17
 70
     1
102
RTVSPropertyOp18
 70
     1
102
RTVSPropertyOp19
 70
     1
102
RTVSPropertyOp20
 70
     1
102
RTVSPropertyOp21
 70
     1
102
RTVSPropertyOp22
 70
     1
102
RTVSPropertyOp23
 70
     1
102
RTVSPropertyOp24
 70
     1
102
RTVSPropertyOp25
 70
     1
102
RTVSPropertyOp26
 70
     1
102
RTVSPropertyOp27
 70
     1
102
RTVSPropertyOp28
 70
     1
102
RTVSPropertyOp29
 70
     1
102
RTVSPropertyOp30
 70
     1
102
RTVSPropertyOp31
 70
     1
102
RTVSPropertyOp32
 70
     1
102
RTVSPropertyOp33
 70
     1
102
RTVSPropertyOp34
 70
     1
102
RTVSPropertyOp35
 70
     1
102
RTVSPropertyOp36
 70
     1
102
RTVSPropertyOp37
 70
     1
102
RTVSPropertyOp38
 70
     1
102
RTVSPropertyOp39
 70
     1
102
RTVSPropertyOp40
 70
     1
102
RTVSPropertyOp41
 70
     1
102
RTVSPropertyOp42
 70
     1
102
RTVSPropertyOp43
 70
     1
102
RTVSPropertyOp44
 70
     1
102
RTVSPropertyOp45
 70
     1
102
RTVSPropertyOp46
 70
     1
102
RTVSPropertyOp47
 70
     1
102
RTVSPropertyOp48
 70
     1
102
RTVSPropertyOp49
 70
     1
102
RTVSPropertyOp50
 70
     1
102
RTVSPropertyOp51
 70
     0
102
RTVSPropertyOp52
 70
     0
102
RTVSPropertyOp53
 70
     1
102
RTVSPropertyOp54
 70
     1
102
RTVSPropertyOp55
 70
     1
102
RTVSPropertyOp56
 70
     1
102
RTVSPropertyOp57
 70
     1
102
RTVSPropertyOp58
 70
     1
102
RTVSPropertyOp59
 70
     1
102
RTVSPropertyOp60
 70
     1
102
RTVSPropertyOp61
 70
     1
102
RTVSPropertyOp62
 70
     1
  0
XRECORD
  5
1D190
102
{ACAD_REACTORS
330
1D18F
102
}
330
1D18F
100
AcDbXrecord
280
     1
102
RTVSPost2010Prop28
280
     0
102
RTVSPost2010PropOp28
 70
     1
102
RTVSPost2010Prop29
280
     1
102
RTVSPost2010PropOp29
 70
     1
102
RTVSPost2010Prop30
280
     1
102
RTVSPost2010PropOp30
 70
     1
102
RTVSPost2010Prop31
280
     0
102
RTVSPost2010PropOp31
 70
     1
102
RTVSPost2010Prop32
280
     0
102
RTVSPost2010PropOp32
 70
     1
102
RTVSPost2010Prop33
280
     0
102
RTVSPost2010PropOp33
 70
     1
102
RTVSPost2010Prop34
280
     0
102
RTVSPost2010PropOp34
 70
     1
102
RTVSPost2010Prop35
280
     0
102
RTVSPost2010PropOp35
 70
     1
102
RTVSPost2010Prop36
280
     0
102
RTVSPost2010PropOp36
 70
     1
102
RTVSPost2010Prop37
 90
       50
102
RTVSPost2010PropOp37
 70
     1
102
RTVSPost2010Prop38
140
0.0
102
RTVSPost2010PropOp38
 70
     1
102
RTVSPost2010Prop39
140
1.0
102
RTVSPost2010PropOp39
 70
     1
102
RTVSPost2010Prop40
 90
        0
102
RTVSPost2010PropOp40
 70
     1
102
RTVSPost2010Prop41ColorIndex
 90
       18
102
RTVSPost2010Prop41ColorRGB
 90
        0
102
RTVSPost2010PropOp41
 70
     1
102
RTVSPost2010Prop42
 90
       50
102
RTVSPost2010PropOp42
 70
     1
102
RTVSPost2010Prop43
 90
        3
102
RTVSPost2010PropOp43
 70
     1
102
RTVSPost2010Prop44ColorIndex
 90
        5
102
RTVSPost2010Prop44ColorRGB
 90
      255
102
RTVSPost2010PropOp44
 70
     1
102
RTVSPost2010Prop45
280
     0
102
RTVSPost2010PropOp45
 70
     1
102
RTVSPost2010Prop46
 90
       50
102
RTVSPost2010PropOp46
 70
     1
102
RTVSPost2010Prop47
 90
       50
102
RTVSPost2010PropOp47
 70
     1
102
RTVSPost2010Prop48
 90
       50
102
RTVSPost2010PropOp48
 70
     1
102
RTVSPost2010Prop49
280
     0
102
RTVSPost2010PropOp49
 70
     1
102
RTVSPost2010Prop50
 90
       50
102
RTVSPost2010PropOp50
 70
     1
102
RTVSPost2010Prop51ColorIndex
 90
      256
102
RTVSPost2010Prop51ColorRGB
 90
-16777216
102
RTVSPost2010PropOp51
 70
     0
102
RTVSPost2010Prop52
140
1.0
102
RTVSPost2010PropOp52
 70
     0
102
RTVSPost2010Prop53
 90
        2
102
RTVSPost2010PropOp53
 70
     1
102
RTVSPost2010Prop54
  1
strokes_ogs.tif
102
RTVSPost2010PropOp54
 70
     1
102
RTVSPost2010Prop55
280
     0
102
RTVSPost2010PropOp55
 70
     1
102
RTVSPost2010Prop56
140
1.0
102
RTVSPost2010PropOp56
 70
     1
102
RTVSPost2010Prop57
140
1.0
102
RTVSPost2010PropOp57
 70
     1
102
RTVSPropertyOp0
 70
     1
102
RTVSPropertyOp1
 70
     1
102
RTVSPropertyOp2
 70
     1
102
RTVSPropertyOp3
 70
     1
102
RTVSPropertyOp4
 70
     1
102
RTVSPropertyOp5
 70
     1
102
RTVSPropertyOp6
 70
     1
102
RTVSPropertyOp7
 70
     1
102
RTVSPropertyOp8
 70
     1
102
RTVSPropertyOp9
 70
     1
102
RTVSPropertyOp10
 70
     1
102
RTVSPropertyOp11
 70
     1
102
RTVSPropertyOp12
 70
     1
102
RTVSPropertyOp13
 70
     1
102
RTVSPropertyOp14
 70
     1
102
RTVSPropertyOp15
 70
     1
102
RTVSPropertyOp16
 70
     1
102
RTVSPropertyOp17
 70
     1
102
RTVSPropertyOp18
 70
     1
102
RTVSPropertyOp19
 70
     1
102
RTVSPropertyOp20
 70
     1
102
RTVSPropertyOp21
 70
     1
102
RTVSPropertyOp22
 70
     1
102
RTVSPropertyOp23
 70
     1
102
RTVSPropertyOp24
 70
     1
102
RTVSPropertyOp25
 70
     1
102
RTVSPropertyOp26
 70
     1
102
RTVSPropertyOp27
 70
     1
102
RTVSPropertyOp28
 70
     1
102
RTVSPropertyOp29
 70
     1
102
RTVSPropertyOp30
 70
     1
102
RTVSPropertyOp31
 70
     1
102
RTVSPropertyOp32
 70
     1
102
RTVSPropertyOp33
 70
     1
102
RTVSPropertyOp34
 70
     1
102
RTVSPropertyOp35
 70
     1
102
RTVSPropertyOp36
 70
     1
102
RTVSPropertyOp37
 70
     1
102
RTVSPropertyOp38
 70
     1
102
RTVSPropertyOp39
 70
     1
102
RTVSPropertyOp40
 70
     1
102
RTVSPropertyOp41
 70
     1
102
RTVSPropertyOp42
 70
     1
102
RTVSPropertyOp43
 70
     1
102
RTVSPropertyOp44
 70
     1
102
RTVSPropertyOp45
 70
     1
102
RTVSPropertyOp46
 70
     1
102
RTVSPropertyOp47
 70
     1
102
RTVSPropertyOp48
 70
     1
102
RTVSPropertyOp49
 70
     1
102
RTVSPropertyOp50
 70
     1
102
RTVSPropertyOp51
 70
     0
102
RTVSPropertyOp52
 70
     0
102
RTVSPropertyOp53
 70
     1
102
RTVSPropertyOp54
 70
     1
102
RTVSPropertyOp55
 70
     1
102
RTVSPropertyOp56
 70
     1
102
RTVSPropertyOp57
 70
     1
102
RTVSPropertyOp58
 70
     1
102
RTVSPropertyOp59
 70
     1
102
RTVSPropertyOp60
 70
     1
102
RTVSPropertyOp61
 70
     1
102
RTVSPropertyOp62
 70
     1
  0
XRECORD
  5
1D198
102
{ACAD_REACTORS
330
1D197
102
}
330
1D197
100
AcDbXrecord
280
     1
102
RTVSPost2010Prop28
280
     0
102
RTVSPost2010PropOp28
 70
     1
102
RTVSPost2010Prop29
280
     1
102
RTVSPost2010PropOp29
 70
     1
102
RTVSPost2010Prop30
280
     1
102
RTVSPost2010PropOp30
 70
     1
102
RTVSPost2010Prop31
280
     0
102
RTVSPost2010PropOp31
 70
     1
102
RTVSPost2010Prop32
280
     0
102
RTVSPost2010PropOp32
 70
     1
102
RTVSPost2010Prop33
280
     0
102
RTVSPost2010PropOp33
 70
     1
102
RTVSPost2010Prop34
280
     0
102
RTVSPost2010PropOp34
 70
     1
102
RTVSPost2010Prop35
280
     0
102
RTVSPost2010PropOp35
 70
     1
102
RTVSPost2010Prop36
280
     0
102
RTVSPost2010PropOp36
 70
     1
102
RTVSPost2010Prop37
 90
       50
102
RTVSPost2010PropOp37
 70
     1
102
RTVSPost2010Prop38
140
0.0
102
RTVSPost2010PropOp38
 70
     1
102
RTVSPost2010Prop39
140
1.0
102
RTVSPost2010PropOp39
 70
     1
102
RTVSPost2010Prop40
 90
        0
102
RTVSPost2010PropOp40
 70
     1
102
RTVSPost2010Prop41ColorIndex
 90
       18
102
RTVSPost2010Prop41ColorRGB
 90
        0
102
RTVSPost2010PropOp41
 70
     1
102
RTVSPost2010Prop42
 90
       50
102
RTVSPost2010PropOp42
 70
     1
102
RTVSPost2010Prop43
 90
        3
102
RTVSPost2010PropOp43
 70
     1
102
RTVSPost2010Prop44ColorIndex
 90
        5
102
RTVSPost2010Prop44ColorRGB
 90
      255
102
RTVSPost2010PropOp44
 70
     1
102
RTVSPost2010Prop45
280
     0
102
RTVSPost2010PropOp45
 70
     1
102
RTVSPost2010Prop46
 90
       50
102
RTVSPost2010PropOp46
 70
     1
102
RTVSPost2010Prop47
 90
       50
102
RTVSPost2010PropOp47
 70
     1
102
RTVSPost2010Prop48
 90
       50
102
RTVSPost2010PropOp48
 70
     1
102
RTVSPost2010Prop49
280
     0
102
RTVSPost2010PropOp49
 70
     1
102
RTVSPost2010Prop50
 90
       50
102
RTVSPost2010PropOp50
 70
     1
102
RTVSPost2010Prop51ColorIndex
 90
      256
102
RTVSPost2010Prop51ColorRGB
 90
-16777216
102
RTVSPost2010PropOp51
 70
     0
102
RTVSPost2010Prop52
140
1.0
102
RTVSPost2010PropOp52
 70
     0
102
RTVSPost2010Prop53
 90
        2
102
RTVSPost2010PropOp53
 70
     1
102
RTVSPost2010Prop54
  1
strokes_ogs.tif
102
RTVSPost2010PropOp54
 70
     1
102
RTVSPost2010Prop55
280
     0
102
RTVSPost2010PropOp55
 70
     1
102
RTVSPost2010Prop56
140
1.0
102
RTVSPost2010PropOp56
 70
     1
102
RTVSPost2010Prop57
140
1.0
102
RTVSPost2010PropOp57
 70
     1
102
RTVSPropertyOp0
 70
     1
102
RTVSPropertyOp1
 70
     1
102
RTVSPropertyOp2
 70
     1
102
RTVSPropertyOp3
 70
     1
102
RTVSPropertyOp4
 70
     1
102
RTVSPropertyOp5
 70
     1
102
RTVSPropertyOp6
 70
     1
102
RTVSPropertyOp7
 70
     1
102
RTVSPropertyOp8
 70
     1
102
RTVSPropertyOp9
 70
     1
102
RTVSPropertyOp10
 70
     1
102
RTVSPropertyOp11
 70
     1
102
RTVSPropertyOp12
 70
     1
102
RTVSPropertyOp13
 70
     1
102
RTVSPropertyOp14
 70
     1
102
RTVSPropertyOp15
 70
     1
102
RTVSPropertyOp16
 70
     1
102
RTVSPropertyOp17
 70
     1
102
RTVSPropertyOp18
 70
     1
102
RTVSPropertyOp19
 70
     1
102
RTVSPropertyOp20
 70
     1
102
RTVSPropertyOp21
 70
     1
102
RTVSPropertyOp22
 70
     1
102
RTVSPropertyOp23
 70
     1
102
RTVSPropertyOp24
 70
     1
102
RTVSPropertyOp25
 70
     1
102
RTVSPropertyOp26
 70
     1
102
RTVSPropertyOp27
 70
     1
102
RTVSPropertyOp28
 70
     1
102
RTVSPropertyOp29
 70
     1
102
RTVSPropertyOp30
 70
     1
102
RTVSPropertyOp31
 70
     1
102
RTVSPropertyOp32
 70
     1
102
RTVSPropertyOp33
 70
     1
102
RTVSPropertyOp34
 70
     1
102
RTVSPropertyOp35
 70
     1
102
RTVSPropertyOp36
 70
     1
102
RTVSPropertyOp37
 70
     1
102
RTVSPropertyOp38
 70
     1
102
RTVSPropertyOp39
 70
     1
102
RTVSPropertyOp40
 70
     1
102
RTVSPropertyOp41
 70
     1
102
RTVSPropertyOp42
 70
     1
102
RTVSPropertyOp43
 70
     1
102
RTVSPropertyOp44
 70
     1
102
RTVSPropertyOp45
 70
     1
102
RTVSPropertyOp46
 70
     1
102
RTVSPropertyOp47
 70
     1
102
RTVSPropertyOp48
 70
     1
102
RTVSPropertyOp49
 70
     1
102
RTVSPropertyOp50
 70
     1
102
RTVSPropertyOp51
 70
     0
102
RTVSPropertyOp52
 70
     0
102
RTVSPropertyOp53
 70
     1
102
RTVSPropertyOp54
 70
     1
102
RTVSPropertyOp55
 70
     1
102
RTVSPropertyOp56
 70
     1
102
RTVSPropertyOp57
 70
     1
102
RTVSPropertyOp58
 70
     1
102
RTVSPropertyOp59
 70
     1
102
RTVSPropertyOp60
 70
     1
102
RTVSPropertyOp61
 70
     1
102
RTVSPropertyOp62
 70
     1
  0
XRECORD
  5
1D18A
102
{ACAD_REACTORS
330
1D189
102
}
330
1D189
100
AcDbXrecord
280
     1
102
RTVSPost2010Prop28
280
     0
102
RTVSPost2010PropOp28
 70
     1
102
RTVSPost2010Prop29
280
     1
102
RTVSPost2010PropOp29
 70
     1
102
RTVSPost2010Prop30
280
     1
102
RTVSPost2010PropOp30
 70
     1
102
RTVSPost2010Prop31
280
     0
102
RTVSPost2010PropOp31
 70
     1
102
RTVSPost2010Prop32
280
     0
102
RTVSPost2010PropOp32
 70
     1
102
RTVSPost2010Prop33
280
     0
102
RTVSPost2010PropOp33
 70
     1
102
RTVSPost2010Prop34
280
     0
102
RTVSPost2010PropOp34
 70
     1
102
RTVSPost2010Prop35
280
     0
102
RTVSPost2010PropOp35
 70
     1
102
RTVSPost2010Prop36
280
     0
102
RTVSPost2010PropOp36
 70
     1
102
RTVSPost2010Prop37
 90
       50
102
RTVSPost2010PropOp37
 70
     1
102
RTVSPost2010Prop38
140
0.0
102
RTVSPost2010PropOp38
 70
     1
102
RTVSPost2010Prop39
140
1.0
102
RTVSPost2010PropOp39
 70
     1
102
RTVSPost2010Prop40
 90
        0
102
RTVSPost2010PropOp40
 70
     1
102
RTVSPost2010Prop41ColorIndex
 90
       18
102
RTVSPost2010Prop41ColorRGB
 90
        0
102
RTVSPost2010PropOp41
 70
     1
102
RTVSPost2010Prop42
 90
       50
102
RTVSPost2010PropOp42
 70
     1
102
RTVSPost2010Prop43
 90
        3
102
RTVSPost2010PropOp43
 70
     1
102
RTVSPost2010Prop44ColorIndex
 90
        5
102
RTVSPost2010Prop44ColorRGB
 90
      255
102
RTVSPost2010PropOp44
 70
     1
102
RTVSPost2010Prop45
280
     0
102
RTVSPost2010PropOp45
 70
     1
102
RTVSPost2010Prop46
 90
       50
102
RTVSPost2010PropOp46
 70
     1
102
RTVSPost2010Prop47
 90
       50
102
RTVSPost2010PropOp47
 70
     1
102
RTVSPost2010Prop48
 90
       50
102
RTVSPost2010PropOp48
 70
     1
102
RTVSPost2010Prop49
280
     0
102
RTVSPost2010PropOp49
 70
     1
102
RTVSPost2010Prop50
 90
       50
102
RTVSPost2010PropOp50
 70
     1
102
RTVSPost2010Prop51ColorIndex
 90
      256
102
RTVSPost2010Prop51ColorRGB
 90
-16777216
102
RTVSPost2010PropOp51
 70
     0
102
RTVSPost2010Prop52
140
1.0
102
RTVSPost2010PropOp52
 70
     0
102
RTVSPost2010Prop53
 90
        2
102
RTVSPost2010PropOp53
 70
     1
102
RTVSPost2010Prop54
  1
strokes_ogs.tif
102
RTVSPost2010PropOp54
 70
     1
102
RTVSPost2010Prop55
280
     0
102
RTVSPost2010PropOp55
 70
     1
102
RTVSPost2010Prop56
140
1.0
102
RTVSPost2010PropOp56
 70
     1
102
RTVSPost2010Prop57
140
1.0
102
RTVSPost2010PropOp57
 70
     1
102
RTVSPropertyOp0
 70
     1
102
RTVSPropertyOp1
 70
     1
102
RTVSPropertyOp2
 70
     1
102
RTVSPropertyOp3
 70
     1
102
RTVSPropertyOp4
 70
     1
102
RTVSPropertyOp5
 70
     1
102
RTVSPropertyOp6
 70
     1
102
RTVSPropertyOp7
 70
     1
102
RTVSPropertyOp8
 70
     1
102
RTVSPropertyOp9
 70
     1
102
RTVSPropertyOp10
 70
     1
102
RTVSPropertyOp11
 70
     1
102
RTVSPropertyOp12
 70
     1
102
RTVSPropertyOp13
 70
     1
102
RTVSPropertyOp14
 70
     1
102
RTVSPropertyOp15
 70
     1
102
RTVSPropertyOp16
 70
     1
102
RTVSPropertyOp17
 70
     1
102
RTVSPropertyOp18
 70
     1
102
RTVSPropertyOp19
 70
     1
102
RTVSPropertyOp20
 70
     1
102
RTVSPropertyOp21
 70
     1
102
RTVSPropertyOp22
 70
     1
102
RTVSPropertyOp23
 70
     1
102
RTVSPropertyOp24
 70
     1
102
RTVSPropertyOp25
 70
     1
102
RTVSPropertyOp26
 70
     1
102
RTVSPropertyOp27
 70
     1
102
RTVSPropertyOp28
 70
     1
102
RTVSPropertyOp29
 70
     1
102
RTVSPropertyOp30
 70
     1
102
RTVSPropertyOp31
 70
     1
102
RTVSPropertyOp32
 70
     1
102
RTVSPropertyOp33
 70
     1
102
RTVSPropertyOp34
 70
     1
102
RTVSPropertyOp35
 70
     1
102
RTVSPropertyOp36
 70
     1
102
RTVSPropertyOp37
 70
     1
102
RTVSPropertyOp38
 70
     1
102
RTVSPropertyOp39
 70
     1
102
RTVSPropertyOp40
 70
     1
102
RTVSPropertyOp41
 70
     1
102
RTVSPropertyOp42
 70
     1
102
RTVSPropertyOp43
 70
     1
102
RTVSPropertyOp44
 70
     1
102
RTVSPropertyOp45
 70
     1
102
RTVSPropertyOp46
 70
     1
102
RTVSPropertyOp47
 70
     1
102
RTVSPropertyOp48
 70
     1
102
RTVSPropertyOp49
 70
     1
102
RTVSPropertyOp50
 70
     1
102
RTVSPropertyOp51
 70
     0
102
RTVSPropertyOp52
 70
     0
102
RTVSPropertyOp53
 70
     1
102
RTVSPropertyOp54
 70
     1
102
RTVSPropertyOp55
 70
     1
102
RTVSPropertyOp56
 70
     1
102
RTVSPropertyOp57
 70
     1
102
RTVSPropertyOp58
 70
     1
102
RTVSPropertyOp59
 70
     1
102
RTVSPropertyOp60
 70
     1
102
RTVSPropertyOp61
 70
     1
102
RTVSPropertyOp62
 70
     1
  0
XRECORD
  5
1D18E
102
{ACAD_REACTORS
330
1D18D
102
}
330
1D18D
100
AcDbXrecord
280
     1
102
RTVSPost2010Prop28
280
     0
102
RTVSPost2010PropOp28
 70
     1
102
RTVSPost2010Prop29
280
     1
102
RTVSPost2010PropOp29
 70
     1
102
RTVSPost2010Prop30
280
     1
102
RTVSPost2010PropOp30
 70
     1
102
RTVSPost2010Prop31
280
     0
102
RTVSPost2010PropOp31
 70
     1
102
RTVSPost2010Prop32
280
     0
102
RTVSPost2010PropOp32
 70
     1
102
RTVSPost2010Prop33
280
     0
102
RTVSPost2010PropOp33
 70
     1
102
RTVSPost2010Prop34
280
     0
102
RTVSPost2010PropOp34
 70
     1
102
RTVSPost2010Prop35
280
     0
102
RTVSPost2010PropOp35
 70
     1
102
RTVSPost2010Prop36
280
     0
102
RTVSPost2010PropOp36
 70
     1
102
RTVSPost2010Prop37
 90
       50
102
RTVSPost2010PropOp37
 70
     1
102
RTVSPost2010Prop38
140
0.0
102
RTVSPost2010PropOp38
 70
     1
102
RTVSPost2010Prop39
140
1.0
102
RTVSPost2010PropOp39
 70
     1
102
RTVSPost2010Prop40
 90
        0
102
RTVSPost2010PropOp40
 70
     1
102
RTVSPost2010Prop41ColorIndex
 90
       18
102
RTVSPost2010Prop41ColorRGB
 90
        0
102
RTVSPost2010PropOp41
 70
     1
102
RTVSPost2010Prop42
 90
       50
102
RTVSPost2010PropOp42
 70
     1
102
RTVSPost2010Prop43
 90
        3
102
RTVSPost2010PropOp43
 70
     1
102
RTVSPost2010Prop44ColorIndex
 90
        5
102
RTVSPost2010Prop44ColorRGB
 90
      255
102
RTVSPost2010PropOp44
 70
     1
102
RTVSPost2010Prop45
280
     0
102
RTVSPost2010PropOp45
 70
     1
102
RTVSPost2010Prop46
 90
       50
102
RTVSPost2010PropOp46
 70
     1
102
RTVSPost2010Prop47
 90
       50
102
RTVSPost2010PropOp47
 70
     1
102
RTVSPost2010Prop48
 90
       50
102
RTVSPost2010PropOp48
 70
     1
102
RTVSPost2010Prop49
280
     0
102
RTVSPost2010PropOp49
 70
     1
102
RTVSPost2010Prop50
 90
       50
102
RTVSPost2010PropOp50
 70
     1
102
RTVSPost2010Prop51ColorIndex
 90
      256
102
RTVSPost2010Prop51ColorRGB
 90
-16777216
102
RTVSPost2010PropOp51
 70
     0
102
RTVSPost2010Prop52
140
1.0
102
RTVSPost2010PropOp52
 70
     0
102
RTVSPost2010Prop53
 90
        2
102
RTVSPost2010PropOp53
 70
     1
102
RTVSPost2010Prop54
  1
strokes_ogs.tif
102
RTVSPost2010PropOp54
 70
     1
102
RTVSPost2010Prop55
280
     0
102
RTVSPost2010PropOp55
 70
     1
102
RTVSPost2010Prop56
140
1.0
102
RTVSPost2010PropOp56
 70
     1
102
RTVSPost2010Prop57
140
1.0
102
RTVSPost2010PropOp57
 70
     1
102
RTVSPropertyOp0
 70
     1
102
RTVSPropertyOp1
 70
     1
102
RTVSPropertyOp2
 70
     1
102
RTVSPropertyOp3
 70
     1
102
RTVSPropertyOp4
 70
     1
102
RTVSPropertyOp5
 70
     1
102
RTVSPropertyOp6
 70
     1
102
RTVSPropertyOp7
 70
     1
102
RTVSPropertyOp8
 70
     1
102
RTVSPropertyOp9
 70
     1
102
RTVSPropertyOp10
 70
     1
102
RTVSPropertyOp11
 70
     1
102
RTVSPropertyOp12
 70
     1
102
RTVSPropertyOp13
 70
     1
102
RTVSPropertyOp14
 70
     1
102
RTVSPropertyOp15
 70
     1
102
RTVSPropertyOp16
 70
     1
102
RTVSPropertyOp17
 70
     1
102
RTVSPropertyOp18
 70
     1
102
RTVSPropertyOp19
 70
     1
102
RTVSPropertyOp20
 70
     1
102
RTVSPropertyOp21
 70
     1
102
RTVSPropertyOp22
 70
     1
102
RTVSPropertyOp23
 70
     1
102
RTVSPropertyOp24
 70
     1
102
RTVSPropertyOp25
 70
     1
102
RTVSPropertyOp26
 70
     1
102
RTVSPropertyOp27
 70
     1
102
RTVSPropertyOp28
 70
     1
102
RTVSPropertyOp29
 70
     1
102
RTVSPropertyOp30
 70
     1
102
RTVSPropertyOp31
 70
     1
102
RTVSPropertyOp32
 70
     1
102
RTVSPropertyOp33
 70
     1
102
RTVSPropertyOp34
 70
     1
102
RTVSPropertyOp35
 70
     1
102
RTVSPropertyOp36
 70
     1
102
RTVSPropertyOp37
 70
     1
102
RTVSPropertyOp38
 70
     1
102
RTVSPropertyOp39
 70
     1
102
RTVSPropertyOp40
 70
     1
102
RTVSPropertyOp41
 70
     1
102
RTVSPropertyOp42
 70
     1
102
RTVSPropertyOp43
 70
     1
102
RTVSPropertyOp44
 70
     1
102
RTVSPropertyOp45
 70
     1
102
RTVSPropertyOp46
 70
     1
102
RTVSPropertyOp47
 70
     1
102
RTVSPropertyOp48
 70
     1
102
RTVSPropertyOp49
 70
     1
102
RTVSPropertyOp50
 70
     1
102
RTVSPropertyOp51
 70
     0
102
RTVSPropertyOp52
 70
     0
102
RTVSPropertyOp53
 70
     1
102
RTVSPropertyOp54
 70
     1
102
RTVSPropertyOp55
 70
     1
102
RTVSPropertyOp56
 70
     1
102
RTVSPropertyOp57
 70
     1
102
RTVSPropertyOp58
 70
     1
102
RTVSPropertyOp59
 70
     1
102
RTVSPropertyOp60
 70
     1
102
RTVSPropertyOp61
 70
     1
102
RTVSPropertyOp62
 70
     1
  0
XRECORD
  5
1D1A8
102
{ACAD_REACTORS
330
1D1A7
102
}
330
1D1A7
100
AcDbXrecord
280
     1
102
RTVSPost2010Prop28
280
     0
102
RTVSPost2010PropOp28
 70
     1
102
RTVSPost2010Prop29
280
     1
102
RTVSPost2010PropOp29
 70
     1
102
RTVSPost2010Prop30
280
     1
102
RTVSPost2010PropOp30
 70
     1
102
RTVSPost2010Prop31
280
     0
102
RTVSPost2010PropOp31
 70
     1
102
RTVSPost2010Prop32
280
     0
102
RTVSPost2010PropOp32
 70
     1
102
RTVSPost2010Prop33
280
     0
102
RTVSPost2010PropOp33
 70
     1
102
RTVSPost2010Prop34
280
     0
102
RTVSPost2010PropOp34
 70
     1
102
RTVSPost2010Prop35
280
     0
102
RTVSPost2010PropOp35
 70
     1
102
RTVSPost2010Prop36
280
     0
102
RTVSPost2010PropOp36
 70
     1
102
RTVSPost2010Prop37
 90
       50
102
RTVSPost2010PropOp37
 70
     0
102
RTVSPost2010Prop38
140
0.0
102
RTVSPost2010PropOp38
 70
     0
102
RTVSPost2010Prop39
140
1.0
102
RTVSPost2010PropOp39
 70
     0
102
RTVSPost2010Prop40
 90
        0
102
RTVSPost2010PropOp40
 70
     0
102
RTVSPost2010Prop41ColorIndex
 90
       18
102
RTVSPost2010Prop41ColorRGB
 90
        0
102
RTVSPost2010PropOp41
 70
     0
102
RTVSPost2010Prop42
 90
       50
102
RTVSPost2010PropOp42
 70
     0
102
RTVSPost2010Prop43
 90
        3
102
RTVSPost2010PropOp43
 70
     0
102
RTVSPost2010Prop44ColorIndex
 90
        5
102
RTVSPost2010Prop44ColorRGB
 90
      255
102
RTVSPost2010PropOp44
 70
     0
102
RTVSPost2010Prop45
280
     0
102
RTVSPost2010PropOp45
 70
     1
102
RTVSPost2010Prop46
 90
       50
102
RTVSPost2010PropOp46
 70
     0
102
RTVSPost2010Prop47
 90
       50
102
RTVSPost2010PropOp47
 70
     0
102
RTVSPost2010Prop48
 90
       50
102
RTVSPost2010PropOp48
 70
     0
102
RTVSPost2010Prop49
280
     0
102
RTVSPost2010PropOp49
 70
     1
102
RTVSPost2010Prop50
 90
       50
102
RTVSPost2010PropOp50
 70
     0
102
RTVSPost2010Prop51ColorIndex
 90
      256
102
RTVSPost2010Prop51ColorRGB
 90
-16777216
102
RTVSPost2010PropOp51
 70
     0
102
RTVSPost2010Prop52
140
1.0
102
RTVSPost2010PropOp52
 70
     0
102
RTVSPost2010Prop53
 90
        2
102
RTVSPost2010PropOp53
 70
     0
102
RTVSPost2010Prop54
  1
strokes_ogs.tif
102
RTVSPost2010PropOp54
 70
     0
102
RTVSPost2010Prop55
280
     0
102
RTVSPost2010PropOp55
 70
     1
102
RTVSPost2010Prop56
140
1.0
102
RTVSPost2010PropOp56
 70
     0
102
RTVSPost2010Prop57
140
1.0
102
RTVSPost2010PropOp57
 70
     0
102
RTVSPropertyOp0
 70
     0
102
RTVSPropertyOp1
 70
     0
102
RTVSPropertyOp2
 70
     0
102
RTVSPropertyOp3
 70
     0
102
RTVSPropertyOp4
 70
     0
102
RTVSPropertyOp5
 70
     0
102
RTVSPropertyOp6
 70
     0
102
RTVSPropertyOp7
 70
     0
102
RTVSPropertyOp8
 70
     0
102
RTVSPropertyOp9
 70
     0
102
RTVSPropertyOp10
 70
     0
102
RTVSPropertyOp11
 70
     0
102
RTVSPropertyOp12
 70
     0
102
RTVSPropertyOp13
 70
     0
102
RTVSPropertyOp14
 70
     2
102
RTVSPropertyOp15
 70
     0
102
RTVSPropertyOp16
 70
     0
102
RTVSPropertyOp17
 70
     0
102
RTVSPropertyOp18
 70
     0
102
RTVSPropertyOp19
 70
     0
102
RTVSPropertyOp20
 70
     0
102
RTVSPropertyOp21
 70
     0
102
RTVSPropertyOp22
 70
     0
102
RTVSPropertyOp23
 70
     0
102
RTVSPropertyOp24
 70
     0
102
RTVSPropertyOp25
 70
     0
102
RTVSPropertyOp26
 70
     0
102
RTVSPropertyOp27
 70
     0
102
RTVSPropertyOp28
 70
     1
102
RTVSPropertyOp29
 70
     1
102
RTVSPropertyOp30
 70
     1
102
RTVSPropertyOp31
 70
     1
102
RTVSPropertyOp32
 70
     1
102
RTVSPropertyOp33
 70
     1
102
RTVSPropertyOp34
 70
     1
102
RTVSPropertyOp35
 70
     1
102
RTVSPropertyOp36
 70
     1
102
RTVSPropertyOp37
 70
     0
102
RTVSPropertyOp38
 70
     0
102
RTVSPropertyOp39
 70
     0
102
RTVSPropertyOp40
 70
     0
102
RTVSPropertyOp41
 70
     0
102
RTVSPropertyOp42
 70
     0
102
RTVSPropertyOp43
 70
     0
102
RTVSPropertyOp44
 70
     0
102
RTVSPropertyOp45
 70
     1
102
RTVSPropertyOp46
 70
     0
102
RTVSPropertyOp47
 70
     0
102
RTVSPropertyOp48
 70
     0
102
RTVSPropertyOp49
 70
     1
102
RTVSPropertyOp50
 70
     0
102
RTVSPropertyOp51
 70
     0
102
RTVSPropertyOp52
 70
     0
102
RTVSPropertyOp53
 70
     0
102
RTVSPropertyOp54
 70
     0
102
RTVSPropertyOp55
 70
     1
102
RTVSPropertyOp56
 70
     0
102
RTVSPropertyOp57
 70
     0
102
RTVSPropertyOp58
 70
     0
102
RTVSPropertyOp59
 70
     0
102
RTVSPropertyOp60
 70
     0
102
RTVSPropertyOp61
 70
     0
102
RTVSPropertyOp62
 70
     0
  0
XRECORD
  5
1D196
102
{ACAD_REACTORS
330
1D195
102
}
330
1D195
100
AcDbXrecord
280
     1
102
RTVSPost2010Prop28
280
     0
102
RTVSPost2010PropOp28
 70
     1
102
RTVSPost2010Prop29
280
     1
102
RTVSPost2010PropOp29
 70
     1
102
RTVSPost2010Prop30
280
     1
102
RTVSPost2010PropOp30
 70
     1
102
RTVSPost2010Prop31
280
     0
102
RTVSPost2010PropOp31
 70
     1
102
RTVSPost2010Prop32
280
     0
102
RTVSPost2010PropOp32
 70
     1
102
RTVSPost2010Prop33
280
     0
102
RTVSPost2010PropOp33
 70
     1
102
RTVSPost2010Prop34
280
     0
102
RTVSPost2010PropOp34
 70
     1
102
RTVSPost2010Prop35
280
     0
102
RTVSPost2010PropOp35
 70
     1
102
RTVSPost2010Prop36
280
     0
102
RTVSPost2010PropOp36
 70
     1
102
RTVSPost2010Prop37
 90
       50
102
RTVSPost2010PropOp37
 70
     1
102
RTVSPost2010Prop38
140
0.0
102
RTVSPost2010PropOp38
 70
     1
102
RTVSPost2010Prop39
140
1.0
102
RTVSPost2010PropOp39
 70
     1
102
RTVSPost2010Prop40
 90
        0
102
RTVSPost2010PropOp40
 70
     1
102
RTVSPost2010Prop41ColorIndex
 90
       18
102
RTVSPost2010Prop41ColorRGB
 90
        0
102
RTVSPost2010PropOp41
 70
     1
102
RTVSPost2010Prop42
 90
       50
102
RTVSPost2010PropOp42
 70
     1
102
RTVSPost2010Prop43
 90
        3
102
RTVSPost2010PropOp43
 70
     1
102
RTVSPost2010Prop44ColorIndex
 90
        5
102
RTVSPost2010Prop44ColorRGB
 90
      255
102
RTVSPost2010PropOp44
 70
     1
102
RTVSPost2010Prop45
280
     0
102
RTVSPost2010PropOp45
 70
     1
102
RTVSPost2010Prop46
 90
       50
102
RTVSPost2010PropOp46
 70
     1
102
RTVSPost2010Prop47
 90
       50
102
RTVSPost2010PropOp47
 70
     1
102
RTVSPost2010Prop48
 90
       50
102
RTVSPost2010PropOp48
 70
     1
102
RTVSPost2010Prop49
280
     0
102
RTVSPost2010PropOp49
 70
     1
102
RTVSPost2010Prop50
 90
       50
102
RTVSPost2010PropOp50
 70
     1
102
RTVSPost2010Prop51ColorIndex
 90
      256
102
RTVSPost2010Prop51ColorRGB
 90
-16777216
102
RTVSPost2010PropOp51
 70
     0
102
RTVSPost2010Prop52
140
1.0
102
RTVSPost2010PropOp52
 70
     0
102
RTVSPost2010Prop53
 90
        2
102
RTVSPost2010PropOp53
 70
     1
102
RTVSPost2010Prop54
  1
strokes_ogs.tif
102
RTVSPost2010PropOp54
 70
     1
102
RTVSPost2010Prop55
280
     0
102
RTVSPost2010PropOp55
 70
     1
102
RTVSPost2010Prop56
140
1.0
102
RTVSPost2010PropOp56
 70
     1
102
RTVSPost2010Prop57
140
1.0
102
RTVSPost2010PropOp57
 70
     1
102
RTVSPropertyOp0
 70
     1
102
RTVSPropertyOp1
 70
     1
102
RTVSPropertyOp2
 70
     1
102
RTVSPropertyOp3
 70
     1
102
RTVSPropertyOp4
 70
     1
102
RTVSPropertyOp5
 70
     1
102
RTVSPropertyOp6
 70
     1
102
RTVSPropertyOp7
 70
     1
102
RTVSPropertyOp8
 70
     1
102
RTVSPropertyOp9
 70
     1
102
RTVSPropertyOp10
 70
     1
102
RTVSPropertyOp11
 70
     1
102
RTVSPropertyOp12
 70
     1
102
RTVSPropertyOp13
 70
     1
102
RTVSPropertyOp14
 70
     1
102
RTVSPropertyOp15
 70
     1
102
RTVSPropertyOp16
 70
     1
102
RTVSPropertyOp17
 70
     1
102
RTVSPropertyOp18
 70
     1
102
RTVSPropertyOp19
 70
     1
102
RTVSPropertyOp20
 70
     1
102
RTVSPropertyOp21
 70
     1
102
RTVSPropertyOp22
 70
     1
102
RTVSPropertyOp23
 70
     1
102
RTVSPropertyOp24
 70
     1
102
RTVSPropertyOp25
 70
     1
102
RTVSPropertyOp26
 70
     1
102
RTVSPropertyOp27
 70
     1
102
RTVSPropertyOp28
 70
     1
102
RTVSPropertyOp29
 70
     1
102
RTVSPropertyOp30
 70
     1
102
RTVSPropertyOp31
 70
     1
102
RTVSPropertyOp32
 70
     1
102
RTVSPropertyOp33
 70
     1
102
RTVSPropertyOp34
 70
     1
102
RTVSPropertyOp35
 70
     1
102
RTVSPropertyOp36
 70
     1
102
RTVSPropertyOp37
 70
     1
102
RTVSPropertyOp38
 70
     1
102
RTVSPropertyOp39
 70
     1
102
RTVSPropertyOp40
 70
     1
102
RTVSPropertyOp41
 70
     1
102
RTVSPropertyOp42
 70
     1
102
RTVSPropertyOp43
 70
     1
102
RTVSPropertyOp44
 70
     1
102
RTVSPropertyOp45
 70
     1
102
RTVSPropertyOp46
 70
     1
102
RTVSPropertyOp47
 70
     1
102
RTVSPropertyOp48
 70
     1
102
RTVSPropertyOp49
 70
     1
102
RTVSPropertyOp50
 70
     1
102
RTVSPropertyOp51
 70
     0
102
RTVSPropertyOp52
 70
     0
102
RTVSPropertyOp53
 70
     1
102
RTVSPropertyOp54
 70
     1
102
RTVSPropertyOp55
 70
     1
102
RTVSPropertyOp56
 70
     1
102
RTVSPropertyOp57
 70
     1
102
RTVSPropertyOp58
 70
     1
102
RTVSPropertyOp59
 70
     1
102
RTVSPropertyOp60
 70
     1
102
RTVSPropertyOp61
 70
     1
102
RTVSPropertyOp62
 70
     1
  0
XRECORD
  5
1D17A
102
{ACAD_REACTORS
330
1D179
102
}
330
1D179
100
AcDbXrecord
280
     1
102
RTVSPost2010Prop28
280
     0
102
RTVSPost2010PropOp28
 70
     1
102
RTVSPost2010Prop29
280
     1
102
RTVSPost2010PropOp29
 70
     1
102
RTVSPost2010Prop30
280
     1
102
RTVSPost2010PropOp30
 70
     1
102
RTVSPost2010Prop31
280
     0
102
RTVSPost2010PropOp31
 70
     1
102
RTVSPost2010Prop32
280
     0
102
RTVSPost2010PropOp32
 70
     1
102
RTVSPost2010Prop33
280
     0
102
RTVSPost2010PropOp33
 70
     1
102
RTVSPost2010Prop34
280
     0
102
RTVSPost2010PropOp34
 70
     1
102
RTVSPost2010Prop35
280
     0
102
RTVSPost2010PropOp35
 70
     1
102
RTVSPost2010Prop36
280
     0
102
RTVSPost2010PropOp36
 70
     1
102
RTVSPost2010Prop37
 90
       50
102
RTVSPost2010PropOp37
 70
     1
102
RTVSPost2010Prop38
140
0.0
102
RTVSPost2010PropOp38
 70
     1
102
RTVSPost2010Prop39
140
1.0
102
RTVSPost2010PropOp39
 70
     1
102
RTVSPost2010Prop40
 90
        0
102
RTVSPost2010PropOp40
 70
     1
102
RTVSPost2010Prop41ColorIndex
 90
       18
102
RTVSPost2010Prop41ColorRGB
 90
        0
102
RTVSPost2010PropOp41
 70
     1
102
RTVSPost2010Prop42
 90
       50
102
RTVSPost2010PropOp42
 70
     1
102
RTVSPost2010Prop43
 90
        3
102
RTVSPost2010PropOp43
 70
     1
102
RTVSPost2010Prop44ColorIndex
 90
        5
102
RTVSPost2010Prop44ColorRGB
 90
      255
102
RTVSPost2010PropOp44
 70
     1
102
RTVSPost2010Prop45
280
     0
102
RTVSPost2010PropOp45
 70
     1
102
RTVSPost2010Prop46
 90
       50
102
RTVSPost2010PropOp46
 70
     1
102
RTVSPost2010Prop47
 90
       50
102
RTVSPost2010PropOp47
 70
     1
102
RTVSPost2010Prop48
 90
       50
102
RTVSPost2010PropOp48
 70
     1
102
RTVSPost2010Prop49
280
     0
102
RTVSPost2010PropOp49
 70
     1
102
RTVSPost2010Prop50
 90
       50
102
RTVSPost2010PropOp50
 70
     1
102
RTVSPost2010Prop51ColorIndex
 90
      256
102
RTVSPost2010Prop51ColorRGB
 90
-16777216
102
RTVSPost2010PropOp51
 70
     0
102
RTVSPost2010Prop52
140
1.0
102
RTVSPost2010PropOp52
 70
     0
102
RTVSPost2010Prop53
 90
        2
102
RTVSPost2010PropOp53
 70
     1
102
RTVSPost2010Prop54
  1
strokes_ogs.tif
102
RTVSPost2010PropOp54
 70
     1
102
RTVSPost2010Prop55
280
     0
102
RTVSPost2010PropOp55
 70
     1
102
RTVSPost2010Prop56
140
1.0
102
RTVSPost2010PropOp56
 70
     1
102
RTVSPost2010Prop57
140
1.0
102
RTVSPost2010PropOp57
 70
     1
102
RTVSPropertyOp0
 70
     1
102
RTVSPropertyOp1
 70
     1
102
RTVSPropertyOp2
 70
     1
102
RTVSPropertyOp3
 70
     1
102
RTVSPropertyOp4
 70
     1
102
RTVSPropertyOp5
 70
     1
102
RTVSPropertyOp6
 70
     1
102
RTVSPropertyOp7
 70
     1
102
RTVSPropertyOp8
 70
     1
102
RTVSPropertyOp9
 70
     1
102
RTVSPropertyOp10
 70
     1
102
RTVSPropertyOp11
 70
     1
102
RTVSPropertyOp12
 70
     1
102
RTVSPropertyOp13
 70
     1
102
RTVSPropertyOp14
 70
     1
102
RTVSPropertyOp15
 70
     1
102
RTVSPropertyOp16
 70
     1
102
RTVSPropertyOp17
 70
     1
102
RTVSPropertyOp18
 70
     1
102
RTVSPropertyOp19
 70
     1
102
RTVSPropertyOp20
 70
     1
102
RTVSPropertyOp21
 70
     1
102
RTVSPropertyOp22
 70
     1
102
RTVSPropertyOp23
 70
     1
102
RTVSPropertyOp24
 70
     1
102
RTVSPropertyOp25
 70
     1
102
RTVSPropertyOp26
 70
     1
102
RTVSPropertyOp27
 70
     1
102
RTVSPropertyOp28
 70
     1
102
RTVSPropertyOp29
 70
     1
102
RTVSPropertyOp30
 70
     1
102
RTVSPropertyOp31
 70
     1
102
RTVSPropertyOp32
 70
     1
102
RTVSPropertyOp33
 70
     1
102
RTVSPropertyOp34
 70
     1
102
RTVSPropertyOp35
 70
     1
102
RTVSPropertyOp36
 70
     1
102
RTVSPropertyOp37
 70
     1
102
RTVSPropertyOp38
 70
     1
102
RTVSPropertyOp39
 70
     1
102
RTVSPropertyOp40
 70
     1
102
RTVSPropertyOp41
 70
     1
102
RTVSPropertyOp42
 70
     1
102
RTVSPropertyOp43
 70
     1
102
RTVSPropertyOp44
 70
     1
102
RTVSPropertyOp45
 70
     1
102
RTVSPropertyOp46
 70
     1
102
RTVSPropertyOp47
 70
     1
102
RTVSPropertyOp48
 70
     1
102
RTVSPropertyOp49
 70
     1
102
RTVSPropertyOp50
 70
     1
102
RTVSPropertyOp51
 70
     0
102
RTVSPropertyOp52
 70
     0
102
RTVSPropertyOp53
 70
     1
102
RTVSPropertyOp54
 70
     1
102
RTVSPropertyOp55
 70
     1
102
RTVSPropertyOp56
 70
     1
102
RTVSPropertyOp57
 70
     1
102
RTVSPropertyOp58
 70
     1
102
RTVSPropertyOp59
 70
     1
102
RTVSPropertyOp60
 70
     1
102
RTVSPropertyOp61
 70
     1
102
RTVSPropertyOp62
 70
     1
  0
XRECORD
  5
1D17C
102
{ACAD_REACTORS
330
1D17B
102
}
330
1D17B
100
AcDbXrecord
280
     1
102
RTVSPost2010Prop28
280
     0
102
RTVSPost2010PropOp28
 70
     1
102
RTVSPost2010Prop29
280
     1
102
RTVSPost2010PropOp29
 70
     1
102
RTVSPost2010Prop30
280
     1
102
RTVSPost2010PropOp30
 70
     1
102
RTVSPost2010Prop31
280
     0
102
RTVSPost2010PropOp31
 70
     1
102
RTVSPost2010Prop32
280
     0
102
RTVSPost2010PropOp32
 70
     1
102
RTVSPost2010Prop33
280
     0
102
RTVSPost2010PropOp33
 70
     1
102
RTVSPost2010Prop34
280
     0
102
RTVSPost2010PropOp34
 70
     1
102
RTVSPost2010Prop35
280
     0
102
RTVSPost2010PropOp35
 70
     1
102
RTVSPost2010Prop36
280
     0
102
RTVSPost2010PropOp36
 70
     1
102
RTVSPost2010Prop37
 90
       50
102
RTVSPost2010PropOp37
 70
     1
102
RTVSPost2010Prop38
140
0.0
102
RTVSPost2010PropOp38
 70
     1
102
RTVSPost2010Prop39
140
1.0
102
RTVSPost2010PropOp39
 70
     1
102
RTVSPost2010Prop40
 90
        0
102
RTVSPost2010PropOp40
 70
     1
102
RTVSPost2010Prop41ColorIndex
 90
       18
102
RTVSPost2010Prop41ColorRGB
 90
        0
102
RTVSPost2010PropOp41
 70
     1
102
RTVSPost2010Prop42
 90
       50
102
RTVSPost2010PropOp42
 70
     1
102
RTVSPost2010Prop43
 90
        3
102
RTVSPost2010PropOp43
 70
     1
102
RTVSPost2010Prop44ColorIndex
 90
        5
102
RTVSPost2010Prop44ColorRGB
 90
      255
102
RTVSPost2010PropOp44
 70
     1
102
RTVSPost2010Prop45
280
     0
102
RTVSPost2010PropOp45
 70
     1
102
RTVSPost2010Prop46
 90
       50
102
RTVSPost2010PropOp46
 70
     1
102
RTVSPost2010Prop47
 90
       50
102
RTVSPost2010PropOp47
 70
     1
102
RTVSPost2010Prop48
 90
       50
102
RTVSPost2010PropOp48
 70
     1
102
RTVSPost2010Prop49
280
     0
102
RTVSPost2010PropOp49
 70
     1
102
RTVSPost2010Prop50
 90
       50
102
RTVSPost2010PropOp50
 70
     1
102
RTVSPost2010Prop51ColorIndex
 90
      256
102
RTVSPost2010Prop51ColorRGB
 90
-16777216
102
RTVSPost2010PropOp51
 70
     0
102
RTVSPost2010Prop52
140
1.0
102
RTVSPost2010PropOp52
 70
     0
102
RTVSPost2010Prop53
 90
        2
102
RTVSPost2010PropOp53
 70
     1
102
RTVSPost2010Prop54
  1
strokes_ogs.tif
102
RTVSPost2010PropOp54
 70
     1
102
RTVSPost2010Prop55
280
     0
102
RTVSPost2010PropOp55
 70
     1
102
RTVSPost2010Prop56
140
1.0
102
RTVSPost2010PropOp56
 70
     1
102
RTVSPost2010Prop57
140
1.0
102
RTVSPost2010PropOp57
 70
     1
102
RTVSPropertyOp0
 70
     1
102
RTVSPropertyOp1
 70
     1
102
RTVSPropertyOp2
 70
     1
102
RTVSPropertyOp3
 70
     1
102
RTVSPropertyOp4
 70
     1
102
RTVSPropertyOp5
 70
     1
102
RTVSPropertyOp6
 70
     1
102
RTVSPropertyOp7
 70
     1
102
RTVSPropertyOp8
 70
     1
102
RTVSPropertyOp9
 70
     1
102
RTVSPropertyOp10
 70
     1
102
RTVSPropertyOp11
 70
     1
102
RTVSPropertyOp12
 70
     1
102
RTVSPropertyOp13
 70
     1
102
RTVSPropertyOp14
 70
     1
102
RTVSPropertyOp15
 70
     1
102
RTVSPropertyOp16
 70
     1
102
RTVSPropertyOp17
 70
     1
102
RTVSPropertyOp18
 70
     1
102
RTVSPropertyOp19
 70
     1
102
RTVSPropertyOp20
 70
     1
102
RTVSPropertyOp21
 70
     1
102
RTVSPropertyOp22
 70
     1
102
RTVSPropertyOp23
 70
     1
102
RTVSPropertyOp24
 70
     1
102
RTVSPropertyOp25
 70
     1
102
RTVSPropertyOp26
 70
     1
102
RTVSPropertyOp27
 70
     1
102
RTVSPropertyOp28
 70
     1
102
RTVSPropertyOp29
 70
     1
102
RTVSPropertyOp30
 70
     1
102
RTVSPropertyOp31
 70
     1
102
RTVSPropertyOp32
 70
     1
102
RTVSPropertyOp33
 70
     1
102
RTVSPropertyOp34
 70
     1
102
RTVSPropertyOp35
 70
     1
102
RTVSPropertyOp36
 70
     1
102
RTVSPropertyOp37
 70
     1
102
RTVSPropertyOp38
 70
     1
102
RTVSPropertyOp39
 70
     1
102
RTVSPropertyOp40
 70
     1
102
RTVSPropertyOp41
 70
     1
102
RTVSPropertyOp42
 70
     1
102
RTVSPropertyOp43
 70
     1
102
RTVSPropertyOp44
 70
     1
102
RTVSPropertyOp45
 70
     1
102
RTVSPropertyOp46
 70
     1
102
RTVSPropertyOp47
 70
     1
102
RTVSPropertyOp48
 70
     1
102
RTVSPropertyOp49
 70
     1
102
RTVSPropertyOp50
 70
     1
102
RTVSPropertyOp51
 70
     0
102
RTVSPropertyOp52
 70
     0
102
RTVSPropertyOp53
 70
     1
102
RTVSPropertyOp54
 70
     1
102
RTVSPropertyOp55
 70
     1
102
RTVSPropertyOp56
 70
     1
102
RTVSPropertyOp57
 70
     1
102
RTVSPropertyOp58
 70
     1
102
RTVSPropertyOp59
 70
     1
102
RTVSPropertyOp60
 70
     1
102
RTVSPropertyOp61
 70
     1
102
RTVSPropertyOp62
 70
     1
  0
XRECORD
  5
1D17E
102
{ACAD_REACTORS
330
1D17D
102
}
330
1D17D
100
AcDbXrecord
280
     1
102
RTVSPost2010Prop28
280
     0
102
RTVSPost2010PropOp28
 70
     1
102
RTVSPost2010Prop29
280
     1
102
RTVSPost2010PropOp29
 70
     1
102
RTVSPost2010Prop30
280
     1
102
RTVSPost2010PropOp30
 70
     1
102
RTVSPost2010Prop31
280
     0
102
RTVSPost2010PropOp31
 70
     1
102
RTVSPost2010Prop32
280
     0
102
RTVSPost2010PropOp32
 70
     1
102
RTVSPost2010Prop33
280
     0
102
RTVSPost2010PropOp33
 70
     1
102
RTVSPost2010Prop34
280
     0
102
RTVSPost2010PropOp34
 70
     1
102
RTVSPost2010Prop35
280
     0
102
RTVSPost2010PropOp35
 70
     1
102
RTVSPost2010Prop36
280
     0
102
RTVSPost2010PropOp36
 70
     1
102
RTVSPost2010Prop37
 90
       50
102
RTVSPost2010PropOp37
 70
     1
102
RTVSPost2010Prop38
140
0.0
102
RTVSPost2010PropOp38
 70
     1
102
RTVSPost2010Prop39
140
1.0
102
RTVSPost2010PropOp39
 70
     1
102
RTVSPost2010Prop40
 90
        0
102
RTVSPost2010PropOp40
 70
     1
102
RTVSPost2010Prop41ColorIndex
 90
       18
102
RTVSPost2010Prop41ColorRGB
 90
        0
102
RTVSPost2010PropOp41
 70
     1
102
RTVSPost2010Prop42
 90
       50
102
RTVSPost2010PropOp42
 70
     1
102
RTVSPost2010Prop43
 90
        3
102
RTVSPost2010PropOp43
 70
     1
102
RTVSPost2010Prop44ColorIndex
 90
        5
102
RTVSPost2010Prop44ColorRGB
 90
      255
102
RTVSPost2010PropOp44
 70
     1
102
RTVSPost2010Prop45
280
     0
102
RTVSPost2010PropOp45
 70
     1
102
RTVSPost2010Prop46
 90
       50
102
RTVSPost2010PropOp46
 70
     1
102
RTVSPost2010Prop47
 90
       50
102
RTVSPost2010PropOp47
 70
     1
102
RTVSPost2010Prop48
 90
       50
102
RTVSPost2010PropOp48
 70
     1
102
RTVSPost2010Prop49
280
     0
102
RTVSPost2010PropOp49
 70
     1
102
RTVSPost2010Prop50
 90
       50
102
RTVSPost2010PropOp50
 70
     1
102
RTVSPost2010Prop51ColorIndex
 90
      256
102
RTVSPost2010Prop51ColorRGB
 90
-16777216
102
RTVSPost2010PropOp51
 70
     0
102
RTVSPost2010Prop52
140
1.0
102
RTVSPost2010PropOp52
 70
     0
102
RTVSPost2010Prop53
 90
        2
102
RTVSPost2010PropOp53
 70
     1
102
RTVSPost2010Prop54
  1
strokes_ogs.tif
102
RTVSPost2010PropOp54
 70
     1
102
RTVSPost2010Prop55
280
     0
102
RTVSPost2010PropOp55
 70
     1
102
RTVSPost2010Prop56
140
1.0
102
RTVSPost2010PropOp56
 70
     1
102
RTVSPost2010Prop57
140
1.0
102
RTVSPost2010PropOp57
 70
     1
102
RTVSPropertyOp0
 70
     1
102
RTVSPropertyOp1
 70
     1
102
RTVSPropertyOp2
 70
     1
102
RTVSPropertyOp3
 70
     1
102
RTVSPropertyOp4
 70
     1
102
RTVSPropertyOp5
 70
     1
102
RTVSPropertyOp6
 70
     1
102
RTVSPropertyOp7
 70
     1
102
RTVSPropertyOp8
 70
     1
102
RTVSPropertyOp9
 70
     1
102
RTVSPropertyOp10
 70
     1
102
RTVSPropertyOp11
 70
     1
102
RTVSPropertyOp12
 70
     1
102
RTVSPropertyOp13
 70
     1
102
RTVSPropertyOp14
 70
     1
102
RTVSPropertyOp15
 70
     1
102
RTVSPropertyOp16
 70
     1
102
RTVSPropertyOp17
 70
     1
102
RTVSPropertyOp18
 70
     1
102
RTVSPropertyOp19
 70
     1
102
RTVSPropertyOp20
 70
     1
102
RTVSPropertyOp21
 70
     1
102
RTVSPropertyOp22
 70
     1
102
RTVSPropertyOp23
 70
     1
102
RTVSPropertyOp24
 70
     1
102
RTVSPropertyOp25
 70
     1
102
RTVSPropertyOp26
 70
     1
102
RTVSPropertyOp27
 70
     1
102
RTVSPropertyOp28
 70
     1
102
RTVSPropertyOp29
 70
     1
102
RTVSPropertyOp30
 70
     1
102
RTVSPropertyOp31
 70
     1
102
RTVSPropertyOp32
 70
     1
102
RTVSPropertyOp33
 70
     1
102
RTVSPropertyOp34
 70
     1
102
RTVSPropertyOp35
 70
     1
102
RTVSPropertyOp36
 70
     1
102
RTVSPropertyOp37
 70
     1
102
RTVSPropertyOp38
 70
     1
102
RTVSPropertyOp39
 70
     1
102
RTVSPropertyOp40
 70
     1
102
RTVSPropertyOp41
 70
     1
102
RTVSPropertyOp42
 70
     1
102
RTVSPropertyOp43
 70
     1
102
RTVSPropertyOp44
 70
     1
102
RTVSPropertyOp45
 70
     1
102
RTVSPropertyOp46
 70
     1
102
RTVSPropertyOp47
 70
     1
102
RTVSPropertyOp48
 70
     1
102
RTVSPropertyOp49
 70
     1
102
RTVSPropertyOp50
 70
     1
102
RTVSPropertyOp51
 70
     0
102
RTVSPropertyOp52
 70
     0
102
RTVSPropertyOp53
 70
     1
102
RTVSPropertyOp54
 70
     1
102
RTVSPropertyOp55
 70
     1
102
RTVSPropertyOp56
 70
     1
102
RTVSPropertyOp57
 70
     1
102
RTVSPropertyOp58
 70
     1
102
RTVSPropertyOp59
 70
     1
102
RTVSPropertyOp60
 70
     1
102
RTVSPropertyOp61
 70
     1
102
RTVSPropertyOp62
 70
     1
  0
XRECORD
  5
1D180
102
{ACAD_REACTORS
330
1D17F
102
}
330
1D17F
100
AcDbXrecord
280
     1
102
RTVSPost2010Prop28
280
     0
102
RTVSPost2010PropOp28
 70
     1
102
RTVSPost2010Prop29
280
     1
102
RTVSPost2010PropOp29
 70
     1
102
RTVSPost2010Prop30
280
     1
102
RTVSPost2010PropOp30
 70
     1
102
RTVSPost2010Prop31
280
     0
102
RTVSPost2010PropOp31
 70
     1
102
RTVSPost2010Prop32
280
     0
102
RTVSPost2010PropOp32
 70
     1
102
RTVSPost2010Prop33
280
     0
102
RTVSPost2010PropOp33
 70
     1
102
RTVSPost2010Prop34
280
     0
102
RTVSPost2010PropOp34
 70
     1
102
RTVSPost2010Prop35
280
     0
102
RTVSPost2010PropOp35
 70
     1
102
RTVSPost2010Prop36
280
     0
102
RTVSPost2010PropOp36
 70
     1
102
RTVSPost2010Prop37
 90
       50
102
RTVSPost2010PropOp37
 70
     1
102
RTVSPost2010Prop38
140
0.0
102
RTVSPost2010PropOp38
 70
     1
102
RTVSPost2010Prop39
140
1.0
102
RTVSPost2010PropOp39
 70
     1
102
RTVSPost2010Prop40
 90
        0
102
RTVSPost2010PropOp40
 70
     1
102
RTVSPost2010Prop41ColorIndex
 90
       18
102
RTVSPost2010Prop41ColorRGB
 90
        0
102
RTVSPost2010PropOp41
 70
     1
102
RTVSPost2010Prop42
 90
       50
102
RTVSPost2010PropOp42
 70
     1
102
RTVSPost2010Prop43
 90
        3
102
RTVSPost2010PropOp43
 70
     1
102
RTVSPost2010Prop44ColorIndex
 90
        5
102
RTVSPost2010Prop44ColorRGB
 90
      255
102
RTVSPost2010PropOp44
 70
     1
102
RTVSPost2010Prop45
280
     0
102
RTVSPost2010PropOp45
 70
     1
102
RTVSPost2010Prop46
 90
       50
102
RTVSPost2010PropOp46
 70
     1
102
RTVSPost2010Prop47
 90
       50
102
RTVSPost2010PropOp47
 70
     1
102
RTVSPost2010Prop48
 90
       50
102
RTVSPost2010PropOp48
 70
     1
102
RTVSPost2010Prop49
280
     0
102
RTVSPost2010PropOp49
 70
     1
102
RTVSPost2010Prop50
 90
       50
102
RTVSPost2010PropOp50
 70
     1
102
RTVSPost2010Prop51ColorIndex
 90
      256
102
RTVSPost2010Prop51ColorRGB
 90
-16777216
102
RTVSPost2010PropOp51
 70
     0
102
RTVSPost2010Prop52
140
1.0
102
RTVSPost2010PropOp52
 70
     0
102
RTVSPost2010Prop53
 90
        2
102
RTVSPost2010PropOp53
 70
     1
102
RTVSPost2010Prop54
  1
strokes_ogs.tif
102
RTVSPost2010PropOp54
 70
     1
102
RTVSPost2010Prop55
280
     0
102
RTVSPost2010PropOp55
 70
     1
102
RTVSPost2010Prop56
140
1.0
102
RTVSPost2010PropOp56
 70
     1
102
RTVSPost2010Prop57
140
1.0
102
RTVSPost2010PropOp57
 70
     1
102
RTVSPropertyOp0
 70
     1
102
RTVSPropertyOp1
 70
     1
102
RTVSPropertyOp2
 70
     1
102
RTVSPropertyOp3
 70
     1
102
RTVSPropertyOp4
 70
     1
102
RTVSPropertyOp5
 70
     1
102
RTVSPropertyOp6
 70
     1
102
RTVSPropertyOp7
 70
     1
102
RTVSPropertyOp8
 70
     1
102
RTVSPropertyOp9
 70
     1
102
RTVSPropertyOp10
 70
     1
102
RTVSPropertyOp11
 70
     1
102
RTVSPropertyOp12
 70
     1
102
RTVSPropertyOp13
 70
     1
102
RTVSPropertyOp14
 70
     1
102
RTVSPropertyOp15
 70
     1
102
RTVSPropertyOp16
 70
     1
102
RTVSPropertyOp17
 70
     1
102
RTVSPropertyOp18
 70
     1
102
RTVSPropertyOp19
 70
     1
102
RTVSPropertyOp20
 70
     1
102
RTVSPropertyOp21
 70
     1
102
RTVSPropertyOp22
 70
     1
102
RTVSPropertyOp23
 70
     1
102
RTVSPropertyOp24
 70
     1
102
RTVSPropertyOp25
 70
     1
102
RTVSPropertyOp26
 70
     1
102
RTVSPropertyOp27
 70
     1
102
RTVSPropertyOp28
 70
     1
102
RTVSPropertyOp29
 70
     1
102
RTVSPropertyOp30
 70
     1
102
RTVSPropertyOp31
 70
     1
102
RTVSPropertyOp32
 70
     1
102
RTVSPropertyOp33
 70
     1
102
RTVSPropertyOp34
 70
     1
102
RTVSPropertyOp35
 70
     1
102
RTVSPropertyOp36
 70
     1
102
RTVSPropertyOp37
 70
     1
102
RTVSPropertyOp38
 70
     1
102
RTVSPropertyOp39
 70
     1
102
RTVSPropertyOp40
 70
     1
102
RTVSPropertyOp41
 70
     1
102
RTVSPropertyOp42
 70
     1
102
RTVSPropertyOp43
 70
     1
102
RTVSPropertyOp44
 70
     1
102
RTVSPropertyOp45
 70
     1
102
RTVSPropertyOp46
 70
     1
102
RTVSPropertyOp47
 70
     1
102
RTVSPropertyOp48
 70
     1
102
RTVSPropertyOp49
 70
     1
102
RTVSPropertyOp50
 70
     1
102
RTVSPropertyOp51
 70
     0
102
RTVSPropertyOp52
 70
     0
102
RTVSPropertyOp53
 70
     1
102
RTVSPropertyOp54
 70
     1
102
RTVSPropertyOp55
 70
     1
102
RTVSPropertyOp56
 70
     1
102
RTVSPropertyOp57
 70
     1
102
RTVSPropertyOp58
 70
     1
102
RTVSPropertyOp59
 70
     1
102
RTVSPropertyOp60
 70
     1
102
RTVSPropertyOp61
 70
     1
102
RTVSPropertyOp62
 70
     1
  0
XRECORD
  5
1D188
102
{ACAD_REACTORS
330
1D187
102
}
330
1D187
100
AcDbXrecord
280
     1
102
RTVSPost2010Prop28
280
     0
102
RTVSPost2010PropOp28
 70
     1
102
RTVSPost2010Prop29
280
     1
102
RTVSPost2010PropOp29
 70
     1
102
RTVSPost2010Prop30
280
     1
102
RTVSPost2010PropOp30
 70
     1
102
RTVSPost2010Prop31
280
     0
102
RTVSPost2010PropOp31
 70
     1
102
RTVSPost2010Prop32
280
     0
102
RTVSPost2010PropOp32
 70
     1
102
RTVSPost2010Prop33
280
     0
102
RTVSPost2010PropOp33
 70
     1
102
RTVSPost2010Prop34
280
     0
102
RTVSPost2010PropOp34
 70
     1
102
RTVSPost2010Prop35
280
     0
102
RTVSPost2010PropOp35
 70
     1
102
RTVSPost2010Prop36
280
     0
102
RTVSPost2010PropOp36
 70
     1
102
RTVSPost2010Prop37
 90
       50
102
RTVSPost2010PropOp37
 70
     1
102
RTVSPost2010Prop38
140
0.0
102
RTVSPost2010PropOp38
 70
     1
102
RTVSPost2010Prop39
140
1.0
102
RTVSPost2010PropOp39
 70
     1
102
RTVSPost2010Prop40
 90
        0
102
RTVSPost2010PropOp40
 70
     1
102
RTVSPost2010Prop41ColorIndex
 90
       18
102
RTVSPost2010Prop41ColorRGB
 90
        0
102
RTVSPost2010PropOp41
 70
     1
102
RTVSPost2010Prop42
 90
       50
102
RTVSPost2010PropOp42
 70
     1
102
RTVSPost2010Prop43
 90
        3
102
RTVSPost2010PropOp43
 70
     1
102
RTVSPost2010Prop44ColorIndex
 90
        5
102
RTVSPost2010Prop44ColorRGB
 90
      255
102
RTVSPost2010PropOp44
 70
     1
102
RTVSPost2010Prop45
280
     0
102
RTVSPost2010PropOp45
 70
     1
102
RTVSPost2010Prop46
 90
       50
102
RTVSPost2010PropOp46
 70
     1
102
RTVSPost2010Prop47
 90
       50
102
RTVSPost2010PropOp47
 70
     1
102
RTVSPost2010Prop48
 90
       50
102
RTVSPost2010PropOp48
 70
     1
102
RTVSPost2010Prop49
280
     0
102
RTVSPost2010PropOp49
 70
     1
102
RTVSPost2010Prop50
 90
       50
102
RTVSPost2010PropOp50
 70
     1
102
RTVSPost2010Prop51ColorIndex
 90
      256
102
RTVSPost2010Prop51ColorRGB
 90
-16777216
102
RTVSPost2010PropOp51
 70
     0
102
RTVSPost2010Prop52
140
1.0
102
RTVSPost2010PropOp52
 70
     0
102
RTVSPost2010Prop53
 90
        2
102
RTVSPost2010PropOp53
 70
     1
102
RTVSPost2010Prop54
  1
strokes_ogs.tif
102
RTVSPost2010PropOp54
 70
     1
102
RTVSPost2010Prop55
280
     0
102
RTVSPost2010PropOp55
 70
     1
102
RTVSPost2010Prop56
140
1.0
102
RTVSPost2010PropOp56
 70
     1
102
RTVSPost2010Prop57
140
1.0
102
RTVSPost2010PropOp57
 70
     1
102
RTVSPropertyOp0
 70
     1
102
RTVSPropertyOp1
 70
     1
102
RTVSPropertyOp2
 70
     1
102
RTVSPropertyOp3
 70
     1
102
RTVSPropertyOp4
 70
     1
102
RTVSPropertyOp5
 70
     1
102
RTVSPropertyOp6
 70
     1
102
RTVSPropertyOp7
 70
     1
102
RTVSPropertyOp8
 70
     1
102
RTVSPropertyOp9
 70
     1
102
RTVSPropertyOp10
 70
     1
102
RTVSPropertyOp11
 70
     1
102
RTVSPropertyOp12
 70
     1
102
RTVSPropertyOp13
 70
     1
102
RTVSPropertyOp14
 70
     1
102
RTVSPropertyOp15
 70
     1
102
RTVSPropertyOp16
 70
     1
102
RTVSPropertyOp17
 70
     1
102
RTVSPropertyOp18
 70
     1
102
RTVSPropertyOp19
 70
     1
102
RTVSPropertyOp20
 70
     1
102
RTVSPropertyOp21
 70
     1
102
RTVSPropertyOp22
 70
     1
102
RTVSPropertyOp23
 70
     1
102
RTVSPropertyOp24
 70
     1
102
RTVSPropertyOp25
 70
     1
102
RTVSPropertyOp26
 70
     1
102
RTVSPropertyOp27
 70
     1
102
RTVSPropertyOp28
 70
     1
102
RTVSPropertyOp29
 70
     1
102
RTVSPropertyOp30
 70
     1
102
RTVSPropertyOp31
 70
     1
102
RTVSPropertyOp32
 70
     1
102
RTVSPropertyOp33
 70
     1
102
RTVSPropertyOp34
 70
     1
102
RTVSPropertyOp35
 70
     1
102
RTVSPropertyOp36
 70
     1
102
RTVSPropertyOp37
 70
     1
102
RTVSPropertyOp38
 70
     1
102
RTVSPropertyOp39
 70
     1
102
RTVSPropertyOp40
 70
     1
102
RTVSPropertyOp41
 70
     1
102
RTVSPropertyOp42
 70
     1
102
RTVSPropertyOp43
 70
     1
102
RTVSPropertyOp44
 70
     1
102
RTVSPropertyOp45
 70
     1
102
RTVSPropertyOp46
 70
     1
102
RTVSPropertyOp47
 70
     1
102
RTVSPropertyOp48
 70
     1
102
RTVSPropertyOp49
 70
     1
102
RTVSPropertyOp50
 70
     1
102
RTVSPropertyOp51
 70
     0
102
RTVSPropertyOp52
 70
     0
102
RTVSPropertyOp53
 70
     1
102
RTVSPropertyOp54
 70
     1
102
RTVSPropertyOp55
 70
     1
102
RTVSPropertyOp56
 70
     1
102
RTVSPropertyOp57
 70
     1
102
RTVSPropertyOp58
 70
     1
102
RTVSPropertyOp59
 70
     1
102
RTVSPropertyOp60
 70
     1
102
RTVSPropertyOp61
 70
     1
102
RTVSPropertyOp62
 70
     1
  0
XRECORD
  5
1D1A4
102
{ACAD_REACTORS
330
1D1A3
102
}
330
1D1A3
100
AcDbXrecord
280
     1
102
RTVSPost2010Prop28
280
     0
102
RTVSPost2010PropOp28
 70
     1
102
RTVSPost2010Prop29
280
     1
102
RTVSPost2010PropOp29
 70
     1
102
RTVSPost2010Prop30
280
     1
102
RTVSPost2010PropOp30
 70
     1
102
RTVSPost2010Prop31
280
     0
102
RTVSPost2010PropOp31
 70
     1
102
RTVSPost2010Prop32
280
     0
102
RTVSPost2010PropOp32
 70
     1
102
RTVSPost2010Prop33
280
     0
102
RTVSPost2010PropOp33
 70
     1
102
RTVSPost2010Prop34
280
     0
102
RTVSPost2010PropOp34
 70
     1
102
RTVSPost2010Prop35
280
     0
102
RTVSPost2010PropOp35
 70
     1
102
RTVSPost2010Prop36
280
     0
102
RTVSPost2010PropOp36
 70
     1
102
RTVSPost2010Prop37
 90
       50
102
RTVSPost2010PropOp37
 70
     0
102
RTVSPost2010Prop38
140
0.0
102
RTVSPost2010PropOp38
 70
     0
102
RTVSPost2010Prop39
140
1.0
102
RTVSPost2010PropOp39
 70
     0
102
RTVSPost2010Prop40
 90
        0
102
RTVSPost2010PropOp40
 70
     0
102
RTVSPost2010Prop41ColorIndex
 90
       18
102
RTVSPost2010Prop41ColorRGB
 90
        0
102
RTVSPost2010PropOp41
 70
     0
102
RTVSPost2010Prop42
 90
       50
102
RTVSPost2010PropOp42
 70
     0
102
RTVSPost2010Prop43
 90
        3
102
RTVSPost2010PropOp43
 70
     0
102
RTVSPost2010Prop44ColorIndex
 90
        5
102
RTVSPost2010Prop44ColorRGB
 90
      255
102
RTVSPost2010PropOp44
 70
     0
102
RTVSPost2010Prop45
280
     0
102
RTVSPost2010PropOp45
 70
     1
102
RTVSPost2010Prop46
 90
       50
102
RTVSPost2010PropOp46
 70
     0
102
RTVSPost2010Prop47
 90
       50
102
RTVSPost2010PropOp47
 70
     0
102
RTVSPost2010Prop48
 90
       50
102
RTVSPost2010PropOp48
 70
     0
102
RTVSPost2010Prop49
280
     0
102
RTVSPost2010PropOp49
 70
     1
102
RTVSPost2010Prop50
 90
       50
102
RTVSPost2010PropOp50
 70
     0
102
RTVSPost2010Prop51ColorIndex
 90
      256
102
RTVSPost2010Prop51ColorRGB
 90
-16777216
102
RTVSPost2010PropOp51
 70
     0
102
RTVSPost2010Prop52
140
1.0
102
RTVSPost2010PropOp52
 70
     0
102
RTVSPost2010Prop53
 90
        2
102
RTVSPost2010PropOp53
 70
     0
102
RTVSPost2010Prop54
  1
strokes_ogs.tif
102
RTVSPost2010PropOp54
 70
     0
102
RTVSPost2010Prop55
280
     0
102
RTVSPost2010PropOp55
 70
     1
102
RTVSPost2010Prop56
140
1.0
102
RTVSPost2010PropOp56
 70
     0
102
RTVSPost2010Prop57
140
1.0
102
RTVSPost2010PropOp57
 70
     0
102
RTVSPropertyOp0
 70
     0
102
RTVSPropertyOp1
 70
     0
102
RTVSPropertyOp2
 70
     0
102
RTVSPropertyOp3
 70
     0
102
RTVSPropertyOp4
 70
     0
102
RTVSPropertyOp5
 70
     0
102
RTVSPropertyOp6
 70
     0
102
RTVSPropertyOp7
 70
     0
102
RTVSPropertyOp8
 70
     0
102
RTVSPropertyOp9
 70
     0
102
RTVSPropertyOp10
 70
     0
102
RTVSPropertyOp11
 70
     0
102
RTVSPropertyOp12
 70
     0
102
RTVSPropertyOp13
 70
     0
102
RTVSPropertyOp14
 70
     2
102
RTVSPropertyOp15
 70
     0
102
RTVSPropertyOp16
 70
     0
102
RTVSPropertyOp17
 70
     0
102
RTVSPropertyOp18
 70
     0
102
RTVSPropertyOp19
 70
     0
102
RTVSPropertyOp20
 70
     0
102
RTVSPropertyOp21
 70
     0
102
RTVSPropertyOp22
 70
     0
102
RTVSPropertyOp23
 70
     0
102
RTVSPropertyOp24
 70
     0
102
RTVSPropertyOp25
 70
     0
102
RTVSPropertyOp26
 70
     0
102
RTVSPropertyOp27
 70
     0
102
RTVSPropertyOp28
 70
     1
102
RTVSPropertyOp29
 70
     1
102
RTVSPropertyOp30
 70
     1
102
RTVSPropertyOp31
 70
     1
102
RTVSPropertyOp32
 70
     1
102
RTVSPropertyOp33
 70
     1
102
RTVSPropertyOp34
 70
     1
102
RTVSPropertyOp35
 70
     1
102
RTVSPropertyOp36
 70
     1
102
RTVSPropertyOp37
 70
     0
102
RTVSPropertyOp38
 70
     0
102
RTVSPropertyOp39
 70
     0
102
RTVSPropertyOp40
 70
     0
102
RTVSPropertyOp41
 70
     0
102
RTVSPropertyOp42
 70
     0
102
RTVSPropertyOp43
 70
     0
102
RTVSPropertyOp44
 70
     0
102
RTVSPropertyOp45
 70
     1
102
RTVSPropertyOp46
 70
     0
102
RTVSPropertyOp47
 70
     0
102
RTVSPropertyOp48
 70
     0
102
RTVSPropertyOp49
 70
     1
102
RTVSPropertyOp50
 70
     0
102
RTVSPropertyOp51
 70
     0
102
RTVSPropertyOp52
 70
     0
102
RTVSPropertyOp53
 70
     0
102
RTVSPropertyOp54
 70
     0
102
RTVSPropertyOp55
 70
     1
102
RTVSPropertyOp56
 70
     0
102
RTVSPropertyOp57
 70
     0
102
RTVSPropertyOp58
 70
     0
102
RTVSPropertyOp59
 70
     0
102
RTVSPropertyOp60
 70
     0
102
RTVSPropertyOp61
 70
     0
102
RTVSPropertyOp62
 70
     0
  0
XRECORD
  5
1D194
102
{ACAD_REACTORS
330
1D193
102
}
330
1D193
100
AcDbXrecord
280
     1
102
RTVSPost2010Prop28
280
     0
102
RTVSPost2010PropOp28
 70
     1
102
RTVSPost2010Prop29
280
     1
102
RTVSPost2010PropOp29
 70
     1
102
RTVSPost2010Prop30
280
     1
102
RTVSPost2010PropOp30
 70
     1
102
RTVSPost2010Prop31
280
     0
102
RTVSPost2010PropOp31
 70
     1
102
RTVSPost2010Prop32
280
     0
102
RTVSPost2010PropOp32
 70
     1
102
RTVSPost2010Prop33
280
     0
102
RTVSPost2010PropOp33
 70
     1
102
RTVSPost2010Prop34
280
     0
102
RTVSPost2010PropOp34
 70
     1
102
RTVSPost2010Prop35
280
     0
102
RTVSPost2010PropOp35
 70
     1
102
RTVSPost2010Prop36
280
     0
102
RTVSPost2010PropOp36
 70
     1
102
RTVSPost2010Prop37
 90
       50
102
RTVSPost2010PropOp37
 70
     1
102
RTVSPost2010Prop38
140
0.0
102
RTVSPost2010PropOp38
 70
     1
102
RTVSPost2010Prop39
140
1.0
102
RTVSPost2010PropOp39
 70
     1
102
RTVSPost2010Prop40
 90
        0
102
RTVSPost2010PropOp40
 70
     1
102
RTVSPost2010Prop41ColorIndex
 90
       18
102
RTVSPost2010Prop41ColorRGB
 90
        0
102
RTVSPost2010PropOp41
 70
     1
102
RTVSPost2010Prop42
 90
       50
102
RTVSPost2010PropOp42
 70
     1
102
RTVSPost2010Prop43
 90
        3
102
RTVSPost2010PropOp43
 70
     1
102
RTVSPost2010Prop44ColorIndex
 90
        5
102
RTVSPost2010Prop44ColorRGB
 90
      255
102
RTVSPost2010PropOp44
 70
     1
102
RTVSPost2010Prop45
280
     0
102
RTVSPost2010PropOp45
 70
     1
102
RTVSPost2010Prop46
 90
       50
102
RTVSPost2010PropOp46
 70
     1
102
RTVSPost2010Prop47
 90
       50
102
RTVSPost2010PropOp47
 70
     1
102
RTVSPost2010Prop48
 90
       50
102
RTVSPost2010PropOp48
 70
     1
102
RTVSPost2010Prop49
280
     0
102
RTVSPost2010PropOp49
 70
     1
102
RTVSPost2010Prop50
 90
       50
102
RTVSPost2010PropOp50
 70
     1
102
RTVSPost2010Prop51ColorIndex
 90
      256
102
RTVSPost2010Prop51ColorRGB
 90
-16777216
102
RTVSPost2010PropOp51
 70
     0
102
RTVSPost2010Prop52
140
1.0
102
RTVSPost2010PropOp52
 70
     0
102
RTVSPost2010Prop53
 90
        2
102
RTVSPost2010PropOp53
 70
     1
102
RTVSPost2010Prop54
  1
strokes_ogs.tif
102
RTVSPost2010PropOp54
 70
     1
102
RTVSPost2010Prop55
280
     0
102
RTVSPost2010PropOp55
 70
     1
102
RTVSPost2010Prop56
140
1.0
102
RTVSPost2010PropOp56
 70
     1
102
RTVSPost2010Prop57
140
1.0
102
RTVSPost2010PropOp57
 70
     1
102
RTVSPropertyOp0
 70
     1
102
RTVSPropertyOp1
 70
     1
102
RTVSPropertyOp2
 70
     1
102
RTVSPropertyOp3
 70
     1
102
RTVSPropertyOp4
 70
     1
102
RTVSPropertyOp5
 70
     1
102
RTVSPropertyOp6
 70
     1
102
RTVSPropertyOp7
 70
     1
102
RTVSPropertyOp8
 70
     1
102
RTVSPropertyOp9
 70
     1
102
RTVSPropertyOp10
 70
     1
102
RTVSPropertyOp11
 70
     1
102
RTVSPropertyOp12
 70
     1
102
RTVSPropertyOp13
 70
     1
102
RTVSPropertyOp14
 70
     1
102
RTVSPropertyOp15
 70
     1
102
RTVSPropertyOp16
 70
     1
102
RTVSPropertyOp17
 70
     1
102
RTVSPropertyOp18
 70
     1
102
RTVSPropertyOp19
 70
     1
102
RTVSPropertyOp20
 70
     1
102
RTVSPropertyOp21
 70
     1
102
RTVSPropertyOp22
 70
     1
102
RTVSPropertyOp23
 70
     1
102
RTVSPropertyOp24
 70
     1
102
RTVSPropertyOp25
 70
     1
102
RTVSPropertyOp26
 70
     1
102
RTVSPropertyOp27
 70
     1
102
RTVSPropertyOp28
 70
     1
102
RTVSPropertyOp29
 70
     1
102
RTVSPropertyOp30
 70
     1
102
RTVSPropertyOp31
 70
     1
102
RTVSPropertyOp32
 70
     1
102
RTVSPropertyOp33
 70
     1
102
RTVSPropertyOp34
 70
     1
102
RTVSPropertyOp35
 70
     1
102
RTVSPropertyOp36
 70
     1
102
RTVSPropertyOp37
 70
     1
102
RTVSPropertyOp38
 70
     1
102
RTVSPropertyOp39
 70
     1
102
RTVSPropertyOp40
 70
     1
102
RTVSPropertyOp41
 70
     1
102
RTVSPropertyOp42
 70
     1
102
RTVSPropertyOp43
 70
     1
102
RTVSPropertyOp44
 70
     1
102
RTVSPropertyOp45
 70
     1
102
RTVSPropertyOp46
 70
     1
102
RTVSPropertyOp47
 70
     1
102
RTVSPropertyOp48
 70
     1
102
RTVSPropertyOp49
 70
     1
102
RTVSPropertyOp50
 70
     1
102
RTVSPropertyOp51
 70
     0
102
RTVSPropertyOp52
 70
     0
102
RTVSPropertyOp53
 70
     1
102
RTVSPropertyOp54
 70
     1
102
RTVSPropertyOp55
 70
     1
102
RTVSPropertyOp56
 70
     1
102
RTVSPropertyOp57
 70
     1
102
RTVSPropertyOp58
 70
     1
102
RTVSPropertyOp59
 70
     1
102
RTVSPropertyOp60
 70
     1
102
RTVSPropertyOp61
 70
     1
102
RTVSPropertyOp62
 70
     1
  0
XRECORD
  5
1D1A6
102
{ACAD_REACTORS
330
1D1A5
102
}
330
1D1A5
100
AcDbXrecord
280
     1
102
RTVSPost2010Prop28
280
     0
102
RTVSPost2010PropOp28
 70
     1
102
RTVSPost2010Prop29
280
     1
102
RTVSPost2010PropOp29
 70
     1
102
RTVSPost2010Prop30
280
     1
102
RTVSPost2010PropOp30
 70
     1
102
RTVSPost2010Prop31
280
     0
102
RTVSPost2010PropOp31
 70
     1
102
RTVSPost2010Prop32
280
     0
102
RTVSPost2010PropOp32
 70
     1
102
RTVSPost2010Prop33
280
     0
102
RTVSPost2010PropOp33
 70
     1
102
RTVSPost2010Prop34
280
     0
102
RTVSPost2010PropOp34
 70
     1
102
RTVSPost2010Prop35
280
     0
102
RTVSPost2010PropOp35
 70
     1
102
RTVSPost2010Prop36
280
     0
102
RTVSPost2010PropOp36
 70
     1
102
RTVSPost2010Prop37
 90
       50
102
RTVSPost2010PropOp37
 70
     0
102
RTVSPost2010Prop38
140
0.0
102
RTVSPost2010PropOp38
 70
     0
102
RTVSPost2010Prop39
140
1.0
102
RTVSPost2010PropOp39
 70
     0
102
RTVSPost2010Prop40
 90
        0
102
RTVSPost2010PropOp40
 70
     0
102
RTVSPost2010Prop41ColorIndex
 90
       18
102
RTVSPost2010Prop41ColorRGB
 90
        0
102
RTVSPost2010PropOp41
 70
     0
102
RTVSPost2010Prop42
 90
       50
102
RTVSPost2010PropOp42
 70
     0
102
RTVSPost2010Prop43
 90
        3
102
RTVSPost2010PropOp43
 70
     0
102
RTVSPost2010Prop44ColorIndex
 90
        5
102
RTVSPost2010Prop44ColorRGB
 90
      255
102
RTVSPost2010PropOp44
 70
     0
102
RTVSPost2010Prop45
280
     0
102
RTVSPost2010PropOp45
 70
     1
102
RTVSPost2010Prop46
 90
       50
102
RTVSPost2010PropOp46
 70
     0
102
RTVSPost2010Prop47
 90
       50
102
RTVSPost2010PropOp47
 70
     0
102
RTVSPost2010Prop48
 90
       50
102
RTVSPost2010PropOp48
 70
     0
102
RTVSPost2010Prop49
280
     0
102
RTVSPost2010PropOp49
 70
     1
102
RTVSPost2010Prop50
 90
       50
102
RTVSPost2010PropOp50
 70
     0
102
RTVSPost2010Prop51ColorIndex
 90
      256
102
RTVSPost2010Prop51ColorRGB
 90
-16777216
102
RTVSPost2010PropOp51
 70
     0
102
RTVSPost2010Prop52
140
1.0
102
RTVSPost2010PropOp52
 70
     0
102
RTVSPost2010Prop53
 90
        2
102
RTVSPost2010PropOp53
 70
     0
102
RTVSPost2010Prop54
  1
strokes_ogs.tif
102
RTVSPost2010PropOp54
 70
     0
102
RTVSPost2010Prop55
280
     0
102
RTVSPost2010PropOp55
 70
     1
102
RTVSPost2010Prop56
140
1.0
102
RTVSPost2010PropOp56
 70
     0
102
RTVSPost2010Prop57
140
1.0
102
RTVSPost2010PropOp57
 70
     0
102
RTVSPropertyOp0
 70
     0
102
RTVSPropertyOp1
 70
     0
102
RTVSPropertyOp2
 70
     0
102
RTVSPropertyOp3
 70
     0
102
RTVSPropertyOp4
 70
     0
102
RTVSPropertyOp5
 70
     0
102
RTVSPropertyOp6
 70
     0
102
RTVSPropertyOp7
 70
     0
102
RTVSPropertyOp8
 70
     0
102
RTVSPropertyOp9
 70
     0
102
RTVSPropertyOp10
 70
     0
102
RTVSPropertyOp11
 70
     0
102
RTVSPropertyOp12
 70
     0
102
RTVSPropertyOp13
 70
     0
102
RTVSPropertyOp14
 70
     2
102
RTVSPropertyOp15
 70
     0
102
RTVSPropertyOp16
 70
     0
102
RTVSPropertyOp17
 70
     0
102
RTVSPropertyOp18
 70
     0
102
RTVSPropertyOp19
 70
     0
102
RTVSPropertyOp20
 70
     0
102
RTVSPropertyOp21
 70
     0
102
RTVSPropertyOp22
 70
     0
102
RTVSPropertyOp23
 70
     0
102
RTVSPropertyOp24
 70
     0
102
RTVSPropertyOp25
 70
     0
102
RTVSPropertyOp26
 70
     0
102
RTVSPropertyOp27
 70
     0
102
RTVSPropertyOp28
 70
     1
102
RTVSPropertyOp29
 70
     1
102
RTVSPropertyOp30
 70
     1
102
RTVSPropertyOp31
 70
     1
102
RTVSPropertyOp32
 70
     1
102
RTVSPropertyOp33
 70
     1
102
RTVSPropertyOp34
 70
     1
102
RTVSPropertyOp35
 70
     1
102
RTVSPropertyOp36
 70
     1
102
RTVSPropertyOp37
 70
     0
102
RTVSPropertyOp38
 70
     0
102
RTVSPropertyOp39
 70
     0
102
RTVSPropertyOp40
 70
     0
102
RTVSPropertyOp41
 70
     0
102
RTVSPropertyOp42
 70
     0
102
RTVSPropertyOp43
 70
     0
102
RTVSPropertyOp44
 70
     0
102
RTVSPropertyOp45
 70
     1
102
RTVSPropertyOp46
 70
     0
102
RTVSPropertyOp47
 70
     0
102
RTVSPropertyOp48
 70
     0
102
RTVSPropertyOp49
 70
     1
102
RTVSPropertyOp50
 70
     0
102
RTVSPropertyOp51
 70
     0
102
RTVSPropertyOp52
 70
     0
102
RTVSPropertyOp53
 70
     0
102
RTVSPropertyOp54
 70
     0
102
RTVSPropertyOp55
 70
     1
102
RTVSPropertyOp56
 70
     0
102
RTVSPropertyOp57
 70
     0
102
RTVSPropertyOp58
 70
     0
102
RTVSPropertyOp59
 70
     0
102
RTVSPropertyOp60
 70
     0
102
RTVSPropertyOp61
 70
     0
102
RTVSPropertyOp62
 70
     0
  0
XRECORD
  5
1D18C
102
{ACAD_REACTORS
330
1D18B
102
}
330
1D18B
100
AcDbXrecord
280
     1
102
RTVSPost2010Prop28
280
     0
102
RTVSPost2010PropOp28
 70
     1
102
RTVSPost2010Prop29
280
     1
102
RTVSPost2010PropOp29
 70
     1
102
RTVSPost2010Prop30
280
     1
102
RTVSPost2010PropOp30
 70
     1
102
RTVSPost2010Prop31
280
     0
102
RTVSPost2010PropOp31
 70
     1
102
RTVSPost2010Prop32
280
     0
102
RTVSPost2010PropOp32
 70
     1
102
RTVSPost2010Prop33
280
     0
102
RTVSPost2010PropOp33
 70
     1
102
RTVSPost2010Prop34
280
     0
102
RTVSPost2010PropOp34
 70
     1
102
RTVSPost2010Prop35
280
     0
102
RTVSPost2010PropOp35
 70
     1
102
RTVSPost2010Prop36
280
     0
102
RTVSPost2010PropOp36
 70
     1
102
RTVSPost2010Prop37
 90
       50
102
RTVSPost2010PropOp37
 70
     1
102
RTVSPost2010Prop38
140
0.0
102
RTVSPost2010PropOp38
 70
     1
102
RTVSPost2010Prop39
140
1.0
102
RTVSPost2010PropOp39
 70
     1
102
RTVSPost2010Prop40
 90
        0
102
RTVSPost2010PropOp40
 70
     1
102
RTVSPost2010Prop41ColorIndex
 90
       18
102
RTVSPost2010Prop41ColorRGB
 90
        0
102
RTVSPost2010PropOp41
 70
     1
102
RTVSPost2010Prop42
 90
       50
102
RTVSPost2010PropOp42
 70
     1
102
RTVSPost2010Prop43
 90
        3
102
RTVSPost2010PropOp43
 70
     1
102
RTVSPost2010Prop44ColorIndex
 90
        5
102
RTVSPost2010Prop44ColorRGB
 90
      255
102
RTVSPost2010PropOp44
 70
     1
102
RTVSPost2010Prop45
280
     0
102
RTVSPost2010PropOp45
 70
     1
102
RTVSPost2010Prop46
 90
       50
102
RTVSPost2010PropOp46
 70
     1
102
RTVSPost2010Prop47
 90
       50
102
RTVSPost2010PropOp47
 70
     1
102
RTVSPost2010Prop48
 90
       50
102
RTVSPost2010PropOp48
 70
     1
102
RTVSPost2010Prop49
280
     0
102
RTVSPost2010PropOp49
 70
     1
102
RTVSPost2010Prop50
 90
       50
102
RTVSPost2010PropOp50
 70
     1
102
RTVSPost2010Prop51ColorIndex
 90
      256
102
RTVSPost2010Prop51ColorRGB
 90
-16777216
102
RTVSPost2010PropOp51
 70
     0
102
RTVSPost2010Prop52
140
1.0
102
RTVSPost2010PropOp52
 70
     0
102
RTVSPost2010Prop53
 90
        2
102
RTVSPost2010PropOp53
 70
     1
102
RTVSPost2010Prop54
  1
strokes_ogs.tif
102
RTVSPost2010PropOp54
 70
     1
102
RTVSPost2010Prop55
280
     0
102
RTVSPost2010PropOp55
 70
     1
102
RTVSPost2010Prop56
140
1.0
102
RTVSPost2010PropOp56
 70
     1
102
RTVSPost2010Prop57
140
1.0
102
RTVSPost2010PropOp57
 70
     1
102
RTVSPropertyOp0
 70
     1
102
RTVSPropertyOp1
 70
     1
102
RTVSPropertyOp2
 70
     1
102
RTVSPropertyOp3
 70
     1
102
RTVSPropertyOp4
 70
     1
102
RTVSPropertyOp5
 70
     1
102
RTVSPropertyOp6
 70
     1
102
RTVSPropertyOp7
 70
     1
102
RTVSPropertyOp8
 70
     1
102
RTVSPropertyOp9
 70
     1
102
RTVSPropertyOp10
 70
     1
102
RTVSPropertyOp11
 70
     1
102
RTVSPropertyOp12
 70
     1
102
RTVSPropertyOp13
 70
     1
102
RTVSPropertyOp14
 70
     1
102
RTVSPropertyOp15
 70
     1
102
RTVSPropertyOp16
 70
     1
102
RTVSPropertyOp17
 70
     1
102
RTVSPropertyOp18
 70
     1
102
RTVSPropertyOp19
 70
     1
102
RTVSPropertyOp20
 70
     1
102
RTVSPropertyOp21
 70
     1
102
RTVSPropertyOp22
 70
     1
102
RTVSPropertyOp23
 70
     1
102
RTVSPropertyOp24
 70
     1
102
RTVSPropertyOp25
 70
     1
102
RTVSPropertyOp26
 70
     1
102
RTVSPropertyOp27
 70
     1
102
RTVSPropertyOp28
 70
     1
102
RTVSPropertyOp29
 70
     1
102
RTVSPropertyOp30
 70
     1
102
RTVSPropertyOp31
 70
     1
102
RTVSPropertyOp32
 70
     1
102
RTVSPropertyOp33
 70
     1
102
RTVSPropertyOp34
 70
     1
102
RTVSPropertyOp35
 70
     1
102
RTVSPropertyOp36
 70
     1
102
RTVSPropertyOp37
 70
     1
102
RTVSPropertyOp38
 70
     1
102
RTVSPropertyOp39
 70
     1
102
RTVSPropertyOp40
 70
     1
102
RTVSPropertyOp41
 70
     1
102
RTVSPropertyOp42
 70
     1
102
RTVSPropertyOp43
 70
     1
102
RTVSPropertyOp44
 70
     1
102
RTVSPropertyOp45
 70
     1
102
RTVSPropertyOp46
 70
     1
102
RTVSPropertyOp47
 70
     1
102
RTVSPropertyOp48
 70
     1
102
RTVSPropertyOp49
 70
     1
102
RTVSPropertyOp50
 70
     1
102
RTVSPropertyOp51
 70
     0
102
RTVSPropertyOp52
 70
     0
102
RTVSPropertyOp53
 70
     1
102
RTVSPropertyOp54
 70
     1
102
RTVSPropertyOp55
 70
     1
102
RTVSPropertyOp56
 70
     1
102
RTVSPropertyOp57
 70
     1
102
RTVSPropertyOp58
 70
     1
102
RTVSPropertyOp59
 70
     1
102
RTVSPropertyOp60
 70
     1
102
RTVSPropertyOp61
 70
     1
102
RTVSPropertyOp62
 70
     1
  0
XRECORD
  5
1D1A2
102
{ACAD_REACTORS
330
1D1A1
102
}
330
1D1A1
100
AcDbXrecord
280
     1
102
RTVSPost2010Prop28
280
     0
102
RTVSPost2010PropOp28
 70
     1
102
RTVSPost2010Prop29
280
     1
102
RTVSPost2010PropOp29
 70
     1
102
RTVSPost2010Prop30
280
     1
102
RTVSPost2010PropOp30
 70
     1
102
RTVSPost2010Prop31
280
     0
102
RTVSPost2010PropOp31
 70
     1
102
RTVSPost2010Prop32
280
     0
102
RTVSPost2010PropOp32
 70
     1
102
RTVSPost2010Prop33
280
     0
102
RTVSPost2010PropOp33
 70
     1
102
RTVSPost2010Prop34
280
     0
102
RTVSPost2010PropOp34
 70
     1
102
RTVSPost2010Prop35
280
     0
102
RTVSPost2010PropOp35
 70
     1
102
RTVSPost2010Prop36
280
     0
102
RTVSPost2010PropOp36
 70
     1
102
RTVSPost2010Prop37
 90
       50
102
RTVSPost2010PropOp37
 70
     1
102
RTVSPost2010Prop38
140
0.0
102
RTVSPost2010PropOp38
 70
     1
102
RTVSPost2010Prop39
140
1.0
102
RTVSPost2010PropOp39
 70
     1
102
RTVSPost2010Prop40
 90
        0
102
RTVSPost2010PropOp40
 70
     1
102
RTVSPost2010Prop41ColorIndex
 90
       18
102
RTVSPost2010Prop41ColorRGB
 90
        0
102
RTVSPost2010PropOp41
 70
     1
102
RTVSPost2010Prop42
 90
       50
102
RTVSPost2010PropOp42
 70
     1
102
RTVSPost2010Prop43
 90
        3
102
RTVSPost2010PropOp43
 70
     1
102
RTVSPost2010Prop44ColorIndex
 90
        5
102
RTVSPost2010Prop44ColorRGB
 90
      255
102
RTVSPost2010PropOp44
 70
     1
102
RTVSPost2010Prop45
280
     0
102
RTVSPost2010PropOp45
 70
     1
102
RTVSPost2010Prop46
 90
       50
102
RTVSPost2010PropOp46
 70
     1
102
RTVSPost2010Prop47
 90
       50
102
RTVSPost2010PropOp47
 70
     1
102
RTVSPost2010Prop48
 90
       50
102
RTVSPost2010PropOp48
 70
     1
102
RTVSPost2010Prop49
280
     0
102
RTVSPost2010PropOp49
 70
     1
102
RTVSPost2010Prop50
 90
       50
102
RTVSPost2010PropOp50
 70
     1
102
RTVSPost2010Prop51ColorIndex
 90
      256
102
RTVSPost2010Prop51ColorRGB
 90
-16777216
102
RTVSPost2010PropOp51
 70
     0
102
RTVSPost2010Prop52
140
1.0
102
RTVSPost2010PropOp52
 70
     0
102
RTVSPost2010Prop53
 90
        2
102
RTVSPost2010PropOp53
 70
     1
102
RTVSPost2010Prop54
  1
strokes_ogs.tif
102
RTVSPost2010PropOp54
 70
     1
102
RTVSPost2010Prop55
280
     0
102
RTVSPost2010PropOp55
 70
     1
102
RTVSPost2010Prop56
140
1.0
102
RTVSPost2010PropOp56
 70
     1
102
RTVSPost2010Prop57
140
1.0
102
RTVSPost2010PropOp57
 70
     1
102
RTVSPropertyOp0
 70
     1
102
RTVSPropertyOp1
 70
     1
102
RTVSPropertyOp2
 70
     1
102
RTVSPropertyOp3
 70
     1
102
RTVSPropertyOp4
 70
     1
102
RTVSPropertyOp5
 70
     1
102
RTVSPropertyOp6
 70
     1
102
RTVSPropertyOp7
 70
     1
102
RTVSPropertyOp8
 70
     1
102
RTVSPropertyOp9
 70
     1
102
RTVSPropertyOp10
 70
     1
102
RTVSPropertyOp11
 70
     1
102
RTVSPropertyOp12
 70
     1
102
RTVSPropertyOp13
 70
     1
102
RTVSPropertyOp14
 70
     1
102
RTVSPropertyOp15
 70
     1
102
RTVSPropertyOp16
 70
     1
102
RTVSPropertyOp17
 70
     1
102
RTVSPropertyOp18
 70
     1
102
RTVSPropertyOp19
 70
     1
102
RTVSPropertyOp20
 70
     1
102
RTVSPropertyOp21
 70
     1
102
RTVSPropertyOp22
 70
     1
102
RTVSPropertyOp23
 70
     1
102
RTVSPropertyOp24
 70
     1
102
RTVSPropertyOp25
 70
     1
102
RTVSPropertyOp26
 70
     1
102
RTVSPropertyOp27
 70
     1
102
RTVSPropertyOp28
 70
     1
102
RTVSPropertyOp29
 70
     1
102
RTVSPropertyOp30
 70
     1
102
RTVSPropertyOp31
 70
     1
102
RTVSPropertyOp32
 70
     1
102
RTVSPropertyOp33
 70
     1
102
RTVSPropertyOp34
 70
     1
102
RTVSPropertyOp35
 70
     1
102
RTVSPropertyOp36
 70
     1
102
RTVSPropertyOp37
 70
     1
102
RTVSPropertyOp38
 70
     1
102
RTVSPropertyOp39
 70
     1
102
RTVSPropertyOp40
 70
     1
102
RTVSPropertyOp41
 70
     1
102
RTVSPropertyOp42
 70
     1
102
RTVSPropertyOp43
 70
     1
102
RTVSPropertyOp44
 70
     1
102
RTVSPropertyOp45
 70
     1
102
RTVSPropertyOp46
 70
     1
102
RTVSPropertyOp47
 70
     1
102
RTVSPropertyOp48
 70
     1
102
RTVSPropertyOp49
 70
     1
102
RTVSPropertyOp50
 70
     1
102
RTVSPropertyOp51
 70
     0
102
RTVSPropertyOp52
 70
     0
102
RTVSPropertyOp53
 70
     1
102
RTVSPropertyOp54
 70
     1
102
RTVSPropertyOp55
 70
     1
102
RTVSPropertyOp56
 70
     1
102
RTVSPropertyOp57
 70
     1
102
RTVSPropertyOp58
 70
     1
102
RTVSPropertyOp59
 70
     1
102
RTVSPropertyOp60
 70
     1
102
RTVSPropertyOp61
 70
     1
102
RTVSPropertyOp62
 70
     1
  0
XRECORD
  5
1D1A0
102
{ACAD_REACTORS
330
1D19F
102
}
330
1D19F
100
AcDbXrecord
280
     1
102
RTVSPost2010Prop28
280
     0
102
RTVSPost2010PropOp28
 70
     1
102
RTVSPost2010Prop29
280
     1
102
RTVSPost2010PropOp29
 70
     1
102
RTVSPost2010Prop30
280
     1
102
RTVSPost2010PropOp30
 70
     1
102
RTVSPost2010Prop31
280
     0
102
RTVSPost2010PropOp31
 70
     1
102
RTVSPost2010Prop32
280
     0
102
RTVSPost2010PropOp32
 70
     1
102
RTVSPost2010Prop33
280
     0
102
RTVSPost2010PropOp33
 70
     1
102
RTVSPost2010Prop34
280
     0
102
RTVSPost2010PropOp34
 70
     1
102
RTVSPost2010Prop35
280
     0
102
RTVSPost2010PropOp35
 70
     1
102
RTVSPost2010Prop36
280
     0
102
RTVSPost2010PropOp36
 70
     1
102
RTVSPost2010Prop37
 90
       50
102
RTVSPost2010PropOp37
 70
     1
102
RTVSPost2010Prop38
140
0.0
102
RTVSPost2010PropOp38
 70
     1
102
RTVSPost2010Prop39
140
1.0
102
RTVSPost2010PropOp39
 70
     1
102
RTVSPost2010Prop40
 90
        0
102
RTVSPost2010PropOp40
 70
     1
102
RTVSPost2010Prop41ColorIndex
 90
       18
102
RTVSPost2010Prop41ColorRGB
 90
        0
102
RTVSPost2010PropOp41
 70
     1
102
RTVSPost2010Prop42
 90
       50
102
RTVSPost2010PropOp42
 70
     1
102
RTVSPost2010Prop43
 90
        3
102
RTVSPost2010PropOp43
 70
     1
102
RTVSPost2010Prop44ColorIndex
 90
        5
102
RTVSPost2010Prop44ColorRGB
 90
      255
102
RTVSPost2010PropOp44
 70
     1
102
RTVSPost2010Prop45
280
     0
102
RTVSPost2010PropOp45
 70
     1
102
RTVSPost2010Prop46
 90
       50
102
RTVSPost2010PropOp46
 70
     1
102
RTVSPost2010Prop47
 90
       50
102
RTVSPost2010PropOp47
 70
     1
102
RTVSPost2010Prop48
 90
       50
102
RTVSPost2010PropOp48
 70
     1
102
RTVSPost2010Prop49
280
     0
102
RTVSPost2010PropOp49
 70
     1
102
RTVSPost2010Prop50
 90
       50
102
RTVSPost2010PropOp50
 70
     1
102
RTVSPost2010Prop51ColorIndex
 90
      256
102
RTVSPost2010Prop51ColorRGB
 90
-16777216
102
RTVSPost2010PropOp51
 70
     0
102
RTVSPost2010Prop52
140
1.0
102
RTVSPost2010PropOp52
 70
     0
102
RTVSPost2010Prop53
 90
        2
102
RTVSPost2010PropOp53
 70
     1
102
RTVSPost2010Prop54
  1
strokes_ogs.tif
102
RTVSPost2010PropOp54
 70
     1
102
RTVSPost2010Prop55
280
     0
102
RTVSPost2010PropOp55
 70
     1
102
RTVSPost2010Prop56
140
1.0
102
RTVSPost2010PropOp56
 70
     1
102
RTVSPost2010Prop57
140
1.0
102
RTVSPost2010PropOp57
 70
     1
102
RTVSPropertyOp0
 70
     1
102
RTVSPropertyOp1
 70
     1
102
RTVSPropertyOp2
 70
     1
102
RTVSPropertyOp3
 70
     1
102
RTVSPropertyOp4
 70
     1
102
RTVSPropertyOp5
 70
     1
102
RTVSPropertyOp6
 70
     1
102
RTVSPropertyOp7
 70
     1
102
RTVSPropertyOp8
 70
     1
102
RTVSPropertyOp9
 70
     1
102
RTVSPropertyOp10
 70
     1
102
RTVSPropertyOp11
 70
     1
102
RTVSPropertyOp12
 70
     1
102
RTVSPropertyOp13
 70
     1
102
RTVSPropertyOp14
 70
     1
102
RTVSPropertyOp15
 70
     1
102
RTVSPropertyOp16
 70
     1
102
RTVSPropertyOp17
 70
     1
102
RTVSPropertyOp18
 70
     1
102
RTVSPropertyOp19
 70
     1
102
RTVSPropertyOp20
 70
     1
102
RTVSPropertyOp21
 70
     1
102
RTVSPropertyOp22
 70
     1
102
RTVSPropertyOp23
 70
     1
102
RTVSPropertyOp24
 70
     1
102
RTVSPropertyOp25
 70
     1
102
RTVSPropertyOp26
 70
     1
102
RTVSPropertyOp27
 70
     1
102
RTVSPropertyOp28
 70
     1
102
RTVSPropertyOp29
 70
     1
102
RTVSPropertyOp30
 70
     1
102
RTVSPropertyOp31
 70
     1
102
RTVSPropertyOp32
 70
     1
102
RTVSPropertyOp33
 70
     1
102
RTVSPropertyOp34
 70
     1
102
RTVSPropertyOp35
 70
     1
102
RTVSPropertyOp36
 70
     1
102
RTVSPropertyOp37
 70
     1
102
RTVSPropertyOp38
 70
     1
102
RTVSPropertyOp39
 70
     1
102
RTVSPropertyOp40
 70
     1
102
RTVSPropertyOp41
 70
     1
102
RTVSPropertyOp42
 70
     1
102
RTVSPropertyOp43
 70
     1
102
RTVSPropertyOp44
 70
     1
102
RTVSPropertyOp45
 70
     1
102
RTVSPropertyOp46
 70
     1
102
RTVSPropertyOp47
 70
     1
102
RTVSPropertyOp48
 70
     1
102
RTVSPropertyOp49
 70
     1
102
RTVSPropertyOp50
 70
     1
102
RTVSPropertyOp51
 70
     0
102
RTVSPropertyOp52
 70
     0
102
RTVSPropertyOp53
 70
     1
102
RTVSPropertyOp54
 70
     1
102
RTVSPropertyOp55
 70
     1
102
RTVSPropertyOp56
 70
     1
102
RTVSPropertyOp57
 70
     1
102
RTVSPropertyOp58
 70
     1
102
RTVSPropertyOp59
 70
     1
102
RTVSPropertyOp60
 70
     1
102
RTVSPropertyOp61
 70
     1
102
RTVSPropertyOp62
 70
     1
  0
XRECORD
  5
1D19A
102
{ACAD_REACTORS
330
1D199
102
}
330
1D199
100
AcDbXrecord
280
     1
102
RTVSPost2010Prop28
280
     0
102
RTVSPost2010PropOp28
 70
     1
102
RTVSPost2010Prop29
280
     1
102
RTVSPost2010PropOp29
 70
     1
102
RTVSPost2010Prop30
280
     1
102
RTVSPost2010PropOp30
 70
     1
102
RTVSPost2010Prop31
280
     0
102
RTVSPost2010PropOp31
 70
     1
102
RTVSPost2010Prop32
280
     0
102
RTVSPost2010PropOp32
 70
     1
102
RTVSPost2010Prop33
280
     0
102
RTVSPost2010PropOp33
 70
     1
102
RTVSPost2010Prop34
280
     0
102
RTVSPost2010PropOp34
 70
     1
102
RTVSPost2010Prop35
280
     0
102
RTVSPost2010PropOp35
 70
     1
102
RTVSPost2010Prop36
280
     0
102
RTVSPost2010PropOp36
 70
     1
102
RTVSPost2010Prop37
 90
       50
102
RTVSPost2010PropOp37
 70
     1
102
RTVSPost2010Prop38
140
0.0
102
RTVSPost2010PropOp38
 70
     1
102
RTVSPost2010Prop39
140
1.0
102
RTVSPost2010PropOp39
 70
     1
102
RTVSPost2010Prop40
 90
        0
102
RTVSPost2010PropOp40
 70
     1
102
RTVSPost2010Prop41ColorIndex
 90
       18
102
RTVSPost2010Prop41ColorRGB
 90
        0
102
RTVSPost2010PropOp41
 70
     1
102
RTVSPost2010Prop42
 90
       50
102
RTVSPost2010PropOp42
 70
     1
102
RTVSPost2010Prop43
 90
        3
102
RTVSPost2010PropOp43
 70
     1
102
RTVSPost2010Prop44ColorIndex
 90
        5
102
RTVSPost2010Prop44ColorRGB
 90
      255
102
RTVSPost2010PropOp44
 70
     1
102
RTVSPost2010Prop45
280
     0
102
RTVSPost2010PropOp45
 70
     1
102
RTVSPost2010Prop46
 90
       50
102
RTVSPost2010PropOp46
 70
     1
102
RTVSPost2010Prop47
 90
       50
102
RTVSPost2010PropOp47
 70
     1
102
RTVSPost2010Prop48
 90
       50
102
RTVSPost2010PropOp48
 70
     1
102
RTVSPost2010Prop49
280
     0
102
RTVSPost2010PropOp49
 70
     1
102
RTVSPost2010Prop50
 90
       50
102
RTVSPost2010PropOp50
 70
     1
102
RTVSPost2010Prop51ColorIndex
 90
      256
102
RTVSPost2010Prop51ColorRGB
 90
-16777216
102
RTVSPost2010PropOp51
 70
     0
102
RTVSPost2010Prop52
140
1.0
102
RTVSPost2010PropOp52
 70
     0
102
RTVSPost2010Prop53
 90
        2
102
RTVSPost2010PropOp53
 70
     1
102
RTVSPost2010Prop54
  1
strokes_ogs.tif
102
RTVSPost2010PropOp54
 70
     1
102
RTVSPost2010Prop55
280
     0
102
RTVSPost2010PropOp55
 70
     1
102
RTVSPost2010Prop56
140
1.0
102
RTVSPost2010PropOp56
 70
     1
102
RTVSPost2010Prop57
140
1.0
102
RTVSPost2010PropOp57
 70
     1
102
RTVSPropertyOp0
 70
     1
102
RTVSPropertyOp1
 70
     1
102
RTVSPropertyOp2
 70
     1
102
RTVSPropertyOp3
 70
     1
102
RTVSPropertyOp4
 70
     1
102
RTVSPropertyOp5
 70
     1
102
RTVSPropertyOp6
 70
     1
102
RTVSPropertyOp7
 70
     1
102
RTVSPropertyOp8
 70
     1
102
RTVSPropertyOp9
 70
     1
102
RTVSPropertyOp10
 70
     1
102
RTVSPropertyOp11
 70
     1
102
RTVSPropertyOp12
 70
     1
102
RTVSPropertyOp13
 70
     1
102
RTVSPropertyOp14
 70
     1
102
RTVSPropertyOp15
 70
     1
102
RTVSPropertyOp16
 70
     1
102
RTVSPropertyOp17
 70
     1
102
RTVSPropertyOp18
 70
     1
102
RTVSPropertyOp19
 70
     1
102
RTVSPropertyOp20
 70
     1
102
RTVSPropertyOp21
 70
     1
102
RTVSPropertyOp22
 70
     1
102
RTVSPropertyOp23
 70
     1
102
RTVSPropertyOp24
 70
     1
102
RTVSPropertyOp25
 70
     1
102
RTVSPropertyOp26
 70
     1
102
RTVSPropertyOp27
 70
     1
102
RTVSPropertyOp28
 70
     1
102
RTVSPropertyOp29
 70
     1
102
RTVSPropertyOp30
 70
     1
102
RTVSPropertyOp31
 70
     1
102
RTVSPropertyOp32
 70
     1
102
RTVSPropertyOp33
 70
     1
102
RTVSPropertyOp34
 70
     1
102
RTVSPropertyOp35
 70
     1
102
RTVSPropertyOp36
 70
     1
102
RTVSPropertyOp37
 70
     1
102
RTVSPropertyOp38
 70
     1
102
RTVSPropertyOp39
 70
     1
102
RTVSPropertyOp40
 70
     1
102
RTVSPropertyOp41
 70
     1
102
RTVSPropertyOp42
 70
     1
102
RTVSPropertyOp43
 70
     1
102
RTVSPropertyOp44
 70
     1
102
RTVSPropertyOp45
 70
     1
102
RTVSPropertyOp46
 70
     1
102
RTVSPropertyOp47
 70
     1
102
RTVSPropertyOp48
 70
     1
102
RTVSPropertyOp49
 70
     1
102
RTVSPropertyOp50
 70
     1
102
RTVSPropertyOp51
 70
     0
102
RTVSPropertyOp52
 70
     0
102
RTVSPropertyOp53
 70
     1
102
RTVSPropertyOp54
 70
     1
102
RTVSPropertyOp55
 70
     1
102
RTVSPropertyOp56
 70
     1
102
RTVSPropertyOp57
 70
     1
102
RTVSPropertyOp58
 70
     1
102
RTVSPropertyOp59
 70
     1
102
RTVSPropertyOp60
 70
     1
102
RTVSPropertyOp61
 70
     1
102
RTVSPropertyOp62
 70
     1
  0
XRECORD
  5
1D19C
102
{ACAD_REACTORS
330
1D19B
102
}
330
1D19B
100
AcDbXrecord
280
     1
102
RTVSPost2010Prop28
280
     0
102
RTVSPost2010PropOp28
 70
     1
102
RTVSPost2010Prop29
280
     1
102
RTVSPost2010PropOp29
 70
     1
102
RTVSPost2010Prop30
280
     1
102
RTVSPost2010PropOp30
 70
     1
102
RTVSPost2010Prop31
280
     0
102
RTVSPost2010PropOp31
 70
     1
102
RTVSPost2010Prop32
280
     0
102
RTVSPost2010PropOp32
 70
     1
102
RTVSPost2010Prop33
280
     0
102
RTVSPost2010PropOp33
 70
     1
102
RTVSPost2010Prop34
280
     0
102
RTVSPost2010PropOp34
 70
     1
102
RTVSPost2010Prop35
280
     0
102
RTVSPost2010PropOp35
 70
     1
102
RTVSPost2010Prop36
280
     0
102
RTVSPost2010PropOp36
 70
     1
102
RTVSPost2010Prop37
 90
       50
102
RTVSPost2010PropOp37
 70
     1
102
RTVSPost2010Prop38
140
0.0
102
RTVSPost2010PropOp38
 70
     1
102
RTVSPost2010Prop39
140
1.0
102
RTVSPost2010PropOp39
 70
     1
102
RTVSPost2010Prop40
 90
        0
102
RTVSPost2010PropOp40
 70
     1
102
RTVSPost2010Prop41ColorIndex
 90
       18
102
RTVSPost2010Prop41ColorRGB
 90
        0
102
RTVSPost2010PropOp41
 70
     1
102
RTVSPost2010Prop42
 90
       50
102
RTVSPost2010PropOp42
 70
     1
102
RTVSPost2010Prop43
 90
        3
102
RTVSPost2010PropOp43
 70
     1
102
RTVSPost2010Prop44ColorIndex
 90
        5
102
RTVSPost2010Prop44ColorRGB
 90
      255
102
RTVSPost2010PropOp44
 70
     1
102
RTVSPost2010Prop45
280
     0
102
RTVSPost2010PropOp45
 70
     1
102
RTVSPost2010Prop46
 90
       50
102
RTVSPost2010PropOp46
 70
     1
102
RTVSPost2010Prop47
 90
       50
102
RTVSPost2010PropOp47
 70
     1
102
RTVSPost2010Prop48
 90
       50
102
RTVSPost2010PropOp48
 70
     1
102
RTVSPost2010Prop49
280
     0
102
RTVSPost2010PropOp49
 70
     1
102
RTVSPost2010Prop50
 90
       50
102
RTVSPost2010PropOp50
 70
     1
102
RTVSPost2010Prop51ColorIndex
 90
      256
102
RTVSPost2010Prop51ColorRGB
 90
-16777216
102
RTVSPost2010PropOp51
 70
     0
102
RTVSPost2010Prop52
140
1.0
102
RTVSPost2010PropOp52
 70
     0
102
RTVSPost2010Prop53
 90
        2
102
RTVSPost2010PropOp53
 70
     1
102
RTVSPost2010Prop54
  1
strokes_ogs.tif
102
RTVSPost2010PropOp54
 70
     1
102
RTVSPost2010Prop55
280
     0
102
RTVSPost2010PropOp55
 70
     1
102
RTVSPost2010Prop56
140
1.0
102
RTVSPost2010PropOp56
 70
     1
102
RTVSPost2010Prop57
140
1.0
102
RTVSPost2010PropOp57
 70
     1
102
RTVSPropertyOp0
 70
     1
102
RTVSPropertyOp1
 70
     1
102
RTVSPropertyOp2
 70
     1
102
RTVSPropertyOp3
 70
     1
102
RTVSPropertyOp4
 70
     1
102
RTVSPropertyOp5
 70
     1
102
RTVSPropertyOp6
 70
     1
102
RTVSPropertyOp7
 70
     1
102
RTVSPropertyOp8
 70
     1
102
RTVSPropertyOp9
 70
     1
102
RTVSPropertyOp10
 70
     1
102
RTVSPropertyOp11
 70
     1
102
RTVSPropertyOp12
 70
     1
102
RTVSPropertyOp13
 70
     1
102
RTVSPropertyOp14
 70
     1
102
RTVSPropertyOp15
 70
     1
102
RTVSPropertyOp16
 70
     1
102
RTVSPropertyOp17
 70
     1
102
RTVSPropertyOp18
 70
     1
102
RTVSPropertyOp19
 70
     1
102
RTVSPropertyOp20
 70
     1
102
RTVSPropertyOp21
 70
     1
102
RTVSPropertyOp22
 70
     1
102
RTVSPropertyOp23
 70
     1
102
RTVSPropertyOp24
 70
     1
102
RTVSPropertyOp25
 70
     1
102
RTVSPropertyOp26
 70
     1
102
RTVSPropertyOp27
 70
     1
102
RTVSPropertyOp28
 70
     1
102
RTVSPropertyOp29
 70
     1
102
RTVSPropertyOp30
 70
     1
102
RTVSPropertyOp31
 70
     1
102
RTVSPropertyOp32
 70
     1
102
RTVSPropertyOp33
 70
     1
102
RTVSPropertyOp34
 70
     1
102
RTVSPropertyOp35
 70
     1
102
RTVSPropertyOp36
 70
     1
102
RTVSPropertyOp37
 70
     1
102
RTVSPropertyOp38
 70
     1
102
RTVSPropertyOp39
 70
     1
102
RTVSPropertyOp40
 70
     1
102
RTVSPropertyOp41
 70
     1
102
RTVSPropertyOp42
 70
     1
102
RTVSPropertyOp43
 70
     1
102
RTVSPropertyOp44
 70
     1
102
RTVSPropertyOp45
 70
     1
102
RTVSPropertyOp46
 70
     1
102
RTVSPropertyOp47
 70
     1
102
RTVSPropertyOp48
 70
     1
102
RTVSPropertyOp49
 70
     1
102
RTVSPropertyOp50
 70
     1
102
RTVSPropertyOp51
 70
     0
102
RTVSPropertyOp52
 70
     0
102
RTVSPropertyOp53
 70
     1
102
RTVSPropertyOp54
 70
     1
102
RTVSPropertyOp55
 70
     1
102
RTVSPropertyOp56
 70
     1
102
RTVSPropertyOp57
 70
     1
102
RTVSPropertyOp58
 70
     1
102
RTVSPropertyOp59
 70
     1
102
RTVSPropertyOp60
 70
     1
102
RTVSPropertyOp61
 70
     1
102
RTVSPropertyOp62
 70
     1
  0
XRECORD
  5
1D192
102
{ACAD_REACTORS
330
1D191
102
}
330
1D191
100
AcDbXrecord
280
     1
102
RTVSPost2010Prop28
280
     0
102
RTVSPost2010PropOp28
 70
     1
102
RTVSPost2010Prop29
280
     1
102
RTVSPost2010PropOp29
 70
     1
102
RTVSPost2010Prop30
280
     1
102
RTVSPost2010PropOp30
 70
     1
102
RTVSPost2010Prop31
280
     0
102
RTVSPost2010PropOp31
 70
     1
102
RTVSPost2010Prop32
280
     0
102
RTVSPost2010PropOp32
 70
     1
102
RTVSPost2010Prop33
280
     0
102
RTVSPost2010PropOp33
 70
     1
102
RTVSPost2010Prop34
280
     0
102
RTVSPost2010PropOp34
 70
     1
102
RTVSPost2010Prop35
280
     0
102
RTVSPost2010PropOp35
 70
     1
102
RTVSPost2010Prop36
280
     0
102
RTVSPost2010PropOp36
 70
     1
102
RTVSPost2010Prop37
 90
       50
102
RTVSPost2010PropOp37
 70
     1
102
RTVSPost2010Prop38
140
0.0
102
RTVSPost2010PropOp38
 70
     1
102
RTVSPost2010Prop39
140
1.0
102
RTVSPost2010PropOp39
 70
     1
102
RTVSPost2010Prop40
 90
        0
102
RTVSPost2010PropOp40
 70
     1
102
RTVSPost2010Prop41ColorIndex
 90
       18
102
RTVSPost2010Prop41ColorRGB
 90
        0
102
RTVSPost2010PropOp41
 70
     1
102
RTVSPost2010Prop42
 90
       50
102
RTVSPost2010PropOp42
 70
     1
102
RTVSPost2010Prop43
 90
        3
102
RTVSPost2010PropOp43
 70
     1
102
RTVSPost2010Prop44ColorIndex
 90
        5
102
RTVSPost2010Prop44ColorRGB
 90
      255
102
RTVSPost2010PropOp44
 70
     1
102
RTVSPost2010Prop45
280
     0
102
RTVSPost2010PropOp45
 70
     1
102
RTVSPost2010Prop46
 90
       50
102
RTVSPost2010PropOp46
 70
     1
102
RTVSPost2010Prop47
 90
       50
102
RTVSPost2010PropOp47
 70
     1
102
RTVSPost2010Prop48
 90
       50
102
RTVSPost2010PropOp48
 70
     1
102
RTVSPost2010Prop49
280
     0
102
RTVSPost2010PropOp49
 70
     1
102
RTVSPost2010Prop50
 90
       50
102
RTVSPost2010PropOp50
 70
     1
102
RTVSPost2010Prop51ColorIndex
 90
      256
102
RTVSPost2010Prop51ColorRGB
 90
-16777216
102
RTVSPost2010PropOp51
 70
     0
102
RTVSPost2010Prop52
140
1.0
102
RTVSPost2010PropOp52
 70
     0
102
RTVSPost2010Prop53
 90
        2
102
RTVSPost2010PropOp53
 70
     1
102
RTVSPost2010Prop54
  1
strokes_ogs.tif
102
RTVSPost2010PropOp54
 70
     1
102
RTVSPost2010Prop55
280
     0
102
RTVSPost2010PropOp55
 70
     1
102
RTVSPost2010Prop56
140
1.0
102
RTVSPost2010PropOp56
 70
     1
102
RTVSPost2010Prop57
140
1.0
102
RTVSPost2010PropOp57
 70
     1
102
RTVSPropertyOp0
 70
     1
102
RTVSPropertyOp1
 70
     1
102
RTVSPropertyOp2
 70
     1
102
RTVSPropertyOp3
 70
     1
102
RTVSPropertyOp4
 70
     1
102
RTVSPropertyOp5
 70
     1
102
RTVSPropertyOp6
 70
     1
102
RTVSPropertyOp7
 70
     1
102
RTVSPropertyOp8
 70
     1
102
RTVSPropertyOp9
 70
     1
102
RTVSPropertyOp10
 70
     1
102
RTVSPropertyOp11
 70
     1
102
RTVSPropertyOp12
 70
     1
102
RTVSPropertyOp13
 70
     1
102
RTVSPropertyOp14
 70
     1
102
RTVSPropertyOp15
 70
     1
102
RTVSPropertyOp16
 70
     1
102
RTVSPropertyOp17
 70
     1
102
RTVSPropertyOp18
 70
     1
102
RTVSPropertyOp19
 70
     1
102
RTVSPropertyOp20
 70
     1
102
RTVSPropertyOp21
 70
     1
102
RTVSPropertyOp22
 70
     1
102
RTVSPropertyOp23
 70
     1
102
RTVSPropertyOp24
 70
     1
102
RTVSPropertyOp25
 70
     1
102
RTVSPropertyOp26
 70
     1
102
RTVSPropertyOp27
 70
     1
102
RTVSPropertyOp28
 70
     1
102
RTVSPropertyOp29
 70
     1
102
RTVSPropertyOp30
 70
     1
102
RTVSPropertyOp31
 70
     1
102
RTVSPropertyOp32
 70
     1
102
RTVSPropertyOp33
 70
     1
102
RTVSPropertyOp34
 70
     1
102
RTVSPropertyOp35
 70
     1
102
RTVSPropertyOp36
 70
     1
102
RTVSPropertyOp37
 70
     1
102
RTVSPropertyOp38
 70
     1
102
RTVSPropertyOp39
 70
     1
102
RTVSPropertyOp40
 70
     1
102
RTVSPropertyOp41
 70
     1
102
RTVSPropertyOp42
 70
     1
102
RTVSPropertyOp43
 70
     1
102
RTVSPropertyOp44
 70
     1
102
RTVSPropertyOp45
 70
     1
102
RTVSPropertyOp46
 70
     1
102
RTVSPropertyOp47
 70
     1
102
RTVSPropertyOp48
 70
     1
102
RTVSPropertyOp49
 70
     1
102
RTVSPropertyOp50
 70
     1
102
RTVSPropertyOp51
 70
     0
102
RTVSPropertyOp52
 70
     0
102
RTVSPropertyOp53
 70
     1
102
RTVSPropertyOp54
 70
     1
102
RTVSPropertyOp55
 70
     1
102
RTVSPropertyOp56
 70
     1
102
RTVSPropertyOp57
 70
     1
102
RTVSPropertyOp58
 70
     1
102
RTVSPropertyOp59
 70
     1
102
RTVSPropertyOp60
 70
     1
102
RTVSPropertyOp61
 70
     1
102
RTVSPropertyOp62
 70
     1
  0
XRECORD
  5
1D186
102
{ACAD_REACTORS
330
1D185
102
}
330
1D185
100
AcDbXrecord
280
     1
102
RTVSPost2010Prop28
280
     0
102
RTVSPost2010PropOp28
 70
     1
102
RTVSPost2010Prop29
280
     1
102
RTVSPost2010PropOp29
 70
     1
102
RTVSPost2010Prop30
280
     1
102
RTVSPost2010PropOp30
 70
     1
102
RTVSPost2010Prop31
280
     0
102
RTVSPost2010PropOp31
 70
     1
102
RTVSPost2010Prop32
280
     0
102
RTVSPost2010PropOp32
 70
     1
102
RTVSPost2010Prop33
280
     0
102
RTVSPost2010PropOp33
 70
     1
102
RTVSPost2010Prop34
280
     0
102
RTVSPost2010PropOp34
 70
     1
102
RTVSPost2010Prop35
280
     0
102
RTVSPost2010PropOp35
 70
     1
102
RTVSPost2010Prop36
280
     0
102
RTVSPost2010PropOp36
 70
     1
102
RTVSPost2010Prop37
 90
       50
102
RTVSPost2010PropOp37
 70
     1
102
RTVSPost2010Prop38
140
0.0
102
RTVSPost2010PropOp38
 70
     1
102
RTVSPost2010Prop39
140
1.0
102
RTVSPost2010PropOp39
 70
     1
102
RTVSPost2010Prop40
 90
        0
102
RTVSPost2010PropOp40
 70
     1
102
RTVSPost2010Prop41ColorIndex
 90
       18
102
RTVSPost2010Prop41ColorRGB
 90
        0
102
RTVSPost2010PropOp41
 70
     1
102
RTVSPost2010Prop42
 90
       50
102
RTVSPost2010PropOp42
 70
     1
102
RTVSPost2010Prop43
 90
        3
102
RTVSPost2010PropOp43
 70
     1
102
RTVSPost2010Prop44ColorIndex
 90
        5
102
RTVSPost2010Prop44ColorRGB
 90
      255
102
RTVSPost2010PropOp44
 70
     1
102
RTVSPost2010Prop45
280
     0
102
RTVSPost2010PropOp45
 70
     1
102
RTVSPost2010Prop46
 90
       50
102
RTVSPost2010PropOp46
 70
     1
102
RTVSPost2010Prop47
 90
       50
102
RTVSPost2010PropOp47
 70
     1
102
RTVSPost2010Prop48
 90
       50
102
RTVSPost2010PropOp48
 70
     1
102
RTVSPost2010Prop49
280
     0
102
RTVSPost2010PropOp49
 70
     1
102
RTVSPost2010Prop50
 90
       50
102
RTVSPost2010PropOp50
 70
     1
102
RTVSPost2010Prop51ColorIndex
 90
      256
102
RTVSPost2010Prop51ColorRGB
 90
-16777216
102
RTVSPost2010PropOp51
 70
     0
102
RTVSPost2010Prop52
140
1.0
102
RTVSPost2010PropOp52
 70
     0
102
RTVSPost2010Prop53
 90
        2
102
RTVSPost2010PropOp53
 70
     1
102
RTVSPost2010Prop54
  1
strokes_ogs.tif
102
RTVSPost2010PropOp54
 70
     1
102
RTVSPost2010Prop55
280
     0
102
RTVSPost2010PropOp55
 70
     1
102
RTVSPost2010Prop56
140
1.0
102
RTVSPost2010PropOp56
 70
     1
102
RTVSPost2010Prop57
140
1.0
102
RTVSPost2010PropOp57
 70
     1
102
RTVSPropertyOp0
 70
     1
102
RTVSPropertyOp1
 70
     1
102
RTVSPropertyOp2
 70
     1
102
RTVSPropertyOp3
 70
     1
102
RTVSPropertyOp4
 70
     1
102
RTVSPropertyOp5
 70
     1
102
RTVSPropertyOp6
 70
     1
102
RTVSPropertyOp7
 70
     1
102
RTVSPropertyOp8
 70
     1
102
RTVSPropertyOp9
 70
     1
102
RTVSPropertyOp10
 70
     1
102
RTVSPropertyOp11
 70
     1
102
RTVSPropertyOp12
 70
     1
102
RTVSPropertyOp13
 70
     1
102
RTVSPropertyOp14
 70
     1
102
RTVSPropertyOp15
 70
     1
102
RTVSPropertyOp16
 70
     1
102
RTVSPropertyOp17
 70
     1
102
RTVSPropertyOp18
 70
     1
102
RTVSPropertyOp19
 70
     1
102
RTVSPropertyOp20
 70
     1
102
RTVSPropertyOp21
 70
     1
102
RTVSPropertyOp22
 70
     1
102
RTVSPropertyOp23
 70
     1
102
RTVSPropertyOp24
 70
     1
102
RTVSPropertyOp25
 70
     1
102
RTVSPropertyOp26
 70
     1
102
RTVSPropertyOp27
 70
     1
102
RTVSPropertyOp28
 70
     1
102
RTVSPropertyOp29
 70
     1
102
RTVSPropertyOp30
 70
     1
102
RTVSPropertyOp31
 70
     1
102
RTVSPropertyOp32
 70
     1
102
RTVSPropertyOp33
 70
     1
102
RTVSPropertyOp34
 70
     1
102
RTVSPropertyOp35
 70
     1
102
RTVSPropertyOp36
 70
     1
102
RTVSPropertyOp37
 70
     1
102
RTVSPropertyOp38
 70
     1
102
RTVSPropertyOp39
 70
     1
102
RTVSPropertyOp40
 70
     1
102
RTVSPropertyOp41
 70
     1
102
RTVSPropertyOp42
 70
     1
102
RTVSPropertyOp43
 70
     1
102
RTVSPropertyOp44
 70
     1
102
RTVSPropertyOp45
 70
     1
102
RTVSPropertyOp46
 70
     1
102
RTVSPropertyOp47
 70
     1
102
RTVSPropertyOp48
 70
     1
102
RTVSPropertyOp49
 70
     1
102
RTVSPropertyOp50
 70
     1
102
RTVSPropertyOp51
 70
     0
102
RTVSPropertyOp52
 70
     0
102
RTVSPropertyOp53
 70
     1
102
RTVSPropertyOp54
 70
     1
102
RTVSPropertyOp55
 70
     1
102
RTVSPropertyOp56
 70
     1
102
RTVSPropertyOp57
 70
     1
102
RTVSPropertyOp58
 70
     1
102
RTVSPropertyOp59
 70
     1
102
RTVSPropertyOp60
 70
     1
102
RTVSPropertyOp61
 70
     1
102
RTVSPropertyOp62
 70
     1
  0
XRECORD
  5
1D19E
102
{ACAD_REACTORS
330
1D19D
102
}
330
1D19D
100
AcDbXrecord
280
     1
102
RTVSPost2010Prop28
280
     0
102
RTVSPost2010PropOp28
 70
     1
102
RTVSPost2010Prop29
280
     1
102
RTVSPost2010PropOp29
 70
     1
102
RTVSPost2010Prop30
280
     1
102
RTVSPost2010PropOp30
 70
     1
102
RTVSPost2010Prop31
280
     0
102
RTVSPost2010PropOp31
 70
     1
102
RTVSPost2010Prop32
280
     0
102
RTVSPost2010PropOp32
 70
     1
102
RTVSPost2010Prop33
280
     0
102
RTVSPost2010PropOp33
 70
     1
102
RTVSPost2010Prop34
280
     0
102
RTVSPost2010PropOp34
 70
     1
102
RTVSPost2010Prop35
280
     0
102
RTVSPost2010PropOp35
 70
     1
102
RTVSPost2010Prop36
280
     0
102
RTVSPost2010PropOp36
 70
     1
102
RTVSPost2010Prop37
 90
       50
102
RTVSPost2010PropOp37
 70
     1
102
RTVSPost2010Prop38
140
0.0
102
RTVSPost2010PropOp38
 70
     1
102
RTVSPost2010Prop39
140
1.0
102
RTVSPost2010PropOp39
 70
     1
102
RTVSPost2010Prop40
 90
        0
102
RTVSPost2010PropOp40
 70
     1
102
RTVSPost2010Prop41ColorIndex
 90
       18
102
RTVSPost2010Prop41ColorRGB
 90
        0
102
RTVSPost2010PropOp41
 70
     1
102
RTVSPost2010Prop42
 90
       50
102
RTVSPost2010PropOp42
 70
     1
102
RTVSPost2010Prop43
 90
        3
102
RTVSPost2010PropOp43
 70
     1
102
RTVSPost2010Prop44ColorIndex
 90
        5
102
RTVSPost2010Prop44ColorRGB
 90
      255
102
RTVSPost2010PropOp44
 70
     1
102
RTVSPost2010Prop45
280
     0
102
RTVSPost2010PropOp45
 70
     1
102
RTVSPost2010Prop46
 90
       50
102
RTVSPost2010PropOp46
 70
     1
102
RTVSPost2010Prop47
 90
       50
102
RTVSPost2010PropOp47
 70
     1
102
RTVSPost2010Prop48
 90
       50
102
RTVSPost2010PropOp48
 70
     1
102
RTVSPost2010Prop49
280
     0
102
RTVSPost2010PropOp49
 70
     1
102
RTVSPost2010Prop50
 90
       50
102
RTVSPost2010PropOp50
 70
     1
102
RTVSPost2010Prop51ColorIndex
 90
      256
102
RTVSPost2010Prop51ColorRGB
 90
-16777216
102
RTVSPost2010PropOp51
 70
     0
102
RTVSPost2010Prop52
140
1.0
102
RTVSPost2010PropOp52
 70
     0
102
RTVSPost2010Prop53
 90
        2
102
RTVSPost2010PropOp53
 70
     1
102
RTVSPost2010Prop54
  1
strokes_ogs.tif
102
RTVSPost2010PropOp54
 70
     1
102
RTVSPost2010Prop55
280
     0
102
RTVSPost2010PropOp55
 70
     1
102
RTVSPost2010Prop56
140
1.0
102
RTVSPost2010PropOp56
 70
     1
102
RTVSPost2010Prop57
140
1.0
102
RTVSPost2010PropOp57
 70
     1
102
RTVSPropertyOp0
 70
     1
102
RTVSPropertyOp1
 70
     1
102
RTVSPropertyOp2
 70
     1
102
RTVSPropertyOp3
 70
     1
102
RTVSPropertyOp4
 70
     1
102
RTVSPropertyOp5
 70
     1
102
RTVSPropertyOp6
 70
     1
102
RTVSPropertyOp7
 70
     1
102
RTVSPropertyOp8
 70
     1
102
RTVSPropertyOp9
 70
     1
102
RTVSPropertyOp10
 70
     1
102
RTVSPropertyOp11
 70
     1
102
RTVSPropertyOp12
 70
     1
102
RTVSPropertyOp13
 70
     1
102
RTVSPropertyOp14
 70
     1
102
RTVSPropertyOp15
 70
     1
102
RTVSPropertyOp16
 70
     1
102
RTVSPropertyOp17
 70
     1
102
RTVSPropertyOp18
 70
     1
102
RTVSPropertyOp19
 70
     1
102
RTVSPropertyOp20
 70
     1
102
RTVSPropertyOp21
 70
     1
102
RTVSPropertyOp22
 70
     1
102
RTVSPropertyOp23
 70
     1
102
RTVSPropertyOp24
 70
     1
102
RTVSPropertyOp25
 70
     1
102
RTVSPropertyOp26
 70
     1
102
RTVSPropertyOp27
 70
     1
102
RTVSPropertyOp28
 70
     1
102
RTVSPropertyOp29
 70
     1
102
RTVSPropertyOp30
 70
     1
102
RTVSPropertyOp31
 70
     1
102
RTVSPropertyOp32
 70
     1
102
RTVSPropertyOp33
 70
     1
102
RTVSPropertyOp34
 70
     1
102
RTVSPropertyOp35
 70
     1
102
RTVSPropertyOp36
 70
     1
102
RTVSPropertyOp37
 70
     1
102
RTVSPropertyOp38
 70
     1
102
RTVSPropertyOp39
 70
     1
102
RTVSPropertyOp40
 70
     1
102
RTVSPropertyOp41
 70
     1
102
RTVSPropertyOp42
 70
     1
102
RTVSPropertyOp43
 70
     1
102
RTVSPropertyOp44
 70
     1
102
RTVSPropertyOp45
 70
     1
102
RTVSPropertyOp46
 70
     1
102
RTVSPropertyOp47
 70
     1
102
RTVSPropertyOp48
 70
     1
102
RTVSPropertyOp49
 70
     1
102
RTVSPropertyOp50
 70
     1
102
RTVSPropertyOp51
 70
     0
102
RTVSPropertyOp52
 70
     0
102
RTVSPropertyOp53
 70
     1
102
RTVSPropertyOp54
 70
     1
102
RTVSPropertyOp55
 70
     1
102
RTVSPropertyOp56
 70
     1
102
RTVSPropertyOp57
 70
     1
102
RTVSPropertyOp58
 70
     1
102
RTVSPropertyOp59
 70
     1
102
RTVSPropertyOp60
 70
     1
102
RTVSPropertyOp61
 70
     1
102
RTVSPropertyOp62
 70
     1
  0
ENDSEC
  0
EOF
