  0
SECTION
  2
HEADER
  9
$ACADVER
  1
AC1015
  9
$ACADMAINTVER
 70
    20
  9
$DWGCODEPAGE
  3
ANSI_932
  9
$INSBASE
 10
0.0
 20
0.0
 30
0.0
  9
$EXTMIN
 10
9.99995
 20
9.999999999999998
 30
0.0
  9
$EXTMAX
 10
317.913267
 20
284.0000099999999
 30
0.0
  9
$LIMMIN
 10
0.0
 20
0.0
  9
$LIMMAX
 10
495.0
 20
341.25
  9
$ORTHOMODE
 70
     1
  9
$REGENMODE
 70
     1
  9
$FILLMODE
 70
     1
  9
$QTEXTMODE
 70
     0
  9
$MIRRTEXT
 70
     1
  9
$LTSCALE
 40
20.0
  9
$ATTMODE
 70
     1
  9
$TEXTSIZE
 40
5.0
  9
$TRACEWID
 40
1.0
  9
$TEXTSTYLE
  7
STANDARD
  9
$CLAYER
  8
0
  9
$CELTYPE
  6
BYLAYER
  9
$CECOLOR
 62
   256
  9
$CELTSCALE
 40
1.0
  9
$DISPSILH
 70
     0
  9
$DIMSCALE
 40
1.0
  9
$DIMASZ
 40
3.0
  9
$DIMEXO
 40
1.0
  9
$DIMDLI
 40
10.0
  9
$DIMRND
 40
0.0
  9
$DIMDLE
 40
0.0
  9
$DIMEXE
 40
1.0
  9
$DIMTP
 40
0.0
  9
$DIMTM
 40
0.0
  9
$DIMTXT
 40
3.2
  9
$DIMCEN
 40
0.0
  9
$DIMTSZ
 40
0.0
  9
$DIMTOL
 70
     0
  9
$DIMLIM
 70
     0
  9
$DIMTIH
 70
     0
  9
$DIMTOH
 70
     0
  9
$DIMSE1
 70
     0
  9
$DIMSE2
 70
     0
  9
$DIMTAD
 70
     3
  9
$DIMZIN
 70
     8
  9
$DIMBLK
  1

  9
$DIMASO
 70
     1
  9
$DIMSHO
 70
     1
  9
$DIMPOST
  1

  9
$DIMAPOST
  1

  9
$DIMALT
 70
     0
  9
$DIMALTD
 70
     2
  9
$DIMALTF
 40
25.4
  9
$DIMLFAC
 40
1.0
  9
$DIMTOFL
 70
     1
  9
$DIMTVP
 40
0.0
  9
$DIMTIX
 70
     0
  9
$DIMSOXD
 70
     0
  9
$DIMSAH
 70
     1
  9
$DIMBLK1
  1
OPEN
  9
$DIMBLK2
  1
OPEN
  9
$DIMSTYLE
  2
STANDARD
  9
$DIMCLRD
 70
     0
  9
$DIMCLRE
 70
     0
  9
$DIMCLRT
 70
     0
  9
$DIMTFAC
 40
1.0
  9
$DIMGAP
 40
1.0
  9
$DIMJUST
 70
     0
  9
$DIMSD1
 70
     0
  9
$DIMSD2
 70
     0
  9
$DIMTOLJ
 70
     1
  9
$DIMTZIN
 70
     0
  9
$DIMALTZ
 70
     0
  9
$DIMALTTZ
 70
     0
  9
$DIMUPT
 70
     0
  9
$DIMDEC
 70
     4
  9
$DIMTDEC
 70
     4
  9
$DIMALTU
 70
     2
  9
$DIMALTTD
 70
     2
  9
$DIMTXSTY
  7
STANDARD
  9
$DIMAUNIT
 70
     0
  9
$DIMADEC
 70
     0
  9
$DIMALTRND
 40
0.0
  9
$DIMAZIN
 70
     0
  9
$DIMDSEP
 70
    46
  9
$DIMATFIT
 70
     3
  9
$DIMFRAC
 70
     0
  9
$DIMLDRBLK
  1
OPEN
  9
$DIMLUNIT
 70
     2
  9
$DIMLWD
 70
    -2
  9
$DIMLWE
 70
    -2
  9
$DIMTMOVE
 70
     0
  9
$LUNITS
 70
     2
  9
$LUPREC
 70
     4
  9
$SKETCHINC
 40
1.0
  9
$FILLETRAD
 40
0.0
  9
$AUNITS
 70
     0
  9
$AUPREC
 70
     2
  9
$MENU
  1
.
  9
$ELEVATION
 40
0.0
  9
$PELEVATION
 40
0.0
  9
$THICKNESS
 40
0.0
  9
$LIMCHECK
 70
     0
  9
$CHAMFERA
 40
10.0
  9
$CHAMFERB
 40
10.0
  9
$CHAMFERC
 40
0.0
  9
$CHAMFERD
 40
0.0
  9
$SKPOLY
 70
     0
  9
$TDCREATE
 40
2451300.688053009
  9
$TDUCREATE
 40
2451300.313053009
  9
$TDUPDATE
 40
2457192.656845602
  9
$TDUUPDATE
 40
2457192.281845602
  9
$TDINDWG
 40
0.0000115394
  9
$TDUSRTIMER
 40
0.0000112384
  9
$USRTIMER
 70
     1
  9
$ANGBASE
 50
0.0
  9
$ANGDIR
 70
     0
  9
$PDMODE
 70
    34
  9
$PDSIZE
 40
0.0
  9
$PLINEWID
 40
0.0
  9
$SPLFRAME
 70
     0
  9
$SPLINETYPE
 70
     6
  9
$SPLINESEGS
 70
     8
  9
$HANDSEED
  5
1A3FA
  9
$SURFTAB1
 70
     6
  9
$SURFTAB2
 70
     6
  9
$SURFTYPE
 70
     6
  9
$SURFU
 70
     6
  9
$SURFV
 70
     6
  9
$UCSBASE
  2

  9
$UCSNAME
  2

  9
$UCSORG
 10
0.0
 20
0.0
 30
0.0
  9
$UCSXDIR
 10
1.0
 20
0.0
 30
0.0
  9
$UCSYDIR
 10
0.0
 20
1.0
 30
0.0
  9
$UCSORTHOREF
  2

  9
$UCSORTHOVIEW
 70
     0
  9
$UCSORGTOP
 10
0.0
 20
0.0
 30
0.0
  9
$UCSORGBOTTOM
 10
0.0
 20
0.0
 30
0.0
  9
$UCSORGLEFT
 10
0.0
 20
0.0
 30
0.0
  9
$UCSORGRIGHT
 10
0.0
 20
0.0
 30
0.0
  9
$UCSORGFRONT
 10
0.0
 20
0.0
 30
0.0
  9
$UCSORGBACK
 10
0.0
 20
0.0
 30
0.0
  9
$PUCSBASE
  2

  9
$PUCSNAME
  2

  9
$PUCSORG
 10
0.0
 20
0.0
 30
0.0
  9
$PUCSXDIR
 10
1.0
 20
0.0
 30
0.0
  9
$PUCSYDIR
 10
0.0
 20
1.0
 30
0.0
  9
$PUCSORTHOREF
  2

  9
$PUCSORTHOVIEW
 70
     0
  9
$PUCSORGTOP
 10
0.0
 20
0.0
 30
0.0
  9
$PUCSORGBOTTOM
 10
0.0
 20
0.0
 30
0.0
  9
$PUCSORGLEFT
 10
0.0
 20
0.0
 30
0.0
  9
$PUCSORGRIGHT
 10
0.0
 20
0.0
 30
0.0
  9
$PUCSORGFRONT
 10
0.0
 20
0.0
 30
0.0
  9
$PUCSORGBACK
 10
0.0
 20
0.0
 30
0.0
  9
$USERI1
 70
     0
  9
$USERI2
 70
     0
  9
$USERI3
 70
     0
  9
$USERI4
 70
     0
  9
$USERI5
 70
     0
  9
$USERR1
 40
0.0
  9
$USERR2
 40
0.0
  9
$USERR3
 40
0.0
  9
$USERR4
 40
0.0
  9
$USERR5
 40
0.0
  9
$WORLDVIEW
 70
     1
  9
$SHADEDGE
 70
     3
  9
$SHADEDIF
 70
    70
  9
$TILEMODE
 70
     1
  9
$MAXACTVP
 70
    16
  9
$PINSBASE
 10
0.0
 20
0.0
 30
0.0
  9
$PLIMCHECK
 70
     0
  9
$PEXTMIN
 10
1.000000000000000E+20
 20
1.000000000000000E+20
 30
1.000000000000000E+20
  9
$PEXTMAX
 10
-1.000000000000000E+20
 20
-1.000000000000000E+20
 30
-1.000000000000000E+20
  9
$PLIMMIN
 10
0.0
 20
0.0
  9
$PLIMMAX
 10
420.0
 20
297.0
  9
$UNITMODE
 70
     0
  9
$VISRETAIN
 70
     0
  9
$PLINEGEN
 70
     0
  9
$PSLTSCALE
 70
     0
  9
$TREEDEPTH
 70
  3020
  9
$CMLSTYLE
  2
STANDARD
  9
$CMLJUST
 70
     0
  9
$CMLSCALE
 40
1.0
  9
$PROXYGRAPHICS
 70
     1
  9
$MEASUREMENT
 70
     0
  9
$CELWEIGHT
370
    -1
  9
$ENDCAPS
280
     0
  9
$JOINSTYLE
280
     0
  9
$LWDISPLAY
290
     0
  9
$INSUNITS
 70
     0
  9
$HYPERLINKBASE
  1

  9
$STYLESHEET
  1

  9
$XEDIT
290
     1
  9
$CEPSNTYPE
380
     0
  9
$PSTYLEMODE
290
     1
  9
$FINGERPRINTGUID
  2
{52512255-E1CF-492C-BAC3-AA113508AA9F}
  9
$VERSIONGUID
  2
{0503CAB4-D1F2-41B2-826F-F8AD1C66DE40}
  9
$EXTNAMES
290
     1
  9
$PSVPSCALE
 40
0.0
  9
$OLESTARTUP
290
     0
  0
ENDSEC
  0
SECTION
  2
CLASSES
  0
CLASS
  1
ACDBDICTIONARYWDFLT
  2
AcDbDictionaryWithDefault
  3
ObjectDBX Classes
 90
        0
280
     0
281
     0
  0
CLASS
  1
ACDBPLACEHOLDER
  2
AcDbPlaceHolder
  3
ObjectDBX Classes
 90
        0
280
     0
281
     0
  0
CLASS
  1
LAYOUT
  2
AcDbLayout
  3
ObjectDBX Classes
 90
        0
280
     0
281
     0
  0
CLASS
  1
DICTIONARYVAR
  2
AcDbDictionaryVar
  3
ObjectDBX Classes
 90
        0
280
     0
281
     0
  0
CLASS
  1
MATERIAL
  2
AcDbMaterial
  3
ObjectDBX Classes
 90
     1153
280
     0
281
     0
  0
CLASS
  1
VISUALSTYLE
  2
AcDbVisualStyle
  3
ObjectDBX Classes
 90
     4095
280
     0
281
     0
  0
CLASS
  1
TABLESTYLE
  2
AcDbTableStyle
  3
ObjectDBX Classes
 90
     4095
280
     0
281
     0
  0
CLASS
  1
SCALE
  2
AcDbScale
  3
ObjectDBX Classes
 90
     1153
280
     0
281
     0
  0
CLASS
  1
MLEADERSTYLE
  2
AcDbMLeaderStyle
  3
ACDB_MLEADERSTYLE_CLASS
 90
     4095
280
     0
281
     0
  0
CLASS
  1
ACDBSECTIONVIEWSTYLE
  2
AcDbSectionViewStyle
  3
ObjectDBX Classes
 90
     1025
280
     0
281
     0
  0
CLASS
  1
ACDBDETAILVIEWSTYLE
  2
AcDbDetailViewStyle
  3
ObjectDBX Classes
 90
     1025
280
     0
281
     0
  0
CLASS
  1
CELLSTYLEMAP
  2
AcDbCellStyleMap
  3
ObjectDBX Classes
 90
     1152
280
     0
281
     0
  0
ENDSEC
  0
SECTION
  2
TABLES
  0
TABLE
  2
VPORT
  5
1A069
330
0
100
AcDbSymbolTable
 70
     1
  0
VPORT
  5
1A343
330
1A069
100
AcDbSymbolTableRecord
100
AcDbViewportTableRecord
  2
*ACTIVE
 70
     0
 10
0.0
 20
0.0
 11
1.0
 21
1.0
 12
246.9589144185586
 22
146.9979579966433
 13
0.0
 23
0.0
 14
10.0
 24
10.0
 15
10.0
 25
10.0
 16
0.0
 26
0.0
 36
1.0
 17
0.0
 27
0.0
 37
0.0
 40
277.086397753081
 41
1.899603698811096
 42
50.0
 43
0.0
 44
0.0
 50
0.0
 51
0.0
 71
     0
 72
   100
 73
     1
 74
     0
 75
     0
 76
     0
 77
     0
 78
     1
281
     0
 65
     1
110
0.0
120
0.0
130
0.0
111
1.0
121
0.0
131
0.0
112
0.0
122
1.0
132
0.0
 79
     0
146
0.0
1001
ACAD_NAV_VCDISPLAY
1070
     3
  0
ENDTAB
  0
TABLE
  2
LTYPE
  5
1A066
330
0
100
AcDbSymbolTable
 70
     4
  0
LTYPE
  5
1A074
330
1A066
100
AcDbSymbolTableRecord
100
AcDbLinetypeTableRecord
  2
BYBLOCK
 70
     0
  3

 72
    65
 73
     0
 40
0.0
  0
LTYPE
  5
1A075
330
1A066
100
AcDbSymbolTableRecord
100
AcDbLinetypeTableRecord
  2
BYLAYER
 70
     0
  3

 72
    65
 73
     0
 40
0.0
  0
LTYPE
  5
1A076
330
1A066
100
AcDbSymbolTableRecord
100
AcDbLinetypeTableRecord
  2
CONTINUOUS
 70
     0
  3
Solid line
 72
    65
 73
     0
 40
0.0
  0
LTYPE
  5
1A084
330
1A066
100
AcDbSymbolTableRecord
100
AcDbLinetypeTableRecord
  2
DASHED
 70
     0
  3
__ __ __ __ __ __ __ __ __ __ __ __ __ __ __ __
 72
    65
 73
     2
 40
0.75
 49
0.5
 74
     0
 49
-0.25
 74
     0
  0
LTYPE
  5
1A085
330
1A066
100
AcDbSymbolTableRecord
100
AcDbLinetypeTableRecord
  2
CENTER
 70
     0
  3
____ _ ____ _ ____ _ ____ _ ____ _ ____ _ ____ 
 72
    65
 73
     4
 40
2.0
 49
1.25
 74
     0
 49
-0.25
 74
     0
 49
0.25
 74
     0
 49
-0.25
 74
     0
  0
LTYPE
  5
1A086
330
1A066
100
AcDbSymbolTableRecord
100
AcDbLinetypeTableRecord
  2
PHANTOM
 70
     0
  3
______  __  __  ______  __  __  ______  __  __ 
 72
    65
 73
     6
 40
2.5
 49
1.25
 74
     0
 49
-0.25
 74
     0
 49
0.25
 74
     0
 49
-0.25
 74
     0
 49
0.25
 74
     0
 49
-0.25
 74
     0
  0
ENDTAB
  0
TABLE
  2
LAYER
  5
1A063
330
0
100
AcDbSymbolTable
 70
     8
  0
LAYER
  5
1A071
102
{ACAD_XDICTIONARY
360
1A39E
102
}
330
1A063
100
AcDbSymbolTableRecord
100
AcDbLayerTableRecord
  2
0
 70
     0
 62
     7
  6
CONTINUOUS
370
    -3
390
1A34C
  0
LAYER
  5
1A087
102
{ACAD_XDICTIONARY
360
1A3A0
102
}
330
1A063
100
AcDbSymbolTableRecord
100
AcDbLayerTableRecord
  2
4
 70
     0
 62
     1
  6
CENTER
370
    -3
390
1A34C
  0
LAYER
  5
1A088
102
{ACAD_XDICTIONARY
360
1A3A2
102
}
330
1A063
100
AcDbSymbolTableRecord
100
AcDbLayerTableRecord
  2
5
 70
     0
 62
     6
  6
PHANTOM
370
    -3
390
1A34C
  0
LAYER
  5
1A089
102
{ACAD_XDICTIONARY
360
1A3A4
102
}
330
1A063
100
AcDbSymbolTableRecord
100
AcDbLayerTableRecord
  2
1
 70
     0
 62
     7
  6
CONTINUOUS
370
    -3
390
1A34C
  0
LAYER
  5
1A08A
102
{ACAD_XDICTIONARY
360
1A3A6
102
}
330
1A063
100
AcDbSymbolTableRecord
100
AcDbLayerTableRecord
  2
2
 70
     0
 62
     4
  6
CONTINUOUS
370
    -3
390
1A34C
  0
LAYER
  5
1A08B
102
{ACAD_XDICTIONARY
360
1A3A8
102
}
330
1A063
100
AcDbSymbolTableRecord
100
AcDbLayerTableRecord
  2
3
 70
     0
 62
     2
  6
DASHED
370
    -3
390
1A34C
  0
LAYER
  5
1A08C
102
{ACAD_XDICTIONARY
360
1A3AA
102
}
330
1A063
100
AcDbSymbolTableRecord
100
AcDbLayerTableRecord
  2
6
 70
     0
 62
     5
  6
CONTINUOUS
370
    -3
390
1A34C
  0
LAYER
  5
1A08D
102
{ACAD_XDICTIONARY
360
1A3AC
102
}
330
1A063
100
AcDbSymbolTableRecord
100
AcDbLayerTableRecord
  2
7
 70
     0
 62
     3
  6
CONTINUOUS
370
    -3
390
1A34C
  0
ENDTAB
  0
TABLE
  2
STYLE
  5
1A064
330
0
100
AcDbSymbolTable
 70
     1
  0
STYLE
  5
1A072
330
1A064
100
AcDbSymbolTableRecord
100
AcDbTextStyleTableRecord
  2
STANDARD
 70
     0
 40
0.0
 41
1.0
 50
0.0
 71
     0
 42
5.0
  3
txt
  4

  0
ENDTAB
  0
TABLE
  2
VIEW
  5
1A067
330
0
100
AcDbSymbolTable
 70
     2
  0
VIEW
  5
1A08E
330
1A067
100
AcDbSymbolTableRecord
100
AcDbViewTableRecord
  2
7
 70
     0
 40
300.6869889999999
 10
289.644812
 20
150.3434949999999
 41
579.289623
 11
0.0
 21
0.0
 31
1.0
 12
0.0
 22
0.0
 32
0.0
 42
50.0
 43
0.0
 44
0.0
 50
0.0
 71
     0
281
     0
 72
     0
  0
VIEW
  5
1A08F
330
1A067
100
AcDbSymbolTableRecord
100
AcDbViewTableRecord
  2
1
 70
     0
 40
249.466496
 10
136.846708
 20
233.977284
 41
487.485198
 11
0.0
 21
0.0
 31
1.0
 12
0.0
 22
0.0
 32
0.0
 42
50.0
 43
0.0
 44
0.0
 50
0.0
 71
     0
281
     0
 72
     0
  0
ENDTAB
  0
TABLE
  2
UCS
  5
1A068
330
0
100
AcDbSymbolTable
 70
     0
  0
ENDTAB
  0
TABLE
  2
APPID
  5
1A06A
330
0
100
AcDbSymbolTable
 70
     3
  0
APPID
  5
1A073
330
1A06A
100
AcDbSymbolTableRecord
100
AcDbRegAppTableRecord
  2
ACAD
 70
     0
  0
APPID
  5
1A3B8
330
1A06A
100
AcDbSymbolTableRecord
100
AcDbRegAppTableRecord
  2
ACAD_NAV_VCDISPLAY
 70
     0
  0
APPID
  5
1A3F1
330
1A06A
100
AcDbSymbolTableRecord
100
AcDbRegAppTableRecord
  2
ACAD_MLEADERVER
 70
     0
  0
ENDTAB
  0
TABLE
  2
DIMSTYLE
  5
1A06B
330
0
100
AcDbSymbolTable
 70
     1
100
AcDbDimStyleTable
 71
     0
  0
DIMSTYLE
105
1A091
330
1A06B
100
AcDbSymbolTableRecord
100
AcDbDimStyleTableRecord
  2
STANDARD
 70
     0
 41
3.0
 42
1.0
 43
10.0
 44
1.0
 73
     0
 74
     0
 77
     3
 78
     8
140
3.2
141
0.0
147
1.0
172
     1
173
     1
284
     8
285
     8
286
     8
340
1A072
  0
ENDTAB
  0
TABLE
  2
BLOCK_RECORD
  5
1A062
330
0
100
AcDbSymbolTable
 70
     1
  0
BLOCK_RECORD
  5
1A07F
102
{ACAD_XDICTIONARY
360
1A346
102
}
330
1A062
100
AcDbSymbolTableRecord
100
AcDbBlockTableRecord
  2
*MODEL_SPACE
340
1A39A
  0
BLOCK_RECORD
  5
1A07B
102
{ACAD_XDICTIONARY
360
1A344
102
}
330
1A062
100
AcDbSymbolTableRecord
100
AcDbBlockTableRecord
  2
*PAPER_SPACE
340
1A39B
  0
BLOCK_RECORD
  5
1A099
330
1A062
100
AcDbSymbolTableRecord
100
AcDbBlockTableRecord
  2
_OPEN
340
0
  0
ENDTAB
  0
ENDSEC
  0
SECTION
  2
BLOCKS
  0
BLOCK
  5
1A080
330
1A07F
100
AcDbEntity
  8
0
100
AcDbBlockBegin
  2
*MODEL_SPACE
 70
     0
 10
0.0
 20
0.0
 30
0.0
  3
*MODEL_SPACE
  1

  0
ENDBLK
  5
1A081
330
1A07F
100
AcDbEntity
  8
0
100
AcDbBlockEnd
  0
BLOCK
  5
1A07C
330
1A07B
100
AcDbEntity
 67
     1
  8
0
100
AcDbBlockBegin
  2
*PAPER_SPACE
 70
     0
 10
0.0
 20
0.0
 30
0.0
  3
*PAPER_SPACE
  1

  0
ENDBLK
  5
1A07D
330
1A07B
100
AcDbEntity
 67
     1
  8
0
100
AcDbBlockEnd
  0
BLOCK
  5
1A09A
330
1A099
100
AcDbEntity
  8
0
100
AcDbBlockBegin
  2
_OPEN
 70
     0
 10
0.0
 20
0.0
 30
0.0
  3
_OPEN
  1

  0
LINE
  5
1A09B
330
1A099
100
AcDbEntity
  8
0
  6
ByBlock
 62
     0
100
AcDbLine
 10
-1.0
 20
0.166667
 30
0.0
 11
0.0
 21
0.0
 31
0.0
  0
LINE
  5
1A09C
330
1A099
100
AcDbEntity
  8
0
  6
ByBlock
 62
     0
100
AcDbLine
 10
0.0
 20
0.0
 30
0.0
 11
-1.0
 21
-0.166667
 31
0.0
  0
LINE
  5
1A09D
330
1A099
100
AcDbEntity
  8
0
  6
ByBlock
 62
     0
100
AcDbLine
 10
0.0
 20
0.0
 30
0.0
 11
-1.0
 21
0.0
 31
0.0
  0
ENDBLK
  5
1A09E
330
1A099
100
AcDbEntity
  8
0
100
AcDbBlockEnd
  0
ENDSEC
  0
SECTION
  2
ENTITIES
  0
TEXT
  5
1A09F
330
1A07F
100
AcDbEntity
  8
6
  6
Continuous
100
AcDbText
 10
27.97945
 20
10.0487
 30
0.0
 40
1.399999999999999
  1
6
 41
1.069393
100
AcDbText
  0
TEXT
  5
1A0A0
330
1A07F
100
AcDbEntity
  8
1
  6
Continuous
100
AcDbText
 10
17.97945
 20
10.0487
 30
0.0
 40
1.399999999999999
  1
1
 41
1.069393
100
AcDbText
  0
TEXT
  5
1A0A1
330
1A07F
100
AcDbEntity
  8
1
  6
Continuous
100
AcDbText
 10
9.99995
 20
10.0
 30
0.0
 40
1.399999999999999
  1
LAYER
 41
1.009912999999997
100
AcDbText
  0
TEXT
  5
1A0A2
330
1A07F
100
AcDbEntity
  8
2
  6
Continuous
100
AcDbText
 10
19.97944999999998
 20
10.0487
 30
0.0
 40
1.399999999999999
  1
2
 41
1.069393
100
AcDbText
  0
TEXT
  5
1A0A3
330
1A07F
100
AcDbEntity
  8
3
  6
DASHED
100
AcDbText
 10
21.97945
 20
10.0487
 30
0.0
 40
1.399999999999999
  1
3
 41
1.069393
100
AcDbText
  0
TEXT
  5
1A0A4
330
1A07F
100
AcDbEntity
  8
4
  6
CENTER
100
AcDbText
 10
23.97944999999999
 20
10.0487
 30
0.0
 40
1.399999999999999
  1
4
 41
1.069393
100
AcDbText
  0
TEXT
  5
1A0A5
330
1A07F
100
AcDbEntity
  8
5
  6
PHANTOM
100
AcDbText
 10
25.97945
 20
10.0487
 30
0.0
 40
1.399999999999999
  1
5
 41
1.069393
100
AcDbText
  0
TEXT
  5
1A0A6
330
1A07F
100
AcDbEntity
  8
7
  6
Continuous
100
AcDbText
 10
10.00005
 20
26.0
 30
0.0
 40
3.0
  1
CODE No.5484
 41
1.003962999999999
100
AcDbText
  0
TEXT
  5
1A0A7
330
1A07F
100
AcDbEntity
  8
7
  6
Continuous
100
AcDbText
 10
10.00005
 20
18.0
 30
0.0
 40
3.0
  1
TYPE No.TM-108-1
 41
1.002350999999998
100
AcDbText
  0
TEXT
  5
1A0A8
330
1A07F
100
AcDbEntity
  8
7
  6
Continuous
100
AcDbText
 10
29.97944999999999
 20
10.0487
 30
0.0
 40
1.399999999999999
  1
7
 41
1.069393
100
AcDbText
  0
LINE
  5
1A0A9
330
1A07F
100
AcDbEntity
  8
1
  6
Continuous
100
AcDbLine
 10
132.846921
 20
178.999996
 30
0.0
 11
133.7437109999999
 21
168.749706
 31
0.0
  0
LINE
  5
1A0AA
330
1A07F
100
AcDbEntity
  8
1
  6
Continuous
100
AcDbLine
 10
122.063092
 20
176.048901
 30
0.0
 11
122.0673649999999
 21
175.999996
 31
0.0
  0
LINE
  5
1A0AB
330
1A07F
100
AcDbEntity
  8
4
  6
CENTER
100
AcDbLine
 10
126.8469209999999
 20
218.999996
 30
0.0
 11
126.8469209999999
 21
100.999996
 31
0.0
  0
LINE
  5
1A0AC
330
1A07F
100
AcDbEntity
  8
1
  6
Continuous
100
AcDbLine
 10
36.751896
 20
176.354305
 30
0.0
 11
36.751896
 21
175.999996
 31
0.0
  0
LINE
  5
1A0AD
330
1A07F
100
AcDbEntity
  8
1
  6
Continuous
100
AcDbLine
 10
35.251896
 20
176.347576
 30
0.0
 11
35.251896
 21
175.999996
 31
0.0
  0
LINE
  5
1A0AE
330
1A07F
100
AcDbEntity
  8
1
  6
Continuous
100
AcDbLine
 10
39.751896
 20
176.347576
 30
0.0
 11
39.751896
 21
175.999996
 31
0.0
  0
LINE
  5
1A0AF
330
1A07F
100
AcDbEntity
  8
1
  6
Continuous
100
AcDbLine
 10
38.251896
 20
176.354305
 30
0.0
 11
38.251896
 21
175.999996
 31
0.0
  0
LINE
  5
1A0B0
330
1A07F
100
AcDbEntity
  8
1
  6
Continuous
100
AcDbLine
 10
31.501894
 20
178.593472
 30
0.0
 11
31.501894
 21
175.999996
 31
0.0
  0
LINE
  5
1A0B1
330
1A07F
100
AcDbEntity
  8
1
  6
Continuous
100
AcDbLine
 10
43.501896
 20
178.593472
 30
0.0
 11
43.501896
 21
175.999996
 31
0.0
  0
LINE
  5
1A0B2
330
1A07F
100
AcDbEntity
  8
4
  6
CENTER
100
AcDbLine
 10
37.50189600000001
 20
218.999996
 30
0.0
 11
37.50189600000001
 21
100.999996
 31
0.0
  0
LINE
  5
1A0B3
330
1A07F
100
AcDbEntity
  8
1
  6
Continuous
100
AcDbLine
 10
218.706113
 20
178.999996
 30
0.0
 11
218.706113
 21
165.338161
 31
0.0
  0
LINE
  5
1A0B4
330
1A07F
100
AcDbEntity
  8
1
  6
Continuous
100
AcDbLine
 10
206.7061129999999
 20
178.999996
 30
0.0
 11
206.7061129999999
 21
165.338161
 31
0.0
  0
LINE
  5
1A0B5
330
1A07F
100
AcDbEntity
  8
4
  6
CENTER
100
AcDbLine
 10
212.7061129999999
 20
218.999996
 30
0.0
 11
212.7061129999999
 21
100.999996
 31
0.0
  0
CIRCLE
  5
1A0B6
330
1A07F
100
AcDbEntity
  8
1
  6
Continuous
100
AcDbCircle
 10
126.8469209999999
 20
171.499996
 30
0.0
 40
2.25
  0
ARC
  5
1A0B7
330
1A07F
100
AcDbEntity
  8
1
  6
Continuous
100
AcDbCircle
 10
126.8469209999999
 20
119.2499959999999
 30
0.0
 40
9.25
100
AcDbArc
 50
205.5936019999998
 51
11.142269
  0
ARC
  5
1A0B8
330
1A07F
100
AcDbEntity
  8
1
  6
Continuous
100
AcDbCircle
 10
126.8469209999999
 20
119.2499959999999
 30
0.0
 40
10.74999999999998
100
AcDbArc
 50
200.046655
 51
11.142269
  0
ARC
  5
1A0B9
330
1A07F
100
AcDbEntity
  8
1
  6
Continuous
100
AcDbCircle
 10
126.8469209999999
 20
119.2499959999999
 30
0.0
 40
13.25
100
AcDbArc
 50
202.3179519999998
 51
10.071794
  0
ARC
  5
1A0BA
330
1A07F
100
AcDbEntity
  8
1
  6
Continuous
100
AcDbCircle
 10
126.8469209999999
 20
119.2499959999999
 30
0.0
 40
11.75
100
AcDbArc
 50
199.8599989999999
 51
11.142269
  0
ARC
  5
1A0BB
330
1A07F
100
AcDbEntity
  8
1
  6
Continuous
100
AcDbCircle
 10
127.305631
 20
171.499996
 30
0.0
 40
4.5
100
AcDbArc
 50
269.9999969999999
 51
90.00000300000001
  0
LINE
  5
1A0BC
330
1A07F
100
AcDbEntity
  8
4
  6
CENTER
100
AcDbLine
 10
107.5019659999999
 20
156.2169609999999
 30
0.0
 11
145.123071
 21
156.2169609999999
 31
0.0
  0
LINE
  5
1A0BD
330
1A07F
100
AcDbEntity
  8
1
  6
Continuous
100
AcDbLine
 10
130.8519409999999
 20
165.8803979999999
 30
0.0
 11
123.878583
 21
165.270306
 31
0.0
  0
LINE
  5
1A0BE
330
1A07F
100
AcDbEntity
  8
4
  6
CENTER
100
AcDbLine
 10
122.3469209999999
 20
171.499996
 30
0.0
 11
131.346921
 21
171.499996
 31
0.0
  0
LINE
  5
1A0BF
330
1A07F
100
AcDbEntity
  8
1
  6
Continuous
100
AcDbLine
 10
128.9162259999999
 20
151.868786
 30
0.0
 11
127.36456
 21
160.6688039999999
 31
0.0
  0
LINE
  5
1A0C0
330
1A07F
100
AcDbEntity
  8
1
  6
Continuous
100
AcDbLine
 10
127.7344639999999
 20
151.660412
 30
0.0
 11
126.182782
 21
160.4604149999999
 31
0.0
  0
ARC
  5
1A0C1
330
1A07F
100
AcDbEntity
  8
1
  6
Continuous
100
AcDbCircle
 10
-32.445705
 20
136.022106
 30
0.0
 40
63.45525699999999
100
AcDbArc
 50
347.434949
 51
9.680868999999999
  0
ARC
  5
1A0C2
330
1A07F
100
AcDbEntity
  8
1
  6
Continuous
100
AcDbCircle
 10
107.4494929999999
 20
136.022106
 30
0.0
 40
63.45525699999999
100
AcDbArc
 50
170.319127
 51
192.565053
  0
ARC
  5
1A0C3
330
1A07F
100
AcDbEntity
  8
1
  6
Continuous
100
AcDbCircle
 10
-32.445705
 20
136.022106
 30
0.0
 40
62.45525699999999
100
AcDbArc
 50
347.3851579999998
 51
16.50923099999999
  0
ARC
  5
1A0C4
330
1A07F
100
AcDbEntity
  8
1
  6
Continuous
100
AcDbCircle
 10
107.4494929999999
 20
136.022106
 30
0.0
 40
62.45525699999999
100
AcDbArc
 50
163.490768
 51
192.614845
  0
ARC
  5
1A0C5
330
1A07F
100
AcDbEntity
  8
1
  6
Continuous
100
AcDbCircle
 10
144.501892
 20
120.439617
 30
0.0
 40
100.0
100
AcDbArc
 50
164.7963999999998
 51
173.515396
  0
ARC
  5
1A0C6
330
1A07F
100
AcDbEntity
  8
1
  6
Continuous
100
AcDbCircle
 10
-69.498108
 20
120.439617
 30
0.0
 40
100.0
100
AcDbArc
 50
6.484609999999999
 51
15.20360499999999
  0
LINE
  5
1A0C7
330
1A07F
100
AcDbEntity
  8
1
  6
Continuous
100
AcDbLine
 10
42.501896
 20
135.5019189999999
 30
0.0
 11
42.501896
 21
126.3507799999999
 31
0.0
  0
LINE
  5
1A0C8
330
1A07F
100
AcDbEntity
  8
1
  6
Continuous
100
AcDbLine
 10
32.50189600000001
 20
135.5019189999999
 30
0.0
 11
32.50189600000001
 21
126.3507799999999
 31
0.0
  0
LINE
  5
1A0C9
330
1A07F
100
AcDbEntity
  8
1
  6
Continuous
100
AcDbLine
 10
30.50189599999999
 20
107.4999959999999
 30
0.0
 11
32.27791599999999
 21
125.2720449999999
 31
0.0
  0
LINE
  5
1A0CA
330
1A07F
100
AcDbEntity
  8
1
  6
Continuous
100
AcDbLine
 10
29.42600399999999
 20
120.9999959999999
 30
0.0
 11
32.251896
 21
120.9999959999999
 31
0.0
  0
LINE
  5
1A0CB
330
1A07F
100
AcDbEntity
  8
1
  6
Continuous
100
AcDbLine
 10
30.501894
 20
107.4999959999999
 30
0.0
 11
32.251896
 21
105.999996
 31
0.0
  0
LINE
  5
1A0CC
330
1A07F
100
AcDbEntity
  8
1
  6
Continuous
100
AcDbLine
 10
30.501894
 20
120.9999959999999
 30
0.0
 11
30.501894
 21
107.4999959999999
 31
0.0
  0
ARC
  5
1A0CD
330
1A07F
100
AcDbEntity
  8
1
  6
Continuous
100
AcDbCircle
 10
30.465824
 20
121.9999959999999
 30
0.0
 40
1.0
100
AcDbArc
 50
167.434943
 51
270.000001
  0
ARC
  5
1A0CE
330
1A07F
100
AcDbEntity
  8
1
  6
Continuous
100
AcDbCircle
 10
29.42600399999999
 20
121.9999959999999
 30
0.0
 40
1.0
100
AcDbArc
 50
157.5345979999999
 51
270.000001
  0
LINE
  5
1A0CF
330
1A07F
100
AcDbEntity
  8
1
  6
Continuous
100
AcDbLine
 10
42.751896
 20
124.749996
 30
0.0
 11
44.501896
 21
107.4999959999999
 31
0.0
  0
LINE
  5
1A0D0
330
1A07F
100
AcDbEntity
  8
1
  6
Continuous
100
AcDbLine
 10
37.50189600000001
 20
118.02943
 30
0.0
 11
37.50189600000001
 21
108.4999959999999
 31
0.0
  0
LINE
  5
1A0D1
330
1A07F
100
AcDbEntity
  8
1
  6
Continuous
100
AcDbLine
 10
34.001896
 20
119.868511
 30
0.0
 11
34.001896
 21
107.4999959999999
 31
0.0
  0
LINE
  5
1A0D2
330
1A07F
100
AcDbEntity
  8
1
  6
Continuous
100
AcDbLine
 10
41.001896
 20
119.868511
 30
0.0
 11
41.001896
 21
107.4999959999999
 31
0.0
  0
LINE
  5
1A0D3
330
1A07F
100
AcDbEntity
  8
1
  6
Continuous
100
AcDbLine
 10
44.501896
 20
120.9999959999999
 30
0.0
 11
44.501896
 21
107.4999959999999
 31
0.0
  0
LINE
  5
1A0D4
330
1A07F
100
AcDbEntity
  8
1
  6
Continuous
100
AcDbLine
 10
32.251896
 20
124.749996
 30
0.0
 11
32.251896
 21
105.999996
 31
0.0
  0
LINE
  5
1A0D5
330
1A07F
100
AcDbEntity
  8
1
  6
Continuous
100
AcDbLine
 10
42.751896
 20
124.749996
 30
0.0
 11
42.751896
 21
105.999996
 31
0.0
  0
ARC
  5
1A0D6
330
1A07F
100
AcDbEntity
  8
1
  6
Continuous
100
AcDbCircle
 10
37.50189600000001
 20
101.874996
 30
0.0
 40
6.625
100
AcDbArc
 50
58.10920699999999
 51
121.8907909999998
  0
LINE
  5
1A0D7
330
1A07F
100
AcDbEntity
  8
1
  6
Continuous
100
AcDbLine
 10
42.7519
 20
105.999996
 30
0.0
 11
44.501896
 21
107.4999959999999
 31
0.0
  0
LINE
  5
1A0D8
330
1A07F
100
AcDbEntity
  8
1
  6
Continuous
100
AcDbLine
 10
41.001896
 20
107.4999959999999
 30
0.0
 11
42.751896
 21
105.999996
 31
0.0
  0
LINE
  5
1A0D9
330
1A07F
100
AcDbEntity
  8
1
  6
Continuous
100
AcDbLine
 10
32.251896
 20
105.999996
 30
0.0
 11
34.001896
 21
107.4999959999999
 31
0.0
  0
ARC
  5
1A0DA
330
1A07F
100
AcDbEntity
  8
1
  6
Continuous
100
AcDbCircle
 10
44.537964
 20
121.9999959999999
 30
0.0
 40
1.0
100
AcDbArc
 50
269.9999969999999
 51
12.565051
  0
ARC
  5
1A0DB
330
1A07F
100
AcDbEntity
  8
1
  6
Continuous
100
AcDbCircle
 10
37.50189600000001
 20
122.27943
 30
0.0
 40
4.25
100
AcDbArc
 50
179.9999909999999
 51
199.74992
  0
ARC
  5
1A0DC
330
1A07F
100
AcDbEntity
  8
1
  6
Continuous
100
AcDbCircle
 10
37.50189600000001
 20
122.27943
 30
0.0
 40
4.25
100
AcDbArc
 50
214.5603149999999
 51
325.439677
  0
ARC
  5
1A0DD
330
1A07F
100
AcDbEntity
  8
1
  6
Continuous
100
AcDbCircle
 10
37.50189600000001
 20
122.27943
 30
0.0
 40
4.25
100
AcDbArc
 50
340.250078
 51
0.0
  0
ARC
  5
1A0DE
330
1A07F
100
AcDbEntity
  8
1
  6
Continuous
100
AcDbCircle
 10
37.50189600000001
 20
124.749996
 30
0.0
 40
4.25
100
AcDbArc
 50
0.0
 51
180.000005
  0
ARC
  5
1A0DF
330
1A07F
100
AcDbEntity
  8
1
  6
Continuous
100
AcDbCircle
 10
37.50189600000001
 20
124.749996
 30
0.0
 40
5.25
100
AcDbArc
 50
0.0
 51
180.000005
  0
ARC
  5
1A0E0
330
1A07F
100
AcDbEntity
  8
1
  6
Continuous
100
AcDbCircle
 10
45.577785
 20
121.9999959999999
 30
0.0
 40
1.0
100
AcDbArc
 50
269.9999969999999
 51
22.46540199999999
  0
LINE
  5
1A0E1
330
1A07F
100
AcDbEntity
  8
1
  6
Continuous
100
AcDbLine
 10
33.251896
 20
124.749996
 30
0.0
 11
33.251896
 21
122.27943
 31
0.0
  0
LINE
  5
1A0E2
330
1A07F
100
AcDbEntity
  8
1
  6
Continuous
100
AcDbLine
 10
41.751896
 20
124.749996
 30
0.0
 11
41.751896
 21
122.27943
 31
0.0
  0
LINE
  5
1A0E3
330
1A07F
100
AcDbEntity
  8
1
  6
Continuous
100
AcDbLine
 10
42.751896
 20
120.9999959999999
 30
0.0
 11
45.46834899999999
 21
120.9999959999999
 31
0.0
  0
ARC
  5
1A0E4
330
1A07F
100
AcDbEntity
  8
1
  6
Continuous
100
AcDbCircle
 10
-17.49810599999999
 20
135.5019189999999
 30
0.0
 40
50.0
100
AcDbArc
 50
0.0
 51
18.22076799999998
  0
CIRCLE
  5
1A0E5
330
1A07F
100
AcDbEntity
  8
1
  6
Continuous
100
AcDbCircle
 10
37.50189600000001
 20
156.1646079999999
 30
0.0
 40
8.5
  0
LINE
  5
1A0E6
330
1A07F
100
AcDbEntity
  8
4
  6
CENTER
100
AcDbLine
 10
55.003788
 20
156.2169609999999
 30
0.0
 11
20.00305099999998
 21
156.2169609999999
 31
0.0
  0
LINE
  5
1A0E7
330
1A07F
100
AcDbEntity
  8
1
  6
Continuous
100
AcDbLine
 10
29.001894
 20
175.999996
 30
0.0
 11
46.001896
 21
175.999996
 31
0.0
  0
LINE
  5
1A0E8
330
1A07F
100
AcDbEntity
  8
4
  6
CENTER
100
AcDbLine
 10
23.001894
 20
171.499996
 30
0.0
 11
51.801895
 21
171.499996
 31
0.0
  0
ARC
  5
1A0E9
330
1A07F
100
AcDbEntity
  8
1
  6
Continuous
100
AcDbCircle
 10
37.50189600000001
 20
156.75378
 30
0.0
 40
10.5
100
AcDbArc
 50
131.515702
 51
196.345126
  0
ARC
  5
1A0EA
330
1A07F
100
AcDbEntity
  8
1
  6
Continuous
100
AcDbCircle
 10
35.0
 20
155.969952
 30
0.0
 40
10.0
100
AcDbArc
 50
114.3002859999999
 51
193.9056689999999
  0
LINE
  5
1A0EB
330
1A07F
100
AcDbEntity
  8
1
  6
Continuous
100
AcDbLine
 10
26.12948799999999
 20
154.448772
 30
0.0
 11
29.06314699999999
 21
137.3417019999999
 31
0.0
  0
ARC
  5
1A0EC
330
1A07F
100
AcDbEntity
  8
1
  6
Continuous
100
AcDbCircle
 10
20.24833099999999
 20
145.01115
 30
0.0
 40
10.0
100
AcDbArc
 50
9.680868999999999
 51
37.768549
  0
LINE
  5
1A0ED
330
1A07F
100
AcDbEntity
  8
1
  6
Continuous
100
AcDbLine
 10
27.00189599999999
 20
146.6646079999999
 30
0.0
 11
25.293076
 21
153.566708
 31
0.0
  0
ARC
  5
1A0EE
330
1A07F
100
AcDbEntity
  8
1
  6
Continuous
100
AcDbCircle
 10
35.0
 20
155.969952
 30
0.0
 40
9.0
100
AcDbArc
 50
135.6993429999999
 51
189.73088
  0
ARC
  5
1A0EF
330
1A07F
100
AcDbEntity
  8
1
  6
Continuous
100
AcDbCircle
 10
29.638605
 20
165.6367149999999
 30
0.0
 40
1.363288999999999
100
AcDbArc
 50
311.5157040000001
 51
90.00000300000001
  0
ARC
  5
1A0F0
330
1A07F
100
AcDbEntity
  8
1
  6
Continuous
100
AcDbCircle
 10
33.314396
 20
171.499996
 30
0.0
 40
5.3125
100
AcDbArc
 50
154.9423909999999
 51
205.057619
  0
LINE
  5
1A0F1
330
1A07F
100
AcDbEntity
  8
1
  6
Continuous
100
AcDbLine
 10
28.501894
 20
173.749996
 30
0.0
 11
28.501894
 21
169.249996
 31
0.0
  0
LINE
  5
1A0F2
330
1A07F
100
AcDbEntity
  8
1
  6
Continuous
100
AcDbLine
 10
28.501894
 20
173.749996
 30
0.0
 11
29.001894
 21
173.749996
 31
0.0
  0
LINE
  5
1A0F3
330
1A07F
100
AcDbEntity
  8
1
  6
Continuous
100
AcDbLine
 10
28.501894
 20
169.249996
 30
0.0
 11
29.001894
 21
169.249996
 31
0.0
  0
LINE
  5
1A0F4
330
1A07F
100
AcDbEntity
  8
1
  6
Continuous
100
AcDbLine
 10
29.001894
 20
175.999996
 30
0.0
 11
29.001894
 21
166.999996
 31
0.0
  0
LINE
  5
1A0F5
330
1A07F
100
AcDbEntity
  8
1
  6
Continuous
100
AcDbLine
 10
29.001894
 20
166.999996
 30
0.0
 11
29.638605
 21
166.999996
 31
0.0
  0
CIRCLE
  5
1A0F6
330
1A07F
100
AcDbEntity
  8
1
  6
Continuous
100
AcDbCircle
 10
37.50189600000001
 20
156.1646079999999
 30
0.0
 40
4.25
  0
ARC
  5
1A0F7
330
1A07F
100
AcDbEntity
  8
1
  6
Continuous
100
AcDbCircle
 10
37.50189600000001
 20
156.75378
 30
0.0
 40
10.5
100
AcDbArc
 50
343.654874
 51
48.48429199999999
  0
ARC
  5
1A0F8
330
1A07F
100
AcDbEntity
  8
1
  6
Continuous
100
AcDbCircle
 10
40.003788
 20
155.969952
 30
0.0
 40
10.0
100
AcDbArc
 50
346.094334
 51
65.699713
  0
LINE
  5
1A0F9
330
1A07F
100
AcDbEntity
  8
1
  6
Continuous
100
AcDbLine
 10
48.874302
 20
154.448757
 30
0.0
 11
45.940643
 21
137.341686
 31
0.0
  0
ARC
  5
1A0FA
330
1A07F
100
AcDbEntity
  8
1
  6
Continuous
100
AcDbCircle
 10
54.755459
 20
145.01115
 30
0.0
 40
10.0
100
AcDbArc
 50
142.231449
 51
170.319127
  0
ARC
  5
1A0FB
330
1A07F
100
AcDbEntity
  8
1
  6
Continuous
100
AcDbCircle
 10
92.50189199999999
 20
135.5019189999999
 30
0.0
 40
50.0
100
AcDbArc
 50
161.779232
 51
180.000005
  0
LINE
  5
1A0FC
330
1A07F
100
AcDbEntity
  8
1
  6
Continuous
100
AcDbLine
 10
48.001896
 20
146.6646079999999
 30
0.0
 11
49.71072
 21
153.566723
 31
0.0
  0
ARC
  5
1A0FD
330
1A07F
100
AcDbEntity
  8
1
  6
Continuous
100
AcDbCircle
 10
40.003788
 20
155.969952
 30
0.0
 40
9.0
100
AcDbArc
 50
350.2691159999998
 51
44.300655
  0
ARC
  5
1A0FE
330
1A07F
100
AcDbEntity
  8
1
  6
Continuous
100
AcDbCircle
 10
45.36518499999998
 20
165.6367149999999
 30
0.0
 40
1.363288999999999
100
AcDbArc
 50
90.00000300000001
 51
228.484294
  0
ARC
  5
1A0FF
330
1A07F
100
AcDbEntity
  8
1
  6
Continuous
100
AcDbCircle
 10
44.48783099999999
 20
171.499996
 30
0.0
 40
2.314062999999999
100
AcDbArc
 50
310.8656579999999
 51
49.134342
  0
LINE
  5
1A100
330
1A07F
100
AcDbEntity
  8
1
  6
Continuous
100
AcDbLine
 10
46.001896
 20
175.999996
 30
0.0
 11
46.001896
 21
166.999996
 31
0.0
  0
LINE
  5
1A101
330
1A07F
100
AcDbEntity
  8
1
  6
Continuous
100
AcDbLine
 10
45.36518499999998
 20
166.999996
 30
0.0
 11
46.001896
 21
166.999996
 31
0.0
  0
LINE
  5
1A102
330
1A07F
100
AcDbEntity
  8
1
  6
Continuous
100
AcDbLine
 10
116.350324
 20
121.6031459999999
 30
0.0
 11
117.3320279999999
 21
149.715588
 31
0.0
  0
LINE
  5
1A103
330
1A07F
100
AcDbEntity
  8
1
  6
Continuous
100
AcDbLine
 10
116.805646
 20
148.9598049999999
 30
0.0
 11
115.3056459999999
 21
120.9999959999999
 31
0.0
  0
LINE
  5
1A104
330
1A07F
100
AcDbEntity
  8
1
  6
Continuous
100
AcDbLine
 10
111.891934
 20
122.079678
 30
0.0
 11
113.818357
 21
146.179699
 31
0.0
  0
LINE
  5
1A105
330
1A07F
100
AcDbEntity
  8
1
  6
Continuous
100
AcDbLine
 10
112.805646
 20
120.9999959999999
 30
0.0
 11
114.8152129999999
 21
146.100399
 31
0.0
  0
ARC
  5
1A106
330
1A07F
100
AcDbEntity
  8
1
  6
Continuous
100
AcDbCircle
 10
112.888761
 20
121.9999959999999
 30
0.0
 40
1.0
100
AcDbArc
 50
175.42983
 51
270.000001
  0
ARC
  5
1A107
330
1A07F
100
AcDbEntity
  8
1
  6
Continuous
100
AcDbCircle
 10
119.171994
 20
124.8317069999999
 30
0.0
 40
9.168205999999999
100
AcDbArc
 50
152.688906
 51
227.8971709999999
  0
ARC
  5
1A108
330
1A07F
100
AcDbEntity
  8
1
  6
Continuous
100
AcDbCircle
 10
141.003781
 20
127.889721
 30
0.0
 40
30.0
100
AcDbArc
 50
177.8058749999999
 51
193.276909
  0
ARC
  5
1A109
330
1A07F
100
AcDbEntity
  8
1
  6
Continuous
100
AcDbCircle
 10
112.025037
 20
128.999996
 30
0.0
 40
1.0
100
AcDbArc
 50
60.675378
 51
177.8058749999999
  0
ARC
  5
1A10A
330
1A07F
100
AcDbEntity
  8
1
  6
Continuous
100
AcDbCircle
 10
112.05116
 20
113.851131
 30
0.0
 40
5.0
100
AcDbArc
 50
20.04665099999998
 51
56.684539
  0
ARC
  5
1A10B
330
1A07F
100
AcDbEntity
  8
1
  6
Continuous
100
AcDbCircle
 10
113.99513
 20
113.094219
 30
0.0
 40
5.0
100
AcDbArc
 50
25.593595
 51
80.76668599999996
  0
ARC
  5
1A10C
330
1A07F
100
AcDbEntity
  8
1
  6
Continuous
100
AcDbCircle
 10
141.003781
 20
127.889721
 30
0.0
 40
28.0
100
AcDbArc
 50
194.244573
 51
199.8599989999999
  0
LINE
  5
1A10D
330
1A07F
100
AcDbEntity
  8
1
  6
Continuous
100
AcDbLine
 10
116.350324
 20
121.6031459999999
 30
0.0
 11
115.3056309999999
 21
120.9999959999999
 31
0.0
  0
LINE
  5
1A10E
330
1A07F
100
AcDbEntity
  8
1
  6
Continuous
100
AcDbLine
 10
115.795758
 20
115.258251
 30
0.0
 11
114.6690649999999
 21
118.377483
 31
0.0
  0
LINE
  5
1A10F
330
1A07F
100
AcDbEntity
  8
1
  6
Continuous
100
AcDbLine
 10
111.805631
 20
120.9999959999999
 30
0.0
 11
114.5894749999998
 21
114.2183649999999
 31
0.0
  0
LINE
  5
1A110
330
1A07F
100
AcDbEntity
  8
1
  6
Continuous
100
AcDbLine
 10
115.3056309999999
 20
120.9999959999999
 30
0.0
 11
112.888761
 21
120.9999959999999
 31
0.0
  0
ARC
  5
1A111
330
1A07F
100
AcDbEntity
  8
1
  6
Continuous
100
AcDbCircle
 10
83.53809100000002
 20
158.302776
 30
0.0
 40
33.934978
100
AcDbArc
 50
348.6176929999999
 51
11.382307
  0
ARC
  5
1A112
330
1A07F
100
AcDbEntity
  8
1
  6
Continuous
100
AcDbCircle
 10
85.67622099999999
 20
157.598995
 30
0.0
 40
32.760834
100
AcDbArc
 50
347.97202
 51
11.267257
  0
LINE
  5
1A113
330
1A07F
100
AcDbEntity
  8
1
  6
Continuous
100
AcDbLine
 10
122.9144259999999
 20
157.6887629999999
 30
0.0
 11
121.393201
 21
151.6187549999999
 31
0.0
  0
LINE
  5
1A114
330
1A07F
100
AcDbEntity
  8
1
  6
Continuous
100
AcDbLine
 10
126.6715059999999
 20
157.6887629999999
 30
0.0
 11
125.1502659999998
 21
151.6187549999999
 31
0.0
  0
LINE
  5
1A115
330
1A07F
100
AcDbEntity
  8
1
  6
Continuous
100
AcDbLine
 10
120.220304
 20
151.660412
 30
0.0
 11
118.668622
 21
160.46043
 31
0.0
  0
LINE
  5
1A116
330
1A07F
100
AcDbEntity
  8
1
  6
Continuous
100
AcDbLine
 10
121.402081
 20
151.8688009999999
 30
0.0
 11
119.8504
 21
160.6688039999999
 31
0.0
  0
LINE
  5
1A117
330
1A07F
100
AcDbEntity
  8
1
  6
Continuous
100
AcDbLine
 10
123.977384
 20
151.660427
 30
0.0
 11
122.425717
 21
160.4604149999999
 31
0.0
  0
LINE
  5
1A118
330
1A07F
100
AcDbEntity
  8
1
  6
Continuous
100
AcDbLine
 10
125.1591619999999
 20
151.8688009999999
 30
0.0
 11
123.60748
 21
160.668789
 31
0.0
  0
LINE
  5
1A119
330
1A07F
100
AcDbEntity
  8
1
  6
Continuous
100
AcDbLine
 10
114.840558
 20
148.545803
 30
0.0
 11
115.267056
 21
160.7590899999999
 31
0.0
  0
LINE
  5
1A11A
330
1A07F
100
AcDbEntity
  8
1
  6
Continuous
100
AcDbLine
 10
112.5050169999999
 20
153.299084
 30
0.0
 11
112.723981
 21
159.568981
 31
0.0
  0
ARC
  5
1A11B
330
1A07F
100
AcDbEntity
  8
1
  6
Continuous
100
AcDbCircle
 10
120.8111849999999
 20
151.764614
 30
0.0
 40
0.6
100
AcDbArc
 50
190.000007
 51
345.9306639999998
  0
ARC
  5
1A11C
330
1A07F
100
AcDbEntity
  8
1
  6
Continuous
100
AcDbCircle
 10
124.568265
 20
151.764614
 30
0.0
 40
0.6
100
AcDbArc
 50
190.000007
 51
345.9306639999998
  0
ARC
  5
1A11D
330
1A07F
100
AcDbEntity
  8
1
  6
Continuous
100
AcDbCircle
 10
117.501966
 20
153.1245839999999
 30
0.0
 40
5.0
100
AcDbArc
 50
178.000003
 51
208.972124
  0
ARC
  5
1A11E
330
1A07F
100
AcDbEntity
  8
1
  6
Continuous
100
AcDbCircle
 10
117.805631
 20
145.8609889999999
 30
0.0
 40
4.0
100
AcDbArc
 50
124.849902
 51
175.42983
  0
ARC
  5
1A11F
330
1A07F
100
AcDbEntity
  8
1
  6
Continuous
100
AcDbCircle
 10
113.805631
 20
151.605556
 30
0.0
 40
4.0
100
AcDbArc
 50
304.8499039999999
 51
347.972027
  0
ARC
  5
1A120
330
1A07F
100
AcDbEntity
  8
1
  6
Continuous
100
AcDbCircle
 10
113.805631
 20
151.605556
 30
0.0
 40
3.0
100
AcDbArc
 50
304.8499039999999
 51
0.0
  0
ARC
  5
1A121
330
1A07F
100
AcDbEntity
  8
1
  6
Continuous
100
AcDbCircle
 10
117.805631
 20
145.8609889999999
 30
0.0
 40
3.0
100
AcDbArc
 50
124.849902
 51
180.000005
  0
LINE
  5
1A122
330
1A07F
100
AcDbEntity
  8
1
  6
Continuous
100
AcDbLine
 10
113.1276979999999
 20
150.702663
 30
0.0
 11
114.534101
 21
148.1625179999998
 31
0.0
  0
ARC
  5
1A123
330
1A07F
100
AcDbEntity
  8
1
  6
Continuous
100
AcDbCircle
 10
119.259519
 20
160.564602
 30
0.0
 40
0.6
100
AcDbArc
 50
10.0
 51
165.930662
  0
ARC
  5
1A124
330
1A07F
100
AcDbEntity
  8
1
  6
Continuous
100
AcDbCircle
 10
123.0165989999999
 20
160.564602
 30
0.0
 40
0.6
100
AcDbArc
 50
10.0
 51
165.9306759999998
  0
ARC
  5
1A125
330
1A07F
100
AcDbEntity
  8
1
  6
Continuous
100
AcDbCircle
 10
126.773664
 20
160.564602
 30
0.0
 40
0.6
100
AcDbArc
 50
10.0
 51
165.930662
  0
ARC
  5
1A126
330
1A07F
100
AcDbEntity
  8
1
  6
Continuous
100
AcDbCircle
 10
117.7209139999998
 20
159.394482
 30
0.0
 40
5.0
100
AcDbArc
 50
158.789904
 51
178.000003
  0
ARC
  5
1A127
330
1A07F
100
AcDbEntity
  8
1
  6
Continuous
100
AcDbCircle
 10
107.271924
 20
161.03828
 30
0.0
 40
8.0
100
AcDbArc
 50
358.0
 51
26.955024
  0
ARC
  5
1A128
330
1A07F
100
AcDbEntity
  8
1
  6
Continuous
100
AcDbCircle
 10
120.805631
 20
163.999996
 30
0.0
 40
3.0
100
AcDbArc
 50
90.00000300000001
 51
180.000005
  0
ARC
  5
1A129
330
1A07F
100
AcDbEntity
  8
1
  6
Continuous
100
AcDbCircle
 10
86.808805
 20
176.4361989999999
 30
0.0
 40
30.0
100
AcDbArc
 50
336.896941
 51
359.166897
  0
ARC
  5
1A12A
330
1A07F
100
AcDbEntity
  8
1
  6
Continuous
100
AcDbCircle
 10
118.805631
 20
164.999996
 30
0.0
 40
2.0
100
AcDbArc
 50
90.00000300000001
 51
180.000005
  0
LINE
  5
1A12B
330
1A07F
100
AcDbEntity
  8
1
  6
Continuous
100
AcDbLine
 10
123.727262
 20
166.999996
 30
0.0
 11
123.878583
 21
165.270306
 31
0.0
  0
LINE
  5
1A12C
330
1A07F
100
AcDbEntity
  8
1
  6
Continuous
100
AcDbLine
 10
119.1573459999998
 20
157.6887629999999
 30
0.0
 11
118.24336
 21
154.041775
 31
0.0
  0
LINE
  5
1A12D
330
1A07F
100
AcDbEntity
  8
1
  6
Continuous
100
AcDbLine
 10
118.6775179999999
 20
160.710461
 30
0.0
 11
118.3803989999999
 21
159.5249139999999
 31
0.0
  0
LINE
  5
1A12E
330
1A07F
100
AcDbEntity
  8
1
  6
Continuous
100
AcDbLine
 10
122.434583
 20
160.710461
 30
0.0
 11
120.913358
 21
154.640453
 31
0.0
  0
LINE
  5
1A12F
330
1A07F
100
AcDbEntity
  8
1
  6
Continuous
100
AcDbLine
 10
126.1916779999999
 20
160.710461
 30
0.0
 11
124.6704379999999
 21
154.640438
 31
0.0
  0
LINE
  5
1A130
330
1A07F
100
AcDbEntity
  8
1
  6
Continuous
100
AcDbLine
 10
114.402829
 20
164.664608
 30
0.0
 11
113.059628
 21
161.203442
 31
0.0
  0
LINE
  5
1A131
330
1A07F
100
AcDbEntity
  8
1
  6
Continuous
100
AcDbLine
 10
127.305631
 20
166.999996
 30
0.0
 11
118.805631
 21
166.999996
 31
0.0
  0
LINE
  5
1A132
330
1A07F
100
AcDbEntity
  8
1
  6
Continuous
100
AcDbLine
 10
127.305631
 20
175.999996
 30
0.0
 11
116.805631
 21
175.999996
 31
0.0
  0
LINE
  5
1A133
330
1A07F
100
AcDbEntity
  8
1
  6
Continuous
100
AcDbLine
 10
134.1780369999999
 20
137.65704
 30
0.0
 11
137.3942999999999
 21
121.3273889999999
 31
0.0
  0
LINE
  5
1A134
330
1A07F
100
AcDbEntity
  8
1
  6
Continuous
100
AcDbLine
 10
133.3551149999999
 20
134.0730859999999
 30
0.0
 11
135.922574
 21
121.037533
 31
0.0
  0
LINE
  5
1A135
330
1A07F
100
AcDbEntity
  8
1
  6
Continuous
100
AcDbLine
 10
134.4612699999998
 20
141.3937639999998
 30
0.0
 11
138.3754399999999
 21
121.5206409999999
 31
0.0
  0
LINE
  5
1A136
330
1A07F
100
AcDbEntity
  8
1
  6
Continuous
100
AcDbLine
 10
136.2755099999999
 20
141.932247
 30
0.0
 11
139.892743
 21
121.567181
 31
0.0
  0
LINE
  5
1A137
330
1A07F
100
AcDbEntity
  8
1
  6
Continuous
100
AcDbLine
 10
128.779401
 20
153.319424
 30
0.0
 11
128.604917
 21
158.3163719999998
 31
0.0
  0
LINE
  5
1A138
330
1A07F
100
AcDbEntity
  8
1
  6
Continuous
100
AcDbLine
 10
132.673306
 20
151.8688009999999
 30
0.0
 11
131.1216249999999
 21
160.6688039999999
 31
0.0
  0
LINE
  5
1A139
330
1A07F
100
AcDbEntity
  8
1
  6
Continuous
100
AcDbLine
 10
131.491544
 20
151.660427
 30
0.0
 11
129.939862
 21
160.46043
 31
0.0
  0
LINE
  5
1A13A
330
1A07F
100
AcDbEntity
  8
1
  6
Continuous
100
AcDbLine
 10
140.0327729999999
 20
158.715435
 30
0.0
 11
140.2072729999999
 21
153.718487
 31
0.0
  0
LINE
  5
1A13B
330
1A07F
100
AcDbEntity
  8
1
  6
Continuous
100
AcDbLine
 10
138.488446
 20
159.958828
 30
0.0
 11
138.75343
 21
152.370388
 31
0.0
  0
LINE
  5
1A13C
330
1A07F
100
AcDbEntity
  8
1
  6
Continuous
100
AcDbLine
 10
136.0351689999999
 20
165.1208
 30
0.0
 11
136.6986669999998
 21
146.1208
 31
0.0
  0
LINE
  5
1A13D
330
1A07F
100
AcDbEntity
  8
1
  6
Continuous
100
AcDbLine
 10
134.863355
 20
165.338146
 30
0.0
 11
135.387418
 21
150.331219
 31
0.0
  0
LINE
  5
1A13E
330
1A07F
100
AcDbEntity
  8
1
  6
Continuous
100
AcDbLine
 10
132.9267399999999
 20
163.4970049999998
 30
0.0
 11
133.366834
 21
150.8945429999999
 31
0.0
  0
ARC
  5
1A13F
330
1A07F
100
AcDbEntity
  8
1
  6
Continuous
100
AcDbCircle
 10
152.978101
 20
137.9379999999999
 30
0.0
 40
20.0
100
AcDbArc
 50
161.7935349999999
 51
191.14227
  0
ARC
  5
1A140
330
1A07F
100
AcDbEntity
  8
1
  6
Continuous
100
AcDbCircle
 10
128.3253449999999
 20
151.764614
 30
0.0
 40
0.6
100
AcDbArc
 50
189.9999929999999
 51
345.9306639999998
  0
ARC
  5
1A141
330
1A07F
100
AcDbEntity
  8
1
  6
Continuous
100
AcDbCircle
 10
132.082425
 20
151.764614
 30
0.0
 40
0.6
100
AcDbArc
 50
190.000007
 51
345.9306639999998
  0
ARC
  5
1A142
330
1A07F
100
AcDbEntity
  8
1
  6
Continuous
100
AcDbCircle
 10
133.756482
 20
152.195889
 30
0.0
 40
5.0
100
AcDbArc
 50
338.0470579999999
 51
2.0
  0
ARC
  5
1A143
330
1A07F
100
AcDbEntity
  8
1
  6
Continuous
100
AcDbCircle
 10
193.330289
 20
152.9885219999999
 30
0.0
 40
60.0
100
AcDbArc
 50
181.9999969999999
 51
191.1422739999999
  0
ARC
  5
1A144
330
1A07F
100
AcDbEntity
  8
1
  6
Continuous
100
AcDbCircle
 10
195.350873
 20
152.425182
 30
0.0
 40
60.0
100
AcDbArc
 50
181.9999969999999
 51
190.071792
  0
ARC
  5
1A145
330
1A07F
100
AcDbEntity
  8
1
  6
Continuous
100
AcDbCircle
 10
153.8010379999998
 20
141.521954
 30
0.0
 40
20.0
100
AcDbArc
 50
172.3428849999999
 51
191.14227
  0
LINE
  5
1A146
330
1A07F
100
AcDbEntity
  8
1
  6
Continuous
100
AcDbLine
 10
132.395261
 20
153.4456899999999
 30
0.0
 11
133.27667
 21
153.4764669999999
 31
0.0
  0
LINE
  5
1A147
330
1A07F
100
AcDbEntity
  8
1
  6
Continuous
100
AcDbLine
 10
128.779401
 20
153.319424
 30
0.0
 11
131.184201
 21
153.4033929999999
 31
0.0
  0
LINE
  5
1A148
330
1A07F
100
AcDbEntity
  8
1
  6
Continuous
100
AcDbLine
 10
129.3384519999999
 20
153.3389239999999
 30
0.0
 11
128.907346
 21
151.6187399999998
 31
0.0
  0
LINE
  5
1A149
330
1A07F
100
AcDbEntity
  8
1
  6
Continuous
100
AcDbLine
 10
133.128705
 20
153.471294
 30
0.0
 11
132.6644259999999
 21
151.6187549999999
 31
0.0
  0
LINE
  5
1A14A
330
1A07F
100
AcDbEntity
  8
1
  6
Continuous
100
AcDbLine
 10
138.7081879999997
 20
153.666134
 30
0.0
 11
140.2072729999999
 21
153.718487
 31
0.0
  0
LINE
  5
1A14B
330
1A07F
100
AcDbEntity
  8
1
  6
Continuous
100
AcDbLine
 10
138.393933
 20
150.326672
 30
0.0
 11
135.9191409999999
 21
144.1868399999999
 31
0.0
  0
ARC
  5
1A14C
330
1A07F
100
AcDbEntity
  8
1
  6
Continuous
100
AcDbCircle
 10
130.92796
 20
163.427197
 30
0.0
 40
2.0
100
AcDbArc
 50
2.0
 51
48.672693
  0
ARC
  5
1A14D
330
1A07F
100
AcDbEntity
  8
1
  6
Continuous
100
AcDbCircle
 10
115.7396969999998
 20
146.1553609999999
 30
0.0
 40
25.0
100
AcDbArc
 50
48.672693
 51
57.920475
  0
ARC
  5
1A14E
330
1A07F
100
AcDbEntity
  8
1
  6
Continuous
100
AcDbCircle
 10
130.5307439999999
 20
160.564602
 30
0.0
 40
0.6
100
AcDbArc
 50
10.0
 51
165.9306759999998
  0
ARC
  5
1A14F
330
1A07F
100
AcDbEntity
  8
1
  6
Continuous
100
AcDbCircle
 10
133.4914829999999
 20
159.784328
 30
0.0
 40
5.0
100
AcDbArc
 50
2.0
 51
32.27025299999999
  0
ARC
  5
1A150
330
1A07F
100
AcDbEntity
  8
1
  6
Continuous
100
AcDbCircle
 10
115.7870759999999
 20
119.1202509999999
 30
0.0
 40
50.0
100
AcDbArc
 50
67.571772
 51
74.656802
  0
LINE
  5
1A151
330
1A07F
100
AcDbEntity
  8
1
  6
Continuous
100
AcDbLine
 10
130.8341189999999
 20
166.084194
 30
0.0
 11
130.8519409999999
 21
165.8803979999999
 31
0.0
  0
LINE
  5
1A152
330
1A07F
100
AcDbEntity
  8
1
  6
Continuous
100
AcDbLine
 10
128.6958889999999
 20
155.711285
 30
0.0
 11
128.4275179999999
 21
154.640438
 31
0.0
  0
LINE
  5
1A153
330
1A07F
100
AcDbEntity
  8
1
  6
Continuous
100
AcDbLine
 10
128.604917
 20
158.3163719999998
 30
0.0
 11
130.3074459999999
 21
158.37582
 31
0.0
  0
LINE
  5
1A154
330
1A07F
100
AcDbEntity
  8
1
  6
Continuous
100
AcDbLine
 10
129.948743
 20
160.710461
 30
0.0
 11
129.355313
 21
158.342571
 31
0.0
  0
LINE
  5
1A155
330
1A07F
100
AcDbEntity
  8
1
  6
Continuous
100
AcDbLine
 10
131.5184909999999
 20
158.4181179999999
 30
0.0
 11
133.1021699999998
 21
158.4734149999999
 31
0.0
  0
LINE
  5
1A156
330
1A07F
100
AcDbEntity
  8
1
  6
Continuous
100
AcDbLine
 10
137.719174
 20
162.453899
 30
0.0
 11
133.743695
 21
168.749706
 31
0.0
  0
LINE
  5
1A157
330
1A07F
100
AcDbEntity
  8
1
  6
Continuous
100
AcDbLine
 10
138.5336889999998
 20
158.6630969999999
 30
0.0
 11
140.0327729999999
 21
158.715435
 31
0.0
  0
ARC
  5
1A158
330
1A07F
100
AcDbEntity
  8
1
  6
Continuous
100
AcDbCircle
 10
366.2046179999999
 20
121.6691699999998
 30
0.0
 40
150.0
100
AcDbArc
 50
171.8863409999999
 51
180.2556039999998
  0
ARC
  5
1A159
330
1A07F
100
AcDbEntity
  8
1
  6
Continuous
100
AcDbCircle
 10
59.207609
 20
121.6691699999998
 30
0.0
 40
150.0
100
AcDbArc
 50
359.744395
 51
8.113654999999997
  0
ARC
  5
1A15A
330
1A07F
100
AcDbEntity
  8
1
  6
Continuous
100
AcDbCircle
 10
319.706113
 20
120.439617
 30
0.0
 40
100.0
100
AcDbArc
 50
164.7963999999998
 51
180.000005
  0
ARC
  5
1A15B
330
1A07F
100
AcDbEntity
  8
1
  6
Continuous
100
AcDbCircle
 10
105.7061129999999
 20
120.439617
 30
0.0
 40
100.0
100
AcDbArc
 50
0.0
 51
15.20360499999999
  0
ARC
  5
1A15C
330
1A07F
100
AcDbEntity
  8
1
  6
Continuous
100
AcDbCircle
 10
127.5117929999999
 20
118.0157129999999
 30
0.0
 40
80.0
100
AcDbArc
 50
2.137827999999998
 51
20.984237
  0
ARC
  5
1A15D
330
1A07F
100
AcDbEntity
  8
1
  6
Continuous
100
AcDbCircle
 10
297.9004489999999
 20
118.0157129999999
 30
0.0
 40
80.0
100
AcDbArc
 50
159.0157649999999
 51
177.862169
  0
LINE
  5
1A15E
330
1A07F
100
AcDbEntity
  8
1
  6
Continuous
100
AcDbLine
 10
212.7061129999999
 20
134.179485
 30
0.0
 11
212.7061129999999
 21
108.4999959999999
 31
0.0
  0
LINE
  5
1A15F
330
1A07F
100
AcDbEntity
  8
1
  6
Continuous
100
AcDbLine
 10
216.206113
 20
120.9999959999999
 30
0.0
 11
216.206113
 21
107.4999959999999
 31
0.0
  0
LINE
  5
1A160
330
1A07F
100
AcDbEntity
  8
1
  6
Continuous
100
AcDbLine
 10
209.2061129999999
 20
120.9999959999999
 30
0.0
 11
209.2061129999999
 21
107.4999959999999
 31
0.0
  0
LINE
  5
1A161
330
1A07F
100
AcDbEntity
  8
1
  6
Continuous
100
AcDbLine
 10
219.7061129999999
 20
120.439617
 30
0.0
 11
219.7061129999999
 21
107.4999959999999
 31
0.0
  0
LINE
  5
1A162
330
1A07F
100
AcDbEntity
  8
1
  6
Continuous
100
AcDbLine
 10
205.706113
 20
120.439617
 30
0.0
 11
205.706113
 21
107.4999959999999
 31
0.0
  0
LINE
  5
1A163
330
1A07F
100
AcDbEntity
  8
1
  6
Continuous
100
AcDbLine
 10
217.9561129999999
 20
120.9999959999999
 30
0.0
 11
217.9561129999999
 21
105.999996
 31
0.0
  0
LINE
  5
1A164
330
1A07F
100
AcDbEntity
  8
1
  6
Continuous
100
AcDbLine
 10
207.4561129999999
 20
120.9999959999999
 30
0.0
 11
207.4561129999999
 21
105.999996
 31
0.0
  0
LINE
  5
1A165
330
1A07F
100
AcDbEntity
  8
1
  6
Continuous
100
AcDbLine
 10
207.4561129999999
 20
106.000011
 30
0.0
 11
205.706113
 21
107.500011
 31
0.0
  0
ARC
  5
1A166
330
1A07F
100
AcDbEntity
  8
1
  6
Continuous
100
AcDbCircle
 10
212.7061129999999
 20
101.874996
 30
0.0
 40
6.625
100
AcDbArc
 50
58.10920699999999
 51
121.8907909999998
  0
LINE
  5
1A167
330
1A07F
100
AcDbEntity
  8
1
  6
Continuous
100
AcDbLine
 10
209.2061129999999
 20
107.4999959999999
 30
0.0
 11
207.4561129999999
 21
105.999981
 31
0.0
  0
LINE
  5
1A168
330
1A07F
100
AcDbEntity
  8
1
  6
Continuous
100
AcDbLine
 10
217.9561129999999
 20
106.000011
 30
0.0
 11
216.206113
 21
107.500011
 31
0.0
  0
LINE
  5
1A169
330
1A07F
100
AcDbEntity
  8
1
  6
Continuous
100
AcDbLine
 10
219.7061129999999
 20
107.4999959999999
 30
0.0
 11
217.9561129999999
 21
105.999996
 31
0.0
  0
ARC
  5
1A16A
330
1A07F
100
AcDbEntity
  8
1
  6
Continuous
100
AcDbCircle
 10
142.758512
 20
136.022106
 30
0.0
 40
62.45525699999999
100
AcDbArc
 50
347.3851579999998
 51
356.0623549999998
  0
ARC
  5
1A16B
330
1A07F
100
AcDbEntity
  8
1
  6
Continuous
100
AcDbCircle
 10
204.6302159999999
 20
121.9999959999999
 30
0.0
 40
1.0
100
AcDbArc
 50
157.5345979999999
 51
270.000001
  0
LINE
  5
1A16C
330
1A07F
100
AcDbEntity
  8
1
  6
Continuous
100
AcDbLine
 10
205.706113
 20
120.9999959999999
 30
0.0
 11
204.6302159999999
 21
120.9999959999999
 31
0.0
  0
ARC
  5
1A16D
330
1A07F
100
AcDbEntity
  8
1
  6
Continuous
100
AcDbCircle
 10
282.6537149999999
 20
136.022106
 30
0.0
 40
62.45525699999999
100
AcDbArc
 50
183.93764
 51
192.614849
  0
ARC
  5
1A16E
330
1A07F
100
AcDbEntity
  8
1
  6
Continuous
100
AcDbCircle
 10
220.7820109999999
 20
121.9999959999999
 30
0.0
 40
1.0
100
AcDbArc
 50
269.9999969999999
 51
22.46540199999999
  0
LINE
  5
1A16F
330
1A07F
100
AcDbEntity
  8
1
  6
Continuous
100
AcDbLine
 10
220.7820109999999
 20
120.9999959999999
 30
0.0
 11
219.7061129999999
 21
120.9999959999999
 31
0.0
  0
ARC
  5
1A170
330
1A07F
100
AcDbEntity
  8
1
  6
Continuous
100
AcDbCircle
 10
215.208006
 20
155.969952
 30
0.0
 40
10.0
100
AcDbArc
 50
346.094334
 51
69.524277
  0
LINE
  5
1A171
330
1A07F
100
AcDbEntity
  8
4
  6
CENTER
100
AcDbLine
 10
230.205972
 20
156.2169609999999
 30
0.0
 11
195.2062549999999
 21
156.2169609999999
 31
0.0
  0
LINE
  5
1A172
330
1A07F
100
AcDbEntity
  8
4
  6
CENTER
100
AcDbLine
 10
227.2061129999999
 20
171.499996
 30
0.0
 11
198.406126
 21
171.499996
 31
0.0
  0
LINE
  5
1A173
330
1A07F
100
AcDbEntity
  8
1
  6
Continuous
100
AcDbLine
 10
223.2061129999999
 20
146.6646079999999
 30
0.0
 11
224.9149449999999
 21
153.566708
 31
0.0
  0
ARC
  5
1A174
330
1A07F
100
AcDbEntity
  8
1
  6
Continuous
100
AcDbCircle
 10
212.7061129999999
 20
156.166134
 30
0.0
 40
2.5
100
AcDbArc
 50
179.435012
 51
0.5649760000000002
  0
CIRCLE
  5
1A175
330
1A07F
100
AcDbEntity
  8
1
  6
Continuous
100
AcDbCircle
 10
212.7061129999999
 20
156.215435
 30
0.0
 40
2.5
  0
ARC
  5
1A176
330
1A07F
100
AcDbEntity
  8
1
  6
Continuous
100
AcDbCircle
 10
210.204221
 20
155.969952
 30
0.0
 40
10.0
100
AcDbArc
 50
110.475728
 51
193.9056689999999
  0
CIRCLE
  5
1A177
330
1A07F
100
AcDbEntity
  8
1
  6
Continuous
100
AcDbCircle
 10
212.7061129999999
 20
155.6207999999998
 30
0.0
 40
9.5
  0
LINE
  5
1A178
330
1A07F
100
AcDbEntity
  8
1
  6
Continuous
100
AcDbLine
 10
202.2061129999999
 20
146.6646079999999
 30
0.0
 11
200.4973119999999
 21
153.566708
 31
0.0
  0
ARC
  5
1A179
330
1A07F
100
AcDbEntity
  8
1
  6
Continuous
100
AcDbCircle
 10
212.7061129999999
 20
151.499996
 30
0.0
 40
10.0
100
AcDbArc
 50
239.999997
 51
299.999998
  0
ARC
  5
1A17A
330
1A07F
100
AcDbEntity
  8
1
  6
Continuous
100
AcDbCircle
 10
212.7061129999999
 20
176.124996
 30
0.0
 40
9.125
100
AcDbArc
 50
228.8879069999999
 51
311.112091
  0
ARC
  5
1A17B
330
1A07F
100
AcDbEntity
  8
1
  6
Continuous
100
AcDbCircle
 10
208.5186129999999
 20
171.499996
 30
0.0
 40
5.3125
100
AcDbArc
 50
154.942384
 51
205.0576159999998
  0
LINE
  5
1A17C
330
1A07F
100
AcDbEntity
  8
1
  6
Continuous
100
AcDbLine
 10
203.706113
 20
173.749996
 30
0.0
 11
203.706113
 21
169.249996
 31
0.0
  0
LINE
  5
1A17D
330
1A07F
100
AcDbEntity
  8
1
  6
Continuous
100
AcDbLine
 10
203.706113
 20
173.749996
 30
0.0
 11
204.206113
 21
173.749996
 31
0.0
  0
LINE
  5
1A17E
330
1A07F
100
AcDbEntity
  8
1
  6
Continuous
100
AcDbLine
 10
203.706113
 20
169.249996
 30
0.0
 11
204.206113
 21
169.249996
 31
0.0
  0
LINE
  5
1A17F
330
1A07F
100
AcDbEntity
  8
1
  6
Continuous
100
AcDbLine
 10
206.7061129999999
 20
170.249996
 30
0.0
 11
206.006101
 21
170.249996
 31
0.0
  0
LINE
  5
1A180
330
1A07F
100
AcDbEntity
  8
1
  6
Continuous
100
AcDbLine
 10
206.7061129999999
 20
172.749996
 30
0.0
 11
206.006101
 21
172.749996
 31
0.0
  0
LINE
  5
1A181
330
1A07F
100
AcDbEntity
  8
1
  6
Continuous
100
AcDbLine
 10
206.006101
 20
166.999996
 30
0.0
 11
204.206113
 21
166.999996
 31
0.0
  0
LINE
  5
1A182
330
1A07F
100
AcDbEntity
  8
1
  6
Continuous
100
AcDbLine
 10
206.006101
 20
175.999996
 30
0.0
 11
204.206113
 21
175.999996
 31
0.0
  0
LINE
  5
1A183
330
1A07F
100
AcDbEntity
  8
1
  6
Continuous
100
AcDbLine
 10
206.006101
 20
175.999996
 30
0.0
 11
206.006101
 21
166.999996
 31
0.0
  0
LINE
  5
1A184
330
1A07F
100
AcDbEntity
  8
1
  6
Continuous
100
AcDbLine
 10
204.206113
 20
175.999996
 30
0.0
 11
204.206113
 21
166.999996
 31
0.0
  0
CIRCLE
  5
1A185
330
1A07F
100
AcDbEntity
  8
1
  6
Continuous
100
AcDbCircle
 10
212.7061129999999
 20
156.2169609999999
 30
0.0
 40
0.75
  0
ARC
  5
1A186
330
1A07F
100
AcDbEntity
  8
1
  6
Continuous
100
AcDbCircle
 10
219.6920449999999
 20
171.499996
 30
0.0
 40
2.314062999999999
100
AcDbArc
 50
310.865663
 51
49.13433999999998
  0
LINE
  5
1A187
330
1A07F
100
AcDbEntity
  8
1
  6
Continuous
100
AcDbLine
 10
219.4061259999998
 20
170.249996
 30
0.0
 11
218.706113
 21
170.249996
 31
0.0
  0
LINE
  5
1A188
330
1A07F
100
AcDbEntity
  8
1
  6
Continuous
100
AcDbLine
 10
219.4061259999998
 20
172.749996
 30
0.0
 11
218.706113
 21
172.749996
 31
0.0
  0
LINE
  5
1A189
330
1A07F
100
AcDbEntity
  8
1
  6
Continuous
100
AcDbLine
 10
219.4061259999998
 20
175.999996
 30
0.0
 11
219.4061259999998
 21
166.999996
 31
0.0
  0
LINE
  5
1A18A
330
1A07F
100
AcDbEntity
  8
1
  6
Continuous
100
AcDbLine
 10
221.2061129999999
 20
175.999996
 30
0.0
 11
221.2061129999999
 21
166.999996
 31
0.0
  0
LINE
  5
1A18B
330
1A07F
100
AcDbEntity
  8
1
  6
Continuous
100
AcDbLine
 10
221.2061129999999
 20
166.999996
 30
0.0
 11
219.4061259999998
 21
166.999996
 31
0.0
  0
LINE
  5
1A18C
330
1A07F
100
AcDbEntity
  8
1
  6
Continuous
100
AcDbLine
 10
221.2061129999999
 20
175.999996
 30
0.0
 11
219.4061259999998
 21
175.999996
 31
0.0
  0
ARC
  5
1A18D
330
1A07F
100
AcDbEntity
  8
1
  6
Continuous
100
AcDbCircle
 10
126.8464939999998
 20
205.4439509999999
 30
0.0
 40
9.056051
100
AcDbArc
 50
353.678556
 51
186.361725
  0
ARC
  5
1A18E
330
1A07F
100
AcDbEntity
  8
1
  6
Continuous
100
AcDbCircle
 10
126.8469209999999
 20
204.499996
 30
0.0
 40
11.5
100
AcDbArc
 50
0.0
 51
180.000005
  0
ARC
  5
1A18F
330
1A07F
100
AcDbEntity
  8
1
  6
Continuous
100
AcDbCircle
 10
126.8469209999999
 20
259.414059
 30
0.0
 40
2.314062999999999
100
AcDbArc
 50
232.0413649999999
 51
307.958641
  0
ARC
  5
1A190
330
1A07F
100
AcDbEntity
  8
1
  6
Continuous
100
AcDbCircle
 10
126.8469209999999
 20
270.5874899999999
 30
0.0
 40
5.3125
100
AcDbArc
 50
64.94238100000003
 51
115.05761
  0
ARC
  5
1A191
330
1A07F
100
AcDbEntity
  8
1
  6
Continuous
100
AcDbCircle
 10
125.687421
 20
266.499996
 30
0.0
 40
5.728119
100
AcDbArc
 50
269.5641079999999
 51
319.1057379999999
  0
ARC
  5
1A192
330
1A07F
100
AcDbEntity
  8
1
  6
Continuous
100
AcDbCircle
 10
125.6002629999999
 20
266.499996
 30
0.0
 40
5.728119
100
AcDbArc
 50
220.894264
 51
319.1057379999999
  0
ARC
  5
1A193
330
1A07F
100
AcDbEntity
  8
1
  6
Continuous
100
AcDbCircle
 10
125.687421
 20
266.499996
 30
0.0
 40
5.728119
100
AcDbArc
 50
40.894262
 51
90.43589199999999
  0
ARC
  5
1A194
330
1A07F
100
AcDbEntity
  8
1
  6
Continuous
100
AcDbCircle
 10
125.6002629999999
 20
266.499996
 30
0.0
 40
5.728119
100
AcDbArc
 50
40.894262
 51
139.105736
  0
ARC
  5
1A195
330
1A07F
100
AcDbEntity
  8
1
  6
Continuous
100
AcDbCircle
 10
126.8469209999999
 20
266.499996
 30
0.0
 40
9.0
100
AcDbArc
 50
265.0549129999999
 51
334.8547779999999
  0
ARC
  5
1A196
330
1A07F
100
AcDbEntity
  8
1
  6
Continuous
100
AcDbCircle
 10
126.8469209999999
 20
266.499996
 30
0.0
 40
9.0
100
AcDbArc
 50
25.145222
 51
94.94508700000002
  0
LINE
  5
1A197
330
1A07F
100
AcDbEntity
  8
1
  6
Continuous
100
AcDbLine
 10
132.846921
 20
178.999996
 30
0.0
 11
123.881162
 21
178.2156029999999
 31
0.0
  0
LINE
  5
1A198
330
1A07F
100
AcDbEntity
  8
1
  6
Continuous
100
AcDbLine
 10
135.846921
 20
185.999996
 30
0.0
 11
117.4071629999998
 21
185.999996
 31
0.0
  0
LINE
  5
1A199
330
1A07F
100
AcDbEntity
  8
1
  6
Continuous
100
AcDbLine
 10
136.2931639999999
 20
183.499996
 30
0.0
 11
117.4071629999998
 21
183.499996
 31
0.0
  0
LINE
  5
1A19A
330
1A07F
100
AcDbEntity
  8
1
  6
Continuous
100
AcDbLine
 10
136.2931639999999
 20
180.999996
 30
0.0
 11
117.846921
 21
180.999996
 31
0.0
  0
LINE
  5
1A19B
330
1A07F
100
AcDbEntity
  8
1
  6
Continuous
100
AcDbLine
 10
136.965573
 20
258.341885
 30
0.0
 11
127.622739
 21
257.533504
 31
0.0
  0
LINE
  5
1A19C
330
1A07F
100
AcDbEntity
  8
1
  6
Continuous
100
AcDbLine
 10
136.965573
 20
274.658108
 30
0.0
 11
127.622724
 21
275.4664879999999
 31
0.0
  0
LINE
  5
1A19D
330
1A07F
100
AcDbEntity
  8
1
  6
Continuous
100
AcDbLine
 10
134.5280119999999
 20
262.749996
 30
0.0
 11
119.16583
 21
262.749996
 31
0.0
  0
LINE
  5
1A19E
330
1A07F
100
AcDbEntity
  8
1
  6
Continuous
100
AcDbLine
 10
134.5280119999999
 20
270.249996
 30
0.0
 11
119.16583
 21
270.249996
 31
0.0
  0
LINE
  5
1A19F
330
1A07F
100
AcDbEntity
  8
1
  6
Continuous
100
AcDbLine
 10
136.156308
 20
263.999996
 30
0.0
 11
117.5375489999999
 21
263.999996
 31
0.0
  0
LINE
  5
1A1A0
330
1A07F
100
AcDbEntity
  8
1
  6
Continuous
100
AcDbLine
 10
136.156308
 20
268.999996
 30
0.0
 11
117.5375489999999
 21
268.999996
 31
0.0
  0
LINE
  5
1A1A1
330
1A07F
100
AcDbEntity
  8
1
  6
Continuous
100
AcDbLine
 10
136.82005
 20
265.499996
 30
0.0
 11
116.873807
 21
265.499996
 31
0.0
  0
LINE
  5
1A1A2
330
1A07F
100
AcDbEntity
  8
1
  6
Continuous
100
AcDbLine
 10
136.82005
 20
267.499996
 30
0.0
 11
116.873807
 21
267.499996
 31
0.0
  0
LINE
  5
1A1A3
330
1A07F
100
AcDbEntity
  8
4
  6
CENTER
100
AcDbLine
 10
145.2072609999999
 20
266.499996
 30
0.0
 11
105.003781
 21
266.499996
 31
0.0
  0
ARC
  5
1A1A4
330
1A07F
100
AcDbEntity
  8
1
  6
Continuous
100
AcDbCircle
 10
42.19752999999999
 20
266.499996
 30
0.0
 40
69.006248
100
AcDbArc
 50
355.6367169999999
 51
4.363283
  0
ARC
  5
1A1A5
330
1A07F
100
AcDbEntity
  8
1
  6
Continuous
100
AcDbCircle
 10
143.1502199999999
 20
266.499996
 30
0.0
 40
30.64520499999999
100
AcDbArc
 50
173.468937
 51
186.531059
  0
ARC
  5
1A1A6
330
1A07F
100
AcDbEntity
  8
1
  6
Continuous
100
AcDbCircle
 10
36.69724799999999
 20
266.499996
 30
0.0
 40
76.026718
100
AcDbArc
 50
357.9369270000001
 51
2.063073
  0
ARC
  5
1A1A7
330
1A07F
100
AcDbEntity
  8
1
  6
Continuous
100
AcDbCircle
 10
156.4034089999998
 20
266.499996
 30
0.0
 40
42.000584
100
AcDbArc
 50
168.323933
 51
191.676063
  0
ARC
  5
1A1A8
330
1A07F
100
AcDbEntity
  8
1
  6
Continuous
100
AcDbCircle
 10
117.5375489999999
 20
261.499996
 30
0.0
 40
2.5
100
AcDbArc
 50
90.00000300000001
 51
172.4527549999999
  0
ARC
  5
1A1A9
330
1A07F
100
AcDbEntity
  8
1
  6
Continuous
100
AcDbCircle
 10
116.293729
 20
263.5325889999999
 30
0.0
 40
1.0
100
AcDbArc
 50
135.0
 51
172.4527549999999
  0
LINE
  5
1A1AA
330
1A07F
100
AcDbEntity
  8
1
  6
Continuous
100
AcDbLine
 10
110.003781
 20
269.749996
 30
0.0
 11
110.003781
 21
263.249996
 31
0.0
  0
LINE
  5
1A1AB
330
1A07F
100
AcDbEntity
  8
1
  6
Continuous
100
AcDbLine
 10
114.900678
 20
272.665585
 30
0.0
 11
114.900678
 21
260.3344079999998
 31
0.0
  0
LINE
  5
1A1AC
330
1A07F
100
AcDbEntity
  8
4
  6
CENTER
100
AcDbLine
 10
126.8469209999999
 20
284.0000099999999
 30
0.0
 11
126.8469209999999
 21
248.999996
 31
0.0
  0
LINE
  5
1A1AD
330
1A07F
100
AcDbEntity
  8
1
  6
Continuous
100
AcDbLine
 10
32.376671
 20
193.17355
 30
0.0
 11
30.479845
 21
184.2911639999999
 31
0.0
  0
LINE
  5
1A1AE
330
1A07F
100
AcDbEntity
  8
1
  6
Continuous
100
AcDbLine
 10
31.840542
 20
178.192654
 30
0.0
 11
34.002365
 21
177.8265189999999
 31
0.0
  0
LINE
  5
1A1AF
330
1A07F
100
AcDbEntity
  8
1
  6
Continuous
100
AcDbLine
 10
46.501896
 20
180.999996
 30
0.0
 11
28.501894
 21
180.999996
 31
0.0
  0
LINE
  5
1A1B0
330
1A07F
100
AcDbEntity
  8
1
  6
Continuous
100
AcDbLine
 10
28.501894
 20
183.499996
 30
0.0
 11
46.501896
 21
183.499996
 31
0.0
  0
ARC
  5
1A1B1
330
1A07F
100
AcDbEntity
  8
1
  6
Continuous
100
AcDbCircle
 10
29.501894
 20
184.499996
 30
0.0
 40
1.0
100
AcDbArc
 50
269.9999969999999
 51
347.9456009999998
  0
ARC
  5
1A1B2
330
1A07F
100
AcDbEntity
  8
1
  6
Continuous
100
AcDbCircle
 10
31.908424
 20
178.593472
 30
0.0
 40
0.40653
100
AcDbArc
 50
90.00000300000001
 51
260.3876839999999
  0
LINE
  5
1A1B3
330
1A07F
100
AcDbEntity
  8
1
  6
Continuous
100
AcDbLine
 10
28.501894
 20
185.999996
 30
0.0
 11
30.84476699999999
 21
185.999996
 31
0.0
  0
LINE
  5
1A1B4
330
1A07F
100
AcDbEntity
  8
1
  6
Continuous
100
AcDbLine
 10
28.501894
 20
185.999996
 30
0.0
 11
28.501894
 21
180.999996
 31
0.0
  0
ARC
  5
1A1B5
330
1A07F
100
AcDbEntity
  8
1
  6
Continuous
100
AcDbCircle
 10
-26.24810599999999
 20
205.9509999999999
 30
0.0
 40
60.0
100
AcDbArc
 50
348.186713
 51
0.0
  0
ARC
  5
1A1B6
330
1A07F
100
AcDbEntity
  8
1
  6
Continuous
100
AcDbCircle
 10
-84.977303
 20
218.234371
 30
0.0
 40
120.0
100
AcDbArc
 50
347.9456009999998
 51
358.9331009999999
  0
ARC
  5
1A1B7
330
1A07F
100
AcDbEntity
  8
1
  6
Continuous
100
AcDbCircle
 10
101.2518919999999
 20
205.9509999999999
 30
0.0
 40
60.0
100
AcDbArc
 50
179.9999909999999
 51
191.8132819999999
  0
ARC
  5
1A1B8
330
1A07F
100
AcDbEntity
  8
1
  6
Continuous
100
AcDbCircle
 10
159.9810939999999
 20
218.234371
 30
0.0
 40
120.0
100
AcDbArc
 50
181.0668979999999
 51
192.054405
  0
LINE
  5
1A1B9
330
1A07F
100
AcDbEntity
  8
1
  6
Continuous
100
AcDbLine
 10
36.501896
 20
214.499996
 30
0.0
 11
36.501896
 21
195.999996
 31
0.0
  0
LINE
  5
1A1BA
330
1A07F
100
AcDbEntity
  8
1
  6
Continuous
100
AcDbLine
 10
38.501896
 20
214.499996
 30
0.0
 11
38.501896
 21
195.999996
 31
0.0
  0
ARC
  5
1A1BB
330
1A07F
100
AcDbEntity
  8
1
  6
Continuous
100
AcDbCircle
 10
45.501896
 20
184.499996
 30
0.0
 40
1.0
100
AcDbArc
 50
192.054405
 51
269.9999969999999
  0
ARC
  5
1A1BC
330
1A07F
100
AcDbEntity
  8
1
  6
Continuous
100
AcDbCircle
 10
34.47026799999999
 20
178.624996
 30
0.0
 40
0.6
100
AcDbArc
 50
141.317816
 51
218.682194
  0
ARC
  5
1A1BD
330
1A07F
100
AcDbEntity
  8
1
  6
Continuous
100
AcDbCircle
 10
35.251896
 20
176.354305
 30
0.0
 40
1.5
100
AcDbArc
 50
0.0
 51
74.74488400000002
  0
ARC
  5
1A1BE
330
1A07F
100
AcDbEntity
  8
1
  6
Continuous
100
AcDbCircle
 10
33.75189600000001
 20
176.347576
 30
0.0
 40
1.5
100
AcDbArc
 50
0.0
 51
80.387652
  0
ARC
  5
1A1BF
330
1A07F
100
AcDbEntity
  8
1
  6
Continuous
100
AcDbCircle
 10
40.53352
 20
178.624996
 30
0.0
 40
0.6
100
AcDbArc
 50
321.317811
 51
38.682189
  0
ARC
  5
1A1C0
330
1A07F
100
AcDbEntity
  8
1
  6
Continuous
100
AcDbCircle
 10
43.09536399999998
 20
178.593472
 30
0.0
 40
0.40653
100
AcDbArc
 50
279.6123279999998
 51
90.00000300000001
  0
ARC
  5
1A1C1
330
1A07F
100
AcDbEntity
  8
1
  6
Continuous
100
AcDbCircle
 10
41.251896
 20
176.347576
 30
0.0
 40
1.5
100
AcDbArc
 50
99.61235300000002
 51
180.000005
  0
ARC
  5
1A1C2
330
1A07F
100
AcDbEntity
  8
1
  6
Continuous
100
AcDbCircle
 10
39.751896
 20
176.354305
 30
0.0
 40
1.5
100
AcDbArc
 50
105.255121
 51
180.000005
  0
ARC
  5
1A1C3
330
1A07F
100
AcDbEntity
  8
1
  6
Continuous
100
AcDbCircle
 10
37.50189600000001
 20
195.999996
 30
0.0
 40
1.0
100
AcDbArc
 50
180.000005
 51
0.00001
  0
LINE
  5
1A1C4
330
1A07F
100
AcDbEntity
  8
1
  6
Continuous
100
AcDbLine
 10
42.627121
 20
193.1735339999999
 30
0.0
 11
44.523949
 21
184.2911639999999
 31
0.0
  0
LINE
  5
1A1C5
330
1A07F
100
AcDbEntity
  8
1
  6
Continuous
100
AcDbLine
 10
34.001896
 20
180.999996
 30
0.0
 11
34.001896
 21
178.249996
 31
0.0
  0
LINE
  5
1A1C6
330
1A07F
100
AcDbEntity
  8
1
  6
Continuous
100
AcDbLine
 10
34.00189199999999
 20
178.249996
 30
0.0
 11
35.646568
 21
177.8014489999999
 31
0.0
  0
LINE
  5
1A1C7
330
1A07F
100
AcDbEntity
  8
1
  6
Continuous
100
AcDbLine
 10
43.16324999999999
 20
178.192654
 30
0.0
 11
41.00142299999999
 21
177.8265189999999
 31
0.0
  0
LINE
  5
1A1C8
330
1A07F
100
AcDbEntity
  8
1
  6
Continuous
100
AcDbLine
 10
41.00189199999999
 20
178.249996
 30
0.0
 11
39.35722
 21
177.8014489999999
 31
0.0
  0
LINE
  5
1A1C9
330
1A07F
100
AcDbEntity
  8
1
  6
Continuous
100
AcDbLine
 10
41.001896
 20
180.999996
 30
0.0
 11
41.001896
 21
178.249996
 31
0.0
  0
LINE
  5
1A1CA
330
1A07F
100
AcDbEntity
  8
1
  6
Continuous
100
AcDbLine
 10
46.501896
 20
185.999996
 30
0.0
 11
46.501896
 21
180.999996
 31
0.0
  0
LINE
  5
1A1CB
330
1A07F
100
AcDbEntity
  8
1
  6
Continuous
100
AcDbLine
 10
44.15902299999999
 20
185.999996
 30
0.0
 11
46.501896
 21
185.999996
 31
0.0
  0
LINE
  5
1A1CC
330
1A07F
100
AcDbEntity
  8
1
  6
Continuous
100
AcDbLine
 10
33.75189600000001
 20
214.499996
 30
0.0
 11
33.75189600000001
 21
205.9509999999999
 31
0.0
  0
LINE
  5
1A1CD
330
1A07F
100
AcDbEntity
  8
1
  6
Continuous
100
AcDbLine
 10
41.251896
 20
214.499996
 30
0.0
 11
41.251896
 21
205.9509999999999
 31
0.0
  0
LINE
  5
1A1CE
330
1A07F
100
AcDbEntity
  8
1
  6
Continuous
100
AcDbLine
 10
38.501896
 20
214.499996
 30
0.0
 11
40.00189999999999
 21
215.9999959999999
 31
0.0
  0
LINE
  5
1A1CF
330
1A07F
100
AcDbEntity
  8
1
  6
Continuous
100
AcDbLine
 10
35.00189199999999
 20
215.9999959999999
 30
0.0
 11
36.501896
 21
214.499996
 31
0.0
  0
LINE
  5
1A1D0
330
1A07F
100
AcDbEntity
  8
1
  6
Continuous
100
AcDbLine
 10
40.001888
 20
215.9999959999999
 30
0.0
 11
41.25188399999998
 21
214.499996
 31
0.0
  0
LINE
  5
1A1D1
330
1A07F
100
AcDbEntity
  8
1
  6
Continuous
100
AcDbLine
 10
35.00189999999999
 20
215.9999959999999
 30
0.0
 11
33.75189999999999
 21
214.499996
 31
0.0
  0
LINE
  5
1A1D2
330
1A07F
100
AcDbEntity
  8
1
  6
Continuous
100
AcDbLine
 10
36.501896
 20
214.499996
 30
0.0
 11
38.501896
 21
214.499996
 31
0.0
  0
LINE
  5
1A1D3
330
1A07F
100
AcDbEntity
  8
1
  6
Continuous
100
AcDbLine
 10
115.346936
 20
204.499996
 30
0.0
 11
114.9078649999998
 21
186.059505
 31
0.0
  0
LINE
  5
1A1D4
330
1A07F
100
AcDbEntity
  8
1
  6
Continuous
100
AcDbLine
 10
117.8462189999999
 20
204.440487
 30
0.0
 11
117.4071629999998
 21
185.999996
 31
0.0
  0
ARC
  5
1A1D5
330
1A07F
100
AcDbEntity
  8
1
  6
Continuous
100
AcDbCircle
 10
124.0554779999999
 20
176.2232019999999
 30
0.0
 40
2.0
100
AcDbArc
 50
95.000002
 51
185.0000039999999
  0
ARC
  5
1A1D6
330
1A07F
100
AcDbEntity
  8
1
  6
Continuous
100
AcDbCircle
 10
117.4071629999998
 20
185.999996
 30
0.0
 40
2.5
100
AcDbArc
 50
178.6360709999999
 51
270.000001
  0
LINE
  5
1A1D7
330
1A07F
100
AcDbEntity
  8
1
  6
Continuous
100
AcDbLine
 10
117.846921
 20
183.499996
 30
0.0
 11
117.846921
 21
180.999996
 31
0.0
  0
LINE
  5
1A1D8
330
1A07F
100
AcDbEntity
  8
1
  6
Continuous
100
AcDbLine
 10
113.003781
 20
261.249996
 30
0.0
 11
111.003781
 21
261.249996
 31
0.0
  0
ARC
  5
1A1D9
330
1A07F
100
AcDbEntity
  8
1
  6
Continuous
100
AcDbCircle
 10
111.003781
 20
263.249996
 30
0.0
 40
1.0
100
AcDbArc
 50
179.9999909999999
 51
270.000001
  0
LINE
  5
1A1DA
330
1A07F
100
AcDbEntity
  8
1
  6
Continuous
100
AcDbLine
 10
111.072782
 20
262.249996
 30
0.0
 11
111.003781
 21
262.249996
 31
0.0
  0
ARC
  5
1A1DB
330
1A07F
100
AcDbEntity
  8
1
  6
Continuous
100
AcDbCircle
 10
113.6242189999999
 20
255.714474
 30
0.0
 40
2.0
100
AcDbArc
 50
54.393485
 51
121.211474
  0
ARC
  5
1A1DC
330
1A07F
100
AcDbEntity
  8
1
  6
Continuous
100
AcDbCircle
 10
113.2854429999998
 20
257.019558
 30
0.0
 40
2.0
100
AcDbArc
 50
98.01984
 51
133.7205149999997
  0
ARC
  5
1A1DD
330
1A07F
100
AcDbEntity
  8
1
  6
Continuous
100
AcDbCircle
 10
42.19752999999999
 20
266.499996
 30
0.0
 40
71.006248
100
AcDbArc
 50
355.759844
 51
356.1208619999999
  0
ARC
  5
1A1DE
330
1A07F
100
AcDbEntity
  8
1
  6
Continuous
100
AcDbCircle
 10
120.3296629999999
 20
265.0783039999998
 30
0.0
 40
9.517137999999999
100
AcDbArc
 50
219.6927099999999
 51
252.533155
  0
ARC
  5
1A1DF
330
1A07F
100
AcDbEntity
  8
1
  6
Continuous
100
AcDbCircle
 10
83.195233
 20
266.499996
 30
0.0
 40
29.811184
100
AcDbArc
 50
344.363715
 51
349.8568329999998
  0
ARC
  5
1A1E0
330
1A07F
100
AcDbEntity
  8
1
  6
Continuous
100
AcDbCircle
 10
117.6714449999999
 20
263.5830649999999
 30
0.0
 40
5.0
100
AcDbArc
 50
177.936933
 51
212.1079319999998
  0
ARC
  5
1A1E1
330
1A07F
100
AcDbEntity
  8
1
  6
Continuous
100
AcDbCircle
 10
192.6284149999999
 20
266.499996
 30
0.0
 40
74.822777
100
AcDbArc
 50
186.3620839999999
 51
187.4487669999998
  0
ARC
  5
1A1E2
330
1A07F
100
AcDbEntity
  8
1
  6
Continuous
100
AcDbCircle
 10
199.732587
 20
266.499996
 30
0.0
 40
82.926956
100
AcDbArc
 50
185.674803
 51
187.2741739999999
  0
ARC
  5
1A1E3
330
1A07F
100
AcDbEntity
  8
1
  6
Continuous
100
AcDbCircle
 10
119.16583
 20
261.249996
 30
0.0
 40
1.5
100
AcDbArc
 50
90.00000300000001
 51
175.0017409999999
  0
ARC
  5
1A1E4
330
1A07F
100
AcDbEntity
  8
1
  6
Continuous
100
AcDbCircle
 10
116.9006779999999
 20
260.3344079999998
 30
0.0
 40
2.0
100
AcDbArc
 50
180.000005
 51
265.054916
  0
LINE
  5
1A1E5
330
1A07F
100
AcDbEntity
  8
1
  6
Continuous
100
AcDbLine
 10
111.90318
 20
258.4649929999998
 30
0.0
 11
112.587827
 21
257.4250139999999
 31
0.0
  0
LINE
  5
1A1E6
330
1A07F
100
AcDbEntity
  8
1
  6
Continuous
100
AcDbLine
 10
113.4362149999999
 20
260.9255029999999
 30
0.0
 11
115.2719239999999
 21
257.999996
 31
0.0
  0
LINE
  5
1A1E7
330
1A07F
100
AcDbEntity
  8
1
  6
Continuous
100
AcDbLine
 10
115.2719089999999
 20
257.999996
 30
0.0
 11
117.47305
 21
255.999996
 31
0.0
  0
LINE
  5
1A1E8
330
1A07F
100
AcDbEntity
  8
1
  6
Continuous
100
AcDbLine
 10
118.4370699999999
 20
256.799984
 30
0.0
 11
117.4730649999999
 21
255.999996
 31
0.0
  0
LINE
  5
1A1E9
330
1A07F
100
AcDbEntity
  8
1
  6
Continuous
100
AcDbLine
 10
117.6715359999999
 20
261.3807029999999
 30
0.0
 11
117.400678
 21
258.2836879999999
 31
0.0
  0
LINE
  5
1A1EA
330
1A07F
100
AcDbEntity
  8
1
  6
Continuous
100
AcDbLine
 10
115.302396
 20
263.6639369999999
 30
0.0
 11
114.900678
 21
260.631924
 31
0.0
  0
LINE
  5
1A1EB
330
1A07F
100
AcDbEntity
  8
1
  6
Continuous
100
AcDbLine
 10
116.706586
 20
258.343746
 30
0.0
 11
126.0711029999999
 21
257.533504
 31
0.0
  0
LINE
  5
1A1EC
330
1A07F
100
AcDbEntity
  8
1
  6
Continuous
100
AcDbLine
 10
113.003781
 20
271.749996
 30
0.0
 11
111.003781
 21
271.749996
 31
0.0
  0
ARC
  5
1A1ED
330
1A07F
100
AcDbEntity
  8
1
  6
Continuous
100
AcDbCircle
 10
111.003781
 20
269.749996
 30
0.0
 40
1.0
100
AcDbArc
 50
90.00000300000001
 51
180.000005
  0
LINE
  5
1A1EE
330
1A07F
100
AcDbEntity
  8
1
  6
Continuous
100
AcDbLine
 10
111.072782
 20
270.749996
 30
0.0
 11
111.003781
 21
270.749996
 31
0.0
  0
ARC
  5
1A1EF
330
1A07F
100
AcDbEntity
  8
1
  6
Continuous
100
AcDbCircle
 10
113.6242189999999
 20
277.285519
 30
0.0
 40
2.0
100
AcDbArc
 50
238.788526
 51
305.606515
  0
ARC
  5
1A1F0
330
1A07F
100
AcDbEntity
  8
1
  6
Continuous
100
AcDbCircle
 10
83.195233
 20
266.499996
 30
0.0
 40
29.811184
100
AcDbArc
 50
10.14316699999998
 51
15.636285
  0
ARC
  5
1A1F1
330
1A07F
100
AcDbEntity
  8
1
  6
Continuous
100
AcDbCircle
 10
113.2854429999998
 20
275.980434
 30
0.0
 40
2.0
100
AcDbArc
 50
226.279485
 51
261.98016
  0
ARC
  5
1A1F2
330
1A07F
100
AcDbEntity
  8
1
  6
Continuous
100
AcDbCircle
 10
42.19752999999999
 20
266.499996
 30
0.0
 40
71.006248
100
AcDbArc
 50
3.879138
 51
4.240155999999998
  0
ARC
  5
1A1F3
330
1A07F
100
AcDbEntity
  8
1
  6
Continuous
100
AcDbCircle
 10
120.3296629999999
 20
267.9216879999998
 30
0.0
 40
9.517137999999999
100
AcDbArc
 50
107.466845
 51
140.3072899999999
  0
ARC
  5
1A1F4
330
1A07F
100
AcDbEntity
  8
1
  6
Continuous
100
AcDbCircle
 10
199.732587
 20
266.499996
 30
0.0
 40
82.926956
100
AcDbArc
 50
172.725826
 51
174.325197
  0
ARC
  5
1A1F5
330
1A07F
100
AcDbEntity
  8
1
  6
Continuous
100
AcDbCircle
 10
192.6284149999999
 20
266.499996
 30
0.0
 40
74.822777
100
AcDbArc
 50
172.5512329999999
 51
173.637916
  0
ARC
  5
1A1F6
330
1A07F
100
AcDbEntity
  8
1
  6
Continuous
100
AcDbCircle
 10
117.6714449999999
 20
269.4169269999998
 30
0.0
 40
5.0
100
AcDbArc
 50
147.8920639999999
 51
182.063077
  0
ARC
  5
1A1F7
330
1A07F
100
AcDbEntity
  8
1
  6
Continuous
100
AcDbCircle
 10
116.873807
 20
266.499996
 30
0.0
 40
1.0
100
AcDbArc
 50
90.00000300000001
 51
270.000001
  0
ARC
  5
1A1F8
330
1A07F
100
AcDbEntity
  8
1
  6
Continuous
100
AcDbCircle
 10
117.5375489999999
 20
271.499996
 30
0.0
 40
2.5
100
AcDbArc
 50
187.547245
 51
269.9999969999999
  0
ARC
  5
1A1F9
330
1A07F
100
AcDbEntity
  8
1
  6
Continuous
100
AcDbCircle
 10
116.293729
 20
269.4674029999998
 30
0.0
 40
1.0
100
AcDbArc
 50
187.547245
 51
225.0
  0
ARC
  5
1A1FA
330
1A07F
100
AcDbEntity
  8
1
  6
Continuous
100
AcDbCircle
 10
119.16583
 20
271.749996
 30
0.0
 40
1.5
100
AcDbArc
 50
184.998259
 51
269.9999969999999
  0
ARC
  5
1A1FB
330
1A07F
100
AcDbEntity
  8
1
  6
Continuous
100
AcDbCircle
 10
116.9006779999999
 20
272.665585
 30
0.0
 40
2.0
100
AcDbArc
 50
94.94508700000002
 51
180.000005
  0
LINE
  5
1A1FC
330
1A07F
100
AcDbEntity
  8
1
  6
Continuous
100
AcDbLine
 10
111.9031499999999
 20
274.535
 30
0.0
 11
112.587811
 21
275.575008
 31
0.0
  0
LINE
  5
1A1FD
330
1A07F
100
AcDbEntity
  8
1
  6
Continuous
100
AcDbLine
 10
125.509015
 20
275.39999
 30
0.0
 11
124.5969209999999
 21
275.39999
 31
0.0
  0
LINE
  5
1A1FE
330
1A07F
100
AcDbEntity
  8
1
  6
Continuous
100
AcDbLine
 10
124.5969209999999
 20
275.39999
 30
0.0
 11
124.5969209999999
 21
275.338955
 31
0.0
  0
LINE
  5
1A1FF
330
1A07F
100
AcDbEntity
  8
1
  6
Continuous
100
AcDbLine
 10
115.2719239999999
 20
274.999996
 30
0.0
 11
113.4362
 21
272.07452
 31
0.0
  0
LINE
  5
1A200
330
1A07F
100
AcDbEntity
  8
1
  6
Continuous
100
AcDbLine
 10
117.4730649999999
 20
276.999996
 30
0.0
 11
115.2719239999999
 21
274.999996
 31
0.0
  0
LINE
  5
1A201
330
1A07F
100
AcDbEntity
  8
1
  6
Continuous
100
AcDbLine
 10
117.4730649999999
 20
276.999996
 30
0.0
 11
118.437055
 21
276.200008
 31
0.0
  0
LINE
  5
1A202
330
1A07F
100
AcDbEntity
  8
1
  6
Continuous
100
AcDbLine
 10
115.586637
 20
264.239712
 30
0.0
 11
116.846921
 21
265.499996
 31
0.0
  0
LINE
  5
1A203
330
1A07F
100
AcDbEntity
  8
1
  6
Continuous
100
AcDbLine
 10
115.586637
 20
268.760281
 30
0.0
 11
116.846921
 21
267.499996
 31
0.0
  0
LINE
  5
1A204
330
1A07F
100
AcDbEntity
  8
1
  6
Continuous
100
AcDbLine
 10
116.846921
 20
267.499996
 30
0.0
 11
116.846921
 21
265.499996
 31
0.0
  0
LINE
  5
1A205
330
1A07F
100
AcDbEntity
  8
1
  6
Continuous
100
AcDbLine
 10
117.400678
 20
274.7163049999999
 30
0.0
 11
117.6715359999999
 21
271.6192889999999
 31
0.0
  0
LINE
  5
1A206
330
1A07F
100
AcDbEntity
  8
1
  6
Continuous
100
AcDbLine
 10
115.302396
 20
269.336025
 30
0.0
 11
114.900678
 21
272.368069
 31
0.0
  0
LINE
  5
1A207
330
1A07F
100
AcDbEntity
  8
1
  6
Continuous
100
AcDbLine
 10
116.706586
 20
274.656246
 30
0.0
 11
126.0711179999999
 21
275.4664879999999
 31
0.0
  0
ARC
  5
1A208
330
1A07F
100
AcDbEntity
  8
1
  6
Continuous
100
AcDbCircle
 10
103.580899
 20
266.499996
 30
0.0
 40
36.626362
100
AcDbArc
 50
356.0861279999999
 51
3.913872
  0
ARC
  5
1A209
330
1A07F
100
AcDbEntity
  8
1
  6
Continuous
100
AcDbCircle
 10
175.15939
 20
266.499996
 30
0.0
 40
35.12661699999998
100
AcDbArc
 50
175.918748
 51
184.081248
  0
ARC
  5
1A20A
330
1A07F
100
AcDbEntity
  8
1
  6
Continuous
100
AcDbCircle
 10
136.156308
 20
261.499996
 30
0.0
 40
2.5
100
AcDbArc
 50
7.547248999999999
 51
90.00000300000001
  0
ARC
  5
1A20B
330
1A07F
100
AcDbEntity
  8
1
  6
Continuous
100
AcDbCircle
 10
137.4001129999998
 20
263.5325889999999
 30
0.0
 40
1.0
100
AcDbArc
 50
7.547248999999999
 51
45.00000099999999
  0
LINE
  5
1A20C
330
1A07F
100
AcDbEntity
  8
1
  6
Continuous
100
AcDbLine
 10
138.7931639999999
 20
272.665585
 30
0.0
 11
138.7931639999999
 21
260.3344079999998
 31
0.0
  0
LINE
  5
1A20D
330
1A07F
100
AcDbEntity
  8
1
  6
Continuous
100
AcDbLine
 10
135.847486
 20
204.4468189999999
 30
0.0
 11
136.2931639999999
 21
183.499996
 31
0.0
  0
LINE
  5
1A20E
330
1A07F
100
AcDbEntity
  8
1
  6
Continuous
100
AcDbLine
 10
138.346921
 20
204.500011
 30
0.0
 11
138.7926
 21
183.5531729999999
 31
0.0
  0
ARC
  5
1A20F
330
1A07F
100
AcDbEntity
  8
1
  6
Continuous
100
AcDbCircle
 10
136.2931639999999
 20
183.499996
 30
0.0
 40
2.5
100
AcDbArc
 50
269.9999969999999
 51
1.218874999999999
  0
LINE
  5
1A210
330
1A07F
100
AcDbEntity
  8
1
  6
Continuous
100
AcDbLine
 10
135.846921
 20
185.999996
 30
0.0
 11
135.846921
 21
183.499996
 31
0.0
  0
ARC
  5
1A211
330
1A07F
100
AcDbEntity
  8
1
  6
Continuous
100
AcDbCircle
 10
280.4729279999999
 20
266.499996
 30
0.0
 40
144.4377439999998
100
AcDbArc
 50
183.261561
 51
183.7712019999999
  0
ARC
  5
1A212
330
1A07F
100
AcDbEntity
  8
1
  6
Continuous
100
AcDbCircle
 10
391.3023959999999
 20
266.499996
 30
0.0
 40
258.3756409999999
100
AcDbArc
 50
181.884253
 51
182.551016
  0
ARC
  5
1A213
330
1A07F
100
AcDbEntity
  8
1
  6
Continuous
100
AcDbCircle
 10
378.899472
 20
266.499996
 30
0.0
 40
244.036102
100
AcDbArc
 50
181.955601
 51
182.936088
  0
ARC
  5
1A214
330
1A07F
100
AcDbEntity
  8
1
  6
Continuous
100
AcDbCircle
 10
136.7931639999999
 20
260.3344079999998
 30
0.0
 40
2.0
100
AcDbArc
 50
274.9450889999998
 51
0.0
  0
ARC
  5
1A215
330
1A07F
100
AcDbEntity
  8
1
  6
Continuous
100
AcDbCircle
 10
134.5280119999999
 20
261.249996
 30
0.0
 40
1.5
100
AcDbArc
 50
4.998259
 51
90.00000300000001
  0
LINE
  5
1A216
330
1A07F
100
AcDbEntity
  8
1
  6
Continuous
100
AcDbLine
 10
138.793195
 20
262.7710529999998
 30
0.0
 11
140.0969359999999
 21
261.249996
 31
0.0
  0
LINE
  5
1A217
330
1A07F
100
AcDbEntity
  8
1
  6
Continuous
100
AcDbLine
 10
140.096921
 20
261.2500269999998
 30
0.0
 11
138.625943
 21
259.5338709999999
 31
0.0
  0
LINE
  5
1A218
330
1A07F
100
AcDbEntity
  8
1
  6
Continuous
100
AcDbLine
 10
140.096921
 20
261.249996
 30
0.0
 11
138.7931639999999
 21
261.249996
 31
0.0
  0
LINE
  5
1A219
330
1A07F
100
AcDbEntity
  8
1
  6
Continuous
100
AcDbLine
 10
140.1218389999999
 20
263.999996
 30
0.0
 11
138.7931639999999
 21
263.999996
 31
0.0
  0
LINE
  5
1A21A
330
1A07F
100
AcDbEntity
  8
1
  6
Continuous
100
AcDbLine
 10
137.02847
 20
258.3473169999999
 30
0.0
 11
136.3479279999999
 21
256.999996
 31
0.0
  0
LINE
  5
1A21B
330
1A07F
100
AcDbEntity
  8
1
  6
Continuous
100
AcDbLine
 10
136.3479279999999
 20
256.999996
 30
0.0
 11
135.1837129999998
 21
253.999996
 31
0.0
  0
LINE
  5
1A21C
330
1A07F
100
AcDbEntity
  8
1
  6
Continuous
100
AcDbLine
 10
133.1828129999998
 20
254.999996
 30
0.0
 11
135.183728
 21
253.999996
 31
0.0
  0
LINE
  5
1A21D
330
1A07F
100
AcDbEntity
  8
1
  6
Continuous
100
AcDbLine
 10
136.0223049999999
 20
261.3807029999999
 30
0.0
 11
136.2931639999999
 21
258.2836879999999
 31
0.0
  0
LINE
  5
1A21E
330
1A07F
100
AcDbEntity
  8
1
  6
Continuous
100
AcDbLine
 10
138.3914459999998
 20
263.6639369999999
 30
0.0
 11
138.7931639999999
 21
260.631924
 31
0.0
  0
ARC
  5
1A21F
330
1A07F
100
AcDbEntity
  8
1
  6
Continuous
100
AcDbCircle
 10
148.956113
 20
205.753017
 30
0.0
 40
60.0
100
AcDbArc
 50
350.1152559999999
 51
0.0
  0
ARC
  5
1A220
330
1A07F
100
AcDbEntity
  8
1
  6
Continuous
100
AcDbCircle
 10
276.456113
 20
205.753017
 30
0.0
 40
60.0
100
AcDbArc
 50
179.9999909999999
 51
189.884737
  0
ARC
  5
1A221
330
1A07F
100
AcDbEntity
  8
1
  6
Continuous
100
AcDbCircle
 10
335.1852999999999
 20
218.234371
 30
0.0
 40
120.0
100
AcDbArc
 50
181.0668979999999
 51
189.88474
  0
ARC
  5
1A222
330
1A07F
100
AcDbEntity
  8
1
  6
Continuous
100
AcDbCircle
 10
90.226926
 20
218.234371
 30
0.0
 40
120.0
100
AcDbArc
 50
350.1152559999999
 51
358.9331009999999
  0
LINE
  5
1A223
330
1A07F
100
AcDbEntity
  8
1
  6
Continuous
100
AcDbLine
 10
213.7061129999999
 20
214.499996
 30
0.0
 11
213.7061129999999
 21
195.999996
 31
0.0
  0
LINE
  5
1A224
330
1A07F
100
AcDbEntity
  8
1
  6
Continuous
100
AcDbLine
 10
211.7061129999999
 20
214.499996
 30
0.0
 11
211.7061129999999
 21
195.999996
 31
0.0
  0
LINE
  5
1A225
330
1A07F
100
AcDbEntity
  8
1
  6
Continuous
100
AcDbLine
 10
208.445524
 20
197.63435
 30
0.0
 11
205.6912819999999
 21
181.828335
 31
0.0
  0
LINE
  5
1A226
330
1A07F
100
AcDbEntity
  8
1
  6
Continuous
100
AcDbLine
 10
221.7061129999999
 20
180.999996
 30
0.0
 11
203.706113
 21
180.999996
 31
0.0
  0
ARC
  5
1A227
330
1A07F
100
AcDbEntity
  8
1
  6
Continuous
100
AcDbCircle
 10
204.7061129999999
 20
181.999996
 30
0.0
 40
1.0
100
AcDbArc
 50
269.9999969999999
 51
350.1152559999999
  0
ARC
  5
1A228
330
1A07F
100
AcDbEntity
  8
1
  6
Continuous
100
AcDbCircle
 10
204.7061129999999
 20
184.499996
 30
0.0
 40
1.0
100
AcDbArc
 50
269.9999969999999
 51
337.283114
  0
LINE
  5
1A229
330
1A07F
100
AcDbEntity
  8
1
  6
Continuous
100
AcDbLine
 10
206.4182109999999
 20
186.000011
 30
0.0
 11
205.6285379999999
 21
184.1138109999999
 31
0.0
  0
LINE
  5
1A22A
330
1A07F
100
AcDbEntity
  8
1
  6
Continuous
100
AcDbLine
 10
204.7061129999999
 20
183.499996
 30
0.0
 11
203.706113
 21
183.499996
 31
0.0
  0
LINE
  5
1A22B
330
1A07F
100
AcDbEntity
  8
1
  6
Continuous
100
AcDbLine
 10
206.4182109999999
 20
185.999996
 30
0.0
 11
203.706113
 21
185.999996
 31
0.0
  0
LINE
  5
1A22C
330
1A07F
100
AcDbEntity
  8
1
  6
Continuous
100
AcDbLine
 10
203.706113
 20
185.999996
 30
0.0
 11
203.706113
 21
180.999996
 31
0.0
  0
ARC
  5
1A22D
330
1A07F
100
AcDbEntity
  8
1
  6
Continuous
100
AcDbCircle
 10
220.706113
 20
184.499996
 30
0.0
 40
1.0
100
AcDbArc
 50
202.7168899999999
 51
269.9999969999999
  0
ARC
  5
1A22E
330
1A07F
100
AcDbEntity
  8
1
  6
Continuous
100
AcDbCircle
 10
220.706113
 20
181.999996
 30
0.0
 40
1.0
100
AcDbArc
 50
189.88474
 51
269.9999969999999
  0
ARC
  5
1A22F
330
1A07F
100
AcDbEntity
  8
1
  6
Continuous
100
AcDbCircle
 10
212.7061129999999
 20
195.999996
 30
0.0
 40
1.0
100
AcDbArc
 50
179.9999909999999
 51
0.00001
  0
LINE
  5
1A230
330
1A07F
100
AcDbEntity
  8
1
  6
Continuous
100
AcDbLine
 10
218.9940159999999
 20
185.999996
 30
0.0
 11
219.783689
 21
184.1138269999999
 31
0.0
  0
LINE
  5
1A231
330
1A07F
100
AcDbEntity
  8
1
  6
Continuous
100
AcDbLine
 10
216.9667029999998
 20
197.634365
 30
0.0
 11
219.720945
 21
181.828335
 31
0.0
  0
LINE
  5
1A232
330
1A07F
100
AcDbEntity
  8
1
  6
Continuous
100
AcDbLine
 10
221.7061129999999
 20
185.999996
 30
0.0
 11
218.9940469999999
 21
185.999996
 31
0.0
  0
LINE
  5
1A233
330
1A07F
100
AcDbEntity
  8
1
  6
Continuous
100
AcDbLine
 10
221.7061129999999
 20
183.499996
 30
0.0
 11
220.706113
 21
183.499996
 31
0.0
  0
LINE
  5
1A234
330
1A07F
100
AcDbEntity
  8
1
  6
Continuous
100
AcDbLine
 10
221.7061129999999
 20
185.999996
 30
0.0
 11
221.7061129999999
 21
180.999996
 31
0.0
  0
LINE
  5
1A235
330
1A07F
100
AcDbEntity
  8
1
  6
Continuous
100
AcDbLine
 10
216.456113
 20
214.499996
 30
0.0
 11
216.456113
 21
205.753017
 31
0.0
  0
LINE
  5
1A236
330
1A07F
100
AcDbEntity
  8
1
  6
Continuous
100
AcDbLine
 10
208.9561129999999
 20
214.499996
 30
0.0
 11
208.9561129999999
 21
205.753017
 31
0.0
  0
LINE
  5
1A237
330
1A07F
100
AcDbEntity
  8
1
  6
Continuous
100
AcDbLine
 10
211.7061129999999
 20
214.499996
 30
0.0
 11
210.206113
 21
215.9999959999999
 31
0.0
  0
LINE
  5
1A238
330
1A07F
100
AcDbEntity
  8
1
  6
Continuous
100
AcDbLine
 10
215.2061129999999
 20
215.9999959999999
 30
0.0
 11
213.7061129999999
 21
214.499996
 31
0.0
  0
LINE
  5
1A239
330
1A07F
100
AcDbEntity
  8
1
  6
Continuous
100
AcDbLine
 10
210.206113
 20
215.9999959999999
 30
0.0
 11
208.9561129999999
 21
214.4999809999999
 31
0.0
  0
LINE
  5
1A23A
330
1A07F
100
AcDbEntity
  8
1
  6
Continuous
100
AcDbLine
 10
215.2061129999999
 20
216.0000109999999
 30
0.0
 11
216.456113
 21
214.500011
 31
0.0
  0
LINE
  5
1A23B
330
1A07F
100
AcDbEntity
  8
1
  6
Continuous
100
AcDbLine
 10
213.7061129999999
 20
214.499996
 30
0.0
 11
211.7061129999999
 21
214.499996
 31
0.0
  0
ARC
  5
1A23C
330
1A07F
100
AcDbEntity
  8
1
  6
Continuous
100
AcDbCircle
 10
280.4729279999999
 20
266.499996
 30
0.0
 40
144.4377439999998
100
AcDbArc
 50
176.228798
 51
176.738153
  0
ARC
  5
1A23D
330
1A07F
100
AcDbEntity
  8
1
  6
Continuous
100
AcDbCircle
 10
391.3023959999999
 20
266.499996
 30
0.0
 40
258.3756409999999
100
AcDbArc
 50
177.448984
 51
178.115747
  0
ARC
  5
1A23E
330
1A07F
100
AcDbEntity
  8
1
  6
Continuous
100
AcDbCircle
 10
378.899472
 20
266.499996
 30
0.0
 40
244.036102
100
AcDbArc
 50
177.063912
 51
178.044399
  0
ARC
  5
1A23F
330
1A07F
100
AcDbEntity
  8
1
  6
Continuous
100
AcDbCircle
 10
136.7931639999999
 20
272.665585
 30
0.0
 40
2.0
100
AcDbArc
 50
0.0
 51
85.054911
  0
ARC
  5
1A240
330
1A07F
100
AcDbEntity
  8
1
  6
Continuous
100
AcDbCircle
 10
136.82005
 20
266.499996
 30
0.0
 40
1.0
100
AcDbArc
 50
269.9999969999999
 51
90.00000300000001
  0
ARC
  5
1A241
330
1A07F
100
AcDbEntity
  8
1
  6
Continuous
100
AcDbCircle
 10
134.5280119999999
 20
271.749996
 30
0.0
 40
1.5
100
AcDbArc
 50
269.9999969999999
 51
355.0017409999999
  0
ARC
  5
1A242
330
1A07F
100
AcDbEntity
  8
1
  6
Continuous
100
AcDbCircle
 10
136.156308
 20
271.499996
 30
0.0
 40
2.5
100
AcDbArc
 50
269.9999969999999
 51
352.4527509999999
  0
ARC
  5
1A243
330
1A07F
100
AcDbEntity
  8
1
  6
Continuous
100
AcDbCircle
 10
137.4001129999998
 20
269.4674029999998
 30
0.0
 40
1.0
100
AcDbArc
 50
314.9999989999999
 51
352.4527509999999
  0
LINE
  5
1A244
330
1A07F
100
AcDbEntity
  8
1
  6
Continuous
100
AcDbLine
 10
129.096921
 20
275.39999
 30
0.0
 11
128.184827
 21
275.39999
 31
0.0
  0
LINE
  5
1A245
330
1A07F
100
AcDbEntity
  8
1
  6
Continuous
100
AcDbLine
 10
129.096921
 20
275.39999
 30
0.0
 11
129.096921
 21
275.338955
 31
0.0
  0
LINE
  5
1A246
330
1A07F
100
AcDbEntity
  8
1
  6
Continuous
100
AcDbLine
 10
140.0969059999999
 20
271.749996
 30
0.0
 11
138.7931639999999
 21
270.228939
 31
0.0
  0
LINE
  5
1A247
330
1A07F
100
AcDbEntity
  8
1
  6
Continuous
100
AcDbLine
 10
138.625943
 20
273.466122
 30
0.0
 11
140.096921
 21
271.749996
 31
0.0
  0
LINE
  5
1A248
330
1A07F
100
AcDbEntity
  8
1
  6
Continuous
100
AcDbLine
 10
140.096921
 20
271.749996
 30
0.0
 11
138.7931639999999
 21
271.749996
 31
0.0
  0
LINE
  5
1A249
330
1A07F
100
AcDbEntity
  8
1
  6
Continuous
100
AcDbLine
 10
140.1218389999999
 20
268.999996
 30
0.0
 11
138.7931639999999
 21
268.999996
 31
0.0
  0
LINE
  5
1A24A
330
1A07F
100
AcDbEntity
  8
1
  6
Continuous
100
AcDbLine
 10
136.3479429999999
 20
275.999996
 30
0.0
 11
137.0284849999999
 21
274.652706
 31
0.0
  0
LINE
  5
1A24B
330
1A07F
100
AcDbEntity
  8
1
  6
Continuous
100
AcDbLine
 10
135.1837129999998
 20
278.999996
 30
0.0
 11
136.3479279999999
 21
275.999996
 31
0.0
  0
LINE
  5
1A24C
330
1A07F
100
AcDbEntity
  8
1
  6
Continuous
100
AcDbLine
 10
135.1836979999999
 20
278.999996
 30
0.0
 11
133.1827819999998
 21
277.999996
 31
0.0
  0
LINE
  5
1A24D
330
1A07F
100
AcDbEntity
  8
1
  6
Continuous
100
AcDbLine
 10
138.107205
 20
264.239681
 30
0.0
 11
136.846921
 21
265.499996
 31
0.0
  0
LINE
  5
1A24E
330
1A07F
100
AcDbEntity
  8
1
  6
Continuous
100
AcDbLine
 10
138.107221
 20
268.7603109999999
 30
0.0
 11
136.846921
 21
267.499996
 31
0.0
  0
LINE
  5
1A24F
330
1A07F
100
AcDbEntity
  8
1
  6
Continuous
100
AcDbLine
 10
136.846921
 20
267.499996
 30
0.0
 11
136.846921
 21
265.499996
 31
0.0
  0
LINE
  5
1A250
330
1A07F
100
AcDbEntity
  8
1
  6
Continuous
100
AcDbLine
 10
136.2931639999999
 20
274.7163049999999
 30
0.0
 11
136.0223049999999
 21
271.6192889999999
 31
0.0
  0
LINE
  5
1A251
330
1A07F
100
AcDbEntity
  8
1
  6
Continuous
100
AcDbLine
 10
138.3914459999998
 20
269.3360559999999
 30
0.0
 11
138.7931639999999
 21
272.368069
 31
0.0
  0
LINE
  5
1A252
330
1A07F
100
AcDbEntity
  8
4
  6
CENTER
100
AcDbLine
 10
280.292208
 20
156.2169609999999
 30
0.0
 11
317.913267
 21
156.2169609999999
 31
0.0
  0
CIRCLE
  5
1A253
330
1A07F
100
AcDbEntity
  8
1
  6
Continuous
100
AcDbCircle
 10
298.5683569999998
 20
171.499996
 30
0.0
 40
1.75
  0
ARC
  5
1A254
330
1A07F
100
AcDbEntity
  8
1
  6
Continuous
100
AcDbCircle
 10
130.2012759999997
 20
77.82168199999998
 30
0.0
 40
32.86087
100
AcDbArc
 50
250.266365
 51
272.798449
  0
ARC
  5
1A255
330
1A07F
100
AcDbEntity
  8
1
  6
Continuous
100
AcDbCircle
 10
130.2012759999997
 20
79.62167700000001
 30
0.0
 40
32.86087
100
AcDbArc
 50
258.1584229999999
 51
272.798449
  0
ARC
  5
1A256
330
1A07F
100
AcDbEntity
  8
1
  6
Continuous
100
AcDbCircle
 10
130.2012759999997
 20
29.178314
 30
0.0
 40
32.86087
100
AcDbArc
 50
87.20155099999997
 51
109.733635
  0
ARC
  5
1A257
330
1A07F
100
AcDbEntity
  8
1
  6
Continuous
100
AcDbCircle
 10
130.2012759999997
 20
27.37831299999999
 30
0.0
 40
32.86087
100
AcDbArc
 50
87.20155099999997
 51
101.8415769999998
  0
ARC
  5
1A258
330
1A07F
100
AcDbEntity
  8
1
  6
Continuous
100
AcDbCircle
 10
126.8469209999999
 20
49.31249600000001
 30
0.0
 40
5.3125
100
AcDbArc
 50
244.94239
 51
295.0576189999998
  0
ARC
  5
1A259
330
1A07F
100
AcDbEntity
  8
1
  6
Continuous
100
AcDbCircle
 10
126.8469209999999
 20
60.48593499999999
 30
0.0
 40
2.314062999999999
100
AcDbArc
 50
40.865657
 51
139.1343409999997
  0
LINE
  5
1A25A
330
1A07F
100
AcDbEntity
  8
1
  6
Continuous
100
AcDbLine
 10
129.096921
 20
44.999996
 30
0.0
 11
124.5969209999999
 21
44.999996
 31
0.0
  0
LINE
  5
1A25B
330
1A07F
100
AcDbEntity
  8
1
  6
Continuous
100
AcDbLine
 10
129.096921
 20
44.499996
 30
0.0
 11
124.5969209999999
 21
44.499996
 31
0.0
  0
LINE
  5
1A25C
330
1A07F
100
AcDbEntity
  8
1
  6
Continuous
100
AcDbLine
 10
138.596921
 20
49.999996
 30
0.0
 11
113.025037
 21
49.999996
 31
0.0
  0
LINE
  5
1A25D
330
1A07F
100
AcDbEntity
  8
1
  6
Continuous
100
AcDbLine
 10
138.596921
 20
56.99999599999999
 30
0.0
 11
113.025037
 21
56.99999599999999
 31
0.0
  0
LINE
  5
1A25E
330
1A07F
100
AcDbEntity
  8
1
  6
Continuous
100
AcDbLine
 10
140.096921
 20
48.249996
 30
0.0
 11
111.003781
 21
48.249996
 31
0.0
  0
LINE
  5
1A25F
330
1A07F
100
AcDbEntity
  8
1
  6
Continuous
100
AcDbLine
 10
140.096921
 20
58.74999599999998
 30
0.0
 11
111.003781
 21
58.74999599999998
 31
0.0
  0
LINE
  5
1A260
330
1A07F
100
AcDbEntity
  8
1
  6
Continuous
100
AcDbLine
 10
111.003781
 20
48.249996
 30
0.0
 11
138.596936
 21
46.499996
 31
0.0
  0
LINE
  5
1A261
330
1A07F
100
AcDbEntity
  8
1
  6
Continuous
100
AcDbLine
 10
138.596921
 20
60.49999599999999
 30
0.0
 11
111.003781
 21
58.74999599999998
 31
0.0
  0
LINE
  5
1A262
330
1A07F
100
AcDbEntity
  8
4
  6
CENTER
100
AcDbLine
 10
145.2072609999999
 20
53.499996
 30
0.0
 11
105.003781
 21
53.499996
 31
0.0
  0
ARC
  5
1A263
330
1A07F
100
AcDbEntity
  8
1
  6
Continuous
100
AcDbCircle
 10
128.0814029999999
 20
53.499996
 30
0.0
 40
13.678575
100
AcDbArc
 50
203.891505
 51
225.164839
  0
ARC
  5
1A264
330
1A07F
100
AcDbEntity
  8
1
  6
Continuous
100
AcDbCircle
 10
120.3296629999999
 20
52.07830799999999
 30
0.0
 40
9.517137999999999
100
AcDbArc
 50
234.393491
 51
252.533155
  0
LINE
  5
1A265
330
1A07F
100
AcDbEntity
  8
1
  6
Continuous
100
AcDbLine
 10
118.4370389999999
 20
43.799999
 30
0.0
 11
114.0128299999999
 21
44.676357
 31
0.0
  0
LINE
  5
1A266
330
1A07F
100
AcDbEntity
  8
4
  6
CENTER
100
AcDbLine
 10
126.8469209999999
 20
70.999996
 30
0.0
 11
126.8469209999999
 21
35.99999600000001
 31
0.0
  0
LINE
  5
1A267
330
1A07F
100
AcDbEntity
  8
1
  6
Continuous
100
AcDbLine
 10
118.437055
 20
46.473896
 30
0.0
 11
118.437055
 21
43.799995
 31
0.0
  0
LINE
  5
1A268
330
1A07F
100
AcDbEntity
  8
1
  6
Continuous
100
AcDbLine
 10
117.4730649999999
 20
42.999992
 30
0.0
 11
118.437055
 21
43.799999
 31
0.0
  0
LINE
  5
1A269
330
1A07F
100
AcDbEntity
  8
1
  6
Continuous
100
AcDbLine
 10
111.072934
 20
49.252388
 30
0.0
 11
113.025052
 21
49.999996
 31
0.0
  0
LINE
  5
1A26A
330
1A07F
100
AcDbEntity
  8
1
  6
Continuous
100
AcDbLine
 10
111.072934
 20
57.747604
 30
0.0
 11
113.025052
 21
56.99999599999999
 31
0.0
  0
LINE
  5
1A26B
330
1A07F
100
AcDbEntity
  8
1
  6
Continuous
100
AcDbLine
 10
113.003781
 20
48.249996
 30
0.0
 11
111.003781
 21
48.249996
 31
0.0
  0
LINE
  5
1A26C
330
1A07F
100
AcDbEntity
  8
1
  6
Continuous
100
AcDbLine
 10
113.003781
 20
58.74999599999998
 30
0.0
 11
111.003781
 21
58.74999599999998
 31
0.0
  0
ARC
  5
1A26D
330
1A07F
100
AcDbEntity
  8
1
  6
Continuous
100
AcDbCircle
 10
42.19752999999999
 20
53.499996
 30
0.0
 40
69.006248
100
AcDbArc
 50
355.6367169999999
 51
356.4709879999999
  0
ARC
  5
1A26E
330
1A07F
100
AcDbEntity
  8
1
  6
Continuous
100
AcDbCircle
 10
111.003781
 20
50.24999600000001
 30
0.0
 40
1.0
100
AcDbArc
 50
179.9999909999999
 51
270.000001
  0
ARC
  5
1A26F
330
1A07F
100
AcDbEntity
  8
1
  6
Continuous
100
AcDbCircle
 10
111.003781
 20
56.74999599999999
 30
0.0
 40
1.0
100
AcDbArc
 50
90.00000300000001
 51
180.000005
  0
ARC
  5
1A270
330
1A07F
100
AcDbEntity
  8
1
  6
Continuous
100
AcDbCircle
 10
42.19752999999999
 20
53.499996
 30
0.0
 40
69.006248
100
AcDbArc
 50
3.529012
 51
4.363283
  0
LINE
  5
1A271
330
1A07F
100
AcDbEntity
  8
1
  6
Continuous
100
AcDbLine
 10
111.072782
 20
57.74999600000001
 30
0.0
 11
111.003781
 21
57.74999600000001
 31
0.0
  0
LINE
  5
1A272
330
1A07F
100
AcDbEntity
  8
1
  6
Continuous
100
AcDbLine
 10
111.072782
 20
49.249996
 30
0.0
 11
111.003781
 21
49.249996
 31
0.0
  0
LINE
  5
1A273
330
1A07F
100
AcDbEntity
  8
1
  6
Continuous
100
AcDbLine
 10
110.003781
 20
50.24999600000001
 30
0.0
 11
110.003781
 21
56.74999599999999
 31
0.0
  0
ARC
  5
1A274
330
1A07F
100
AcDbEntity
  8
1
  6
Continuous
100
AcDbCircle
 10
83.87988799999998
 20
52.45999499999999
 30
0.0
 40
29.811184
100
AcDbArc
 50
344.283866
 51
351.5899109999998
  0
ARC
  5
1A275
330
1A07F
100
AcDbEntity
  8
1
  6
Continuous
100
AcDbCircle
 10
83.87988799999998
 20
54.539997
 30
0.0
 40
29.811184
100
AcDbArc
 50
8.410088999999999
 51
15.636285
  0
ARC
  5
1A276
330
1A07F
100
AcDbEntity
  8
1
  6
Continuous
100
AcDbCircle
 10
113.6242189999999
 20
64.28551899999999
 30
0.0
 40
2.0
100
AcDbArc
 50
238.788526
 51
305.606515
  0
ARC
  5
1A277
330
1A07F
100
AcDbEntity
  8
1
  6
Continuous
100
AcDbCircle
 10
113.6242189999999
 20
42.71447399999997
 30
0.0
 40
2.0
100
AcDbArc
 50
54.393485
 51
121.211474
  0
ARC
  5
1A278
330
1A07F
100
AcDbEntity
  8
1
  6
Continuous
100
AcDbCircle
 10
118.937055
 20
46.42000999999999
 30
0.0
 40
0.5
100
AcDbArc
 50
70.26636299999998
 51
180.000005
  0
ARC
  5
1A279
330
1A07F
100
AcDbEntity
  8
1
  6
Continuous
100
AcDbCircle
 10
118.937055
 20
60.579983
 30
0.0
 40
0.5
100
AcDbArc
 50
179.9999909999999
 51
289.733647
  0
ARC
  5
1A27A
330
1A07F
100
AcDbEntity
  8
1
  6
Continuous
100
AcDbCircle
 10
128.0814029999999
 20
53.499996
 30
0.0
 40
13.678575
100
AcDbArc
 50
134.8351609999999
 51
156.108495
  0
ARC
  5
1A27B
330
1A07F
100
AcDbEntity
  8
1
  6
Continuous
100
AcDbCircle
 10
126.8469209999999
 20
53.499996
 30
0.0
 40
9.0
100
AcDbArc
 50
98.24088499999998
 51
124.1955289999999
  0
ARC
  5
1A27C
330
1A07F
100
AcDbEntity
  8
1
  6
Continuous
100
AcDbCircle
 10
126.8469209999999
 20
53.499996
 30
0.0
 40
9.0
100
AcDbArc
 50
235.804471
 51
255.522489
  0
ARC
  5
1A27D
330
1A07F
100
AcDbEntity
  8
1
  6
Continuous
100
AcDbCircle
 10
107.400037
 20
53.499996
 30
0.0
 40
6.625
100
AcDbArc
 50
328.109208
 51
31.890792
  0
ARC
  5
1A27E
330
1A07F
100
AcDbEntity
  8
1
  6
Continuous
100
AcDbCircle
 10
83.195233
 20
53.499996
 30
0.0
 40
29.811184
100
AcDbArc
 50
10.331356
 51
15.636285
  0
ARC
  5
1A27F
330
1A07F
100
AcDbEntity
  8
1
  6
Continuous
100
AcDbCircle
 10
83.195233
 20
53.499996
 30
0.0
 40
29.811184
100
AcDbArc
 50
344.283866
 51
349.6686439999999
  0
ARC
  5
1A280
330
1A07F
100
AcDbEntity
  8
1
  6
Continuous
100
AcDbCircle
 10
120.3296629999999
 20
54.921684
 30
0.0
 40
9.517137999999999
100
AcDbArc
 50
107.466845
 51
125.606509
  0
LINE
  5
1A281
330
1A07F
100
AcDbEntity
  8
1
  6
Continuous
100
AcDbLine
 10
111.9031649999999
 20
45.46499599999999
 30
0.0
 11
112.587827
 21
44.424995
 31
0.0
  0
LINE
  5
1A282
330
1A07F
100
AcDbEntity
  8
1
  6
Continuous
100
AcDbLine
 10
118.4370389999999
 20
63.199993
 30
0.0
 11
114.0128299999999
 21
62.32363499999999
 31
0.0
  0
LINE
  5
1A283
330
1A07F
100
AcDbEntity
  8
1
  6
Continuous
100
AcDbLine
 10
112.587811
 20
62.574997
 30
0.0
 11
111.9031649999999
 21
61.53499599999999
 31
0.0
  0
LINE
  5
1A284
330
1A07F
100
AcDbEntity
  8
1
  6
Continuous
100
AcDbLine
 10
125.5969209999999
 20
45.284981
 30
0.0
 11
125.5969209999999
 21
44.999996
 31
0.0
  0
LINE
  5
1A285
330
1A07F
100
AcDbEntity
  8
1
  6
Continuous
100
AcDbLine
 10
125.5969209999999
 20
47.08498
 30
0.0
 11
125.5969209999999
 21
47.324478
 31
0.0
  0
LINE
  5
1A286
330
1A07F
100
AcDbEntity
  8
1
  6
Continuous
100
AcDbLine
 10
125.5969209999999
 20
59.915012
 30
0.0
 11
125.5969209999999
 21
59.675514
 31
0.0
  0
LINE
  5
1A287
330
1A07F
100
AcDbEntity
  8
1
  6
Continuous
100
AcDbLine
 10
125.096921
 20
61.99999599999999
 30
0.0
 11
125.096921
 21
61.64032699999999
 31
0.0
  0
LINE
  5
1A288
330
1A07F
100
AcDbEntity
  8
1
  6
Continuous
100
AcDbLine
 10
124.5969209999999
 20
44.999996
 30
0.0
 11
124.5969209999999
 21
44.499996
 31
0.0
  0
LINE
  5
1A289
330
1A07F
100
AcDbEntity
  8
1
  6
Continuous
100
AcDbLine
 10
118.437055
 20
63.199997
 30
0.0
 11
118.437055
 21
60.579983
 31
0.0
  0
LINE
  5
1A28A
330
1A07F
100
AcDbEntity
  8
1
  6
Continuous
100
AcDbLine
 10
118.437055
 20
61.805973
 30
0.0
 11
125.582868
 21
62.424252
 31
0.0
  0
LINE
  5
1A28B
330
1A07F
100
AcDbEntity
  8
1
  6
Continuous
100
AcDbLine
 10
118.437055
 20
45.194019
 30
0.0
 11
124.610761
 21
44.659851
 31
0.0
  0
LINE
  5
1A28C
330
1A07F
100
AcDbEntity
  8
1
  6
Continuous
100
AcDbLine
 10
118.437055
 20
63.200001
 30
0.0
 11
117.4730649999999
 21
63.99999600000001
 31
0.0
  0
ARC
  5
1A28D
330
1A07F
100
AcDbEntity
  8
1
  6
Continuous
100
AcDbCircle
 10
29.321443
 20
53.499996
 30
0.0
 40
106.597702
100
AcDbArc
 50
353.2658129999999
 51
356.33375
  0
ARC
  5
1A28E
330
1A07F
100
AcDbEntity
  8
1
  6
Continuous
100
AcDbCircle
 10
95.96814399999999
 20
53.499996
 30
0.0
 40
38.951
100
AcDbArc
 50
342.827906
 51
350.0510339999999
  0
ARC
  5
1A28F
330
1A07F
100
AcDbEntity
  8
1
  6
Continuous
100
AcDbCircle
 10
280.4729279999999
 20
53.499996
 30
0.0
 40
144.4377439999998
100
AcDbArc
 50
182.7174269999999
 51
183.7712019999999
  0
ARC
  5
1A290
330
1A07F
100
AcDbEntity
  8
1
  6
Continuous
100
AcDbCircle
 10
391.3023959999999
 20
53.499996
 30
0.0
 40
258.3756409999999
100
AcDbArc
 50
181.473895
 51
182.551016
  0
LINE
  5
1A291
330
1A07F
100
AcDbEntity
  8
1
  6
Continuous
100
AcDbLine
 10
136.3479279999999
 20
43.99998899999999
 30
0.0
 11
137.6413239999999
 21
46.5606
 31
0.0
  0
LINE
  5
1A292
330
1A07F
100
AcDbEntity
  8
1
  6
Continuous
100
AcDbLine
 10
135.1837129999998
 20
40.999996
 30
0.0
 11
133.1827969999999
 21
41.99999199999999
 31
0.0
  0
LINE
  5
1A293
330
1A07F
100
AcDbEntity
  8
1
  6
Continuous
100
AcDbLine
 10
135.1837129999998
 20
41.0
 30
0.0
 11
136.3479279999999
 21
43.999996
 31
0.0
  0
ARC
  5
1A294
330
1A07F
100
AcDbEntity
  8
1
  6
Continuous
100
AcDbCircle
 10
95.96814399999999
 20
53.499996
 30
0.0
 40
38.951
100
AcDbArc
 50
9.948966
 51
17.172094
  0
ARC
  5
1A295
330
1A07F
100
AcDbEntity
  8
1
  6
Continuous
100
AcDbCircle
 10
144.221921
 20
53.499996
 30
0.0
 40
6.625
100
AcDbArc
 50
148.1092099999999
 51
211.890787
  0
ARC
  5
1A296
330
1A07F
100
AcDbEntity
  8
1
  6
Continuous
100
AcDbCircle
 10
391.3023959999999
 20
53.499996
 30
0.0
 40
258.3756409999999
100
AcDbArc
 50
177.448984
 51
178.526105
  0
ARC
  5
1A297
330
1A07F
100
AcDbEntity
  8
1
  6
Continuous
100
AcDbCircle
 10
103.580899
 20
53.499996
 30
0.0
 40
36.626362
100
AcDbArc
 50
356.0861279999999
 51
3.913872
  0
ARC
  5
1A298
330
1A07F
100
AcDbEntity
  8
1
  6
Continuous
100
AcDbCircle
 10
280.4729279999999
 20
53.499996
 30
0.0
 40
144.4377439999998
100
AcDbArc
 50
176.228798
 51
177.2825729999999
  0
ARC
  5
1A299
330
1A07F
100
AcDbEntity
  8
1
  6
Continuous
100
AcDbCircle
 10
136.7931639999999
 20
47.334423
 30
0.0
 40
2.0
100
AcDbArc
 50
276.772219
 51
336.4043399999999
  0
ARC
  5
1A29A
330
1A07F
100
AcDbEntity
  8
1
  6
Continuous
100
AcDbCircle
 10
136.7931639999999
 20
59.665569
 30
0.0
 40
2.0
100
AcDbArc
 50
23.59566
 51
83.22778099999998
  0
ARC
  5
1A29B
330
1A07F
100
AcDbEntity
  8
1
  6
Continuous
100
AcDbCircle
 10
92.771962
 20
53.499996
 30
0.0
 40
45.981468
100
AcDbArc
 50
355.6036349999998
 51
4.396365000000001
  0
ARC
  5
1A29C
330
1A07F
100
AcDbEntity
  8
1
  6
Continuous
100
AcDbCircle
 10
29.321443
 20
53.499996
 30
0.0
 40
106.597702
100
AcDbArc
 50
3.66625
 51
6.734186999999998
  0
LINE
  5
1A29D
330
1A07F
100
AcDbEntity
  8
1
  6
Continuous
100
AcDbLine
 10
128.096921
 20
45.028255
 30
0.0
 11
128.096921
 21
44.999996
 31
0.0
  0
LINE
  5
1A29E
330
1A07F
100
AcDbEntity
  8
1
  6
Continuous
100
AcDbLine
 10
131.805631
 20
44.999996
 30
0.0
 11
131.805631
 21
46.799995
 31
0.0
  0
LINE
  5
1A29F
330
1A07F
100
AcDbEntity
  8
1
  6
Continuous
100
AcDbLine
 10
128.096921
 20
46.828259
 30
0.0
 11
128.096921
 21
47.16592399999998
 31
0.0
  0
LINE
  5
1A2A0
330
1A07F
100
AcDbEntity
  8
1
  6
Continuous
100
AcDbLine
 10
128.096921
 20
60.17173399999999
 30
0.0
 11
128.096921
 21
59.834068
 31
0.0
  0
LINE
  5
1A2A1
330
1A07F
100
AcDbEntity
  8
1
  6
Continuous
100
AcDbLine
 10
131.805631
 20
61.99999599999999
 30
0.0
 11
131.805631
 21
60.19999699999999
 31
0.0
  0
LINE
  5
1A2A2
330
1A07F
100
AcDbEntity
  8
1
  6
Continuous
100
AcDbLine
 10
129.096921
 20
44.999996
 30
0.0
 11
129.096921
 21
44.499996
 31
0.0
  0
LINE
  5
1A2A3
330
1A07F
100
AcDbEntity
  8
1
  6
Continuous
100
AcDbLine
 10
138.7931639999999
 20
55.999996
 30
0.0
 11
138.7931639999999
 21
57.228947
 31
0.0
  0
LINE
  5
1A2A4
330
1A07F
100
AcDbEntity
  8
1
  6
Continuous
100
AcDbLine
 10
138.596921
 20
46.50000399999998
 30
0.0
 11
140.096921
 21
48.250004
 31
0.0
  0
LINE
  5
1A2A5
330
1A07F
100
AcDbEntity
  8
1
  6
Continuous
100
AcDbLine
 10
138.596921
 20
56.99999599999999
 30
0.0
 11
140.096921
 21
58.74999599999998
 31
0.0
  0
LINE
  5
1A2A6
330
1A07F
100
AcDbEntity
  8
1
  6
Continuous
100
AcDbLine
 10
140.096921
 20
58.74999200000001
 30
0.0
 11
138.596921
 21
60.49999200000001
 31
0.0
  0
LINE
  5
1A2A7
330
1A07F
100
AcDbEntity
  8
1
  6
Continuous
100
AcDbLine
 10
140.096921
 20
48.249989
 30
0.0
 11
138.596921
 21
49.999989
 31
0.0
  0
LINE
  5
1A2A8
330
1A07F
100
AcDbEntity
  8
1
  6
Continuous
100
AcDbLine
 10
140.1218389999999
 20
50.999996
 30
0.0
 11
138.6854219999999
 21
50.999996
 31
0.0
  0
LINE
  5
1A2A9
330
1A07F
100
AcDbEntity
  8
1
  6
Continuous
100
AcDbLine
 10
137.6413239999999
 20
60.439392
 30
0.0
 11
136.3479279999999
 21
63.0
 31
0.0
  0
LINE
  5
1A2AA
330
1A07F
100
AcDbEntity
  8
1
  6
Continuous
100
AcDbLine
 10
140.1218389999999
 20
55.999996
 30
0.0
 11
138.6854219999999
 21
55.999996
 31
0.0
  0
LINE
  5
1A2AB
330
1A07F
100
AcDbEntity
  8
1
  6
Continuous
100
AcDbLine
 10
136.3479279999999
 20
62.99999200000001
 30
0.0
 11
135.1837129999998
 21
65.999996
 31
0.0
  0
LINE
  5
1A2AC
330
1A07F
100
AcDbEntity
  8
1
  6
Continuous
100
AcDbLine
 10
133.1827969999999
 20
65.00000400000001
 30
0.0
 11
135.1837129999998
 21
65.999996
 31
0.0
  0
LINE
  5
1A2AD
330
1A07F
100
AcDbEntity
  8
1
  6
Continuous
100
AcDbLine
 10
133.0664489999997
 20
61.995487
 30
0.0
 11
128.1109739999999
 21
62.424252
 31
0.0
  0
LINE
  5
1A2AE
330
1A07F
100
AcDbEntity
  8
1
  6
Continuous
100
AcDbLine
 10
133.0664489999997
 20
45.004505
 30
0.0
 11
129.096921
 21
44.661049
 31
0.0
  0
LINE
  5
1A2AF
330
1A07F
100
AcDbEntity
  8
1
  6
Continuous
100
AcDbLine
 10
138.7931639999999
 20
49.771046
 30
0.0
 11
138.7931639999999
 21
50.999996
 31
0.0
  0
LINE
  5
1A2B0
330
1A07F
100
AcDbEntity
  8
1
  6
Continuous
100
AcDbLine
 10
129.7040959999999
 20
180.999996
 30
0.0
 11
129.9015999999998
 21
178.7423169999999
 31
0.0
  0
LINE
  5
1A2B1
330
1A07F
100
AcDbEntity
  8
1
  6
Continuous
100
AcDbLine
 10
122.677654
 20
180.999996
 30
0.0
 11
122.9499149999998
 21
177.889854
 31
0.0
  0
ARC
  5
1A2B2
330
1A07F
100
AcDbEntity
  8
1
  6
Continuous
100
AcDbCircle
 10
126.8469209999999
 20
204.9999929999999
 30
0.0
 40
8.0
100
AcDbArc
 50
0.0
 51
180.0
  0
ARC
  5
1A2B3
330
1A07F
100
AcDbEntity
  8
1
  6
Continuous
100
AcDbCircle
 10
184.9538879999998
 20
205.948535
 30
0.0
 40
50.11594399999999
100
AcDbArc
 50
181.0845
 51
192.7579469999998
  0
ARC
  5
1A2B4
330
1A07F
100
AcDbEntity
  8
1
  6
Continuous
100
AcDbCircle
 10
68.739954
 20
205.948535
 30
0.0
 40
50.11594399999999
100
AcDbArc
 50
347.242053
 51
358.9155
  0
LINE
  5
1A2B5
330
1A07F
100
AcDbEntity
  8
1
  6
Continuous
100
AcDbLine
 10
43.09749199999997
 20
178.999996
 30
0.0
 11
41.001896
 21
178.999996
 31
0.0
  0
LINE
  5
1A2B6
330
1A07F
100
AcDbEntity
  8
1
  6
Continuous
100
AcDbLine
 10
34.001896
 20
178.999996
 30
0.0
 11
31.906296
 21
178.999996
 31
0.0
  0
LINE
  5
1A2B7
330
1A07F
100
AcDbEntity
  8
1
  6
Continuous
100
AcDbLine
 10
206.7061129999999
 20
178.999996
 30
0.0
 11
218.706113
 21
178.999996
 31
0.0
  0
LINE
  5
1A2B8
330
1A07F
100
AcDbEntity
  8
1
  6
Continuous
100
AcDbLine
 10
216.206114
 20
180.999996
 30
0.0
 11
216.206114
 21
178.999996
 31
0.0
  0
LINE
  5
1A2B9
330
1A07F
100
AcDbEntity
  8
1
  6
Continuous
100
AcDbLine
 10
209.2061139999999
 20
180.999996
 30
0.0
 11
209.2061139999999
 21
178.999996
 31
0.0
  0
LINE
  5
1A2BA
330
1A07F
100
AcDbEntity
  8
4
  6
CENTER
100
AcDbLine
 10
298.5683569999998
 20
218.999996
 30
0.0
 11
298.5683569999998
 21
100.999996
 31
0.0
  0
LINE
  5
1A2BB
330
1A07F
100
AcDbEntity
  8
1
  6
Continuous
100
AcDbLine
 10
303.3521859999999
 20
176.048901
 30
0.0
 11
303.3479129999999
 21
175.999996
 31
0.0
  0
LINE
  5
1A2BC
330
1A07F
100
AcDbEntity
  8
1
  6
Continuous
100
AcDbLine
 10
292.5683569999998
 20
178.999996
 30
0.0
 11
291.6715679999999
 21
168.749706
 31
0.0
  0
LINE
  5
1A2BD
330
1A07F
100
AcDbEntity
  8
1
  6
Continuous
100
AcDbLine
 10
297.680814
 20
151.660412
 30
0.0
 11
299.2324959999999
 21
160.4604149999999
 31
0.0
  0
LINE
  5
1A2BE
330
1A07F
100
AcDbEntity
  8
1
  6
Continuous
100
AcDbLine
 10
296.499052
 20
151.868786
 30
0.0
 11
298.050718
 21
160.6688039999999
 31
0.0
  0
LINE
  5
1A2BF
330
1A07F
100
AcDbEntity
  8
4
  6
CENTER
100
AcDbLine
 10
303.0683569999998
 20
171.499996
 30
0.0
 11
294.068357
 21
171.499996
 31
0.0
  0
LINE
  5
1A2C0
330
1A07F
100
AcDbEntity
  8
1
  6
Continuous
100
AcDbLine
 10
294.5633369999999
 20
165.8803979999999
 30
0.0
 11
301.536695
 21
165.270306
 31
0.0
  0
ARC
  5
1A2C1
330
1A07F
100
AcDbEntity
  8
1
  6
Continuous
100
AcDbCircle
 10
298.109647
 20
171.499996
 30
0.0
 40
4.5
100
AcDbArc
 50
89.99999700000001
 51
270.0000029999998
  0
ARC
  5
1A2C2
330
1A07F
100
AcDbEntity
  8
1
  6
Continuous
100
AcDbCircle
 10
298.5683569999998
 20
119.2499959999999
 30
0.0
 40
11.75
100
AcDbArc
 50
168.857731
 51
340.1400009999999
  0
ARC
  5
1A2C3
330
1A07F
100
AcDbEntity
  8
1
  6
Continuous
100
AcDbCircle
 10
298.5683569999998
 20
119.2499959999999
 30
0.0
 40
13.25
100
AcDbArc
 50
169.9282059999999
 51
337.682048
  0
ARC
  5
1A2C4
330
1A07F
100
AcDbEntity
  8
1
  6
Continuous
100
AcDbCircle
 10
298.5683569999998
 20
119.2499959999999
 30
0.0
 40
10.74999999999998
100
AcDbArc
 50
168.857731
 51
339.953345
  0
ARC
  5
1A2C5
330
1A07F
100
AcDbEntity
  8
1
  6
Continuous
100
AcDbCircle
 10
298.5683569999998
 20
119.2499959999999
 30
0.0
 40
9.25
100
AcDbArc
 50
168.857731
 51
334.406398
  0
LINE
  5
1A2C6
330
1A07F
100
AcDbEntity
  8
1
  6
Continuous
100
AcDbLine
 10
312.6096319999998
 20
120.9999959999999
 30
0.0
 11
310.6000649999999
 21
146.100399
 31
0.0
  0
LINE
  5
1A2C7
330
1A07F
100
AcDbEntity
  8
1
  6
Continuous
100
AcDbLine
 10
313.523344
 20
122.079678
 30
0.0
 11
311.596922
 21
146.179699
 31
0.0
  0
LINE
  5
1A2C8
330
1A07F
100
AcDbEntity
  8
1
  6
Continuous
100
AcDbLine
 10
308.6096319999999
 20
148.9598049999999
 30
0.0
 11
310.1096319999999
 21
120.9999959999999
 31
0.0
  0
LINE
  5
1A2C9
330
1A07F
100
AcDbEntity
  8
1
  6
Continuous
100
AcDbLine
 10
309.064954
 20
121.6031459999999
 30
0.0
 11
308.08325
 21
149.715588
 31
0.0
  0
ARC
  5
1A2CA
330
1A07F
100
AcDbEntity
  8
1
  6
Continuous
100
AcDbCircle
 10
313.390241
 20
128.999996
 30
0.0
 40
1.0
100
AcDbArc
 50
2.194125
 51
119.324622
  0
ARC
  5
1A2CB
330
1A07F
100
AcDbEntity
  8
1
  6
Continuous
100
AcDbCircle
 10
284.411497
 20
127.889721
 30
0.0
 40
30.0
100
AcDbArc
 50
346.723091
 51
2.194125
  0
ARC
  5
1A2CC
330
1A07F
100
AcDbEntity
  8
1
  6
Continuous
100
AcDbCircle
 10
306.2432839999999
 20
124.8317069999999
 30
0.0
 40
9.168205999999999
100
AcDbArc
 50
312.1028289999998
 51
27.311094
  0
ARC
  5
1A2CD
330
1A07F
100
AcDbEntity
  8
1
  6
Continuous
100
AcDbCircle
 10
312.5265179999999
 20
121.9999959999999
 30
0.0
 40
1.0
100
AcDbArc
 50
269.999999
 51
4.57017
  0
LINE
  5
1A2CE
330
1A07F
100
AcDbEntity
  8
1
  6
Continuous
100
AcDbLine
 10
310.1096469999998
 20
120.9999959999999
 30
0.0
 11
312.5265179999999
 21
120.9999959999999
 31
0.0
  0
LINE
  5
1A2CF
330
1A07F
100
AcDbEntity
  8
1
  6
Continuous
100
AcDbLine
 10
313.609647
 20
120.9999959999999
 30
0.0
 11
310.825803
 21
114.2183649999999
 31
0.0
  0
LINE
  5
1A2D0
330
1A07F
100
AcDbEntity
  8
1
  6
Continuous
100
AcDbLine
 10
309.61952
 20
115.258251
 30
0.0
 11
310.7462139999999
 21
118.377483
 31
0.0
  0
LINE
  5
1A2D1
330
1A07F
100
AcDbEntity
  8
1
  6
Continuous
100
AcDbLine
 10
309.064954
 20
121.6031459999999
 30
0.0
 11
310.1096469999998
 21
120.9999959999999
 31
0.0
  0
ARC
  5
1A2D2
330
1A07F
100
AcDbEntity
  8
1
  6
Continuous
100
AcDbCircle
 10
284.411497
 20
127.889721
 30
0.0
 40
28.0
100
AcDbArc
 50
340.1400009999999
 51
345.755427
  0
ARC
  5
1A2D3
330
1A07F
100
AcDbEntity
  8
1
  6
Continuous
100
AcDbCircle
 10
311.4201489999999
 20
113.094219
 30
0.0
 40
5.0
100
AcDbArc
 50
99.23331400000002
 51
154.406405
  0
ARC
  5
1A2D4
330
1A07F
100
AcDbEntity
  8
1
  6
Continuous
100
AcDbCircle
 10
313.364118
 20
113.851131
 30
0.0
 40
5.0
100
AcDbArc
 50
123.3154609999999
 51
159.9533489999998
  0
LINE
  5
1A2D5
330
1A07F
100
AcDbEntity
  8
1
  6
Continuous
100
AcDbLine
 10
312.9102609999999
 20
153.299084
 30
0.0
 11
312.691297
 21
159.568981
 31
0.0
  0
LINE
  5
1A2D6
330
1A07F
100
AcDbEntity
  8
1
  6
Continuous
100
AcDbLine
 10
310.57472
 20
148.545803
 30
0.0
 11
310.1482219999998
 21
160.7590899999999
 31
0.0
  0
LINE
  5
1A2D7
330
1A07F
100
AcDbEntity
  8
1
  6
Continuous
100
AcDbLine
 10
300.256117
 20
151.8688009999999
 30
0.0
 11
301.807798
 21
160.668789
 31
0.0
  0
LINE
  5
1A2D8
330
1A07F
100
AcDbEntity
  8
1
  6
Continuous
100
AcDbLine
 10
301.4378939999998
 20
151.660427
 30
0.0
 11
302.989561
 21
160.4604149999999
 31
0.0
  0
LINE
  5
1A2D9
330
1A07F
100
AcDbEntity
  8
1
  6
Continuous
100
AcDbLine
 10
304.013197
 20
151.8688009999999
 30
0.0
 11
305.5648779999998
 21
160.6688039999999
 31
0.0
  0
LINE
  5
1A2DA
330
1A07F
100
AcDbEntity
  8
1
  6
Continuous
100
AcDbLine
 10
305.1949749999999
 20
151.660412
 30
0.0
 11
306.7466559999999
 21
160.46043
 31
0.0
  0
LINE
  5
1A2DB
330
1A07F
100
AcDbEntity
  8
1
  6
Continuous
100
AcDbLine
 10
298.7437719999999
 20
157.6887629999999
 30
0.0
 11
300.265012
 21
151.6187549999999
 31
0.0
  0
LINE
  5
1A2DC
330
1A07F
100
AcDbEntity
  8
1
  6
Continuous
100
AcDbLine
 10
302.500852
 20
157.6887629999999
 30
0.0
 11
304.022077
 21
151.6187549999999
 31
0.0
  0
ARC
  5
1A2DD
330
1A07F
100
AcDbEntity
  8
1
  6
Continuous
100
AcDbCircle
 10
339.739057
 20
157.598995
 30
0.0
 40
32.760834
100
AcDbArc
 50
168.732743
 51
192.0279799999999
  0
ARC
  5
1A2DE
330
1A07F
100
AcDbEntity
  8
1
  6
Continuous
100
AcDbCircle
 10
341.877187
 20
158.302776
 30
0.0
 40
33.934978
100
AcDbArc
 50
168.617693
 51
191.382307
  0
LINE
  5
1A2DF
330
1A07F
100
AcDbEntity
  8
1
  6
Continuous
100
AcDbLine
 10
312.28758
 20
150.702663
 30
0.0
 11
310.8811779999999
 21
148.1625179999998
 31
0.0
  0
ARC
  5
1A2E0
330
1A07F
100
AcDbEntity
  8
1
  6
Continuous
100
AcDbCircle
 10
307.6096469999999
 20
145.8609889999999
 30
0.0
 40
3.0
100
AcDbArc
 50
359.999995
 51
55.15009799999999
  0
ARC
  5
1A2E1
330
1A07F
100
AcDbEntity
  8
1
  6
Continuous
100
AcDbCircle
 10
311.609647
 20
151.605556
 30
0.0
 40
3.0
100
AcDbArc
 50
180.0
 51
235.150096
  0
ARC
  5
1A2E2
330
1A07F
100
AcDbEntity
  8
1
  6
Continuous
100
AcDbCircle
 10
311.609647
 20
151.605556
 30
0.0
 40
4.0
100
AcDbArc
 50
192.027973
 51
235.150096
  0
ARC
  5
1A2E3
330
1A07F
100
AcDbEntity
  8
1
  6
Continuous
100
AcDbCircle
 10
307.6096469999999
 20
145.8609889999999
 30
0.0
 40
4.0
100
AcDbArc
 50
4.57017
 51
55.15009799999999
  0
ARC
  5
1A2E4
330
1A07F
100
AcDbEntity
  8
1
  6
Continuous
100
AcDbCircle
 10
307.913313
 20
153.1245839999999
 30
0.0
 40
5.0
100
AcDbArc
 50
331.027876
 51
1.999997
  0
ARC
  5
1A2E5
330
1A07F
100
AcDbEntity
  8
1
  6
Continuous
100
AcDbCircle
 10
300.847013
 20
151.764614
 30
0.0
 40
0.6
100
AcDbArc
 50
194.069336
 51
349.999993
  0
ARC
  5
1A2E6
330
1A07F
100
AcDbEntity
  8
1
  6
Continuous
100
AcDbCircle
 10
304.6040929999999
 20
151.764614
 30
0.0
 40
0.6
100
AcDbArc
 50
194.069336
 51
349.999993
  0
LINE
  5
1A2E7
330
1A07F
100
AcDbEntity
  8
1
  6
Continuous
100
AcDbLine
 10
298.109647
 20
175.999996
 30
0.0
 11
308.609647
 21
175.999996
 31
0.0
  0
LINE
  5
1A2E8
330
1A07F
100
AcDbEntity
  8
1
  6
Continuous
100
AcDbLine
 10
298.109647
 20
166.999996
 30
0.0
 11
306.609647
 21
166.999996
 31
0.0
  0
LINE
  5
1A2E9
330
1A07F
100
AcDbEntity
  8
1
  6
Continuous
100
AcDbLine
 10
311.012449
 20
164.664608
 30
0.0
 11
312.35565
 21
161.203442
 31
0.0
  0
LINE
  5
1A2EA
330
1A07F
100
AcDbEntity
  8
1
  6
Continuous
100
AcDbLine
 10
299.2235999999999
 20
160.710461
 30
0.0
 11
300.74484
 21
154.640438
 31
0.0
  0
LINE
  5
1A2EB
330
1A07F
100
AcDbEntity
  8
1
  6
Continuous
100
AcDbLine
 10
302.9806950000001
 20
160.710461
 30
0.0
 11
304.50192
 21
154.640453
 31
0.0
  0
LINE
  5
1A2EC
330
1A07F
100
AcDbEntity
  8
1
  6
Continuous
100
AcDbLine
 10
306.7377599999999
 20
160.710461
 30
0.0
 11
307.034879
 21
159.5249139999999
 31
0.0
  0
LINE
  5
1A2ED
330
1A07F
100
AcDbEntity
  8
1
  6
Continuous
100
AcDbLine
 10
306.2579319999999
 20
157.6887629999999
 30
0.0
 11
307.171919
 21
154.041775
 31
0.0
  0
LINE
  5
1A2EE
330
1A07F
100
AcDbEntity
  8
1
  6
Continuous
100
AcDbLine
 10
301.688017
 20
166.999996
 30
0.0
 11
301.536695
 21
165.270306
 31
0.0
  0
ARC
  5
1A2EF
330
1A07F
100
AcDbEntity
  8
1
  6
Continuous
100
AcDbCircle
 10
306.609647
 20
164.999996
 30
0.0
 40
2.0
100
AcDbArc
 50
359.999995
 51
89.99999700000001
  0
ARC
  5
1A2F0
330
1A07F
100
AcDbEntity
  8
1
  6
Continuous
100
AcDbCircle
 10
338.6064740000001
 20
176.4361989999999
 30
0.0
 40
30.0
100
AcDbArc
 50
180.8331029999999
 51
203.1030589999998
  0
ARC
  5
1A2F1
330
1A07F
100
AcDbEntity
  8
1
  6
Continuous
100
AcDbCircle
 10
304.609647
 20
163.999996
 30
0.0
 40
3.0
100
AcDbArc
 50
359.999995
 51
89.99999700000001
  0
ARC
  5
1A2F2
330
1A07F
100
AcDbEntity
  8
1
  6
Continuous
100
AcDbCircle
 10
318.143354
 20
161.03828
 30
0.0
 40
8.0
100
AcDbArc
 50
153.0449759999999
 51
182.0
  0
ARC
  5
1A2F3
330
1A07F
100
AcDbEntity
  8
1
  6
Continuous
100
AcDbCircle
 10
307.694364
 20
159.394482
 30
0.0
 40
5.0
100
AcDbArc
 50
1.999997
 51
21.210096
  0
ARC
  5
1A2F4
330
1A07F
100
AcDbEntity
  8
1
  6
Continuous
100
AcDbCircle
 10
298.641615
 20
160.564602
 30
0.0
 40
0.6
100
AcDbArc
 50
14.069338
 51
170.0
  0
ARC
  5
1A2F5
330
1A07F
100
AcDbEntity
  8
1
  6
Continuous
100
AcDbCircle
 10
302.398679
 20
160.564602
 30
0.0
 40
0.6
100
AcDbArc
 50
14.069324
 51
170.0
  0
ARC
  5
1A2F6
330
1A07F
100
AcDbEntity
  8
1
  6
Continuous
100
AcDbCircle
 10
306.155759
 20
160.564602
 30
0.0
 40
0.6
100
AcDbArc
 50
14.069338
 51
170.0
  0
LINE
  5
1A2F7
330
1A07F
100
AcDbEntity
  8
1
  6
Continuous
100
AcDbLine
 10
289.139768
 20
141.932247
 30
0.0
 11
285.5225349999999
 21
121.567181
 31
0.0
  0
LINE
  5
1A2F8
330
1A07F
100
AcDbEntity
  8
1
  6
Continuous
100
AcDbLine
 10
290.9540079999998
 20
141.3937639999998
 30
0.0
 11
287.0398379999999
 21
121.5206409999999
 31
0.0
  0
LINE
  5
1A2F9
330
1A07F
100
AcDbEntity
  8
1
  6
Continuous
100
AcDbLine
 10
292.0601629999998
 20
134.0730859999999
 30
0.0
 11
289.492704
 21
121.037533
 31
0.0
  0
LINE
  5
1A2FA
330
1A07F
100
AcDbEntity
  8
1
  6
Continuous
100
AcDbLine
 10
291.2372409999999
 20
137.65704
 30
0.0
 11
288.020979
 21
121.3273889999999
 31
0.0
  0
LINE
  5
1A2FB
330
1A07F
100
AcDbEntity
  8
1
  6
Continuous
100
AcDbLine
 10
292.488538
 20
163.4970049999998
 30
0.0
 11
292.048444
 21
150.8945429999999
 31
0.0
  0
LINE
  5
1A2FC
330
1A07F
100
AcDbEntity
  8
1
  6
Continuous
100
AcDbLine
 10
290.5519229999999
 20
165.338146
 30
0.0
 11
290.0278599999999
 21
150.331219
 31
0.0
  0
LINE
  5
1A2FD
330
1A07F
100
AcDbEntity
  8
1
  6
Continuous
100
AcDbLine
 10
289.380109
 20
165.1208
 30
0.0
 11
288.7166119999998
 21
146.1208
 31
0.0
  0
LINE
  5
1A2FE
330
1A07F
100
AcDbEntity
  8
1
  6
Continuous
100
AcDbLine
 10
286.9268319999998
 20
159.958828
 30
0.0
 11
286.6618479999999
 21
152.370388
 31
0.0
  0
LINE
  5
1A2FF
330
1A07F
100
AcDbEntity
  8
1
  6
Continuous
100
AcDbLine
 10
285.3825049999999
 20
158.715435
 30
0.0
 11
285.208006
 21
153.718487
 31
0.0
  0
LINE
  5
1A300
330
1A07F
100
AcDbEntity
  8
1
  6
Continuous
100
AcDbLine
 10
293.9237339999999
 20
151.660427
 30
0.0
 11
295.4754159999998
 21
160.46043
 31
0.0
  0
LINE
  5
1A301
330
1A07F
100
AcDbEntity
  8
1
  6
Continuous
100
AcDbLine
 10
292.7419719999999
 20
151.8688009999999
 30
0.0
 11
294.293653
 21
160.6688039999999
 31
0.0
  0
LINE
  5
1A302
330
1A07F
100
AcDbEntity
  8
1
  6
Continuous
100
AcDbLine
 10
296.6358769999999
 20
153.319424
 30
0.0
 11
296.8103619999999
 21
158.3163719999998
 31
0.0
  0
LINE
  5
1A303
330
1A07F
100
AcDbEntity
  8
1
  6
Continuous
100
AcDbLine
 10
287.0213449999998
 20
150.326672
 30
0.0
 11
289.4961369999998
 21
144.1868399999999
 31
0.0
  0
LINE
  5
1A304
330
1A07F
100
AcDbEntity
  8
1
  6
Continuous
100
AcDbLine
 10
286.7070899999998
 20
153.666134
 30
0.0
 11
285.208006
 21
153.718487
 31
0.0
  0
LINE
  5
1A305
330
1A07F
100
AcDbEntity
  8
1
  6
Continuous
100
AcDbLine
 10
292.2865729999998
 20
153.471294
 30
0.0
 11
292.7508519999999
 21
151.6187549999999
 31
0.0
  0
LINE
  5
1A306
330
1A07F
100
AcDbEntity
  8
1
  6
Continuous
100
AcDbLine
 10
296.076826
 20
153.3389239999999
 30
0.0
 11
296.507932
 21
151.6187399999998
 31
0.0
  0
LINE
  5
1A307
330
1A07F
100
AcDbEntity
  8
1
  6
Continuous
100
AcDbLine
 10
296.6358769999999
 20
153.319424
 30
0.0
 11
294.231077
 21
153.4033929999999
 31
0.0
  0
LINE
  5
1A308
330
1A07F
100
AcDbEntity
  8
1
  6
Continuous
100
AcDbLine
 10
293.0200169999998
 20
153.4456899999999
 30
0.0
 11
292.138609
 21
153.4764669999999
 31
0.0
  0
ARC
  5
1A309
330
1A07F
100
AcDbEntity
  8
1
  6
Continuous
100
AcDbCircle
 10
271.6142399999998
 20
141.521954
 30
0.0
 40
20.0
100
AcDbArc
 50
348.85773
 51
7.657114999999999
  0
ARC
  5
1A30A
330
1A07F
100
AcDbEntity
  8
1
  6
Continuous
100
AcDbCircle
 10
230.0644049999999
 20
152.425182
 30
0.0
 40
60.0
100
AcDbArc
 50
349.9282079999999
 51
358.0000029999998
  0
ARC
  5
1A30B
330
1A07F
100
AcDbEntity
  8
1
  6
Continuous
100
AcDbCircle
 10
232.084989
 20
152.9885219999999
 30
0.0
 40
60.0
100
AcDbArc
 50
348.8577259999999
 51
358.0000029999998
  0
ARC
  5
1A30C
330
1A07F
100
AcDbEntity
  8
1
  6
Continuous
100
AcDbCircle
 10
291.658796
 20
152.195889
 30
0.0
 40
5.0
100
AcDbArc
 50
178.0
 51
201.9529419999999
  0
ARC
  5
1A30D
330
1A07F
100
AcDbEntity
  8
1
  6
Continuous
100
AcDbCircle
 10
293.332853
 20
151.764614
 30
0.0
 40
0.6
100
AcDbArc
 50
194.069336
 51
349.999993
  0
ARC
  5
1A30E
330
1A07F
100
AcDbEntity
  8
1
  6
Continuous
100
AcDbCircle
 10
297.0899329999999
 20
151.764614
 30
0.0
 40
0.6
100
AcDbArc
 50
194.069336
 51
350.000007
  0
ARC
  5
1A30F
330
1A07F
100
AcDbEntity
  8
1
  6
Continuous
100
AcDbCircle
 10
272.437177
 20
137.9379999999999
 30
0.0
 40
20.0
100
AcDbArc
 50
348.85773
 51
18.20646499999998
  0
LINE
  5
1A310
330
1A07F
100
AcDbEntity
  8
1
  6
Continuous
100
AcDbLine
 10
286.88159
 20
158.6630969999999
 30
0.0
 11
285.3825049999999
 21
158.715435
 31
0.0
  0
LINE
  5
1A311
330
1A07F
100
AcDbEntity
  8
1
  6
Continuous
100
AcDbLine
 10
287.6961039999999
 20
162.453899
 30
0.0
 11
291.671583
 21
168.749706
 31
0.0
  0
LINE
  5
1A312
330
1A07F
100
AcDbEntity
  8
1
  6
Continuous
100
AcDbLine
 10
293.896787
 20
158.4181179999999
 30
0.0
 11
292.313108
 21
158.4734149999999
 31
0.0
  0
LINE
  5
1A313
330
1A07F
100
AcDbEntity
  8
1
  6
Continuous
100
AcDbLine
 10
295.466535
 20
160.710461
 30
0.0
 11
296.0599649999998
 21
158.342571
 31
0.0
  0
LINE
  5
1A314
330
1A07F
100
AcDbEntity
  8
1
  6
Continuous
100
AcDbLine
 10
296.8103619999999
 20
158.3163719999998
 30
0.0
 11
295.1078319999999
 21
158.37582
 31
0.0
  0
LINE
  5
1A315
330
1A07F
100
AcDbEntity
  8
1
  6
Continuous
100
AcDbLine
 10
296.7193889999999
 20
155.711285
 30
0.0
 11
296.9877599999999
 21
154.640438
 31
0.0
  0
LINE
  5
1A316
330
1A07F
100
AcDbEntity
  8
1
  6
Continuous
100
AcDbLine
 10
294.5811589999999
 20
166.084194
 30
0.0
 11
294.5633369999999
 21
165.8803979999999
 31
0.0
  0
ARC
  5
1A317
330
1A07F
100
AcDbEntity
  8
1
  6
Continuous
100
AcDbCircle
 10
309.6282019999998
 20
119.1202509999999
 30
0.0
 40
50.0
100
AcDbArc
 50
105.3431979999999
 51
112.428228
  0
ARC
  5
1A318
330
1A07F
100
AcDbEntity
  8
1
  6
Continuous
100
AcDbCircle
 10
291.9237949999999
 20
159.784328
 30
0.0
 40
5.0
100
AcDbArc
 50
147.729747
 51
178.0
  0
ARC
  5
1A319
330
1A07F
100
AcDbEntity
  8
1
  6
Continuous
100
AcDbCircle
 10
294.8845339999999
 20
160.564602
 30
0.0
 40
0.6
100
AcDbArc
 50
14.069324
 51
170.0
  0
ARC
  5
1A31A
330
1A07F
100
AcDbEntity
  8
1
  6
Continuous
100
AcDbCircle
 10
309.675581
 20
146.1553609999999
 30
0.0
 40
25.0
100
AcDbArc
 50
122.0795249999999
 51
131.3273069999999
  0
ARC
  5
1A31B
330
1A07F
100
AcDbEntity
  8
1
  6
Continuous
100
AcDbCircle
 10
294.487318
 20
163.427197
 30
0.0
 40
2.0
100
AcDbArc
 50
131.3273069999999
 51
178.0
  0
ARC
  5
1A31C
330
1A07F
100
AcDbEntity
  8
1
  6
Continuous
100
AcDbCircle
 10
298.5683569999998
 20
204.9999929999999
 30
0.0
 40
8.0
100
AcDbArc
 50
0.0
 51
180.0
  0
LINE
  5
1A31D
330
1A07F
100
AcDbEntity
  8
1
  6
Continuous
100
AcDbLine
 10
294.281647
 20
187.998486
 30
0.0
 11
305.737884
 21
186.996197
 31
0.0
  0
LINE
  5
1A31E
330
1A07F
100
AcDbEntity
  8
1
  6
Continuous
100
AcDbLine
 10
294.1944879999999
 20
187.0022849999998
 30
0.0
 11
305.6507259999999
 21
185.999996
 31
0.0
  0
LINE
  5
1A31F
330
1A07F
100
AcDbEntity
  8
1
  6
Continuous
100
AcDbLine
 10
289.568357
 20
185.999996
 30
0.0
 11
308.0081149999998
 21
185.999996
 31
0.0
  0
LINE
  5
1A320
330
1A07F
100
AcDbEntity
  8
1
  6
Continuous
100
AcDbLine
 10
289.122114
 20
183.499996
 30
0.0
 11
308.0081149999998
 21
183.499996
 31
0.0
  0
LINE
  5
1A321
330
1A07F
100
AcDbEntity
  8
1
  6
Continuous
100
AcDbLine
 10
289.122114
 20
180.999996
 30
0.0
 11
307.5683569999998
 21
180.999996
 31
0.0
  0
ARC
  5
1A322
330
1A07F
100
AcDbEntity
  8
1
  6
Continuous
100
AcDbCircle
 10
298.568784
 20
205.4439509999999
 30
0.0
 40
9.056051
100
AcDbArc
 50
353.638275
 51
186.3214439999999
  0
ARC
  5
1A323
330
1A07F
100
AcDbEntity
  8
1
  6
Continuous
100
AcDbCircle
 10
298.5683569999998
 20
204.499996
 30
0.0
 40
11.5
100
AcDbArc
 50
359.999995
 51
180.0
  0
LINE
  5
1A324
330
1A07F
100
AcDbEntity
  8
1
  6
Continuous
100
AcDbLine
 10
292.5683569999998
 20
178.999996
 30
0.0
 11
301.5341159999999
 21
178.2156029999999
 31
0.0
  0
ARC
  5
1A325
330
1A07F
100
AcDbEntity
  8
1
  6
Continuous
100
AcDbCircle
 10
356.6753240000001
 20
205.948535
 30
0.0
 40
50.11594399999999
100
AcDbArc
 50
181.0845
 51
192.7579469999998
  0
LINE
  5
1A326
330
1A07F
100
AcDbEntity
  8
1
  6
Continuous
100
AcDbLine
 10
310.0683419999999
 20
204.499996
 30
0.0
 11
310.5074139999999
 21
186.059505
 31
0.0
  0
LINE
  5
1A327
330
1A07F
100
AcDbEntity
  8
1
  6
Continuous
100
AcDbLine
 10
307.5690589999999
 20
204.440487
 30
0.0
 11
308.0081149999998
 21
185.999996
 31
0.0
  0
LINE
  5
1A328
330
1A07F
100
AcDbEntity
  8
1
  6
Continuous
100
AcDbLine
 10
302.7376239999999
 20
180.999996
 30
0.0
 11
302.4653629999999
 21
177.889854
 31
0.0
  0
LINE
  5
1A329
330
1A07F
100
AcDbEntity
  8
1
  6
Continuous
100
AcDbLine
 10
303.194136
 20
186.21492
 30
0.0
 11
303.175321
 21
185.999996
 31
0.0
  0
LINE
  5
1A32A
330
1A07F
100
AcDbEntity
  8
1
  6
Continuous
100
AcDbLine
 10
305.737884
 20
186.996197
 30
0.0
 11
305.6507259999999
 21
185.999996
 31
0.0
  0
ARC
  5
1A32B
330
1A07F
100
AcDbEntity
  8
1
  6
Continuous
100
AcDbCircle
 10
308.0081149999998
 20
185.999996
 30
0.0
 40
2.5
100
AcDbArc
 50
269.999999
 51
1.363928999999999
  0
LINE
  5
1A32C
330
1A07F
100
AcDbEntity
  8
1
  6
Continuous
100
AcDbLine
 10
307.5683569999998
 20
183.499996
 30
0.0
 11
307.5683569999998
 21
180.999996
 31
0.0
  0
ARC
  5
1A32D
330
1A07F
100
AcDbEntity
  8
1
  6
Continuous
100
AcDbCircle
 10
301.3597999999999
 20
176.2232019999999
 30
0.0
 40
2.0
100
AcDbArc
 50
354.999996
 51
84.99999800000002
  0
ARC
  5
1A32E
330
1A07F
100
AcDbEntity
  8
1
  6
Continuous
100
AcDbCircle
 10
240.46139
 20
205.948535
 30
0.0
 40
50.11594399999999
100
AcDbArc
 50
347.242053
 51
358.9155
  0
LINE
  5
1A32F
330
1A07F
100
AcDbEntity
  8
1
  6
Continuous
100
AcDbLine
 10
289.567793
 20
204.4468189999999
 30
0.0
 11
289.122114
 21
183.499996
 31
0.0
  0
LINE
  5
1A330
330
1A07F
100
AcDbEntity
  8
1
  6
Continuous
100
AcDbLine
 10
287.068357
 20
204.500011
 30
0.0
 11
286.622678
 21
183.5531729999999
 31
0.0
  0
LINE
  5
1A331
330
1A07F
100
AcDbEntity
  8
1
  6
Continuous
100
AcDbLine
 10
295.711182
 20
180.999996
 30
0.0
 11
295.5136779999999
 21
178.7423169999999
 31
0.0
  0
LINE
  5
1A332
330
1A07F
100
AcDbEntity
  8
1
  6
Continuous
100
AcDbLine
 10
296.2207609999999
 20
186.82501
 30
0.0
 11
296.1485879999999
 21
185.999996
 31
0.0
  0
LINE
  5
1A333
330
1A07F
100
AcDbEntity
  8
1
  6
Continuous
100
AcDbLine
 10
294.281647
 20
187.998486
 30
0.0
 11
294.1944879999999
 21
187.0022849999998
 31
0.0
  0
ARC
  5
1A334
330
1A07F
100
AcDbEntity
  8
1
  6
Continuous
100
AcDbCircle
 10
289.122114
 20
183.499996
 30
0.0
 40
2.5
100
AcDbArc
 50
178.781125
 51
270.0000029999998
  0
LINE
  5
1A335
330
1A07F
100
AcDbEntity
  8
1
  6
Continuous
100
AcDbLine
 10
289.568357
 20
185.999996
 30
0.0
 11
289.568357
 21
183.499996
 31
0.0
  0
ARC
  5
1A336
330
1A07F
100
AcDbEntity
  8
1
  6
Continuous
100
AcDbCircle
 10
299.885371
 20
186.075502
 30
0.0
 40
5.924490999999998
100
AcDbArc
 50
8.940278999999996
 51
161.0597419999998
  0
ARC
  5
1A337
330
1A07F
100
AcDbEntity
  8
1
  6
Continuous
100
AcDbCircle
 10
125.5299069999999
 20
186.075502
 30
0.0
 40
5.924490999999998
100
AcDbArc
 50
18.940258
 51
171.0597209999999
  0
LINE
  5
1A338
330
1A07F
100
AcDbEntity
  8
1
  6
Continuous
100
AcDbLine
 10
122.2211429999999
 20
186.21492
 30
0.0
 11
122.239957
 21
185.999996
 31
0.0
  0
LINE
  5
1A339
330
1A07F
100
AcDbEntity
  8
1
  6
Continuous
100
AcDbLine
 10
131.2207899999999
 20
187.0022849999998
 30
0.0
 11
119.764552
 21
185.999996
 31
0.0
  0
LINE
  5
1A33A
330
1A07F
100
AcDbEntity
  8
1
  6
Continuous
100
AcDbLine
 10
131.133631
 20
187.998486
 30
0.0
 11
119.6773939999998
 21
186.996197
 31
0.0
  0
LINE
  5
1A33B
330
1A07F
100
AcDbEntity
  8
1
  6
Continuous
100
AcDbLine
 10
129.1945169999999
 20
186.82501
 30
0.0
 11
129.2666899999999
 21
185.999996
 31
0.0
  0
LINE
  5
1A33C
330
1A07F
100
AcDbEntity
  8
1
  6
Continuous
100
AcDbLine
 10
131.133631
 20
187.998486
 30
0.0
 11
131.2207899999999
 21
187.0022849999998
 31
0.0
  0
LINE
  5
1A33D
330
1A07F
100
AcDbEntity
  8
1
  6
Continuous
100
AcDbLine
 10
119.6773939999998
 20
186.996197
 30
0.0
 11
119.764552
 21
185.999996
 31
0.0
  0
ENDSEC
  0
SECTION
  2
OBJECTS
  0
DICTIONARY
  5
1A06D
330
0
100
AcDbDictionary
281
     1
  3
ACAD_CIP_PREVIOUS_PRODUCT_INFO
350
1A39D
  3
ACAD_COLOR
350
1A37F
  3
ACAD_DETAILVIEWSTYLE
350
1A398
  3
ACAD_GROUP
350
1A06E
  3
ACAD_LAYOUT
350
1A07A
  3
ACAD_MATERIAL
350
1A34D
  3
ACAD_MLEADERSTYLE
350
1A394
  3
ACAD_MLINESTYLE
350
1A077
  3
ACAD_PLOTSETTINGS
350
1A079
  3
ACAD_PLOTSTYLENAME
350
1A34B
  3
ACAD_SCALELIST
350
1A382
  3
ACAD_SECTIONVIEWSTYLE
350
1A396
  3
ACAD_TABLESTYLE
350
1A380
  3
ACAD_VISUALSTYLE
350
1A366
  3
ACDB_RECOMPOSE_DATA
350
1A3BB
  3
AcDbVariableDictionary
350
1A3AE
  3
DWGPROPS
350
1A3BC
  0
DICTIONARY
  5
1A39E
330
1A071
100
AcDbDictionary
280
     1
281
     1
  3
ADSK_XREC_LAYER_RECONCILED
360
1A39F
  0
DICTIONARY
  5
1A3A0
330
1A087
100
AcDbDictionary
280
     1
281
     1
  3
ADSK_XREC_LAYER_RECONCILED
360
1A3A1
  0
DICTIONARY
  5
1A3A2
330
1A088
100
AcDbDictionary
280
     1
281
     1
  3
ADSK_XREC_LAYER_RECONCILED
360
1A3A3
  0
DICTIONARY
  5
1A3A4
330
1A089
100
AcDbDictionary
280
     1
281
     1
  3
ADSK_XREC_LAYER_RECONCILED
360
1A3A5
  0
DICTIONARY
  5
1A3A6
330
1A08A
100
AcDbDictionary
280
     1
281
     1
  3
ADSK_XREC_LAYER_RECONCILED
360
1A3A7
  0
DICTIONARY
  5
1A3A8
330
1A08B
100
AcDbDictionary
280
     1
281
     1
  3
ADSK_XREC_LAYER_RECONCILED
360
1A3A9
  0
DICTIONARY
  5
1A3AA
330
1A08C
100
AcDbDictionary
280
     1
281
     1
  3
ADSK_XREC_LAYER_RECONCILED
360
1A3AB
  0
DICTIONARY
  5
1A3AC
330
1A08D
100
AcDbDictionary
280
     1
281
     1
  3
ADSK_XREC_LAYER_RECONCILED
360
1A3AD
  0
DICTIONARY
  5
1A346
330
1A07F
100
AcDbDictionary
281
     1
  3
ACAD_LAYOUTSELFREF
350
1A347
  0
DICTIONARY
  5
1A344
330
1A07B
100
AcDbDictionary
281
     1
  3
ACAD_LAYOUTSELFREF
350
1A345
  0
XRECORD
  5
1A39D
102
{ACAD_REACTORS
330
1A06D
102
}
330
1A06D
100
AcDbXrecord
280
     1
300
ACDLT
300
2014
300
ACDLT_F_S
  0
DICTIONARY
  5
1A37F
102
{ACAD_REACTORS
330
1A06D
102
}
330
1A06D
100
AcDbDictionary
281
     1
  0
DICTIONARY
  5
1A398
102
{ACAD_REACTORS
330
1A06D
102
}
330
1A06D
100
AcDbDictionary
281
     1
  3
Imperial24
350
1A399
  0
DICTIONARY
  5
1A06E
102
{ACAD_REACTORS
330
1A06D
102
}
330
1A06D
100
AcDbDictionary
281
     1
  0
DICTIONARY
  5
1A07A
102
{ACAD_REACTORS
330
1A06D
102
}
330
1A06D
100
AcDbDictionary
281
     1
  3
Model
350
1A39A
  3
レイアウト1
350
1A39B
  0
DICTIONARY
  5
1A34D
102
{ACAD_REACTORS
330
1A06D
102
}
330
1A06D
100
AcDbDictionary
281
     1
  3
ByBlock
350
1A356
  3
ByLayer
350
1A34E
  3
Global
350
1A35E
  0
DICTIONARY
  5
1A394
102
{ACAD_REACTORS
330
1A06D
102
}
330
1A06D
100
AcDbDictionary
281
     1
  3
Standard
350
1A395
  0
DICTIONARY
  5
1A077
102
{ACAD_REACTORS
330
1A06D
102
}
330
1A06D
100
AcDbDictionary
281
     1
  3
STANDARD
350
1A078
  0
DICTIONARY
  5
1A079
102
{ACAD_REACTORS
330
1A06D
102
}
330
1A06D
100
AcDbDictionary
281
     1
  0
ACDBDICTIONARYWDFLT
  5
1A34B
102
{ACAD_REACTORS
330
1A06D
102
}
330
1A06D
100
AcDbDictionary
281
     1
  3
Normal
350
1A34C
100
AcDbDictionaryWithDefault
340
1A34C
  0
DICTIONARY
  5
1A382
102
{ACAD_REACTORS
330
1A06D
102
}
330
1A06D
100
AcDbDictionary
281
     1
  3
A0
350
1A383
  3
A1
350
1A384
  3
A2
350
1A385
  3
A3
350
1A386
  3
A4
350
1A387
  3
A5
350
1A388
  3
A6
350
1A389
  3
A7
350
1A38A
  3
A8
350
1A38B
  3
A9
350
1A38C
  3
B0
350
1A38D
  3
B1
350
1A38E
  3
B2
350
1A38F
  3
B3
350
1A390
  3
B4
350
1A391
  3
B5
350
1A392
  3
B6
350
1A393
  0
DICTIONARY
  5
1A396
102
{ACAD_REACTORS
330
1A06D
102
}
330
1A06D
100
AcDbDictionary
281
     1
  3
Imperial24
350
1A397
  0
DICTIONARY
  5
1A380
102
{ACAD_REACTORS
330
1A06D
102
}
330
1A06D
100
AcDbDictionary
281
     1
  3
Standard
350
1A381
  0
DICTIONARY
  5
1A366
102
{ACAD_REACTORS
330
1A06D
102
}
330
1A06D
100
AcDbDictionary
281
     1
  3
2dWireframe
350
1A36C
  3
Basic
350
1A36B
  3
Brighten
350
1A372
  3
ColorChange
350
1A376
  3
Conceptual
350
1A36F
  3
Dim
350
1A371
  3
EdgeColorOff
350
1A37E
  3
Facepattern
350
1A375
  3
Flat
350
1A367
  3
FlatWithEdges
350
1A368
  3
Gouraud
350
1A369
  3
GouraudWithEdges
350
1A36A
  3
Hidden
350
1A36E
  3
JitterOff
350
1A37C
  3
Linepattern
350
1A374
  3
OverhangOff
350
1A37D
  3
Realistic
350
1A370
  3
Shaded
350
1A37B
  3
Shaded with edges
350
1A37A
  3
Shades of Gray
350
1A377
  3
Sketchy
350
1A378
  3
Thicken
350
1A373
  3
Wireframe
350
1A36D
  3
X-Ray
350
1A379
  0
XRECORD
  5
1A3BB
102
{ACAD_REACTORS
330
1A06D
102
}
330
1A06D
100
AcDbXrecord
280
     1
 90
        1
330
1A381
  0
DICTIONARY
  5
1A3AE
102
{ACAD_REACTORS
330
1A06D
102
}
330
1A06D
100
AcDbDictionary
281
     1
  3
CANNOSCALE
350
1A3B3
  3
CMLEADERSTYLE
350
1A3B0
  3
CTABLESTYLE
350
1A3AF
  3
CVIEWDETAILSTYLE
350
1A3B1
  3
CVIEWSECTIONSTYLE
350
1A3B2
  3
DIMASSOC
350
1A3B6
  3
INDEXCTL
350
1A3B5
  3
SORTENTS
350
1A3B4
  3
XCLIPFRAME
350
1A3B7
  0
XRECORD
  5
1A3BC
102
{ACAD_REACTORS
330
1A06D
102
}
330
1A06D
100
AcDbXrecord
280
     1
  1
DWGPROPS COOKIE
  2

  3

  4

  6

  7

  8
Yoshitsune
  9

300
=
301
=
302
=
303
=
304
=
305
=
306
=
307
=
308
=
309
=
 40
0.0000108564814815
 41
2451300.688053009
 42
2457192.656845602
  1

 90
        0
  0
XRECORD
  5
1A39F
102
{ACAD_REACTORS
330
1A39E
102
}
330
1A39E
100
AcDbXrecord
280
     1
290
     1
  0
XRECORD
  5
1A3A1
102
{ACAD_REACTORS
330
1A3A0
102
}
330
1A3A0
100
AcDbXrecord
280
     1
290
     1
  0
XRECORD
  5
1A3A3
102
{ACAD_REACTORS
330
1A3A2
102
}
330
1A3A2
100
AcDbXrecord
280
     1
290
     1
  0
XRECORD
  5
1A3A5
102
{ACAD_REACTORS
330
1A3A4
102
}
330
1A3A4
100
AcDbXrecord
280
     1
290
     1
  0
XRECORD
  5
1A3A7
102
{ACAD_REACTORS
330
1A3A6
102
}
330
1A3A6
100
AcDbXrecord
280
     1
290
     1
  0
XRECORD
  5
1A3A9
102
{ACAD_REACTORS
330
1A3A8
102
}
330
1A3A8
100
AcDbXrecord
280
     1
290
     1
  0
XRECORD
  5
1A3AB
102
{ACAD_REACTORS
330
1A3AA
102
}
330
1A3AA
100
AcDbXrecord
280
     1
290
     1
  0
XRECORD
  5
1A3AD
102
{ACAD_REACTORS
330
1A3AC
102
}
330
1A3AC
100
AcDbXrecord
280
     1
290
     1
  0
XRECORD
  5
1A347
102
{ACAD_REACTORS
330
1A346
102
}
330
1A346
100
AcDbXrecord
280
     1
340
1A07F
  0
XRECORD
  5
1A345
102
{ACAD_REACTORS
330
1A344
102
}
330
1A344
100
AcDbXrecord
280
     1
340
1A07B
  0
ACDBDETAILVIEWSTYLE
  5
1A399
102
{ACAD_XDICTIONARY
360
1A3F4
102
}
102
{ACAD_REACTORS
330
1A398
102
}
330
1A398
100
AcDbModelDocViewStyle
 70
     0
  3
Imperial24
290
     0
100
AcDbDetailViewStyle
 70
     0
 71
     0
 90
        3
 71
     1
340
1A072
 40
0.24
340
0
 40
0.24
300

 40
0.36
280
     3
 71
     2
340
1A076
 90
       25
 71
     3
340
1A072
 40
0.24
 90
        1
 40
0.75
 90
        1
300
%<\AcVar ViewType \f "%tc1">% %<\AcVar ViewDetailId>%\PSCALE %<\AcVar ViewScale \f "%sn">%
 71
     4
340
1A076
 90
       25
340
1A076
 90
       25
280
     0
  0
LAYOUT
  5
1A39A
102
{ACAD_XDICTIONARY
360
1A3F6
102
}
102
{ACAD_REACTORS
330
1A07A
102
}
330
1A07A
100
AcDbPlotSettings
  1

  2
Canon LBP9100C
  4

  6

 40
0.0
 41
0.0
 42
0.0
 43
0.0
 44
0.0
 45
0.0
 46
0.0
 47
0.0
 48
0.0
 49
0.0
140
0.0
141
0.0
142
1.0
143
1.0
 70
  1712
 72
     0
 73
     0
 74
     0
  7

 75
     0
147
1.0
148
0.0
149
0.0
100
AcDbLayout
  1
Model
 70
     1
 71
     0
 10
0.0
 20
0.0
 11
12.0
 21
9.0
 12
0.0
 22
0.0
 32
0.0
 14
0.0
 24
0.0
 34
0.0
 15
0.0
 25
0.0
 35
0.0
146
0.0
 13
0.0
 23
0.0
 33
0.0
 16
1.0
 26
0.0
 36
0.0
 17
0.0
 27
1.0
 37
0.0
 76
     0
330
1A07F
331
1A343
  0
LAYOUT
  5
1A39B
102
{ACAD_XDICTIONARY
360
1A3F8
102
}
102
{ACAD_REACTORS
330
1A07A
102
}
330
1A07A
100
AcDbPlotSettings
  1

  2
Canon LBP9100C
  4

  6

 40
0.0
 41
0.0
 42
0.0
 43
0.0
 44
0.0
 45
0.0
 46
0.0
 47
0.0
 48
0.0
 49
0.0
140
0.0
141
0.0
142
1.0
143
1.0
 70
   688
 72
     0
 73
     0
 74
     5
  7

 75
    16
147
1.0
148
0.0
149
0.0
100
AcDbLayout
  1
レイアウト1
 70
     0
 71
     1
 10
0.0
 20
0.0
 11
420.0
 21
297.0
 12
0.0
 22
0.0
 32
0.0
 14
1.000000000000000E+20
 24
1.000000000000000E+20
 34
1.000000000000000E+20
 15
-1.000000000000000E+20
 25
-1.000000000000000E+20
 35
-1.000000000000000E+20
146
0.0
 13
0.0
 23
0.0
 33
0.0
 16
1.0
 26
0.0
 36
0.0
 17
0.0
 27
1.0
 37
0.0
 76
     0
330
1A07B
  0
MATERIAL
  5
1A356
102
{ACAD_XDICTIONARY
360
1A357
102
}
102
{ACAD_REACTORS
330
1A34D
102
}
330
1A34D
100
AcDbMaterial
  1
ByBlock
 72
     0
 43
0.0208333333333333
 43
0.0
 43
0.0
 43
0.0
 43
0.0
 43
0.0208333333333333
 43
0.0
 43
0.0
 43
0.0
 43
0.0
 43
1.0
 43
0.0
 43
0.0
 43
0.0
 43
0.0
 43
1.0
 77
     0
 47
0.0208333333333333
 47
0.0
 47
0.0
 47
0.0
 47
0.0
 47
0.0208333333333333
 47
0.0
 47
0.0
 47
0.0
 47
0.0
 47
1.0
 47
0.0
 47
0.0
 47
0.0
 47
0.0
 47
1.0
171
     0
 49
0.0208333333333333
 49
0.0
 49
0.0
 49
0.0
 49
0.0
 49
0.0208333333333333
 49
0.0
 49
0.0
 49
0.0
 49
0.0
 49
1.0
 49
0.0
 49
0.0
 49
0.0
 49
0.0
 49
1.0
175
     0
142
0.0208333333333333
142
0.0
142
0.0
142
0.0
142
0.0
142
0.0208333333333333
142
0.0
142
0.0
142
0.0
142
0.0
142
1.0
142
0.0
142
0.0
142
0.0
142
0.0
142
1.0
179
     0
144
0.0208333333333333
144
0.0
144
0.0
144
0.0
144
0.0
144
0.0208333333333333
144
0.0
144
0.0
144
0.0
144
0.0
144
1.0
144
0.0
144
0.0
144
0.0
144
0.0
144
1.0
147
0.0208333333333333
147
0.0
147
0.0
147
0.0
147
0.0
147
0.0208333333333333
147
0.0
147
0.0
147
0.0
147
0.0
147
1.0
147
0.0
147
0.0
147
0.0
147
0.0
147
1.0
  0
MATERIAL
  5
1A34E
102
{ACAD_XDICTIONARY
360
1A34F
102
}
102
{ACAD_REACTORS
330
1A34D
102
}
330
1A34D
100
AcDbMaterial
  1
ByLayer
 72
     0
 43
0.0208333333333333
 43
0.0
 43
0.0
 43
0.0
 43
0.0
 43
0.0208333333333333
 43
0.0
 43
0.0
 43
0.0
 43
0.0
 43
1.0
 43
0.0
 43
0.0
 43
0.0
 43
0.0
 43
1.0
 77
     0
 47
0.0208333333333333
 47
0.0
 47
0.0
 47
0.0
 47
0.0
 47
0.0208333333333333
 47
0.0
 47
0.0
 47
0.0
 47
0.0
 47
1.0
 47
0.0
 47
0.0
 47
0.0
 47
0.0
 47
1.0
171
     0
 49
0.0208333333333333
 49
0.0
 49
0.0
 49
0.0
 49
0.0
 49
0.0208333333333333
 49
0.0
 49
0.0
 49
0.0
 49
0.0
 49
1.0
 49
0.0
 49
0.0
 49
0.0
 49
0.0
 49
1.0
175
     0
142
0.0208333333333333
142
0.0
142
0.0
142
0.0
142
0.0
142
0.0208333333333333
142
0.0
142
0.0
142
0.0
142
0.0
142
1.0
142
0.0
142
0.0
142
0.0
142
0.0
142
1.0
179
     0
144
0.0208333333333333
144
0.0
144
0.0
144
0.0
144
0.0
144
0.0208333333333333
144
0.0
144
0.0
144
0.0
144
0.0
144
1.0
144
0.0
144
0.0
144
0.0
144
0.0
144
1.0
147
0.0208333333333333
147
0.0
147
0.0
147
0.0
147
0.0
147
0.0208333333333333
147
0.0
147
0.0
147
0.0
147
0.0
147
1.0
147
0.0
147
0.0
147
0.0
147
0.0
147
1.0
  0
MATERIAL
  5
1A35E
102
{ACAD_XDICTIONARY
360
1A35F
102
}
102
{ACAD_REACTORS
330
1A34D
102
}
330
1A34D
100
AcDbMaterial
  1
Global
 72
     0
 43
0.0208333333333333
 43
0.0
 43
0.0
 43
0.0
 43
0.0
 43
0.0208333333333333
 43
0.0
 43
0.0
 43
0.0
 43
0.0
 43
1.0
 43
0.0
 43
0.0
 43
0.0
 43
0.0
 43
1.0
 77
     0
 47
0.0208333333333333
 47
0.0
 47
0.0
 47
0.0
 47
0.0
 47
0.0208333333333333
 47
0.0
 47
0.0
 47
0.0
 47
0.0
 47
1.0
 47
0.0
 47
0.0
 47
0.0
 47
0.0
 47
1.0
171
     0
 49
0.0208333333333333
 49
0.0
 49
0.0
 49
0.0
 49
0.0
 49
0.0208333333333333
 49
0.0
 49
0.0
 49
0.0
 49
0.0
 49
1.0
 49
0.0
 49
0.0
 49
0.0
 49
0.0
 49
1.0
175
     0
142
0.0208333333333333
142
0.0
142
0.0
142
0.0
142
0.0
142
0.0208333333333333
142
0.0
142
0.0
142
0.0
142
0.0
142
1.0
142
0.0
142
0.0
142
0.0
142
0.0
142
1.0
179
     0
144
0.0208333333333333
144
0.0
144
0.0
144
0.0
144
0.0
144
0.0208333333333333
144
0.0
144
0.0
144
0.0
144
0.0
144
1.0
144
0.0
144
0.0
144
0.0
144
0.0
144
1.0
147
0.0208333333333333
147
0.0
147
0.0
147
0.0
147
0.0
147
0.0208333333333333
147
0.0
147
0.0
147
0.0
147
0.0
147
1.0
147
0.0
147
0.0
147
0.0
147
0.0
147
1.0
  0
MLEADERSTYLE
  5
1A395
102
{ACAD_REACTORS
330
1A394
102
}
330
1A394
100
AcDbMLeaderStyle
170
     2
171
     1
172
     0
 90
        2
 40
0.0
 41
0.0
173
     1
 91
-1056964608
340
1A074
 92
       -2
290
     1
 42
0.09
291
     1
 43
0.36
  3
Standard
 44
0.18
300

342
1A072
174
     1
178
     6
175
     1
176
     0
 93
-1056964608
 45
0.18
292
     0
297
     0
 46
0.18
 94
-1056964608
 47
1.0
 49
1.0
140
1.0
293
     1
141
0.0
294
     1
177
     0
142
1.0
295
     0
296
     0
143
0.125
1001
ACAD_MLEADERVER
1070
     2
  0
MLINESTYLE
  5
1A078
102
{ACAD_REACTORS
330
1A077
102
}
330
1A077
100
AcDbMlineStyle
  2
STANDARD
 70
     0
  3

 62
   256
 51
90.0
 52
90.0
 71
     2
 49
0.5
 62
   256
  6
BYLAYER
 49
-0.5
 62
   256
  6
BYLAYER
  0
ACDBPLACEHOLDER
  5
1A34C
102
{ACAD_REACTORS
330
1A34B
102
}
330
1A34B
  0
SCALE
  5
1A383
102
{ACAD_REACTORS
330
1A382
102
}
330
1A382
100
AcDbScale
 70
     0
300
1:1
140
1.0
141
1.0
290
     1
  0
SCALE
  5
1A384
102
{ACAD_REACTORS
330
1A382
102
}
330
1A382
100
AcDbScale
 70
     0
300
1/128" = 1'-0"
140
0.0078125
141
12.0
290
     0
  0
SCALE
  5
1A385
102
{ACAD_REACTORS
330
1A382
102
}
330
1A382
100
AcDbScale
 70
     0
300
1/64" = 1'-0"
140
0.015625
141
12.0
290
     0
  0
SCALE
  5
1A386
102
{ACAD_REACTORS
330
1A382
102
}
330
1A382
100
AcDbScale
 70
     0
300
1/32" = 1'-0"
140
0.03125
141
12.0
290
     0
  0
SCALE
  5
1A387
102
{ACAD_REACTORS
330
1A382
102
}
330
1A382
100
AcDbScale
 70
     0
300
1/16" = 1'-0"
140
0.0625
141
12.0
290
     0
  0
SCALE
  5
1A388
102
{ACAD_REACTORS
330
1A382
102
}
330
1A382
100
AcDbScale
 70
     0
300
3/32" = 1'-0"
140
0.09375
141
12.0
290
     0
  0
SCALE
  5
1A389
102
{ACAD_REACTORS
330
1A382
102
}
330
1A382
100
AcDbScale
 70
     0
300
1/8" = 1'-0"
140
0.125
141
12.0
290
     0
  0
SCALE
  5
1A38A
102
{ACAD_REACTORS
330
1A382
102
}
330
1A382
100
AcDbScale
 70
     0
300
3/16" = 1'-0"
140
0.1875
141
12.0
290
     0
  0
SCALE
  5
1A38B
102
{ACAD_REACTORS
330
1A382
102
}
330
1A382
100
AcDbScale
 70
     0
300
1/4" = 1'-0"
140
0.25
141
12.0
290
     0
  0
SCALE
  5
1A38C
102
{ACAD_REACTORS
330
1A382
102
}
330
1A382
100
AcDbScale
 70
     0
300
3/8" = 1'-0"
140
0.375
141
12.0
290
     0
  0
SCALE
  5
1A38D
102
{ACAD_REACTORS
330
1A382
102
}
330
1A382
100
AcDbScale
 70
     0
300
1/2" = 1'-0"
140
0.5
141
12.0
290
     0
  0
SCALE
  5
1A38E
102
{ACAD_REACTORS
330
1A382
102
}
330
1A382
100
AcDbScale
 70
     0
300
3/4" = 1'-0"
140
0.75
141
12.0
290
     0
  0
SCALE
  5
1A38F
102
{ACAD_REACTORS
330
1A382
102
}
330
1A382
100
AcDbScale
 70
     0
300
1" = 1'-0"
140
1.0
141
12.0
290
     0
  0
SCALE
  5
1A390
102
{ACAD_REACTORS
330
1A382
102
}
330
1A382
100
AcDbScale
 70
     0
300
1-1/2" = 1'-0"
140
1.5
141
12.0
290
     0
  0
SCALE
  5
1A391
102
{ACAD_REACTORS
330
1A382
102
}
330
1A382
100
AcDbScale
 70
     0
300
3" = 1'-0"
140
3.0
141
12.0
290
     0
  0
SCALE
  5
1A392
102
{ACAD_REACTORS
330
1A382
102
}
330
1A382
100
AcDbScale
 70
     0
300
6" = 1'-0"
140
6.0
141
12.0
290
     0
  0
SCALE
  5
1A393
102
{ACAD_REACTORS
330
1A382
102
}
330
1A382
100
AcDbScale
 70
     0
300
1'-0" = 1'-0"
140
12.0
141
12.0
290
     0
  0
ACDBSECTIONVIEWSTYLE
  5
1A397
102
{ACAD_XDICTIONARY
360
1A3F2
102
}
102
{ACAD_REACTORS
330
1A396
102
}
330
1A396
100
AcDbModelDocViewStyle
 70
     0
  3
Imperial24
290
     0
100
AcDbSectionViewStyle
 70
     0
 71
     0
 90
       78
 71
     1
340
1A072
 40
0.24
340
0
340
0
 40
0.24
300
I, O, Q, S, X, Z
 40
0.48
 90
        3
 40
0.18
 90
        1
 71
     2
340
1A076
 90
       25
340
1A076
 90
       50
 40
0.24
 40
0.0
 40
0.24
 71
     3
340
1A072
 40
0.24
 90
        1
 40
0.75
 90
        1
300
%<\AcVar ViewType \f "%tc1">% %<\AcVar ViewSectionStartId>%-%<\AcVar ViewSectionEndId>%\PSCALE %<\AcVar ViewScale \f "%sn">%
 71
     4
300
ANSI31
 40
1.0
 90
        0
290
     0
290
     0
 90
        6
 40
0.0
 40
1.570796326794896
 40
0.2617993877991494
 40
1.308996938995747
 40
-0.2617993877991494
 40
1.832595714594046
  0
TABLESTYLE
  5
1A381
102
{ACAD_XDICTIONARY
360
1A3B9
102
}
102
{ACAD_REACTORS
330
1A380
102
}
330
1A380
100
AcDbTableStyle
  3
Standard
 70
     0
 71
     0
 40
0.06
 41
0.06
280
     0
281
     0
  7
STANDARD
140
0.18
170
     2
 62
     0
 63
     7
283
     0
274
    -2
284
     1
 64
     0
275
    -2
285
     1
 65
     0
276
    -2
286
     1
 66
     0
277
    -2
287
     1
 67
     0
278
    -2
288
     1
 68
     0
279
    -2
289
     1
 69
     0
  7
STANDARD
140
0.25
170
     5
 62
     0
 63
     7
283
     0
274
    -2
284
     1
 64
     0
275
    -2
285
     1
 65
     0
276
    -2
286
     1
 66
     0
277
    -2
287
     1
 67
     0
278
    -2
288
     1
 68
     0
279
    -2
289
     1
 69
     0
  7
STANDARD
140
0.18
170
     5
 62
     0
 63
     7
283
     0
274
    -2
284
     1
 64
     0
275
    -2
285
     1
 65
     0
276
    -2
286
     1
 66
     0
277
    -2
287
     1
 67
     0
278
    -2
288
     1
 68
     0
279
    -2
289
     1
 69
     0
  0
VISUALSTYLE
  5
1A36C
102
{ACAD_XDICTIONARY
360
1A3CA
102
}
102
{ACAD_REACTORS
330
1A366
102
}
330
1A366
100
AcDbVisualStyle
  2
2dWireframe
 70
     4
 71
     0
 72
     2
 73
     0
 90
        0
 40
-0.6
 41
-30.0
 62
     5
 63
     7
 74
     1
 91
        4
 64
     7
 65
   257
 75
     1
175
     1
 42
1.0
 92
        0
 66
   257
 43
1.0
 76
     1
 77
     6
 78
     2
 67
     7
 79
     5
170
     0
171
     0
290
     0
174
     0
 93
        1
 44
0.0
173
     0
291
     0
 45
0.0
1001
ACAD
1000
AcDbSavedByObjectVersion
1070
     0
  0
VISUALSTYLE
  5
1A36B
102
{ACAD_XDICTIONARY
360
1A3C8
102
}
102
{ACAD_REACTORS
330
1A366
102
}
330
1A366
100
AcDbVisualStyle
  2
Basic
 70
     7
 71
     1
 72
     0
 73
     1
 90
        0
 40
-0.6
 41
-30.0
 62
     5
 63
     7
 74
     0
 91
        4
 64
     7
 65
   257
 75
     1
175
     1
 42
1.0
 92
        8
 66
     7
 43
1.0
 76
     1
 77
     6
 78
     2
 67
     7
 79
     5
170
     0
171
     0
290
     0
174
     0
 93
        1
 44
0.0
173
     0
291
     1
 45
0.0
1001
ACAD
1000
AcDbSavedByObjectVersion
1070
     0
  0
VISUALSTYLE
  5
1A372
102
{ACAD_XDICTIONARY
360
1A3D6
102
}
102
{ACAD_REACTORS
330
1A366
102
}
330
1A366
100
AcDbVisualStyle
  2
Brighten
 70
    12
 71
     2
 72
     2
 73
     0
 90
        0
 40
-0.6
 41
-30.0
 62
     5
 63
     7
 74
     1
 91
        4
 64
     7
 65
   257
 75
     1
175
     1
 42
1.0
 92
        8
 66
     7
 43
1.0
 76
     1
 77
     6
 78
     2
 67
     7
 79
     5
170
     0
171
     0
290
     0
174
     0
 93
        1
 44
50.0
173
     0
291
     1
 45
0.0
1001
ACAD
1000
AcDbSavedByObjectVersion
1070
     0
  0
VISUALSTYLE
  5
1A376
102
{ACAD_XDICTIONARY
360
1A3DE
102
}
102
{ACAD_REACTORS
330
1A366
102
}
330
1A366
100
AcDbVisualStyle
  2
ColorChange
 70
    16
 71
     2
 72
     2
 73
     3
 90
        0
 40
-0.6
 41
-30.0
 62
     5
 63
     8
 74
     1
 91
        4
 64
     7
 65
   257
 75
     1
175
     1
 42
1.0
 92
        8
 66
     8
 43
1.0
 76
     1
 77
     6
 78
     2
 67
     7
 79
     5
170
     0
171
     0
290
     0
174
     0
 93
        1
 44
0.0
173
     0
291
     1
 45
0.0
1001
ACAD
1000
AcDbSavedByObjectVersion
1070
     0
  0
VISUALSTYLE
  5
1A36F
102
{ACAD_XDICTIONARY
360
1A3D0
102
}
102
{ACAD_REACTORS
330
1A366
102
}
330
1A366
100
AcDbVisualStyle
  2
Conceptual
 70
     9
 71
     3
 72
     2
 73
     0
 90
        0
 40
-0.6
 41
-30.0
 62
     5
 63
     7
 74
     2
 91
        2
 64
     7
 65
   257
 75
     1
175
     1
 42
179.0
 92
        8
 66
     7
 43
1.0
 76
     1
 77
     6
 78
     2
 67
     7
 79
     3
170
     0
171
     0
290
     0
174
     0
 93
        1
 44
0.0
173
     0
291
     0
 45
0.0
1001
ACAD
1000
AcDbSavedByObjectVersion
1070
     0
  0
VISUALSTYLE
  5
1A371
102
{ACAD_XDICTIONARY
360
1A3D4
102
}
102
{ACAD_REACTORS
330
1A366
102
}
330
1A366
100
AcDbVisualStyle
  2
Dim
 70
    11
 71
     2
 72
     2
 73
     0
 90
        0
 40
-0.6
 41
-30.0
 62
     5
 63
     7
 74
     1
 91
        4
 64
     7
 65
   257
 75
     1
175
     1
 42
1.0
 92
        8
 66
     7
 43
1.0
 76
     1
 77
     6
 78
     2
 67
     7
 79
     5
170
     0
171
     0
290
     0
174
     0
 93
        1
 44
-50.0
173
     0
291
     1
 45
0.0
1001
ACAD
1000
AcDbSavedByObjectVersion
1070
     0
  0
VISUALSTYLE
  5
1A37E
102
{ACAD_XDICTIONARY
360
1A3EE
102
}
102
{ACAD_REACTORS
330
1A366
102
}
330
1A366
100
AcDbVisualStyle
  2
EdgeColorOff
 70
    22
 71
     2
 72
     2
 73
     0
 90
        0
 40
-0.6
 41
-30.0
 62
     5
 63
     7
 74
     1
 91
        4
 64
     7
 65
   257
 75
     1
175
     1
 42
1.0
 92
        8
 66
     7
 43
1.0
 76
     1
 77
     6
 78
     2
 67
     7
 79
     5
170
     0
171
     0
290
     0
174
     0
 93
        1
 44
0.0
173
     0
291
     1
 45
0.0
1001
ACAD
1000
AcDbSavedByObjectVersion
1070
     0
  0
VISUALSTYLE
  5
1A375
102
{ACAD_XDICTIONARY
360
1A3DC
102
}
102
{ACAD_REACTORS
330
1A366
102
}
330
1A366
100
AcDbVisualStyle
  2
Facepattern
 70
    15
 71
     2
 72
     2
 73
     0
 90
        0
 40
-0.6
 41
-30.0
 62
     5
 63
     7
 74
     1
 91
        4
 64
     7
 65
   257
 75
     1
175
     1
 42
1.0
 92
        8
 66
     7
 43
1.0
 76
     1
 77
     6
 78
     2
 67
     7
 79
     5
170
     0
171
     0
290
     0
174
     0
 93
        1
 44
0.0
173
     0
291
     1
 45
0.0
1001
ACAD
1000
AcDbSavedByObjectVersion
1070
     0
  0
VISUALSTYLE
  5
1A367
102
{ACAD_XDICTIONARY
360
1A3C0
102
}
102
{ACAD_REACTORS
330
1A366
102
}
330
1A366
100
AcDbVisualStyle
  2
Flat
 70
     0
 71
     2
 72
     1
 73
     1
 90
        2
 40
-0.6
 41
30.0
 62
     5
 63
     7
 74
     0
 91
        0
 64
     7
 65
   257
 75
     1
175
     1
 42
1.0
 92
        8
 66
     7
 43
1.0
 76
     1
 77
     6
 78
     2
 67
     7
 79
     5
170
     0
171
     0
290
     0
174
     0
 93
       13
 44
0.0
173
     0
291
     1
 45
0.0
1001
ACAD
1000
AcDbSavedByObjectVersion
1070
     0
  0
VISUALSTYLE
  5
1A368
102
{ACAD_XDICTIONARY
360
1A3C2
102
}
102
{ACAD_REACTORS
330
1A366
102
}
330
1A366
100
AcDbVisualStyle
  2
FlatWithEdges
 70
     1
 71
     2
 72
     1
 73
     1
 90
        2
 40
-0.6
 41
30.0
 62
     5
 63
     7
 74
     1
 91
        0
 64
     7
 65
   257
 75
     1
175
     1
 42
1.0
 92
        0
 66
   257
 43
1.0
 76
     1
 77
     6
 78
     2
 67
     7
 79
     5
170
     0
171
     0
290
     0
174
     0
 93
       13
 44
0.0
173
     0
291
     1
 45
0.0
1001
ACAD
1000
AcDbSavedByObjectVersion
1070
     0
  0
VISUALSTYLE
  5
1A369
102
{ACAD_XDICTIONARY
360
1A3C4
102
}
102
{ACAD_REACTORS
330
1A366
102
}
330
1A366
100
AcDbVisualStyle
  2
Gouraud
 70
     2
 71
     2
 72
     2
 73
     1
 90
        2
 40
-0.6
 41
30.0
 62
     5
 63
     7
 74
     0
 91
        0
 64
     7
 65
   257
 75
     1
175
     1
 42
1.0
 92
        0
 66
     7
 43
1.0
 76
     1
 77
     6
 78
     2
 67
     7
 79
     5
170
     0
171
     0
290
     0
174
     0
 93
       13
 44
0.0
173
     0
291
     1
 45
0.0
1001
ACAD
1000
AcDbSavedByObjectVersion
1070
     0
  0
VISUALSTYLE
  5
1A36A
102
{ACAD_XDICTIONARY
360
1A3C6
102
}
102
{ACAD_REACTORS
330
1A366
102
}
330
1A366
100
AcDbVisualStyle
  2
GouraudWithEdges
 70
     3
 71
     2
 72
     2
 73
     1
 90
        2
 40
-0.6
 41
30.0
 62
     5
 63
     7
 74
     1
 91
        0
 64
     7
 65
   257
 75
     1
175
     1
 42
1.0
 92
        0
 66
   257
 43
1.0
 76
     1
 77
     6
 78
     2
 67
     7
 79
     5
170
     0
171
     0
290
     0
174
     0
 93
       13
 44
0.0
173
     0
291
     1
 45
0.0
1001
ACAD
1000
AcDbSavedByObjectVersion
1070
     0
  0
VISUALSTYLE
  5
1A36E
102
{ACAD_XDICTIONARY
360
1A3CE
102
}
102
{ACAD_REACTORS
330
1A366
102
}
330
1A366
100
AcDbVisualStyle
  2
Hidden
 70
     6
 71
     1
 72
     2
 73
     2
 90
        0
 40
-0.6
 41
-30.0
 62
     5
 63
     7
 74
     2
 91
        2
 64
     7
 65
   257
 75
     2
175
     1
 42
40.0
 92
        0
 66
   257
 43
1.0
 76
     1
 77
     6
 78
     2
 67
     7
 79
     3
170
     0
171
     0
290
     0
174
     0
 93
        1
 44
0.0
173
     0
291
     0
 45
0.0
1001
ACAD
1000
AcDbSavedByObjectVersion
1070
     0
  0
VISUALSTYLE
  5
1A37C
102
{ACAD_XDICTIONARY
360
1A3EA
102
}
102
{ACAD_REACTORS
330
1A366
102
}
330
1A366
100
AcDbVisualStyle
  2
JitterOff
 70
    20
 71
     2
 72
     2
 73
     0
 90
        0
 40
-0.6
 41
-30.0
 62
     5
 63
     7
 74
     1
 91
        4
 64
     7
 65
   257
 75
     1
175
     1
 42
1.0
 92
       10
 66
     7
 43
1.0
 76
     1
 77
     6
 78
     2
 67
     7
 79
     5
170
     0
171
     0
290
     0
174
     0
 93
        1
 44
0.0
173
     0
291
     1
 45
0.0
1001
ACAD
1000
AcDbSavedByObjectVersion
1070
     0
  0
VISUALSTYLE
  5
1A374
102
{ACAD_XDICTIONARY
360
1A3DA
102
}
102
{ACAD_REACTORS
330
1A366
102
}
330
1A366
100
AcDbVisualStyle
  2
Linepattern
 70
    14
 71
     2
 72
     2
 73
     0
 90
        0
 40
-0.6
 41
-30.0
 62
     5
 63
     7
 74
     1
 91
        4
 64
     7
 65
   257
 75
     7
175
     7
 42
1.0
 92
        8
 66
     7
 43
1.0
 76
     1
 77
     6
 78
     2
 67
     7
 79
     5
170
     0
171
     0
290
     0
174
     0
 93
        1
 44
0.0
173
     0
291
     1
 45
0.0
1001
ACAD
1000
AcDbSavedByObjectVersion
1070
     0
  0
VISUALSTYLE
  5
1A37D
102
{ACAD_XDICTIONARY
360
1A3EC
102
}
102
{ACAD_REACTORS
330
1A366
102
}
330
1A366
100
AcDbVisualStyle
  2
OverhangOff
 70
    21
 71
     2
 72
     2
 73
     0
 90
        0
 40
-0.6
 41
-30.0
 62
     5
 63
     7
 74
     1
 91
        4
 64
     7
 65
   257
 75
     1
175
     1
 42
1.0
 92
        9
 66
     7
 43
1.0
 76
     1
 77
     6
 78
     2
 67
     7
 79
     5
170
     0
171
     0
290
     0
174
     0
 93
        1
 44
0.0
173
     0
291
     1
 45
0.0
1001
ACAD
1000
AcDbSavedByObjectVersion
1070
     0
  0
VISUALSTYLE
  5
1A370
102
{ACAD_XDICTIONARY
360
1A3D2
102
}
102
{ACAD_REACTORS
330
1A366
102
}
330
1A366
100
AcDbVisualStyle
  2
Realistic
 70
     8
 71
     2
 72
     3
 73
     0
 90
        2
 40
-0.6
 41
30.0
 62
     5
 63
     7
 74
     0
 91
        0
 64
     7
 65
   257
 75
     1
175
     1
 42
1.0
 92
        8
 66
   257
 43
1.0
 76
     1
 77
     6
 78
     2
 67
     7
 79
     3
170
     0
171
     0
290
     0
174
     0
 93
       13
 44
0.0
173
     0
291
     0
 45
0.0
1001
ACAD
1000
AcDbSavedByObjectVersion
1070
     0
  0
VISUALSTYLE
  5
1A37B
102
{ACAD_XDICTIONARY
360
1A3E8
102
}
102
{ACAD_REACTORS
330
1A366
102
}
330
1A366
100
AcDbVisualStyle
  2
Shaded
 70
    27
 71
     2
 72
     2
 73
     1
 90
        2
 40
-0.6
 41
30.0
 62
     5
 63
     7
 74
     0
 91
        4
 64
     7
 65
   257
 75
     1
175
     1
 42
1.0
 92
        8
 66
   257
 43
1.0
 76
     1
 77
     6
 78
     2
 67
     8
 79
     3
170
     0
171
     0
290
     0
174
     0
 93
        5
 44
0.0
173
     0
291
     0
 45
0.0
1001
ACAD
1000
AcDbSavedByObjectVersion
1070
     0
  0
VISUALSTYLE
  5
1A37A
102
{ACAD_XDICTIONARY
360
1A3E6
102
}
102
{ACAD_REACTORS
330
1A366
102
}
330
1A366
100
AcDbVisualStyle
  2
Shaded with edges
 70
    26
 71
     2
 72
     2
 73
     1
 90
        2
 40
-0.6
 41
30.0
 62
     5
 63
     7
 74
     1
 91
       10
 64
     7
 65
   257
 75
     2
175
     1
 42
1.0
 92
        8
 66
   257
 43
1.0
 76
     1
 77
     6
 78
     2
 67
     7
 79
     3
170
     0
171
     0
290
     0
174
     0
 93
        5
 44
0.0
173
     0
291
     0
 45
0.0
1001
ACAD
1000
AcDbSavedByObjectVersion
1070
     0
  0
VISUALSTYLE
  5
1A377
102
{ACAD_XDICTIONARY
360
1A3E0
102
}
102
{ACAD_REACTORS
330
1A366
102
}
330
1A366
100
AcDbVisualStyle
  2
Shades of Gray
 70
    23
 71
     2
 72
     2
 73
     3
 90
        0
 40
-0.6
 41
-30.0
 62
     5
 63
     7
 74
     2
 91
        2
 64
     7
 65
     7
 75
     1
175
     1
 42
40.0
 92
        8
 66
     7
 43
1.0
 76
     1
 77
     6
 78
     2
 67
     7
 79
     3
170
     0
171
     0
290
     0
174
     0
 93
        1
 44
0.0
173
     0
291
     0
 45
0.0
1001
ACAD
1000
AcDbSavedByObjectVersion
1070
     0
  0
VISUALSTYLE
  5
1A378
102
{ACAD_XDICTIONARY
360
1A3E2
102
}
102
{ACAD_REACTORS
330
1A366
102
}
330
1A366
100
AcDbVisualStyle
  2
Sketchy
 70
    24
 71
     1
 72
     2
 73
     2
 90
        0
 40
-0.6
 41
-30.0
 62
     5
 63
     7
 74
     2
 91
        2
 64
     7
 65
     7
 75
     1
175
     1
 42
40.0
 92
       11
 66
     7
 43
1.0
 76
     1
 77
     6
 78
     2
 67
     7
 79
     6
170
     0
171
     0
290
     0
174
     0
 93
        1
 44
0.0
173
     0
291
     0
 45
0.0
1001
ACAD
1000
AcDbSavedByObjectVersion
1070
     0
  0
VISUALSTYLE
  5
1A373
102
{ACAD_XDICTIONARY
360
1A3D8
102
}
102
{ACAD_REACTORS
330
1A366
102
}
330
1A366
100
AcDbVisualStyle
  2
Thicken
 70
    13
 71
     2
 72
     2
 73
     0
 90
        0
 40
-0.6
 41
-30.0
 62
     5
 63
     7
 74
     1
 91
        4
 64
     7
 65
   257
 75
     1
175
     1
 42
1.0
 92
       12
 66
     7
 43
1.0
 76
     1
 77
     6
 78
     2
 67
     7
 79
     5
170
     0
171
     0
290
     0
174
     0
 93
        1
 44
0.0
173
     0
291
     1
 45
0.0
1001
ACAD
1000
AcDbSavedByObjectVersion
1070
     0
  0
VISUALSTYLE
  5
1A36D
102
{ACAD_XDICTIONARY
360
1A3CC
102
}
102
{ACAD_REACTORS
330
1A366
102
}
330
1A366
100
AcDbVisualStyle
  2
Wireframe
 70
     5
 71
     0
 72
     2
 73
     0
 90
        0
 40
-0.6
 41
-30.0
 62
     5
 63
     7
 74
     1
 91
        4
 64
     7
 65
   257
 75
     1
175
     1
 42
1.0
 92
        0
 66
   257
 43
1.0
 76
     1
 77
     6
 78
     2
 67
     7
 79
     3
170
     0
171
     0
290
     0
174
     0
 93
        1
 44
0.0
173
     0
291
     0
 45
0.0
1001
ACAD
1000
AcDbSavedByObjectVersion
1070
     0
  0
VISUALSTYLE
  5
1A379
102
{ACAD_XDICTIONARY
360
1A3E4
102
}
102
{ACAD_REACTORS
330
1A366
102
}
330
1A366
100
AcDbVisualStyle
  2
X-Ray
 70
    25
 71
     2
 72
     2
 73
     1
 90
        1
 40
0.5
 41
-30.0
 62
     5
 63
     7
 74
     1
 91
        0
 64
     7
 65
   257
 75
     1
175
     1
 42
1.0
 92
        8
 66
     7
 43
1.0
 76
     1
 77
     6
 78
     2
 67
     7
 79
     3
170
     0
171
     0
290
     0
174
     0
 93
       13
 44
0.0
173
     0
291
     0
 45
0.0
1001
ACAD
1000
AcDbSavedByObjectVersion
1070
     0
  0
DICTIONARYVAR
  5
1A3B3
102
{ACAD_REACTORS
330
1A3AE
102
}
330
1A3AE
100
DictionaryVariables
280
     0
  1
1:1
  0
DICTIONARYVAR
  5
1A3B0
102
{ACAD_REACTORS
330
1A3AE
102
}
330
1A3AE
100
DictionaryVariables
280
     0
  1
STANDARD
  0
DICTIONARYVAR
  5
1A3AF
102
{ACAD_REACTORS
330
1A3AE
102
}
330
1A3AE
100
DictionaryVariables
280
     0
  1
STANDARD
  0
DICTIONARYVAR
  5
1A3B1
102
{ACAD_REACTORS
330
1A3AE
102
}
330
1A3AE
100
DictionaryVariables
280
     0
  1
Imperial24
  0
DICTIONARYVAR
  5
1A3B2
102
{ACAD_REACTORS
330
1A3AE
102
}
330
1A3AE
100
DictionaryVariables
280
     0
  1
Imperial24
  0
DICTIONARYVAR
  5
1A3B6
102
{ACAD_REACTORS
330
1A3AE
102
}
330
1A3AE
100
DictionaryVariables
280
     0
  1
1
  0
DICTIONARYVAR
  5
1A3B5
102
{ACAD_REACTORS
330
1A3AE
102
}
330
1A3AE
100
DictionaryVariables
280
     0
  1
0
  0
DICTIONARYVAR
  5
1A3B4
102
{ACAD_REACTORS
330
1A3AE
102
}
330
1A3AE
100
DictionaryVariables
280
     0
  1
127
  0
DICTIONARYVAR
  5
1A3B7
102
{ACAD_REACTORS
330
1A3AE
102
}
330
1A3AE
100
DictionaryVariables
280
     0
  1
2
  0
DICTIONARY
  5
1A3F4
330
1A399
100
AcDbDictionary
280
     1
281
     1
  3
ACAD_XREC_ROUNDTRIP
360
1A3F5
  0
DICTIONARY
  5
1A3F6
330
1A39A
100
AcDbDictionary
280
     1
281
     1
  3
ACAD_XREC_ROUNDTRIP
360
1A3F7
  0
DICTIONARY
  5
1A3F8
330
1A39B
100
AcDbDictionary
280
     1
281
     1
  3
ACAD_XREC_ROUNDTRIP
360
1A3F9
  0
DICTIONARY
  5
1A357
330
1A356
100
AcDbDictionary
280
     1
281
     1
  3
ACAD_XREC_ROUNDTRIP
360
1A3BE
  3
BUMPTILE
360
1A359
  3
DIFFUSETILE
360
1A358
  3
OPACITYTILE
360
1A35C
  3
REFLECTIONTILE
360
1A35B
  3
REFRACTIONTILE
360
1A35D
  3
SPECULARTILE
360
1A35A
  0
DICTIONARY
  5
1A34F
330
1A34E
100
AcDbDictionary
280
     1
281
     1
  3
ACAD_XREC_ROUNDTRIP
360
1A3BD
  3
BUMPTILE
360
1A351
  3
DIFFUSETILE
360
1A350
  3
OPACITYTILE
360
1A354
  3
REFLECTIONTILE
360
1A353
  3
REFRACTIONTILE
360
1A355
  3
SPECULARTILE
360
1A352
  0
DICTIONARY
  5
1A35F
330
1A35E
100
AcDbDictionary
280
     1
281
     1
  3
ACAD_XREC_ROUNDTRIP
360
1A3BF
  3
BUMPTILE
360
1A361
  3
DIFFUSETILE
360
1A360
  3
OPACITYTILE
360
1A364
  3
REFLECTIONTILE
360
1A363
  3
REFRACTIONTILE
360
1A365
  3
SPECULARTILE
360
1A362
  0
DICTIONARY
  5
1A3F2
330
1A397
100
AcDbDictionary
280
     1
281
     1
  3
ACAD_XREC_ROUNDTRIP
360
1A3F3
  0
DICTIONARY
  5
1A3B9
330
1A381
100
AcDbDictionary
280
     1
281
     1
  3
ACAD_ROUNDTRIP_2008_TABLESTYLE_CELLSTYLEMAP
360
1A3BA
  3
ACAD_XREC_ROUNDTRIP
360
1A3F0
  0
DICTIONARY
  5
1A3CA
330
1A36C
100
AcDbDictionary
280
     1
281
     1
  3
ACAD_XREC_ROUNDTRIP
360
1A3CB
  0
DICTIONARY
  5
1A3C8
330
1A36B
100
AcDbDictionary
280
     1
281
     1
  3
ACAD_XREC_ROUNDTRIP
360
1A3C9
  0
DICTIONARY
  5
1A3D6
330
1A372
100
AcDbDictionary
280
     1
281
     1
  3
ACAD_XREC_ROUNDTRIP
360
1A3D7
  0
DICTIONARY
  5
1A3DE
330
1A376
100
AcDbDictionary
280
     1
281
     1
  3
ACAD_XREC_ROUNDTRIP
360
1A3DF
  0
DICTIONARY
  5
1A3D0
330
1A36F
100
AcDbDictionary
280
     1
281
     1
  3
ACAD_XREC_ROUNDTRIP
360
1A3D1
  0
DICTIONARY
  5
1A3D4
330
1A371
100
AcDbDictionary
280
     1
281
     1
  3
ACAD_XREC_ROUNDTRIP
360
1A3D5
  0
DICTIONARY
  5
1A3EE
330
1A37E
100
AcDbDictionary
280
     1
281
     1
  3
ACAD_XREC_ROUNDTRIP
360
1A3EF
  0
DICTIONARY
  5
1A3DC
330
1A375
100
AcDbDictionary
280
     1
281
     1
  3
ACAD_XREC_ROUNDTRIP
360
1A3DD
  0
DICTIONARY
  5
1A3C0
330
1A367
100
AcDbDictionary
280
     1
281
     1
  3
ACAD_XREC_ROUNDTRIP
360
1A3C1
  0
DICTIONARY
  5
1A3C2
330
1A368
100
AcDbDictionary
280
     1
281
     1
  3
ACAD_XREC_ROUNDTRIP
360
1A3C3
  0
DICTIONARY
  5
1A3C4
330
1A369
100
AcDbDictionary
280
     1
281
     1
  3
ACAD_XREC_ROUNDTRIP
360
1A3C5
  0
DICTIONARY
  5
1A3C6
330
1A36A
100
AcDbDictionary
280
     1
281
     1
  3
ACAD_XREC_ROUNDTRIP
360
1A3C7
  0
DICTIONARY
  5
1A3CE
330
1A36E
100
AcDbDictionary
280
     1
281
     1
  3
ACAD_XREC_ROUNDTRIP
360
1A3CF
  0
DICTIONARY
  5
1A3EA
330
1A37C
100
AcDbDictionary
280
     1
281
     1
  3
ACAD_XREC_ROUNDTRIP
360
1A3EB
  0
DICTIONARY
  5
1A3DA
330
1A374
100
AcDbDictionary
280
     1
281
     1
  3
ACAD_XREC_ROUNDTRIP
360
1A3DB
  0
DICTIONARY
  5
1A3EC
330
1A37D
100
AcDbDictionary
280
     1
281
     1
  3
ACAD_XREC_ROUNDTRIP
360
1A3ED
  0
DICTIONARY
  5
1A3D2
330
1A370
100
AcDbDictionary
280
     1
281
     1
  3
ACAD_XREC_ROUNDTRIP
360
1A3D3
  0
DICTIONARY
  5
1A3E8
330
1A37B
100
AcDbDictionary
280
     1
281
     1
  3
ACAD_XREC_ROUNDTRIP
360
1A3E9
  0
DICTIONARY
  5
1A3E6
330
1A37A
100
AcDbDictionary
280
     1
281
     1
  3
ACAD_XREC_ROUNDTRIP
360
1A3E7
  0
DICTIONARY
  5
1A3E0
330
1A377
100
AcDbDictionary
280
     1
281
     1
  3
ACAD_XREC_ROUNDTRIP
360
1A3E1
  0
DICTIONARY
  5
1A3E2
330
1A378
100
AcDbDictionary
280
     1
281
     1
  3
ACAD_XREC_ROUNDTRIP
360
1A3E3
  0
DICTIONARY
  5
1A3D8
330
1A373
100
AcDbDictionary
280
     1
281
     1
  3
ACAD_XREC_ROUNDTRIP
360
1A3D9
  0
DICTIONARY
  5
1A3CC
330
1A36D
100
AcDbDictionary
280
     1
281
     1
  3
ACAD_XREC_ROUNDTRIP
360
1A3CD
  0
DICTIONARY
  5
1A3E4
330
1A379
100
AcDbDictionary
280
     1
281
     1
  3
ACAD_XREC_ROUNDTRIP
360
1A3E5
  0
XRECORD
  5
1A3F5
102
{ACAD_REACTORS
330
1A3F4
102
}
330
1A3F4
100
AcDbXrecord
280
     1
102
DISPLAYNAME
  1
Imperial24
102
FLAGS
 90
        0
  0
XRECORD
  5
1A3F7
102
{ACAD_REACTORS
330
1A3F6
102
}
330
1A3F6
100
AcDbXrecord
280
     1
102
SHADEPLOT
 70
     0
102
SHADEPLOTRESLEVEL
 70
     2
102
SHADEPLOTCUSTOMDPI
 70
   300
  0
XRECORD
  5
1A3F9
102
{ACAD_REACTORS
330
1A3F8
102
}
330
1A3F8
100
AcDbXrecord
280
     1
102
SHADEPLOT
 70
     0
102
SHADEPLOTRESLEVEL
 70
     2
102
SHADEPLOTCUSTOMDPI
 70
   300
  0
XRECORD
  5
1A3BE
102
{ACAD_REACTORS
330
1A357
102
}
330
1A357
100
AcDbXrecord
280
     1
102
MATERIAL
148
0.0
149
0.0
149
0.0
 93
        0
 94
      127
282
     0
 72
     0
 77
     0
171
     0
175
     0
179
     0
273
     0
  0
XRECORD
  5
1A359
102
{ACAD_REACTORS
330
1A357
102
}
330
1A357
100
AcDbXrecord
280
     1
270
     1
271
     1
  0
XRECORD
  5
1A358
102
{ACAD_REACTORS
330
1A357
102
}
330
1A357
100
AcDbXrecord
280
     1
270
     1
271
     1
  0
XRECORD
  5
1A35C
102
{ACAD_REACTORS
330
1A357
102
}
330
1A357
100
AcDbXrecord
280
     1
270
     1
271
     1
  0
XRECORD
  5
1A35B
102
{ACAD_REACTORS
330
1A357
102
}
330
1A357
100
AcDbXrecord
280
     1
270
     1
271
     1
  0
XRECORD
  5
1A35D
102
{ACAD_REACTORS
330
1A357
102
}
330
1A357
100
AcDbXrecord
280
     1
270
     1
271
     1
  0
XRECORD
  5
1A35A
102
{ACAD_REACTORS
330
1A357
102
}
330
1A357
100
AcDbXrecord
280
     1
270
     1
271
     1
  0
XRECORD
  5
1A3BD
102
{ACAD_REACTORS
330
1A34F
102
}
330
1A34F
100
AcDbXrecord
280
     1
102
MATERIAL
148
0.0
149
0.0
149
0.0
 93
        0
 94
      127
282
     0
 72
     0
 77
     0
171
     0
175
     0
179
     0
273
     0
  0
XRECORD
  5
1A351
102
{ACAD_REACTORS
330
1A34F
102
}
330
1A34F
100
AcDbXrecord
280
     1
270
     1
271
     1
  0
XRECORD
  5
1A350
102
{ACAD_REACTORS
330
1A34F
102
}
330
1A34F
100
AcDbXrecord
280
     1
270
     1
271
     1
  0
XRECORD
  5
1A354
102
{ACAD_REACTORS
330
1A34F
102
}
330
1A34F
100
AcDbXrecord
280
     1
270
     1
271
     1
  0
XRECORD
  5
1A353
102
{ACAD_REACTORS
330
1A34F
102
}
330
1A34F
100
AcDbXrecord
280
     1
270
     1
271
     1
  0
XRECORD
  5
1A355
102
{ACAD_REACTORS
330
1A34F
102
}
330
1A34F
100
AcDbXrecord
280
     1
270
     1
271
     1
  0
XRECORD
  5
1A352
102
{ACAD_REACTORS
330
1A34F
102
}
330
1A34F
100
AcDbXrecord
280
     1
270
     1
271
     1
  0
XRECORD
  5
1A3BF
102
{ACAD_REACTORS
330
1A35F
102
}
330
1A35F
100
AcDbXrecord
280
     1
102
MATERIAL
148
0.0
149
0.0
149
0.0
 93
        0
 94
      127
282
     0
 72
     0
 77
     0
171
     0
175
     0
179
     0
273
     0
  0
XRECORD
  5
1A361
102
{ACAD_REACTORS
330
1A35F
102
}
330
1A35F
100
AcDbXrecord
280
     1
270
     1
271
     1
  0
XRECORD
  5
1A360
102
{ACAD_REACTORS
330
1A35F
102
}
330
1A35F
100
AcDbXrecord
280
     1
270
     1
271
     1
  0
XRECORD
  5
1A364
102
{ACAD_REACTORS
330
1A35F
102
}
330
1A35F
100
AcDbXrecord
280
     1
270
     1
271
     1
  0
XRECORD
  5
1A363
102
{ACAD_REACTORS
330
1A35F
102
}
330
1A35F
100
AcDbXrecord
280
     1
270
     1
271
     1
  0
XRECORD
  5
1A365
102
{ACAD_REACTORS
330
1A35F
102
}
330
1A35F
100
AcDbXrecord
280
     1
270
     1
271
     1
  0
XRECORD
  5
1A362
102
{ACAD_REACTORS
330
1A35F
102
}
330
1A35F
100
AcDbXrecord
280
     1
270
     1
271
     1
  0
XRECORD
  5
1A3F3
102
{ACAD_REACTORS
330
1A3F2
102
}
330
1A3F2
100
AcDbXrecord
280
     1
102
DISPLAYNAME
  1
Imperial24
102
FLAGS
 90
        0
  0
CELLSTYLEMAP
  5
1A3BA
102
{ACAD_REACTORS
330
1A3B9
102
}
330
1A3B9
100
AcDbCellStyleMap
 90
        3
300
CELLSTYLE
  1
TABLEFORMAT_BEGIN
 90
        5
170
     1
 91
        0
 92
    32768
 62
   257
 93
        1
300
CONTENTFORMAT
  1
CONTENTFORMAT_BEGIN
 90
        0
 91
        0
 92
      512
 93
        0
300

 40
0.0
140
1.0
 94
        5
 62
     0
340
1A072
144
0.25
309
CONTENTFORMAT_END
171
     0
 94
        0
309
TABLEFORMAT_END
  1
CELLSTYLE_BEGIN
 90
        1
 91
        1
300
_TITLE
309
CELLSTYLE_END
300
CELLSTYLE
  1
TABLEFORMAT_BEGIN
 90
        5
170
     1
 91
        0
 92
        0
 62
   257
 93
        1
300
CONTENTFORMAT
  1
CONTENTFORMAT_BEGIN
 90
        0
 91
        0
 92
      512
 93
        0
300

 40
0.0
140
1.0
 94
        5
 62
     0
340
1A072
144
0.18
309
CONTENTFORMAT_END
171
     0
 94
        0
309
TABLEFORMAT_END
  1
CELLSTYLE_BEGIN
 90
        2
 91
        1
300
_HEADER
309
CELLSTYLE_END
300
CELLSTYLE
  1
TABLEFORMAT_BEGIN
 90
        5
170
     1
 91
        0
 92
        0
 62
   257
 93
        1
300
CONTENTFORMAT
  1
CONTENTFORMAT_BEGIN
 90
        0
 91
        0
 92
      512
 93
        0
300

 40
0.0
140
1.0
 94
        2
 62
     0
340
1A072
144
0.18
309
CONTENTFORMAT_END
171
     0
 94
        0
309
TABLEFORMAT_END
  1
CELLSTYLE_BEGIN
 90
        3
 91
        2
300
_DATA
309
CELLSTYLE_END
  0
XRECORD
  5
1A3F0
102
{ACAD_REACTORS
330
1A3B9
102
}
330
1A3B9
100
AcDbXrecord
280
     1
102
ACAD_ROUNDTRIP_PRE2007_TABLESTYLE
 90
      512
 91
        0
  1

 92
      512
 93
        0
  2

 94
      512
 95
        0
  3

  0
XRECORD
  5
1A3CB
102
{ACAD_REACTORS
330
1A3CA
102
}
330
1A3CA
100
AcDbXrecord
280
     1
102
RTVSPost2010Prop28
280
     1
102
RTVSPost2010PropOp28
 70
     1
102
RTVSPost2010Prop29
280
     1
102
RTVSPost2010PropOp29
 70
     1
102
RTVSPost2010Prop30
280
     0
102
RTVSPost2010PropOp30
 70
     1
102
RTVSPost2010Prop31
280
     0
102
RTVSPost2010PropOp31
 70
     1
102
RTVSPost2010Prop32
280
     0
102
RTVSPost2010PropOp32
 70
     1
102
RTVSPost2010Prop33
280
     0
102
RTVSPost2010PropOp33
 70
     1
102
RTVSPost2010Prop34
280
     0
102
RTVSPost2010PropOp34
 70
     1
102
RTVSPost2010Prop35
280
     0
102
RTVSPost2010PropOp35
 70
     1
102
RTVSPost2010Prop36
280
     0
102
RTVSPost2010PropOp36
 70
     1
102
RTVSPost2010Prop37
 90
       50
102
RTVSPost2010PropOp37
 70
     1
102
RTVSPost2010Prop38
140
0.0
102
RTVSPost2010PropOp38
 70
     1
102
RTVSPost2010Prop39
140
1.0
102
RTVSPost2010PropOp39
 70
     1
102
RTVSPost2010Prop40
 90
        0
102
RTVSPost2010PropOp40
 70
     1
102
RTVSPost2010Prop41ColorIndex
 90
       18
102
RTVSPost2010Prop41ColorRGB
 90
        0
102
RTVSPost2010PropOp41
 70
     1
102
RTVSPost2010Prop42
 90
       50
102
RTVSPost2010PropOp42
 70
     1
102
RTVSPost2010Prop43
 90
        3
102
RTVSPost2010PropOp43
 70
     1
102
RTVSPost2010Prop44ColorIndex
 90
        5
102
RTVSPost2010Prop44ColorRGB
 90
      255
102
RTVSPost2010PropOp44
 70
     1
102
RTVSPost2010Prop45
280
     0
102
RTVSPost2010PropOp45
 70
     1
102
RTVSPost2010Prop46
 90
       50
102
RTVSPost2010PropOp46
 70
     1
102
RTVSPost2010Prop47
 90
       50
102
RTVSPost2010PropOp47
 70
     1
102
RTVSPost2010Prop48
 90
       50
102
RTVSPost2010PropOp48
 70
     1
102
RTVSPost2010Prop49
280
     0
102
RTVSPost2010PropOp49
 70
     1
102
RTVSPost2010Prop50
 90
       50
102
RTVSPost2010PropOp50
 70
     1
102
RTVSPost2010Prop51ColorIndex
 90
      256
102
RTVSPost2010Prop51ColorRGB
 90
-16777216
102
RTVSPost2010PropOp51
 70
     0
102
RTVSPost2010Prop52
140
1.0
102
RTVSPost2010PropOp52
 70
     0
102
RTVSPost2010Prop53
 90
        2
102
RTVSPost2010PropOp53
 70
     1
102
RTVSPost2010Prop54
  1
strokes_ogs.tif
102
RTVSPost2010PropOp54
 70
     1
102
RTVSPost2010Prop55
280
     0
102
RTVSPost2010PropOp55
 70
     1
102
RTVSPost2010Prop56
140
1.0
102
RTVSPost2010PropOp56
 70
     1
102
RTVSPost2010Prop57
140
1.0
102
RTVSPost2010PropOp57
 70
     1
102
RTVSPropertyOp0
 70
     1
102
RTVSPropertyOp1
 70
     1
102
RTVSPropertyOp2
 70
     1
102
RTVSPropertyOp3
 70
     1
102
RTVSPropertyOp4
 70
     1
102
RTVSPropertyOp5
 70
     1
102
RTVSPropertyOp6
 70
     1
102
RTVSPropertyOp7
 70
     1
102
RTVSPropertyOp8
 70
     1
102
RTVSPropertyOp9
 70
     1
102
RTVSPropertyOp10
 70
     1
102
RTVSPropertyOp11
 70
     1
102
RTVSPropertyOp12
 70
     1
102
RTVSPropertyOp13
 70
     1
102
RTVSPropertyOp14
 70
     1
102
RTVSPropertyOp15
 70
     1
102
RTVSPropertyOp16
 70
     1
102
RTVSPropertyOp17
 70
     1
102
RTVSPropertyOp18
 70
     1
102
RTVSPropertyOp19
 70
     1
102
RTVSPropertyOp20
 70
     1
102
RTVSPropertyOp21
 70
     1
102
RTVSPropertyOp22
 70
     1
102
RTVSPropertyOp23
 70
     1
102
RTVSPropertyOp24
 70
     1
102
RTVSPropertyOp25
 70
     1
102
RTVSPropertyOp26
 70
     1
102
RTVSPropertyOp27
 70
     1
102
RTVSPropertyOp28
 70
     1
102
RTVSPropertyOp29
 70
     1
102
RTVSPropertyOp30
 70
     1
102
RTVSPropertyOp31
 70
     1
102
RTVSPropertyOp32
 70
     1
102
RTVSPropertyOp33
 70
     1
102
RTVSPropertyOp34
 70
     1
102
RTVSPropertyOp35
 70
     1
102
RTVSPropertyOp36
 70
     1
102
RTVSPropertyOp37
 70
     1
102
RTVSPropertyOp38
 70
     1
102
RTVSPropertyOp39
 70
     1
102
RTVSPropertyOp40
 70
     1
102
RTVSPropertyOp41
 70
     1
102
RTVSPropertyOp42
 70
     1
102
RTVSPropertyOp43
 70
     1
102
RTVSPropertyOp44
 70
     1
102
RTVSPropertyOp45
 70
     1
102
RTVSPropertyOp46
 70
     1
102
RTVSPropertyOp47
 70
     1
102
RTVSPropertyOp48
 70
     1
102
RTVSPropertyOp49
 70
     1
102
RTVSPropertyOp50
 70
     1
102
RTVSPropertyOp51
 70
     0
102
RTVSPropertyOp52
 70
     0
102
RTVSPropertyOp53
 70
     1
102
RTVSPropertyOp54
 70
     1
102
RTVSPropertyOp55
 70
     1
102
RTVSPropertyOp56
 70
     1
102
RTVSPropertyOp57
 70
     1
102
RTVSPropertyOp58
 70
     1
102
RTVSPropertyOp59
 70
     1
102
RTVSPropertyOp60
 70
     1
102
RTVSPropertyOp61
 70
     1
102
RTVSPropertyOp62
 70
     1
  0
XRECORD
  5
1A3C9
102
{ACAD_REACTORS
330
1A3C8
102
}
330
1A3C8
100
AcDbXrecord
280
     1
102
RTVSPost2010Prop28
280
     0
102
RTVSPost2010PropOp28
 70
     1
102
RTVSPost2010Prop29
280
     1
102
RTVSPost2010PropOp29
 70
     1
102
RTVSPost2010Prop30
280
     1
102
RTVSPost2010PropOp30
 70
     1
102
RTVSPost2010Prop31
280
     0
102
RTVSPost2010PropOp31
 70
     1
102
RTVSPost2010Prop32
280
     0
102
RTVSPost2010PropOp32
 70
     1
102
RTVSPost2010Prop33
280
     0
102
RTVSPost2010PropOp33
 70
     1
102
RTVSPost2010Prop34
280
     0
102
RTVSPost2010PropOp34
 70
     1
102
RTVSPost2010Prop35
280
     0
102
RTVSPost2010PropOp35
 70
     1
102
RTVSPost2010Prop36
280
     0
102
RTVSPost2010PropOp36
 70
     1
102
RTVSPost2010Prop37
 90
       50
102
RTVSPost2010PropOp37
 70
     1
102
RTVSPost2010Prop38
140
0.0
102
RTVSPost2010PropOp38
 70
     1
102
RTVSPost2010Prop39
140
1.0
102
RTVSPost2010PropOp39
 70
     1
102
RTVSPost2010Prop40
 90
        0
102
RTVSPost2010PropOp40
 70
     1
102
RTVSPost2010Prop41ColorIndex
 90
       18
102
RTVSPost2010Prop41ColorRGB
 90
        0
102
RTVSPost2010PropOp41
 70
     1
102
RTVSPost2010Prop42
 90
       50
102
RTVSPost2010PropOp42
 70
     1
102
RTVSPost2010Prop43
 90
        3
102
RTVSPost2010PropOp43
 70
     1
102
RTVSPost2010Prop44ColorIndex
 90
        5
102
RTVSPost2010Prop44ColorRGB
 90
      255
102
RTVSPost2010PropOp44
 70
     1
102
RTVSPost2010Prop45
280
     0
102
RTVSPost2010PropOp45
 70
     1
102
RTVSPost2010Prop46
 90
       50
102
RTVSPost2010PropOp46
 70
     1
102
RTVSPost2010Prop47
 90
       50
102
RTVSPost2010PropOp47
 70
     1
102
RTVSPost2010Prop48
 90
       50
102
RTVSPost2010PropOp48
 70
     1
102
RTVSPost2010Prop49
280
     0
102
RTVSPost2010PropOp49
 70
     1
102
RTVSPost2010Prop50
 90
       50
102
RTVSPost2010PropOp50
 70
     1
102
RTVSPost2010Prop51ColorIndex
 90
      256
102
RTVSPost2010Prop51ColorRGB
 90
-16777216
102
RTVSPost2010PropOp51
 70
     0
102
RTVSPost2010Prop52
140
1.0
102
RTVSPost2010PropOp52
 70
     0
102
RTVSPost2010Prop53
 90
        2
102
RTVSPost2010PropOp53
 70
     1
102
RTVSPost2010Prop54
  1
strokes_ogs.tif
102
RTVSPost2010PropOp54
 70
     1
102
RTVSPost2010Prop55
280
     0
102
RTVSPost2010PropOp55
 70
     1
102
RTVSPost2010Prop56
140
1.0
102
RTVSPost2010PropOp56
 70
     1
102
RTVSPost2010Prop57
140
1.0
102
RTVSPost2010PropOp57
 70
     1
102
RTVSPropertyOp0
 70
     1
102
RTVSPropertyOp1
 70
     1
102
RTVSPropertyOp2
 70
     1
102
RTVSPropertyOp3
 70
     1
102
RTVSPropertyOp4
 70
     1
102
RTVSPropertyOp5
 70
     1
102
RTVSPropertyOp6
 70
     1
102
RTVSPropertyOp7
 70
     1
102
RTVSPropertyOp8
 70
     1
102
RTVSPropertyOp9
 70
     1
102
RTVSPropertyOp10
 70
     1
102
RTVSPropertyOp11
 70
     1
102
RTVSPropertyOp12
 70
     1
102
RTVSPropertyOp13
 70
     1
102
RTVSPropertyOp14
 70
     1
102
RTVSPropertyOp15
 70
     1
102
RTVSPropertyOp16
 70
     1
102
RTVSPropertyOp17
 70
     1
102
RTVSPropertyOp18
 70
     1
102
RTVSPropertyOp19
 70
     1
102
RTVSPropertyOp20
 70
     1
102
RTVSPropertyOp21
 70
     1
102
RTVSPropertyOp22
 70
     1
102
RTVSPropertyOp23
 70
     1
102
RTVSPropertyOp24
 70
     1
102
RTVSPropertyOp25
 70
     1
102
RTVSPropertyOp26
 70
     1
102
RTVSPropertyOp27
 70
     1
102
RTVSPropertyOp28
 70
     1
102
RTVSPropertyOp29
 70
     1
102
RTVSPropertyOp30
 70
     1
102
RTVSPropertyOp31
 70
     1
102
RTVSPropertyOp32
 70
     1
102
RTVSPropertyOp33
 70
     1
102
RTVSPropertyOp34
 70
     1
102
RTVSPropertyOp35
 70
     1
102
RTVSPropertyOp36
 70
     1
102
RTVSPropertyOp37
 70
     1
102
RTVSPropertyOp38
 70
     1
102
RTVSPropertyOp39
 70
     1
102
RTVSPropertyOp40
 70
     1
102
RTVSPropertyOp41
 70
     1
102
RTVSPropertyOp42
 70
     1
102
RTVSPropertyOp43
 70
     1
102
RTVSPropertyOp44
 70
     1
102
RTVSPropertyOp45
 70
     1
102
RTVSPropertyOp46
 70
     1
102
RTVSPropertyOp47
 70
     1
102
RTVSPropertyOp48
 70
     1
102
RTVSPropertyOp49
 70
     1
102
RTVSPropertyOp50
 70
     1
102
RTVSPropertyOp51
 70
     0
102
RTVSPropertyOp52
 70
     0
102
RTVSPropertyOp53
 70
     1
102
RTVSPropertyOp54
 70
     1
102
RTVSPropertyOp55
 70
     1
102
RTVSPropertyOp56
 70
     1
102
RTVSPropertyOp57
 70
     1
102
RTVSPropertyOp58
 70
     1
102
RTVSPropertyOp59
 70
     1
102
RTVSPropertyOp60
 70
     1
102
RTVSPropertyOp61
 70
     1
102
RTVSPropertyOp62
 70
     1
  0
XRECORD
  5
1A3D7
102
{ACAD_REACTORS
330
1A3D6
102
}
330
1A3D6
100
AcDbXrecord
280
     1
102
RTVSPost2010Prop28
280
     0
102
RTVSPost2010PropOp28
 70
     1
102
RTVSPost2010Prop29
280
     1
102
RTVSPost2010PropOp29
 70
     1
102
RTVSPost2010Prop30
280
     1
102
RTVSPost2010PropOp30
 70
     1
102
RTVSPost2010Prop31
280
     0
102
RTVSPost2010PropOp31
 70
     1
102
RTVSPost2010Prop32
280
     0
102
RTVSPost2010PropOp32
 70
     1
102
RTVSPost2010Prop33
280
     0
102
RTVSPost2010PropOp33
 70
     1
102
RTVSPost2010Prop34
280
     0
102
RTVSPost2010PropOp34
 70
     1
102
RTVSPost2010Prop35
280
     0
102
RTVSPost2010PropOp35
 70
     1
102
RTVSPost2010Prop36
280
     0
102
RTVSPost2010PropOp36
 70
     1
102
RTVSPost2010Prop37
 90
       50
102
RTVSPost2010PropOp37
 70
     1
102
RTVSPost2010Prop38
140
0.0
102
RTVSPost2010PropOp38
 70
     1
102
RTVSPost2010Prop39
140
1.0
102
RTVSPost2010PropOp39
 70
     1
102
RTVSPost2010Prop40
 90
        0
102
RTVSPost2010PropOp40
 70
     1
102
RTVSPost2010Prop41ColorIndex
 90
       18
102
RTVSPost2010Prop41ColorRGB
 90
        0
102
RTVSPost2010PropOp41
 70
     1
102
RTVSPost2010Prop42
 90
       50
102
RTVSPost2010PropOp42
 70
     1
102
RTVSPost2010Prop43
 90
        3
102
RTVSPost2010PropOp43
 70
     1
102
RTVSPost2010Prop44ColorIndex
 90
        5
102
RTVSPost2010Prop44ColorRGB
 90
      255
102
RTVSPost2010PropOp44
 70
     1
102
RTVSPost2010Prop45
280
     0
102
RTVSPost2010PropOp45
 70
     1
102
RTVSPost2010Prop46
 90
       50
102
RTVSPost2010PropOp46
 70
     1
102
RTVSPost2010Prop47
 90
       50
102
RTVSPost2010PropOp47
 70
     1
102
RTVSPost2010Prop48
 90
       50
102
RTVSPost2010PropOp48
 70
     1
102
RTVSPost2010Prop49
280
     0
102
RTVSPost2010PropOp49
 70
     1
102
RTVSPost2010Prop50
 90
       50
102
RTVSPost2010PropOp50
 70
     1
102
RTVSPost2010Prop51ColorIndex
 90
      256
102
RTVSPost2010Prop51ColorRGB
 90
-16777216
102
RTVSPost2010PropOp51
 70
     0
102
RTVSPost2010Prop52
140
1.0
102
RTVSPost2010PropOp52
 70
     0
102
RTVSPost2010Prop53
 90
        2
102
RTVSPost2010PropOp53
 70
     1
102
RTVSPost2010Prop54
  1
strokes_ogs.tif
102
RTVSPost2010PropOp54
 70
     1
102
RTVSPost2010Prop55
280
     0
102
RTVSPost2010PropOp55
 70
     1
102
RTVSPost2010Prop56
140
1.0
102
RTVSPost2010PropOp56
 70
     1
102
RTVSPost2010Prop57
140
1.0
102
RTVSPost2010PropOp57
 70
     1
102
RTVSPropertyOp0
 70
     1
102
RTVSPropertyOp1
 70
     1
102
RTVSPropertyOp2
 70
     1
102
RTVSPropertyOp3
 70
     1
102
RTVSPropertyOp4
 70
     1
102
RTVSPropertyOp5
 70
     1
102
RTVSPropertyOp6
 70
     1
102
RTVSPropertyOp7
 70
     1
102
RTVSPropertyOp8
 70
     1
102
RTVSPropertyOp9
 70
     1
102
RTVSPropertyOp10
 70
     1
102
RTVSPropertyOp11
 70
     1
102
RTVSPropertyOp12
 70
     1
102
RTVSPropertyOp13
 70
     1
102
RTVSPropertyOp14
 70
     1
102
RTVSPropertyOp15
 70
     1
102
RTVSPropertyOp16
 70
     1
102
RTVSPropertyOp17
 70
     1
102
RTVSPropertyOp18
 70
     1
102
RTVSPropertyOp19
 70
     1
102
RTVSPropertyOp20
 70
     1
102
RTVSPropertyOp21
 70
     1
102
RTVSPropertyOp22
 70
     1
102
RTVSPropertyOp23
 70
     1
102
RTVSPropertyOp24
 70
     1
102
RTVSPropertyOp25
 70
     1
102
RTVSPropertyOp26
 70
     1
102
RTVSPropertyOp27
 70
     1
102
RTVSPropertyOp28
 70
     1
102
RTVSPropertyOp29
 70
     1
102
RTVSPropertyOp30
 70
     1
102
RTVSPropertyOp31
 70
     1
102
RTVSPropertyOp32
 70
     1
102
RTVSPropertyOp33
 70
     1
102
RTVSPropertyOp34
 70
     1
102
RTVSPropertyOp35
 70
     1
102
RTVSPropertyOp36
 70
     1
102
RTVSPropertyOp37
 70
     1
102
RTVSPropertyOp38
 70
     1
102
RTVSPropertyOp39
 70
     1
102
RTVSPropertyOp40
 70
     1
102
RTVSPropertyOp41
 70
     1
102
RTVSPropertyOp42
 70
     1
102
RTVSPropertyOp43
 70
     1
102
RTVSPropertyOp44
 70
     1
102
RTVSPropertyOp45
 70
     1
102
RTVSPropertyOp46
 70
     1
102
RTVSPropertyOp47
 70
     1
102
RTVSPropertyOp48
 70
     1
102
RTVSPropertyOp49
 70
     1
102
RTVSPropertyOp50
 70
     1
102
RTVSPropertyOp51
 70
     0
102
RTVSPropertyOp52
 70
     0
102
RTVSPropertyOp53
 70
     1
102
RTVSPropertyOp54
 70
     1
102
RTVSPropertyOp55
 70
     1
102
RTVSPropertyOp56
 70
     1
102
RTVSPropertyOp57
 70
     1
102
RTVSPropertyOp58
 70
     1
102
RTVSPropertyOp59
 70
     1
102
RTVSPropertyOp60
 70
     1
102
RTVSPropertyOp61
 70
     1
102
RTVSPropertyOp62
 70
     1
  0
XRECORD
  5
1A3DF
102
{ACAD_REACTORS
330
1A3DE
102
}
330
1A3DE
100
AcDbXrecord
280
     1
102
RTVSPost2010Prop28
280
     0
102
RTVSPost2010PropOp28
 70
     1
102
RTVSPost2010Prop29
280
     1
102
RTVSPost2010PropOp29
 70
     1
102
RTVSPost2010Prop30
280
     1
102
RTVSPost2010PropOp30
 70
     1
102
RTVSPost2010Prop31
280
     0
102
RTVSPost2010PropOp31
 70
     1
102
RTVSPost2010Prop32
280
     0
102
RTVSPost2010PropOp32
 70
     1
102
RTVSPost2010Prop33
280
     0
102
RTVSPost2010PropOp33
 70
     1
102
RTVSPost2010Prop34
280
     0
102
RTVSPost2010PropOp34
 70
     1
102
RTVSPost2010Prop35
280
     0
102
RTVSPost2010PropOp35
 70
     1
102
RTVSPost2010Prop36
280
     0
102
RTVSPost2010PropOp36
 70
     1
102
RTVSPost2010Prop37
 90
       50
102
RTVSPost2010PropOp37
 70
     1
102
RTVSPost2010Prop38
140
0.0
102
RTVSPost2010PropOp38
 70
     1
102
RTVSPost2010Prop39
140
1.0
102
RTVSPost2010PropOp39
 70
     1
102
RTVSPost2010Prop40
 90
        0
102
RTVSPost2010PropOp40
 70
     1
102
RTVSPost2010Prop41ColorIndex
 90
       18
102
RTVSPost2010Prop41ColorRGB
 90
        0
102
RTVSPost2010PropOp41
 70
     1
102
RTVSPost2010Prop42
 90
       50
102
RTVSPost2010PropOp42
 70
     1
102
RTVSPost2010Prop43
 90
        3
102
RTVSPost2010PropOp43
 70
     1
102
RTVSPost2010Prop44ColorIndex
 90
        5
102
RTVSPost2010Prop44ColorRGB
 90
      255
102
RTVSPost2010PropOp44
 70
     1
102
RTVSPost2010Prop45
280
     0
102
RTVSPost2010PropOp45
 70
     1
102
RTVSPost2010Prop46
 90
       50
102
RTVSPost2010PropOp46
 70
     1
102
RTVSPost2010Prop47
 90
       50
102
RTVSPost2010PropOp47
 70
     1
102
RTVSPost2010Prop48
 90
       50
102
RTVSPost2010PropOp48
 70
     1
102
RTVSPost2010Prop49
280
     0
102
RTVSPost2010PropOp49
 70
     1
102
RTVSPost2010Prop50
 90
       50
102
RTVSPost2010PropOp50
 70
     1
102
RTVSPost2010Prop51ColorIndex
 90
      256
102
RTVSPost2010Prop51ColorRGB
 90
-16777216
102
RTVSPost2010PropOp51
 70
     0
102
RTVSPost2010Prop52
140
1.0
102
RTVSPost2010PropOp52
 70
     0
102
RTVSPost2010Prop53
 90
        2
102
RTVSPost2010PropOp53
 70
     1
102
RTVSPost2010Prop54
  1
strokes_ogs.tif
102
RTVSPost2010PropOp54
 70
     1
102
RTVSPost2010Prop55
280
     0
102
RTVSPost2010PropOp55
 70
     1
102
RTVSPost2010Prop56
140
1.0
102
RTVSPost2010PropOp56
 70
     1
102
RTVSPost2010Prop57
140
1.0
102
RTVSPost2010PropOp57
 70
     1
102
RTVSPropertyOp0
 70
     1
102
RTVSPropertyOp1
 70
     1
102
RTVSPropertyOp2
 70
     1
102
RTVSPropertyOp3
 70
     1
102
RTVSPropertyOp4
 70
     1
102
RTVSPropertyOp5
 70
     1
102
RTVSPropertyOp6
 70
     1
102
RTVSPropertyOp7
 70
     1
102
RTVSPropertyOp8
 70
     1
102
RTVSPropertyOp9
 70
     1
102
RTVSPropertyOp10
 70
     1
102
RTVSPropertyOp11
 70
     1
102
RTVSPropertyOp12
 70
     1
102
RTVSPropertyOp13
 70
     1
102
RTVSPropertyOp14
 70
     1
102
RTVSPropertyOp15
 70
     1
102
RTVSPropertyOp16
 70
     1
102
RTVSPropertyOp17
 70
     1
102
RTVSPropertyOp18
 70
     1
102
RTVSPropertyOp19
 70
     1
102
RTVSPropertyOp20
 70
     1
102
RTVSPropertyOp21
 70
     1
102
RTVSPropertyOp22
 70
     1
102
RTVSPropertyOp23
 70
     1
102
RTVSPropertyOp24
 70
     1
102
RTVSPropertyOp25
 70
     1
102
RTVSPropertyOp26
 70
     1
102
RTVSPropertyOp27
 70
     1
102
RTVSPropertyOp28
 70
     1
102
RTVSPropertyOp29
 70
     1
102
RTVSPropertyOp30
 70
     1
102
RTVSPropertyOp31
 70
     1
102
RTVSPropertyOp32
 70
     1
102
RTVSPropertyOp33
 70
     1
102
RTVSPropertyOp34
 70
     1
102
RTVSPropertyOp35
 70
     1
102
RTVSPropertyOp36
 70
     1
102
RTVSPropertyOp37
 70
     1
102
RTVSPropertyOp38
 70
     1
102
RTVSPropertyOp39
 70
     1
102
RTVSPropertyOp40
 70
     1
102
RTVSPropertyOp41
 70
     1
102
RTVSPropertyOp42
 70
     1
102
RTVSPropertyOp43
 70
     1
102
RTVSPropertyOp44
 70
     1
102
RTVSPropertyOp45
 70
     1
102
RTVSPropertyOp46
 70
     1
102
RTVSPropertyOp47
 70
     1
102
RTVSPropertyOp48
 70
     1
102
RTVSPropertyOp49
 70
     1
102
RTVSPropertyOp50
 70
     1
102
RTVSPropertyOp51
 70
     0
102
RTVSPropertyOp52
 70
     0
102
RTVSPropertyOp53
 70
     1
102
RTVSPropertyOp54
 70
     1
102
RTVSPropertyOp55
 70
     1
102
RTVSPropertyOp56
 70
     1
102
RTVSPropertyOp57
 70
     1
102
RTVSPropertyOp58
 70
     1
102
RTVSPropertyOp59
 70
     1
102
RTVSPropertyOp60
 70
     1
102
RTVSPropertyOp61
 70
     1
102
RTVSPropertyOp62
 70
     1
  0
XRECORD
  5
1A3D1
102
{ACAD_REACTORS
330
1A3D0
102
}
330
1A3D0
100
AcDbXrecord
280
     1
102
RTVSPost2010Prop28
280
     0
102
RTVSPost2010PropOp28
 70
     1
102
RTVSPost2010Prop29
280
     1
102
RTVSPost2010PropOp29
 70
     1
102
RTVSPost2010Prop30
280
     1
102
RTVSPost2010PropOp30
 70
     1
102
RTVSPost2010Prop31
280
     0
102
RTVSPost2010PropOp31
 70
     1
102
RTVSPost2010Prop32
280
     0
102
RTVSPost2010PropOp32
 70
     1
102
RTVSPost2010Prop33
280
     0
102
RTVSPost2010PropOp33
 70
     1
102
RTVSPost2010Prop34
280
     0
102
RTVSPost2010PropOp34
 70
     1
102
RTVSPost2010Prop35
280
     0
102
RTVSPost2010PropOp35
 70
     1
102
RTVSPost2010Prop36
280
     0
102
RTVSPost2010PropOp36
 70
     1
102
RTVSPost2010Prop37
 90
       50
102
RTVSPost2010PropOp37
 70
     1
102
RTVSPost2010Prop38
140
0.0
102
RTVSPost2010PropOp38
 70
     1
102
RTVSPost2010Prop39
140
1.0
102
RTVSPost2010PropOp39
 70
     1
102
RTVSPost2010Prop40
 90
        0
102
RTVSPost2010PropOp40
 70
     1
102
RTVSPost2010Prop41ColorIndex
 90
       18
102
RTVSPost2010Prop41ColorRGB
 90
        0
102
RTVSPost2010PropOp41
 70
     1
102
RTVSPost2010Prop42
 90
       50
102
RTVSPost2010PropOp42
 70
     1
102
RTVSPost2010Prop43
 90
        3
102
RTVSPost2010PropOp43
 70
     1
102
RTVSPost2010Prop44ColorIndex
 90
        5
102
RTVSPost2010Prop44ColorRGB
 90
      255
102
RTVSPost2010PropOp44
 70
     1
102
RTVSPost2010Prop45
280
     0
102
RTVSPost2010PropOp45
 70
     1
102
RTVSPost2010Prop46
 90
       50
102
RTVSPost2010PropOp46
 70
     1
102
RTVSPost2010Prop47
 90
       50
102
RTVSPost2010PropOp47
 70
     1
102
RTVSPost2010Prop48
 90
       50
102
RTVSPost2010PropOp48
 70
     1
102
RTVSPost2010Prop49
280
     0
102
RTVSPost2010PropOp49
 70
     1
102
RTVSPost2010Prop50
 90
       50
102
RTVSPost2010PropOp50
 70
     1
102
RTVSPost2010Prop51ColorIndex
 90
      256
102
RTVSPost2010Prop51ColorRGB
 90
-16777216
102
RTVSPost2010PropOp51
 70
     0
102
RTVSPost2010Prop52
140
1.0
102
RTVSPost2010PropOp52
 70
     0
102
RTVSPost2010Prop53
 90
        2
102
RTVSPost2010PropOp53
 70
     1
102
RTVSPost2010Prop54
  1
strokes_ogs.tif
102
RTVSPost2010PropOp54
 70
     1
102
RTVSPost2010Prop55
280
     0
102
RTVSPost2010PropOp55
 70
     1
102
RTVSPost2010Prop56
140
1.0
102
RTVSPost2010PropOp56
 70
     1
102
RTVSPost2010Prop57
140
1.0
102
RTVSPost2010PropOp57
 70
     1
102
RTVSPropertyOp0
 70
     1
102
RTVSPropertyOp1
 70
     1
102
RTVSPropertyOp2
 70
     1
102
RTVSPropertyOp3
 70
     1
102
RTVSPropertyOp4
 70
     1
102
RTVSPropertyOp5
 70
     1
102
RTVSPropertyOp6
 70
     1
102
RTVSPropertyOp7
 70
     1
102
RTVSPropertyOp8
 70
     1
102
RTVSPropertyOp9
 70
     1
102
RTVSPropertyOp10
 70
     1
102
RTVSPropertyOp11
 70
     1
102
RTVSPropertyOp12
 70
     1
102
RTVSPropertyOp13
 70
     1
102
RTVSPropertyOp14
 70
     1
102
RTVSPropertyOp15
 70
     1
102
RTVSPropertyOp16
 70
     1
102
RTVSPropertyOp17
 70
     1
102
RTVSPropertyOp18
 70
     1
102
RTVSPropertyOp19
 70
     1
102
RTVSPropertyOp20
 70
     1
102
RTVSPropertyOp21
 70
     1
102
RTVSPropertyOp22
 70
     1
102
RTVSPropertyOp23
 70
     1
102
RTVSPropertyOp24
 70
     1
102
RTVSPropertyOp25
 70
     1
102
RTVSPropertyOp26
 70
     1
102
RTVSPropertyOp27
 70
     1
102
RTVSPropertyOp28
 70
     1
102
RTVSPropertyOp29
 70
     1
102
RTVSPropertyOp30
 70
     1
102
RTVSPropertyOp31
 70
     1
102
RTVSPropertyOp32
 70
     1
102
RTVSPropertyOp33
 70
     1
102
RTVSPropertyOp34
 70
     1
102
RTVSPropertyOp35
 70
     1
102
RTVSPropertyOp36
 70
     1
102
RTVSPropertyOp37
 70
     1
102
RTVSPropertyOp38
 70
     1
102
RTVSPropertyOp39
 70
     1
102
RTVSPropertyOp40
 70
     1
102
RTVSPropertyOp41
 70
     1
102
RTVSPropertyOp42
 70
     1
102
RTVSPropertyOp43
 70
     1
102
RTVSPropertyOp44
 70
     1
102
RTVSPropertyOp45
 70
     1
102
RTVSPropertyOp46
 70
     1
102
RTVSPropertyOp47
 70
     1
102
RTVSPropertyOp48
 70
     1
102
RTVSPropertyOp49
 70
     1
102
RTVSPropertyOp50
 70
     1
102
RTVSPropertyOp51
 70
     0
102
RTVSPropertyOp52
 70
     0
102
RTVSPropertyOp53
 70
     1
102
RTVSPropertyOp54
 70
     1
102
RTVSPropertyOp55
 70
     1
102
RTVSPropertyOp56
 70
     1
102
RTVSPropertyOp57
 70
     1
102
RTVSPropertyOp58
 70
     1
102
RTVSPropertyOp59
 70
     1
102
RTVSPropertyOp60
 70
     1
102
RTVSPropertyOp61
 70
     1
102
RTVSPropertyOp62
 70
     1
  0
XRECORD
  5
1A3D5
102
{ACAD_REACTORS
330
1A3D4
102
}
330
1A3D4
100
AcDbXrecord
280
     1
102
RTVSPost2010Prop28
280
     0
102
RTVSPost2010PropOp28
 70
     1
102
RTVSPost2010Prop29
280
     1
102
RTVSPost2010PropOp29
 70
     1
102
RTVSPost2010Prop30
280
     1
102
RTVSPost2010PropOp30
 70
     1
102
RTVSPost2010Prop31
280
     0
102
RTVSPost2010PropOp31
 70
     1
102
RTVSPost2010Prop32
280
     0
102
RTVSPost2010PropOp32
 70
     1
102
RTVSPost2010Prop33
280
     0
102
RTVSPost2010PropOp33
 70
     1
102
RTVSPost2010Prop34
280
     0
102
RTVSPost2010PropOp34
 70
     1
102
RTVSPost2010Prop35
280
     0
102
RTVSPost2010PropOp35
 70
     1
102
RTVSPost2010Prop36
280
     0
102
RTVSPost2010PropOp36
 70
     1
102
RTVSPost2010Prop37
 90
       50
102
RTVSPost2010PropOp37
 70
     1
102
RTVSPost2010Prop38
140
0.0
102
RTVSPost2010PropOp38
 70
     1
102
RTVSPost2010Prop39
140
1.0
102
RTVSPost2010PropOp39
 70
     1
102
RTVSPost2010Prop40
 90
        0
102
RTVSPost2010PropOp40
 70
     1
102
RTVSPost2010Prop41ColorIndex
 90
       18
102
RTVSPost2010Prop41ColorRGB
 90
        0
102
RTVSPost2010PropOp41
 70
     1
102
RTVSPost2010Prop42
 90
       50
102
RTVSPost2010PropOp42
 70
     1
102
RTVSPost2010Prop43
 90
        3
102
RTVSPost2010PropOp43
 70
     1
102
RTVSPost2010Prop44ColorIndex
 90
        5
102
RTVSPost2010Prop44ColorRGB
 90
      255
102
RTVSPost2010PropOp44
 70
     1
102
RTVSPost2010Prop45
280
     0
102
RTVSPost2010PropOp45
 70
     1
102
RTVSPost2010Prop46
 90
       50
102
RTVSPost2010PropOp46
 70
     1
102
RTVSPost2010Prop47
 90
       50
102
RTVSPost2010PropOp47
 70
     1
102
RTVSPost2010Prop48
 90
       50
102
RTVSPost2010PropOp48
 70
     1
102
RTVSPost2010Prop49
280
     0
102
RTVSPost2010PropOp49
 70
     1
102
RTVSPost2010Prop50
 90
       50
102
RTVSPost2010PropOp50
 70
     1
102
RTVSPost2010Prop51ColorIndex
 90
      256
102
RTVSPost2010Prop51ColorRGB
 90
-16777216
102
RTVSPost2010PropOp51
 70
     0
102
RTVSPost2010Prop52
140
1.0
102
RTVSPost2010PropOp52
 70
     0
102
RTVSPost2010Prop53
 90
        2
102
RTVSPost2010PropOp53
 70
     1
102
RTVSPost2010Prop54
  1
strokes_ogs.tif
102
RTVSPost2010PropOp54
 70
     1
102
RTVSPost2010Prop55
280
     0
102
RTVSPost2010PropOp55
 70
     1
102
RTVSPost2010Prop56
140
1.0
102
RTVSPost2010PropOp56
 70
     1
102
RTVSPost2010Prop57
140
1.0
102
RTVSPost2010PropOp57
 70
     1
102
RTVSPropertyOp0
 70
     1
102
RTVSPropertyOp1
 70
     1
102
RTVSPropertyOp2
 70
     1
102
RTVSPropertyOp3
 70
     1
102
RTVSPropertyOp4
 70
     1
102
RTVSPropertyOp5
 70
     1
102
RTVSPropertyOp6
 70
     1
102
RTVSPropertyOp7
 70
     1
102
RTVSPropertyOp8
 70
     1
102
RTVSPropertyOp9
 70
     1
102
RTVSPropertyOp10
 70
     1
102
RTVSPropertyOp11
 70
     1
102
RTVSPropertyOp12
 70
     1
102
RTVSPropertyOp13
 70
     1
102
RTVSPropertyOp14
 70
     1
102
RTVSPropertyOp15
 70
     1
102
RTVSPropertyOp16
 70
     1
102
RTVSPropertyOp17
 70
     1
102
RTVSPropertyOp18
 70
     1
102
RTVSPropertyOp19
 70
     1
102
RTVSPropertyOp20
 70
     1
102
RTVSPropertyOp21
 70
     1
102
RTVSPropertyOp22
 70
     1
102
RTVSPropertyOp23
 70
     1
102
RTVSPropertyOp24
 70
     1
102
RTVSPropertyOp25
 70
     1
102
RTVSPropertyOp26
 70
     1
102
RTVSPropertyOp27
 70
     1
102
RTVSPropertyOp28
 70
     1
102
RTVSPropertyOp29
 70
     1
102
RTVSPropertyOp30
 70
     1
102
RTVSPropertyOp31
 70
     1
102
RTVSPropertyOp32
 70
     1
102
RTVSPropertyOp33
 70
     1
102
RTVSPropertyOp34
 70
     1
102
RTVSPropertyOp35
 70
     1
102
RTVSPropertyOp36
 70
     1
102
RTVSPropertyOp37
 70
     1
102
RTVSPropertyOp38
 70
     1
102
RTVSPropertyOp39
 70
     1
102
RTVSPropertyOp40
 70
     1
102
RTVSPropertyOp41
 70
     1
102
RTVSPropertyOp42
 70
     1
102
RTVSPropertyOp43
 70
     1
102
RTVSPropertyOp44
 70
     1
102
RTVSPropertyOp45
 70
     1
102
RTVSPropertyOp46
 70
     1
102
RTVSPropertyOp47
 70
     1
102
RTVSPropertyOp48
 70
     1
102
RTVSPropertyOp49
 70
     1
102
RTVSPropertyOp50
 70
     1
102
RTVSPropertyOp51
 70
     0
102
RTVSPropertyOp52
 70
     0
102
RTVSPropertyOp53
 70
     1
102
RTVSPropertyOp54
 70
     1
102
RTVSPropertyOp55
 70
     1
102
RTVSPropertyOp56
 70
     1
102
RTVSPropertyOp57
 70
     1
102
RTVSPropertyOp58
 70
     1
102
RTVSPropertyOp59
 70
     1
102
RTVSPropertyOp60
 70
     1
102
RTVSPropertyOp61
 70
     1
102
RTVSPropertyOp62
 70
     1
  0
XRECORD
  5
1A3EF
102
{ACAD_REACTORS
330
1A3EE
102
}
330
1A3EE
100
AcDbXrecord
280
     1
102
RTVSPost2010Prop28
280
     0
102
RTVSPost2010PropOp28
 70
     1
102
RTVSPost2010Prop29
280
     1
102
RTVSPost2010PropOp29
 70
     1
102
RTVSPost2010Prop30
280
     1
102
RTVSPost2010PropOp30
 70
     1
102
RTVSPost2010Prop31
280
     0
102
RTVSPost2010PropOp31
 70
     1
102
RTVSPost2010Prop32
280
     0
102
RTVSPost2010PropOp32
 70
     1
102
RTVSPost2010Prop33
280
     0
102
RTVSPost2010PropOp33
 70
     1
102
RTVSPost2010Prop34
280
     0
102
RTVSPost2010PropOp34
 70
     1
102
RTVSPost2010Prop35
280
     0
102
RTVSPost2010PropOp35
 70
     1
102
RTVSPost2010Prop36
280
     0
102
RTVSPost2010PropOp36
 70
     1
102
RTVSPost2010Prop37
 90
       50
102
RTVSPost2010PropOp37
 70
     0
102
RTVSPost2010Prop38
140
0.0
102
RTVSPost2010PropOp38
 70
     0
102
RTVSPost2010Prop39
140
1.0
102
RTVSPost2010PropOp39
 70
     0
102
RTVSPost2010Prop40
 90
        0
102
RTVSPost2010PropOp40
 70
     0
102
RTVSPost2010Prop41ColorIndex
 90
       18
102
RTVSPost2010Prop41ColorRGB
 90
        0
102
RTVSPost2010PropOp41
 70
     0
102
RTVSPost2010Prop42
 90
       50
102
RTVSPost2010PropOp42
 70
     0
102
RTVSPost2010Prop43
 90
        3
102
RTVSPost2010PropOp43
 70
     0
102
RTVSPost2010Prop44ColorIndex
 90
        5
102
RTVSPost2010Prop44ColorRGB
 90
      255
102
RTVSPost2010PropOp44
 70
     0
102
RTVSPost2010Prop45
280
     0
102
RTVSPost2010PropOp45
 70
     1
102
RTVSPost2010Prop46
 90
       50
102
RTVSPost2010PropOp46
 70
     0
102
RTVSPost2010Prop47
 90
       50
102
RTVSPost2010PropOp47
 70
     0
102
RTVSPost2010Prop48
 90
       50
102
RTVSPost2010PropOp48
 70
     0
102
RTVSPost2010Prop49
280
     0
102
RTVSPost2010PropOp49
 70
     1
102
RTVSPost2010Prop50
 90
       50
102
RTVSPost2010PropOp50
 70
     0
102
RTVSPost2010Prop51ColorIndex
 90
      256
102
RTVSPost2010Prop51ColorRGB
 90
-16777216
102
RTVSPost2010PropOp51
 70
     0
102
RTVSPost2010Prop52
140
1.0
102
RTVSPost2010PropOp52
 70
     0
102
RTVSPost2010Prop53
 90
        2
102
RTVSPost2010PropOp53
 70
     0
102
RTVSPost2010Prop54
  1
strokes_ogs.tif
102
RTVSPost2010PropOp54
 70
     0
102
RTVSPost2010Prop55
280
     0
102
RTVSPost2010PropOp55
 70
     1
102
RTVSPost2010Prop56
140
1.0
102
RTVSPost2010PropOp56
 70
     0
102
RTVSPost2010Prop57
140
1.0
102
RTVSPost2010PropOp57
 70
     0
102
RTVSPropertyOp0
 70
     0
102
RTVSPropertyOp1
 70
     0
102
RTVSPropertyOp2
 70
     0
102
RTVSPropertyOp3
 70
     0
102
RTVSPropertyOp4
 70
     0
102
RTVSPropertyOp5
 70
     0
102
RTVSPropertyOp6
 70
     0
102
RTVSPropertyOp7
 70
     0
102
RTVSPropertyOp8
 70
     0
102
RTVSPropertyOp9
 70
     0
102
RTVSPropertyOp10
 70
     0
102
RTVSPropertyOp11
 70
     0
102
RTVSPropertyOp12
 70
     0
102
RTVSPropertyOp13
 70
     0
102
RTVSPropertyOp14
 70
     2
102
RTVSPropertyOp15
 70
     0
102
RTVSPropertyOp16
 70
     0
102
RTVSPropertyOp17
 70
     0
102
RTVSPropertyOp18
 70
     0
102
RTVSPropertyOp19
 70
     0
102
RTVSPropertyOp20
 70
     0
102
RTVSPropertyOp21
 70
     0
102
RTVSPropertyOp22
 70
     0
102
RTVSPropertyOp23
 70
     0
102
RTVSPropertyOp24
 70
     0
102
RTVSPropertyOp25
 70
     0
102
RTVSPropertyOp26
 70
     0
102
RTVSPropertyOp27
 70
     0
102
RTVSPropertyOp28
 70
     1
102
RTVSPropertyOp29
 70
     1
102
RTVSPropertyOp30
 70
     1
102
RTVSPropertyOp31
 70
     1
102
RTVSPropertyOp32
 70
     1
102
RTVSPropertyOp33
 70
     1
102
RTVSPropertyOp34
 70
     1
102
RTVSPropertyOp35
 70
     1
102
RTVSPropertyOp36
 70
     1
102
RTVSPropertyOp37
 70
     0
102
RTVSPropertyOp38
 70
     0
102
RTVSPropertyOp39
 70
     0
102
RTVSPropertyOp40
 70
     0
102
RTVSPropertyOp41
 70
     0
102
RTVSPropertyOp42
 70
     0
102
RTVSPropertyOp43
 70
     0
102
RTVSPropertyOp44
 70
     0
102
RTVSPropertyOp45
 70
     1
102
RTVSPropertyOp46
 70
     0
102
RTVSPropertyOp47
 70
     0
102
RTVSPropertyOp48
 70
     0
102
RTVSPropertyOp49
 70
     1
102
RTVSPropertyOp50
 70
     0
102
RTVSPropertyOp51
 70
     0
102
RTVSPropertyOp52
 70
     0
102
RTVSPropertyOp53
 70
     0
102
RTVSPropertyOp54
 70
     0
102
RTVSPropertyOp55
 70
     1
102
RTVSPropertyOp56
 70
     0
102
RTVSPropertyOp57
 70
     0
102
RTVSPropertyOp58
 70
     0
102
RTVSPropertyOp59
 70
     0
102
RTVSPropertyOp60
 70
     0
102
RTVSPropertyOp61
 70
     0
102
RTVSPropertyOp62
 70
     0
  0
XRECORD
  5
1A3DD
102
{ACAD_REACTORS
330
1A3DC
102
}
330
1A3DC
100
AcDbXrecord
280
     1
102
RTVSPost2010Prop28
280
     0
102
RTVSPost2010PropOp28
 70
     1
102
RTVSPost2010Prop29
280
     1
102
RTVSPost2010PropOp29
 70
     1
102
RTVSPost2010Prop30
280
     1
102
RTVSPost2010PropOp30
 70
     1
102
RTVSPost2010Prop31
280
     0
102
RTVSPost2010PropOp31
 70
     1
102
RTVSPost2010Prop32
280
     0
102
RTVSPost2010PropOp32
 70
     1
102
RTVSPost2010Prop33
280
     0
102
RTVSPost2010PropOp33
 70
     1
102
RTVSPost2010Prop34
280
     0
102
RTVSPost2010PropOp34
 70
     1
102
RTVSPost2010Prop35
280
     0
102
RTVSPost2010PropOp35
 70
     1
102
RTVSPost2010Prop36
280
     0
102
RTVSPost2010PropOp36
 70
     1
102
RTVSPost2010Prop37
 90
       50
102
RTVSPost2010PropOp37
 70
     1
102
RTVSPost2010Prop38
140
0.0
102
RTVSPost2010PropOp38
 70
     1
102
RTVSPost2010Prop39
140
1.0
102
RTVSPost2010PropOp39
 70
     1
102
RTVSPost2010Prop40
 90
        0
102
RTVSPost2010PropOp40
 70
     1
102
RTVSPost2010Prop41ColorIndex
 90
       18
102
RTVSPost2010Prop41ColorRGB
 90
        0
102
RTVSPost2010PropOp41
 70
     1
102
RTVSPost2010Prop42
 90
       50
102
RTVSPost2010PropOp42
 70
     1
102
RTVSPost2010Prop43
 90
        3
102
RTVSPost2010PropOp43
 70
     1
102
RTVSPost2010Prop44ColorIndex
 90
        5
102
RTVSPost2010Prop44ColorRGB
 90
      255
102
RTVSPost2010PropOp44
 70
     1
102
RTVSPost2010Prop45
280
     0
102
RTVSPost2010PropOp45
 70
     1
102
RTVSPost2010Prop46
 90
       50
102
RTVSPost2010PropOp46
 70
     1
102
RTVSPost2010Prop47
 90
       50
102
RTVSPost2010PropOp47
 70
     1
102
RTVSPost2010Prop48
 90
       50
102
RTVSPost2010PropOp48
 70
     1
102
RTVSPost2010Prop49
280
     0
102
RTVSPost2010PropOp49
 70
     1
102
RTVSPost2010Prop50
 90
       50
102
RTVSPost2010PropOp50
 70
     1
102
RTVSPost2010Prop51ColorIndex
 90
      256
102
RTVSPost2010Prop51ColorRGB
 90
-16777216
102
RTVSPost2010PropOp51
 70
     0
102
RTVSPost2010Prop52
140
1.0
102
RTVSPost2010PropOp52
 70
     0
102
RTVSPost2010Prop53
 90
        2
102
RTVSPost2010PropOp53
 70
     1
102
RTVSPost2010Prop54
  1
strokes_ogs.tif
102
RTVSPost2010PropOp54
 70
     1
102
RTVSPost2010Prop55
280
     0
102
RTVSPost2010PropOp55
 70
     1
102
RTVSPost2010Prop56
140
1.0
102
RTVSPost2010PropOp56
 70
     1
102
RTVSPost2010Prop57
140
1.0
102
RTVSPost2010PropOp57
 70
     1
102
RTVSPropertyOp0
 70
     1
102
RTVSPropertyOp1
 70
     1
102
RTVSPropertyOp2
 70
     1
102
RTVSPropertyOp3
 70
     1
102
RTVSPropertyOp4
 70
     1
102
RTVSPropertyOp5
 70
     1
102
RTVSPropertyOp6
 70
     1
102
RTVSPropertyOp7
 70
     1
102
RTVSPropertyOp8
 70
     1
102
RTVSPropertyOp9
 70
     1
102
RTVSPropertyOp10
 70
     1
102
RTVSPropertyOp11
 70
     1
102
RTVSPropertyOp12
 70
     1
102
RTVSPropertyOp13
 70
     1
102
RTVSPropertyOp14
 70
     1
102
RTVSPropertyOp15
 70
     1
102
RTVSPropertyOp16
 70
     1
102
RTVSPropertyOp17
 70
     1
102
RTVSPropertyOp18
 70
     1
102
RTVSPropertyOp19
 70
     1
102
RTVSPropertyOp20
 70
     1
102
RTVSPropertyOp21
 70
     1
102
RTVSPropertyOp22
 70
     1
102
RTVSPropertyOp23
 70
     1
102
RTVSPropertyOp24
 70
     1
102
RTVSPropertyOp25
 70
     1
102
RTVSPropertyOp26
 70
     1
102
RTVSPropertyOp27
 70
     1
102
RTVSPropertyOp28
 70
     1
102
RTVSPropertyOp29
 70
     1
102
RTVSPropertyOp30
 70
     1
102
RTVSPropertyOp31
 70
     1
102
RTVSPropertyOp32
 70
     1
102
RTVSPropertyOp33
 70
     1
102
RTVSPropertyOp34
 70
     1
102
RTVSPropertyOp35
 70
     1
102
RTVSPropertyOp36
 70
     1
102
RTVSPropertyOp37
 70
     1
102
RTVSPropertyOp38
 70
     1
102
RTVSPropertyOp39
 70
     1
102
RTVSPropertyOp40
 70
     1
102
RTVSPropertyOp41
 70
     1
102
RTVSPropertyOp42
 70
     1
102
RTVSPropertyOp43
 70
     1
102
RTVSPropertyOp44
 70
     1
102
RTVSPropertyOp45
 70
     1
102
RTVSPropertyOp46
 70
     1
102
RTVSPropertyOp47
 70
     1
102
RTVSPropertyOp48
 70
     1
102
RTVSPropertyOp49
 70
     1
102
RTVSPropertyOp50
 70
     1
102
RTVSPropertyOp51
 70
     0
102
RTVSPropertyOp52
 70
     0
102
RTVSPropertyOp53
 70
     1
102
RTVSPropertyOp54
 70
     1
102
RTVSPropertyOp55
 70
     1
102
RTVSPropertyOp56
 70
     1
102
RTVSPropertyOp57
 70
     1
102
RTVSPropertyOp58
 70
     1
102
RTVSPropertyOp59
 70
     1
102
RTVSPropertyOp60
 70
     1
102
RTVSPropertyOp61
 70
     1
102
RTVSPropertyOp62
 70
     1
  0
XRECORD
  5
1A3C1
102
{ACAD_REACTORS
330
1A3C0
102
}
330
1A3C0
100
AcDbXrecord
280
     1
102
RTVSPost2010Prop28
280
     0
102
RTVSPost2010PropOp28
 70
     1
102
RTVSPost2010Prop29
280
     1
102
RTVSPost2010PropOp29
 70
     1
102
RTVSPost2010Prop30
280
     1
102
RTVSPost2010PropOp30
 70
     1
102
RTVSPost2010Prop31
280
     0
102
RTVSPost2010PropOp31
 70
     1
102
RTVSPost2010Prop32
280
     0
102
RTVSPost2010PropOp32
 70
     1
102
RTVSPost2010Prop33
280
     0
102
RTVSPost2010PropOp33
 70
     1
102
RTVSPost2010Prop34
280
     0
102
RTVSPost2010PropOp34
 70
     1
102
RTVSPost2010Prop35
280
     0
102
RTVSPost2010PropOp35
 70
     1
102
RTVSPost2010Prop36
280
     0
102
RTVSPost2010PropOp36
 70
     1
102
RTVSPost2010Prop37
 90
       50
102
RTVSPost2010PropOp37
 70
     1
102
RTVSPost2010Prop38
140
0.0
102
RTVSPost2010PropOp38
 70
     1
102
RTVSPost2010Prop39
140
1.0
102
RTVSPost2010PropOp39
 70
     1
102
RTVSPost2010Prop40
 90
        0
102
RTVSPost2010PropOp40
 70
     1
102
RTVSPost2010Prop41ColorIndex
 90
       18
102
RTVSPost2010Prop41ColorRGB
 90
        0
102
RTVSPost2010PropOp41
 70
     1
102
RTVSPost2010Prop42
 90
       50
102
RTVSPost2010PropOp42
 70
     1
102
RTVSPost2010Prop43
 90
        3
102
RTVSPost2010PropOp43
 70
     1
102
RTVSPost2010Prop44ColorIndex
 90
        5
102
RTVSPost2010Prop44ColorRGB
 90
      255
102
RTVSPost2010PropOp44
 70
     1
102
RTVSPost2010Prop45
280
     0
102
RTVSPost2010PropOp45
 70
     1
102
RTVSPost2010Prop46
 90
       50
102
RTVSPost2010PropOp46
 70
     1
102
RTVSPost2010Prop47
 90
       50
102
RTVSPost2010PropOp47
 70
     1
102
RTVSPost2010Prop48
 90
       50
102
RTVSPost2010PropOp48
 70
     1
102
RTVSPost2010Prop49
280
     0
102
RTVSPost2010PropOp49
 70
     1
102
RTVSPost2010Prop50
 90
       50
102
RTVSPost2010PropOp50
 70
     1
102
RTVSPost2010Prop51ColorIndex
 90
      256
102
RTVSPost2010Prop51ColorRGB
 90
-16777216
102
RTVSPost2010PropOp51
 70
     0
102
RTVSPost2010Prop52
140
1.0
102
RTVSPost2010PropOp52
 70
     0
102
RTVSPost2010Prop53
 90
        2
102
RTVSPost2010PropOp53
 70
     1
102
RTVSPost2010Prop54
  1
strokes_ogs.tif
102
RTVSPost2010PropOp54
 70
     1
102
RTVSPost2010Prop55
280
     0
102
RTVSPost2010PropOp55
 70
     1
102
RTVSPost2010Prop56
140
1.0
102
RTVSPost2010PropOp56
 70
     1
102
RTVSPost2010Prop57
140
1.0
102
RTVSPost2010PropOp57
 70
     1
102
RTVSPropertyOp0
 70
     1
102
RTVSPropertyOp1
 70
     1
102
RTVSPropertyOp2
 70
     1
102
RTVSPropertyOp3
 70
     1
102
RTVSPropertyOp4
 70
     1
102
RTVSPropertyOp5
 70
     1
102
RTVSPropertyOp6
 70
     1
102
RTVSPropertyOp7
 70
     1
102
RTVSPropertyOp8
 70
     1
102
RTVSPropertyOp9
 70
     1
102
RTVSPropertyOp10
 70
     1
102
RTVSPropertyOp11
 70
     1
102
RTVSPropertyOp12
 70
     1
102
RTVSPropertyOp13
 70
     1
102
RTVSPropertyOp14
 70
     1
102
RTVSPropertyOp15
 70
     1
102
RTVSPropertyOp16
 70
     1
102
RTVSPropertyOp17
 70
     1
102
RTVSPropertyOp18
 70
     1
102
RTVSPropertyOp19
 70
     1
102
RTVSPropertyOp20
 70
     1
102
RTVSPropertyOp21
 70
     1
102
RTVSPropertyOp22
 70
     1
102
RTVSPropertyOp23
 70
     1
102
RTVSPropertyOp24
 70
     1
102
RTVSPropertyOp25
 70
     1
102
RTVSPropertyOp26
 70
     1
102
RTVSPropertyOp27
 70
     1
102
RTVSPropertyOp28
 70
     1
102
RTVSPropertyOp29
 70
     1
102
RTVSPropertyOp30
 70
     1
102
RTVSPropertyOp31
 70
     1
102
RTVSPropertyOp32
 70
     1
102
RTVSPropertyOp33
 70
     1
102
RTVSPropertyOp34
 70
     1
102
RTVSPropertyOp35
 70
     1
102
RTVSPropertyOp36
 70
     1
102
RTVSPropertyOp37
 70
     1
102
RTVSPropertyOp38
 70
     1
102
RTVSPropertyOp39
 70
     1
102
RTVSPropertyOp40
 70
     1
102
RTVSPropertyOp41
 70
     1
102
RTVSPropertyOp42
 70
     1
102
RTVSPropertyOp43
 70
     1
102
RTVSPropertyOp44
 70
     1
102
RTVSPropertyOp45
 70
     1
102
RTVSPropertyOp46
 70
     1
102
RTVSPropertyOp47
 70
     1
102
RTVSPropertyOp48
 70
     1
102
RTVSPropertyOp49
 70
     1
102
RTVSPropertyOp50
 70
     1
102
RTVSPropertyOp51
 70
     0
102
RTVSPropertyOp52
 70
     0
102
RTVSPropertyOp53
 70
     1
102
RTVSPropertyOp54
 70
     1
102
RTVSPropertyOp55
 70
     1
102
RTVSPropertyOp56
 70
     1
102
RTVSPropertyOp57
 70
     1
102
RTVSPropertyOp58
 70
     1
102
RTVSPropertyOp59
 70
     1
102
RTVSPropertyOp60
 70
     1
102
RTVSPropertyOp61
 70
     1
102
RTVSPropertyOp62
 70
     1
  0
XRECORD
  5
1A3C3
102
{ACAD_REACTORS
330
1A3C2
102
}
330
1A3C2
100
AcDbXrecord
280
     1
102
RTVSPost2010Prop28
280
     0
102
RTVSPost2010PropOp28
 70
     1
102
RTVSPost2010Prop29
280
     1
102
RTVSPost2010PropOp29
 70
     1
102
RTVSPost2010Prop30
280
     1
102
RTVSPost2010PropOp30
 70
     1
102
RTVSPost2010Prop31
280
     0
102
RTVSPost2010PropOp31
 70
     1
102
RTVSPost2010Prop32
280
     0
102
RTVSPost2010PropOp32
 70
     1
102
RTVSPost2010Prop33
280
     0
102
RTVSPost2010PropOp33
 70
     1
102
RTVSPost2010Prop34
280
     0
102
RTVSPost2010PropOp34
 70
     1
102
RTVSPost2010Prop35
280
     0
102
RTVSPost2010PropOp35
 70
     1
102
RTVSPost2010Prop36
280
     0
102
RTVSPost2010PropOp36
 70
     1
102
RTVSPost2010Prop37
 90
       50
102
RTVSPost2010PropOp37
 70
     1
102
RTVSPost2010Prop38
140
0.0
102
RTVSPost2010PropOp38
 70
     1
102
RTVSPost2010Prop39
140
1.0
102
RTVSPost2010PropOp39
 70
     1
102
RTVSPost2010Prop40
 90
        0
102
RTVSPost2010PropOp40
 70
     1
102
RTVSPost2010Prop41ColorIndex
 90
       18
102
RTVSPost2010Prop41ColorRGB
 90
        0
102
RTVSPost2010PropOp41
 70
     1
102
RTVSPost2010Prop42
 90
       50
102
RTVSPost2010PropOp42
 70
     1
102
RTVSPost2010Prop43
 90
        3
102
RTVSPost2010PropOp43
 70
     1
102
RTVSPost2010Prop44ColorIndex
 90
        5
102
RTVSPost2010Prop44ColorRGB
 90
      255
102
RTVSPost2010PropOp44
 70
     1
102
RTVSPost2010Prop45
280
     0
102
RTVSPost2010PropOp45
 70
     1
102
RTVSPost2010Prop46
 90
       50
102
RTVSPost2010PropOp46
 70
     1
102
RTVSPost2010Prop47
 90
       50
102
RTVSPost2010PropOp47
 70
     1
102
RTVSPost2010Prop48
 90
       50
102
RTVSPost2010PropOp48
 70
     1
102
RTVSPost2010Prop49
280
     0
102
RTVSPost2010PropOp49
 70
     1
102
RTVSPost2010Prop50
 90
       50
102
RTVSPost2010PropOp50
 70
     1
102
RTVSPost2010Prop51ColorIndex
 90
      256
102
RTVSPost2010Prop51ColorRGB
 90
-16777216
102
RTVSPost2010PropOp51
 70
     0
102
RTVSPost2010Prop52
140
1.0
102
RTVSPost2010PropOp52
 70
     0
102
RTVSPost2010Prop53
 90
        2
102
RTVSPost2010PropOp53
 70
     1
102
RTVSPost2010Prop54
  1
strokes_ogs.tif
102
RTVSPost2010PropOp54
 70
     1
102
RTVSPost2010Prop55
280
     0
102
RTVSPost2010PropOp55
 70
     1
102
RTVSPost2010Prop56
140
1.0
102
RTVSPost2010PropOp56
 70
     1
102
RTVSPost2010Prop57
140
1.0
102
RTVSPost2010PropOp57
 70
     1
102
RTVSPropertyOp0
 70
     1
102
RTVSPropertyOp1
 70
     1
102
RTVSPropertyOp2
 70
     1
102
RTVSPropertyOp3
 70
     1
102
RTVSPropertyOp4
 70
     1
102
RTVSPropertyOp5
 70
     1
102
RTVSPropertyOp6
 70
     1
102
RTVSPropertyOp7
 70
     1
102
RTVSPropertyOp8
 70
     1
102
RTVSPropertyOp9
 70
     1
102
RTVSPropertyOp10
 70
     1
102
RTVSPropertyOp11
 70
     1
102
RTVSPropertyOp12
 70
     1
102
RTVSPropertyOp13
 70
     1
102
RTVSPropertyOp14
 70
     1
102
RTVSPropertyOp15
 70
     1
102
RTVSPropertyOp16
 70
     1
102
RTVSPropertyOp17
 70
     1
102
RTVSPropertyOp18
 70
     1
102
RTVSPropertyOp19
 70
     1
102
RTVSPropertyOp20
 70
     1
102
RTVSPropertyOp21
 70
     1
102
RTVSPropertyOp22
 70
     1
102
RTVSPropertyOp23
 70
     1
102
RTVSPropertyOp24
 70
     1
102
RTVSPropertyOp25
 70
     1
102
RTVSPropertyOp26
 70
     1
102
RTVSPropertyOp27
 70
     1
102
RTVSPropertyOp28
 70
     1
102
RTVSPropertyOp29
 70
     1
102
RTVSPropertyOp30
 70
     1
102
RTVSPropertyOp31
 70
     1
102
RTVSPropertyOp32
 70
     1
102
RTVSPropertyOp33
 70
     1
102
RTVSPropertyOp34
 70
     1
102
RTVSPropertyOp35
 70
     1
102
RTVSPropertyOp36
 70
     1
102
RTVSPropertyOp37
 70
     1
102
RTVSPropertyOp38
 70
     1
102
RTVSPropertyOp39
 70
     1
102
RTVSPropertyOp40
 70
     1
102
RTVSPropertyOp41
 70
     1
102
RTVSPropertyOp42
 70
     1
102
RTVSPropertyOp43
 70
     1
102
RTVSPropertyOp44
 70
     1
102
RTVSPropertyOp45
 70
     1
102
RTVSPropertyOp46
 70
     1
102
RTVSPropertyOp47
 70
     1
102
RTVSPropertyOp48
 70
     1
102
RTVSPropertyOp49
 70
     1
102
RTVSPropertyOp50
 70
     1
102
RTVSPropertyOp51
 70
     0
102
RTVSPropertyOp52
 70
     0
102
RTVSPropertyOp53
 70
     1
102
RTVSPropertyOp54
 70
     1
102
RTVSPropertyOp55
 70
     1
102
RTVSPropertyOp56
 70
     1
102
RTVSPropertyOp57
 70
     1
102
RTVSPropertyOp58
 70
     1
102
RTVSPropertyOp59
 70
     1
102
RTVSPropertyOp60
 70
     1
102
RTVSPropertyOp61
 70
     1
102
RTVSPropertyOp62
 70
     1
  0
XRECORD
  5
1A3C5
102
{ACAD_REACTORS
330
1A3C4
102
}
330
1A3C4
100
AcDbXrecord
280
     1
102
RTVSPost2010Prop28
280
     0
102
RTVSPost2010PropOp28
 70
     1
102
RTVSPost2010Prop29
280
     1
102
RTVSPost2010PropOp29
 70
     1
102
RTVSPost2010Prop30
280
     1
102
RTVSPost2010PropOp30
 70
     1
102
RTVSPost2010Prop31
280
     0
102
RTVSPost2010PropOp31
 70
     1
102
RTVSPost2010Prop32
280
     0
102
RTVSPost2010PropOp32
 70
     1
102
RTVSPost2010Prop33
280
     0
102
RTVSPost2010PropOp33
 70
     1
102
RTVSPost2010Prop34
280
     0
102
RTVSPost2010PropOp34
 70
     1
102
RTVSPost2010Prop35
280
     0
102
RTVSPost2010PropOp35
 70
     1
102
RTVSPost2010Prop36
280
     0
102
RTVSPost2010PropOp36
 70
     1
102
RTVSPost2010Prop37
 90
       50
102
RTVSPost2010PropOp37
 70
     1
102
RTVSPost2010Prop38
140
0.0
102
RTVSPost2010PropOp38
 70
     1
102
RTVSPost2010Prop39
140
1.0
102
RTVSPost2010PropOp39
 70
     1
102
RTVSPost2010Prop40
 90
        0
102
RTVSPost2010PropOp40
 70
     1
102
RTVSPost2010Prop41ColorIndex
 90
       18
102
RTVSPost2010Prop41ColorRGB
 90
        0
102
RTVSPost2010PropOp41
 70
     1
102
RTVSPost2010Prop42
 90
       50
102
RTVSPost2010PropOp42
 70
     1
102
RTVSPost2010Prop43
 90
        3
102
RTVSPost2010PropOp43
 70
     1
102
RTVSPost2010Prop44ColorIndex
 90
        5
102
RTVSPost2010Prop44ColorRGB
 90
      255
102
RTVSPost2010PropOp44
 70
     1
102
RTVSPost2010Prop45
280
     0
102
RTVSPost2010PropOp45
 70
     1
102
RTVSPost2010Prop46
 90
       50
102
RTVSPost2010PropOp46
 70
     1
102
RTVSPost2010Prop47
 90
       50
102
RTVSPost2010PropOp47
 70
     1
102
RTVSPost2010Prop48
 90
       50
102
RTVSPost2010PropOp48
 70
     1
102
RTVSPost2010Prop49
280
     0
102
RTVSPost2010PropOp49
 70
     1
102
RTVSPost2010Prop50
 90
       50
102
RTVSPost2010PropOp50
 70
     1
102
RTVSPost2010Prop51ColorIndex
 90
      256
102
RTVSPost2010Prop51ColorRGB
 90
-16777216
102
RTVSPost2010PropOp51
 70
     0
102
RTVSPost2010Prop52
140
1.0
102
RTVSPost2010PropOp52
 70
     0
102
RTVSPost2010Prop53
 90
        2
102
RTVSPost2010PropOp53
 70
     1
102
RTVSPost2010Prop54
  1
strokes_ogs.tif
102
RTVSPost2010PropOp54
 70
     1
102
RTVSPost2010Prop55
280
     0
102
RTVSPost2010PropOp55
 70
     1
102
RTVSPost2010Prop56
140
1.0
102
RTVSPost2010PropOp56
 70
     1
102
RTVSPost2010Prop57
140
1.0
102
RTVSPost2010PropOp57
 70
     1
102
RTVSPropertyOp0
 70
     1
102
RTVSPropertyOp1
 70
     1
102
RTVSPropertyOp2
 70
     1
102
RTVSPropertyOp3
 70
     1
102
RTVSPropertyOp4
 70
     1
102
RTVSPropertyOp5
 70
     1
102
RTVSPropertyOp6
 70
     1
102
RTVSPropertyOp7
 70
     1
102
RTVSPropertyOp8
 70
     1
102
RTVSPropertyOp9
 70
     1
102
RTVSPropertyOp10
 70
     1
102
RTVSPropertyOp11
 70
     1
102
RTVSPropertyOp12
 70
     1
102
RTVSPropertyOp13
 70
     1
102
RTVSPropertyOp14
 70
     1
102
RTVSPropertyOp15
 70
     1
102
RTVSPropertyOp16
 70
     1
102
RTVSPropertyOp17
 70
     1
102
RTVSPropertyOp18
 70
     1
102
RTVSPropertyOp19
 70
     1
102
RTVSPropertyOp20
 70
     1
102
RTVSPropertyOp21
 70
     1
102
RTVSPropertyOp22
 70
     1
102
RTVSPropertyOp23
 70
     1
102
RTVSPropertyOp24
 70
     1
102
RTVSPropertyOp25
 70
     1
102
RTVSPropertyOp26
 70
     1
102
RTVSPropertyOp27
 70
     1
102
RTVSPropertyOp28
 70
     1
102
RTVSPropertyOp29
 70
     1
102
RTVSPropertyOp30
 70
     1
102
RTVSPropertyOp31
 70
     1
102
RTVSPropertyOp32
 70
     1
102
RTVSPropertyOp33
 70
     1
102
RTVSPropertyOp34
 70
     1
102
RTVSPropertyOp35
 70
     1
102
RTVSPropertyOp36
 70
     1
102
RTVSPropertyOp37
 70
     1
102
RTVSPropertyOp38
 70
     1
102
RTVSPropertyOp39
 70
     1
102
RTVSPropertyOp40
 70
     1
102
RTVSPropertyOp41
 70
     1
102
RTVSPropertyOp42
 70
     1
102
RTVSPropertyOp43
 70
     1
102
RTVSPropertyOp44
 70
     1
102
RTVSPropertyOp45
 70
     1
102
RTVSPropertyOp46
 70
     1
102
RTVSPropertyOp47
 70
     1
102
RTVSPropertyOp48
 70
     1
102
RTVSPropertyOp49
 70
     1
102
RTVSPropertyOp50
 70
     1
102
RTVSPropertyOp51
 70
     0
102
RTVSPropertyOp52
 70
     0
102
RTVSPropertyOp53
 70
     1
102
RTVSPropertyOp54
 70
     1
102
RTVSPropertyOp55
 70
     1
102
RTVSPropertyOp56
 70
     1
102
RTVSPropertyOp57
 70
     1
102
RTVSPropertyOp58
 70
     1
102
RTVSPropertyOp59
 70
     1
102
RTVSPropertyOp60
 70
     1
102
RTVSPropertyOp61
 70
     1
102
RTVSPropertyOp62
 70
     1
  0
XRECORD
  5
1A3C7
102
{ACAD_REACTORS
330
1A3C6
102
}
330
1A3C6
100
AcDbXrecord
280
     1
102
RTVSPost2010Prop28
280
     0
102
RTVSPost2010PropOp28
 70
     1
102
RTVSPost2010Prop29
280
     1
102
RTVSPost2010PropOp29
 70
     1
102
RTVSPost2010Prop30
280
     1
102
RTVSPost2010PropOp30
 70
     1
102
RTVSPost2010Prop31
280
     0
102
RTVSPost2010PropOp31
 70
     1
102
RTVSPost2010Prop32
280
     0
102
RTVSPost2010PropOp32
 70
     1
102
RTVSPost2010Prop33
280
     0
102
RTVSPost2010PropOp33
 70
     1
102
RTVSPost2010Prop34
280
     0
102
RTVSPost2010PropOp34
 70
     1
102
RTVSPost2010Prop35
280
     0
102
RTVSPost2010PropOp35
 70
     1
102
RTVSPost2010Prop36
280
     0
102
RTVSPost2010PropOp36
 70
     1
102
RTVSPost2010Prop37
 90
       50
102
RTVSPost2010PropOp37
 70
     1
102
RTVSPost2010Prop38
140
0.0
102
RTVSPost2010PropOp38
 70
     1
102
RTVSPost2010Prop39
140
1.0
102
RTVSPost2010PropOp39
 70
     1
102
RTVSPost2010Prop40
 90
        0
102
RTVSPost2010PropOp40
 70
     1
102
RTVSPost2010Prop41ColorIndex
 90
       18
102
RTVSPost2010Prop41ColorRGB
 90
        0
102
RTVSPost2010PropOp41
 70
     1
102
RTVSPost2010Prop42
 90
       50
102
RTVSPost2010PropOp42
 70
     1
102
RTVSPost2010Prop43
 90
        3
102
RTVSPost2010PropOp43
 70
     1
102
RTVSPost2010Prop44ColorIndex
 90
        5
102
RTVSPost2010Prop44ColorRGB
 90
      255
102
RTVSPost2010PropOp44
 70
     1
102
RTVSPost2010Prop45
280
     0
102
RTVSPost2010PropOp45
 70
     1
102
RTVSPost2010Prop46
 90
       50
102
RTVSPost2010PropOp46
 70
     1
102
RTVSPost2010Prop47
 90
       50
102
RTVSPost2010PropOp47
 70
     1
102
RTVSPost2010Prop48
 90
       50
102
RTVSPost2010PropOp48
 70
     1
102
RTVSPost2010Prop49
280
     0
102
RTVSPost2010PropOp49
 70
     1
102
RTVSPost2010Prop50
 90
       50
102
RTVSPost2010PropOp50
 70
     1
102
RTVSPost2010Prop51ColorIndex
 90
      256
102
RTVSPost2010Prop51ColorRGB
 90
-16777216
102
RTVSPost2010PropOp51
 70
     0
102
RTVSPost2010Prop52
140
1.0
102
RTVSPost2010PropOp52
 70
     0
102
RTVSPost2010Prop53
 90
        2
102
RTVSPost2010PropOp53
 70
     1
102
RTVSPost2010Prop54
  1
strokes_ogs.tif
102
RTVSPost2010PropOp54
 70
     1
102
RTVSPost2010Prop55
280
     0
102
RTVSPost2010PropOp55
 70
     1
102
RTVSPost2010Prop56
140
1.0
102
RTVSPost2010PropOp56
 70
     1
102
RTVSPost2010Prop57
140
1.0
102
RTVSPost2010PropOp57
 70
     1
102
RTVSPropertyOp0
 70
     1
102
RTVSPropertyOp1
 70
     1
102
RTVSPropertyOp2
 70
     1
102
RTVSPropertyOp3
 70
     1
102
RTVSPropertyOp4
 70
     1
102
RTVSPropertyOp5
 70
     1
102
RTVSPropertyOp6
 70
     1
102
RTVSPropertyOp7
 70
     1
102
RTVSPropertyOp8
 70
     1
102
RTVSPropertyOp9
 70
     1
102
RTVSPropertyOp10
 70
     1
102
RTVSPropertyOp11
 70
     1
102
RTVSPropertyOp12
 70
     1
102
RTVSPropertyOp13
 70
     1
102
RTVSPropertyOp14
 70
     1
102
RTVSPropertyOp15
 70
     1
102
RTVSPropertyOp16
 70
     1
102
RTVSPropertyOp17
 70
     1
102
RTVSPropertyOp18
 70
     1
102
RTVSPropertyOp19
 70
     1
102
RTVSPropertyOp20
 70
     1
102
RTVSPropertyOp21
 70
     1
102
RTVSPropertyOp22
 70
     1
102
RTVSPropertyOp23
 70
     1
102
RTVSPropertyOp24
 70
     1
102
RTVSPropertyOp25
 70
     1
102
RTVSPropertyOp26
 70
     1
102
RTVSPropertyOp27
 70
     1
102
RTVSPropertyOp28
 70
     1
102
RTVSPropertyOp29
 70
     1
102
RTVSPropertyOp30
 70
     1
102
RTVSPropertyOp31
 70
     1
102
RTVSPropertyOp32
 70
     1
102
RTVSPropertyOp33
 70
     1
102
RTVSPropertyOp34
 70
     1
102
RTVSPropertyOp35
 70
     1
102
RTVSPropertyOp36
 70
     1
102
RTVSPropertyOp37
 70
     1
102
RTVSPropertyOp38
 70
     1
102
RTVSPropertyOp39
 70
     1
102
RTVSPropertyOp40
 70
     1
102
RTVSPropertyOp41
 70
     1
102
RTVSPropertyOp42
 70
     1
102
RTVSPropertyOp43
 70
     1
102
RTVSPropertyOp44
 70
     1
102
RTVSPropertyOp45
 70
     1
102
RTVSPropertyOp46
 70
     1
102
RTVSPropertyOp47
 70
     1
102
RTVSPropertyOp48
 70
     1
102
RTVSPropertyOp49
 70
     1
102
RTVSPropertyOp50
 70
     1
102
RTVSPropertyOp51
 70
     0
102
RTVSPropertyOp52
 70
     0
102
RTVSPropertyOp53
 70
     1
102
RTVSPropertyOp54
 70
     1
102
RTVSPropertyOp55
 70
     1
102
RTVSPropertyOp56
 70
     1
102
RTVSPropertyOp57
 70
     1
102
RTVSPropertyOp58
 70
     1
102
RTVSPropertyOp59
 70
     1
102
RTVSPropertyOp60
 70
     1
102
RTVSPropertyOp61
 70
     1
102
RTVSPropertyOp62
 70
     1
  0
XRECORD
  5
1A3CF
102
{ACAD_REACTORS
330
1A3CE
102
}
330
1A3CE
100
AcDbXrecord
280
     1
102
RTVSPost2010Prop28
280
     0
102
RTVSPost2010PropOp28
 70
     1
102
RTVSPost2010Prop29
280
     1
102
RTVSPost2010PropOp29
 70
     1
102
RTVSPost2010Prop30
280
     1
102
RTVSPost2010PropOp30
 70
     1
102
RTVSPost2010Prop31
280
     0
102
RTVSPost2010PropOp31
 70
     1
102
RTVSPost2010Prop32
280
     0
102
RTVSPost2010PropOp32
 70
     1
102
RTVSPost2010Prop33
280
     0
102
RTVSPost2010PropOp33
 70
     1
102
RTVSPost2010Prop34
280
     0
102
RTVSPost2010PropOp34
 70
     1
102
RTVSPost2010Prop35
280
     0
102
RTVSPost2010PropOp35
 70
     1
102
RTVSPost2010Prop36
280
     0
102
RTVSPost2010PropOp36
 70
     1
102
RTVSPost2010Prop37
 90
       50
102
RTVSPost2010PropOp37
 70
     1
102
RTVSPost2010Prop38
140
0.0
102
RTVSPost2010PropOp38
 70
     1
102
RTVSPost2010Prop39
140
1.0
102
RTVSPost2010PropOp39
 70
     1
102
RTVSPost2010Prop40
 90
        0
102
RTVSPost2010PropOp40
 70
     1
102
RTVSPost2010Prop41ColorIndex
 90
       18
102
RTVSPost2010Prop41ColorRGB
 90
        0
102
RTVSPost2010PropOp41
 70
     1
102
RTVSPost2010Prop42
 90
       50
102
RTVSPost2010PropOp42
 70
     1
102
RTVSPost2010Prop43
 90
        3
102
RTVSPost2010PropOp43
 70
     1
102
RTVSPost2010Prop44ColorIndex
 90
        5
102
RTVSPost2010Prop44ColorRGB
 90
      255
102
RTVSPost2010PropOp44
 70
     1
102
RTVSPost2010Prop45
280
     0
102
RTVSPost2010PropOp45
 70
     1
102
RTVSPost2010Prop46
 90
       50
102
RTVSPost2010PropOp46
 70
     1
102
RTVSPost2010Prop47
 90
       50
102
RTVSPost2010PropOp47
 70
     1
102
RTVSPost2010Prop48
 90
       50
102
RTVSPost2010PropOp48
 70
     1
102
RTVSPost2010Prop49
280
     0
102
RTVSPost2010PropOp49
 70
     1
102
RTVSPost2010Prop50
 90
       50
102
RTVSPost2010PropOp50
 70
     1
102
RTVSPost2010Prop51ColorIndex
 90
      256
102
RTVSPost2010Prop51ColorRGB
 90
-16777216
102
RTVSPost2010PropOp51
 70
     0
102
RTVSPost2010Prop52
140
1.0
102
RTVSPost2010PropOp52
 70
     0
102
RTVSPost2010Prop53
 90
        2
102
RTVSPost2010PropOp53
 70
     1
102
RTVSPost2010Prop54
  1
strokes_ogs.tif
102
RTVSPost2010PropOp54
 70
     1
102
RTVSPost2010Prop55
280
     0
102
RTVSPost2010PropOp55
 70
     1
102
RTVSPost2010Prop56
140
1.0
102
RTVSPost2010PropOp56
 70
     1
102
RTVSPost2010Prop57
140
1.0
102
RTVSPost2010PropOp57
 70
     1
102
RTVSPropertyOp0
 70
     1
102
RTVSPropertyOp1
 70
     1
102
RTVSPropertyOp2
 70
     1
102
RTVSPropertyOp3
 70
     1
102
RTVSPropertyOp4
 70
     1
102
RTVSPropertyOp5
 70
     1
102
RTVSPropertyOp6
 70
     1
102
RTVSPropertyOp7
 70
     1
102
RTVSPropertyOp8
 70
     1
102
RTVSPropertyOp9
 70
     1
102
RTVSPropertyOp10
 70
     1
102
RTVSPropertyOp11
 70
     1
102
RTVSPropertyOp12
 70
     1
102
RTVSPropertyOp13
 70
     1
102
RTVSPropertyOp14
 70
     1
102
RTVSPropertyOp15
 70
     1
102
RTVSPropertyOp16
 70
     1
102
RTVSPropertyOp17
 70
     1
102
RTVSPropertyOp18
 70
     1
102
RTVSPropertyOp19
 70
     1
102
RTVSPropertyOp20
 70
     1
102
RTVSPropertyOp21
 70
     1
102
RTVSPropertyOp22
 70
     1
102
RTVSPropertyOp23
 70
     1
102
RTVSPropertyOp24
 70
     1
102
RTVSPropertyOp25
 70
     1
102
RTVSPropertyOp26
 70
     1
102
RTVSPropertyOp27
 70
     1
102
RTVSPropertyOp28
 70
     1
102
RTVSPropertyOp29
 70
     1
102
RTVSPropertyOp30
 70
     1
102
RTVSPropertyOp31
 70
     1
102
RTVSPropertyOp32
 70
     1
102
RTVSPropertyOp33
 70
     1
102
RTVSPropertyOp34
 70
     1
102
RTVSPropertyOp35
 70
     1
102
RTVSPropertyOp36
 70
     1
102
RTVSPropertyOp37
 70
     1
102
RTVSPropertyOp38
 70
     1
102
RTVSPropertyOp39
 70
     1
102
RTVSPropertyOp40
 70
     1
102
RTVSPropertyOp41
 70
     1
102
RTVSPropertyOp42
 70
     1
102
RTVSPropertyOp43
 70
     1
102
RTVSPropertyOp44
 70
     1
102
RTVSPropertyOp45
 70
     1
102
RTVSPropertyOp46
 70
     1
102
RTVSPropertyOp47
 70
     1
102
RTVSPropertyOp48
 70
     1
102
RTVSPropertyOp49
 70
     1
102
RTVSPropertyOp50
 70
     1
102
RTVSPropertyOp51
 70
     0
102
RTVSPropertyOp52
 70
     0
102
RTVSPropertyOp53
 70
     1
102
RTVSPropertyOp54
 70
     1
102
RTVSPropertyOp55
 70
     1
102
RTVSPropertyOp56
 70
     1
102
RTVSPropertyOp57
 70
     1
102
RTVSPropertyOp58
 70
     1
102
RTVSPropertyOp59
 70
     1
102
RTVSPropertyOp60
 70
     1
102
RTVSPropertyOp61
 70
     1
102
RTVSPropertyOp62
 70
     1
  0
XRECORD
  5
1A3EB
102
{ACAD_REACTORS
330
1A3EA
102
}
330
1A3EA
100
AcDbXrecord
280
     1
102
RTVSPost2010Prop28
280
     0
102
RTVSPost2010PropOp28
 70
     1
102
RTVSPost2010Prop29
280
     1
102
RTVSPost2010PropOp29
 70
     1
102
RTVSPost2010Prop30
280
     1
102
RTVSPost2010PropOp30
 70
     1
102
RTVSPost2010Prop31
280
     0
102
RTVSPost2010PropOp31
 70
     1
102
RTVSPost2010Prop32
280
     0
102
RTVSPost2010PropOp32
 70
     1
102
RTVSPost2010Prop33
280
     0
102
RTVSPost2010PropOp33
 70
     1
102
RTVSPost2010Prop34
280
     0
102
RTVSPost2010PropOp34
 70
     1
102
RTVSPost2010Prop35
280
     0
102
RTVSPost2010PropOp35
 70
     1
102
RTVSPost2010Prop36
280
     0
102
RTVSPost2010PropOp36
 70
     1
102
RTVSPost2010Prop37
 90
       50
102
RTVSPost2010PropOp37
 70
     0
102
RTVSPost2010Prop38
140
0.0
102
RTVSPost2010PropOp38
 70
     0
102
RTVSPost2010Prop39
140
1.0
102
RTVSPost2010PropOp39
 70
     0
102
RTVSPost2010Prop40
 90
        0
102
RTVSPost2010PropOp40
 70
     0
102
RTVSPost2010Prop41ColorIndex
 90
       18
102
RTVSPost2010Prop41ColorRGB
 90
        0
102
RTVSPost2010PropOp41
 70
     0
102
RTVSPost2010Prop42
 90
       50
102
RTVSPost2010PropOp42
 70
     0
102
RTVSPost2010Prop43
 90
        3
102
RTVSPost2010PropOp43
 70
     0
102
RTVSPost2010Prop44ColorIndex
 90
        5
102
RTVSPost2010Prop44ColorRGB
 90
      255
102
RTVSPost2010PropOp44
 70
     0
102
RTVSPost2010Prop45
280
     0
102
RTVSPost2010PropOp45
 70
     1
102
RTVSPost2010Prop46
 90
       50
102
RTVSPost2010PropOp46
 70
     0
102
RTVSPost2010Prop47
 90
       50
102
RTVSPost2010PropOp47
 70
     0
102
RTVSPost2010Prop48
 90
       50
102
RTVSPost2010PropOp48
 70
     0
102
RTVSPost2010Prop49
280
     0
102
RTVSPost2010PropOp49
 70
     1
102
RTVSPost2010Prop50
 90
       50
102
RTVSPost2010PropOp50
 70
     0
102
RTVSPost2010Prop51ColorIndex
 90
      256
102
RTVSPost2010Prop51ColorRGB
 90
-16777216
102
RTVSPost2010PropOp51
 70
     0
102
RTVSPost2010Prop52
140
1.0
102
RTVSPost2010PropOp52
 70
     0
102
RTVSPost2010Prop53
 90
        2
102
RTVSPost2010PropOp53
 70
     0
102
RTVSPost2010Prop54
  1
strokes_ogs.tif
102
RTVSPost2010PropOp54
 70
     0
102
RTVSPost2010Prop55
280
     0
102
RTVSPost2010PropOp55
 70
     1
102
RTVSPost2010Prop56
140
1.0
102
RTVSPost2010PropOp56
 70
     0
102
RTVSPost2010Prop57
140
1.0
102
RTVSPost2010PropOp57
 70
     0
102
RTVSPropertyOp0
 70
     0
102
RTVSPropertyOp1
 70
     0
102
RTVSPropertyOp2
 70
     0
102
RTVSPropertyOp3
 70
     0
102
RTVSPropertyOp4
 70
     0
102
RTVSPropertyOp5
 70
     0
102
RTVSPropertyOp6
 70
     0
102
RTVSPropertyOp7
 70
     0
102
RTVSPropertyOp8
 70
     0
102
RTVSPropertyOp9
 70
     0
102
RTVSPropertyOp10
 70
     0
102
RTVSPropertyOp11
 70
     0
102
RTVSPropertyOp12
 70
     0
102
RTVSPropertyOp13
 70
     0
102
RTVSPropertyOp14
 70
     2
102
RTVSPropertyOp15
 70
     0
102
RTVSPropertyOp16
 70
     0
102
RTVSPropertyOp17
 70
     0
102
RTVSPropertyOp18
 70
     0
102
RTVSPropertyOp19
 70
     0
102
RTVSPropertyOp20
 70
     0
102
RTVSPropertyOp21
 70
     0
102
RTVSPropertyOp22
 70
     0
102
RTVSPropertyOp23
 70
     0
102
RTVSPropertyOp24
 70
     0
102
RTVSPropertyOp25
 70
     0
102
RTVSPropertyOp26
 70
     0
102
RTVSPropertyOp27
 70
     0
102
RTVSPropertyOp28
 70
     1
102
RTVSPropertyOp29
 70
     1
102
RTVSPropertyOp30
 70
     1
102
RTVSPropertyOp31
 70
     1
102
RTVSPropertyOp32
 70
     1
102
RTVSPropertyOp33
 70
     1
102
RTVSPropertyOp34
 70
     1
102
RTVSPropertyOp35
 70
     1
102
RTVSPropertyOp36
 70
     1
102
RTVSPropertyOp37
 70
     0
102
RTVSPropertyOp38
 70
     0
102
RTVSPropertyOp39
 70
     0
102
RTVSPropertyOp40
 70
     0
102
RTVSPropertyOp41
 70
     0
102
RTVSPropertyOp42
 70
     0
102
RTVSPropertyOp43
 70
     0
102
RTVSPropertyOp44
 70
     0
102
RTVSPropertyOp45
 70
     1
102
RTVSPropertyOp46
 70
     0
102
RTVSPropertyOp47
 70
     0
102
RTVSPropertyOp48
 70
     0
102
RTVSPropertyOp49
 70
     1
102
RTVSPropertyOp50
 70
     0
102
RTVSPropertyOp51
 70
     0
102
RTVSPropertyOp52
 70
     0
102
RTVSPropertyOp53
 70
     0
102
RTVSPropertyOp54
 70
     0
102
RTVSPropertyOp55
 70
     1
102
RTVSPropertyOp56
 70
     0
102
RTVSPropertyOp57
 70
     0
102
RTVSPropertyOp58
 70
     0
102
RTVSPropertyOp59
 70
     0
102
RTVSPropertyOp60
 70
     0
102
RTVSPropertyOp61
 70
     0
102
RTVSPropertyOp62
 70
     0
  0
XRECORD
  5
1A3DB
102
{ACAD_REACTORS
330
1A3DA
102
}
330
1A3DA
100
AcDbXrecord
280
     1
102
RTVSPost2010Prop28
280
     0
102
RTVSPost2010PropOp28
 70
     1
102
RTVSPost2010Prop29
280
     1
102
RTVSPost2010PropOp29
 70
     1
102
RTVSPost2010Prop30
280
     1
102
RTVSPost2010PropOp30
 70
     1
102
RTVSPost2010Prop31
280
     0
102
RTVSPost2010PropOp31
 70
     1
102
RTVSPost2010Prop32
280
     0
102
RTVSPost2010PropOp32
 70
     1
102
RTVSPost2010Prop33
280
     0
102
RTVSPost2010PropOp33
 70
     1
102
RTVSPost2010Prop34
280
     0
102
RTVSPost2010PropOp34
 70
     1
102
RTVSPost2010Prop35
280
     0
102
RTVSPost2010PropOp35
 70
     1
102
RTVSPost2010Prop36
280
     0
102
RTVSPost2010PropOp36
 70
     1
102
RTVSPost2010Prop37
 90
       50
102
RTVSPost2010PropOp37
 70
     1
102
RTVSPost2010Prop38
140
0.0
102
RTVSPost2010PropOp38
 70
     1
102
RTVSPost2010Prop39
140
1.0
102
RTVSPost2010PropOp39
 70
     1
102
RTVSPost2010Prop40
 90
        0
102
RTVSPost2010PropOp40
 70
     1
102
RTVSPost2010Prop41ColorIndex
 90
       18
102
RTVSPost2010Prop41ColorRGB
 90
        0
102
RTVSPost2010PropOp41
 70
     1
102
RTVSPost2010Prop42
 90
       50
102
RTVSPost2010PropOp42
 70
     1
102
RTVSPost2010Prop43
 90
        3
102
RTVSPost2010PropOp43
 70
     1
102
RTVSPost2010Prop44ColorIndex
 90
        5
102
RTVSPost2010Prop44ColorRGB
 90
      255
102
RTVSPost2010PropOp44
 70
     1
102
RTVSPost2010Prop45
280
     0
102
RTVSPost2010PropOp45
 70
     1
102
RTVSPost2010Prop46
 90
       50
102
RTVSPost2010PropOp46
 70
     1
102
RTVSPost2010Prop47
 90
       50
102
RTVSPost2010PropOp47
 70
     1
102
RTVSPost2010Prop48
 90
       50
102
RTVSPost2010PropOp48
 70
     1
102
RTVSPost2010Prop49
280
     0
102
RTVSPost2010PropOp49
 70
     1
102
RTVSPost2010Prop50
 90
       50
102
RTVSPost2010PropOp50
 70
     1
102
RTVSPost2010Prop51ColorIndex
 90
      256
102
RTVSPost2010Prop51ColorRGB
 90
-16777216
102
RTVSPost2010PropOp51
 70
     0
102
RTVSPost2010Prop52
140
1.0
102
RTVSPost2010PropOp52
 70
     0
102
RTVSPost2010Prop53
 90
        2
102
RTVSPost2010PropOp53
 70
     1
102
RTVSPost2010Prop54
  1
strokes_ogs.tif
102
RTVSPost2010PropOp54
 70
     1
102
RTVSPost2010Prop55
280
     0
102
RTVSPost2010PropOp55
 70
     1
102
RTVSPost2010Prop56
140
1.0
102
RTVSPost2010PropOp56
 70
     1
102
RTVSPost2010Prop57
140
1.0
102
RTVSPost2010PropOp57
 70
     1
102
RTVSPropertyOp0
 70
     1
102
RTVSPropertyOp1
 70
     1
102
RTVSPropertyOp2
 70
     1
102
RTVSPropertyOp3
 70
     1
102
RTVSPropertyOp4
 70
     1
102
RTVSPropertyOp5
 70
     1
102
RTVSPropertyOp6
 70
     1
102
RTVSPropertyOp7
 70
     1
102
RTVSPropertyOp8
 70
     1
102
RTVSPropertyOp9
 70
     1
102
RTVSPropertyOp10
 70
     1
102
RTVSPropertyOp11
 70
     1
102
RTVSPropertyOp12
 70
     1
102
RTVSPropertyOp13
 70
     1
102
RTVSPropertyOp14
 70
     1
102
RTVSPropertyOp15
 70
     1
102
RTVSPropertyOp16
 70
     1
102
RTVSPropertyOp17
 70
     1
102
RTVSPropertyOp18
 70
     1
102
RTVSPropertyOp19
 70
     1
102
RTVSPropertyOp20
 70
     1
102
RTVSPropertyOp21
 70
     1
102
RTVSPropertyOp22
 70
     1
102
RTVSPropertyOp23
 70
     1
102
RTVSPropertyOp24
 70
     1
102
RTVSPropertyOp25
 70
     1
102
RTVSPropertyOp26
 70
     1
102
RTVSPropertyOp27
 70
     1
102
RTVSPropertyOp28
 70
     1
102
RTVSPropertyOp29
 70
     1
102
RTVSPropertyOp30
 70
     1
102
RTVSPropertyOp31
 70
     1
102
RTVSPropertyOp32
 70
     1
102
RTVSPropertyOp33
 70
     1
102
RTVSPropertyOp34
 70
     1
102
RTVSPropertyOp35
 70
     1
102
RTVSPropertyOp36
 70
     1
102
RTVSPropertyOp37
 70
     1
102
RTVSPropertyOp38
 70
     1
102
RTVSPropertyOp39
 70
     1
102
RTVSPropertyOp40
 70
     1
102
RTVSPropertyOp41
 70
     1
102
RTVSPropertyOp42
 70
     1
102
RTVSPropertyOp43
 70
     1
102
RTVSPropertyOp44
 70
     1
102
RTVSPropertyOp45
 70
     1
102
RTVSPropertyOp46
 70
     1
102
RTVSPropertyOp47
 70
     1
102
RTVSPropertyOp48
 70
     1
102
RTVSPropertyOp49
 70
     1
102
RTVSPropertyOp50
 70
     1
102
RTVSPropertyOp51
 70
     0
102
RTVSPropertyOp52
 70
     0
102
RTVSPropertyOp53
 70
     1
102
RTVSPropertyOp54
 70
     1
102
RTVSPropertyOp55
 70
     1
102
RTVSPropertyOp56
 70
     1
102
RTVSPropertyOp57
 70
     1
102
RTVSPropertyOp58
 70
     1
102
RTVSPropertyOp59
 70
     1
102
RTVSPropertyOp60
 70
     1
102
RTVSPropertyOp61
 70
     1
102
RTVSPropertyOp62
 70
     1
  0
XRECORD
  5
1A3ED
102
{ACAD_REACTORS
330
1A3EC
102
}
330
1A3EC
100
AcDbXrecord
280
     1
102
RTVSPost2010Prop28
280
     0
102
RTVSPost2010PropOp28
 70
     1
102
RTVSPost2010Prop29
280
     1
102
RTVSPost2010PropOp29
 70
     1
102
RTVSPost2010Prop30
280
     1
102
RTVSPost2010PropOp30
 70
     1
102
RTVSPost2010Prop31
280
     0
102
RTVSPost2010PropOp31
 70
     1
102
RTVSPost2010Prop32
280
     0
102
RTVSPost2010PropOp32
 70
     1
102
RTVSPost2010Prop33
280
     0
102
RTVSPost2010PropOp33
 70
     1
102
RTVSPost2010Prop34
280
     0
102
RTVSPost2010PropOp34
 70
     1
102
RTVSPost2010Prop35
280
     0
102
RTVSPost2010PropOp35
 70
     1
102
RTVSPost2010Prop36
280
     0
102
RTVSPost2010PropOp36
 70
     1
102
RTVSPost2010Prop37
 90
       50
102
RTVSPost2010PropOp37
 70
     0
102
RTVSPost2010Prop38
140
0.0
102
RTVSPost2010PropOp38
 70
     0
102
RTVSPost2010Prop39
140
1.0
102
RTVSPost2010PropOp39
 70
     0
102
RTVSPost2010Prop40
 90
        0
102
RTVSPost2010PropOp40
 70
     0
102
RTVSPost2010Prop41ColorIndex
 90
       18
102
RTVSPost2010Prop41ColorRGB
 90
        0
102
RTVSPost2010PropOp41
 70
     0
102
RTVSPost2010Prop42
 90
       50
102
RTVSPost2010PropOp42
 70
     0
102
RTVSPost2010Prop43
 90
        3
102
RTVSPost2010PropOp43
 70
     0
102
RTVSPost2010Prop44ColorIndex
 90
        5
102
RTVSPost2010Prop44ColorRGB
 90
      255
102
RTVSPost2010PropOp44
 70
     0
102
RTVSPost2010Prop45
280
     0
102
RTVSPost2010PropOp45
 70
     1
102
RTVSPost2010Prop46
 90
       50
102
RTVSPost2010PropOp46
 70
     0
102
RTVSPost2010Prop47
 90
       50
102
RTVSPost2010PropOp47
 70
     0
102
RTVSPost2010Prop48
 90
       50
102
RTVSPost2010PropOp48
 70
     0
102
RTVSPost2010Prop49
280
     0
102
RTVSPost2010PropOp49
 70
     1
102
RTVSPost2010Prop50
 90
       50
102
RTVSPost2010PropOp50
 70
     0
102
RTVSPost2010Prop51ColorIndex
 90
      256
102
RTVSPost2010Prop51ColorRGB
 90
-16777216
102
RTVSPost2010PropOp51
 70
     0
102
RTVSPost2010Prop52
140
1.0
102
RTVSPost2010PropOp52
 70
     0
102
RTVSPost2010Prop53
 90
        2
102
RTVSPost2010PropOp53
 70
     0
102
RTVSPost2010Prop54
  1
strokes_ogs.tif
102
RTVSPost2010PropOp54
 70
     0
102
RTVSPost2010Prop55
280
     0
102
RTVSPost2010PropOp55
 70
     1
102
RTVSPost2010Prop56
140
1.0
102
RTVSPost2010PropOp56
 70
     0
102
RTVSPost2010Prop57
140
1.0
102
RTVSPost2010PropOp57
 70
     0
102
RTVSPropertyOp0
 70
     0
102
RTVSPropertyOp1
 70
     0
102
RTVSPropertyOp2
 70
     0
102
RTVSPropertyOp3
 70
     0
102
RTVSPropertyOp4
 70
     0
102
RTVSPropertyOp5
 70
     0
102
RTVSPropertyOp6
 70
     0
102
RTVSPropertyOp7
 70
     0
102
RTVSPropertyOp8
 70
     0
102
RTVSPropertyOp9
 70
     0
102
RTVSPropertyOp10
 70
     0
102
RTVSPropertyOp11
 70
     0
102
RTVSPropertyOp12
 70
     0
102
RTVSPropertyOp13
 70
     0
102
RTVSPropertyOp14
 70
     2
102
RTVSPropertyOp15
 70
     0
102
RTVSPropertyOp16
 70
     0
102
RTVSPropertyOp17
 70
     0
102
RTVSPropertyOp18
 70
     0
102
RTVSPropertyOp19
 70
     0
102
RTVSPropertyOp20
 70
     0
102
RTVSPropertyOp21
 70
     0
102
RTVSPropertyOp22
 70
     0
102
RTVSPropertyOp23
 70
     0
102
RTVSPropertyOp24
 70
     0
102
RTVSPropertyOp25
 70
     0
102
RTVSPropertyOp26
 70
     0
102
RTVSPropertyOp27
 70
     0
102
RTVSPropertyOp28
 70
     1
102
RTVSPropertyOp29
 70
     1
102
RTVSPropertyOp30
 70
     1
102
RTVSPropertyOp31
 70
     1
102
RTVSPropertyOp32
 70
     1
102
RTVSPropertyOp33
 70
     1
102
RTVSPropertyOp34
 70
     1
102
RTVSPropertyOp35
 70
     1
102
RTVSPropertyOp36
 70
     1
102
RTVSPropertyOp37
 70
     0
102
RTVSPropertyOp38
 70
     0
102
RTVSPropertyOp39
 70
     0
102
RTVSPropertyOp40
 70
     0
102
RTVSPropertyOp41
 70
     0
102
RTVSPropertyOp42
 70
     0
102
RTVSPropertyOp43
 70
     0
102
RTVSPropertyOp44
 70
     0
102
RTVSPropertyOp45
 70
     1
102
RTVSPropertyOp46
 70
     0
102
RTVSPropertyOp47
 70
     0
102
RTVSPropertyOp48
 70
     0
102
RTVSPropertyOp49
 70
     1
102
RTVSPropertyOp50
 70
     0
102
RTVSPropertyOp51
 70
     0
102
RTVSPropertyOp52
 70
     0
102
RTVSPropertyOp53
 70
     0
102
RTVSPropertyOp54
 70
     0
102
RTVSPropertyOp55
 70
     1
102
RTVSPropertyOp56
 70
     0
102
RTVSPropertyOp57
 70
     0
102
RTVSPropertyOp58
 70
     0
102
RTVSPropertyOp59
 70
     0
102
RTVSPropertyOp60
 70
     0
102
RTVSPropertyOp61
 70
     0
102
RTVSPropertyOp62
 70
     0
  0
XRECORD
  5
1A3D3
102
{ACAD_REACTORS
330
1A3D2
102
}
330
1A3D2
100
AcDbXrecord
280
     1
102
RTVSPost2010Prop28
280
     0
102
RTVSPost2010PropOp28
 70
     1
102
RTVSPost2010Prop29
280
     1
102
RTVSPost2010PropOp29
 70
     1
102
RTVSPost2010Prop30
280
     1
102
RTVSPost2010PropOp30
 70
     1
102
RTVSPost2010Prop31
280
     0
102
RTVSPost2010PropOp31
 70
     1
102
RTVSPost2010Prop32
280
     0
102
RTVSPost2010PropOp32
 70
     1
102
RTVSPost2010Prop33
280
     0
102
RTVSPost2010PropOp33
 70
     1
102
RTVSPost2010Prop34
280
     0
102
RTVSPost2010PropOp34
 70
     1
102
RTVSPost2010Prop35
280
     0
102
RTVSPost2010PropOp35
 70
     1
102
RTVSPost2010Prop36
280
     0
102
RTVSPost2010PropOp36
 70
     1
102
RTVSPost2010Prop37
 90
       50
102
RTVSPost2010PropOp37
 70
     1
102
RTVSPost2010Prop38
140
0.0
102
RTVSPost2010PropOp38
 70
     1
102
RTVSPost2010Prop39
140
1.0
102
RTVSPost2010PropOp39
 70
     1
102
RTVSPost2010Prop40
 90
        0
102
RTVSPost2010PropOp40
 70
     1
102
RTVSPost2010Prop41ColorIndex
 90
       18
102
RTVSPost2010Prop41ColorRGB
 90
        0
102
RTVSPost2010PropOp41
 70
     1
102
RTVSPost2010Prop42
 90
       50
102
RTVSPost2010PropOp42
 70
     1
102
RTVSPost2010Prop43
 90
        3
102
RTVSPost2010PropOp43
 70
     1
102
RTVSPost2010Prop44ColorIndex
 90
        5
102
RTVSPost2010Prop44ColorRGB
 90
      255
102
RTVSPost2010PropOp44
 70
     1
102
RTVSPost2010Prop45
280
     0
102
RTVSPost2010PropOp45
 70
     1
102
RTVSPost2010Prop46
 90
       50
102
RTVSPost2010PropOp46
 70
     1
102
RTVSPost2010Prop47
 90
       50
102
RTVSPost2010PropOp47
 70
     1
102
RTVSPost2010Prop48
 90
       50
102
RTVSPost2010PropOp48
 70
     1
102
RTVSPost2010Prop49
280
     0
102
RTVSPost2010PropOp49
 70
     1
102
RTVSPost2010Prop50
 90
       50
102
RTVSPost2010PropOp50
 70
     1
102
RTVSPost2010Prop51ColorIndex
 90
      256
102
RTVSPost2010Prop51ColorRGB
 90
-16777216
102
RTVSPost2010PropOp51
 70
     0
102
RTVSPost2010Prop52
140
1.0
102
RTVSPost2010PropOp52
 70
     0
102
RTVSPost2010Prop53
 90
        2
102
RTVSPost2010PropOp53
 70
     1
102
RTVSPost2010Prop54
  1
strokes_ogs.tif
102
RTVSPost2010PropOp54
 70
     1
102
RTVSPost2010Prop55
280
     0
102
RTVSPost2010PropOp55
 70
     1
102
RTVSPost2010Prop56
140
1.0
102
RTVSPost2010PropOp56
 70
     1
102
RTVSPost2010Prop57
140
1.0
102
RTVSPost2010PropOp57
 70
     1
102
RTVSPropertyOp0
 70
     1
102
RTVSPropertyOp1
 70
     1
102
RTVSPropertyOp2
 70
     1
102
RTVSPropertyOp3
 70
     1
102
RTVSPropertyOp4
 70
     1
102
RTVSPropertyOp5
 70
     1
102
RTVSPropertyOp6
 70
     1
102
RTVSPropertyOp7
 70
     1
102
RTVSPropertyOp8
 70
     1
102
RTVSPropertyOp9
 70
     1
102
RTVSPropertyOp10
 70
     1
102
RTVSPropertyOp11
 70
     1
102
RTVSPropertyOp12
 70
     1
102
RTVSPropertyOp13
 70
     1
102
RTVSPropertyOp14
 70
     1
102
RTVSPropertyOp15
 70
     1
102
RTVSPropertyOp16
 70
     1
102
RTVSPropertyOp17
 70
     1
102
RTVSPropertyOp18
 70
     1
102
RTVSPropertyOp19
 70
     1
102
RTVSPropertyOp20
 70
     1
102
RTVSPropertyOp21
 70
     1
102
RTVSPropertyOp22
 70
     1
102
RTVSPropertyOp23
 70
     1
102
RTVSPropertyOp24
 70
     1
102
RTVSPropertyOp25
 70
     1
102
RTVSPropertyOp26
 70
     1
102
RTVSPropertyOp27
 70
     1
102
RTVSPropertyOp28
 70
     1
102
RTVSPropertyOp29
 70
     1
102
RTVSPropertyOp30
 70
     1
102
RTVSPropertyOp31
 70
     1
102
RTVSPropertyOp32
 70
     1
102
RTVSPropertyOp33
 70
     1
102
RTVSPropertyOp34
 70
     1
102
RTVSPropertyOp35
 70
     1
102
RTVSPropertyOp36
 70
     1
102
RTVSPropertyOp37
 70
     1
102
RTVSPropertyOp38
 70
     1
102
RTVSPropertyOp39
 70
     1
102
RTVSPropertyOp40
 70
     1
102
RTVSPropertyOp41
 70
     1
102
RTVSPropertyOp42
 70
     1
102
RTVSPropertyOp43
 70
     1
102
RTVSPropertyOp44
 70
     1
102
RTVSPropertyOp45
 70
     1
102
RTVSPropertyOp46
 70
     1
102
RTVSPropertyOp47
 70
     1
102
RTVSPropertyOp48
 70
     1
102
RTVSPropertyOp49
 70
     1
102
RTVSPropertyOp50
 70
     1
102
RTVSPropertyOp51
 70
     0
102
RTVSPropertyOp52
 70
     0
102
RTVSPropertyOp53
 70
     1
102
RTVSPropertyOp54
 70
     1
102
RTVSPropertyOp55
 70
     1
102
RTVSPropertyOp56
 70
     1
102
RTVSPropertyOp57
 70
     1
102
RTVSPropertyOp58
 70
     1
102
RTVSPropertyOp59
 70
     1
102
RTVSPropertyOp60
 70
     1
102
RTVSPropertyOp61
 70
     1
102
RTVSPropertyOp62
 70
     1
  0
XRECORD
  5
1A3E9
102
{ACAD_REACTORS
330
1A3E8
102
}
330
1A3E8
100
AcDbXrecord
280
     1
102
RTVSPost2010Prop28
280
     0
102
RTVSPost2010PropOp28
 70
     1
102
RTVSPost2010Prop29
280
     1
102
RTVSPost2010PropOp29
 70
     1
102
RTVSPost2010Prop30
280
     1
102
RTVSPost2010PropOp30
 70
     1
102
RTVSPost2010Prop31
280
     0
102
RTVSPost2010PropOp31
 70
     1
102
RTVSPost2010Prop32
280
     0
102
RTVSPost2010PropOp32
 70
     1
102
RTVSPost2010Prop33
280
     0
102
RTVSPost2010PropOp33
 70
     1
102
RTVSPost2010Prop34
280
     0
102
RTVSPost2010PropOp34
 70
     1
102
RTVSPost2010Prop35
280
     0
102
RTVSPost2010PropOp35
 70
     1
102
RTVSPost2010Prop36
280
     0
102
RTVSPost2010PropOp36
 70
     1
102
RTVSPost2010Prop37
 90
       50
102
RTVSPost2010PropOp37
 70
     1
102
RTVSPost2010Prop38
140
0.0
102
RTVSPost2010PropOp38
 70
     1
102
RTVSPost2010Prop39
140
1.0
102
RTVSPost2010PropOp39
 70
     1
102
RTVSPost2010Prop40
 90
        0
102
RTVSPost2010PropOp40
 70
     1
102
RTVSPost2010Prop41ColorIndex
 90
       18
102
RTVSPost2010Prop41ColorRGB
 90
        0
102
RTVSPost2010PropOp41
 70
     1
102
RTVSPost2010Prop42
 90
       50
102
RTVSPost2010PropOp42
 70
     1
102
RTVSPost2010Prop43
 90
        3
102
RTVSPost2010PropOp43
 70
     1
102
RTVSPost2010Prop44ColorIndex
 90
        5
102
RTVSPost2010Prop44ColorRGB
 90
      255
102
RTVSPost2010PropOp44
 70
     1
102
RTVSPost2010Prop45
280
     0
102
RTVSPost2010PropOp45
 70
     1
102
RTVSPost2010Prop46
 90
       50
102
RTVSPost2010PropOp46
 70
     1
102
RTVSPost2010Prop47
 90
       50
102
RTVSPost2010PropOp47
 70
     1
102
RTVSPost2010Prop48
 90
       50
102
RTVSPost2010PropOp48
 70
     1
102
RTVSPost2010Prop49
280
     0
102
RTVSPost2010PropOp49
 70
     1
102
RTVSPost2010Prop50
 90
       50
102
RTVSPost2010PropOp50
 70
     1
102
RTVSPost2010Prop51ColorIndex
 90
      256
102
RTVSPost2010Prop51ColorRGB
 90
-16777216
102
RTVSPost2010PropOp51
 70
     0
102
RTVSPost2010Prop52
140
1.0
102
RTVSPost2010PropOp52
 70
     0
102
RTVSPost2010Prop53
 90
        2
102
RTVSPost2010PropOp53
 70
     1
102
RTVSPost2010Prop54
  1
strokes_ogs.tif
102
RTVSPost2010PropOp54
 70
     1
102
RTVSPost2010Prop55
280
     0
102
RTVSPost2010PropOp55
 70
     1
102
RTVSPost2010Prop56
140
1.0
102
RTVSPost2010PropOp56
 70
     1
102
RTVSPost2010Prop57
140
1.0
102
RTVSPost2010PropOp57
 70
     1
102
RTVSPropertyOp0
 70
     1
102
RTVSPropertyOp1
 70
     1
102
RTVSPropertyOp2
 70
     1
102
RTVSPropertyOp3
 70
     1
102
RTVSPropertyOp4
 70
     1
102
RTVSPropertyOp5
 70
     1
102
RTVSPropertyOp6
 70
     1
102
RTVSPropertyOp7
 70
     1
102
RTVSPropertyOp8
 70
     1
102
RTVSPropertyOp9
 70
     1
102
RTVSPropertyOp10
 70
     1
102
RTVSPropertyOp11
 70
     1
102
RTVSPropertyOp12
 70
     1
102
RTVSPropertyOp13
 70
     1
102
RTVSPropertyOp14
 70
     1
102
RTVSPropertyOp15
 70
     1
102
RTVSPropertyOp16
 70
     1
102
RTVSPropertyOp17
 70
     1
102
RTVSPropertyOp18
 70
     1
102
RTVSPropertyOp19
 70
     1
102
RTVSPropertyOp20
 70
     1
102
RTVSPropertyOp21
 70
     1
102
RTVSPropertyOp22
 70
     1
102
RTVSPropertyOp23
 70
     1
102
RTVSPropertyOp24
 70
     1
102
RTVSPropertyOp25
 70
     1
102
RTVSPropertyOp26
 70
     1
102
RTVSPropertyOp27
 70
     1
102
RTVSPropertyOp28
 70
     1
102
RTVSPropertyOp29
 70
     1
102
RTVSPropertyOp30
 70
     1
102
RTVSPropertyOp31
 70
     1
102
RTVSPropertyOp32
 70
     1
102
RTVSPropertyOp33
 70
     1
102
RTVSPropertyOp34
 70
     1
102
RTVSPropertyOp35
 70
     1
102
RTVSPropertyOp36
 70
     1
102
RTVSPropertyOp37
 70
     1
102
RTVSPropertyOp38
 70
     1
102
RTVSPropertyOp39
 70
     1
102
RTVSPropertyOp40
 70
     1
102
RTVSPropertyOp41
 70
     1
102
RTVSPropertyOp42
 70
     1
102
RTVSPropertyOp43
 70
     1
102
RTVSPropertyOp44
 70
     1
102
RTVSPropertyOp45
 70
     1
102
RTVSPropertyOp46
 70
     1
102
RTVSPropertyOp47
 70
     1
102
RTVSPropertyOp48
 70
     1
102
RTVSPropertyOp49
 70
     1
102
RTVSPropertyOp50
 70
     1
102
RTVSPropertyOp51
 70
     0
102
RTVSPropertyOp52
 70
     0
102
RTVSPropertyOp53
 70
     1
102
RTVSPropertyOp54
 70
     1
102
RTVSPropertyOp55
 70
     1
102
RTVSPropertyOp56
 70
     1
102
RTVSPropertyOp57
 70
     1
102
RTVSPropertyOp58
 70
     1
102
RTVSPropertyOp59
 70
     1
102
RTVSPropertyOp60
 70
     1
102
RTVSPropertyOp61
 70
     1
102
RTVSPropertyOp62
 70
     1
  0
XRECORD
  5
1A3E7
102
{ACAD_REACTORS
330
1A3E6
102
}
330
1A3E6
100
AcDbXrecord
280
     1
102
RTVSPost2010Prop28
280
     0
102
RTVSPost2010PropOp28
 70
     1
102
RTVSPost2010Prop29
280
     1
102
RTVSPost2010PropOp29
 70
     1
102
RTVSPost2010Prop30
280
     1
102
RTVSPost2010PropOp30
 70
     1
102
RTVSPost2010Prop31
280
     0
102
RTVSPost2010PropOp31
 70
     1
102
RTVSPost2010Prop32
280
     0
102
RTVSPost2010PropOp32
 70
     1
102
RTVSPost2010Prop33
280
     0
102
RTVSPost2010PropOp33
 70
     1
102
RTVSPost2010Prop34
280
     0
102
RTVSPost2010PropOp34
 70
     1
102
RTVSPost2010Prop35
280
     0
102
RTVSPost2010PropOp35
 70
     1
102
RTVSPost2010Prop36
280
     0
102
RTVSPost2010PropOp36
 70
     1
102
RTVSPost2010Prop37
 90
       50
102
RTVSPost2010PropOp37
 70
     1
102
RTVSPost2010Prop38
140
0.0
102
RTVSPost2010PropOp38
 70
     1
102
RTVSPost2010Prop39
140
1.0
102
RTVSPost2010PropOp39
 70
     1
102
RTVSPost2010Prop40
 90
        0
102
RTVSPost2010PropOp40
 70
     1
102
RTVSPost2010Prop41ColorIndex
 90
       18
102
RTVSPost2010Prop41ColorRGB
 90
        0
102
RTVSPost2010PropOp41
 70
     1
102
RTVSPost2010Prop42
 90
       50
102
RTVSPost2010PropOp42
 70
     1
102
RTVSPost2010Prop43
 90
        3
102
RTVSPost2010PropOp43
 70
     1
102
RTVSPost2010Prop44ColorIndex
 90
        5
102
RTVSPost2010Prop44ColorRGB
 90
      255
102
RTVSPost2010PropOp44
 70
     1
102
RTVSPost2010Prop45
280
     0
102
RTVSPost2010PropOp45
 70
     1
102
RTVSPost2010Prop46
 90
       50
102
RTVSPost2010PropOp46
 70
     1
102
RTVSPost2010Prop47
 90
       50
102
RTVSPost2010PropOp47
 70
     1
102
RTVSPost2010Prop48
 90
       50
102
RTVSPost2010PropOp48
 70
     1
102
RTVSPost2010Prop49
280
     0
102
RTVSPost2010PropOp49
 70
     1
102
RTVSPost2010Prop50
 90
       50
102
RTVSPost2010PropOp50
 70
     1
102
RTVSPost2010Prop51ColorIndex
 90
      256
102
RTVSPost2010Prop51ColorRGB
 90
-16777216
102
RTVSPost2010PropOp51
 70
     0
102
RTVSPost2010Prop52
140
1.0
102
RTVSPost2010PropOp52
 70
     0
102
RTVSPost2010Prop53
 90
        2
102
RTVSPost2010PropOp53
 70
     1
102
RTVSPost2010Prop54
  1
strokes_ogs.tif
102
RTVSPost2010PropOp54
 70
     1
102
RTVSPost2010Prop55
280
     0
102
RTVSPost2010PropOp55
 70
     1
102
RTVSPost2010Prop56
140
1.0
102
RTVSPost2010PropOp56
 70
     1
102
RTVSPost2010Prop57
140
1.0
102
RTVSPost2010PropOp57
 70
     1
102
RTVSPropertyOp0
 70
     1
102
RTVSPropertyOp1
 70
     1
102
RTVSPropertyOp2
 70
     1
102
RTVSPropertyOp3
 70
     1
102
RTVSPropertyOp4
 70
     1
102
RTVSPropertyOp5
 70
     1
102
RTVSPropertyOp6
 70
     1
102
RTVSPropertyOp7
 70
     1
102
RTVSPropertyOp8
 70
     1
102
RTVSPropertyOp9
 70
     1
102
RTVSPropertyOp10
 70
     1
102
RTVSPropertyOp11
 70
     1
102
RTVSPropertyOp12
 70
     1
102
RTVSPropertyOp13
 70
     1
102
RTVSPropertyOp14
 70
     1
102
RTVSPropertyOp15
 70
     1
102
RTVSPropertyOp16
 70
     1
102
RTVSPropertyOp17
 70
     1
102
RTVSPropertyOp18
 70
     1
102
RTVSPropertyOp19
 70
     1
102
RTVSPropertyOp20
 70
     1
102
RTVSPropertyOp21
 70
     1
102
RTVSPropertyOp22
 70
     1
102
RTVSPropertyOp23
 70
     1
102
RTVSPropertyOp24
 70
     1
102
RTVSPropertyOp25
 70
     1
102
RTVSPropertyOp26
 70
     1
102
RTVSPropertyOp27
 70
     1
102
RTVSPropertyOp28
 70
     1
102
RTVSPropertyOp29
 70
     1
102
RTVSPropertyOp30
 70
     1
102
RTVSPropertyOp31
 70
     1
102
RTVSPropertyOp32
 70
     1
102
RTVSPropertyOp33
 70
     1
102
RTVSPropertyOp34
 70
     1
102
RTVSPropertyOp35
 70
     1
102
RTVSPropertyOp36
 70
     1
102
RTVSPropertyOp37
 70
     1
102
RTVSPropertyOp38
 70
     1
102
RTVSPropertyOp39
 70
     1
102
RTVSPropertyOp40
 70
     1
102
RTVSPropertyOp41
 70
     1
102
RTVSPropertyOp42
 70
     1
102
RTVSPropertyOp43
 70
     1
102
RTVSPropertyOp44
 70
     1
102
RTVSPropertyOp45
 70
     1
102
RTVSPropertyOp46
 70
     1
102
RTVSPropertyOp47
 70
     1
102
RTVSPropertyOp48
 70
     1
102
RTVSPropertyOp49
 70
     1
102
RTVSPropertyOp50
 70
     1
102
RTVSPropertyOp51
 70
     0
102
RTVSPropertyOp52
 70
     0
102
RTVSPropertyOp53
 70
     1
102
RTVSPropertyOp54
 70
     1
102
RTVSPropertyOp55
 70
     1
102
RTVSPropertyOp56
 70
     1
102
RTVSPropertyOp57
 70
     1
102
RTVSPropertyOp58
 70
     1
102
RTVSPropertyOp59
 70
     1
102
RTVSPropertyOp60
 70
     1
102
RTVSPropertyOp61
 70
     1
102
RTVSPropertyOp62
 70
     1
  0
XRECORD
  5
1A3E1
102
{ACAD_REACTORS
330
1A3E0
102
}
330
1A3E0
100
AcDbXrecord
280
     1
102
RTVSPost2010Prop28
280
     0
102
RTVSPost2010PropOp28
 70
     1
102
RTVSPost2010Prop29
280
     1
102
RTVSPost2010PropOp29
 70
     1
102
RTVSPost2010Prop30
280
     1
102
RTVSPost2010PropOp30
 70
     1
102
RTVSPost2010Prop31
280
     0
102
RTVSPost2010PropOp31
 70
     1
102
RTVSPost2010Prop32
280
     0
102
RTVSPost2010PropOp32
 70
     1
102
RTVSPost2010Prop33
280
     0
102
RTVSPost2010PropOp33
 70
     1
102
RTVSPost2010Prop34
280
     0
102
RTVSPost2010PropOp34
 70
     1
102
RTVSPost2010Prop35
280
     0
102
RTVSPost2010PropOp35
 70
     1
102
RTVSPost2010Prop36
280
     0
102
RTVSPost2010PropOp36
 70
     1
102
RTVSPost2010Prop37
 90
       50
102
RTVSPost2010PropOp37
 70
     1
102
RTVSPost2010Prop38
140
0.0
102
RTVSPost2010PropOp38
 70
     1
102
RTVSPost2010Prop39
140
1.0
102
RTVSPost2010PropOp39
 70
     1
102
RTVSPost2010Prop40
 90
        0
102
RTVSPost2010PropOp40
 70
     1
102
RTVSPost2010Prop41ColorIndex
 90
       18
102
RTVSPost2010Prop41ColorRGB
 90
        0
102
RTVSPost2010PropOp41
 70
     1
102
RTVSPost2010Prop42
 90
       50
102
RTVSPost2010PropOp42
 70
     1
102
RTVSPost2010Prop43
 90
        3
102
RTVSPost2010PropOp43
 70
     1
102
RTVSPost2010Prop44ColorIndex
 90
        5
102
RTVSPost2010Prop44ColorRGB
 90
      255
102
RTVSPost2010PropOp44
 70
     1
102
RTVSPost2010Prop45
280
     0
102
RTVSPost2010PropOp45
 70
     1
102
RTVSPost2010Prop46
 90
       50
102
RTVSPost2010PropOp46
 70
     1
102
RTVSPost2010Prop47
 90
       50
102
RTVSPost2010PropOp47
 70
     1
102
RTVSPost2010Prop48
 90
       50
102
RTVSPost2010PropOp48
 70
     1
102
RTVSPost2010Prop49
280
     0
102
RTVSPost2010PropOp49
 70
     1
102
RTVSPost2010Prop50
 90
       50
102
RTVSPost2010PropOp50
 70
     1
102
RTVSPost2010Prop51ColorIndex
 90
      256
102
RTVSPost2010Prop51ColorRGB
 90
-16777216
102
RTVSPost2010PropOp51
 70
     0
102
RTVSPost2010Prop52
140
1.0
102
RTVSPost2010PropOp52
 70
     0
102
RTVSPost2010Prop53
 90
        2
102
RTVSPost2010PropOp53
 70
     1
102
RTVSPost2010Prop54
  1
strokes_ogs.tif
102
RTVSPost2010PropOp54
 70
     1
102
RTVSPost2010Prop55
280
     0
102
RTVSPost2010PropOp55
 70
     1
102
RTVSPost2010Prop56
140
1.0
102
RTVSPost2010PropOp56
 70
     1
102
RTVSPost2010Prop57
140
1.0
102
RTVSPost2010PropOp57
 70
     1
102
RTVSPropertyOp0
 70
     1
102
RTVSPropertyOp1
 70
     1
102
RTVSPropertyOp2
 70
     1
102
RTVSPropertyOp3
 70
     1
102
RTVSPropertyOp4
 70
     1
102
RTVSPropertyOp5
 70
     1
102
RTVSPropertyOp6
 70
     1
102
RTVSPropertyOp7
 70
     1
102
RTVSPropertyOp8
 70
     1
102
RTVSPropertyOp9
 70
     1
102
RTVSPropertyOp10
 70
     1
102
RTVSPropertyOp11
 70
     1
102
RTVSPropertyOp12
 70
     1
102
RTVSPropertyOp13
 70
     1
102
RTVSPropertyOp14
 70
     1
102
RTVSPropertyOp15
 70
     1
102
RTVSPropertyOp16
 70
     1
102
RTVSPropertyOp17
 70
     1
102
RTVSPropertyOp18
 70
     1
102
RTVSPropertyOp19
 70
     1
102
RTVSPropertyOp20
 70
     1
102
RTVSPropertyOp21
 70
     1
102
RTVSPropertyOp22
 70
     1
102
RTVSPropertyOp23
 70
     1
102
RTVSPropertyOp24
 70
     1
102
RTVSPropertyOp25
 70
     1
102
RTVSPropertyOp26
 70
     1
102
RTVSPropertyOp27
 70
     1
102
RTVSPropertyOp28
 70
     1
102
RTVSPropertyOp29
 70
     1
102
RTVSPropertyOp30
 70
     1
102
RTVSPropertyOp31
 70
     1
102
RTVSPropertyOp32
 70
     1
102
RTVSPropertyOp33
 70
     1
102
RTVSPropertyOp34
 70
     1
102
RTVSPropertyOp35
 70
     1
102
RTVSPropertyOp36
 70
     1
102
RTVSPropertyOp37
 70
     1
102
RTVSPropertyOp38
 70
     1
102
RTVSPropertyOp39
 70
     1
102
RTVSPropertyOp40
 70
     1
102
RTVSPropertyOp41
 70
     1
102
RTVSPropertyOp42
 70
     1
102
RTVSPropertyOp43
 70
     1
102
RTVSPropertyOp44
 70
     1
102
RTVSPropertyOp45
 70
     1
102
RTVSPropertyOp46
 70
     1
102
RTVSPropertyOp47
 70
     1
102
RTVSPropertyOp48
 70
     1
102
RTVSPropertyOp49
 70
     1
102
RTVSPropertyOp50
 70
     1
102
RTVSPropertyOp51
 70
     0
102
RTVSPropertyOp52
 70
     0
102
RTVSPropertyOp53
 70
     1
102
RTVSPropertyOp54
 70
     1
102
RTVSPropertyOp55
 70
     1
102
RTVSPropertyOp56
 70
     1
102
RTVSPropertyOp57
 70
     1
102
RTVSPropertyOp58
 70
     1
102
RTVSPropertyOp59
 70
     1
102
RTVSPropertyOp60
 70
     1
102
RTVSPropertyOp61
 70
     1
102
RTVSPropertyOp62
 70
     1
  0
XRECORD
  5
1A3E3
102
{ACAD_REACTORS
330
1A3E2
102
}
330
1A3E2
100
AcDbXrecord
280
     1
102
RTVSPost2010Prop28
280
     0
102
RTVSPost2010PropOp28
 70
     1
102
RTVSPost2010Prop29
280
     1
102
RTVSPost2010PropOp29
 70
     1
102
RTVSPost2010Prop30
280
     1
102
RTVSPost2010PropOp30
 70
     1
102
RTVSPost2010Prop31
280
     0
102
RTVSPost2010PropOp31
 70
     1
102
RTVSPost2010Prop32
280
     0
102
RTVSPost2010PropOp32
 70
     1
102
RTVSPost2010Prop33
280
     0
102
RTVSPost2010PropOp33
 70
     1
102
RTVSPost2010Prop34
280
     0
102
RTVSPost2010PropOp34
 70
     1
102
RTVSPost2010Prop35
280
     0
102
RTVSPost2010PropOp35
 70
     1
102
RTVSPost2010Prop36
280
     0
102
RTVSPost2010PropOp36
 70
     1
102
RTVSPost2010Prop37
 90
       50
102
RTVSPost2010PropOp37
 70
     1
102
RTVSPost2010Prop38
140
0.0
102
RTVSPost2010PropOp38
 70
     1
102
RTVSPost2010Prop39
140
1.0
102
RTVSPost2010PropOp39
 70
     1
102
RTVSPost2010Prop40
 90
        0
102
RTVSPost2010PropOp40
 70
     1
102
RTVSPost2010Prop41ColorIndex
 90
       18
102
RTVSPost2010Prop41ColorRGB
 90
        0
102
RTVSPost2010PropOp41
 70
     1
102
RTVSPost2010Prop42
 90
       50
102
RTVSPost2010PropOp42
 70
     1
102
RTVSPost2010Prop43
 90
        3
102
RTVSPost2010PropOp43
 70
     1
102
RTVSPost2010Prop44ColorIndex
 90
        5
102
RTVSPost2010Prop44ColorRGB
 90
      255
102
RTVSPost2010PropOp44
 70
     1
102
RTVSPost2010Prop45
280
     0
102
RTVSPost2010PropOp45
 70
     1
102
RTVSPost2010Prop46
 90
       50
102
RTVSPost2010PropOp46
 70
     1
102
RTVSPost2010Prop47
 90
       50
102
RTVSPost2010PropOp47
 70
     1
102
RTVSPost2010Prop48
 90
       50
102
RTVSPost2010PropOp48
 70
     1
102
RTVSPost2010Prop49
280
     0
102
RTVSPost2010PropOp49
 70
     1
102
RTVSPost2010Prop50
 90
       50
102
RTVSPost2010PropOp50
 70
     1
102
RTVSPost2010Prop51ColorIndex
 90
      256
102
RTVSPost2010Prop51ColorRGB
 90
-16777216
102
RTVSPost2010PropOp51
 70
     0
102
RTVSPost2010Prop52
140
1.0
102
RTVSPost2010PropOp52
 70
     0
102
RTVSPost2010Prop53
 90
        2
102
RTVSPost2010PropOp53
 70
     1
102
RTVSPost2010Prop54
  1
strokes_ogs.tif
102
RTVSPost2010PropOp54
 70
     1
102
RTVSPost2010Prop55
280
     0
102
RTVSPost2010PropOp55
 70
     1
102
RTVSPost2010Prop56
140
1.0
102
RTVSPost2010PropOp56
 70
     1
102
RTVSPost2010Prop57
140
1.0
102
RTVSPost2010PropOp57
 70
     1
102
RTVSPropertyOp0
 70
     1
102
RTVSPropertyOp1
 70
     1
102
RTVSPropertyOp2
 70
     1
102
RTVSPropertyOp3
 70
     1
102
RTVSPropertyOp4
 70
     1
102
RTVSPropertyOp5
 70
     1
102
RTVSPropertyOp6
 70
     1
102
RTVSPropertyOp7
 70
     1
102
RTVSPropertyOp8
 70
     1
102
RTVSPropertyOp9
 70
     1
102
RTVSPropertyOp10
 70
     1
102
RTVSPropertyOp11
 70
     1
102
RTVSPropertyOp12
 70
     1
102
RTVSPropertyOp13
 70
     1
102
RTVSPropertyOp14
 70
     1
102
RTVSPropertyOp15
 70
     1
102
RTVSPropertyOp16
 70
     1
102
RTVSPropertyOp17
 70
     1
102
RTVSPropertyOp18
 70
     1
102
RTVSPropertyOp19
 70
     1
102
RTVSPropertyOp20
 70
     1
102
RTVSPropertyOp21
 70
     1
102
RTVSPropertyOp22
 70
     1
102
RTVSPropertyOp23
 70
     1
102
RTVSPropertyOp24
 70
     1
102
RTVSPropertyOp25
 70
     1
102
RTVSPropertyOp26
 70
     1
102
RTVSPropertyOp27
 70
     1
102
RTVSPropertyOp28
 70
     1
102
RTVSPropertyOp29
 70
     1
102
RTVSPropertyOp30
 70
     1
102
RTVSPropertyOp31
 70
     1
102
RTVSPropertyOp32
 70
     1
102
RTVSPropertyOp33
 70
     1
102
RTVSPropertyOp34
 70
     1
102
RTVSPropertyOp35
 70
     1
102
RTVSPropertyOp36
 70
     1
102
RTVSPropertyOp37
 70
     1
102
RTVSPropertyOp38
 70
     1
102
RTVSPropertyOp39
 70
     1
102
RTVSPropertyOp40
 70
     1
102
RTVSPropertyOp41
 70
     1
102
RTVSPropertyOp42
 70
     1
102
RTVSPropertyOp43
 70
     1
102
RTVSPropertyOp44
 70
     1
102
RTVSPropertyOp45
 70
     1
102
RTVSPropertyOp46
 70
     1
102
RTVSPropertyOp47
 70
     1
102
RTVSPropertyOp48
 70
     1
102
RTVSPropertyOp49
 70
     1
102
RTVSPropertyOp50
 70
     1
102
RTVSPropertyOp51
 70
     0
102
RTVSPropertyOp52
 70
     0
102
RTVSPropertyOp53
 70
     1
102
RTVSPropertyOp54
 70
     1
102
RTVSPropertyOp55
 70
     1
102
RTVSPropertyOp56
 70
     1
102
RTVSPropertyOp57
 70
     1
102
RTVSPropertyOp58
 70
     1
102
RTVSPropertyOp59
 70
     1
102
RTVSPropertyOp60
 70
     1
102
RTVSPropertyOp61
 70
     1
102
RTVSPropertyOp62
 70
     1
  0
XRECORD
  5
1A3D9
102
{ACAD_REACTORS
330
1A3D8
102
}
330
1A3D8
100
AcDbXrecord
280
     1
102
RTVSPost2010Prop28
280
     0
102
RTVSPost2010PropOp28
 70
     1
102
RTVSPost2010Prop29
280
     1
102
RTVSPost2010PropOp29
 70
     1
102
RTVSPost2010Prop30
280
     1
102
RTVSPost2010PropOp30
 70
     1
102
RTVSPost2010Prop31
280
     0
102
RTVSPost2010PropOp31
 70
     1
102
RTVSPost2010Prop32
280
     0
102
RTVSPost2010PropOp32
 70
     1
102
RTVSPost2010Prop33
280
     0
102
RTVSPost2010PropOp33
 70
     1
102
RTVSPost2010Prop34
280
     0
102
RTVSPost2010PropOp34
 70
     1
102
RTVSPost2010Prop35
280
     0
102
RTVSPost2010PropOp35
 70
     1
102
RTVSPost2010Prop36
280
     0
102
RTVSPost2010PropOp36
 70
     1
102
RTVSPost2010Prop37
 90
       50
102
RTVSPost2010PropOp37
 70
     1
102
RTVSPost2010Prop38
140
0.0
102
RTVSPost2010PropOp38
 70
     1
102
RTVSPost2010Prop39
140
1.0
102
RTVSPost2010PropOp39
 70
     1
102
RTVSPost2010Prop40
 90
        0
102
RTVSPost2010PropOp40
 70
     1
102
RTVSPost2010Prop41ColorIndex
 90
       18
102
RTVSPost2010Prop41ColorRGB
 90
        0
102
RTVSPost2010PropOp41
 70
     1
102
RTVSPost2010Prop42
 90
       50
102
RTVSPost2010PropOp42
 70
     1
102
RTVSPost2010Prop43
 90
        3
102
RTVSPost2010PropOp43
 70
     1
102
RTVSPost2010Prop44ColorIndex
 90
        5
102
RTVSPost2010Prop44ColorRGB
 90
      255
102
RTVSPost2010PropOp44
 70
     1
102
RTVSPost2010Prop45
280
     0
102
RTVSPost2010PropOp45
 70
     1
102
RTVSPost2010Prop46
 90
       50
102
RTVSPost2010PropOp46
 70
     1
102
RTVSPost2010Prop47
 90
       50
102
RTVSPost2010PropOp47
 70
     1
102
RTVSPost2010Prop48
 90
       50
102
RTVSPost2010PropOp48
 70
     1
102
RTVSPost2010Prop49
280
     0
102
RTVSPost2010PropOp49
 70
     1
102
RTVSPost2010Prop50
 90
       50
102
RTVSPost2010PropOp50
 70
     1
102
RTVSPost2010Prop51ColorIndex
 90
      256
102
RTVSPost2010Prop51ColorRGB
 90
-16777216
102
RTVSPost2010PropOp51
 70
     0
102
RTVSPost2010Prop52
140
1.0
102
RTVSPost2010PropOp52
 70
     0
102
RTVSPost2010Prop53
 90
        2
102
RTVSPost2010PropOp53
 70
     1
102
RTVSPost2010Prop54
  1
strokes_ogs.tif
102
RTVSPost2010PropOp54
 70
     1
102
RTVSPost2010Prop55
280
     0
102
RTVSPost2010PropOp55
 70
     1
102
RTVSPost2010Prop56
140
1.0
102
RTVSPost2010PropOp56
 70
     1
102
RTVSPost2010Prop57
140
1.0
102
RTVSPost2010PropOp57
 70
     1
102
RTVSPropertyOp0
 70
     1
102
RTVSPropertyOp1
 70
     1
102
RTVSPropertyOp2
 70
     1
102
RTVSPropertyOp3
 70
     1
102
RTVSPropertyOp4
 70
     1
102
RTVSPropertyOp5
 70
     1
102
RTVSPropertyOp6
 70
     1
102
RTVSPropertyOp7
 70
     1
102
RTVSPropertyOp8
 70
     1
102
RTVSPropertyOp9
 70
     1
102
RTVSPropertyOp10
 70
     1
102
RTVSPropertyOp11
 70
     1
102
RTVSPropertyOp12
 70
     1
102
RTVSPropertyOp13
 70
     1
102
RTVSPropertyOp14
 70
     1
102
RTVSPropertyOp15
 70
     1
102
RTVSPropertyOp16
 70
     1
102
RTVSPropertyOp17
 70
     1
102
RTVSPropertyOp18
 70
     1
102
RTVSPropertyOp19
 70
     1
102
RTVSPropertyOp20
 70
     1
102
RTVSPropertyOp21
 70
     1
102
RTVSPropertyOp22
 70
     1
102
RTVSPropertyOp23
 70
     1
102
RTVSPropertyOp24
 70
     1
102
RTVSPropertyOp25
 70
     1
102
RTVSPropertyOp26
 70
     1
102
RTVSPropertyOp27
 70
     1
102
RTVSPropertyOp28
 70
     1
102
RTVSPropertyOp29
 70
     1
102
RTVSPropertyOp30
 70
     1
102
RTVSPropertyOp31
 70
     1
102
RTVSPropertyOp32
 70
     1
102
RTVSPropertyOp33
 70
     1
102
RTVSPropertyOp34
 70
     1
102
RTVSPropertyOp35
 70
     1
102
RTVSPropertyOp36
 70
     1
102
RTVSPropertyOp37
 70
     1
102
RTVSPropertyOp38
 70
     1
102
RTVSPropertyOp39
 70
     1
102
RTVSPropertyOp40
 70
     1
102
RTVSPropertyOp41
 70
     1
102
RTVSPropertyOp42
 70
     1
102
RTVSPropertyOp43
 70
     1
102
RTVSPropertyOp44
 70
     1
102
RTVSPropertyOp45
 70
     1
102
RTVSPropertyOp46
 70
     1
102
RTVSPropertyOp47
 70
     1
102
RTVSPropertyOp48
 70
     1
102
RTVSPropertyOp49
 70
     1
102
RTVSPropertyOp50
 70
     1
102
RTVSPropertyOp51
 70
     0
102
RTVSPropertyOp52
 70
     0
102
RTVSPropertyOp53
 70
     1
102
RTVSPropertyOp54
 70
     1
102
RTVSPropertyOp55
 70
     1
102
RTVSPropertyOp56
 70
     1
102
RTVSPropertyOp57
 70
     1
102
RTVSPropertyOp58
 70
     1
102
RTVSPropertyOp59
 70
     1
102
RTVSPropertyOp60
 70
     1
102
RTVSPropertyOp61
 70
     1
102
RTVSPropertyOp62
 70
     1
  0
XRECORD
  5
1A3CD
102
{ACAD_REACTORS
330
1A3CC
102
}
330
1A3CC
100
AcDbXrecord
280
     1
102
RTVSPost2010Prop28
280
     0
102
RTVSPost2010PropOp28
 70
     1
102
RTVSPost2010Prop29
280
     1
102
RTVSPost2010PropOp29
 70
     1
102
RTVSPost2010Prop30
280
     1
102
RTVSPost2010PropOp30
 70
     1
102
RTVSPost2010Prop31
280
     0
102
RTVSPost2010PropOp31
 70
     1
102
RTVSPost2010Prop32
280
     0
102
RTVSPost2010PropOp32
 70
     1
102
RTVSPost2010Prop33
280
     0
102
RTVSPost2010PropOp33
 70
     1
102
RTVSPost2010Prop34
280
     0
102
RTVSPost2010PropOp34
 70
     1
102
RTVSPost2010Prop35
280
     0
102
RTVSPost2010PropOp35
 70
     1
102
RTVSPost2010Prop36
280
     0
102
RTVSPost2010PropOp36
 70
     1
102
RTVSPost2010Prop37
 90
       50
102
RTVSPost2010PropOp37
 70
     1
102
RTVSPost2010Prop38
140
0.0
102
RTVSPost2010PropOp38
 70
     1
102
RTVSPost2010Prop39
140
1.0
102
RTVSPost2010PropOp39
 70
     1
102
RTVSPost2010Prop40
 90
        0
102
RTVSPost2010PropOp40
 70
     1
102
RTVSPost2010Prop41ColorIndex
 90
       18
102
RTVSPost2010Prop41ColorRGB
 90
        0
102
RTVSPost2010PropOp41
 70
     1
102
RTVSPost2010Prop42
 90
       50
102
RTVSPost2010PropOp42
 70
     1
102
RTVSPost2010Prop43
 90
        3
102
RTVSPost2010PropOp43
 70
     1
102
RTVSPost2010Prop44ColorIndex
 90
        5
102
RTVSPost2010Prop44ColorRGB
 90
      255
102
RTVSPost2010PropOp44
 70
     1
102
RTVSPost2010Prop45
280
     0
102
RTVSPost2010PropOp45
 70
     1
102
RTVSPost2010Prop46
 90
       50
102
RTVSPost2010PropOp46
 70
     1
102
RTVSPost2010Prop47
 90
       50
102
RTVSPost2010PropOp47
 70
     1
102
RTVSPost2010Prop48
 90
       50
102
RTVSPost2010PropOp48
 70
     1
102
RTVSPost2010Prop49
280
     0
102
RTVSPost2010PropOp49
 70
     1
102
RTVSPost2010Prop50
 90
       50
102
RTVSPost2010PropOp50
 70
     1
102
RTVSPost2010Prop51ColorIndex
 90
      256
102
RTVSPost2010Prop51ColorRGB
 90
-16777216
102
RTVSPost2010PropOp51
 70
     0
102
RTVSPost2010Prop52
140
1.0
102
RTVSPost2010PropOp52
 70
     0
102
RTVSPost2010Prop53
 90
        2
102
RTVSPost2010PropOp53
 70
     1
102
RTVSPost2010Prop54
  1
strokes_ogs.tif
102
RTVSPost2010PropOp54
 70
     1
102
RTVSPost2010Prop55
280
     0
102
RTVSPost2010PropOp55
 70
     1
102
RTVSPost2010Prop56
140
1.0
102
RTVSPost2010PropOp56
 70
     1
102
RTVSPost2010Prop57
140
1.0
102
RTVSPost2010PropOp57
 70
     1
102
RTVSPropertyOp0
 70
     1
102
RTVSPropertyOp1
 70
     1
102
RTVSPropertyOp2
 70
     1
102
RTVSPropertyOp3
 70
     1
102
RTVSPropertyOp4
 70
     1
102
RTVSPropertyOp5
 70
     1
102
RTVSPropertyOp6
 70
     1
102
RTVSPropertyOp7
 70
     1
102
RTVSPropertyOp8
 70
     1
102
RTVSPropertyOp9
 70
     1
102
RTVSPropertyOp10
 70
     1
102
RTVSPropertyOp11
 70
     1
102
RTVSPropertyOp12
 70
     1
102
RTVSPropertyOp13
 70
     1
102
RTVSPropertyOp14
 70
     1
102
RTVSPropertyOp15
 70
     1
102
RTVSPropertyOp16
 70
     1
102
RTVSPropertyOp17
 70
     1
102
RTVSPropertyOp18
 70
     1
102
RTVSPropertyOp19
 70
     1
102
RTVSPropertyOp20
 70
     1
102
RTVSPropertyOp21
 70
     1
102
RTVSPropertyOp22
 70
     1
102
RTVSPropertyOp23
 70
     1
102
RTVSPropertyOp24
 70
     1
102
RTVSPropertyOp25
 70
     1
102
RTVSPropertyOp26
 70
     1
102
RTVSPropertyOp27
 70
     1
102
RTVSPropertyOp28
 70
     1
102
RTVSPropertyOp29
 70
     1
102
RTVSPropertyOp30
 70
     1
102
RTVSPropertyOp31
 70
     1
102
RTVSPropertyOp32
 70
     1
102
RTVSPropertyOp33
 70
     1
102
RTVSPropertyOp34
 70
     1
102
RTVSPropertyOp35
 70
     1
102
RTVSPropertyOp36
 70
     1
102
RTVSPropertyOp37
 70
     1
102
RTVSPropertyOp38
 70
     1
102
RTVSPropertyOp39
 70
     1
102
RTVSPropertyOp40
 70
     1
102
RTVSPropertyOp41
 70
     1
102
RTVSPropertyOp42
 70
     1
102
RTVSPropertyOp43
 70
     1
102
RTVSPropertyOp44
 70
     1
102
RTVSPropertyOp45
 70
     1
102
RTVSPropertyOp46
 70
     1
102
RTVSPropertyOp47
 70
     1
102
RTVSPropertyOp48
 70
     1
102
RTVSPropertyOp49
 70
     1
102
RTVSPropertyOp50
 70
     1
102
RTVSPropertyOp51
 70
     0
102
RTVSPropertyOp52
 70
     0
102
RTVSPropertyOp53
 70
     1
102
RTVSPropertyOp54
 70
     1
102
RTVSPropertyOp55
 70
     1
102
RTVSPropertyOp56
 70
     1
102
RTVSPropertyOp57
 70
     1
102
RTVSPropertyOp58
 70
     1
102
RTVSPropertyOp59
 70
     1
102
RTVSPropertyOp60
 70
     1
102
RTVSPropertyOp61
 70
     1
102
RTVSPropertyOp62
 70
     1
  0
XRECORD
  5
1A3E5
102
{ACAD_REACTORS
330
1A3E4
102
}
330
1A3E4
100
AcDbXrecord
280
     1
102
RTVSPost2010Prop28
280
     0
102
RTVSPost2010PropOp28
 70
     1
102
RTVSPost2010Prop29
280
     1
102
RTVSPost2010PropOp29
 70
     1
102
RTVSPost2010Prop30
280
     1
102
RTVSPost2010PropOp30
 70
     1
102
RTVSPost2010Prop31
280
     0
102
RTVSPost2010PropOp31
 70
     1
102
RTVSPost2010Prop32
280
     0
102
RTVSPost2010PropOp32
 70
     1
102
RTVSPost2010Prop33
280
     0
102
RTVSPost2010PropOp33
 70
     1
102
RTVSPost2010Prop34
280
     0
102
RTVSPost2010PropOp34
 70
     1
102
RTVSPost2010Prop35
280
     0
102
RTVSPost2010PropOp35
 70
     1
102
RTVSPost2010Prop36
280
     0
102
RTVSPost2010PropOp36
 70
     1
102
RTVSPost2010Prop37
 90
       50
102
RTVSPost2010PropOp37
 70
     1
102
RTVSPost2010Prop38
140
0.0
102
RTVSPost2010PropOp38
 70
     1
102
RTVSPost2010Prop39
140
1.0
102
RTVSPost2010PropOp39
 70
     1
102
RTVSPost2010Prop40
 90
        0
102
RTVSPost2010PropOp40
 70
     1
102
RTVSPost2010Prop41ColorIndex
 90
       18
102
RTVSPost2010Prop41ColorRGB
 90
        0
102
RTVSPost2010PropOp41
 70
     1
102
RTVSPost2010Prop42
 90
       50
102
RTVSPost2010PropOp42
 70
     1
102
RTVSPost2010Prop43
 90
        3
102
RTVSPost2010PropOp43
 70
     1
102
RTVSPost2010Prop44ColorIndex
 90
        5
102
RTVSPost2010Prop44ColorRGB
 90
      255
102
RTVSPost2010PropOp44
 70
     1
102
RTVSPost2010Prop45
280
     0
102
RTVSPost2010PropOp45
 70
     1
102
RTVSPost2010Prop46
 90
       50
102
RTVSPost2010PropOp46
 70
     1
102
RTVSPost2010Prop47
 90
       50
102
RTVSPost2010PropOp47
 70
     1
102
RTVSPost2010Prop48
 90
       50
102
RTVSPost2010PropOp48
 70
     1
102
RTVSPost2010Prop49
280
     0
102
RTVSPost2010PropOp49
 70
     1
102
RTVSPost2010Prop50
 90
       50
102
RTVSPost2010PropOp50
 70
     1
102
RTVSPost2010Prop51ColorIndex
 90
      256
102
RTVSPost2010Prop51ColorRGB
 90
-16777216
102
RTVSPost2010PropOp51
 70
     0
102
RTVSPost2010Prop52
140
1.0
102
RTVSPost2010PropOp52
 70
     0
102
RTVSPost2010Prop53
 90
        2
102
RTVSPost2010PropOp53
 70
     1
102
RTVSPost2010Prop54
  1
strokes_ogs.tif
102
RTVSPost2010PropOp54
 70
     1
102
RTVSPost2010Prop55
280
     0
102
RTVSPost2010PropOp55
 70
     1
102
RTVSPost2010Prop56
140
1.0
102
RTVSPost2010PropOp56
 70
     1
102
RTVSPost2010Prop57
140
1.0
102
RTVSPost2010PropOp57
 70
     1
102
RTVSPropertyOp0
 70
     1
102
RTVSPropertyOp1
 70
     1
102
RTVSPropertyOp2
 70
     1
102
RTVSPropertyOp3
 70
     1
102
RTVSPropertyOp4
 70
     1
102
RTVSPropertyOp5
 70
     1
102
RTVSPropertyOp6
 70
     1
102
RTVSPropertyOp7
 70
     1
102
RTVSPropertyOp8
 70
     1
102
RTVSPropertyOp9
 70
     1
102
RTVSPropertyOp10
 70
     1
102
RTVSPropertyOp11
 70
     1
102
RTVSPropertyOp12
 70
     1
102
RTVSPropertyOp13
 70
     1
102
RTVSPropertyOp14
 70
     1
102
RTVSPropertyOp15
 70
     1
102
RTVSPropertyOp16
 70
     1
102
RTVSPropertyOp17
 70
     1
102
RTVSPropertyOp18
 70
     1
102
RTVSPropertyOp19
 70
     1
102
RTVSPropertyOp20
 70
     1
102
RTVSPropertyOp21
 70
     1
102
RTVSPropertyOp22
 70
     1
102
RTVSPropertyOp23
 70
     1
102
RTVSPropertyOp24
 70
     1
102
RTVSPropertyOp25
 70
     1
102
RTVSPropertyOp26
 70
     1
102
RTVSPropertyOp27
 70
     1
102
RTVSPropertyOp28
 70
     1
102
RTVSPropertyOp29
 70
     1
102
RTVSPropertyOp30
 70
     1
102
RTVSPropertyOp31
 70
     1
102
RTVSPropertyOp32
 70
     1
102
RTVSPropertyOp33
 70
     1
102
RTVSPropertyOp34
 70
     1
102
RTVSPropertyOp35
 70
     1
102
RTVSPropertyOp36
 70
     1
102
RTVSPropertyOp37
 70
     1
102
RTVSPropertyOp38
 70
     1
102
RTVSPropertyOp39
 70
     1
102
RTVSPropertyOp40
 70
     1
102
RTVSPropertyOp41
 70
     1
102
RTVSPropertyOp42
 70
     1
102
RTVSPropertyOp43
 70
     1
102
RTVSPropertyOp44
 70
     1
102
RTVSPropertyOp45
 70
     1
102
RTVSPropertyOp46
 70
     1
102
RTVSPropertyOp47
 70
     1
102
RTVSPropertyOp48
 70
     1
102
RTVSPropertyOp49
 70
     1
102
RTVSPropertyOp50
 70
     1
102
RTVSPropertyOp51
 70
     0
102
RTVSPropertyOp52
 70
     0
102
RTVSPropertyOp53
 70
     1
102
RTVSPropertyOp54
 70
     1
102
RTVSPropertyOp55
 70
     1
102
RTVSPropertyOp56
 70
     1
102
RTVSPropertyOp57
 70
     1
102
RTVSPropertyOp58
 70
     1
102
RTVSPropertyOp59
 70
     1
102
RTVSPropertyOp60
 70
     1
102
RTVSPropertyOp61
 70
     1
102
RTVSPropertyOp62
 70
     1
  0
ENDSEC
  0
EOF
