  0
SECTION
  2
HEADER
  9
$ACADVER
  1
AC1015
  9
$ACADMAINTVER
 70
    20
  9
$DWGCODEPAGE
  3
ANSI_932
  9
$INSBASE
 10
0.0
 20
0.0
 30
0.0
  9
$EXTMIN
 10
9.99995
 20
9.999999999999998
 30
0.0
  9
$EXTMAX
 10
300.1742509999999
 20
247.999997
 30
0.0
  9
$LIMMIN
 10
0.0
 20
0.0
  9
$LIMMAX
 10
396.0
 20
273.0
  9
$ORTHOMODE
 70
     1
  9
$REGENMODE
 70
     1
  9
$FILLMODE
 70
     1
  9
$QTEXTMODE
 70
     0
  9
$MIRRTEXT
 70
     1
  9
$LTSCALE
 40
20.0
  9
$ATTMODE
 70
     1
  9
$TEXTSIZE
 40
5.0
  9
$TRACEWID
 40
1.0
  9
$TEXTSTYLE
  7
STANDARD
  9
$CLAYER
  8
0
  9
$CELTYPE
  6
BYLAYER
  9
$CECOLOR
 62
   256
  9
$CELTSCALE
 40
1.0
  9
$DISPSILH
 70
     0
  9
$DIMSCALE
 40
1.0
  9
$DIMASZ
 40
3.0
  9
$DIMEXO
 40
1.0
  9
$DIMDLI
 40
10.0
  9
$DIMRND
 40
0.0
  9
$DIMDLE
 40
0.0
  9
$DIMEXE
 40
1.0
  9
$DIMTP
 40
0.0
  9
$DIMTM
 40
0.0
  9
$DIMTXT
 40
3.2
  9
$DIMCEN
 40
0.0
  9
$DIMTSZ
 40
0.0
  9
$DIMTOL
 70
     0
  9
$DIMLIM
 70
     0
  9
$DIMTIH
 70
     0
  9
$DIMTOH
 70
     0
  9
$DIMSE1
 70
     0
  9
$DIMSE2
 70
     0
  9
$DIMTAD
 70
     3
  9
$DIMZIN
 70
     8
  9
$DIMBLK
  1

  9
$DIMASO
 70
     1
  9
$DIMSHO
 70
     1
  9
$DIMPOST
  1

  9
$DIMAPOST
  1

  9
$DIMALT
 70
     0
  9
$DIMALTD
 70
     2
  9
$DIMALTF
 40
25.4
  9
$DIMLFAC
 40
1.0
  9
$DIMTOFL
 70
     1
  9
$DIMTVP
 40
0.0
  9
$DIMTIX
 70
     0
  9
$DIMSOXD
 70
     0
  9
$DIMSAH
 70
     1
  9
$DIMBLK1
  1
OPEN
  9
$DIMBLK2
  1
OPEN
  9
$DIMSTYLE
  2
STANDARD
  9
$DIMCLRD
 70
     0
  9
$DIMCLRE
 70
     0
  9
$DIMCLRT
 70
     0
  9
$DIMTFAC
 40
1.0
  9
$DIMGAP
 40
1.0
  9
$DIMJUST
 70
     0
  9
$DIMSD1
 70
     0
  9
$DIMSD2
 70
     0
  9
$DIMTOLJ
 70
     1
  9
$DIMTZIN
 70
     0
  9
$DIMALTZ
 70
     0
  9
$DIMALTTZ
 70
     0
  9
$DIMUPT
 70
     0
  9
$DIMDEC
 70
     4
  9
$DIMTDEC
 70
     4
  9
$DIMALTU
 70
     2
  9
$DIMALTTD
 70
     2
  9
$DIMTXSTY
  7
STANDARD
  9
$DIMAUNIT
 70
     0
  9
$DIMADEC
 70
     0
  9
$DIMALTRND
 40
0.0
  9
$DIMAZIN
 70
     0
  9
$DIMDSEP
 70
    46
  9
$DIMATFIT
 70
     3
  9
$DIMFRAC
 70
     0
  9
$DIMLDRBLK
  1
OPEN
  9
$DIMLUNIT
 70
     2
  9
$DIMLWD
 70
    -2
  9
$DIMLWE
 70
    -2
  9
$DIMTMOVE
 70
     0
  9
$LUNITS
 70
     2
  9
$LUPREC
 70
     4
  9
$SKETCHINC
 40
1.0
  9
$FILLETRAD
 40
0.0
  9
$AUNITS
 70
     0
  9
$AUPREC
 70
     2
  9
$MENU
  1
.
  9
$ELEVATION
 40
0.0
  9
$PELEVATION
 40
0.0
  9
$THICKNESS
 40
0.0
  9
$LIMCHECK
 70
     0
  9
$CHAMFERA
 40
10.0
  9
$CHAMFERB
 40
10.0
  9
$CHAMFERC
 40
0.0
  9
$CHAMFERD
 40
0.0
  9
$SKPOLY
 70
     0
  9
$TDCREATE
 40
2451300.688493519
  9
$TDUCREATE
 40
2451300.313493518
  9
$TDUPDATE
 40
2457192.656855046
  9
$TDUUPDATE
 40
2457192.281855046
  9
$TDINDWG
 40
0.0000124190
  9
$TDUSRTIMER
 40
0.0000119329
  9
$USRTIMER
 70
     1
  9
$ANGBASE
 50
0.0
  9
$ANGDIR
 70
     0
  9
$PDMODE
 70
    34
  9
$PDSIZE
 40
0.0
  9
$PLINEWID
 40
0.0
  9
$SPLFRAME
 70
     0
  9
$SPLINETYPE
 70
     6
  9
$SPLINESEGS
 70
     8
  9
$HANDSEED
  5
1ABFF
  9
$SURFTAB1
 70
     6
  9
$SURFTAB2
 70
     6
  9
$SURFTYPE
 70
     6
  9
$SURFU
 70
     6
  9
$SURFV
 70
     6
  9
$UCSBASE
  2

  9
$UCSNAME
  2

  9
$UCSORG
 10
0.0
 20
0.0
 30
0.0
  9
$UCSXDIR
 10
1.0
 20
0.0
 30
0.0
  9
$UCSYDIR
 10
0.0
 20
1.0
 30
0.0
  9
$UCSORTHOREF
  2

  9
$UCSORTHOVIEW
 70
     0
  9
$UCSORGTOP
 10
0.0
 20
0.0
 30
0.0
  9
$UCSORGBOTTOM
 10
0.0
 20
0.0
 30
0.0
  9
$UCSORGLEFT
 10
0.0
 20
0.0
 30
0.0
  9
$UCSORGRIGHT
 10
0.0
 20
0.0
 30
0.0
  9
$UCSORGFRONT
 10
0.0
 20
0.0
 30
0.0
  9
$UCSORGBACK
 10
0.0
 20
0.0
 30
0.0
  9
$PUCSBASE
  2

  9
$PUCSNAME
  2

  9
$PUCSORG
 10
0.0
 20
0.0
 30
0.0
  9
$PUCSXDIR
 10
1.0
 20
0.0
 30
0.0
  9
$PUCSYDIR
 10
0.0
 20
1.0
 30
0.0
  9
$PUCSORTHOREF
  2

  9
$PUCSORTHOVIEW
 70
     0
  9
$PUCSORGTOP
 10
0.0
 20
0.0
 30
0.0
  9
$PUCSORGBOTTOM
 10
0.0
 20
0.0
 30
0.0
  9
$PUCSORGLEFT
 10
0.0
 20
0.0
 30
0.0
  9
$PUCSORGRIGHT
 10
0.0
 20
0.0
 30
0.0
  9
$PUCSORGFRONT
 10
0.0
 20
0.0
 30
0.0
  9
$PUCSORGBACK
 10
0.0
 20
0.0
 30
0.0
  9
$USERI1
 70
     0
  9
$USERI2
 70
     0
  9
$USERI3
 70
     0
  9
$USERI4
 70
     0
  9
$USERI5
 70
     0
  9
$USERR1
 40
0.0
  9
$USERR2
 40
0.0
  9
$USERR3
 40
0.0
  9
$USERR4
 40
0.0
  9
$USERR5
 40
0.0
  9
$WORLDVIEW
 70
     1
  9
$SHADEDGE
 70
     3
  9
$SHADEDIF
 70
    70
  9
$TILEMODE
 70
     1
  9
$MAXACTVP
 70
    16
  9
$PINSBASE
 10
0.0
 20
0.0
 30
0.0
  9
$PLIMCHECK
 70
     0
  9
$PEXTMIN
 10
1.000000000000000E+20
 20
1.000000000000000E+20
 30
1.000000000000000E+20
  9
$PEXTMAX
 10
-1.000000000000000E+20
 20
-1.000000000000000E+20
 30
-1.000000000000000E+20
  9
$PLIMMIN
 10
0.0
 20
0.0
  9
$PLIMMAX
 10
420.0
 20
297.0
  9
$UNITMODE
 70
     0
  9
$VISRETAIN
 70
     0
  9
$PLINEGEN
 70
     0
  9
$PSLTSCALE
 70
     0
  9
$TREEDEPTH
 70
  3020
  9
$CMLSTYLE
  2
STANDARD
  9
$CMLJUST
 70
     0
  9
$CMLSCALE
 40
1.0
  9
$PROXYGRAPHICS
 70
     1
  9
$MEASUREMENT
 70
     0
  9
$CELWEIGHT
370
    -1
  9
$ENDCAPS
280
     0
  9
$JOINSTYLE
280
     0
  9
$LWDISPLAY
290
     0
  9
$INSUNITS
 70
     0
  9
$HYPERLINKBASE
  1

  9
$STYLESHEET
  1

  9
$XEDIT
290
     1
  9
$CEPSNTYPE
380
     0
  9
$PSTYLEMODE
290
     1
  9
$FINGERPRINTGUID
  2
{E9ACD445-207C-4B56-9077-33AF9DAA3B0F}
  9
$VERSIONGUID
  2
{BDCDBFFE-7884-4E7D-8310-5E306A7C913A}
  9
$EXTNAMES
290
     1
  9
$PSVPSCALE
 40
0.0
  9
$OLESTARTUP
290
     0
  0
ENDSEC
  0
SECTION
  2
CLASSES
  0
CLASS
  1
ACDBDICTIONARYWDFLT
  2
AcDbDictionaryWithDefault
  3
ObjectDBX Classes
 90
        0
280
     0
281
     0
  0
CLASS
  1
ACDBPLACEHOLDER
  2
AcDbPlaceHolder
  3
ObjectDBX Classes
 90
        0
280
     0
281
     0
  0
CLASS
  1
LAYOUT
  2
AcDbLayout
  3
ObjectDBX Classes
 90
        0
280
     0
281
     0
  0
CLASS
  1
DICTIONARYVAR
  2
AcDbDictionaryVar
  3
ObjectDBX Classes
 90
        0
280
     0
281
     0
  0
CLASS
  1
MATERIAL
  2
AcDbMaterial
  3
ObjectDBX Classes
 90
     1153
280
     0
281
     0
  0
CLASS
  1
VISUALSTYLE
  2
AcDbVisualStyle
  3
ObjectDBX Classes
 90
     4095
280
     0
281
     0
  0
CLASS
  1
TABLESTYLE
  2
AcDbTableStyle
  3
ObjectDBX Classes
 90
     4095
280
     0
281
     0
  0
CLASS
  1
SCALE
  2
AcDbScale
  3
ObjectDBX Classes
 90
     1153
280
     0
281
     0
  0
CLASS
  1
MLEADERSTYLE
  2
AcDbMLeaderStyle
  3
ACDB_MLEADERSTYLE_CLASS
 90
     4095
280
     0
281
     0
  0
CLASS
  1
ACDBSECTIONVIEWSTYLE
  2
AcDbSectionViewStyle
  3
ObjectDBX Classes
 90
     1025
280
     0
281
     0
  0
CLASS
  1
ACDBDETAILVIEWSTYLE
  2
AcDbDetailViewStyle
  3
ObjectDBX Classes
 90
     1025
280
     0
281
     0
  0
CLASS
  1
CELLSTYLEMAP
  2
AcDbCellStyleMap
  3
ObjectDBX Classes
 90
     1152
280
     0
281
     0
  0
ENDSEC
  0
SECTION
  2
TABLES
  0
TABLE
  2
VPORT
  5
1A895
330
0
100
AcDbSymbolTable
 70
     1
  0
VPORT
  5
1AB48
330
1A895
100
AcDbSymbolTableRecord
100
AcDbViewportTableRecord
  2
*ACTIVE
 70
     0
 10
0.0
 20
0.0
 11
1.0
 21
1.0
 12
227.176823712629
 22
129.001831681586
 13
0.0
 23
0.0
 14
10.0
 24
10.0
 15
10.0
 25
10.0
 16
0.0
 26
0.0
 36
1.0
 17
0.0
 27
0.0
 37
0.0
 40
240.6873808178587
 41
1.899603698811096
 42
50.0
 43
0.0
 44
0.0
 50
0.0
 51
0.0
 71
     0
 72
   100
 73
     1
 74
     0
 75
     0
 76
     0
 77
     0
 78
     1
281
     0
 65
     1
110
0.0
120
0.0
130
0.0
111
1.0
121
0.0
131
0.0
112
0.0
122
1.0
132
0.0
 79
     0
146
0.0
1001
ACAD_NAV_VCDISPLAY
1070
     3
  0
ENDTAB
  0
TABLE
  2
LTYPE
  5
1A892
330
0
100
AcDbSymbolTable
 70
     4
  0
LTYPE
  5
1A8A0
330
1A892
100
AcDbSymbolTableRecord
100
AcDbLinetypeTableRecord
  2
BYBLOCK
 70
     0
  3

 72
    65
 73
     0
 40
0.0
  0
LTYPE
  5
1A8A1
330
1A892
100
AcDbSymbolTableRecord
100
AcDbLinetypeTableRecord
  2
BYLAYER
 70
     0
  3

 72
    65
 73
     0
 40
0.0
  0
LTYPE
  5
1A8A2
330
1A892
100
AcDbSymbolTableRecord
100
AcDbLinetypeTableRecord
  2
CONTINUOUS
 70
     0
  3
Solid line
 72
    65
 73
     0
 40
0.0
  0
LTYPE
  5
1A8B0
330
1A892
100
AcDbSymbolTableRecord
100
AcDbLinetypeTableRecord
  2
DASHED
 70
     0
  3
__ __ __ __ __ __ __ __ __ __ __ __ __ __ __ __
 72
    65
 73
     2
 40
0.75
 49
0.5
 74
     0
 49
-0.25
 74
     0
  0
LTYPE
  5
1A8B1
330
1A892
100
AcDbSymbolTableRecord
100
AcDbLinetypeTableRecord
  2
CENTER
 70
     0
  3
____ _ ____ _ ____ _ ____ _ ____ _ ____ _ ____ 
 72
    65
 73
     4
 40
2.0
 49
1.25
 74
     0
 49
-0.25
 74
     0
 49
0.25
 74
     0
 49
-0.25
 74
     0
  0
LTYPE
  5
1A8B2
330
1A892
100
AcDbSymbolTableRecord
100
AcDbLinetypeTableRecord
  2
PHANTOM
 70
     0
  3
______  __  __  ______  __  __  ______  __  __ 
 72
    65
 73
     6
 40
2.5
 49
1.25
 74
     0
 49
-0.25
 74
     0
 49
0.25
 74
     0
 49
-0.25
 74
     0
 49
0.25
 74
     0
 49
-0.25
 74
     0
  0
ENDTAB
  0
TABLE
  2
LAYER
  5
1A88F
330
0
100
AcDbSymbolTable
 70
     8
  0
LAYER
  5
1A89D
102
{ACAD_XDICTIONARY
360
1ABA3
102
}
330
1A88F
100
AcDbSymbolTableRecord
100
AcDbLayerTableRecord
  2
0
 70
     0
 62
     7
  6
CONTINUOUS
370
    -3
390
1AB51
  0
LAYER
  5
1A8B3
102
{ACAD_XDICTIONARY
360
1ABA5
102
}
330
1A88F
100
AcDbSymbolTableRecord
100
AcDbLayerTableRecord
  2
4
 70
     0
 62
     1
  6
CENTER
370
    -3
390
1AB51
  0
LAYER
  5
1A8B4
102
{ACAD_XDICTIONARY
360
1ABA7
102
}
330
1A88F
100
AcDbSymbolTableRecord
100
AcDbLayerTableRecord
  2
5
 70
     0
 62
     6
  6
PHANTOM
370
    -3
390
1AB51
  0
LAYER
  5
1A8B5
102
{ACAD_XDICTIONARY
360
1ABA9
102
}
330
1A88F
100
AcDbSymbolTableRecord
100
AcDbLayerTableRecord
  2
1
 70
     0
 62
     7
  6
CONTINUOUS
370
    -3
390
1AB51
  0
LAYER
  5
1A8B6
102
{ACAD_XDICTIONARY
360
1ABAB
102
}
330
1A88F
100
AcDbSymbolTableRecord
100
AcDbLayerTableRecord
  2
2
 70
     0
 62
     4
  6
CONTINUOUS
370
    -3
390
1AB51
  0
LAYER
  5
1A8B7
102
{ACAD_XDICTIONARY
360
1ABAD
102
}
330
1A88F
100
AcDbSymbolTableRecord
100
AcDbLayerTableRecord
  2
3
 70
     0
 62
     2
  6
DASHED
370
    -3
390
1AB51
  0
LAYER
  5
1A8B8
102
{ACAD_XDICTIONARY
360
1ABAF
102
}
330
1A88F
100
AcDbSymbolTableRecord
100
AcDbLayerTableRecord
  2
6
 70
     0
 62
     5
  6
CONTINUOUS
370
    -3
390
1AB51
  0
LAYER
  5
1A8B9
102
{ACAD_XDICTIONARY
360
1ABB1
102
}
330
1A88F
100
AcDbSymbolTableRecord
100
AcDbLayerTableRecord
  2
7
 70
     0
 62
     3
  6
CONTINUOUS
370
    -3
390
1AB51
  0
ENDTAB
  0
TABLE
  2
STYLE
  5
1A890
330
0
100
AcDbSymbolTable
 70
     1
  0
STYLE
  5
1A89E
330
1A890
100
AcDbSymbolTableRecord
100
AcDbTextStyleTableRecord
  2
STANDARD
 70
     0
 40
0.0
 41
1.0
 50
0.0
 71
     0
 42
5.0
  3
txt
  4

  0
ENDTAB
  0
TABLE
  2
VIEW
  5
1A893
330
0
100
AcDbSymbolTable
 70
     2
  0
VIEW
  5
1A8BA
330
1A893
100
AcDbSymbolTableRecord
100
AcDbViewTableRecord
  2
7
 70
     0
 40
265.9138169999998
 10
256.14862
 20
132.9569079999999
 41
512.29724
 11
0.0
 21
0.0
 31
1.0
 12
0.0
 22
0.0
 32
0.0
 42
50.0
 43
0.0
 44
0.0
 50
0.0
 71
     0
281
     0
 72
     0
  0
VIEW
  5
1A8BB
330
1A893
100
AcDbSymbolTableRecord
100
AcDbViewTableRecord
  2
1
 70
     0
 40
249.466496
 10
136.846708
 20
233.977284
 41
487.485198
 11
0.0
 21
0.0
 31
1.0
 12
0.0
 22
0.0
 32
0.0
 42
50.0
 43
0.0
 44
0.0
 50
0.0
 71
     0
281
     0
 72
     0
  0
ENDTAB
  0
TABLE
  2
UCS
  5
1A894
330
0
100
AcDbSymbolTable
 70
     0
  0
ENDTAB
  0
TABLE
  2
APPID
  5
1A896
330
0
100
AcDbSymbolTable
 70
     3
  0
APPID
  5
1A89F
330
1A896
100
AcDbSymbolTableRecord
100
AcDbRegAppTableRecord
  2
ACAD
 70
     0
  0
APPID
  5
1ABBD
330
1A896
100
AcDbSymbolTableRecord
100
AcDbRegAppTableRecord
  2
ACAD_NAV_VCDISPLAY
 70
     0
  0
APPID
  5
1ABF6
330
1A896
100
AcDbSymbolTableRecord
100
AcDbRegAppTableRecord
  2
ACAD_MLEADERVER
 70
     0
  0
ENDTAB
  0
TABLE
  2
DIMSTYLE
  5
1A897
330
0
100
AcDbSymbolTable
 70
     1
100
AcDbDimStyleTable
 71
     0
  0
DIMSTYLE
105
1A8BD
330
1A897
100
AcDbSymbolTableRecord
100
AcDbDimStyleTableRecord
  2
STANDARD
 70
     0
 41
3.0
 42
1.0
 43
10.0
 44
1.0
 73
     0
 74
     0
 77
     3
 78
     8
140
3.2
141
0.0
147
1.0
172
     1
173
     1
284
     8
285
     8
286
     8
340
1A89E
  0
ENDTAB
  0
TABLE
  2
BLOCK_RECORD
  5
1A88E
330
0
100
AcDbSymbolTable
 70
     1
  0
BLOCK_RECORD
  5
1A8AB
102
{ACAD_XDICTIONARY
360
1AB4B
102
}
330
1A88E
100
AcDbSymbolTableRecord
100
AcDbBlockTableRecord
  2
*MODEL_SPACE
340
1AB9F
  0
BLOCK_RECORD
  5
1A8A7
102
{ACAD_XDICTIONARY
360
1AB49
102
}
330
1A88E
100
AcDbSymbolTableRecord
100
AcDbBlockTableRecord
  2
*PAPER_SPACE
340
1ABA0
  0
BLOCK_RECORD
  5
1A8C5
330
1A88E
100
AcDbSymbolTableRecord
100
AcDbBlockTableRecord
  2
_OPEN
340
0
  0
ENDTAB
  0
ENDSEC
  0
SECTION
  2
BLOCKS
  0
BLOCK
  5
1A8AC
330
1A8AB
100
AcDbEntity
  8
0
100
AcDbBlockBegin
  2
*MODEL_SPACE
 70
     0
 10
0.0
 20
0.0
 30
0.0
  3
*MODEL_SPACE
  1

  0
ENDBLK
  5
1A8AD
330
1A8AB
100
AcDbEntity
  8
0
100
AcDbBlockEnd
  0
BLOCK
  5
1A8A8
330
1A8A7
100
AcDbEntity
 67
     1
  8
0
100
AcDbBlockBegin
  2
*PAPER_SPACE
 70
     0
 10
0.0
 20
0.0
 30
0.0
  3
*PAPER_SPACE
  1

  0
ENDBLK
  5
1A8A9
330
1A8A7
100
AcDbEntity
 67
     1
  8
0
100
AcDbBlockEnd
  0
BLOCK
  5
1A8C6
330
1A8C5
100
AcDbEntity
  8
0
100
AcDbBlockBegin
  2
_OPEN
 70
     0
 10
0.0
 20
0.0
 30
0.0
  3
_OPEN
  1

  0
LINE
  5
1A8C7
330
1A8C5
100
AcDbEntity
  8
0
  6
ByBlock
 62
     0
100
AcDbLine
 10
-1.0
 20
0.166667
 30
0.0
 11
0.0
 21
0.0
 31
0.0
  0
LINE
  5
1A8C8
330
1A8C5
100
AcDbEntity
  8
0
  6
ByBlock
 62
     0
100
AcDbLine
 10
0.0
 20
0.0
 30
0.0
 11
-1.0
 21
-0.166667
 31
0.0
  0
LINE
  5
1A8C9
330
1A8C5
100
AcDbEntity
  8
0
  6
ByBlock
 62
     0
100
AcDbLine
 10
0.0
 20
0.0
 30
0.0
 11
-1.0
 21
0.0
 31
0.0
  0
ENDBLK
  5
1A8CA
330
1A8C5
100
AcDbEntity
  8
0
100
AcDbBlockEnd
  0
ENDSEC
  0
SECTION
  2
ENTITIES
  0
TEXT
  5
1A8CB
330
1A8AB
100
AcDbEntity
  8
6
  6
Continuous
100
AcDbText
 10
27.97945
 20
10.0487
 30
0.0
 40
1.399999999999999
  1
6
 41
1.069393
100
AcDbText
  0
TEXT
  5
1A8CC
330
1A8AB
100
AcDbEntity
  8
1
  6
Continuous
100
AcDbText
 10
17.97945
 20
10.0487
 30
0.0
 40
1.399999999999999
  1
1
 41
1.069393
100
AcDbText
  0
TEXT
  5
1A8CD
330
1A8AB
100
AcDbEntity
  8
1
  6
Continuous
100
AcDbText
 10
9.99995
 20
10.0
 30
0.0
 40
1.399999999999999
  1
LAYER
 41
1.009912999999997
100
AcDbText
  0
TEXT
  5
1A8CE
330
1A8AB
100
AcDbEntity
  8
2
  6
Continuous
100
AcDbText
 10
19.97944999999998
 20
10.0487
 30
0.0
 40
1.399999999999999
  1
2
 41
1.069393
100
AcDbText
  0
TEXT
  5
1A8CF
330
1A8AB
100
AcDbEntity
  8
3
  6
DASHED
100
AcDbText
 10
21.97945
 20
10.0487
 30
0.0
 40
1.399999999999999
  1
3
 41
1.069393
100
AcDbText
  0
TEXT
  5
1A8D0
330
1A8AB
100
AcDbEntity
  8
4
  6
CENTER
100
AcDbText
 10
23.97944999999999
 20
10.0487
 30
0.0
 40
1.399999999999999
  1
4
 41
1.069393
100
AcDbText
  0
TEXT
  5
1A8D1
330
1A8AB
100
AcDbEntity
  8
5
  6
PHANTOM
100
AcDbText
 10
25.97945
 20
10.0487
 30
0.0
 40
1.399999999999999
  1
5
 41
1.069393
100
AcDbText
  0
TEXT
  5
1A8D2
330
1A8AB
100
AcDbEntity
  8
7
  6
Continuous
100
AcDbText
 10
10.00005
 20
26.0
 30
0.0
 40
3.0
  1
CODE No.5485
 41
1.003962999999999
100
AcDbText
  0
TEXT
  5
1A8D3
330
1A8AB
100
AcDbEntity
  8
7
  6
Continuous
100
AcDbText
 10
10.00005
 20
18.0
 30
0.0
 40
3.0
  1
TYPE No.TM-108-2
 41
1.002350999999998
100
AcDbText
  0
TEXT
  5
1A8D4
330
1A8AB
100
AcDbEntity
  8
7
  6
Continuous
100
AcDbText
 10
29.97944999999999
 20
10.0487
 30
0.0
 40
1.399999999999999
  1
7
 41
1.069393
100
AcDbText
  0
ARC
  5
1A8D5
330
1A8AB
100
AcDbEntity
  8
1
  6
Continuous
100
AcDbCircle
 10
120.343575
 20
171.6755409999999
 30
0.0
 40
8.0
100
AcDbArc
 50
349.144824
 51
55.93294799999998
  0
ARC
  5
1A8D6
330
1A8AB
100
AcDbEntity
  8
1
  6
Continuous
100
AcDbCircle
 10
118.225456
 20
171.6755409999999
 30
0.0
 40
8.0
100
AcDbArc
 50
124.0670529999998
 51
190.8551699999999
  0
ARC
  5
1A8D7
330
1A8AB
100
AcDbEntity
  8
1
  6
Continuous
100
AcDbCircle
 10
119.2845229999998
 20
170.5000039999999
 30
0.0
 40
8.5
100
AcDbArc
 50
0.0
 51
180.000005
  0
ARC
  5
1A8D8
330
1A8AB
100
AcDbEntity
  8
1
  6
Continuous
100
AcDbCircle
 10
119.2845229999998
 20
170.1093789999999
 30
0.0
 40
10.890625
100
AcDbArc
 50
15.392103
 51
164.607901
  0
LINE
  5
1A8D9
330
1A8AB
100
AcDbEntity
  8
4
  6
CENTER
100
AcDbLine
 10
119.2845229999998
 20
186.0000039999999
 30
0.0
 11
119.2845229999998
 21
96.000004
 31
0.0
  0
LINE
  5
1A8DA
330
1A8AB
100
AcDbEntity
  8
4
  6
CENTER
100
AcDbLine
 10
35.00023999999999
 20
186.0000039999999
 30
0.0
 11
35.00023999999999
 21
96.000004
 31
0.0
  0
LINE
  5
1A8DB
330
1A8AB
100
AcDbEntity
  8
1
  6
Continuous
100
AcDbLine
 10
36.25023999999999
 20
180.000004
 30
0.0
 11
36.25023999999999
 21
169.2500039999998
 31
0.0
  0
LINE
  5
1A8DC
330
1A8AB
100
AcDbEntity
  8
1
  6
Continuous
100
AcDbLine
 10
33.75023999999999
 20
180.000004
 30
0.0
 11
33.75023999999999
 21
169.2500039999998
 31
0.0
  0
LINE
  5
1A8DD
330
1A8AB
100
AcDbEntity
  8
1
  6
Continuous
100
AcDbLine
 10
32.75024000000001
 20
181.000004
 30
0.0
 11
32.00023999999999
 21
168.0000039999999
 31
0.0
  0
LINE
  5
1A8DE
330
1A8AB
100
AcDbEntity
  8
1
  6
Continuous
100
AcDbLine
 10
32.00023999999999
 20
180.000004
 30
0.0
 11
32.00023999999999
 21
162.8250509999998
 31
0.0
  0
LINE
  5
1A8DF
330
1A8AB
100
AcDbEntity
  8
1
  6
Continuous
100
AcDbLine
 10
37.25023999999999
 20
181.000004
 30
0.0
 11
38.00024
 21
168.0000039999999
 31
0.0
  0
LINE
  5
1A8E0
330
1A8AB
100
AcDbEntity
  8
1
  6
Continuous
100
AcDbLine
 10
38.00024
 20
180.000004
 30
0.0
 11
38.00024
 21
162.8284339999999
 31
0.0
  0
LINE
  5
1A8E1
330
1A8AB
100
AcDbEntity
  8
4
  6
CENTER
100
AcDbLine
 10
200.752327
 20
186.0000039999999
 30
0.0
 11
200.752327
 21
96.000004
 31
0.0
  0
LINE
  5
1A8E2
330
1A8AB
100
AcDbEntity
  8
1
  6
Continuous
100
AcDbLine
 10
198.5023119999999
 20
181.000004
 30
0.0
 11
197.7523119999999
 21
168.0000039999999
 31
0.0
  0
LINE
  5
1A8E3
330
1A8AB
100
AcDbEntity
  8
1
  6
Continuous
100
AcDbLine
 10
203.002327
 20
181.000004
 30
0.0
 11
203.752327
 21
168.0000039999999
 31
0.0
  0
LINE
  5
1A8E4
330
1A8AB
100
AcDbEntity
  8
1
  6
Continuous
100
AcDbLine
 10
199.502327
 20
180.000004
 30
0.0
 11
199.502327
 21
169.2500039999998
 31
0.0
  0
LINE
  5
1A8E5
330
1A8AB
100
AcDbEntity
  8
1
  6
Continuous
100
AcDbLine
 10
202.002327
 20
180.000004
 30
0.0
 11
202.002327
 21
169.2500039999998
 31
0.0
  0
LINE
  5
1A8E6
330
1A8AB
100
AcDbEntity
  8
1
  6
Continuous
100
AcDbLine
 10
197.752327
 20
180.000004
 30
0.0
 11
197.752327
 21
162.0000039999998
 31
0.0
  0
LINE
  5
1A8E7
330
1A8AB
100
AcDbEntity
  8
1
  6
Continuous
100
AcDbLine
 10
203.752327
 20
180.000004
 30
0.0
 11
203.752327
 21
162.0000039999998
 31
0.0
  0
ARC
  5
1A8E8
330
1A8AB
100
AcDbEntity
  8
1
  6
Continuous
100
AcDbCircle
 10
126.2845229999998
 20
161.5000039999999
 30
0.0
 40
1.5
100
AcDbArc
 50
269.9999969999999
 51
0.0
  0
ARC
  5
1A8E9
330
1A8AB
100
AcDbEntity
  8
1
  6
Continuous
100
AcDbCircle
 10
126.2845229999998
 20
161.5000039999999
 30
0.0
 40
3.5
100
AcDbArc
 50
269.9999969999999
 51
0.0
  0
ARC
  5
1A8EA
330
1A8AB
100
AcDbEntity
  8
1
  6
Continuous
100
AcDbCircle
 10
117.7845229999998
 20
111.000004
 30
0.0
 40
10.0
100
AcDbArc
 50
206.481035
 51
0.0
  0
LINE
  5
1A8EB
330
1A8AB
100
AcDbEntity
  8
4
  6
CENTER
100
AcDbLine
 10
101.8541179999999
 20
139.257496
 30
0.0
 11
135.596123
 21
139.257496
 31
0.0
  0
LINE
  5
1A8EC
330
1A8AB
100
AcDbEntity
  8
1
  6
Continuous
100
AcDbLine
 10
125.6095959999999
 20
131.010395
 30
0.0
 11
128.240883
 21
133.5875889999998
 31
0.0
  0
LINE
  5
1A8ED
330
1A8AB
100
AcDbEntity
  8
1
  6
Continuous
100
AcDbLine
 10
126.8431929999999
 20
127.9439739999999
 30
0.0
 11
127.784523
 21
111.000004
 31
0.0
  0
LINE
  5
1A8EE
330
1A8AB
100
AcDbEntity
  8
1
  6
Continuous
100
AcDbLine
 10
125.780205
 20
147.7500039999999
 30
0.0
 11
128.335701
 21
144.392338
 31
0.0
  0
LINE
  5
1A8EF
330
1A8AB
100
AcDbEntity
  8
4
  6
CENTER
100
AcDbLine
 10
119.2845229999998
 20
35.07047299999999
 30
0.0
 11
119.2845229999998
 21
66.929539
 31
0.0
  0
ARC
  5
1A8F0
330
1A8AB
100
AcDbEntity
  8
1
  6
Continuous
100
AcDbCircle
 10
-2.498761999999997
 20
122.0039249999999
 30
0.0
 40
32.5
100
AcDbArc
 50
345.7428399999998
 51
26.70823599999999
  0
ARC
  5
1A8F1
330
1A8AB
100
AcDbEntity
  8
1
  6
Continuous
100
AcDbCircle
 10
72.499245
 20
122.0039249999999
 30
0.0
 40
32.5
100
AcDbArc
 50
153.291766
 51
194.2571639999999
  0
CIRCLE
  5
1A8F2
330
1A8AB
100
AcDbEntity
  8
1
  6
Continuous
100
AcDbCircle
 10
35.00023999999999
 20
139.1702459999999
 30
0.0
 40
7.5
  0
ARC
  5
1A8F3
330
1A8AB
100
AcDbEntity
  8
1
  6
Continuous
100
AcDbCircle
 10
-2.498761999999997
 20
122.0039249999999
 30
0.0
 40
33.299999
100
AcDbArc
 50
346.0923349999998
 51
26.70823599999999
  0
ARC
  5
1A8F4
330
1A8AB
100
AcDbEntity
  8
1
  6
Continuous
100
AcDbCircle
 10
72.499245
 20
122.0039249999999
 30
0.0
 40
33.299999
100
AcDbArc
 50
153.291766
 51
193.9076639999999
  0
LINE
  5
1A8F5
330
1A8AB
100
AcDbEntity
  8
1
  6
Continuous
100
AcDbLine
 10
27.106432
 20
131.1395609999999
 30
0.0
 11
25.788414
 21
134.5929449999998
 31
0.0
  0
LINE
  5
1A8F6
330
1A8AB
100
AcDbEntity
  8
1
  6
Continuous
100
AcDbLine
 10
42.887135
 20
131.121418
 30
0.0
 11
44.21206999999998
 21
134.5929299999999
 31
0.0
  0
ARC
  5
1A8F7
330
1A8AB
100
AcDbEntity
  8
1
  6
Continuous
100
AcDbCircle
 10
35.00023999999999
 20
116.7500039999999
 30
0.0
 40
4.25
100
AcDbArc
 50
0.0
 51
180.000005
  0
LINE
  5
1A8F8
330
1A8AB
100
AcDbEntity
  8
1
  6
Continuous
100
AcDbLine
 10
31.500238
 20
101.0000039999999
 30
0.0
 11
32.00023999999999
 21
101.500004
 31
0.0
  0
LINE
  5
1A8F9
330
1A8AB
100
AcDbEntity
  8
1
  6
Continuous
100
AcDbLine
 10
30.000242
 20
102.0000039999999
 30
0.0
 11
30.75564599999999
 21
116.9642679999999
 31
0.0
  0
LINE
  5
1A8FA
330
1A8AB
100
AcDbEntity
  8
1
  6
Continuous
100
AcDbLine
 10
31.500242
 20
101.0000039999999
 30
0.0
 11
30.755116
 21
116.546543
 31
0.0
  0
LINE
  5
1A8FB
330
1A8AB
100
AcDbEntity
  8
1
  6
Continuous
100
AcDbLine
 10
27.726971
 20
128.430759
 30
0.0
 11
30.000242
 21
102.0000039999999
 31
0.0
  0
LINE
  5
1A8FC
330
1A8AB
100
AcDbEntity
  8
1
  6
Continuous
100
AcDbLine
 10
30.00024
 20
102.0000039999999
 30
0.0
 11
31.50024
 21
101.0000039999999
 31
0.0
  0
ARC
  5
1A8FD
330
1A8AB
100
AcDbEntity
  8
1
  6
Continuous
100
AcDbCircle
 10
17.763754
 20
127.573826
 30
0.0
 40
10.0
100
AcDbArc
 50
4.915826
 51
20.88986699999999
  0
LINE
  5
1A8FE
330
1A8AB
100
AcDbEntity
  8
1
  6
Continuous
100
AcDbLine
 10
30.60600900000001
 20
114.000004
 30
0.0
 11
29.000242
 21
114.000004
 31
0.0
  0
LINE
  5
1A8FF
330
1A8AB
100
AcDbEntity
  8
1
  6
Continuous
100
AcDbLine
 10
35.00023999999999
 20
113.0439259999999
 30
0.0
 11
35.00023999999999
 21
102.500004
 31
0.0
  0
LINE
  5
1A900
330
1A8AB
100
AcDbEntity
  8
1
  6
Continuous
100
AcDbLine
 10
32.95507399999999
 20
112.5450939999999
 30
0.0
 11
32.00023999999999
 21
102.0000039999999
 31
0.0
  0
LINE
  5
1A901
330
1A8AB
100
AcDbEntity
  8
1
  6
Continuous
100
AcDbLine
 10
38.000244
 20
102.0000039999999
 30
0.0
 11
37.04540999999998
 21
112.5450939999999
 31
0.0
  0
LINE
  5
1A902
330
1A8AB
100
AcDbEntity
  8
1
  6
Continuous
100
AcDbLine
 10
40.00023999999998
 20
102.0000039999999
 30
0.0
 11
39.244839
 21
116.9642749999999
 31
0.0
  0
LINE
  5
1A903
330
1A8AB
100
AcDbEntity
  8
1
  6
Continuous
100
AcDbLine
 10
38.50023999999999
 20
101.0000039999999
 30
0.0
 11
39.24536899999999
 21
116.546535
 31
0.0
  0
LINE
  5
1A904
330
1A8AB
100
AcDbEntity
  8
1
  6
Continuous
100
AcDbLine
 10
42.26642199999999
 20
128.410603
 30
0.0
 11
40.000244
 21
102.0000039999999
 31
0.0
  0
LINE
  5
1A905
330
1A8AB
100
AcDbEntity
  8
1
  6
Continuous
100
AcDbLine
 10
32.00023999999999
 20
102.0000039999999
 30
0.0
 11
32.00023999999999
 21
101.500004
 31
0.0
  0
LINE
  5
1A906
330
1A8AB
100
AcDbEntity
  8
1
  6
Continuous
100
AcDbLine
 10
38.00024
 20
101.500004
 30
0.0
 11
38.00024
 21
102.0000039999999
 31
0.0
  0
LINE
  5
1A907
330
1A8AB
100
AcDbEntity
  8
1
  6
Continuous
100
AcDbLine
 10
35.00023999999999
 20
102.500004
 30
0.0
 11
38.00024
 21
102.0000039999999
 31
0.0
  0
LINE
  5
1A908
330
1A8AB
100
AcDbEntity
  8
1
  6
Continuous
100
AcDbLine
 10
35.00023999999999
 20
102.500004
 30
0.0
 11
32.000244
 21
102.0000039999999
 31
0.0
  0
LINE
  5
1A909
330
1A8AB
100
AcDbEntity
  8
1
  6
Continuous
100
AcDbLine
 10
38.000244
 20
101.500004
 30
0.0
 11
38.500244
 21
101.0000039999999
 31
0.0
  0
LINE
  5
1A90A
330
1A8AB
100
AcDbEntity
  8
1
  6
Continuous
100
AcDbLine
 10
40.00023999999998
 20
102.0000039999999
 30
0.0
 11
38.500244
 21
101.0000039999999
 31
0.0
  0
ARC
  5
1A90B
330
1A8AB
100
AcDbEntity
  8
1
  6
Continuous
100
AcDbCircle
 10
36.547447
 20
112.5000039999999
 30
0.0
 40
0.5
100
AcDbArc
 50
5.173881999999998
 51
90.00000300000001
  0
ARC
  5
1A90C
330
1A8AB
100
AcDbEntity
  8
1
  6
Continuous
100
AcDbCircle
 10
33.453037
 20
112.5000039999999
 30
0.0
 40
0.5
100
AcDbArc
 50
90.00000300000001
 51
174.8261229999999
  0
ARC
  5
1A90D
330
1A8AB
100
AcDbEntity
  8
1
  6
Continuous
100
AcDbCircle
 10
52.229809
 20
127.5556979999998
 30
0.0
 40
10.0
100
AcDbArc
 50
159.110131
 51
175.0957109999999
  0
LINE
  5
1A90E
330
1A8AB
100
AcDbEntity
  8
1
  6
Continuous
100
AcDbLine
 10
36.547447
 20
113.000004
 30
0.0
 11
33.453037
 21
113.000004
 31
0.0
  0
LINE
  5
1A90F
330
1A8AB
100
AcDbEntity
  8
1
  6
Continuous
100
AcDbLine
 10
41.00024
 20
114.000004
 30
0.0
 11
39.394474
 21
114.000004
 31
0.0
  0
ARC
  5
1A910
330
1A8AB
100
AcDbEntity
  8
1
  6
Continuous
100
AcDbCircle
 10
35.00023999999999
 20
108.174572
 30
0.0
 40
49.825432
100
AcDbArc
 50
92.87603100000001
 51
95.382492
  0
CIRCLE
  5
1A911
330
1A8AB
100
AcDbEntity
  8
1
  6
Continuous
100
AcDbCircle
 10
35.00023999999999
 20
139.257496
 30
0.0
 40
4.0
  0
ARC
  5
1A912
330
1A8AB
100
AcDbEntity
  8
1
  6
Continuous
100
AcDbCircle
 10
35.00023999999999
 20
159.4375039999999
 30
0.0
 40
6.0625
100
AcDbArc
 50
119.659559
 51
137.9249739999999
  0
ARC
  5
1A913
330
1A8AB
100
AcDbEntity
  8
1
  6
Continuous
100
AcDbCircle
 10
29.000242
 20
162.8284339999999
 30
0.0
 40
3.0
100
AcDbArc
 50
289.471221
 51
0.0
  0
LINE
  5
1A914
330
1A8AB
100
AcDbEntity
  8
4
  6
CENTER
100
AcDbLine
 10
20.006393
 20
139.257496
 30
0.0
 11
49.994091
 21
139.257496
 31
0.0
  0
LINE
  5
1A915
330
1A8AB
100
AcDbEntity
  8
1
  6
Continuous
100
AcDbLine
 10
30.000242
 20
157.615406
 30
0.0
 11
34.05363100000001
 21
157.398685
 31
0.0
  0
LINE
  5
1A916
330
1A8AB
100
AcDbEntity
  8
4
  6
CENTER
100
AcDbLine
 10
22.000242
 20
152.5000039999999
 30
0.0
 11
47.300243
 21
152.5000039999999
 31
0.0
  0
LINE
  5
1A917
330
1A8AB
100
AcDbEntity
  8
1
  6
Continuous
100
AcDbLine
 10
28.500242
 20
156.5000039999999
 30
0.0
 11
41.50024000000001
 21
156.5000039999999
 31
0.0
  0
LINE
  5
1A918
330
1A8AB
100
AcDbEntity
  8
1
  6
Continuous
100
AcDbLine
 10
30.500242
 20
163.5000039999999
 30
0.0
 11
32.00023999999999
 21
163.5000039999999
 31
0.0
  0
LINE
  5
1A919
330
1A8AB
100
AcDbEntity
  8
1
  6
Continuous
100
AcDbLine
 10
27.000242
 20
160.0000039999999
 30
0.0
 11
43.00023999999999
 21
160.0000039999999
 31
0.0
  0
LINE
  5
1A91A
330
1A8AB
100
AcDbEntity
  8
1
  6
Continuous
100
AcDbLine
 10
27.000242
 20
158.0000039999999
 30
0.0
 11
43.00023999999999
 21
158.0000039999999
 31
0.0
  0
ARC
  5
1A91B
330
1A8AB
100
AcDbEntity
  8
1
  6
Continuous
100
AcDbCircle
 10
29.500242
 20
152.5000039999999
 30
0.0
 40
2.5
100
AcDbArc
 50
126.869903
 51
233.1300929999999
  0
LINE
  5
1A91C
330
1A8AB
100
AcDbEntity
  8
1
  6
Continuous
100
AcDbLine
 10
28.000242
 20
154.5000039999998
 30
0.0
 11
28.000242
 21
150.5000039999998
 31
0.0
  0
LINE
  5
1A91D
330
1A8AB
100
AcDbEntity
  8
1
  6
Continuous
100
AcDbLine
 10
28.500242
 20
156.5000039999999
 30
0.0
 11
28.500242
 21
149.0000039999999
 31
0.0
  0
ARC
  5
1A91E
330
1A8AB
100
AcDbEntity
  8
1
  6
Continuous
100
AcDbCircle
 10
28.500242
 20
148.000004
 30
0.0
 40
1.0
100
AcDbArc
 50
0.0
 51
90.00000300000001
  0
ARC
  5
1A91F
330
1A8AB
100
AcDbEntity
  8
1
  6
Continuous
100
AcDbCircle
 10
40.78195199999998
 20
136.7801859999999
 30
0.0
 40
15.0
100
AcDbArc
 50
138.77383
 51
168.006425
  0
ARC
  5
1A920
330
1A8AB
100
AcDbEntity
  8
1
  6
Continuous
100
AcDbCircle
 10
31.000242
 20
138.8582039999998
 30
0.0
 40
5.0
100
AcDbArc
 50
168.006425
 51
206.70823
  0
ARC
  5
1A921
330
1A8AB
100
AcDbEntity
  8
1
  6
Continuous
100
AcDbCircle
 10
36.99962199999998
 20
138.871815
 30
0.0
 40
12.0
100
AcDbArc
 50
180.581586
 51
200.8898689999998
  0
ARC
  5
1A922
330
1A8AB
100
AcDbEntity
  8
1
  6
Continuous
100
AcDbCircle
 10
35.0
 20
138.819599
 30
0.0
 40
10.0
100
AcDbArc
 50
123.365347
 51
180.3987379999999
  0
LINE
  5
1A923
330
1A8AB
100
AcDbEntity
  8
1
  6
Continuous
100
AcDbLine
 10
29.500242
 20
148.000004
 30
0.0
 11
29.500242
 21
146.6656839999999
 31
0.0
  0
LINE
  5
1A924
330
1A8AB
100
AcDbEntity
  8
1
  6
Continuous
100
AcDbLine
 10
28.500242
 20
149.0000039999999
 30
0.0
 11
28.500242
 21
149.0000039999999
 31
0.0
  0
LINE
  5
1A925
330
1A8AB
100
AcDbEntity
  8
1
  6
Continuous
100
AcDbLine
 10
28.000242
 20
150.5000039999998
 30
0.0
 11
28.500242
 21
150.5000039999998
 31
0.0
  0
ARC
  5
1A926
330
1A8AB
100
AcDbEntity
  8
1
  6
Continuous
100
AcDbCircle
 10
30.373312
 20
157.2825049999999
 30
0.0
 40
0.5
100
AcDbArc
 50
95.382492
 51
138.257099
  0
LINE
  5
1A927
330
1A8AB
100
AcDbEntity
  8
1
  6
Continuous
100
AcDbLine
 10
28.000242
 20
154.5000039999998
 30
0.0
 11
28.500242
 21
154.5000039999998
 31
0.0
  0
LINE
  5
1A928
330
1A8AB
100
AcDbEntity
  8
1
  6
Continuous
100
AcDbLine
 10
27.000242
 20
162.0000039999998
 30
0.0
 11
27.000242
 21
158.0000039999999
 31
0.0
  0
LINE
  5
1A929
330
1A8AB
100
AcDbEntity
  8
1
  6
Continuous
100
AcDbLine
 10
30.500242
 20
163.5000039999999
 30
0.0
 11
30.500242
 21
162.0000039999998
 31
0.0
  0
LINE
  5
1A92A
330
1A8AB
100
AcDbEntity
  8
1
  6
Continuous
100
AcDbLine
 10
30.000242
 20
157.615406
 30
0.0
 11
30.000242
 21
156.5000039999999
 31
0.0
  0
LINE
  5
1A92B
330
1A8AB
100
AcDbEntity
  8
1
  6
Continuous
100
AcDbLine
 10
27.000242
 20
162.0000039999998
 30
0.0
 11
31.883593
 21
162.0000039999998
 31
0.0
  0
ARC
  5
1A92C
330
1A8AB
100
AcDbEntity
  8
1
  6
Continuous
100
AcDbCircle
 10
41.50024000000001
 20
153.4500009999999
 30
0.0
 40
0.8
100
AcDbArc
 50
0.0
 51
90.00000300000001
  0
LINE
  5
1A92D
330
1A8AB
100
AcDbEntity
  8
1
  6
Continuous
100
AcDbLine
 10
41.50024000000001
 20
156.5000039999999
 30
0.0
 11
41.50024000000001
 21
149.0000039999999
 31
0.0
  0
ARC
  5
1A92E
330
1A8AB
100
AcDbEntity
  8
1
  6
Continuous
100
AcDbCircle
 10
41.50024000000001
 20
148.000004
 30
0.0
 40
1.0
100
AcDbArc
 50
90.00000300000001
 51
180.000005
  0
ARC
  5
1A92F
330
1A8AB
100
AcDbEntity
  8
1
  6
Continuous
100
AcDbCircle
 10
29.218533
 20
136.7801859999999
 30
0.0
 40
15.0
100
AcDbArc
 50
11.99357599999999
 51
41.226171
  0
ARC
  5
1A930
330
1A8AB
100
AcDbEntity
  8
1
  6
Continuous
100
AcDbCircle
 10
39.00024000000001
 20
138.8582039999998
 30
0.0
 40
5.0
100
AcDbArc
 50
333.291764
 51
11.99357599999999
  0
ARC
  5
1A931
330
1A8AB
100
AcDbEntity
  8
1
  6
Continuous
100
AcDbCircle
 10
33.00086199999999
 20
138.871815
 30
0.0
 40
12.0
100
AcDbArc
 50
339.110133
 51
359.418419
  0
ARC
  5
1A932
330
1A8AB
100
AcDbEntity
  8
1
  6
Continuous
100
AcDbCircle
 10
35.000484
 20
138.819599
 30
0.0
 40
10.0
100
AcDbArc
 50
359.601262
 51
56.63464799999999
  0
ARC
  5
1A933
330
1A8AB
100
AcDbEntity
  8
1
  6
Continuous
100
AcDbCircle
 10
41.50024000000001
 20
151.5500069999999
 30
0.0
 40
0.8
100
AcDbArc
 50
269.9999969999999
 51
0.0
  0
LINE
  5
1A934
330
1A8AB
100
AcDbEntity
  8
1
  6
Continuous
100
AcDbLine
 10
40.50023999999999
 20
148.000004
 30
0.0
 11
40.50023999999999
 21
146.6656839999999
 31
0.0
  0
LINE
  5
1A935
330
1A8AB
100
AcDbEntity
  8
1
  6
Continuous
100
AcDbLine
 10
41.50024000000001
 20
149.0000039999999
 30
0.0
 11
41.50024000000001
 21
149.0000039999999
 31
0.0
  0
LINE
  5
1A936
330
1A8AB
100
AcDbEntity
  8
1
  6
Continuous
100
AcDbLine
 10
42.300243
 20
153.4500009999999
 30
0.0
 11
42.300243
 21
151.5500069999999
 31
0.0
  0
ARC
  5
1A937
330
1A8AB
100
AcDbEntity
  8
1
  6
Continuous
100
AcDbCircle
 10
39.62717099999999
 20
157.2825049999999
 30
0.0
 40
0.5
100
AcDbArc
 50
41.74290599999999
 51
84.617506
  0
ARC
  5
1A938
330
1A8AB
100
AcDbEntity
  8
1
  6
Continuous
100
AcDbCircle
 10
32.996307
 20
156.453785
 30
0.0
 40
1.0
100
AcDbArc
 50
2.648751999999999
 51
86.93953099999998
  0
ARC
  5
1A939
330
1A8AB
100
AcDbEntity
  8
1
  6
Continuous
100
AcDbCircle
 10
37.004177
 20
156.453785
 30
0.0
 40
1.0
100
AcDbArc
 50
93.06046700000001
 51
177.351244
  0
ARC
  5
1A93A
330
1A8AB
100
AcDbEntity
  8
1
  6
Continuous
100
AcDbCircle
 10
34.00024000000001
 20
156.4001199999998
 30
0.0
 40
1.0
100
AcDbArc
 50
5.732783999999997
 51
90.00000300000001
  0
ARC
  5
1A93B
330
1A8AB
100
AcDbEntity
  8
1
  6
Continuous
100
AcDbCircle
 10
36.00023999999999
 20
156.4001199999998
 30
0.0
 40
1.0
100
AcDbArc
 50
90.00000300000001
 51
174.267222
  0
ARC
  5
1A93C
330
1A8AB
100
AcDbEntity
  8
1
  6
Continuous
100
AcDbCircle
 10
35.00023999999999
 20
108.174572
 30
0.0
 40
49.825432
100
AcDbArc
 50
84.617506
 51
87.12396699999997
  0
ARC
  5
1A93D
330
1A8AB
100
AcDbEntity
  8
1
  6
Continuous
100
AcDbCircle
 10
35.00023999999999
 20
159.4375039999999
 30
0.0
 40
6.0625
100
AcDbArc
 50
42.075021
 51
60.34044599999999
  0
ARC
  5
1A93E
330
1A8AB
100
AcDbEntity
  8
1
  6
Continuous
100
AcDbCircle
 10
41.00024
 20
162.8284339999999
 30
0.0
 40
3.0
100
AcDbArc
 50
180.000005
 51
250.5287709999998
  0
ARC
  5
1A93F
330
1A8AB
100
AcDbEntity
  8
1
  6
Continuous
100
AcDbCircle
 10
35.00023999999999
 20
169.2500039999998
 30
0.0
 40
1.25
100
AcDbArc
 50
180.000005
 51
0.00001
  0
LINE
  5
1A940
330
1A8AB
100
AcDbEntity
  8
1
  6
Continuous
100
AcDbLine
 10
40.00023999999998
 20
157.615406
 30
0.0
 11
35.94685399999999
 21
157.398685
 31
0.0
  0
LINE
  5
1A941
330
1A8AB
100
AcDbEntity
  8
1
  6
Continuous
100
AcDbLine
 10
32.50023999999999
 20
158.0000039999999
 30
0.0
 11
32.50023999999999
 21
157.4817389999998
 31
0.0
  0
LINE
  5
1A942
330
1A8AB
100
AcDbEntity
  8
1
  6
Continuous
100
AcDbLine
 10
37.50023999999999
 20
158.0000039999999
 30
0.0
 11
37.50023999999999
 21
157.4817389999998
 31
0.0
  0
LINE
  5
1A943
330
1A8AB
100
AcDbEntity
  8
1
  6
Continuous
100
AcDbLine
 10
40.00023999999998
 20
157.615406
 30
0.0
 11
40.00023999999998
 21
156.5000039999999
 31
0.0
  0
LINE
  5
1A944
330
1A8AB
100
AcDbEntity
  8
1
  6
Continuous
100
AcDbLine
 10
38.00024
 20
163.5000039999999
 30
0.0
 11
39.50023999999999
 21
163.5000039999999
 31
0.0
  0
LINE
  5
1A945
330
1A8AB
100
AcDbEntity
  8
1
  6
Continuous
100
AcDbLine
 10
43.00023999999999
 20
162.0000039999998
 30
0.0
 11
43.00023999999999
 21
158.0000039999999
 31
0.0
  0
LINE
  5
1A946
330
1A8AB
100
AcDbEntity
  8
1
  6
Continuous
100
AcDbLine
 10
39.50023999999999
 20
163.5000039999999
 30
0.0
 11
39.50023999999999
 21
162.0000039999998
 31
0.0
  0
LINE
  5
1A947
330
1A8AB
100
AcDbEntity
  8
1
  6
Continuous
100
AcDbLine
 10
38.116894
 20
162.0000039999998
 30
0.0
 11
43.00023999999999
 21
162.0000039999998
 31
0.0
  0
ARC
  5
1A948
330
1A8AB
100
AcDbEntity
  8
1
  6
Continuous
100
AcDbCircle
 10
128.173409
 20
132.5682409999998
 30
0.0
 40
5.0
100
AcDbArc
 50
179.9999909999999
 51
218.564961
  0
ARC
  5
1A949
330
1A8AB
100
AcDbEntity
  8
1
  6
Continuous
100
AcDbCircle
 10
128.173409
 20
132.5682409999998
 30
0.0
 40
3.0
100
AcDbArc
 50
179.9999909999999
 51
218.564961
  0
LINE
  5
1A94A
330
1A8AB
100
AcDbEntity
  8
1
  6
Continuous
100
AcDbLine
 10
110.192131
 20
134.2407259999999
 30
0.0
 11
108.617851
 21
114.000004
 31
0.0
  0
LINE
  5
1A94B
330
1A8AB
100
AcDbEntity
  8
1
  6
Continuous
100
AcDbLine
 10
108.7845229999998
 20
133.4642979999999
 30
0.0
 11
108.7845229999998
 21
129.000004
 31
0.0
  0
ARC
  5
1A94C
330
1A8AB
100
AcDbEntity
  8
1
  6
Continuous
100
AcDbCircle
 10
117.7845229999998
 20
111.000004
 30
0.0
 40
9.0
100
AcDbArc
 50
184.6942469999999
 51
6.556828999999998
  0
ARC
  5
1A94D
330
1A8AB
100
AcDbEntity
  8
1
  6
Continuous
100
AcDbCircle
 10
117.7845229999998
 20
111.000004
 30
0.0
 40
6.0
100
AcDbArc
 50
195.5889589999999
 51
0.0
  0
ARC
  5
1A94E
330
1A8AB
100
AcDbEntity
  8
1
  6
Continuous
100
AcDbCircle
 10
117.7845229999998
 20
111.000004
 30
0.0
 40
8.0
100
AcDbArc
 50
206.481035
 51
6.556828999999998
  0
ARC
  5
1A94F
330
1A8AB
100
AcDbEntity
  8
1
  6
Continuous
100
AcDbCircle
 10
107.189156
 20
108.043926
 30
0.0
 40
5.0
100
AcDbArc
 50
15.588959
 51
82.39988000000002
  0
LINE
  5
1A950
330
1A8AB
100
AcDbEntity
  8
1
  6
Continuous
100
AcDbLine
 10
105.1178509999999
 20
113.9999959999999
 30
0.0
 11
108.8337019999999
 21
106.540981
 31
0.0
  0
LINE
  5
1A951
330
1A8AB
100
AcDbEntity
  8
1
  6
Continuous
100
AcDbLine
 10
107.352287
 20
113.9999959999999
 30
0.0
 11
110.6238629999999
 21
107.4327889999999
 31
0.0
  0
ARC
  5
1A952
330
1A8AB
100
AcDbEntity
  8
1
  6
Continuous
100
AcDbCircle
 10
116.292992
 20
115.623928
 30
0.0
 40
11.292507
100
AcDbArc
 50
154.838531
 51
188.2681269999999
  0
ARC
  5
1A953
330
1A8AB
100
AcDbEntity
  8
1
  6
Continuous
100
AcDbCircle
 10
106.977104
 20
120.000004
 30
0.0
 40
1.0
100
AcDbArc
 50
68.13578099999999
 51
154.838531
  0
ARC
  5
1A954
330
1A8AB
100
AcDbEntity
  8
1
  6
Continuous
100
AcDbCircle
 10
103.83149
 20
109.854267
 30
0.0
 40
5.0
100
AcDbArc
 50
4.694251
 51
26.48104
  0
LINE
  5
1A955
330
1A8AB
100
AcDbEntity
  8
1
  6
Continuous
100
AcDbLine
 10
108.617851
 20
114.000004
 30
0.0
 11
106.1178509999999
 21
114.000004
 31
0.0
  0
LINE
  5
1A956
330
1A8AB
100
AcDbEntity
  8
1
  6
Continuous
100
AcDbLine
 10
108.7845229999998
 20
129.000004
 30
0.0
 11
106.1178509999999
 21
114.000004
 31
0.0
  0
ARC
  5
1A957
330
1A8AB
100
AcDbEntity
  8
1
  6
Continuous
100
AcDbCircle
 10
127.785576
 20
128.5522349999999
 30
0.0
 40
5.0
100
AcDbArc
 50
150.6887129999998
 51
177.4105979999999
  0
ARC
  5
1A958
330
1A8AB
100
AcDbEntity
  8
1
  6
Continuous
100
AcDbCircle
 10
121.9181899999999
 20
127.5810279999999
 30
0.0
 40
3.0
100
AcDbArc
 50
6.556828999999998
 51
38.56496599999999
  0
ARC
  5
1A959
330
1A8AB
100
AcDbEntity
  8
1
  6
Continuous
100
AcDbCircle
 10
126.7156139999999
 20
129.6299629999998
 30
0.0
 40
3.0
100
AcDbArc
 50
169.057905
 51
186.556823
  0
ARC
  5
1A95A
330
1A8AB
100
AcDbEntity
  8
1
  6
Continuous
100
AcDbCircle
 10
121.850883
 20
127.66663
 30
0.0
 40
5.0
100
AcDbArc
 50
3.179829999999998
 51
37.785009
  0
LINE
  5
1A95B
330
1A8AB
100
AcDbEntity
  8
1
  6
Continuous
100
AcDbLine
 10
123.735222
 20
129.287403
 30
0.0
 11
125.732185
 21
111.913517
 31
0.0
  0
LINE
  5
1A95C
330
1A8AB
100
AcDbEntity
  8
1
  6
Continuous
100
AcDbLine
 10
124.8985669999999
 20
127.9235879999999
 30
0.0
 11
126.7256389999999
 21
112.027706
 31
0.0
  0
LINE
  5
1A95D
330
1A8AB
100
AcDbEntity
  8
1
  6
Continuous
100
AcDbLine
 10
122.7906879999999
 20
128.7781259999999
 30
0.0
 11
123.7906879999999
 21
110.778126
 31
0.0
  0
CIRCLE
  5
1A95E
330
1A8AB
100
AcDbEntity
  8
1
  6
Continuous
100
AcDbCircle
 10
119.2845229999998
 20
152.5000039999999
 30
0.0
 40
2.0
  0
ARC
  5
1A95F
330
1A8AB
100
AcDbEntity
  8
1
  6
Continuous
100
AcDbCircle
 10
119.2845229999998
 20
152.5000039999999
 30
0.0
 40
3.5
100
AcDbArc
 50
269.9999969999999
 51
90.00000300000001
  0
LINE
  5
1A960
330
1A8AB
100
AcDbEntity
  8
1
  6
Continuous
100
AcDbLine
 10
124.784523
 20
158.0000039999999
 30
0.0
 11
124.784523
 21
149.750004
 31
0.0
  0
LINE
  5
1A961
330
1A8AB
100
AcDbEntity
  8
1
  6
Continuous
100
AcDbLine
 10
110.7845229999998
 20
156.000004
 30
0.0
 11
109.980125
 21
147.347294
 31
0.0
  0
ARC
  5
1A962
330
1A8AB
100
AcDbEntity
  8
1
  6
Continuous
100
AcDbCircle
 10
113.173409
 20
146.0000039999999
 30
0.0
 40
3.0
100
AcDbArc
 50
90.00000300000001
 51
180.000005
  0
ARC
  5
1A963
330
1A8AB
100
AcDbEntity
  8
1
  6
Continuous
100
AcDbCircle
 10
113.673409
 20
146.5000039999999
 30
0.0
 40
2.5
100
AcDbArc
 50
90.00000300000001
 51
180.000005
  0
LINE
  5
1A964
330
1A8AB
100
AcDbEntity
  8
1
  6
Continuous
100
AcDbLine
 10
111.8185959999999
 20
142.8620029999999
 30
0.0
 11
111.173409
 21
140.0549199999999
 31
0.0
  0
LINE
  5
1A965
330
1A8AB
100
AcDbEntity
  8
1
  6
Continuous
100
AcDbLine
 10
112.24131
 20
140.2368969999999
 30
0.0
 11
111.069359
 21
135.138004
 31
0.0
  0
ARC
  5
1A966
330
1A8AB
100
AcDbEntity
  8
1
  6
Continuous
100
AcDbCircle
 10
109.9613879999999
 20
142.189548
 30
0.0
 40
3.0
100
AcDbArc
 50
142.462324
 51
178.000003
  0
ARC
  5
1A967
330
1A8AB
100
AcDbEntity
  8
1
  6
Continuous
100
AcDbCircle
 10
109.7492899999999
 20
136.116047
 30
0.0
 40
3.0
100
AcDbArc
 50
178.000003
 51
213.5376819999999
  0
ARC
  5
1A968
330
1A8AB
100
AcDbEntity
  8
1
  6
Continuous
100
AcDbCircle
 10
110.5820689999999
 20
135.250004
 30
0.0
 40
0.5
100
AcDbArc
 50
296.1013879999999
 51
10.0
  0
ARC
  5
1A969
330
1A8AB
100
AcDbEntity
  8
1
  6
Continuous
100
AcDbCircle
 10
108.9844279999999
 20
147.4398539999999
 30
0.0
 40
1.0
100
AcDbArc
 50
309.268995
 51
354.688836
  0
ARC
  5
1A96A
330
1A8AB
100
AcDbEntity
  8
1
  6
Continuous
100
AcDbCircle
 10
109.284523
 20
133.4642979999999
 30
0.0
 40
0.5
100
AcDbArc
 50
92.54732199999997
 51
180.000005
  0
ARC
  5
1A96B
330
1A8AB
100
AcDbEntity
  8
1
  6
Continuous
100
AcDbCircle
 10
109.173409
 20
135.9618259999998
 30
0.0
 40
2.0
100
AcDbArc
 50
272.547317
 51
0.0
  0
ARC
  5
1A96C
330
1A8AB
100
AcDbEntity
  8
1
  6
Continuous
100
AcDbCircle
 10
108.173409
 20
135.7038149999999
 30
0.0
 40
2.0
100
AcDbArc
 50
296.3877979999999
 51
0.0
  0
LINE
  5
1A96D
330
1A8AB
100
AcDbEntity
  8
1
  6
Continuous
100
AcDbLine
 10
107.248726
 20
134.4585909999999
 30
0.0
 11
108.7845229999998
 21
132.1415599999999
 31
0.0
  0
LINE
  5
1A96E
330
1A8AB
100
AcDbEntity
  8
1
  6
Continuous
100
AcDbLine
 10
109.6173929999998
 20
146.6656679999998
 30
0.0
 11
107.5825269999999
 21
144.017399
 31
0.0
  0
LINE
  5
1A96F
330
1A8AB
100
AcDbEntity
  8
1
  6
Continuous
100
AcDbLine
 10
106.9632029999999
 20
142.2942389999998
 30
0.0
 11
106.7511219999999
 21
136.220737
 31
0.0
  0
LINE
  5
1A970
330
1A8AB
100
AcDbEntity
  8
1
  6
Continuous
100
AcDbLine
 10
111.173409
 20
146.5000039999999
 30
0.0
 11
111.173409
 21
135.9618259999998
 31
0.0
  0
LINE
  5
1A971
330
1A8AB
100
AcDbEntity
  8
1
  6
Continuous
100
AcDbLine
 10
110.173409
 20
146.0000039999999
 30
0.0
 11
110.173409
 21
135.7038149999999
 31
0.0
  0
LINE
  5
1A972
330
1A8AB
100
AcDbEntity
  8
1
  6
Continuous
100
AcDbLine
 10
109.6173929999998
 20
146.6656679999998
 30
0.0
 11
109.174126
 21
133.972172
 31
0.0
  0
ARC
  5
1A973
330
1A8AB
100
AcDbEntity
  8
1
  6
Continuous
100
AcDbCircle
 10
121.611336
 20
145.7017249999998
 30
0.0
 40
1.0
100
AcDbArc
 50
2.427138999999999
 51
61.39168000000001
  0
ARC
  5
1A974
330
1A8AB
100
AcDbEntity
  8
1
  6
Continuous
100
AcDbCircle
 10
113.628349
 20
135.250004
 30
0.0
 40
0.5
100
AcDbArc
 50
190.000007
 51
10.0
  0
ARC
  5
1A975
330
1A8AB
100
AcDbEntity
  8
1
  6
Continuous
100
AcDbCircle
 10
112.305901
 20
142.7500039999999
 30
0.0
 40
0.5
100
AcDbArc
 50
10.0
 51
190.000017
  0
ARC
  5
1A976
330
1A8AB
100
AcDbEntity
  8
1
  6
Continuous
100
AcDbCircle
 10
116.674629
 20
135.250004
 30
0.0
 40
0.5
100
AcDbArc
 50
190.000007
 51
10.0
  0
ARC
  5
1A977
330
1A8AB
100
AcDbEntity
  8
1
  6
Continuous
100
AcDbCircle
 10
115.35218
 20
142.7500039999999
 30
0.0
 40
0.5
100
AcDbArc
 50
10.0
 51
190.0000029999999
  0
ARC
  5
1A978
330
1A8AB
100
AcDbEntity
  8
1
  6
Continuous
100
AcDbCircle
 10
118.39846
 20
142.7500039999999
 30
0.0
 40
0.5
100
AcDbArc
 50
10.0
 51
190.0000029999999
  0
ARC
  5
1A979
330
1A8AB
100
AcDbEntity
  8
1
  6
Continuous
100
AcDbCircle
 10
119.720909
 20
135.250004
 30
0.0
 40
0.5
100
AcDbArc
 50
190.000007
 51
10.0
  0
ARC
  5
1A97A
330
1A8AB
100
AcDbEntity
  8
1
  6
Continuous
100
AcDbCircle
 10
122.7671889999998
 20
135.250004
 30
0.0
 40
0.5
100
AcDbArc
 50
190.000007
 51
307.569269
  0
ARC
  5
1A97B
330
1A8AB
100
AcDbEntity
  8
1
  6
Continuous
100
AcDbCircle
 10
121.44474
 20
142.7500039999999
 30
0.0
 40
0.5
100
AcDbArc
 50
10.0
 51
190.0000029999999
  0
ARC
  5
1A97C
330
1A8AB
100
AcDbEntity
  8
1
  6
Continuous
100
AcDbCircle
 10
117.3019639999999
 20
137.8004949999999
 30
0.0
 40
10.0
100
AcDbArc
 50
61.39168000000001
 51
84.23951700000001
  0
ARC
  5
1A97D
330
1A8AB
100
AcDbEntity
  8
1
  6
Continuous
100
AcDbCircle
 10
116.7734149999999
 20
148.750004
 30
0.0
 40
1.0
100
AcDbArc
 50
187.767122
 51
269.9999969999999
  0
LINE
  5
1A97E
330
1A8AB
100
AcDbEntity
  8
4
  6
CENTER
100
AcDbLine
 10
123.2845229999998
 20
152.5000039999999
 30
0.0
 11
115.284523
 21
152.5000039999999
 31
0.0
  0
LINE
  5
1A97F
330
1A8AB
100
AcDbEntity
  8
1
  6
Continuous
100
AcDbLine
 10
122.332436
 20
140.59502
 30
0.0
 11
122.826775
 21
140.6403239999999
 31
0.0
  0
LINE
  5
1A980
330
1A8AB
100
AcDbEntity
  8
1
  6
Continuous
100
AcDbLine
 10
120.957436
 20
142.8620029999999
 30
0.0
 11
120.395592
 21
140.4175449999998
 31
0.0
  0
LINE
  5
1A981
330
1A8AB
100
AcDbEntity
  8
1
  6
Continuous
100
AcDbLine
 10
120.5006479999999
 20
136.4104039999998
 30
0.0
 11
120.2081989999998
 21
135.1379889999998
 31
0.0
  0
LINE
  5
1A982
330
1A8AB
100
AcDbEntity
  8
1
  6
Continuous
100
AcDbLine
 10
117.911156
 20
142.8620029999999
 30
0.0
 11
116.7392199999998
 21
137.763111
 31
0.0
  0
LINE
  5
1A983
330
1A8AB
100
AcDbEntity
  8
1
  6
Continuous
100
AcDbLine
 10
118.3338699999999
 20
140.2368969999999
 30
0.0
 11
117.1619189999999
 21
135.138004
 31
0.0
  0
LINE
  5
1A984
330
1A8AB
100
AcDbEntity
  8
1
  6
Continuous
100
AcDbLine
 10
114.8648759999999
 20
142.8620029999999
 30
0.0
 11
113.6929399999998
 21
137.763111
 31
0.0
  0
LINE
  5
1A985
330
1A8AB
100
AcDbEntity
  8
1
  6
Continuous
100
AcDbLine
 10
115.2875899999998
 20
140.2368969999999
 30
0.0
 11
114.1156389999999
 21
135.138004
 31
0.0
  0
LINE
  5
1A986
330
1A8AB
100
AcDbEntity
  8
1
  6
Continuous
100
AcDbLine
 10
122.985725
 20
136.889927
 30
0.0
 11
121.9371409999999
 21
142.836826
 31
0.0
  0
LINE
  5
1A987
330
1A8AB
100
AcDbEntity
  8
1
  6
Continuous
100
AcDbLine
 10
122.274773
 20
135.163181
 30
0.0
 11
120.9523239999999
 21
142.663181
 31
0.0
  0
LINE
  5
1A988
330
1A8AB
100
AcDbEntity
  8
1
  6
Continuous
100
AcDbLine
 10
113.1359329999999
 20
135.163181
 30
0.0
 11
111.8134839999999
 21
142.663181
 31
0.0
  0
LINE
  5
1A989
330
1A8AB
100
AcDbEntity
  8
1
  6
Continuous
100
AcDbLine
 10
114.1207499999999
 20
135.336826
 30
0.0
 11
112.798302
 21
142.836826
 31
0.0
  0
LINE
  5
1A98A
330
1A8AB
100
AcDbEntity
  8
1
  6
Continuous
100
AcDbLine
 10
120.21331
 20
135.336826
 30
0.0
 11
118.890862
 21
142.836826
 31
0.0
  0
LINE
  5
1A98B
330
1A8AB
100
AcDbEntity
  8
1
  6
Continuous
100
AcDbLine
 10
117.16703
 20
135.336826
 30
0.0
 11
115.844582
 21
142.836826
 31
0.0
  0
LINE
  5
1A98C
330
1A8AB
100
AcDbEntity
  8
1
  6
Continuous
100
AcDbLine
 10
116.182213
 20
135.163181
 30
0.0
 11
114.8597639999999
 21
142.663181
 31
0.0
  0
LINE
  5
1A98D
330
1A8AB
100
AcDbEntity
  8
1
  6
Continuous
100
AcDbLine
 10
120.0315929999999
 20
136.3674349999998
 30
0.0
 11
122.0301439999998
 21
136.5505709999999
 31
0.0
  0
LINE
  5
1A98E
330
1A8AB
100
AcDbEntity
  8
1
  6
Continuous
100
AcDbLine
 10
119.228493
 20
135.163181
 30
0.0
 11
117.9060439999998
 21
142.663181
 31
0.0
  0
LINE
  5
1A98F
330
1A8AB
100
AcDbEntity
  8
1
  6
Continuous
100
AcDbLine
 10
124.7798689999999
 20
147.7500039999999
 30
0.0
 11
116.7734149999999
 21
147.7500039999999
 31
0.0
  0
LINE
  5
1A990
330
1A8AB
100
AcDbEntity
  8
1
  6
Continuous
100
AcDbLine
 10
115.7300489999998
 20
149.0000039999999
 30
0.0
 11
115.782585
 21
148.614857
 31
0.0
  0
LINE
  5
1A991
330
1A8AB
100
AcDbEntity
  8
1
  6
Continuous
100
AcDbLine
 10
125.780205
 20
147.7500039999999
 30
0.0
 11
127.173744
 21
132.542393
 31
0.0
  0
LINE
  5
1A992
330
1A8AB
100
AcDbEntity
  8
1
  6
Continuous
100
AcDbLine
 10
124.7798689999999
 20
147.7500039999999
 30
0.0
 11
125.1744159999998
 21
132.4906959999998
 31
0.0
  0
LINE
  5
1A993
330
1A8AB
100
AcDbEntity
  8
1
  6
Continuous
100
AcDbLine
 10
122.610435
 20
145.7440829999999
 30
0.0
 11
123.177895
 21
132.3564799999997
 31
0.0
  0
LINE
  5
1A994
330
1A8AB
100
AcDbEntity
  8
1
  6
Continuous
100
AcDbLine
 10
119.2845229999998
 20
149.0000039999999
 30
0.0
 11
113.173409
 21
149.0000039999999
 31
0.0
  0
LINE
  5
1A995
330
1A8AB
100
AcDbEntity
  8
1
  6
Continuous
100
AcDbLine
 10
119.334587
 20
140.3203159999999
 30
0.0
 11
121.333153
 21
140.503452
 31
0.0
  0
LINE
  5
1A996
330
1A8AB
100
AcDbEntity
  8
1
  6
Continuous
100
AcDbLine
 10
124.784508
 20
149.750004
 30
0.0
 11
125.780205
 21
147.7500039999999
 31
0.0
  0
ARC
  5
1A997
330
1A8AB
100
AcDbEntity
  8
1
  6
Continuous
100
AcDbCircle
 10
112.284523
 20
163.5000039999999
 30
0.0
 40
3.5
100
AcDbArc
 50
179.9999909999999
 51
270.000001
  0
ARC
  5
1A998
330
1A8AB
100
AcDbEntity
  8
1
  6
Continuous
100
AcDbCircle
 10
112.284523
 20
163.5000039999999
 30
0.0
 40
1.5
100
AcDbArc
 50
179.9999909999999
 51
270.000001
  0
LINE
  5
1A999
330
1A8AB
100
AcDbEntity
  8
1
  6
Continuous
100
AcDbLine
 10
119.2845229999998
 20
156.000004
 30
0.0
 11
110.7845229999998
 21
156.000004
 31
0.0
  0
LINE
  5
1A99A
330
1A8AB
100
AcDbEntity
  8
1
  6
Continuous
100
AcDbLine
 10
110.368599
 20
170.1689189999999
 30
0.0
 11
110.784508
 21
168.0000039999999
 31
0.0
  0
LINE
  5
1A99B
330
1A8AB
100
AcDbEntity
  8
1
  6
Continuous
100
AcDbLine
 10
108.7845229999998
 20
173.000004
 30
0.0
 11
108.7845229999998
 21
163.5000039999999
 31
0.0
  0
LINE
  5
1A99C
330
1A8AB
100
AcDbEntity
  8
1
  6
Continuous
100
AcDbLine
 10
110.7845229999998
 20
170.5000039999999
 30
0.0
 11
110.7845229999998
 21
163.5000039999999
 31
0.0
  0
ARC
  5
1A99D
330
1A8AB
100
AcDbEntity
  8
1
  6
Continuous
100
AcDbCircle
 10
116.2406229999999
 20
156.4001199999998
 30
0.0
 40
1.0
100
AcDbArc
 50
94.0
 51
183.999996
  0
LINE
  5
1A99E
330
1A8AB
100
AcDbEntity
  8
1
  6
Continuous
100
AcDbLine
 10
121.406029
 20
158.0000039999999
 30
0.0
 11
121.422478
 21
157.764912
 31
0.0
  0
LINE
  5
1A99F
330
1A8AB
100
AcDbEntity
  8
1
  6
Continuous
100
AcDbLine
 10
116.393822
 20
158.0000039999999
 30
0.0
 11
116.4346539999999
 21
157.4161259999999
 31
0.0
  0
LINE
  5
1A9A0
330
1A8AB
100
AcDbEntity
  8
1
  6
Continuous
100
AcDbLine
 10
116.170876
 20
157.397678
 30
0.0
 11
124.784508
 21
158.0000039999999
 31
0.0
  0
LINE
  5
1A9A1
330
1A8AB
100
AcDbEntity
  8
1
  6
Continuous
100
AcDbLine
 10
121.092186
 20
162.4883
 30
0.0
 11
121.1263199999998
 21
162.0000039999998
 31
0.0
  0
LINE
  5
1A9A2
330
1A8AB
100
AcDbEntity
  8
1
  6
Continuous
100
AcDbLine
 10
114.10923
 20
162.0000039999998
 30
0.0
 11
123.087303
 21
162.627811
 31
0.0
  0
LINE
  5
1A9A3
330
1A8AB
100
AcDbEntity
  8
1
  6
Continuous
100
AcDbLine
 10
116.104362
 20
162.1395149999998
 30
0.0
 11
116.1141129999998
 21
162.0000039999998
 31
0.0
  0
LINE
  5
1A9A4
330
1A8AB
100
AcDbEntity
  8
1
  6
Continuous
100
AcDbLine
 10
115.266167
 20
156.000004
 30
0.0
 11
115.2430649999999
 21
156.3303569999999
 31
0.0
  0
LINE
  5
1A9A5
330
1A8AB
100
AcDbEntity
  8
1
  6
Continuous
100
AcDbLine
 10
114.004601
 20
163.496357
 30
0.0
 11
114.10923
 21
162.0000039999998
 31
0.0
  0
LINE
  5
1A9A6
330
1A8AB
100
AcDbEntity
  8
1
  6
Continuous
100
AcDbLine
 10
122.982674
 20
164.1241649999998
 30
0.0
 11
114.004601
 21
163.496357
 31
0.0
  0
LINE
  5
1A9A7
330
1A8AB
100
AcDbEntity
  8
1
  6
Continuous
100
AcDbLine
 10
122.982674
 20
164.1241649999998
 30
0.0
 11
123.087303
 21
162.627811
 31
0.0
  0
LINE
  5
1A9A8
330
1A8AB
100
AcDbEntity
  8
1
  6
Continuous
100
AcDbLine
 10
125.784523
 20
162.0000039999998
 30
0.0
 11
112.284523
 21
162.0000039999998
 31
0.0
  0
LINE
  5
1A9A9
330
1A8AB
100
AcDbEntity
  8
1
  6
Continuous
100
AcDbLine
 10
126.2845229999998
 20
158.0000039999999
 30
0.0
 11
112.7845229999998
 21
158.0000039999999
 31
0.0
  0
LINE
  5
1A9AA
330
1A8AB
100
AcDbEntity
  8
1
  6
Continuous
100
AcDbLine
 10
125.784523
 20
162.0000039999998
 30
0.0
 11
125.784523
 21
160.0000039999999
 31
0.0
  0
LINE
  5
1A9AB
330
1A8AB
100
AcDbEntity
  8
1
  6
Continuous
100
AcDbLine
 10
112.7845229999998
 20
160.0000039999999
 30
0.0
 11
112.7845229999998
 21
158.0000039999999
 31
0.0
  0
LINE
  5
1A9AC
330
1A8AB
100
AcDbEntity
  8
1
  6
Continuous
100
AcDbLine
 10
126.2845229999998
 20
160.0000039999999
 30
0.0
 11
112.284523
 21
160.0000039999999
 31
0.0
  0
ARC
  5
1A9AD
330
1A8AB
100
AcDbEntity
  8
1
  6
Continuous
100
AcDbCircle
 10
202.7517169999999
 20
138.871815
 30
0.0
 40
12.0
100
AcDbArc
 50
180.581586
 51
200.8898689999998
  0
ARC
  5
1A9AE
330
1A8AB
100
AcDbEntity
  8
1
  6
Continuous
100
AcDbCircle
 10
200.7520829999999
 20
138.819599
 30
0.0
 40
10.0
100
AcDbArc
 50
116.742126
 51
180.3987379999999
  0
LINE
  5
1A9AF
330
1A8AB
100
AcDbEntity
  8
4
  6
CENTER
100
AcDbLine
 10
185.7584759999998
 20
139.257496
 30
0.0
 11
215.7461619999998
 21
139.257496
 31
0.0
  0
LINE
  5
1A9B0
330
1A8AB
100
AcDbEntity
  8
4
  6
CENTER
100
AcDbLine
 10
213.7523269999999
 20
152.5000039999999
 30
0.0
 11
188.452324
 21
152.5000039999999
 31
0.0
  0
ARC
  5
1A9B1
330
1A8AB
100
AcDbEntity
  8
1
  6
Continuous
100
AcDbCircle
 10
129.887077
 20
141.287281
 30
0.0
 40
0.5
100
AcDbArc
 50
5.235624999999997
 51
95.235623
  0
ARC
  5
1A9B2
330
1A8AB
100
AcDbEntity
  8
1
  6
Continuous
100
AcDbCircle
 10
130.2520829999999
 20
137.303974
 30
0.0
 40
0.5
100
AcDbArc
 50
275.2356239999999
 51
5.235624999999997
  0
ARC
  5
1A9B3
330
1A8AB
100
AcDbEntity
  8
1
  6
Continuous
100
AcDbCircle
 10
124.742271
 20
137.159657
 30
0.0
 40
5.0
100
AcDbArc
 50
314.40485
 51
5.235624999999997
  0
ARC
  5
1A9B4
330
1A8AB
100
AcDbEntity
  8
1
  6
Continuous
100
AcDbCircle
 10
124.356987
 20
141.36417
 30
0.0
 40
5.0
100
AcDbArc
 50
5.235624999999997
 51
37.274538
  0
LINE
  5
1A9B5
330
1A8AB
100
AcDbEntity
  8
1
  6
Continuous
100
AcDbLine
 10
129.725761
 20
136.7536509999999
 30
0.0
 11
130.297707
 21
136.8060649999998
 31
0.0
  0
LINE
  5
1A9B6
330
1A8AB
100
AcDbEntity
  8
1
  6
Continuous
100
AcDbLine
 10
130.384987
 20
141.332905
 30
0.0
 11
130.7499919999999
 21
137.3495979999999
 31
0.0
  0
LINE
  5
1A9B7
330
1A8AB
100
AcDbEntity
  8
1
  6
Continuous
100
AcDbLine
 10
129.342873
 20
141.739521
 30
0.0
 11
129.8414379999998
 21
141.7852059999999
 31
0.0
  0
LINE
  5
1A9B8
330
1A8AB
100
AcDbEntity
  8
1
  6
Continuous
100
AcDbLine
 10
129.336128
 20
141.820423
 30
0.0
 11
129.721397
 21
137.61591
 31
0.0
  0
LINE
  5
1A9B9
330
1A8AB
100
AcDbEntity
  8
1
  6
Continuous
100
AcDbLine
 10
128.200432
 20
170.1689189999999
 30
0.0
 11
127.784523
 21
168.0000039999999
 31
0.0
  0
LINE
  5
1A9BA
330
1A8AB
100
AcDbEntity
  8
1
  6
Continuous
100
AcDbLine
 10
129.784523
 20
173.000004
 30
0.0
 11
129.784523
 21
161.5000039999999
 31
0.0
  0
LINE
  5
1A9BB
330
1A8AB
100
AcDbEntity
  8
1
  6
Continuous
100
AcDbLine
 10
127.784523
 20
170.5000039999999
 30
0.0
 11
127.784523
 21
161.5000039999999
 31
0.0
  0
LINE
  5
1A9BC
330
1A8AB
100
AcDbEntity
  8
1
  6
Continuous
100
AcDbLine
 10
194.506233
 20
126.82233
 30
0.0
 11
191.5404889999998
 21
134.5929299999999
 31
0.0
  0
LINE
  5
1A9BD
330
1A8AB
100
AcDbEntity
  8
1
  6
Continuous
100
AcDbLine
 10
206.998421
 20
126.82233
 30
0.0
 11
209.9641489999999
 21
134.5929449999998
 31
0.0
  0
LINE
  5
1A9BE
330
1A8AB
100
AcDbEntity
  8
1
  6
Continuous
100
AcDbLine
 10
203.752327
 20
128.000004
 30
0.0
 11
203.752327
 21
101.500004
 31
0.0
  0
LINE
  5
1A9BF
330
1A8AB
100
AcDbEntity
  8
1
  6
Continuous
100
AcDbLine
 10
197.752327
 20
128.000004
 30
0.0
 11
197.752327
 21
101.500004
 31
0.0
  0
LINE
  5
1A9C0
330
1A8AB
100
AcDbEntity
  8
1
  6
Continuous
100
AcDbLine
 10
193.486137
 20
128.4106179999998
 30
0.0
 11
195.752327
 21
102.0000039999999
 31
0.0
  0
LINE
  5
1A9C1
330
1A8AB
100
AcDbEntity
  8
1
  6
Continuous
100
AcDbLine
 10
208.0255809999999
 20
128.430744
 30
0.0
 11
205.7523269999999
 21
102.000011
 31
0.0
  0
LINE
  5
1A9C2
330
1A8AB
100
AcDbEntity
  8
1
  6
Continuous
100
AcDbLine
 10
206.3830949999998
 20
124.172276
 30
0.0
 11
204.252327
 21
101.0000039999999
 31
0.0
  0
LINE
  5
1A9C3
330
1A8AB
100
AcDbEntity
  8
1
  6
Continuous
100
AcDbLine
 10
195.121529
 20
124.172276
 30
0.0
 11
197.2523119999999
 21
101.0000039999999
 31
0.0
  0
LINE
  5
1A9C4
330
1A8AB
100
AcDbEntity
  8
1
  6
Continuous
100
AcDbLine
 10
200.752327
 20
127.039539
 30
0.0
 11
200.752327
 21
102.500004
 31
0.0
  0
LINE
  5
1A9C5
330
1A8AB
100
AcDbEntity
  8
1
  6
Continuous
100
AcDbLine
 10
200.752342
 20
102.500011
 30
0.0
 11
197.7523419999999
 21
102.000011
 31
0.0
  0
LINE
  5
1A9C6
330
1A8AB
100
AcDbEntity
  8
1
  6
Continuous
100
AcDbLine
 10
200.752312
 20
102.500011
 30
0.0
 11
203.752327
 21
102.000011
 31
0.0
  0
LINE
  5
1A9C7
330
1A8AB
100
AcDbEntity
  8
1
  6
Continuous
100
AcDbLine
 10
197.752327
 20
101.500004
 30
0.0
 11
197.252327
 21
101.0000039999999
 31
0.0
  0
LINE
  5
1A9C8
330
1A8AB
100
AcDbEntity
  8
1
  6
Continuous
100
AcDbLine
 10
204.252327
 20
100.999996
 30
0.0
 11
203.752327
 21
101.4999959999999
 31
0.0
  0
LINE
  5
1A9C9
330
1A8AB
100
AcDbEntity
  8
1
  6
Continuous
100
AcDbLine
 10
195.752327
 20
102.000011
 30
0.0
 11
197.252327
 21
101.000011
 31
0.0
  0
LINE
  5
1A9CA
330
1A8AB
100
AcDbEntity
  8
1
  6
Continuous
100
AcDbLine
 10
205.7523269999999
 20
102.0000039999999
 30
0.0
 11
204.252327
 21
100.999989
 31
0.0
  0
ARC
  5
1A9CB
330
1A8AB
100
AcDbEntity
  8
1
  6
Continuous
100
AcDbCircle
 10
198.6250839999999
 20
138.849491
 30
0.0
 40
12.0
100
AcDbArc
 50
280.210816
 51
295.294462
  0
ARC
  5
1A9CC
330
1A8AB
100
AcDbEntity
  8
1
  6
Continuous
100
AcDbCircle
 10
202.8795849999999
 20
138.849491
 30
0.0
 40
12.0
100
AcDbArc
 50
244.7055329999999
 51
259.7891859999999
  0
ARC
  5
1A9CD
330
1A8AB
100
AcDbEntity
  8
1
  6
Continuous
100
AcDbCircle
 10
183.522758
 20
127.5556979999998
 30
0.0
 40
10.0
100
AcDbArc
 50
4.904287
 51
20.88986699999999
  0
ARC
  5
1A9CE
330
1A8AB
100
AcDbEntity
  8
1
  6
Continuous
100
AcDbCircle
 10
185.163551
 20
123.256596
 30
0.0
 40
10.0
100
AcDbArc
 50
5.253802999999998
 51
20.88986699999999
  0
ARC
  5
1A9CF
330
1A8AB
100
AcDbEntity
  8
1
  6
Continuous
100
AcDbCircle
 10
216.3411029999998
 20
123.256596
 30
0.0
 40
10.0
100
AcDbArc
 50
159.110131
 51
174.746196
  0
ARC
  5
1A9D0
330
1A8AB
100
AcDbEntity
  8
1
  6
Continuous
100
AcDbCircle
 10
217.988808
 20
127.573826
 30
0.0
 40
10.0
100
AcDbArc
 50
159.110131
 51
175.084168
  0
ARC
  5
1A9D1
330
1A8AB
100
AcDbEntity
  8
1
  6
Continuous
100
AcDbCircle
 10
195.252327
 20
152.5000039999999
 30
0.0
 40
2.5
100
AcDbArc
 50
126.869898
 51
233.130102
  0
ARC
  5
1A9D2
330
1A8AB
100
AcDbEntity
  8
1
  6
Continuous
100
AcDbCircle
 10
207.252327
 20
153.4500009999999
 30
0.0
 40
0.8
100
AcDbArc
 50
359.999995
 51
89.99999700000001
  0
LINE
  5
1A9D3
330
1A8AB
100
AcDbEntity
  8
1
  6
Continuous
100
AcDbLine
 10
195.752327
 20
157.7484929999999
 30
0.0
 11
195.752327
 21
149.750004
 31
0.0
  0
LINE
  5
1A9D4
330
1A8AB
100
AcDbEntity
  8
1
  6
Continuous
100
AcDbLine
 10
205.7523269999999
 20
157.7484929999999
 30
0.0
 11
205.7523269999999
 21
149.750004
 31
0.0
  0
LINE
  5
1A9D5
330
1A8AB
100
AcDbEntity
  8
1
  6
Continuous
100
AcDbLine
 10
193.7523269999998
 20
154.5000039999998
 30
0.0
 11
193.7523269999998
 21
150.5000039999998
 31
0.0
  0
LINE
  5
1A9D6
330
1A8AB
100
AcDbEntity
  8
1
  6
Continuous
100
AcDbLine
 10
195.252327
 20
156.5000039999999
 30
0.0
 11
195.252327
 21
149.0000039999999
 31
0.0
  0
LINE
  5
1A9D7
330
1A8AB
100
AcDbEntity
  8
1
  6
Continuous
100
AcDbLine
 10
206.252327
 20
156.5000039999999
 30
0.0
 11
206.252327
 21
149.0000039999999
 31
0.0
  0
LINE
  5
1A9D8
330
1A8AB
100
AcDbEntity
  8
1
  6
Continuous
100
AcDbLine
 10
194.252327
 20
156.5000039999999
 30
0.0
 11
194.252327
 21
149.0000039999999
 31
0.0
  0
LINE
  5
1A9D9
330
1A8AB
100
AcDbEntity
  8
1
  6
Continuous
100
AcDbLine
 10
207.252327
 20
156.5000039999999
 30
0.0
 11
207.252327
 21
149.0000039999999
 31
0.0
  0
CIRCLE
  5
1A9DA
330
1A8AB
100
AcDbEntity
  8
1
  6
Continuous
100
AcDbCircle
 10
200.752327
 20
140.146198
 30
0.0
 40
7.599999999999998
  0
ARC
  5
1A9DB
330
1A8AB
100
AcDbEntity
  8
1
  6
Continuous
100
AcDbCircle
 10
200.7525709999999
 20
138.819599
 30
0.0
 40
10.0
100
AcDbArc
 50
359.601262
 51
63.257872
  0
ARC
  5
1A9DC
330
1A8AB
100
AcDbEntity
  8
1
  6
Continuous
100
AcDbCircle
 10
207.252327
 20
151.5500069999999
 30
0.0
 40
0.8
100
AcDbArc
 50
269.999999
 51
0.000009
  0
ARC
  5
1A9DD
330
1A8AB
100
AcDbEntity
  8
1
  6
Continuous
100
AcDbCircle
 10
200.752327
 20
158.410252
 30
0.0
 40
10.0
100
AcDbArc
 50
239.999997
 51
299.999998
  0
CIRCLE
  5
1A9DE
330
1A8AB
100
AcDbEntity
  8
1
  6
Continuous
100
AcDbCircle
 10
200.752327
 20
139.2500039999999
 30
0.0
 40
4.0
  0
ARC
  5
1A9DF
330
1A8AB
100
AcDbEntity
  8
1
  6
Continuous
100
AcDbCircle
 10
207.252327
 20
148.000004
 30
0.0
 40
1.0
100
AcDbArc
 50
90.00000300000001
 51
180.000005
  0
ARC
  5
1A9E0
330
1A8AB
100
AcDbEntity
  8
1
  6
Continuous
100
AcDbCircle
 10
194.252327
 20
148.000004
 30
0.0
 40
1.0
100
AcDbArc
 50
0.0
 51
90.00000300000001
  0
CIRCLE
  5
1A9E1
330
1A8AB
100
AcDbEntity
  8
1
  6
Continuous
100
AcDbCircle
 10
200.752327
 20
139.2872659999998
 30
0.0
 40
1.000013999999998
  0
CIRCLE
  5
1A9E2
330
1A8AB
100
AcDbEntity
  8
1
  6
Continuous
100
AcDbCircle
 10
200.752327
 20
139.2872659999998
 30
0.0
 40
1.500014
  0
ARC
  5
1A9E3
330
1A8AB
100
AcDbEntity
  8
1
  6
Continuous
100
AcDbCircle
 10
200.752327
 20
139.254002
 30
0.0
 40
2.500347
100
AcDbArc
 50
179.0459229999999
 51
0.9540779999999999
  0
ARC
  5
1A9E4
330
1A8AB
100
AcDbEntity
  8
1
  6
Continuous
100
AcDbCircle
 10
200.752327
 20
139.2872659999998
 30
0.0
 40
2.500013999999997
100
AcDbArc
 50
0.191557
 51
180.000005
  0
LINE
  5
1A9E5
330
1A8AB
100
AcDbEntity
  8
1
  6
Continuous
100
AcDbLine
 10
195.252327
 20
149.0000039999999
 30
0.0
 11
196.252327
 21
147.7500039999999
 31
0.0
  0
LINE
  5
1A9E6
330
1A8AB
100
AcDbEntity
  8
1
  6
Continuous
100
AcDbLine
 10
206.252327
 20
149.0000189999999
 30
0.0
 11
205.252327
 21
147.7500039999999
 31
0.0
  0
LINE
  5
1A9E7
330
1A8AB
100
AcDbEntity
  8
1
  6
Continuous
100
AcDbLine
 10
195.7523119999999
 20
149.750004
 30
0.0
 11
195.252312
 21
148.9999889999999
 31
0.0
  0
LINE
  5
1A9E8
330
1A8AB
100
AcDbEntity
  8
1
  6
Continuous
100
AcDbLine
 10
205.7523269999999
 20
149.750004
 30
0.0
 11
206.252327
 21
149.0000039999999
 31
0.0
  0
LINE
  5
1A9E9
330
1A8AB
100
AcDbEntity
  8
1
  6
Continuous
100
AcDbLine
 10
195.252327
 20
148.000004
 30
0.0
 11
195.252327
 21
147.1714059999999
 31
0.0
  0
LINE
  5
1A9EA
330
1A8AB
100
AcDbEntity
  8
1
  6
Continuous
100
AcDbLine
 10
206.252327
 20
148.000004
 30
0.0
 11
206.252327
 21
147.1714059999999
 31
0.0
  0
LINE
  5
1A9EB
330
1A8AB
100
AcDbEntity
  8
1
  6
Continuous
100
AcDbLine
 10
193.7523269999998
 20
150.5000039999998
 30
0.0
 11
194.252327
 21
150.5000039999998
 31
0.0
  0
LINE
  5
1A9EC
330
1A8AB
100
AcDbEntity
  8
1
  6
Continuous
100
AcDbLine
 10
195.752327
 20
151.5000039999998
 30
0.0
 11
195.252327
 21
151.5000039999998
 31
0.0
  0
LINE
  5
1A9ED
330
1A8AB
100
AcDbEntity
  8
1
  6
Continuous
100
AcDbLine
 10
195.752327
 20
153.5000039999999
 30
0.0
 11
195.252327
 21
153.5000039999999
 31
0.0
  0
LINE
  5
1A9EE
330
1A8AB
100
AcDbEntity
  8
1
  6
Continuous
100
AcDbLine
 10
206.252327
 20
151.5000039999998
 30
0.0
 11
205.7523269999999
 21
151.5000039999998
 31
0.0
  0
LINE
  5
1A9EF
330
1A8AB
100
AcDbEntity
  8
1
  6
Continuous
100
AcDbLine
 10
206.252327
 20
153.5000039999999
 30
0.0
 11
205.7523269999999
 21
153.5000039999999
 31
0.0
  0
LINE
  5
1A9F0
330
1A8AB
100
AcDbEntity
  8
1
  6
Continuous
100
AcDbLine
 10
195.252327
 20
149.0000039999999
 30
0.0
 11
194.252327
 21
149.0000039999999
 31
0.0
  0
LINE
  5
1A9F1
330
1A8AB
100
AcDbEntity
  8
1
  6
Continuous
100
AcDbLine
 10
207.252327
 20
149.0000039999999
 30
0.0
 11
206.252327
 21
149.0000039999999
 31
0.0
  0
ARC
  5
1A9F2
330
1A8AB
100
AcDbEntity
  8
1
  6
Continuous
100
AcDbCircle
 10
198.752937
 20
138.871815
 30
0.0
 40
12.0
100
AcDbArc
 50
339.110129
 51
359.418419
  0
LINE
  5
1A9F3
330
1A8AB
100
AcDbEntity
  8
1
  6
Continuous
100
AcDbLine
 10
208.05233
 20
153.4500009999999
 30
0.0
 11
208.05233
 21
151.5500069999999
 31
0.0
  0
LINE
  5
1A9F4
330
1A8AB
100
AcDbEntity
  8
1
  6
Continuous
100
AcDbLine
 10
208.752327
 20
162.0000039999998
 30
0.0
 11
203.868965
 21
162.0000039999998
 31
0.0
  0
LINE
  5
1A9F5
330
1A8AB
100
AcDbEntity
  8
1
  6
Continuous
100
AcDbLine
 10
208.752327
 20
160.0000039999999
 30
0.0
 11
205.752336
 21
160.0000039999999
 31
0.0
  0
LINE
  5
1A9F6
330
1A8AB
100
AcDbEntity
  8
1
  6
Continuous
100
AcDbLine
 10
208.752327
 20
158.0000039999999
 30
0.0
 11
192.752327
 21
158.0000039999999
 31
0.0
  0
LINE
  5
1A9F7
330
1A8AB
100
AcDbEntity
  8
1
  6
Continuous
100
AcDbLine
 10
195.752318
 20
160.0000039999999
 30
0.0
 11
192.752327
 21
160.0000039999999
 31
0.0
  0
ARC
  5
1A9F8
330
1A8AB
100
AcDbEntity
  8
1
  6
Continuous
100
AcDbCircle
 10
192.752327
 20
162.0000039999998
 30
0.0
 40
5.0
100
AcDbArc
 50
306.8698979999999
 51
0.0
  0
ARC
  5
1A9F9
330
1A8AB
100
AcDbEntity
  8
1
  6
Continuous
100
AcDbCircle
 10
208.752327
 20
162.0000039999998
 30
0.0
 40
5.0
100
AcDbArc
 50
179.9999909999999
 51
233.1300929999999
  0
ARC
  5
1A9FA
330
1A8AB
100
AcDbEntity
  8
1
  6
Continuous
100
AcDbCircle
 10
200.752327
 20
108.174572
 30
0.0
 40
49.825432
100
AcDbArc
 50
84.24065
 51
95.75934799999997
  0
ARC
  5
1A9FB
330
1A8AB
100
AcDbEntity
  8
1
  6
Continuous
100
AcDbCircle
 10
200.752327
 20
159.4375039999999
 30
0.0
 40
6.0625
100
AcDbArc
 50
42.075021
 51
60.34044599999999
  0
ARC
  5
1A9FC
330
1A8AB
100
AcDbEntity
  8
1
  6
Continuous
100
AcDbCircle
 10
200.752327
 20
159.4375039999999
 30
0.0
 40
6.0625
100
AcDbArc
 50
119.659559
 51
137.9249739999999
  0
ARC
  5
1A9FD
330
1A8AB
100
AcDbEntity
  8
1
  6
Continuous
100
AcDbCircle
 10
206.752327
 20
162.8284339999999
 30
0.0
 40
3.0
100
AcDbArc
 50
179.9999909999999
 51
250.528954
  0
ARC
  5
1A9FE
330
1A8AB
100
AcDbEntity
  8
1
  6
Continuous
100
AcDbCircle
 10
194.7523269999998
 20
162.8284339999999
 30
0.0
 40
3.0
100
AcDbArc
 50
289.471046
 51
0.0
  0
ARC
  5
1A9FF
330
1A8AB
100
AcDbEntity
  8
1
  6
Continuous
100
AcDbCircle
 10
200.752327
 20
169.2500039999998
 30
0.0
 40
1.25
100
AcDbArc
 50
179.9999909999999
 51
0.00001
  0
LINE
  5
1AA00
330
1A8AB
100
AcDbEntity
  8
1
  6
Continuous
100
AcDbLine
 10
203.2523269999999
 20
158.0000039999999
 30
0.0
 11
203.2523269999999
 21
157.937244
 31
0.0
  0
LINE
  5
1AA01
330
1A8AB
100
AcDbEntity
  8
1
  6
Continuous
100
AcDbLine
 10
198.252327
 20
158.0000039999999
 30
0.0
 11
198.252327
 21
157.937244
 31
0.0
  0
LINE
  5
1AA02
330
1A8AB
100
AcDbEntity
  8
1
  6
Continuous
100
AcDbLine
 10
193.7523269999998
 20
154.5000039999998
 30
0.0
 11
194.252327
 21
154.5000039999998
 31
0.0
  0
LINE
  5
1AA03
330
1A8AB
100
AcDbEntity
  8
1
  6
Continuous
100
AcDbLine
 10
195.752327
 20
156.5000039999999
 30
0.0
 11
194.252327
 21
156.5000039999999
 31
0.0
  0
LINE
  5
1AA04
330
1A8AB
100
AcDbEntity
  8
1
  6
Continuous
100
AcDbLine
 10
207.252327
 20
156.5000039999999
 30
0.0
 11
205.7523269999999
 21
156.5000039999999
 31
0.0
  0
LINE
  5
1AA05
330
1A8AB
100
AcDbEntity
  8
1
  6
Continuous
100
AcDbLine
 10
197.752327
 20
163.5000039999999
 30
0.0
 11
196.252327
 21
163.5000039999999
 31
0.0
  0
LINE
  5
1AA06
330
1A8AB
100
AcDbEntity
  8
1
  6
Continuous
100
AcDbLine
 10
196.252327
 20
163.5000039999999
 30
0.0
 11
196.252327
 21
162.0000039999998
 31
0.0
  0
LINE
  5
1AA07
330
1A8AB
100
AcDbEntity
  8
1
  6
Continuous
100
AcDbLine
 10
205.252327
 20
163.5000039999999
 30
0.0
 11
203.752327
 21
163.5000039999999
 31
0.0
  0
LINE
  5
1AA08
330
1A8AB
100
AcDbEntity
  8
1
  6
Continuous
100
AcDbLine
 10
205.252327
 20
163.5000039999999
 30
0.0
 11
205.252327
 21
162.0000039999998
 31
0.0
  0
LINE
  5
1AA09
330
1A8AB
100
AcDbEntity
  8
1
  6
Continuous
100
AcDbLine
 10
192.752327
 20
162.0000039999998
 30
0.0
 11
192.752327
 21
158.0000039999999
 31
0.0
  0
LINE
  5
1AA0A
330
1A8AB
100
AcDbEntity
  8
1
  6
Continuous
100
AcDbLine
 10
197.6356739999999
 20
162.0000039999998
 30
0.0
 11
192.752327
 21
162.0000039999998
 31
0.0
  0
LINE
  5
1AA0B
330
1A8AB
100
AcDbEntity
  8
1
  6
Continuous
100
AcDbLine
 10
208.752327
 20
162.0000039999998
 30
0.0
 11
208.752327
 21
158.0000039999999
 31
0.0
  0
LINE
  5
1AA0C
330
1A8AB
100
AcDbEntity
  8
4
  6
CENTER
100
AcDbLine
 10
135.7479169999998
 20
233.0000039999999
 30
0.0
 11
100.0004809999999
 21
233.0000039999999
 31
0.0
  0
LINE
  5
1AA0D
330
1A8AB
100
AcDbEntity
  8
1
  6
Continuous
100
AcDbLine
 10
129.784523
 20
228.000004
 30
0.0
 11
123.772926
 21
225.5791209999999
 31
0.0
  0
LINE
  5
1AA0E
330
1A8AB
100
AcDbEntity
  8
1
  6
Continuous
100
AcDbLine
 10
129.784523
 20
238.000004
 30
0.0
 11
123.772926
 21
240.420902
 31
0.0
  0
LINE
  5
1AA0F
330
1A8AB
100
AcDbEntity
  8
1
  6
Continuous
100
AcDbLine
 10
128.784523
 20
236.000004
 30
0.0
 11
109.7845229999998
 21
236.000004
 31
0.0
  0
LINE
  5
1AA10
330
1A8AB
100
AcDbEntity
  8
1
  6
Continuous
100
AcDbLine
 10
128.784523
 20
230.000004
 30
0.0
 11
109.7845229999998
 21
230.000004
 31
0.0
  0
LINE
  5
1AA11
330
1A8AB
100
AcDbEntity
  8
1
  6
Continuous
100
AcDbLine
 10
129.784523
 20
235.2500039999999
 30
0.0
 11
108.7845229999998
 21
235.2500039999999
 31
0.0
  0
LINE
  5
1AA12
330
1A8AB
100
AcDbEntity
  8
1
  6
Continuous
100
AcDbLine
 10
129.784523
 20
230.7500039999999
 30
0.0
 11
108.7845229999998
 21
230.7500039999999
 31
0.0
  0
LINE
  5
1AA13
330
1A8AB
100
AcDbEntity
  8
1
  6
Continuous
100
AcDbLine
 10
128.784523
 20
234.250004
 30
0.0
 11
109.7845229999998
 21
234.250004
 31
0.0
  0
LINE
  5
1AA14
330
1A8AB
100
AcDbEntity
  8
1
  6
Continuous
100
AcDbLine
 10
128.784523
 20
231.750004
 30
0.0
 11
109.7845229999998
 21
231.750004
 31
0.0
  0
LINE
  5
1AA15
330
1A8AB
100
AcDbEntity
  8
1
  6
Continuous
100
AcDbLine
 10
37.25024400000001
 20
181.000004
 30
0.0
 11
36.250244
 21
180.000004
 31
0.0
  0
LINE
  5
1AA16
330
1A8AB
100
AcDbEntity
  8
1
  6
Continuous
100
AcDbLine
 10
32.75024000000001
 20
181.000004
 30
0.0
 11
33.75023999999999
 21
180.000004
 31
0.0
  0
LINE
  5
1AA17
330
1A8AB
100
AcDbEntity
  8
1
  6
Continuous
100
AcDbLine
 10
37.25023999999999
 20
181.000004
 30
0.0
 11
38.00024
 21
180.000004
 31
0.0
  0
LINE
  5
1AA18
330
1A8AB
100
AcDbEntity
  8
1
  6
Continuous
100
AcDbLine
 10
32.750244
 20
181.000004
 30
0.0
 11
32.000244
 21
180.000004
 31
0.0
  0
LINE
  5
1AA19
330
1A8AB
100
AcDbEntity
  8
1
  6
Continuous
100
AcDbLine
 10
33.75023999999999
 20
180.000004
 30
0.0
 11
36.25023999999999
 21
180.000004
 31
0.0
  0
LINE
  5
1AA1A
330
1A8AB
100
AcDbEntity
  8
4
  6
CENTER
100
AcDbLine
 10
119.2845229999998
 20
247.999997
 30
0.0
 11
119.2845229999998
 21
218.0000039999999
 31
0.0
  0
ARC
  5
1AA1B
330
1A8AB
100
AcDbEntity
  8
1
  6
Continuous
100
AcDbCircle
 10
119.2845229999998
 20
170.1093789999999
 30
0.0
 40
9.890625
100
AcDbArc
 50
55.93294799999998
 51
124.0670529999998
  0
ARC
  5
1AA1C
330
1A8AB
100
AcDbEntity
  8
1
  6
Continuous
100
AcDbCircle
 10
-1.753243999999997
 20
233.0000039999999
 30
0.0
 40
126.9276579999999
100
AcDbArc
 50
3.131059
 51
4.518733
  0
ARC
  5
1AA1D
330
1A8AB
100
AcDbEntity
  8
1
  6
Continuous
100
AcDbCircle
 10
113.7271649999999
 20
238.6894569999999
 30
0.0
 40
5.0
100
AcDbArc
 50
138.538981
 51
171.3132199999998
  0
ARC
  5
1AA1E
330
1A8AB
100
AcDbEntity
  8
1
  6
Continuous
100
AcDbCircle
 10
117.7845229999998
 20
233.0000039999999
 30
0.0
 40
8.0
100
AcDbArc
 50
22.02431199999999
 51
111.9347179999998
  0
LINE
  5
1AA1F
330
1A8AB
100
AcDbEntity
  8
1
  6
Continuous
100
AcDbLine
 10
126.476982
 20
239.9384189999999
 30
0.0
 11
124.779884
 21
243.0000039999999
 31
0.0
  0
LINE
  5
1AA20
330
1A8AB
100
AcDbEntity
  8
1
  6
Continuous
100
AcDbLine
 10
124.779884
 20
243.0000039999999
 30
0.0
 11
122.979881
 21
241.5000039999999
 31
0.0
  0
LINE
  5
1AA21
330
1A8AB
100
AcDbEntity
  8
1
  6
Continuous
100
AcDbLine
 10
108.7845229999998
 20
228.000004
 30
0.0
 11
114.79612
 21
225.5791209999999
 31
0.0
  0
LINE
  5
1AA22
330
1A8AB
100
AcDbEntity
  8
1
  6
Continuous
100
AcDbLine
 10
108.784508
 20
238.000004
 30
0.0
 11
114.79612
 21
240.420872
 31
0.0
  0
ARC
  5
1AA23
330
1A8AB
100
AcDbEntity
  8
1
  6
Continuous
100
AcDbCircle
 10
159.2174149999999
 20
232.7000009999999
 30
0.0
 40
50.0
100
AcDbArc
 50
185.709473
 51
190.0204699999999
  0
ARC
  5
1AA24
330
1A8AB
100
AcDbEntity
  8
1
  6
Continuous
100
AcDbCircle
 10
159.2174149999999
 20
233.300007
 30
0.0
 40
50.0
100
AcDbArc
 50
169.97953
 51
174.290527
  0
ARC
  5
1AA25
330
1A8AB
100
AcDbEntity
  8
1
  6
Continuous
100
AcDbCircle
 10
159.8174209999999
 20
233.0000039999999
 30
0.0
 40
50.0
100
AcDbArc
 50
169.97953
 51
173.6386539999998
  0
ARC
  5
1AA26
330
1A8AB
100
AcDbEntity
  8
1
  6
Continuous
100
AcDbCircle
 10
159.8174209999999
 20
233.0000039999999
 30
0.0
 40
50.0
100
AcDbArc
 50
186.361346
 51
190.0204699999999
  0
ARC
  5
1AA27
330
1A8AB
100
AcDbEntity
  8
1
  6
Continuous
100
AcDbCircle
 10
114.736214
 20
233.0000039999999
 30
0.0
 40
9.735735
100
AcDbArc
 50
154.1169209999999
 51
205.8830749999999
  0
ARC
  5
1AA28
330
1A8AB
100
AcDbEntity
  8
1
  6
Continuous
100
AcDbCircle
 10
113.7271649999999
 20
227.3105509999998
 30
0.0
 40
5.0
100
AcDbArc
 50
188.68678
 51
221.461019
  0
ARC
  5
1AA29
330
1A8AB
100
AcDbEntity
  8
1
  6
Continuous
100
AcDbCircle
 10
109.8072429999999
 20
230.102116
 30
0.0
 40
3.0
100
AcDbArc
 50
182.2910179999998
 51
218.278998
  0
ARC
  5
1AA2A
330
1A8AB
100
AcDbEntity
  8
1
  6
Continuous
100
AcDbCircle
 10
109.8072429999999
 20
235.8978919999999
 30
0.0
 40
3.0
100
AcDbArc
 50
141.7210019999999
 51
177.708982
  0
ARC
  5
1AA2B
330
1A8AB
100
AcDbEntity
  8
1
  6
Continuous
100
AcDbCircle
 10
31.46924199999999
 20
233.0000039999999
 30
0.0
 40
75.492142
100
AcDbArc
 50
357.3077959999998
 51
2.692203999999998
  0
ARC
  5
1AA2C
330
1A8AB
100
AcDbEntity
  8
1
  6
Continuous
100
AcDbCircle
 10
182.241432
 20
233.0000039999999
 30
0.0
 40
75.492142
100
AcDbArc
 50
177.708982
 51
182.2910139999999
  0
LINE
  5
1AA2D
330
1A8AB
100
AcDbEntity
  8
1
  6
Continuous
100
AcDbLine
 10
105.9771039999997
 20
237.2500039999999
 30
0.0
 11
105.9771039999997
 21
228.7500039999999
 31
0.0
  0
LINE
  5
1AA2E
330
1A8AB
100
AcDbEntity
  8
1
  6
Continuous
100
AcDbLine
 10
107.1292189999999
 20
237.2500039999999
 30
0.0
 11
105.9771039999997
 21
237.2500039999999
 31
0.0
  0
LINE
  5
1AA2F
330
1A8AB
100
AcDbEntity
  8
1
  6
Continuous
100
AcDbLine
 10
107.1292189999999
 20
228.7500039999999
 30
0.0
 11
105.9771039999997
 21
228.7500039999999
 31
0.0
  0
LINE
  5
1AA30
330
1A8AB
100
AcDbEntity
  8
1
  6
Continuous
100
AcDbLine
 10
106.1178509999999
 20
227.800007
 30
0.0
 11
106.1178509999999
 21
227.0000039999999
 31
0.0
  0
LINE
  5
1AA31
330
1A8AB
100
AcDbEntity
  8
1
  6
Continuous
100
AcDbLine
 10
106.117836
 20
227.800007
 30
0.0
 11
107.23658
 21
228.5555759999998
 31
0.0
  0
LINE
  5
1AA32
330
1A8AB
100
AcDbEntity
  8
1
  6
Continuous
100
AcDbLine
 10
106.1178669999998
 20
238.200016
 30
0.0
 11
107.23661
 21
237.444447
 31
0.0
  0
LINE
  5
1AA33
330
1A8AB
100
AcDbEntity
  8
1
  6
Continuous
100
AcDbLine
 10
106.1178509999999
 20
227.0000039999999
 30
0.0
 11
107.628502
 21
228.0202669999999
 31
0.0
  0
LINE
  5
1AA34
330
1A8AB
100
AcDbEntity
  8
1
  6
Continuous
100
AcDbLine
 10
106.1178669999998
 20
239.0000039999999
 30
0.0
 11
107.628517
 21
237.9797549999999
 31
0.0
  0
LINE
  5
1AA35
330
1A8AB
100
AcDbEntity
  8
1
  6
Continuous
100
AcDbLine
 10
106.1178509999999
 20
239.0000039999999
 30
0.0
 11
106.1178509999999
 21
238.200016
 31
0.0
  0
LINE
  5
1AA36
330
1A8AB
100
AcDbEntity
  8
1
  6
Continuous
100
AcDbLine
 10
109.7663649999998
 20
225.3112219999999
 30
0.0
 11
107.4522169999999
 21
228.243641
 31
0.0
  0
LINE
  5
1AA37
330
1A8AB
100
AcDbEntity
  8
1
  6
Continuous
100
AcDbLine
 10
109.76638
 20
240.6887859999999
 30
0.0
 11
107.452232
 21
237.7563509999998
 31
0.0
  0
LINE
  5
1AA38
330
1A8AB
100
AcDbEntity
  8
1
  6
Continuous
100
AcDbLine
 10
110.580132
 20
227.2769049999999
 30
0.0
 11
110.580132
 21
224.3000069999999
 31
0.0
  0
LINE
  5
1AA39
330
1A8AB
100
AcDbEntity
  8
1
  6
Continuous
100
AcDbLine
 10
110.580132
 20
224.2999919999999
 30
0.0
 11
109.9801409999999
 21
223.9999889999999
 31
0.0
  0
LINE
  5
1AA3A
330
1A8AB
100
AcDbEntity
  8
1
  6
Continuous
100
AcDbLine
 10
110.580132
 20
241.700016
 30
0.0
 11
109.9801409999999
 21
242.000004
 31
0.0
  0
LINE
  5
1AA3B
330
1A8AB
100
AcDbEntity
  8
1
  6
Continuous
100
AcDbLine
 10
110.580132
 20
241.700016
 30
0.0
 11
110.580132
 21
238.7230869999999
 31
0.0
  0
LINE
  5
1AA3C
330
1A8AB
100
AcDbEntity
  8
1
  6
Continuous
100
AcDbLine
 10
110.7845229999998
 20
230.000004
 30
0.0
 11
110.7845229999998
 21
227.194599
 31
0.0
  0
LINE
  5
1AA3D
330
1A8AB
100
AcDbEntity
  8
1
  6
Continuous
100
AcDbLine
 10
110.7845229999998
 20
238.805393
 30
0.0
 11
110.7845229999998
 21
236.000004
 31
0.0
  0
LINE
  5
1AA3E
330
1A8AB
100
AcDbEntity
  8
1
  6
Continuous
100
AcDbLine
 10
108.7845229999998
 20
230.7499889999998
 30
0.0
 11
109.7845229999998
 21
229.999989
 31
0.0
  0
LINE
  5
1AA3F
330
1A8AB
100
AcDbEntity
  8
1
  6
Continuous
100
AcDbLine
 10
109.7845229999998
 20
231.750004
 30
0.0
 11
108.7845229999998
 21
230.7500039999999
 31
0.0
  0
LINE
  5
1AA40
330
1A8AB
100
AcDbEntity
  8
1
  6
Continuous
100
AcDbLine
 10
108.7845229999998
 20
235.2500039999999
 30
0.0
 11
109.7845229999998
 21
234.249989
 31
0.0
  0
LINE
  5
1AA41
330
1A8AB
100
AcDbEntity
  8
1
  6
Continuous
100
AcDbLine
 10
109.7845229999998
 20
236.000019
 30
0.0
 11
108.7845229999998
 21
235.2500189999999
 31
0.0
  0
LINE
  5
1AA42
330
1A8AB
100
AcDbEntity
  8
1
  6
Continuous
100
AcDbLine
 10
109.7845229999998
 20
234.250004
 30
0.0
 11
109.7845229999998
 21
231.750004
 31
0.0
  0
LINE
  5
1AA43
330
1A8AB
100
AcDbEntity
  8
1
  6
Continuous
100
AcDbLine
 10
108.7845229999998
 20
238.000004
 30
0.0
 11
108.7845229999998
 21
228.000004
 31
0.0
  0
ARC
  5
1AA44
330
1A8AB
100
AcDbEntity
  8
1
  6
Continuous
100
AcDbCircle
 10
160.67498
 20
233.0000039999999
 30
0.0
 40
34.894768
100
AcDbArc
 50
168.5309699999999
 51
169.4717599999999
  0
ARC
  5
1AA45
330
1A8AB
100
AcDbEntity
  8
1
  6
Continuous
100
AcDbCircle
 10
160.67498
 20
233.0000039999999
 30
0.0
 40
34.894768
100
AcDbArc
 50
190.5282399999999
 51
191.46903
  0
ARC
  5
1AA46
330
1A8AB
100
AcDbEntity
  8
1
  6
Continuous
100
AcDbCircle
 10
220.5791239999999
 20
233.0000039999999
 30
0.0
 40
97.96868899999999
100
AcDbArc
 50
175.0226279999999
 51
175.4854959999999
  0
ARC
  5
1AA47
330
1A8AB
100
AcDbEntity
  8
1
  6
Continuous
100
AcDbCircle
 10
-1.753243999999997
 20
233.0000039999999
 30
0.0
 40
126.9276579999999
100
AcDbArc
 50
355.481267
 51
356.868941
  0
ARC
  5
1AA48
330
1A8AB
100
AcDbEntity
  8
1
  6
Continuous
100
AcDbCircle
 10
220.5791239999999
 20
233.0000039999999
 30
0.0
 40
97.96868899999999
100
AcDbArc
 50
184.514504
 51
184.9773719999998
  0
ARC
  5
1AA49
330
1A8AB
100
AcDbEntity
  8
1
  6
Continuous
100
AcDbCircle
 10
117.7845229999998
 20
233.0000039999999
 30
0.0
 40
8.0
100
AcDbArc
 50
248.065275
 51
337.9756879999998
  0
ARC
  5
1AA4A
330
1A8AB
100
AcDbEntity
  8
1
  6
Continuous
100
AcDbCircle
 10
119.2845229999998
 20
233.0000039999999
 30
0.0
 40
4.5
100
AcDbArc
 50
221.810315
 51
318.1896829999999
  0
ARC
  5
1AA4B
330
1A8AB
100
AcDbEntity
  8
1
  6
Continuous
100
AcDbCircle
 10
119.2845229999998
 20
233.0000039999999
 30
0.0
 40
4.5
100
AcDbArc
 50
41.81031700000001
 51
138.1896849999999
  0
ARC
  5
1AA4C
330
1A8AB
100
AcDbEntity
  8
1
  6
Continuous
100
AcDbCircle
 10
120.7845229999998
 20
233.0000039999999
 30
0.0
 40
8.0
100
AcDbArc
 50
68.06528
 51
100.806926
  0
ARC
  5
1AA4D
330
1A8AB
100
AcDbEntity
  8
1
  6
Continuous
100
AcDbCircle
 10
120.7845229999998
 20
233.0000039999999
 30
0.0
 40
8.0
100
AcDbArc
 50
259.193074
 51
291.934727
  0
LINE
  5
1AA4E
330
1A8AB
100
AcDbEntity
  8
1
  6
Continuous
100
AcDbLine
 10
126.4769669999999
 20
226.061588
 30
0.0
 11
124.7798689999999
 21
223.0000039999999
 31
0.0
  0
LINE
  5
1AA4F
330
1A8AB
100
AcDbEntity
  8
1
  6
Continuous
100
AcDbLine
 10
127.586098
 20
227.1147039999999
 30
0.0
 11
126.4769669999999
 21
226.061588
 31
0.0
  0
LINE
  5
1AA50
330
1A8AB
100
AcDbEntity
  8
1
  6
Continuous
100
AcDbLine
 10
126.4769669999999
 20
239.9384189999999
 30
0.0
 11
127.586082
 21
238.8853189999999
 31
0.0
  0
LINE
  5
1AA51
330
1A8AB
100
AcDbEntity
  8
1
  6
Continuous
100
AcDbLine
 10
122.979881
 20
224.5000039999999
 30
0.0
 11
124.779884
 21
223.0000039999999
 31
0.0
  0
ARC
  5
1AA52
330
1A8AB
100
AcDbEntity
  8
1
  6
Continuous
100
AcDbCircle
 10
137.093513
 20
233.0000039999999
 30
0.0
 40
6.706432
100
AcDbArc
 50
162.6492069999999
 51
197.350789
  0
ARC
  5
1AA53
330
1A8AB
100
AcDbEntity
  8
1
  6
Continuous
100
AcDbCircle
 10
94.79458599999999
 20
233.0000039999999
 30
0.0
 40
35.95332299999999
100
AcDbArc
 50
356.8111229999999
 51
3.188877
  0
LINE
  5
1AA54
330
1A8AB
100
AcDbEntity
  8
1
  6
Continuous
100
AcDbLine
 10
130.6922379999998
 20
231.0000039999999
 30
0.0
 11
129.784523
 21
230.553242
 31
0.0
  0
LINE
  5
1AA55
330
1A8AB
100
AcDbEntity
  8
1
  6
Continuous
100
AcDbLine
 10
130.6922379999998
 20
235.0000039999999
 30
0.0
 11
129.784523
 21
235.4467509999998
 31
0.0
  0
LINE
  5
1AA56
330
1A8AB
100
AcDbEntity
  8
1
  6
Continuous
100
AcDbLine
 10
127.784523
 20
230.000004
 30
0.0
 11
127.784523
 21
227.194599
 31
0.0
  0
LINE
  5
1AA57
330
1A8AB
100
AcDbEntity
  8
1
  6
Continuous
100
AcDbLine
 10
127.784523
 20
238.805393
 30
0.0
 11
127.784523
 21
236.000004
 31
0.0
  0
LINE
  5
1AA58
330
1A8AB
100
AcDbEntity
  8
1
  6
Continuous
100
AcDbLine
 10
129.784523
 20
238.000004
 30
0.0
 11
129.784523
 21
228.000004
 31
0.0
  0
LINE
  5
1AA59
330
1A8AB
100
AcDbEntity
  8
1
  6
Continuous
100
AcDbLine
 10
129.784538
 20
230.7500189999999
 30
0.0
 11
128.784538
 21
230.0000189999999
 31
0.0
  0
LINE
  5
1AA5A
330
1A8AB
100
AcDbEntity
  8
1
  6
Continuous
100
AcDbLine
 10
128.784523
 20
231.750004
 30
0.0
 11
129.784523
 21
230.7500039999999
 31
0.0
  0
LINE
  5
1AA5B
330
1A8AB
100
AcDbEntity
  8
1
  6
Continuous
100
AcDbLine
 10
129.784523
 20
235.2500039999999
 30
0.0
 11
128.784523
 21
234.249989
 31
0.0
  0
LINE
  5
1AA5C
330
1A8AB
100
AcDbEntity
  8
1
  6
Continuous
100
AcDbLine
 10
128.784523
 20
236.000004
 30
0.0
 11
129.784523
 21
235.2500039999999
 31
0.0
  0
LINE
  5
1AA5D
330
1A8AB
100
AcDbEntity
  8
1
  6
Continuous
100
AcDbLine
 10
128.784523
 20
234.250004
 30
0.0
 11
128.784523
 21
231.750004
 31
0.0
  0
LINE
  5
1AA5E
330
1A8AB
100
AcDbEntity
  8
1
  6
Continuous
100
AcDbLine
 10
198.502327
 20
181.000004
 30
0.0
 11
199.502327
 21
180.000004
 31
0.0
  0
LINE
  5
1AA5F
330
1A8AB
100
AcDbEntity
  8
1
  6
Continuous
100
AcDbLine
 10
203.002327
 20
181.000004
 30
0.0
 11
202.002327
 21
180.000004
 31
0.0
  0
LINE
  5
1AA60
330
1A8AB
100
AcDbEntity
  8
1
  6
Continuous
100
AcDbLine
 10
198.502342
 20
181.0000189999999
 30
0.0
 11
197.7523419999999
 21
180.0000189999999
 31
0.0
  0
LINE
  5
1AA61
330
1A8AB
100
AcDbEntity
  8
1
  6
Continuous
100
AcDbLine
 10
203.002327
 20
181.000004
 30
0.0
 11
203.752327
 21
180.000004
 31
0.0
  0
LINE
  5
1AA62
330
1A8AB
100
AcDbEntity
  8
1
  6
Continuous
100
AcDbLine
 10
202.002327
 20
180.000004
 30
0.0
 11
199.502327
 21
180.000004
 31
0.0
  0
CIRCLE
  5
1AA63
330
1A8AB
100
AcDbEntity
  8
1
  6
Continuous
100
AcDbCircle
 10
282.743847
 20
153.1096699999999
 30
0.0
 40
1.75
  0
LINE
  5
1AA64
330
1A8AB
100
AcDbEntity
  8
1
  6
Continuous
100
AcDbLine
 10
127.784523
 20
46.730507
 30
0.0
 11
106.2434309999999
 21
46.730507
 31
0.0
  0
LINE
  5
1AA65
330
1A8AB
100
AcDbEntity
  8
1
  6
Continuous
100
AcDbLine
 10
127.784523
 20
55.269501
 30
0.0
 11
106.2434309999999
 21
55.269501
 31
0.0
  0
LINE
  5
1AA66
330
1A8AB
100
AcDbEntity
  8
1
  6
Continuous
100
AcDbLine
 10
127.784523
 20
55.269501
 30
0.0
 11
126.784523
 21
56.773155
 31
0.0
  0
LINE
  5
1AA67
330
1A8AB
100
AcDbEntity
  8
1
  6
Continuous
100
AcDbLine
 10
127.784523
 20
46.73051499999998
 30
0.0
 11
126.784523
 21
45.22685999999999
 31
0.0
  0
LINE
  5
1AA68
330
1A8AB
100
AcDbEntity
  8
1
  6
Continuous
100
AcDbLine
 10
126.784523
 20
47.301579
 30
0.0
 11
127.784523
 21
46.73051499999998
 31
0.0
  0
LINE
  5
1AA69
330
1A8AB
100
AcDbEntity
  8
1
  6
Continuous
100
AcDbLine
 10
127.784523
 20
55.269493
 30
0.0
 11
126.784523
 21
54.69843299999999
 31
0.0
  0
LINE
  5
1AA6A
330
1A8AB
100
AcDbEntity
  8
4
  6
CENTER
100
AcDbLine
 10
135.7479169999998
 20
51.00000399999998
 30
0.0
 11
100.0004809999999
 21
51.00000399999998
 31
0.0
  0
LINE
  5
1AA6B
330
1A8AB
100
AcDbEntity
  8
1
  6
Continuous
100
AcDbLine
 10
128.225075
 20
56.278606
 30
0.0
 11
126.476982
 21
57.938423
 31
0.0
  0
LINE
  5
1AA6C
330
1A8AB
100
AcDbEntity
  8
1
  6
Continuous
100
AcDbLine
 10
126.4769669999999
 20
44.061588
 30
0.0
 11
128.22506
 21
45.72140899999999
 31
0.0
  0
LINE
  5
1AA6D
330
1A8AB
100
AcDbEntity
  8
1
  6
Continuous
100
AcDbLine
 10
129.7845079999999
 20
46.00000399999998
 30
0.0
 11
127.586082
 21
45.114693
 31
0.0
  0
LINE
  5
1AA6E
330
1A8AB
100
AcDbEntity
  8
1
  6
Continuous
100
AcDbLine
 10
129.784523
 20
56.0
 30
0.0
 11
127.586082
 21
56.885311
 31
0.0
  0
ARC
  5
1AA6F
330
1A8AB
100
AcDbEntity
  8
1
  6
Continuous
100
AcDbCircle
 10
-1.753243999999997
 20
51.00000399999998
 30
0.0
 40
126.9276579999999
100
AcDbArc
 50
355.481267
 51
357.450486
  0
ARC
  5
1AA70
330
1A8AB
100
AcDbEntity
  8
1
  6
Continuous
100
AcDbCircle
 10
220.5791239999999
 20
51.00000399999998
 30
0.0
 40
97.96868899999999
100
AcDbArc
 50
183.205895
 51
184.9773719999998
  0
ARC
  5
1AA71
330
1A8AB
100
AcDbEntity
  8
1
  6
Continuous
100
AcDbCircle
 10
-59.350605
 20
51.00000399999998
 30
0.0
 40
182.528503
100
AcDbArc
 50
357.3308809999999
 51
358.272324
  0
ARC
  5
1AA72
330
1A8AB
100
AcDbEntity
  8
1
  6
Continuous
100
AcDbCircle
 10
159.8174209999999
 20
51.00000399999998
 30
0.0
 40
50.0
100
AcDbArc
 50
185.2168659999999
 51
190.0204699999999
  0
ARC
  5
1AA73
330
1A8AB
100
AcDbEntity
  8
1
  6
Continuous
100
AcDbCircle
 10
117.7845229999998
 20
51.00000399999998
 30
0.0
 40
8.0
100
AcDbArc
 50
293.5926249999998
 51
305.6590869999999
  0
ARC
  5
1AA74
330
1A8AB
100
AcDbEntity
  8
1
  6
Continuous
100
AcDbCircle
 10
113.7271649999999
 20
45.31055499999999
 30
0.0
 40
5.0
100
AcDbArc
 50
188.68678
 51
221.461019
  0
LINE
  5
1AA75
330
1A8AB
100
AcDbEntity
  8
1
  6
Continuous
100
AcDbLine
 10
121.2845229999998
 20
44.00000399999998
 30
0.0
 11
121.2845229999998
 21
44.50000399999999
 31
0.0
  0
LINE
  5
1AA76
330
1A8AB
100
AcDbEntity
  8
1
  6
Continuous
100
AcDbLine
 10
117.2845229999998
 20
44.00000399999998
 30
0.0
 11
117.2845229999998
 21
44.50000399999999
 31
0.0
  0
LINE
  5
1AA77
330
1A8AB
100
AcDbEntity
  8
1
  6
Continuous
100
AcDbLine
 10
126.476982
 20
44.061588
 30
0.0
 11
124.779884
 21
41.000008
 31
0.0
  0
LINE
  5
1AA78
330
1A8AB
100
AcDbEntity
  8
1
  6
Continuous
100
AcDbLine
 10
110.580132
 20
42.30000299999999
 30
0.0
 11
110.580132
 21
44.50000399999999
 31
0.0
  0
LINE
  5
1AA79
330
1A8AB
100
AcDbEntity
  8
1
  6
Continuous
100
AcDbLine
 10
112.509361
 20
44.5
 30
0.0
 11
114.79612
 21
43.579121
 31
0.0
  0
LINE
  5
1AA7A
330
1A8AB
100
AcDbEntity
  8
1
  6
Continuous
100
AcDbLine
 10
110.580132
 20
42.30000299999999
 30
0.0
 11
109.980125
 21
42.00000399999999
 31
0.0
  0
ARC
  5
1AA7B
330
1A8AB
100
AcDbEntity
  8
1
  6
Continuous
100
AcDbCircle
 10
117.7845229999998
 20
51.00000399999998
 30
0.0
 40
8.0
100
AcDbArc
 50
248.0652819999999
 51
276.917613
  0
ARC
  5
1AA7C
330
1A8AB
100
AcDbEntity
  8
1
  6
Continuous
100
AcDbCircle
 10
119.2845229999998
 20
45.500004
 30
0.0
 40
2.5
100
AcDbArc
 50
216.8699029999999
 51
323.1301029999999
  0
ARC
  5
1AA7D
330
1A8AB
100
AcDbEntity
  8
1
  6
Continuous
100
AcDbCircle
 10
120.7845229999998
 20
51.00000399999998
 30
0.0
 40
8.0
100
AcDbArc
 50
263.0823889999999
 51
285.4402749999998
  0
LINE
  5
1AA7E
330
1A8AB
100
AcDbEntity
  8
1
  6
Continuous
100
AcDbLine
 10
121.2845229999998
 20
44.00000399999998
 30
0.0
 11
117.2845229999998
 21
44.00000399999998
 31
0.0
  0
LINE
  5
1AA7F
330
1A8AB
100
AcDbEntity
  8
1
  6
Continuous
100
AcDbLine
 10
124.7798689999999
 20
41.0
 30
0.0
 11
122.979881
 21
42.5
 31
0.0
  0
LINE
  5
1AA80
330
1A8AB
100
AcDbEntity
  8
1
  6
Continuous
100
AcDbLine
 10
122.764946
 20
45.500004
 30
0.0
 11
111.351875
 21
45.500004
 31
0.0
  0
LINE
  5
1AA81
330
1A8AB
100
AcDbEntity
  8
1
  6
Continuous
100
AcDbLine
 10
122.764946
 20
56.50000399999999
 30
0.0
 11
111.351875
 21
56.50000399999999
 31
0.0
  0
LINE
  5
1AA82
330
1A8AB
100
AcDbEntity
  8
1
  6
Continuous
100
AcDbLine
 10
122.784523
 20
44.50000399999999
 30
0.0
 11
110.580132
 21
44.50000399999999
 31
0.0
  0
LINE
  5
1AA83
330
1A8AB
100
AcDbEntity
  8
1
  6
Continuous
100
AcDbLine
 10
122.784523
 20
57.50000400000001
 30
0.0
 11
110.580132
 21
57.50000400000001
 31
0.0
  0
LINE
  5
1AA84
330
1A8AB
100
AcDbEntity
  8
1
  6
Continuous
100
AcDbLine
 10
126.784523
 20
56.773155
 30
0.0
 11
105.9771039999997
 21
55.25000399999999
 31
0.0
  0
LINE
  5
1AA85
330
1A8AB
100
AcDbEntity
  8
1
  6
Continuous
100
AcDbLine
 10
126.784523
 20
45.226852
 30
0.0
 11
105.9771039999997
 21
46.750004
 31
0.0
  0
LINE
  5
1AA86
330
1A8AB
100
AcDbEntity
  8
1
  6
Continuous
100
AcDbLine
 10
126.784523
 20
47.301571
 30
0.0
 11
105.9771039999997
 21
48.754875
 31
0.0
  0
LINE
  5
1AA87
330
1A8AB
100
AcDbEntity
  8
1
  6
Continuous
100
AcDbLine
 10
126.784523
 20
54.698437
 30
0.0
 11
105.977089
 21
53.245132
 31
0.0
  0
ARC
  5
1AA88
330
1A8AB
100
AcDbEntity
  8
1
  6
Continuous
100
AcDbCircle
 10
111.351875
 20
46.50000399999998
 30
0.0
 40
1.0
100
AcDbArc
 50
193.546323
 51
269.9999969999999
  0
ARC
  5
1AA89
330
1A8AB
100
AcDbEntity
  8
1
  6
Continuous
100
AcDbCircle
 10
111.351875
 20
55.500004
 30
0.0
 40
1.0
100
AcDbArc
 50
90.00000300000001
 51
166.4536769999999
  0
ARC
  5
1AA8A
330
1A8AB
100
AcDbEntity
  8
1
  6
Continuous
100
AcDbCircle
 10
130.0291819999999
 20
51.00000399999998
 30
0.0
 40
20.211771
100
AcDbArc
 50
193.0662419999999
 51
193.546323
  0
ARC
  5
1AA8B
330
1A8AB
100
AcDbEntity
  8
1
  6
Continuous
100
AcDbCircle
 10
130.0291819999999
 20
51.00000399999998
 30
0.0
 40
20.211771
100
AcDbArc
 50
166.4536769999999
 51
166.933758
  0
ARC
  5
1AA8C
330
1A8AB
100
AcDbEntity
  8
1
  6
Continuous
100
AcDbCircle
 10
158.367455
 20
51.00000399999998
 30
0.0
 40
50.0
100
AcDbArc
 50
172.594413
 51
174.9060769999999
  0
ARC
  5
1AA8D
330
1A8AB
100
AcDbEntity
  8
1
  6
Continuous
100
AcDbCircle
 10
159.8174209999999
 20
51.00000399999998
 30
0.0
 40
50.0
100
AcDbArc
 50
169.97953
 51
174.7831339999999
  0
ARC
  5
1AA8E
330
1A8AB
100
AcDbEntity
  8
1
  6
Continuous
100
AcDbCircle
 10
158.367455
 20
51.00000399999998
 30
0.0
 40
50.0
100
AcDbArc
 50
185.093923
 51
187.405587
  0
ARC
  5
1AA8F
330
1A8AB
100
AcDbEntity
  8
1
  6
Continuous
100
AcDbCircle
 10
106.617851
 20
47.751095
 30
0.0
 40
2.0
100
AcDbArc
 50
304.0340339999999
 51
324.306548
  0
ARC
  5
1AA90
330
1A8AB
100
AcDbEntity
  8
1
  6
Continuous
100
AcDbCircle
 10
106.617851
 20
54.248913
 30
0.0
 40
2.0
100
AcDbArc
 50
35.693452
 51
55.965966
  0
ARC
  5
1AA91
330
1A8AB
100
AcDbEntity
  8
1
  6
Continuous
100
AcDbCircle
 10
101.5095059999999
 20
51.00000399999998
 30
0.0
 40
5.0
100
AcDbArc
 50
333.318821
 51
26.68117899999999
  0
ARC
  5
1AA92
330
1A8AB
100
AcDbEntity
  8
1
  6
Continuous
100
AcDbCircle
 10
114.736271
 20
51.00000399999998
 30
0.0
 40
9.735785999999999
100
AcDbArc
 50
154.117068
 51
205.8829289999999
  0
ARC
  5
1AA93
330
1A8AB
100
AcDbEntity
  8
1
  6
Continuous
100
AcDbCircle
 10
113.7271649999999
 20
56.689453
 30
0.0
 40
5.0
100
AcDbArc
 50
138.538981
 51
171.3132199999998
  0
ARC
  5
1AA94
330
1A8AB
100
AcDbEntity
  8
1
  6
Continuous
100
AcDbCircle
 10
109.8072429999999
 20
53.897892
 30
0.0
 40
3.0
100
AcDbArc
 50
148.9681199999999
 51
151.3184009999999
  0
ARC
  5
1AA95
330
1A8AB
100
AcDbEntity
  8
1
  6
Continuous
100
AcDbCircle
 10
109.8072429999999
 20
48.10211599999998
 30
0.0
 40
3.0
100
AcDbArc
 50
208.681599
 51
211.0318799999999
  0
LINE
  5
1AA96
330
1A8AB
100
AcDbEntity
  8
1
  6
Continuous
100
AcDbLine
 10
106.1178509999999
 20
56.20000499999999
 30
0.0
 11
106.1178509999999
 21
57.000004
 31
0.0
  0
LINE
  5
1AA97
330
1A8AB
100
AcDbEntity
  8
1
  6
Continuous
100
AcDbLine
 10
106.1178509999999
 20
56.19999700000001
 30
0.0
 11
107.373161
 21
55.352196
 31
0.0
  0
LINE
  5
1AA98
330
1A8AB
100
AcDbEntity
  8
1
  6
Continuous
100
AcDbLine
 10
106.1178509999999
 20
45.80001099999999
 30
0.0
 11
107.373161
 21
46.647812
 31
0.0
  0
LINE
  5
1AA99
330
1A8AB
100
AcDbEntity
  8
1
  6
Continuous
100
AcDbLine
 10
108.7845229999998
 20
57.444611
 30
0.0
 11
107.628517
 21
55.97974
 31
0.0
  0
LINE
  5
1AA9A
330
1A8AB
100
AcDbEntity
  8
1
  6
Continuous
100
AcDbLine
 10
108.7845229999998
 20
44.555401
 30
0.0
 11
107.628517
 21
46.02026699999998
 31
0.0
  0
LINE
  5
1AA9B
330
1A8AB
100
AcDbEntity
  8
1
  6
Continuous
100
AcDbLine
 10
106.1178509999999
 20
45.000004
 30
0.0
 11
106.1178509999999
 21
45.800003
 31
0.0
  0
LINE
  5
1AA9C
330
1A8AB
100
AcDbEntity
  8
1
  6
Continuous
100
AcDbLine
 10
110.580132
 20
57.50000400000001
 30
0.0
 11
110.580132
 21
59.70000500000001
 31
0.0
  0
LINE
  5
1AA9D
330
1A8AB
100
AcDbEntity
  8
1
  6
Continuous
100
AcDbLine
 10
110.580132
 20
59.700001
 30
0.0
 11
109.9801409999999
 21
60.00000400000001
 31
0.0
  0
LINE
  5
1AA9E
330
1A8AB
100
AcDbEntity
  8
1
  6
Continuous
100
AcDbLine
 10
106.1178509999999
 20
45.000008
 30
0.0
 11
107.7372209999999
 21
46.09368899999998
 31
0.0
  0
LINE
  5
1AA9F
330
1A8AB
100
AcDbEntity
  8
1
  6
Continuous
100
AcDbLine
 10
106.1178509999999
 20
56.99999599999999
 30
0.0
 11
107.7372209999999
 21
55.90631899999999
 31
0.0
  0
ARC
  5
1AAA0
330
1A8AB
100
AcDbEntity
  8
1
  6
Continuous
100
AcDbCircle
 10
118.334526
 20
57.50000400000001
 30
0.0
 40
0.8
100
AcDbArc
 50
90.00000300000001
 51
180.000005
  0
ARC
  5
1AAA1
330
1A8AB
100
AcDbEntity
  8
1
  6
Continuous
100
AcDbCircle
 10
120.2345199999999
 20
57.50000400000001
 30
0.0
 40
0.8
100
AcDbArc
 50
0.0
 51
90.00000300000001
  0
ARC
  5
1AAA2
330
1A8AB
100
AcDbEntity
  8
1
  6
Continuous
100
AcDbCircle
 10
92.278976
 20
51.00000399999998
 30
0.0
 40
34.894768
100
AcDbArc
 50
348.530965
 51
350.487974
  0
ARC
  5
1AAA3
330
1A8AB
100
AcDbEntity
  8
1
  6
Continuous
100
AcDbCircle
 10
92.278976
 20
51.00000399999998
 30
0.0
 40
34.894768
100
AcDbArc
 50
353.744748
 51
6.255251999999999
  0
ARC
  5
1AAA4
330
1A8AB
100
AcDbEntity
  8
1
  6
Continuous
100
AcDbCircle
 10
92.278976
 20
51.00000399999998
 30
0.0
 40
34.894768
100
AcDbArc
 50
9.512025999999998
 51
11.46903499999998
  0
ARC
  5
1AAA5
330
1A8AB
100
AcDbEntity
  8
1
  6
Continuous
100
AcDbCircle
 10
-1.753243999999997
 20
51.00000399999998
 30
0.0
 40
126.9276579999999
100
AcDbArc
 50
2.549513999999998
 51
4.518733
  0
ARC
  5
1AAA6
330
1A8AB
100
AcDbEntity
  8
1
  6
Continuous
100
AcDbCircle
 10
220.5791239999999
 20
51.00000399999998
 30
0.0
 40
97.96868899999999
100
AcDbArc
 50
175.0226279999999
 51
176.794105
  0
ARC
  5
1AAA7
330
1A8AB
100
AcDbEntity
  8
1
  6
Continuous
100
AcDbCircle
 10
-59.350605
 20
51.00000399999998
 30
0.0
 40
182.528503
100
AcDbArc
 50
1.727675999999999
 51
2.669118999999998
  0
ARC
  5
1AAA8
330
1A8AB
100
AcDbEntity
  8
1
  6
Continuous
100
AcDbCircle
 10
120.2845229999998
 20
51.00000399999998
 30
0.0
 40
5.5
100
AcDbArc
 50
249.6725279999999
 51
269.9999969999999
  0
ARC
  5
1AAA9
330
1A8AB
100
AcDbEntity
  8
1
  6
Continuous
100
AcDbCircle
 10
120.2845229999998
 20
51.00000399999998
 30
0.0
 40
5.5
100
AcDbArc
 50
90.00000300000001
 51
110.3274719999999
  0
ARC
  5
1AAAA
330
1A8AB
100
AcDbEntity
  8
1
  6
Continuous
100
AcDbCircle
 10
117.7845229999998
 20
51.00000399999998
 30
0.0
 40
8.0
100
AcDbArc
 50
51.09788099999999
 51
51.31781400000001
  0
ARC
  5
1AAAB
330
1A8AB
100
AcDbEntity
  8
1
  6
Continuous
100
AcDbCircle
 10
117.7845229999998
 20
51.00000399999998
 30
0.0
 40
8.0
100
AcDbArc
 50
54.340913
 51
111.934725
  0
ARC
  5
1AAAC
330
1A8AB
100
AcDbEntity
  8
1
  6
Continuous
100
AcDbCircle
 10
120.7845229999998
 20
51.00000399999998
 30
0.0
 40
8.0
100
AcDbArc
 50
74.559725
 51
100.806926
  0
LINE
  5
1AAAD
330
1A8AB
100
AcDbEntity
  8
1
  6
Continuous
100
AcDbLine
 10
120.2345199999999
 20
58.300003
 30
0.0
 11
118.334526
 21
58.300003
 31
0.0
  0
LINE
  5
1AAAE
330
1A8AB
100
AcDbEntity
  8
1
  6
Continuous
100
AcDbLine
 10
122.784523
 20
45.16225799999999
 30
0.0
 11
122.784523
 21
44.50000399999999
 31
0.0
  0
LINE
  5
1AAAF
330
1A8AB
100
AcDbEntity
  8
1
  6
Continuous
100
AcDbLine
 10
126.476982
 20
57.938419
 30
0.0
 11
124.779884
 21
61.00000399999998
 31
0.0
  0
LINE
  5
1AAB0
330
1A8AB
100
AcDbEntity
  8
1
  6
Continuous
100
AcDbLine
 10
122.784523
 20
57.50000400000001
 30
0.0
 11
122.784523
 21
56.837749
 31
0.0
  0
LINE
  5
1AAB1
330
1A8AB
100
AcDbEntity
  8
1
  6
Continuous
100
AcDbLine
 10
126.2845229999998
 20
51.00000399999998
 30
0.0
 11
126.784523
 21
47.301571
 31
0.0
  0
LINE
  5
1AAB2
330
1A8AB
100
AcDbEntity
  8
1
  6
Continuous
100
AcDbLine
 10
126.784523
 20
54.698437
 30
0.0
 11
126.2845229999998
 21
51.00000399999998
 31
0.0
  0
LINE
  5
1AAB3
330
1A8AB
100
AcDbEntity
  8
1
  6
Continuous
100
AcDbLine
 10
122.979881
 20
59.500011
 30
0.0
 11
124.7798689999999
 21
61.00000399999998
 31
0.0
  0
LINE
  5
1AAB4
330
1A8AB
100
AcDbEntity
  8
1
  6
Continuous
100
AcDbLine
 10
112.509361
 20
57.50000799999999
 30
0.0
 11
114.79612
 21
58.420883
 31
0.0
  0
ARC
  5
1AAB5
330
1A8AB
100
AcDbEntity
  8
1
  6
Continuous
100
AcDbCircle
 10
130.1874219999999
 20
49.323677
 30
0.0
 40
0.5
100
AcDbArc
 50
296.205029
 51
355.581958
  0
ARC
  5
1AAB6
330
1A8AB
100
AcDbEntity
  8
1
  6
Continuous
100
AcDbCircle
 10
130.1874219999999
 20
52.67633100000001
 30
0.0
 40
0.5
100
AcDbArc
 50
4.418041999999998
 51
63.794971
  0
ARC
  5
1AAB7
330
1A8AB
100
AcDbEntity
  8
1
  6
Continuous
100
AcDbCircle
 10
108.4909499999999
 20
51.00000399999998
 30
0.0
 40
22.26113299999999
100
AcDbArc
 50
355.581958
 51
4.418041999999998
  0
ARC
  5
1AAB8
330
1A8AB
100
AcDbEntity
  8
1
  6
Continuous
100
AcDbCircle
 10
124.782265
 20
49.347301
 30
0.0
 40
5.0
100
AcDbArc
 50
313.5162189999999
 51
0.0
  0
ARC
  5
1AAB9
330
1A8AB
100
AcDbEntity
  8
1
  6
Continuous
100
AcDbCircle
 10
124.782265
 20
52.652706
 30
0.0
 40
5.0
100
AcDbArc
 50
0.0
 51
46.48378099999999
  0
LINE
  5
1AABA
330
1A8AB
100
AcDbEntity
  8
1
  6
Continuous
100
AcDbLine
 10
130.4082159999998
 20
48.875065
 30
0.0
 11
129.7157139999999
 21
48.534236
 31
0.0
  0
LINE
  5
1AABB
330
1A8AB
100
AcDbEntity
  8
1
  6
Continuous
100
AcDbLine
 10
129.7157149999998
 20
53.465767
 30
0.0
 11
130.4082159999998
 21
53.124935
 31
0.0
  0
LINE
  5
1AABC
330
1A8AB
100
AcDbEntity
  8
1
  6
Continuous
100
AcDbLine
 10
129.784523
 20
53.43190100000001
 30
0.0
 11
129.784523
 21
56.00000399999998
 31
0.0
  0
LINE
  5
1AABD
330
1A8AB
100
AcDbEntity
  8
1
  6
Continuous
100
AcDbLine
 10
129.782265
 20
52.652706
 30
0.0
 11
129.782265
 21
49.347301
 31
0.0
  0
LINE
  5
1AABE
330
1A8AB
100
AcDbEntity
  8
1
  6
Continuous
100
AcDbLine
 10
129.784523
 20
46.00000399999998
 30
0.0
 11
129.784523
 21
48.568102
 31
0.0
  0
ARC
  5
1AABF
330
1A8AB
100
AcDbEntity
  8
1
  6
Continuous
100
AcDbCircle
 10
119.2845229999998
 20
170.5000039999999
 30
0.0
 40
7.0
100
AcDbArc
 50
0.0
 51
180.0
  0
ARC
  5
1AAC0
330
1A8AB
100
AcDbEntity
  8
1
  6
Continuous
100
AcDbCircle
 10
127.784523
 20
170.5000039999999
 30
0.0
 40
1.5
100
AcDbArc
 50
180.0
 51
270.0
  0
ARC
  5
1AAC1
330
1A8AB
100
AcDbEntity
  8
1
  6
Continuous
100
AcDbCircle
 10
110.7845229999998
 20
170.5000039999999
 30
0.0
 40
1.5
100
AcDbArc
 50
270.0
 51
0.0
  0
ARC
  5
1AAC2
330
1A8AB
100
AcDbEntity
  8
1
  6
Continuous
100
AcDbCircle
 10
118.856282
 20
158.624187
 30
0.0
 40
6.875816999999998
100
AcDbArc
 50
53.120717
 51
134.8792769999998
  0
ARC
  5
1AAC3
330
1A8AB
100
AcDbEntity
  8
1
  6
Continuous
100
AcDbCircle
 10
282.743847
 20
171.1096699999998
 30
0.0
 40
7.0
100
AcDbArc
 50
0.0
 51
180.0
  0
ARC
  5
1AAC4
330
1A8AB
100
AcDbEntity
  8
1
  6
Continuous
100
AcDbCircle
 10
281.684795
 20
172.285207
 30
0.0
 40
8.0
100
AcDbArc
 50
124.067052
 51
190.8551759999998
  0
ARC
  5
1AAC5
330
1A8AB
100
AcDbEntity
  8
1
  6
Continuous
100
AcDbCircle
 10
283.8029129999998
 20
172.285207
 30
0.0
 40
8.0
100
AcDbArc
 50
349.1448299999998
 51
55.932947
  0
ARC
  5
1AAC6
330
1A8AB
100
AcDbEntity
  8
1
  6
Continuous
100
AcDbCircle
 10
282.743847
 20
171.1096699999998
 30
0.0
 40
8.5
100
AcDbArc
 50
359.999995
 51
180.0
  0
ARC
  5
1AAC7
330
1A8AB
100
AcDbEntity
  8
1
  6
Continuous
100
AcDbCircle
 10
282.743847
 20
170.7190449999998
 30
0.0
 40
10.890625
100
AcDbArc
 50
15.39209899999999
 51
164.607897
  0
LINE
  5
1AAC8
330
1A8AB
100
AcDbEntity
  8
4
  6
CENTER
100
AcDbLine
 10
282.743847
 20
186.6096699999999
 30
0.0
 11
282.743847
 21
96.60966999999999
 31
0.0
  0
ARC
  5
1AAC9
330
1A8AB
100
AcDbEntity
  8
1
  6
Continuous
100
AcDbCircle
 10
274.243847
 20
171.1096699999998
 30
0.0
 40
1.5
100
AcDbArc
 50
270.0
 51
0.0
  0
LINE
  5
1AACA
330
1A8AB
100
AcDbEntity
  8
1
  6
Continuous
100
AcDbLine
 10
276.2481649999999
 20
148.3596699999999
 30
0.0
 11
273.6926689999999
 21
145.002004
 31
0.0
  0
LINE
  5
1AACB
330
1A8AB
100
AcDbEntity
  8
1
  6
Continuous
100
AcDbLine
 10
275.1851759999999
 20
128.55364
 30
0.0
 11
274.243847
 21
111.6096699999998
 31
0.0
  0
LINE
  5
1AACC
330
1A8AB
100
AcDbEntity
  8
1
  6
Continuous
100
AcDbLine
 10
276.4187729999998
 20
131.6200609999999
 30
0.0
 11
273.787487
 21
134.197255
 31
0.0
  0
LINE
  5
1AACD
330
1A8AB
100
AcDbEntity
  8
4
  6
CENTER
100
AcDbLine
 10
300.1742509999999
 20
139.867162
 30
0.0
 11
266.432247
 21
139.867162
 31
0.0
  0
ARC
  5
1AACE
330
1A8AB
100
AcDbEntity
  8
1
  6
Continuous
100
AcDbCircle
 10
284.243847
 20
111.6096699999998
 30
0.0
 40
10.0
100
AcDbArc
 50
180.0
 51
333.5189649999999
  0
ARC
  5
1AACF
330
1A8AB
100
AcDbEntity
  8
1
  6
Continuous
100
AcDbCircle
 10
275.743847
 20
162.10967
 30
0.0
 40
3.5
100
AcDbArc
 50
180.0
 51
270.0000029999998
  0
ARC
  5
1AAD0
330
1A8AB
100
AcDbEntity
  8
1
  6
Continuous
100
AcDbCircle
 10
275.743847
 20
162.10967
 30
0.0
 40
1.5
100
AcDbArc
 50
180.0
 51
270.0000029999998
  0
LINE
  5
1AAD1
330
1A8AB
100
AcDbEntity
  8
1
  6
Continuous
100
AcDbLine
 10
293.243847
 20
134.073964
 30
0.0
 11
293.243847
 21
129.6096699999999
 31
0.0
  0
LINE
  5
1AAD2
330
1A8AB
100
AcDbEntity
  8
1
  6
Continuous
100
AcDbLine
 10
291.836239
 20
134.8503919999999
 30
0.0
 11
293.410518
 21
114.6096699999998
 31
0.0
  0
ARC
  5
1AAD3
330
1A8AB
100
AcDbEntity
  8
1
  6
Continuous
100
AcDbCircle
 10
273.854961
 20
133.177907
 30
0.0
 40
3.0
100
AcDbArc
 50
321.435039
 51
0.000009
  0
ARC
  5
1AAD4
330
1A8AB
100
AcDbEntity
  8
1
  6
Continuous
100
AcDbCircle
 10
273.854961
 20
133.177907
 30
0.0
 40
5.0
100
AcDbArc
 50
321.435039
 51
0.000009
  0
LINE
  5
1AAD5
330
1A8AB
100
AcDbEntity
  8
1
  6
Continuous
100
AcDbLine
 10
294.676082
 20
114.609662
 30
0.0
 11
291.404506
 21
108.042455
 31
0.0
  0
LINE
  5
1AAD6
330
1A8AB
100
AcDbEntity
  8
1
  6
Continuous
100
AcDbLine
 10
296.910518
 20
114.609662
 30
0.0
 11
293.1946669999998
 21
107.1506469999999
 31
0.0
  0
ARC
  5
1AAD7
330
1A8AB
100
AcDbEntity
  8
1
  6
Continuous
100
AcDbCircle
 10
294.8392140000001
 20
108.6535919999999
 30
0.0
 40
5.0
100
AcDbArc
 50
97.60012000000001
 51
164.4110409999998
  0
ARC
  5
1AAD8
330
1A8AB
100
AcDbEntity
  8
1
  6
Continuous
100
AcDbCircle
 10
284.243847
 20
111.6096699999998
 30
0.0
 40
8.0
100
AcDbArc
 50
173.443171
 51
333.5189649999999
  0
ARC
  5
1AAD9
330
1A8AB
100
AcDbEntity
  8
1
  6
Continuous
100
AcDbCircle
 10
284.243847
 20
111.6096699999998
 30
0.0
 40
6.0
100
AcDbArc
 50
180.0
 51
344.411041
  0
ARC
  5
1AADA
330
1A8AB
100
AcDbEntity
  8
1
  6
Continuous
100
AcDbCircle
 10
284.243847
 20
111.6096699999998
 30
0.0
 40
9.0
100
AcDbArc
 50
173.443171
 51
355.305753
  0
LINE
  5
1AADB
330
1A8AB
100
AcDbEntity
  8
1
  6
Continuous
100
AcDbLine
 10
293.243847
 20
129.6096699999999
 30
0.0
 11
295.910518
 21
114.6096699999998
 31
0.0
  0
LINE
  5
1AADC
330
1A8AB
100
AcDbEntity
  8
1
  6
Continuous
100
AcDbLine
 10
293.410518
 20
114.6096699999998
 30
0.0
 11
295.910518
 21
114.6096699999998
 31
0.0
  0
ARC
  5
1AADD
330
1A8AB
100
AcDbEntity
  8
1
  6
Continuous
100
AcDbCircle
 10
298.1968799999999
 20
110.463933
 30
0.0
 40
5.0
100
AcDbArc
 50
153.5189599999999
 51
175.3057489999999
  0
ARC
  5
1AADE
330
1A8AB
100
AcDbEntity
  8
1
  6
Continuous
100
AcDbCircle
 10
295.0512649999998
 20
120.60967
 30
0.0
 40
1.0
100
AcDbArc
 50
25.161469
 51
111.8642189999999
  0
ARC
  5
1AADF
330
1A8AB
100
AcDbEntity
  8
1
  6
Continuous
100
AcDbCircle
 10
285.735378
 20
116.2335939999999
 30
0.0
 40
11.292507
100
AcDbArc
 50
351.7318729999999
 51
25.161469
  0
LINE
  5
1AAE0
330
1A8AB
100
AcDbEntity
  8
1
  6
Continuous
100
AcDbLine
 10
279.237682
 20
129.3877919999999
 30
0.0
 11
278.237682
 21
111.3877919999999
 31
0.0
  0
LINE
  5
1AAE1
330
1A8AB
100
AcDbEntity
  8
1
  6
Continuous
100
AcDbLine
 10
277.1298019999999
 20
128.5332539999999
 30
0.0
 11
275.3027299999998
 21
112.6373719999999
 31
0.0
  0
LINE
  5
1AAE2
330
1A8AB
100
AcDbEntity
  8
1
  6
Continuous
100
AcDbLine
 10
278.2931479999999
 20
129.8970689999999
 30
0.0
 11
276.296184
 21
112.523183
 31
0.0
  0
ARC
  5
1AAE3
330
1A8AB
100
AcDbEntity
  8
1
  6
Continuous
100
AcDbCircle
 10
280.177486
 20
128.276296
 30
0.0
 40
5.0
100
AcDbArc
 50
142.2149909999999
 51
176.8201699999999
  0
ARC
  5
1AAE4
330
1A8AB
100
AcDbEntity
  8
1
  6
Continuous
100
AcDbCircle
 10
275.3127549999999
 20
130.239629
 30
0.0
 40
3.0
100
AcDbArc
 50
353.4431769999998
 51
10.942095
  0
ARC
  5
1AAE5
330
1A8AB
100
AcDbEntity
  8
1
  6
Continuous
100
AcDbCircle
 10
280.1101799999999
 20
128.190694
 30
0.0
 40
3.0
100
AcDbArc
 50
141.435034
 51
173.443171
  0
ARC
  5
1AAE6
330
1A8AB
100
AcDbEntity
  8
1
  6
Continuous
100
AcDbCircle
 10
274.242794
 20
129.161901
 30
0.0
 40
5.0
100
AcDbArc
 50
2.589402
 51
29.311287
  0
LINE
  5
1AAE7
330
1A8AB
100
AcDbEntity
  8
1
  6
Continuous
100
AcDbLine
 10
291.243847
 20
156.6096699999999
 30
0.0
 11
292.048244
 21
147.95696
 31
0.0
  0
LINE
  5
1AAE8
330
1A8AB
100
AcDbEntity
  8
1
  6
Continuous
100
AcDbLine
 10
277.243847
 20
158.6096699999998
 30
0.0
 11
277.243847
 21
150.3596699999999
 31
0.0
  0
ARC
  5
1AAE9
330
1A8AB
100
AcDbEntity
  8
1
  6
Continuous
100
AcDbCircle
 10
282.743847
 20
153.1096699999999
 30
0.0
 40
3.5
100
AcDbArc
 50
89.99999700000001
 51
270.0000029999998
  0
LINE
  5
1AAEA
330
1A8AB
100
AcDbEntity
  8
1
  6
Continuous
100
AcDbLine
 10
289.787059
 20
140.8465629999998
 30
0.0
 11
290.9590109999999
 21
135.74767
 31
0.0
  0
LINE
  5
1AAEB
330
1A8AB
100
AcDbEntity
  8
1
  6
Continuous
100
AcDbLine
 10
290.2097739999998
 20
143.4716689999999
 30
0.0
 11
290.854961
 21
140.664586
 31
0.0
  0
ARC
  5
1AAEC
330
1A8AB
100
AcDbEntity
  8
1
  6
Continuous
100
AcDbCircle
 10
288.354961
 20
147.1096699999999
 30
0.0
 40
2.5
100
AcDbArc
 50
359.999995
 51
89.99999700000001
  0
ARC
  5
1AAED
330
1A8AB
100
AcDbEntity
  8
1
  6
Continuous
100
AcDbCircle
 10
288.854961
 20
146.60967
 30
0.0
 40
3.0
100
AcDbArc
 50
359.999995
 51
89.99999700000001
  0
LINE
  5
1AAEE
330
1A8AB
100
AcDbEntity
  8
1
  6
Continuous
100
AcDbLine
 10
292.4109759999998
 20
147.2753339999999
 30
0.0
 11
292.854244
 21
134.5818379999998
 31
0.0
  0
LINE
  5
1AAEF
330
1A8AB
100
AcDbEntity
  8
1
  6
Continuous
100
AcDbLine
 10
291.8549609999999
 20
146.60967
 30
0.0
 11
291.8549609999999
 21
136.313481
 31
0.0
  0
LINE
  5
1AAF0
330
1A8AB
100
AcDbEntity
  8
1
  6
Continuous
100
AcDbLine
 10
290.854961
 20
147.1096699999999
 30
0.0
 11
290.854961
 21
136.571492
 31
0.0
  0
LINE
  5
1AAF1
330
1A8AB
100
AcDbEntity
  8
1
  6
Continuous
100
AcDbLine
 10
295.0651659999999
 20
142.903905
 30
0.0
 11
295.2772479999998
 21
136.830403
 31
0.0
  0
LINE
  5
1AAF2
330
1A8AB
100
AcDbEntity
  8
1
  6
Continuous
100
AcDbLine
 10
292.4109759999998
 20
147.2753339999999
 30
0.0
 11
294.4458419999999
 21
144.6270649999999
 31
0.0
  0
LINE
  5
1AAF3
330
1A8AB
100
AcDbEntity
  8
1
  6
Continuous
100
AcDbLine
 10
294.779644
 20
135.0682569999999
 30
0.0
 11
293.243847
 21
132.7512259999998
 31
0.0
  0
ARC
  5
1AAF4
330
1A8AB
100
AcDbEntity
  8
1
  6
Continuous
100
AcDbCircle
 10
293.8549609999999
 20
136.313481
 30
0.0
 40
2.0
100
AcDbArc
 50
180.0
 51
243.612202
  0
ARC
  5
1AAF5
330
1A8AB
100
AcDbEntity
  8
1
  6
Continuous
100
AcDbCircle
 10
292.854961
 20
136.571492
 30
0.0
 40
2.0
100
AcDbArc
 50
180.0
 51
267.452683
  0
ARC
  5
1AAF6
330
1A8AB
100
AcDbEntity
  8
1
  6
Continuous
100
AcDbCircle
 10
292.743847
 20
134.073964
 30
0.0
 40
0.5
100
AcDbArc
 50
359.999995
 51
87.452678
  0
ARC
  5
1AAF7
330
1A8AB
100
AcDbEntity
  8
1
  6
Continuous
100
AcDbCircle
 10
293.043941
 20
148.04952
 30
0.0
 40
1.0
100
AcDbArc
 50
185.3111639999999
 51
230.7310049999999
  0
ARC
  5
1AAF8
330
1A8AB
100
AcDbEntity
  8
1
  6
Continuous
100
AcDbCircle
 10
291.4462999999999
 20
135.8596699999999
 30
0.0
 40
0.5
100
AcDbArc
 50
170.0
 51
243.898612
  0
ARC
  5
1AAF9
330
1A8AB
100
AcDbEntity
  8
1
  6
Continuous
100
AcDbCircle
 10
292.279079
 20
136.7257129999998
 30
0.0
 40
3.0
100
AcDbArc
 50
326.462318
 51
1.999997
  0
ARC
  5
1AAFA
330
1A8AB
100
AcDbEntity
  8
1
  6
Continuous
100
AcDbCircle
 10
292.066982
 20
142.7992139999998
 30
0.0
 40
3.0
100
AcDbArc
 50
1.999997
 51
37.53767599999999
  0
LINE
  5
1AAFB
330
1A8AB
100
AcDbEntity
  8
1
  6
Continuous
100
AcDbLine
 10
277.2438619999999
 20
150.3596699999999
 30
0.0
 11
276.2481649999999
 21
148.3596699999999
 31
0.0
  0
LINE
  5
1AAFC
330
1A8AB
100
AcDbEntity
  8
1
  6
Continuous
100
AcDbLine
 10
282.6937819999999
 20
140.929982
 30
0.0
 11
280.695217
 21
141.1131179999999
 31
0.0
  0
LINE
  5
1AAFD
330
1A8AB
100
AcDbEntity
  8
1
  6
Continuous
100
AcDbLine
 10
282.743847
 20
149.60967
 30
0.0
 11
288.854961
 21
149.60967
 31
0.0
  0
LINE
  5
1AAFE
330
1A8AB
100
AcDbEntity
  8
1
  6
Continuous
100
AcDbLine
 10
279.4179339999999
 20
146.353749
 30
0.0
 11
278.850475
 21
132.966146
 31
0.0
  0
LINE
  5
1AAFF
330
1A8AB
100
AcDbEntity
  8
1
  6
Continuous
100
AcDbLine
 10
277.2484999999999
 20
148.3596699999999
 30
0.0
 11
276.8539539999998
 21
133.1003619999999
 31
0.0
  0
LINE
  5
1AB00
330
1A8AB
100
AcDbEntity
  8
1
  6
Continuous
100
AcDbLine
 10
276.2481649999999
 20
148.3596699999999
 30
0.0
 11
274.8546249999999
 21
133.152059
 31
0.0
  0
LINE
  5
1AB01
330
1A8AB
100
AcDbEntity
  8
1
  6
Continuous
100
AcDbLine
 10
286.29832
 20
149.60967
 30
0.0
 11
286.2457839999999
 21
149.2245229999998
 31
0.0
  0
LINE
  5
1AB02
330
1A8AB
100
AcDbEntity
  8
1
  6
Continuous
100
AcDbLine
 10
277.2484999999999
 20
148.3596699999999
 30
0.0
 11
285.2549549999998
 21
148.3596699999999
 31
0.0
  0
LINE
  5
1AB03
330
1A8AB
100
AcDbEntity
  8
1
  6
Continuous
100
AcDbLine
 10
282.7998769999999
 20
135.7728469999998
 30
0.0
 11
284.1223259999998
 21
143.2728469999998
 31
0.0
  0
LINE
  5
1AB04
330
1A8AB
100
AcDbEntity
  8
1
  6
Continuous
100
AcDbLine
 10
281.9967759999999
 20
136.977101
 30
0.0
 11
279.9982259999998
 21
137.160237
 31
0.0
  0
LINE
  5
1AB05
330
1A8AB
100
AcDbEntity
  8
1
  6
Continuous
100
AcDbLine
 10
285.846157
 20
135.7728469999998
 30
0.0
 11
287.1686049999999
 21
143.2728469999998
 31
0.0
  0
LINE
  5
1AB06
330
1A8AB
100
AcDbEntity
  8
1
  6
Continuous
100
AcDbLine
 10
284.861339
 20
135.946492
 30
0.0
 11
286.1837879999999
 21
143.446492
 31
0.0
  0
LINE
  5
1AB07
330
1A8AB
100
AcDbEntity
  8
1
  6
Continuous
100
AcDbLine
 10
281.8150589999999
 20
135.946492
 30
0.0
 11
283.137508
 21
143.446492
 31
0.0
  0
LINE
  5
1AB08
330
1A8AB
100
AcDbEntity
  8
1
  6
Continuous
100
AcDbLine
 10
287.907619
 20
135.946492
 30
0.0
 11
289.230068
 21
143.446492
 31
0.0
  0
LINE
  5
1AB09
330
1A8AB
100
AcDbEntity
  8
1
  6
Continuous
100
AcDbLine
 10
288.8924369999998
 20
135.7728469999998
 30
0.0
 11
290.2148849999999
 21
143.2728469999998
 31
0.0
  0
LINE
  5
1AB0A
330
1A8AB
100
AcDbEntity
  8
1
  6
Continuous
100
AcDbLine
 10
279.753597
 20
135.7728469999998
 30
0.0
 11
281.076046
 21
143.2728469999998
 31
0.0
  0
LINE
  5
1AB0B
330
1A8AB
100
AcDbEntity
  8
1
  6
Continuous
100
AcDbLine
 10
279.042644
 20
137.499593
 30
0.0
 11
280.091228
 21
143.446492
 31
0.0
  0
LINE
  5
1AB0C
330
1A8AB
100
AcDbEntity
  8
1
  6
Continuous
100
AcDbLine
 10
286.7407799999999
 20
140.8465629999998
 30
0.0
 11
287.912731
 21
135.74767
 31
0.0
  0
LINE
  5
1AB0D
330
1A8AB
100
AcDbEntity
  8
1
  6
Continuous
100
AcDbLine
 10
287.163494
 20
143.4716689999999
 30
0.0
 11
288.3354299999999
 21
138.372777
 31
0.0
  0
LINE
  5
1AB0E
330
1A8AB
100
AcDbEntity
  8
1
  6
Continuous
100
AcDbLine
 10
283.6945
 20
140.8465629999998
 30
0.0
 11
284.8664509999998
 21
135.74767
 31
0.0
  0
LINE
  5
1AB0F
330
1A8AB
100
AcDbEntity
  8
1
  6
Continuous
100
AcDbLine
 10
284.1172139999999
 20
143.4716689999999
 30
0.0
 11
285.28915
 21
138.372777
 31
0.0
  0
LINE
  5
1AB10
330
1A8AB
100
AcDbEntity
  8
1
  6
Continuous
100
AcDbLine
 10
281.5277209999998
 20
137.02007
 30
0.0
 11
281.820171
 21
135.747655
 31
0.0
  0
LINE
  5
1AB11
330
1A8AB
100
AcDbEntity
  8
1
  6
Continuous
100
AcDbLine
 10
281.0709339999998
 20
143.4716689999999
 30
0.0
 11
281.6327779999999
 21
141.027211
 31
0.0
  0
LINE
  5
1AB12
330
1A8AB
100
AcDbEntity
  8
1
  6
Continuous
100
AcDbLine
 10
279.6959339999999
 20
141.204686
 30
0.0
 11
279.201595
 21
141.24999
 31
0.0
  0
LINE
  5
1AB13
330
1A8AB
100
AcDbEntity
  8
4
  6
CENTER
100
AcDbLine
 10
278.743847
 20
153.1096699999999
 30
0.0
 11
286.743847
 21
153.1096699999999
 31
0.0
  0
ARC
  5
1AB14
330
1A8AB
100
AcDbEntity
  8
1
  6
Continuous
100
AcDbCircle
 10
285.2549549999998
 20
149.3596699999999
 30
0.0
 40
1.0
100
AcDbArc
 50
270.0000029999998
 51
352.2328779999999
  0
ARC
  5
1AB15
330
1A8AB
100
AcDbEntity
  8
1
  6
Continuous
100
AcDbCircle
 10
284.726406
 20
138.4101609999999
 30
0.0
 40
10.0
100
AcDbArc
 50
95.760483
 51
118.60832
  0
ARC
  5
1AB16
330
1A8AB
100
AcDbEntity
  8
1
  6
Continuous
100
AcDbCircle
 10
280.5836289999999
 20
143.35967
 30
0.0
 40
0.5
100
AcDbArc
 50
349.999997
 51
170.0
  0
ARC
  5
1AB17
330
1A8AB
100
AcDbEntity
  8
1
  6
Continuous
100
AcDbCircle
 10
279.261181
 20
135.8596699999999
 30
0.0
 40
0.5
100
AcDbArc
 50
232.430731
 51
349.999993
  0
ARC
  5
1AB18
330
1A8AB
100
AcDbEntity
  8
1
  6
Continuous
100
AcDbCircle
 10
282.3074599999998
 20
135.8596699999999
 30
0.0
 40
0.5
100
AcDbArc
 50
170.0
 51
349.999993
  0
ARC
  5
1AB19
330
1A8AB
100
AcDbEntity
  8
1
  6
Continuous
100
AcDbCircle
 10
283.629909
 20
143.35967
 30
0.0
 40
0.5
100
AcDbArc
 50
349.999997
 51
170.0
  0
ARC
  5
1AB1A
330
1A8AB
100
AcDbEntity
  8
1
  6
Continuous
100
AcDbCircle
 10
286.676189
 20
143.35967
 30
0.0
 40
0.5
100
AcDbArc
 50
349.999997
 51
170.0
  0
ARC
  5
1AB1B
330
1A8AB
100
AcDbEntity
  8
1
  6
Continuous
100
AcDbCircle
 10
285.35374
 20
135.8596699999999
 30
0.0
 40
0.5
100
AcDbArc
 50
170.0
 51
349.999993
  0
ARC
  5
1AB1C
330
1A8AB
100
AcDbEntity
  8
1
  6
Continuous
100
AcDbCircle
 10
289.7224689999998
 20
143.35967
 30
0.0
 40
0.5
100
AcDbArc
 50
349.999983
 51
170.0
  0
ARC
  5
1AB1D
330
1A8AB
100
AcDbEntity
  8
1
  6
Continuous
100
AcDbCircle
 10
288.40002
 20
135.8596699999999
 30
0.0
 40
0.5
100
AcDbArc
 50
170.0
 51
349.999993
  0
ARC
  5
1AB1E
330
1A8AB
100
AcDbEntity
  8
1
  6
Continuous
100
AcDbCircle
 10
280.417034
 20
146.3113909999998
 30
0.0
 40
1.0
100
AcDbArc
 50
118.60832
 51
177.5728609999999
  0
ARC
  5
1AB1F
330
1A8AB
100
AcDbEntity
  8
1
  6
Continuous
100
AcDbCircle
 10
291.243847
 20
171.1096699999998
 30
0.0
 40
1.5
100
AcDbArc
 50
180.0
 51
270.0
  0
LINE
  5
1AB20
330
1A8AB
100
AcDbEntity
  8
1
  6
Continuous
100
AcDbLine
 10
282.743847
 20
156.6096699999999
 30
0.0
 11
291.243847
 21
156.6096699999999
 31
0.0
  0
ARC
  5
1AB21
330
1A8AB
100
AcDbEntity
  8
1
  6
Continuous
100
AcDbCircle
 10
289.743847
 20
164.10967
 30
0.0
 40
1.5
100
AcDbArc
 50
269.999999
 51
0.000009
  0
ARC
  5
1AB22
330
1A8AB
100
AcDbEntity
  8
1
  6
Continuous
100
AcDbCircle
 10
289.743847
 20
164.10967
 30
0.0
 40
3.5
100
AcDbArc
 50
269.999999
 51
0.000009
  0
LINE
  5
1AB23
330
1A8AB
100
AcDbEntity
  8
1
  6
Continuous
100
AcDbLine
 10
291.6597709999999
 20
170.778585
 30
0.0
 11
291.2438619999999
 21
168.60967
 31
0.0
  0
LINE
  5
1AB24
330
1A8AB
100
AcDbEntity
  8
1
  6
Continuous
100
AcDbLine
 10
293.243847
 20
173.60967
 30
0.0
 11
293.243847
 21
164.10967
 31
0.0
  0
LINE
  5
1AB25
330
1A8AB
100
AcDbEntity
  8
1
  6
Continuous
100
AcDbLine
 10
291.243847
 20
171.1096699999998
 30
0.0
 11
291.243847
 21
164.10967
 31
0.0
  0
ARC
  5
1AB26
330
1A8AB
100
AcDbEntity
  8
1
  6
Continuous
100
AcDbCircle
 10
283.1720869999998
 20
159.233853
 30
0.0
 40
6.875816999999998
100
AcDbArc
 50
45.12072299999999
 51
126.879283
  0
LINE
  5
1AB27
330
1A8AB
100
AcDbEntity
  8
1
  6
Continuous
100
AcDbLine
 10
279.045696
 20
164.733831
 30
0.0
 11
278.9410659999999
 21
163.237477
 31
0.0
  0
LINE
  5
1AB28
330
1A8AB
100
AcDbEntity
  8
1
  6
Continuous
100
AcDbLine
 10
275.743847
 20
160.6096699999999
 30
0.0
 11
289.743847
 21
160.6096699999999
 31
0.0
  0
LINE
  5
1AB29
330
1A8AB
100
AcDbEntity
  8
1
  6
Continuous
100
AcDbLine
 10
289.243847
 20
160.6096699999999
 30
0.0
 11
289.243847
 21
158.6096699999998
 31
0.0
  0
LINE
  5
1AB2A
330
1A8AB
100
AcDbEntity
  8
1
  6
Continuous
100
AcDbLine
 10
276.243847
 20
162.6096699999999
 30
0.0
 11
276.243847
 21
160.6096699999999
 31
0.0
  0
LINE
  5
1AB2B
330
1A8AB
100
AcDbEntity
  8
1
  6
Continuous
100
AcDbLine
 10
275.743847
 20
158.6096699999998
 30
0.0
 11
289.243847
 21
158.6096699999998
 31
0.0
  0
LINE
  5
1AB2C
330
1A8AB
100
AcDbEntity
  8
1
  6
Continuous
100
AcDbLine
 10
276.243847
 20
162.6096699999999
 30
0.0
 11
289.743847
 21
162.6096699999999
 31
0.0
  0
LINE
  5
1AB2D
330
1A8AB
100
AcDbEntity
  8
1
  6
Continuous
100
AcDbLine
 10
279.045696
 20
164.733831
 30
0.0
 11
288.023769
 21
164.1060229999999
 31
0.0
  0
LINE
  5
1AB2E
330
1A8AB
100
AcDbEntity
  8
1
  6
Continuous
100
AcDbLine
 10
288.023769
 20
164.1060229999999
 30
0.0
 11
287.9191399999999
 21
162.6096699999999
 31
0.0
  0
LINE
  5
1AB2F
330
1A8AB
100
AcDbEntity
  8
1
  6
Continuous
100
AcDbLine
 10
286.762203
 20
156.6096699999999
 30
0.0
 11
286.7853049999999
 21
156.940023
 31
0.0
  0
LINE
  5
1AB30
330
1A8AB
100
AcDbEntity
  8
1
  6
Continuous
100
AcDbLine
 10
285.9240069999998
 20
162.7491809999999
 30
0.0
 11
285.9142569999999
 21
162.6096699999999
 31
0.0
  0
LINE
  5
1AB31
330
1A8AB
100
AcDbEntity
  8
1
  6
Continuous
100
AcDbLine
 10
287.9191399999999
 20
162.6096699999999
 30
0.0
 11
278.9410659999999
 21
163.237477
 31
0.0
  0
LINE
  5
1AB32
330
1A8AB
100
AcDbEntity
  8
1
  6
Continuous
100
AcDbLine
 10
280.9361839999999
 20
163.0979659999999
 30
0.0
 11
280.9020499999999
 21
162.6096699999999
 31
0.0
  0
LINE
  5
1AB33
330
1A8AB
100
AcDbEntity
  8
1
  6
Continuous
100
AcDbLine
 10
285.857494
 20
158.0073439999999
 30
0.0
 11
277.2438619999999
 21
158.6096699999998
 31
0.0
  0
LINE
  5
1AB34
330
1A8AB
100
AcDbEntity
  8
1
  6
Continuous
100
AcDbLine
 10
285.6345479999998
 20
158.6096699999998
 30
0.0
 11
285.5937149999999
 21
158.025792
 31
0.0
  0
LINE
  5
1AB35
330
1A8AB
100
AcDbEntity
  8
1
  6
Continuous
100
AcDbLine
 10
280.622341
 20
158.6096699999998
 30
0.0
 11
280.6058919999999
 21
158.374578
 31
0.0
  0
ARC
  5
1AB36
330
1A8AB
100
AcDbEntity
  8
1
  6
Continuous
100
AcDbCircle
 10
285.7877459999999
 20
157.0097859999999
 30
0.0
 40
1.0
100
AcDbArc
 50
356.0000039999998
 51
86.0
  0
LINE
  5
1AB37
330
1A8AB
100
AcDbEntity
  8
1
  6
Continuous
100
AcDbLine
 10
272.692241
 20
142.4300889999998
 30
0.0
 11
272.3069719999999
 21
138.2255759999999
 31
0.0
  0
LINE
  5
1AB38
330
1A8AB
100
AcDbEntity
  8
1
  6
Continuous
100
AcDbLine
 10
272.685497
 20
142.349187
 30
0.0
 11
272.186931
 21
142.394872
 31
0.0
  0
LINE
  5
1AB39
330
1A8AB
100
AcDbEntity
  8
1
  6
Continuous
100
AcDbLine
 10
271.6433829999999
 20
141.9425709999998
 30
0.0
 11
271.2783769999999
 21
137.959264
 31
0.0
  0
LINE
  5
1AB3A
330
1A8AB
100
AcDbEntity
  8
1
  6
Continuous
100
AcDbLine
 10
272.302608
 20
137.3633169999999
 30
0.0
 11
271.7306629999999
 21
137.4157309999999
 31
0.0
  0
ARC
  5
1AB3B
330
1A8AB
100
AcDbEntity
  8
1
  6
Continuous
100
AcDbCircle
 10
277.6713829999998
 20
141.973836
 30
0.0
 40
5.0
100
AcDbArc
 50
142.725462
 51
174.764375
  0
ARC
  5
1AB3C
330
1A8AB
100
AcDbEntity
  8
1
  6
Continuous
100
AcDbCircle
 10
277.2860979999999
 20
137.7693229999999
 30
0.0
 40
5.0
100
AcDbArc
 50
174.764375
 51
225.59515
  0
ARC
  5
1AB3D
330
1A8AB
100
AcDbEntity
  8
1
  6
Continuous
100
AcDbCircle
 10
271.776287
 20
137.9136399999999
 30
0.0
 40
0.5
100
AcDbArc
 50
174.764375
 51
264.7643759999999
  0
ARC
  5
1AB3E
330
1A8AB
100
AcDbEntity
  8
1
  6
Continuous
100
AcDbCircle
 10
272.1412919999999
 20
141.8969469999999
 30
0.0
 40
0.5
100
AcDbArc
 50
84.76437699999998
 51
174.764375
  0
LINE
  5
1AB3F
330
1A8AB
100
AcDbEntity
  8
1
  6
Continuous
100
AcDbLine
 10
274.243847
 20
171.1096699999998
 30
0.0
 11
274.243847
 21
162.10967
 31
0.0
  0
LINE
  5
1AB40
330
1A8AB
100
AcDbEntity
  8
1
  6
Continuous
100
AcDbLine
 10
273.8279379999998
 20
170.778585
 30
0.0
 11
274.243847
 21
168.60967
 31
0.0
  0
LINE
  5
1AB41
330
1A8AB
100
AcDbEntity
  8
1
  6
Continuous
100
AcDbLine
 10
272.243847
 20
173.60967
 30
0.0
 11
272.243847
 21
162.10967
 31
0.0
  0
ARC
  5
1AB42
330
1A8AB
100
AcDbEntity
  8
1
  6
Continuous
100
AcDbCircle
 10
282.743847
 20
170.7190449999998
 30
0.0
 40
9.890625
100
AcDbArc
 50
55.932947
 51
124.067052
  0
ENDSEC
  0
SECTION
  2
OBJECTS
  0
DICTIONARY
  5
1A899
330
0
100
AcDbDictionary
281
     1
  3
ACAD_CIP_PREVIOUS_PRODUCT_INFO
350
1ABA2
  3
ACAD_COLOR
350
1AB84
  3
ACAD_DETAILVIEWSTYLE
350
1AB9D
  3
ACAD_GROUP
350
1A89A
  3
ACAD_LAYOUT
350
1A8A6
  3
ACAD_MATERIAL
350
1AB52
  3
ACAD_MLEADERSTYLE
350
1AB99
  3
ACAD_MLINESTYLE
350
1A8A3
  3
ACAD_PLOTSETTINGS
350
1A8A5
  3
ACAD_PLOTSTYLENAME
350
1AB50
  3
ACAD_SCALELIST
350
1AB87
  3
ACAD_SECTIONVIEWSTYLE
350
1AB9B
  3
ACAD_TABLESTYLE
350
1AB85
  3
ACAD_VISUALSTYLE
350
1AB6B
  3
ACDB_RECOMPOSE_DATA
350
1ABC0
  3
AcDbVariableDictionary
350
1ABB3
  3
DWGPROPS
350
1ABC1
  0
DICTIONARY
  5
1ABA3
330
1A89D
100
AcDbDictionary
280
     1
281
     1
  3
ADSK_XREC_LAYER_RECONCILED
360
1ABA4
  0
DICTIONARY
  5
1ABA5
330
1A8B3
100
AcDbDictionary
280
     1
281
     1
  3
ADSK_XREC_LAYER_RECONCILED
360
1ABA6
  0
DICTIONARY
  5
1ABA7
330
1A8B4
100
AcDbDictionary
280
     1
281
     1
  3
ADSK_XREC_LAYER_RECONCILED
360
1ABA8
  0
DICTIONARY
  5
1ABA9
330
1A8B5
100
AcDbDictionary
280
     1
281
     1
  3
ADSK_XREC_LAYER_RECONCILED
360
1ABAA
  0
DICTIONARY
  5
1ABAB
330
1A8B6
100
AcDbDictionary
280
     1
281
     1
  3
ADSK_XREC_LAYER_RECONCILED
360
1ABAC
  0
DICTIONARY
  5
1ABAD
330
1A8B7
100
AcDbDictionary
280
     1
281
     1
  3
ADSK_XREC_LAYER_RECONCILED
360
1ABAE
  0
DICTIONARY
  5
1ABAF
330
1A8B8
100
AcDbDictionary
280
     1
281
     1
  3
ADSK_XREC_LAYER_RECONCILED
360
1ABB0
  0
DICTIONARY
  5
1ABB1
330
1A8B9
100
AcDbDictionary
280
     1
281
     1
  3
ADSK_XREC_LAYER_RECONCILED
360
1ABB2
  0
DICTIONARY
  5
1AB4B
330
1A8AB
100
AcDbDictionary
281
     1
  3
ACAD_LAYOUTSELFREF
350
1AB4C
  0
DICTIONARY
  5
1AB49
330
1A8A7
100
AcDbDictionary
281
     1
  3
ACAD_LAYOUTSELFREF
350
1AB4A
  0
XRECORD
  5
1ABA2
102
{ACAD_REACTORS
330
1A899
102
}
330
1A899
100
AcDbXrecord
280
     1
300
ACDLT
300
2014
300
ACDLT_F_S
  0
DICTIONARY
  5
1AB84
102
{ACAD_REACTORS
330
1A899
102
}
330
1A899
100
AcDbDictionary
281
     1
  0
DICTIONARY
  5
1AB9D
102
{ACAD_REACTORS
330
1A899
102
}
330
1A899
100
AcDbDictionary
281
     1
  3
Imperial24
350
1AB9E
  0
DICTIONARY
  5
1A89A
102
{ACAD_REACTORS
330
1A899
102
}
330
1A899
100
AcDbDictionary
281
     1
  0
DICTIONARY
  5
1A8A6
102
{ACAD_REACTORS
330
1A899
102
}
330
1A899
100
AcDbDictionary
281
     1
  3
Model
350
1AB9F
  3
レイアウト1
350
1ABA0
  0
DICTIONARY
  5
1AB52
102
{ACAD_REACTORS
330
1A899
102
}
330
1A899
100
AcDbDictionary
281
     1
  3
ByBlock
350
1AB5B
  3
ByLayer
350
1AB53
  3
Global
350
1AB63
  0
DICTIONARY
  5
1AB99
102
{ACAD_REACTORS
330
1A899
102
}
330
1A899
100
AcDbDictionary
281
     1
  3
Standard
350
1AB9A
  0
DICTIONARY
  5
1A8A3
102
{ACAD_REACTORS
330
1A899
102
}
330
1A899
100
AcDbDictionary
281
     1
  3
STANDARD
350
1A8A4
  0
DICTIONARY
  5
1A8A5
102
{ACAD_REACTORS
330
1A899
102
}
330
1A899
100
AcDbDictionary
281
     1
  0
ACDBDICTIONARYWDFLT
  5
1AB50
102
{ACAD_REACTORS
330
1A899
102
}
330
1A899
100
AcDbDictionary
281
     1
  3
Normal
350
1AB51
100
AcDbDictionaryWithDefault
340
1AB51
  0
DICTIONARY
  5
1AB87
102
{ACAD_REACTORS
330
1A899
102
}
330
1A899
100
AcDbDictionary
281
     1
  3
A0
350
1AB88
  3
A1
350
1AB89
  3
A2
350
1AB8A
  3
A3
350
1AB8B
  3
A4
350
1AB8C
  3
A5
350
1AB8D
  3
A6
350
1AB8E
  3
A7
350
1AB8F
  3
A8
350
1AB90
  3
A9
350
1AB91
  3
B0
350
1AB92
  3
B1
350
1AB93
  3
B2
350
1AB94
  3
B3
350
1AB95
  3
B4
350
1AB96
  3
B5
350
1AB97
  3
B6
350
1AB98
  0
DICTIONARY
  5
1AB9B
102
{ACAD_REACTORS
330
1A899
102
}
330
1A899
100
AcDbDictionary
281
     1
  3
Imperial24
350
1AB9C
  0
DICTIONARY
  5
1AB85
102
{ACAD_REACTORS
330
1A899
102
}
330
1A899
100
AcDbDictionary
281
     1
  3
Standard
350
1AB86
  0
DICTIONARY
  5
1AB6B
102
{ACAD_REACTORS
330
1A899
102
}
330
1A899
100
AcDbDictionary
281
     1
  3
2dWireframe
350
1AB71
  3
Basic
350
1AB70
  3
Brighten
350
1AB77
  3
ColorChange
350
1AB7B
  3
Conceptual
350
1AB74
  3
Dim
350
1AB76
  3
EdgeColorOff
350
1AB83
  3
Facepattern
350
1AB7A
  3
Flat
350
1AB6C
  3
FlatWithEdges
350
1AB6D
  3
Gouraud
350
1AB6E
  3
GouraudWithEdges
350
1AB6F
  3
Hidden
350
1AB73
  3
JitterOff
350
1AB81
  3
Linepattern
350
1AB79
  3
OverhangOff
350
1AB82
  3
Realistic
350
1AB75
  3
Shaded
350
1AB80
  3
Shaded with edges
350
1AB7F
  3
Shades of Gray
350
1AB7C
  3
Sketchy
350
1AB7D
  3
Thicken
350
1AB78
  3
Wireframe
350
1AB72
  3
X-Ray
350
1AB7E
  0
XRECORD
  5
1ABC0
102
{ACAD_REACTORS
330
1A899
102
}
330
1A899
100
AcDbXrecord
280
     1
 90
        1
330
1AB86
  0
DICTIONARY
  5
1ABB3
102
{ACAD_REACTORS
330
1A899
102
}
330
1A899
100
AcDbDictionary
281
     1
  3
CANNOSCALE
350
1ABB8
  3
CMLEADERSTYLE
350
1ABB5
  3
CTABLESTYLE
350
1ABB4
  3
CVIEWDETAILSTYLE
350
1ABB6
  3
CVIEWSECTIONSTYLE
350
1ABB7
  3
DIMASSOC
350
1ABBB
  3
INDEXCTL
350
1ABBA
  3
SORTENTS
350
1ABB9
  3
XCLIPFRAME
350
1ABBC
  0
XRECORD
  5
1ABC1
102
{ACAD_REACTORS
330
1A899
102
}
330
1A899
100
AcDbXrecord
280
     1
  1
DWGPROPS COOKIE
  2

  3

  4

  6

  7

  8
Yoshitsune
  9

300
=
301
=
302
=
303
=
304
=
305
=
306
=
307
=
308
=
309
=
 40
0.0000117476851852
 41
2451300.688493519
 42
2457192.656855046
  1

 90
        0
  0
XRECORD
  5
1ABA4
102
{ACAD_REACTORS
330
1ABA3
102
}
330
1ABA3
100
AcDbXrecord
280
     1
290
     1
  0
XRECORD
  5
1ABA6
102
{ACAD_REACTORS
330
1ABA5
102
}
330
1ABA5
100
AcDbXrecord
280
     1
290
     1
  0
XRECORD
  5
1ABA8
102
{ACAD_REACTORS
330
1ABA7
102
}
330
1ABA7
100
AcDbXrecord
280
     1
290
     1
  0
XRECORD
  5
1ABAA
102
{ACAD_REACTORS
330
1ABA9
102
}
330
1ABA9
100
AcDbXrecord
280
     1
290
     1
  0
XRECORD
  5
1ABAC
102
{ACAD_REACTORS
330
1ABAB
102
}
330
1ABAB
100
AcDbXrecord
280
     1
290
     1
  0
XRECORD
  5
1ABAE
102
{ACAD_REACTORS
330
1ABAD
102
}
330
1ABAD
100
AcDbXrecord
280
     1
290
     1
  0
XRECORD
  5
1ABB0
102
{ACAD_REACTORS
330
1ABAF
102
}
330
1ABAF
100
AcDbXrecord
280
     1
290
     1
  0
XRECORD
  5
1ABB2
102
{ACAD_REACTORS
330
1ABB1
102
}
330
1ABB1
100
AcDbXrecord
280
     1
290
     1
  0
XRECORD
  5
1AB4C
102
{ACAD_REACTORS
330
1AB4B
102
}
330
1AB4B
100
AcDbXrecord
280
     1
340
1A8AB
  0
XRECORD
  5
1AB4A
102
{ACAD_REACTORS
330
1AB49
102
}
330
1AB49
100
AcDbXrecord
280
     1
340
1A8A7
  0
ACDBDETAILVIEWSTYLE
  5
1AB9E
102
{ACAD_XDICTIONARY
360
1ABF9
102
}
102
{ACAD_REACTORS
330
1AB9D
102
}
330
1AB9D
100
AcDbModelDocViewStyle
 70
     0
  3
Imperial24
290
     0
100
AcDbDetailViewStyle
 70
     0
 71
     0
 90
        3
 71
     1
340
1A89E
 40
0.24
340
0
 40
0.24
300

 40
0.36
280
     3
 71
     2
340
1A8A2
 90
       25
 71
     3
340
1A89E
 40
0.24
 90
        1
 40
0.75
 90
        1
300
%<\AcVar ViewType \f "%tc1">% %<\AcVar ViewDetailId>%\PSCALE %<\AcVar ViewScale \f "%sn">%
 71
     4
340
1A8A2
 90
       25
340
1A8A2
 90
       25
280
     0
  0
LAYOUT
  5
1AB9F
102
{ACAD_XDICTIONARY
360
1ABFB
102
}
102
{ACAD_REACTORS
330
1A8A6
102
}
330
1A8A6
100
AcDbPlotSettings
  1

  2
Canon LBP9100C
  4

  6

 40
0.0
 41
0.0
 42
0.0
 43
0.0
 44
0.0
 45
0.0
 46
0.0
 47
0.0
 48
0.0
 49
0.0
140
0.0
141
0.0
142
1.0
143
1.0
 70
  1712
 72
     0
 73
     0
 74
     0
  7

 75
     0
147
1.0
148
0.0
149
0.0
100
AcDbLayout
  1
Model
 70
     1
 71
     0
 10
0.0
 20
0.0
 11
12.0
 21
9.0
 12
0.0
 22
0.0
 32
0.0
 14
0.0
 24
0.0
 34
0.0
 15
0.0
 25
0.0
 35
0.0
146
0.0
 13
0.0
 23
0.0
 33
0.0
 16
1.0
 26
0.0
 36
0.0
 17
0.0
 27
1.0
 37
0.0
 76
     0
330
1A8AB
331
1AB48
  0
LAYOUT
  5
1ABA0
102
{ACAD_XDICTIONARY
360
1ABFD
102
}
102
{ACAD_REACTORS
330
1A8A6
102
}
330
1A8A6
100
AcDbPlotSettings
  1

  2
Canon LBP9100C
  4

  6

 40
0.0
 41
0.0
 42
0.0
 43
0.0
 44
0.0
 45
0.0
 46
0.0
 47
0.0
 48
0.0
 49
0.0
140
0.0
141
0.0
142
1.0
143
1.0
 70
   688
 72
     0
 73
     0
 74
     5
  7

 75
    16
147
1.0
148
0.0
149
0.0
100
AcDbLayout
  1
レイアウト1
 70
     0
 71
     1
 10
0.0
 20
0.0
 11
420.0
 21
297.0
 12
0.0
 22
0.0
 32
0.0
 14
1.000000000000000E+20
 24
1.000000000000000E+20
 34
1.000000000000000E+20
 15
-1.000000000000000E+20
 25
-1.000000000000000E+20
 35
-1.000000000000000E+20
146
0.0
 13
0.0
 23
0.0
 33
0.0
 16
1.0
 26
0.0
 36
0.0
 17
0.0
 27
1.0
 37
0.0
 76
     0
330
1A8A7
  0
MATERIAL
  5
1AB5B
102
{ACAD_XDICTIONARY
360
1AB5C
102
}
102
{ACAD_REACTORS
330
1AB52
102
}
330
1AB52
100
AcDbMaterial
  1
ByBlock
 72
     0
 43
0.0208333333333333
 43
0.0
 43
0.0
 43
0.0
 43
0.0
 43
0.0208333333333333
 43
0.0
 43
0.0
 43
0.0
 43
0.0
 43
1.0
 43
0.0
 43
0.0
 43
0.0
 43
0.0
 43
1.0
 77
     0
 47
0.0208333333333333
 47
0.0
 47
0.0
 47
0.0
 47
0.0
 47
0.0208333333333333
 47
0.0
 47
0.0
 47
0.0
 47
0.0
 47
1.0
 47
0.0
 47
0.0
 47
0.0
 47
0.0
 47
1.0
171
     0
 49
0.0208333333333333
 49
0.0
 49
0.0
 49
0.0
 49
0.0
 49
0.0208333333333333
 49
0.0
 49
0.0
 49
0.0
 49
0.0
 49
1.0
 49
0.0
 49
0.0
 49
0.0
 49
0.0
 49
1.0
175
     0
142
0.0208333333333333
142
0.0
142
0.0
142
0.0
142
0.0
142
0.0208333333333333
142
0.0
142
0.0
142
0.0
142
0.0
142
1.0
142
0.0
142
0.0
142
0.0
142
0.0
142
1.0
179
     0
144
0.0208333333333333
144
0.0
144
0.0
144
0.0
144
0.0
144
0.0208333333333333
144
0.0
144
0.0
144
0.0
144
0.0
144
1.0
144
0.0
144
0.0
144
0.0
144
0.0
144
1.0
147
0.0208333333333333
147
0.0
147
0.0
147
0.0
147
0.0
147
0.0208333333333333
147
0.0
147
0.0
147
0.0
147
0.0
147
1.0
147
0.0
147
0.0
147
0.0
147
0.0
147
1.0
  0
MATERIAL
  5
1AB53
102
{ACAD_XDICTIONARY
360
1AB54
102
}
102
{ACAD_REACTORS
330
1AB52
102
}
330
1AB52
100
AcDbMaterial
  1
ByLayer
 72
     0
 43
0.0208333333333333
 43
0.0
 43
0.0
 43
0.0
 43
0.0
 43
0.0208333333333333
 43
0.0
 43
0.0
 43
0.0
 43
0.0
 43
1.0
 43
0.0
 43
0.0
 43
0.0
 43
0.0
 43
1.0
 77
     0
 47
0.0208333333333333
 47
0.0
 47
0.0
 47
0.0
 47
0.0
 47
0.0208333333333333
 47
0.0
 47
0.0
 47
0.0
 47
0.0
 47
1.0
 47
0.0
 47
0.0
 47
0.0
 47
0.0
 47
1.0
171
     0
 49
0.0208333333333333
 49
0.0
 49
0.0
 49
0.0
 49
0.0
 49
0.0208333333333333
 49
0.0
 49
0.0
 49
0.0
 49
0.0
 49
1.0
 49
0.0
 49
0.0
 49
0.0
 49
0.0
 49
1.0
175
     0
142
0.0208333333333333
142
0.0
142
0.0
142
0.0
142
0.0
142
0.0208333333333333
142
0.0
142
0.0
142
0.0
142
0.0
142
1.0
142
0.0
142
0.0
142
0.0
142
0.0
142
1.0
179
     0
144
0.0208333333333333
144
0.0
144
0.0
144
0.0
144
0.0
144
0.0208333333333333
144
0.0
144
0.0
144
0.0
144
0.0
144
1.0
144
0.0
144
0.0
144
0.0
144
0.0
144
1.0
147
0.0208333333333333
147
0.0
147
0.0
147
0.0
147
0.0
147
0.0208333333333333
147
0.0
147
0.0
147
0.0
147
0.0
147
1.0
147
0.0
147
0.0
147
0.0
147
0.0
147
1.0
  0
MATERIAL
  5
1AB63
102
{ACAD_XDICTIONARY
360
1AB64
102
}
102
{ACAD_REACTORS
330
1AB52
102
}
330
1AB52
100
AcDbMaterial
  1
Global
 72
     0
 43
0.0208333333333333
 43
0.0
 43
0.0
 43
0.0
 43
0.0
 43
0.0208333333333333
 43
0.0
 43
0.0
 43
0.0
 43
0.0
 43
1.0
 43
0.0
 43
0.0
 43
0.0
 43
0.0
 43
1.0
 77
     0
 47
0.0208333333333333
 47
0.0
 47
0.0
 47
0.0
 47
0.0
 47
0.0208333333333333
 47
0.0
 47
0.0
 47
0.0
 47
0.0
 47
1.0
 47
0.0
 47
0.0
 47
0.0
 47
0.0
 47
1.0
171
     0
 49
0.0208333333333333
 49
0.0
 49
0.0
 49
0.0
 49
0.0
 49
0.0208333333333333
 49
0.0
 49
0.0
 49
0.0
 49
0.0
 49
1.0
 49
0.0
 49
0.0
 49
0.0
 49
0.0
 49
1.0
175
     0
142
0.0208333333333333
142
0.0
142
0.0
142
0.0
142
0.0
142
0.0208333333333333
142
0.0
142
0.0
142
0.0
142
0.0
142
1.0
142
0.0
142
0.0
142
0.0
142
0.0
142
1.0
179
     0
144
0.0208333333333333
144
0.0
144
0.0
144
0.0
144
0.0
144
0.0208333333333333
144
0.0
144
0.0
144
0.0
144
0.0
144
1.0
144
0.0
144
0.0
144
0.0
144
0.0
144
1.0
147
0.0208333333333333
147
0.0
147
0.0
147
0.0
147
0.0
147
0.0208333333333333
147
0.0
147
0.0
147
0.0
147
0.0
147
1.0
147
0.0
147
0.0
147
0.0
147
0.0
147
1.0
  0
MLEADERSTYLE
  5
1AB9A
102
{ACAD_REACTORS
330
1AB99
102
}
330
1AB99
100
AcDbMLeaderStyle
170
     2
171
     1
172
     0
 90
        2
 40
0.0
 41
0.0
173
     1
 91
-1056964608
340
1A8A0
 92
       -2
290
     1
 42
0.09
291
     1
 43
0.36
  3
Standard
 44
0.18
300

342
1A89E
174
     1
178
     6
175
     1
176
     0
 93
-1056964608
 45
0.18
292
     0
297
     0
 46
0.18
 94
-1056964608
 47
1.0
 49
1.0
140
1.0
293
     1
141
0.0
294
     1
177
     0
142
1.0
295
     0
296
     0
143
0.125
1001
ACAD_MLEADERVER
1070
     2
  0
MLINESTYLE
  5
1A8A4
102
{ACAD_REACTORS
330
1A8A3
102
}
330
1A8A3
100
AcDbMlineStyle
  2
STANDARD
 70
     0
  3

 62
   256
 51
90.0
 52
90.0
 71
     2
 49
0.5
 62
   256
  6
BYLAYER
 49
-0.5
 62
   256
  6
BYLAYER
  0
ACDBPLACEHOLDER
  5
1AB51
102
{ACAD_REACTORS
330
1AB50
102
}
330
1AB50
  0
SCALE
  5
1AB88
102
{ACAD_REACTORS
330
1AB87
102
}
330
1AB87
100
AcDbScale
 70
     0
300
1:1
140
1.0
141
1.0
290
     1
  0
SCALE
  5
1AB89
102
{ACAD_REACTORS
330
1AB87
102
}
330
1AB87
100
AcDbScale
 70
     0
300
1/128" = 1'-0"
140
0.0078125
141
12.0
290
     0
  0
SCALE
  5
1AB8A
102
{ACAD_REACTORS
330
1AB87
102
}
330
1AB87
100
AcDbScale
 70
     0
300
1/64" = 1'-0"
140
0.015625
141
12.0
290
     0
  0
SCALE
  5
1AB8B
102
{ACAD_REACTORS
330
1AB87
102
}
330
1AB87
100
AcDbScale
 70
     0
300
1/32" = 1'-0"
140
0.03125
141
12.0
290
     0
  0
SCALE
  5
1AB8C
102
{ACAD_REACTORS
330
1AB87
102
}
330
1AB87
100
AcDbScale
 70
     0
300
1/16" = 1'-0"
140
0.0625
141
12.0
290
     0
  0
SCALE
  5
1AB8D
102
{ACAD_REACTORS
330
1AB87
102
}
330
1AB87
100
AcDbScale
 70
     0
300
3/32" = 1'-0"
140
0.09375
141
12.0
290
     0
  0
SCALE
  5
1AB8E
102
{ACAD_REACTORS
330
1AB87
102
}
330
1AB87
100
AcDbScale
 70
     0
300
1/8" = 1'-0"
140
0.125
141
12.0
290
     0
  0
SCALE
  5
1AB8F
102
{ACAD_REACTORS
330
1AB87
102
}
330
1AB87
100
AcDbScale
 70
     0
300
3/16" = 1'-0"
140
0.1875
141
12.0
290
     0
  0
SCALE
  5
1AB90
102
{ACAD_REACTORS
330
1AB87
102
}
330
1AB87
100
AcDbScale
 70
     0
300
1/4" = 1'-0"
140
0.25
141
12.0
290
     0
  0
SCALE
  5
1AB91
102
{ACAD_REACTORS
330
1AB87
102
}
330
1AB87
100
AcDbScale
 70
     0
300
3/8" = 1'-0"
140
0.375
141
12.0
290
     0
  0
SCALE
  5
1AB92
102
{ACAD_REACTORS
330
1AB87
102
}
330
1AB87
100
AcDbScale
 70
     0
300
1/2" = 1'-0"
140
0.5
141
12.0
290
     0
  0
SCALE
  5
1AB93
102
{ACAD_REACTORS
330
1AB87
102
}
330
1AB87
100
AcDbScale
 70
     0
300
3/4" = 1'-0"
140
0.75
141
12.0
290
     0
  0
SCALE
  5
1AB94
102
{ACAD_REACTORS
330
1AB87
102
}
330
1AB87
100
AcDbScale
 70
     0
300
1" = 1'-0"
140
1.0
141
12.0
290
     0
  0
SCALE
  5
1AB95
102
{ACAD_REACTORS
330
1AB87
102
}
330
1AB87
100
AcDbScale
 70
     0
300
1-1/2" = 1'-0"
140
1.5
141
12.0
290
     0
  0
SCALE
  5
1AB96
102
{ACAD_REACTORS
330
1AB87
102
}
330
1AB87
100
AcDbScale
 70
     0
300
3" = 1'-0"
140
3.0
141
12.0
290
     0
  0
SCALE
  5
1AB97
102
{ACAD_REACTORS
330
1AB87
102
}
330
1AB87
100
AcDbScale
 70
     0
300
6" = 1'-0"
140
6.0
141
12.0
290
     0
  0
SCALE
  5
1AB98
102
{ACAD_REACTORS
330
1AB87
102
}
330
1AB87
100
AcDbScale
 70
     0
300
1'-0" = 1'-0"
140
12.0
141
12.0
290
     0
  0
ACDBSECTIONVIEWSTYLE
  5
1AB9C
102
{ACAD_XDICTIONARY
360
1ABF7
102
}
102
{ACAD_REACTORS
330
1AB9B
102
}
330
1AB9B
100
AcDbModelDocViewStyle
 70
     0
  3
Imperial24
290
     0
100
AcDbSectionViewStyle
 70
     0
 71
     0
 90
       78
 71
     1
340
1A89E
 40
0.24
340
0
340
0
 40
0.24
300
I, O, Q, S, X, Z
 40
0.48
 90
        3
 40
0.18
 90
        1
 71
     2
340
1A8A2
 90
       25
340
1A8A2
 90
       50
 40
0.24
 40
0.0
 40
0.24
 71
     3
340
1A89E
 40
0.24
 90
        1
 40
0.75
 90
        1
300
%<\AcVar ViewType \f "%tc1">% %<\AcVar ViewSectionStartId>%-%<\AcVar ViewSectionEndId>%\PSCALE %<\AcVar ViewScale \f "%sn">%
 71
     4
300
ANSI31
 40
1.0
 90
        0
290
     0
290
     0
 90
        6
 40
0.0
 40
1.570796326794896
 40
0.2617993877991494
 40
1.308996938995747
 40
-0.2617993877991494
 40
1.832595714594046
  0
TABLESTYLE
  5
1AB86
102
{ACAD_XDICTIONARY
360
1ABBE
102
}
102
{ACAD_REACTORS
330
1AB85
102
}
330
1AB85
100
AcDbTableStyle
  3
Standard
 70
     0
 71
     0
 40
0.06
 41
0.06
280
     0
281
     0
  7
STANDARD
140
0.18
170
     2
 62
     0
 63
     7
283
     0
274
    -2
284
     1
 64
     0
275
    -2
285
     1
 65
     0
276
    -2
286
     1
 66
     0
277
    -2
287
     1
 67
     0
278
    -2
288
     1
 68
     0
279
    -2
289
     1
 69
     0
  7
STANDARD
140
0.25
170
     5
 62
     0
 63
     7
283
     0
274
    -2
284
     1
 64
     0
275
    -2
285
     1
 65
     0
276
    -2
286
     1
 66
     0
277
    -2
287
     1
 67
     0
278
    -2
288
     1
 68
     0
279
    -2
289
     1
 69
     0
  7
STANDARD
140
0.18
170
     5
 62
     0
 63
     7
283
     0
274
    -2
284
     1
 64
     0
275
    -2
285
     1
 65
     0
276
    -2
286
     1
 66
     0
277
    -2
287
     1
 67
     0
278
    -2
288
     1
 68
     0
279
    -2
289
     1
 69
     0
  0
VISUALSTYLE
  5
1AB71
102
{ACAD_XDICTIONARY
360
1ABCF
102
}
102
{ACAD_REACTORS
330
1AB6B
102
}
330
1AB6B
100
AcDbVisualStyle
  2
2dWireframe
 70
     4
 71
     0
 72
     2
 73
     0
 90
        0
 40
-0.6
 41
-30.0
 62
     5
 63
     7
 74
     1
 91
        4
 64
     7
 65
   257
 75
     1
175
     1
 42
1.0
 92
        0
 66
   257
 43
1.0
 76
     1
 77
     6
 78
     2
 67
     7
 79
     5
170
     0
171
     0
290
     0
174
     0
 93
        1
 44
0.0
173
     0
291
     0
 45
0.0
1001
ACAD
1000
AcDbSavedByObjectVersion
1070
     0
  0
VISUALSTYLE
  5
1AB70
102
{ACAD_XDICTIONARY
360
1ABCD
102
}
102
{ACAD_REACTORS
330
1AB6B
102
}
330
1AB6B
100
AcDbVisualStyle
  2
Basic
 70
     7
 71
     1
 72
     0
 73
     1
 90
        0
 40
-0.6
 41
-30.0
 62
     5
 63
     7
 74
     0
 91
        4
 64
     7
 65
   257
 75
     1
175
     1
 42
1.0
 92
        8
 66
     7
 43
1.0
 76
     1
 77
     6
 78
     2
 67
     7
 79
     5
170
     0
171
     0
290
     0
174
     0
 93
        1
 44
0.0
173
     0
291
     1
 45
0.0
1001
ACAD
1000
AcDbSavedByObjectVersion
1070
     0
  0
VISUALSTYLE
  5
1AB77
102
{ACAD_XDICTIONARY
360
1ABDB
102
}
102
{ACAD_REACTORS
330
1AB6B
102
}
330
1AB6B
100
AcDbVisualStyle
  2
Brighten
 70
    12
 71
     2
 72
     2
 73
     0
 90
        0
 40
-0.6
 41
-30.0
 62
     5
 63
     7
 74
     1
 91
        4
 64
     7
 65
   257
 75
     1
175
     1
 42
1.0
 92
        8
 66
     7
 43
1.0
 76
     1
 77
     6
 78
     2
 67
     7
 79
     5
170
     0
171
     0
290
     0
174
     0
 93
        1
 44
50.0
173
     0
291
     1
 45
0.0
1001
ACAD
1000
AcDbSavedByObjectVersion
1070
     0
  0
VISUALSTYLE
  5
1AB7B
102
{ACAD_XDICTIONARY
360
1ABE3
102
}
102
{ACAD_REACTORS
330
1AB6B
102
}
330
1AB6B
100
AcDbVisualStyle
  2
ColorChange
 70
    16
 71
     2
 72
     2
 73
     3
 90
        0
 40
-0.6
 41
-30.0
 62
     5
 63
     8
 74
     1
 91
        4
 64
     7
 65
   257
 75
     1
175
     1
 42
1.0
 92
        8
 66
     8
 43
1.0
 76
     1
 77
     6
 78
     2
 67
     7
 79
     5
170
     0
171
     0
290
     0
174
     0
 93
        1
 44
0.0
173
     0
291
     1
 45
0.0
1001
ACAD
1000
AcDbSavedByObjectVersion
1070
     0
  0
VISUALSTYLE
  5
1AB74
102
{ACAD_XDICTIONARY
360
1ABD5
102
}
102
{ACAD_REACTORS
330
1AB6B
102
}
330
1AB6B
100
AcDbVisualStyle
  2
Conceptual
 70
     9
 71
     3
 72
     2
 73
     0
 90
        0
 40
-0.6
 41
-30.0
 62
     5
 63
     7
 74
     2
 91
        2
 64
     7
 65
   257
 75
     1
175
     1
 42
179.0
 92
        8
 66
     7
 43
1.0
 76
     1
 77
     6
 78
     2
 67
     7
 79
     3
170
     0
171
     0
290
     0
174
     0
 93
        1
 44
0.0
173
     0
291
     0
 45
0.0
1001
ACAD
1000
AcDbSavedByObjectVersion
1070
     0
  0
VISUALSTYLE
  5
1AB76
102
{ACAD_XDICTIONARY
360
1ABD9
102
}
102
{ACAD_REACTORS
330
1AB6B
102
}
330
1AB6B
100
AcDbVisualStyle
  2
Dim
 70
    11
 71
     2
 72
     2
 73
     0
 90
        0
 40
-0.6
 41
-30.0
 62
     5
 63
     7
 74
     1
 91
        4
 64
     7
 65
   257
 75
     1
175
     1
 42
1.0
 92
        8
 66
     7
 43
1.0
 76
     1
 77
     6
 78
     2
 67
     7
 79
     5
170
     0
171
     0
290
     0
174
     0
 93
        1
 44
-50.0
173
     0
291
     1
 45
0.0
1001
ACAD
1000
AcDbSavedByObjectVersion
1070
     0
  0
VISUALSTYLE
  5
1AB83
102
{ACAD_XDICTIONARY
360
1ABF3
102
}
102
{ACAD_REACTORS
330
1AB6B
102
}
330
1AB6B
100
AcDbVisualStyle
  2
EdgeColorOff
 70
    22
 71
     2
 72
     2
 73
     0
 90
        0
 40
-0.6
 41
-30.0
 62
     5
 63
     7
 74
     1
 91
        4
 64
     7
 65
   257
 75
     1
175
     1
 42
1.0
 92
        8
 66
     7
 43
1.0
 76
     1
 77
     6
 78
     2
 67
     7
 79
     5
170
     0
171
     0
290
     0
174
     0
 93
        1
 44
0.0
173
     0
291
     1
 45
0.0
1001
ACAD
1000
AcDbSavedByObjectVersion
1070
     0
  0
VISUALSTYLE
  5
1AB7A
102
{ACAD_XDICTIONARY
360
1ABE1
102
}
102
{ACAD_REACTORS
330
1AB6B
102
}
330
1AB6B
100
AcDbVisualStyle
  2
Facepattern
 70
    15
 71
     2
 72
     2
 73
     0
 90
        0
 40
-0.6
 41
-30.0
 62
     5
 63
     7
 74
     1
 91
        4
 64
     7
 65
   257
 75
     1
175
     1
 42
1.0
 92
        8
 66
     7
 43
1.0
 76
     1
 77
     6
 78
     2
 67
     7
 79
     5
170
     0
171
     0
290
     0
174
     0
 93
        1
 44
0.0
173
     0
291
     1
 45
0.0
1001
ACAD
1000
AcDbSavedByObjectVersion
1070
     0
  0
VISUALSTYLE
  5
1AB6C
102
{ACAD_XDICTIONARY
360
1ABC5
102
}
102
{ACAD_REACTORS
330
1AB6B
102
}
330
1AB6B
100
AcDbVisualStyle
  2
Flat
 70
     0
 71
     2
 72
     1
 73
     1
 90
        2
 40
-0.6
 41
30.0
 62
     5
 63
     7
 74
     0
 91
        0
 64
     7
 65
   257
 75
     1
175
     1
 42
1.0
 92
        8
 66
     7
 43
1.0
 76
     1
 77
     6
 78
     2
 67
     7
 79
     5
170
     0
171
     0
290
     0
174
     0
 93
       13
 44
0.0
173
     0
291
     1
 45
0.0
1001
ACAD
1000
AcDbSavedByObjectVersion
1070
     0
  0
VISUALSTYLE
  5
1AB6D
102
{ACAD_XDICTIONARY
360
1ABC7
102
}
102
{ACAD_REACTORS
330
1AB6B
102
}
330
1AB6B
100
AcDbVisualStyle
  2
FlatWithEdges
 70
     1
 71
     2
 72
     1
 73
     1
 90
        2
 40
-0.6
 41
30.0
 62
     5
 63
     7
 74
     1
 91
        0
 64
     7
 65
   257
 75
     1
175
     1
 42
1.0
 92
        0
 66
   257
 43
1.0
 76
     1
 77
     6
 78
     2
 67
     7
 79
     5
170
     0
171
     0
290
     0
174
     0
 93
       13
 44
0.0
173
     0
291
     1
 45
0.0
1001
ACAD
1000
AcDbSavedByObjectVersion
1070
     0
  0
VISUALSTYLE
  5
1AB6E
102
{ACAD_XDICTIONARY
360
1ABC9
102
}
102
{ACAD_REACTORS
330
1AB6B
102
}
330
1AB6B
100
AcDbVisualStyle
  2
Gouraud
 70
     2
 71
     2
 72
     2
 73
     1
 90
        2
 40
-0.6
 41
30.0
 62
     5
 63
     7
 74
     0
 91
        0
 64
     7
 65
   257
 75
     1
175
     1
 42
1.0
 92
        0
 66
     7
 43
1.0
 76
     1
 77
     6
 78
     2
 67
     7
 79
     5
170
     0
171
     0
290
     0
174
     0
 93
       13
 44
0.0
173
     0
291
     1
 45
0.0
1001
ACAD
1000
AcDbSavedByObjectVersion
1070
     0
  0
VISUALSTYLE
  5
1AB6F
102
{ACAD_XDICTIONARY
360
1ABCB
102
}
102
{ACAD_REACTORS
330
1AB6B
102
}
330
1AB6B
100
AcDbVisualStyle
  2
GouraudWithEdges
 70
     3
 71
     2
 72
     2
 73
     1
 90
        2
 40
-0.6
 41
30.0
 62
     5
 63
     7
 74
     1
 91
        0
 64
     7
 65
   257
 75
     1
175
     1
 42
1.0
 92
        0
 66
   257
 43
1.0
 76
     1
 77
     6
 78
     2
 67
     7
 79
     5
170
     0
171
     0
290
     0
174
     0
 93
       13
 44
0.0
173
     0
291
     1
 45
0.0
1001
ACAD
1000
AcDbSavedByObjectVersion
1070
     0
  0
VISUALSTYLE
  5
1AB73
102
{ACAD_XDICTIONARY
360
1ABD3
102
}
102
{ACAD_REACTORS
330
1AB6B
102
}
330
1AB6B
100
AcDbVisualStyle
  2
Hidden
 70
     6
 71
     1
 72
     2
 73
     2
 90
        0
 40
-0.6
 41
-30.0
 62
     5
 63
     7
 74
     2
 91
        2
 64
     7
 65
   257
 75
     2
175
     1
 42
40.0
 92
        0
 66
   257
 43
1.0
 76
     1
 77
     6
 78
     2
 67
     7
 79
     3
170
     0
171
     0
290
     0
174
     0
 93
        1
 44
0.0
173
     0
291
     0
 45
0.0
1001
ACAD
1000
AcDbSavedByObjectVersion
1070
     0
  0
VISUALSTYLE
  5
1AB81
102
{ACAD_XDICTIONARY
360
1ABEF
102
}
102
{ACAD_REACTORS
330
1AB6B
102
}
330
1AB6B
100
AcDbVisualStyle
  2
JitterOff
 70
    20
 71
     2
 72
     2
 73
     0
 90
        0
 40
-0.6
 41
-30.0
 62
     5
 63
     7
 74
     1
 91
        4
 64
     7
 65
   257
 75
     1
175
     1
 42
1.0
 92
       10
 66
     7
 43
1.0
 76
     1
 77
     6
 78
     2
 67
     7
 79
     5
170
     0
171
     0
290
     0
174
     0
 93
        1
 44
0.0
173
     0
291
     1
 45
0.0
1001
ACAD
1000
AcDbSavedByObjectVersion
1070
     0
  0
VISUALSTYLE
  5
1AB79
102
{ACAD_XDICTIONARY
360
1ABDF
102
}
102
{ACAD_REACTORS
330
1AB6B
102
}
330
1AB6B
100
AcDbVisualStyle
  2
Linepattern
 70
    14
 71
     2
 72
     2
 73
     0
 90
        0
 40
-0.6
 41
-30.0
 62
     5
 63
     7
 74
     1
 91
        4
 64
     7
 65
   257
 75
     7
175
     7
 42
1.0
 92
        8
 66
     7
 43
1.0
 76
     1
 77
     6
 78
     2
 67
     7
 79
     5
170
     0
171
     0
290
     0
174
     0
 93
        1
 44
0.0
173
     0
291
     1
 45
0.0
1001
ACAD
1000
AcDbSavedByObjectVersion
1070
     0
  0
VISUALSTYLE
  5
1AB82
102
{ACAD_XDICTIONARY
360
1ABF1
102
}
102
{ACAD_REACTORS
330
1AB6B
102
}
330
1AB6B
100
AcDbVisualStyle
  2
OverhangOff
 70
    21
 71
     2
 72
     2
 73
     0
 90
        0
 40
-0.6
 41
-30.0
 62
     5
 63
     7
 74
     1
 91
        4
 64
     7
 65
   257
 75
     1
175
     1
 42
1.0
 92
        9
 66
     7
 43
1.0
 76
     1
 77
     6
 78
     2
 67
     7
 79
     5
170
     0
171
     0
290
     0
174
     0
 93
        1
 44
0.0
173
     0
291
     1
 45
0.0
1001
ACAD
1000
AcDbSavedByObjectVersion
1070
     0
  0
VISUALSTYLE
  5
1AB75
102
{ACAD_XDICTIONARY
360
1ABD7
102
}
102
{ACAD_REACTORS
330
1AB6B
102
}
330
1AB6B
100
AcDbVisualStyle
  2
Realistic
 70
     8
 71
     2
 72
     3
 73
     0
 90
        2
 40
-0.6
 41
30.0
 62
     5
 63
     7
 74
     0
 91
        0
 64
     7
 65
   257
 75
     1
175
     1
 42
1.0
 92
        8
 66
   257
 43
1.0
 76
     1
 77
     6
 78
     2
 67
     7
 79
     3
170
     0
171
     0
290
     0
174
     0
 93
       13
 44
0.0
173
     0
291
     0
 45
0.0
1001
ACAD
1000
AcDbSavedByObjectVersion
1070
     0
  0
VISUALSTYLE
  5
1AB80
102
{ACAD_XDICTIONARY
360
1ABED
102
}
102
{ACAD_REACTORS
330
1AB6B
102
}
330
1AB6B
100
AcDbVisualStyle
  2
Shaded
 70
    27
 71
     2
 72
     2
 73
     1
 90
        2
 40
-0.6
 41
30.0
 62
     5
 63
     7
 74
     0
 91
        4
 64
     7
 65
   257
 75
     1
175
     1
 42
1.0
 92
        8
 66
   257
 43
1.0
 76
     1
 77
     6
 78
     2
 67
     8
 79
     3
170
     0
171
     0
290
     0
174
     0
 93
        5
 44
0.0
173
     0
291
     0
 45
0.0
1001
ACAD
1000
AcDbSavedByObjectVersion
1070
     0
  0
VISUALSTYLE
  5
1AB7F
102
{ACAD_XDICTIONARY
360
1ABEB
102
}
102
{ACAD_REACTORS
330
1AB6B
102
}
330
1AB6B
100
AcDbVisualStyle
  2
Shaded with edges
 70
    26
 71
     2
 72
     2
 73
     1
 90
        2
 40
-0.6
 41
30.0
 62
     5
 63
     7
 74
     1
 91
       10
 64
     7
 65
   257
 75
     2
175
     1
 42
1.0
 92
        8
 66
   257
 43
1.0
 76
     1
 77
     6
 78
     2
 67
     7
 79
     3
170
     0
171
     0
290
     0
174
     0
 93
        5
 44
0.0
173
     0
291
     0
 45
0.0
1001
ACAD
1000
AcDbSavedByObjectVersion
1070
     0
  0
VISUALSTYLE
  5
1AB7C
102
{ACAD_XDICTIONARY
360
1ABE5
102
}
102
{ACAD_REACTORS
330
1AB6B
102
}
330
1AB6B
100
AcDbVisualStyle
  2
Shades of Gray
 70
    23
 71
     2
 72
     2
 73
     3
 90
        0
 40
-0.6
 41
-30.0
 62
     5
 63
     7
 74
     2
 91
        2
 64
     7
 65
     7
 75
     1
175
     1
 42
40.0
 92
        8
 66
     7
 43
1.0
 76
     1
 77
     6
 78
     2
 67
     7
 79
     3
170
     0
171
     0
290
     0
174
     0
 93
        1
 44
0.0
173
     0
291
     0
 45
0.0
1001
ACAD
1000
AcDbSavedByObjectVersion
1070
     0
  0
VISUALSTYLE
  5
1AB7D
102
{ACAD_XDICTIONARY
360
1ABE7
102
}
102
{ACAD_REACTORS
330
1AB6B
102
}
330
1AB6B
100
AcDbVisualStyle
  2
Sketchy
 70
    24
 71
     1
 72
     2
 73
     2
 90
        0
 40
-0.6
 41
-30.0
 62
     5
 63
     7
 74
     2
 91
        2
 64
     7
 65
     7
 75
     1
175
     1
 42
40.0
 92
       11
 66
     7
 43
1.0
 76
     1
 77
     6
 78
     2
 67
     7
 79
     6
170
     0
171
     0
290
     0
174
     0
 93
        1
 44
0.0
173
     0
291
     0
 45
0.0
1001
ACAD
1000
AcDbSavedByObjectVersion
1070
     0
  0
VISUALSTYLE
  5
1AB78
102
{ACAD_XDICTIONARY
360
1ABDD
102
}
102
{ACAD_REACTORS
330
1AB6B
102
}
330
1AB6B
100
AcDbVisualStyle
  2
Thicken
 70
    13
 71
     2
 72
     2
 73
     0
 90
        0
 40
-0.6
 41
-30.0
 62
     5
 63
     7
 74
     1
 91
        4
 64
     7
 65
   257
 75
     1
175
     1
 42
1.0
 92
       12
 66
     7
 43
1.0
 76
     1
 77
     6
 78
     2
 67
     7
 79
     5
170
     0
171
     0
290
     0
174
     0
 93
        1
 44
0.0
173
     0
291
     1
 45
0.0
1001
ACAD
1000
AcDbSavedByObjectVersion
1070
     0
  0
VISUALSTYLE
  5
1AB72
102
{ACAD_XDICTIONARY
360
1ABD1
102
}
102
{ACAD_REACTORS
330
1AB6B
102
}
330
1AB6B
100
AcDbVisualStyle
  2
Wireframe
 70
     5
 71
     0
 72
     2
 73
     0
 90
        0
 40
-0.6
 41
-30.0
 62
     5
 63
     7
 74
     1
 91
        4
 64
     7
 65
   257
 75
     1
175
     1
 42
1.0
 92
        0
 66
   257
 43
1.0
 76
     1
 77
     6
 78
     2
 67
     7
 79
     3
170
     0
171
     0
290
     0
174
     0
 93
        1
 44
0.0
173
     0
291
     0
 45
0.0
1001
ACAD
1000
AcDbSavedByObjectVersion
1070
     0
  0
VISUALSTYLE
  5
1AB7E
102
{ACAD_XDICTIONARY
360
1ABE9
102
}
102
{ACAD_REACTORS
330
1AB6B
102
}
330
1AB6B
100
AcDbVisualStyle
  2
X-Ray
 70
    25
 71
     2
 72
     2
 73
     1
 90
        1
 40
0.5
 41
-30.0
 62
     5
 63
     7
 74
     1
 91
        0
 64
     7
 65
   257
 75
     1
175
     1
 42
1.0
 92
        8
 66
     7
 43
1.0
 76
     1
 77
     6
 78
     2
 67
     7
 79
     3
170
     0
171
     0
290
     0
174
     0
 93
       13
 44
0.0
173
     0
291
     0
 45
0.0
1001
ACAD
1000
AcDbSavedByObjectVersion
1070
     0
  0
DICTIONARYVAR
  5
1ABB8
102
{ACAD_REACTORS
330
1ABB3
102
}
330
1ABB3
100
DictionaryVariables
280
     0
  1
1:1
  0
DICTIONARYVAR
  5
1ABB5
102
{ACAD_REACTORS
330
1ABB3
102
}
330
1ABB3
100
DictionaryVariables
280
     0
  1
STANDARD
  0
DICTIONARYVAR
  5
1ABB4
102
{ACAD_REACTORS
330
1ABB3
102
}
330
1ABB3
100
DictionaryVariables
280
     0
  1
STANDARD
  0
DICTIONARYVAR
  5
1ABB6
102
{ACAD_REACTORS
330
1ABB3
102
}
330
1ABB3
100
DictionaryVariables
280
     0
  1
Imperial24
  0
DICTIONARYVAR
  5
1ABB7
102
{ACAD_REACTORS
330
1ABB3
102
}
330
1ABB3
100
DictionaryVariables
280
     0
  1
Imperial24
  0
DICTIONARYVAR
  5
1ABBB
102
{ACAD_REACTORS
330
1ABB3
102
}
330
1ABB3
100
DictionaryVariables
280
     0
  1
1
  0
DICTIONARYVAR
  5
1ABBA
102
{ACAD_REACTORS
330
1ABB3
102
}
330
1ABB3
100
DictionaryVariables
280
     0
  1
0
  0
DICTIONARYVAR
  5
1ABB9
102
{ACAD_REACTORS
330
1ABB3
102
}
330
1ABB3
100
DictionaryVariables
280
     0
  1
127
  0
DICTIONARYVAR
  5
1ABBC
102
{ACAD_REACTORS
330
1ABB3
102
}
330
1ABB3
100
DictionaryVariables
280
     0
  1
2
  0
DICTIONARY
  5
1ABF9
330
1AB9E
100
AcDbDictionary
280
     1
281
     1
  3
ACAD_XREC_ROUNDTRIP
360
1ABFA
  0
DICTIONARY
  5
1ABFB
330
1AB9F
100
AcDbDictionary
280
     1
281
     1
  3
ACAD_XREC_ROUNDTRIP
360
1ABFC
  0
DICTIONARY
  5
1ABFD
330
1ABA0
100
AcDbDictionary
280
     1
281
     1
  3
ACAD_XREC_ROUNDTRIP
360
1ABFE
  0
DICTIONARY
  5
1AB5C
330
1AB5B
100
AcDbDictionary
280
     1
281
     1
  3
ACAD_XREC_ROUNDTRIP
360
1ABC3
  3
BUMPTILE
360
1AB5E
  3
DIFFUSETILE
360
1AB5D
  3
OPACITYTILE
360
1AB61
  3
REFLECTIONTILE
360
1AB60
  3
REFRACTIONTILE
360
1AB62
  3
SPECULARTILE
360
1AB5F
  0
DICTIONARY
  5
1AB54
330
1AB53
100
AcDbDictionary
280
     1
281
     1
  3
ACAD_XREC_ROUNDTRIP
360
1ABC2
  3
BUMPTILE
360
1AB56
  3
DIFFUSETILE
360
1AB55
  3
OPACITYTILE
360
1AB59
  3
REFLECTIONTILE
360
1AB58
  3
REFRACTIONTILE
360
1AB5A
  3
SPECULARTILE
360
1AB57
  0
DICTIONARY
  5
1AB64
330
1AB63
100
AcDbDictionary
280
     1
281
     1
  3
ACAD_XREC_ROUNDTRIP
360
1ABC4
  3
BUMPTILE
360
1AB66
  3
DIFFUSETILE
360
1AB65
  3
OPACITYTILE
360
1AB69
  3
REFLECTIONTILE
360
1AB68
  3
REFRACTIONTILE
360
1AB6A
  3
SPECULARTILE
360
1AB67
  0
DICTIONARY
  5
1ABF7
330
1AB9C
100
AcDbDictionary
280
     1
281
     1
  3
ACAD_XREC_ROUNDTRIP
360
1ABF8
  0
DICTIONARY
  5
1ABBE
330
1AB86
100
AcDbDictionary
280
     1
281
     1
  3
ACAD_ROUNDTRIP_2008_TABLESTYLE_CELLSTYLEMAP
360
1ABBF
  3
ACAD_XREC_ROUNDTRIP
360
1ABF5
  0
DICTIONARY
  5
1ABCF
330
1AB71
100
AcDbDictionary
280
     1
281
     1
  3
ACAD_XREC_ROUNDTRIP
360
1ABD0
  0
DICTIONARY
  5
1ABCD
330
1AB70
100
AcDbDictionary
280
     1
281
     1
  3
ACAD_XREC_ROUNDTRIP
360
1ABCE
  0
DICTIONARY
  5
1ABDB
330
1AB77
100
AcDbDictionary
280
     1
281
     1
  3
ACAD_XREC_ROUNDTRIP
360
1ABDC
  0
DICTIONARY
  5
1ABE3
330
1AB7B
100
AcDbDictionary
280
     1
281
     1
  3
ACAD_XREC_ROUNDTRIP
360
1ABE4
  0
DICTIONARY
  5
1ABD5
330
1AB74
100
AcDbDictionary
280
     1
281
     1
  3
ACAD_XREC_ROUNDTRIP
360
1ABD6
  0
DICTIONARY
  5
1ABD9
330
1AB76
100
AcDbDictionary
280
     1
281
     1
  3
ACAD_XREC_ROUNDTRIP
360
1ABDA
  0
DICTIONARY
  5
1ABF3
330
1AB83
100
AcDbDictionary
280
     1
281
     1
  3
ACAD_XREC_ROUNDTRIP
360
1ABF4
  0
DICTIONARY
  5
1ABE1
330
1AB7A
100
AcDbDictionary
280
     1
281
     1
  3
ACAD_XREC_ROUNDTRIP
360
1ABE2
  0
DICTIONARY
  5
1ABC5
330
1AB6C
100
AcDbDictionary
280
     1
281
     1
  3
ACAD_XREC_ROUNDTRIP
360
1ABC6
  0
DICTIONARY
  5
1ABC7
330
1AB6D
100
AcDbDictionary
280
     1
281
     1
  3
ACAD_XREC_ROUNDTRIP
360
1ABC8
  0
DICTIONARY
  5
1ABC9
330
1AB6E
100
AcDbDictionary
280
     1
281
     1
  3
ACAD_XREC_ROUNDTRIP
360
1ABCA
  0
DICTIONARY
  5
1ABCB
330
1AB6F
100
AcDbDictionary
280
     1
281
     1
  3
ACAD_XREC_ROUNDTRIP
360
1ABCC
  0
DICTIONARY
  5
1ABD3
330
1AB73
100
AcDbDictionary
280
     1
281
     1
  3
ACAD_XREC_ROUNDTRIP
360
1ABD4
  0
DICTIONARY
  5
1ABEF
330
1AB81
100
AcDbDictionary
280
     1
281
     1
  3
ACAD_XREC_ROUNDTRIP
360
1ABF0
  0
DICTIONARY
  5
1ABDF
330
1AB79
100
AcDbDictionary
280
     1
281
     1
  3
ACAD_XREC_ROUNDTRIP
360
1ABE0
  0
DICTIONARY
  5
1ABF1
330
1AB82
100
AcDbDictionary
280
     1
281
     1
  3
ACAD_XREC_ROUNDTRIP
360
1ABF2
  0
DICTIONARY
  5
1ABD7
330
1AB75
100
AcDbDictionary
280
     1
281
     1
  3
ACAD_XREC_ROUNDTRIP
360
1ABD8
  0
DICTIONARY
  5
1ABED
330
1AB80
100
AcDbDictionary
280
     1
281
     1
  3
ACAD_XREC_ROUNDTRIP
360
1ABEE
  0
DICTIONARY
  5
1ABEB
330
1AB7F
100
AcDbDictionary
280
     1
281
     1
  3
ACAD_XREC_ROUNDTRIP
360
1ABEC
  0
DICTIONARY
  5
1ABE5
330
1AB7C
100
AcDbDictionary
280
     1
281
     1
  3
ACAD_XREC_ROUNDTRIP
360
1ABE6
  0
DICTIONARY
  5
1ABE7
330
1AB7D
100
AcDbDictionary
280
     1
281
     1
  3
ACAD_XREC_ROUNDTRIP
360
1ABE8
  0
DICTIONARY
  5
1ABDD
330
1AB78
100
AcDbDictionary
280
     1
281
     1
  3
ACAD_XREC_ROUNDTRIP
360
1ABDE
  0
DICTIONARY
  5
1ABD1
330
1AB72
100
AcDbDictionary
280
     1
281
     1
  3
ACAD_XREC_ROUNDTRIP
360
1ABD2
  0
DICTIONARY
  5
1ABE9
330
1AB7E
100
AcDbDictionary
280
     1
281
     1
  3
ACAD_XREC_ROUNDTRIP
360
1ABEA
  0
XRECORD
  5
1ABFA
102
{ACAD_REACTORS
330
1ABF9
102
}
330
1ABF9
100
AcDbXrecord
280
     1
102
DISPLAYNAME
  1
Imperial24
102
FLAGS
 90
        0
  0
XRECORD
  5
1ABFC
102
{ACAD_REACTORS
330
1ABFB
102
}
330
1ABFB
100
AcDbXrecord
280
     1
102
SHADEPLOT
 70
     0
102
SHADEPLOTRESLEVEL
 70
     2
102
SHADEPLOTCUSTOMDPI
 70
   300
  0
XRECORD
  5
1ABFE
102
{ACAD_REACTORS
330
1ABFD
102
}
330
1ABFD
100
AcDbXrecord
280
     1
102
SHADEPLOT
 70
     0
102
SHADEPLOTRESLEVEL
 70
     2
102
SHADEPLOTCUSTOMDPI
 70
   300
  0
XRECORD
  5
1ABC3
102
{ACAD_REACTORS
330
1AB5C
102
}
330
1AB5C
100
AcDbXrecord
280
     1
102
MATERIAL
148
0.0
149
0.0
149
0.0
 93
        0
 94
      127
282
     0
 72
     0
 77
     0
171
     0
175
     0
179
     0
273
     0
  0
XRECORD
  5
1AB5E
102
{ACAD_REACTORS
330
1AB5C
102
}
330
1AB5C
100
AcDbXrecord
280
     1
270
     1
271
     1
  0
XRECORD
  5
1AB5D
102
{ACAD_REACTORS
330
1AB5C
102
}
330
1AB5C
100
AcDbXrecord
280
     1
270
     1
271
     1
  0
XRECORD
  5
1AB61
102
{ACAD_REACTORS
330
1AB5C
102
}
330
1AB5C
100
AcDbXrecord
280
     1
270
     1
271
     1
  0
XRECORD
  5
1AB60
102
{ACAD_REACTORS
330
1AB5C
102
}
330
1AB5C
100
AcDbXrecord
280
     1
270
     1
271
     1
  0
XRECORD
  5
1AB62
102
{ACAD_REACTORS
330
1AB5C
102
}
330
1AB5C
100
AcDbXrecord
280
     1
270
     1
271
     1
  0
XRECORD
  5
1AB5F
102
{ACAD_REACTORS
330
1AB5C
102
}
330
1AB5C
100
AcDbXrecord
280
     1
270
     1
271
     1
  0
XRECORD
  5
1ABC2
102
{ACAD_REACTORS
330
1AB54
102
}
330
1AB54
100
AcDbXrecord
280
     1
102
MATERIAL
148
0.0
149
0.0
149
0.0
 93
        0
 94
      127
282
     0
 72
     0
 77
     0
171
     0
175
     0
179
     0
273
     0
  0
XRECORD
  5
1AB56
102
{ACAD_REACTORS
330
1AB54
102
}
330
1AB54
100
AcDbXrecord
280
     1
270
     1
271
     1
  0
XRECORD
  5
1AB55
102
{ACAD_REACTORS
330
1AB54
102
}
330
1AB54
100
AcDbXrecord
280
     1
270
     1
271
     1
  0
XRECORD
  5
1AB59
102
{ACAD_REACTORS
330
1AB54
102
}
330
1AB54
100
AcDbXrecord
280
     1
270
     1
271
     1
  0
XRECORD
  5
1AB58
102
{ACAD_REACTORS
330
1AB54
102
}
330
1AB54
100
AcDbXrecord
280
     1
270
     1
271
     1
  0
XRECORD
  5
1AB5A
102
{ACAD_REACTORS
330
1AB54
102
}
330
1AB54
100
AcDbXrecord
280
     1
270
     1
271
     1
  0
XRECORD
  5
1AB57
102
{ACAD_REACTORS
330
1AB54
102
}
330
1AB54
100
AcDbXrecord
280
     1
270
     1
271
     1
  0
XRECORD
  5
1ABC4
102
{ACAD_REACTORS
330
1AB64
102
}
330
1AB64
100
AcDbXrecord
280
     1
102
MATERIAL
148
0.0
149
0.0
149
0.0
 93
        0
 94
      127
282
     0
 72
     0
 77
     0
171
     0
175
     0
179
     0
273
     0
  0
XRECORD
  5
1AB66
102
{ACAD_REACTORS
330
1AB64
102
}
330
1AB64
100
AcDbXrecord
280
     1
270
     1
271
     1
  0
XRECORD
  5
1AB65
102
{ACAD_REACTORS
330
1AB64
102
}
330
1AB64
100
AcDbXrecord
280
     1
270
     1
271
     1
  0
XRECORD
  5
1AB69
102
{ACAD_REACTORS
330
1AB64
102
}
330
1AB64
100
AcDbXrecord
280
     1
270
     1
271
     1
  0
XRECORD
  5
1AB68
102
{ACAD_REACTORS
330
1AB64
102
}
330
1AB64
100
AcDbXrecord
280
     1
270
     1
271
     1
  0
XRECORD
  5
1AB6A
102
{ACAD_REACTORS
330
1AB64
102
}
330
1AB64
100
AcDbXrecord
280
     1
270
     1
271
     1
  0
XRECORD
  5
1AB67
102
{ACAD_REACTORS
330
1AB64
102
}
330
1AB64
100
AcDbXrecord
280
     1
270
     1
271
     1
  0
XRECORD
  5
1ABF8
102
{ACAD_REACTORS
330
1ABF7
102
}
330
1ABF7
100
AcDbXrecord
280
     1
102
DISPLAYNAME
  1
Imperial24
102
FLAGS
 90
        0
  0
CELLSTYLEMAP
  5
1ABBF
102
{ACAD_REACTORS
330
1ABBE
102
}
330
1ABBE
100
AcDbCellStyleMap
 90
        3
300
CELLSTYLE
  1
TABLEFORMAT_BEGIN
 90
        5
170
     1
 91
        0
 92
    32768
 62
   257
 93
        1
300
CONTENTFORMAT
  1
CONTENTFORMAT_BEGIN
 90
        0
 91
        0
 92
      512
 93
        0
300

 40
0.0
140
1.0
 94
        5
 62
     0
340
1A89E
144
0.25
309
CONTENTFORMAT_END
171
     0
 94
        0
309
TABLEFORMAT_END
  1
CELLSTYLE_BEGIN
 90
        1
 91
        1
300
_TITLE
309
CELLSTYLE_END
300
CELLSTYLE
  1
TABLEFORMAT_BEGIN
 90
        5
170
     1
 91
        0
 92
        0
 62
   257
 93
        1
300
CONTENTFORMAT
  1
CONTENTFORMAT_BEGIN
 90
        0
 91
        0
 92
      512
 93
        0
300

 40
0.0
140
1.0
 94
        5
 62
     0
340
1A89E
144
0.18
309
CONTENTFORMAT_END
171
     0
 94
        0
309
TABLEFORMAT_END
  1
CELLSTYLE_BEGIN
 90
        2
 91
        1
300
_HEADER
309
CELLSTYLE_END
300
CELLSTYLE
  1
TABLEFORMAT_BEGIN
 90
        5
170
     1
 91
        0
 92
        0
 62
   257
 93
        1
300
CONTENTFORMAT
  1
CONTENTFORMAT_BEGIN
 90
        0
 91
        0
 92
      512
 93
        0
300

 40
0.0
140
1.0
 94
        2
 62
     0
340
1A89E
144
0.18
309
CONTENTFORMAT_END
171
     0
 94
        0
309
TABLEFORMAT_END
  1
CELLSTYLE_BEGIN
 90
        3
 91
        2
300
_DATA
309
CELLSTYLE_END
  0
XRECORD
  5
1ABF5
102
{ACAD_REACTORS
330
1ABBE
102
}
330
1ABBE
100
AcDbXrecord
280
     1
102
ACAD_ROUNDTRIP_PRE2007_TABLESTYLE
 90
      512
 91
        0
  1

 92
      512
 93
        0
  2

 94
      512
 95
        0
  3

  0
XRECORD
  5
1ABD0
102
{ACAD_REACTORS
330
1ABCF
102
}
330
1ABCF
100
AcDbXrecord
280
     1
102
RTVSPost2010Prop28
280
     1
102
RTVSPost2010PropOp28
 70
     1
102
RTVSPost2010Prop29
280
     1
102
RTVSPost2010PropOp29
 70
     1
102
RTVSPost2010Prop30
280
     0
102
RTVSPost2010PropOp30
 70
     1
102
RTVSPost2010Prop31
280
     0
102
RTVSPost2010PropOp31
 70
     1
102
RTVSPost2010Prop32
280
     0
102
RTVSPost2010PropOp32
 70
     1
102
RTVSPost2010Prop33
280
     0
102
RTVSPost2010PropOp33
 70
     1
102
RTVSPost2010Prop34
280
     0
102
RTVSPost2010PropOp34
 70
     1
102
RTVSPost2010Prop35
280
     0
102
RTVSPost2010PropOp35
 70
     1
102
RTVSPost2010Prop36
280
     0
102
RTVSPost2010PropOp36
 70
     1
102
RTVSPost2010Prop37
 90
       50
102
RTVSPost2010PropOp37
 70
     1
102
RTVSPost2010Prop38
140
0.0
102
RTVSPost2010PropOp38
 70
     1
102
RTVSPost2010Prop39
140
1.0
102
RTVSPost2010PropOp39
 70
     1
102
RTVSPost2010Prop40
 90
        0
102
RTVSPost2010PropOp40
 70
     1
102
RTVSPost2010Prop41ColorIndex
 90
       18
102
RTVSPost2010Prop41ColorRGB
 90
        0
102
RTVSPost2010PropOp41
 70
     1
102
RTVSPost2010Prop42
 90
       50
102
RTVSPost2010PropOp42
 70
     1
102
RTVSPost2010Prop43
 90
        3
102
RTVSPost2010PropOp43
 70
     1
102
RTVSPost2010Prop44ColorIndex
 90
        5
102
RTVSPost2010Prop44ColorRGB
 90
      255
102
RTVSPost2010PropOp44
 70
     1
102
RTVSPost2010Prop45
280
     0
102
RTVSPost2010PropOp45
 70
     1
102
RTVSPost2010Prop46
 90
       50
102
RTVSPost2010PropOp46
 70
     1
102
RTVSPost2010Prop47
 90
       50
102
RTVSPost2010PropOp47
 70
     1
102
RTVSPost2010Prop48
 90
       50
102
RTVSPost2010PropOp48
 70
     1
102
RTVSPost2010Prop49
280
     0
102
RTVSPost2010PropOp49
 70
     1
102
RTVSPost2010Prop50
 90
       50
102
RTVSPost2010PropOp50
 70
     1
102
RTVSPost2010Prop51ColorIndex
 90
      256
102
RTVSPost2010Prop51ColorRGB
 90
-16777216
102
RTVSPost2010PropOp51
 70
     0
102
RTVSPost2010Prop52
140
1.0
102
RTVSPost2010PropOp52
 70
     0
102
RTVSPost2010Prop53
 90
        2
102
RTVSPost2010PropOp53
 70
     1
102
RTVSPost2010Prop54
  1
strokes_ogs.tif
102
RTVSPost2010PropOp54
 70
     1
102
RTVSPost2010Prop55
280
     0
102
RTVSPost2010PropOp55
 70
     1
102
RTVSPost2010Prop56
140
1.0
102
RTVSPost2010PropOp56
 70
     1
102
RTVSPost2010Prop57
140
1.0
102
RTVSPost2010PropOp57
 70
     1
102
RTVSPropertyOp0
 70
     1
102
RTVSPropertyOp1
 70
     1
102
RTVSPropertyOp2
 70
     1
102
RTVSPropertyOp3
 70
     1
102
RTVSPropertyOp4
 70
     1
102
RTVSPropertyOp5
 70
     1
102
RTVSPropertyOp6
 70
     1
102
RTVSPropertyOp7
 70
     1
102
RTVSPropertyOp8
 70
     1
102
RTVSPropertyOp9
 70
     1
102
RTVSPropertyOp10
 70
     1
102
RTVSPropertyOp11
 70
     1
102
RTVSPropertyOp12
 70
     1
102
RTVSPropertyOp13
 70
     1
102
RTVSPropertyOp14
 70
     1
102
RTVSPropertyOp15
 70
     1
102
RTVSPropertyOp16
 70
     1
102
RTVSPropertyOp17
 70
     1
102
RTVSPropertyOp18
 70
     1
102
RTVSPropertyOp19
 70
     1
102
RTVSPropertyOp20
 70
     1
102
RTVSPropertyOp21
 70
     1
102
RTVSPropertyOp22
 70
     1
102
RTVSPropertyOp23
 70
     1
102
RTVSPropertyOp24
 70
     1
102
RTVSPropertyOp25
 70
     1
102
RTVSPropertyOp26
 70
     1
102
RTVSPropertyOp27
 70
     1
102
RTVSPropertyOp28
 70
     1
102
RTVSPropertyOp29
 70
     1
102
RTVSPropertyOp30
 70
     1
102
RTVSPropertyOp31
 70
     1
102
RTVSPropertyOp32
 70
     1
102
RTVSPropertyOp33
 70
     1
102
RTVSPropertyOp34
 70
     1
102
RTVSPropertyOp35
 70
     1
102
RTVSPropertyOp36
 70
     1
102
RTVSPropertyOp37
 70
     1
102
RTVSPropertyOp38
 70
     1
102
RTVSPropertyOp39
 70
     1
102
RTVSPropertyOp40
 70
     1
102
RTVSPropertyOp41
 70
     1
102
RTVSPropertyOp42
 70
     1
102
RTVSPropertyOp43
 70
     1
102
RTVSPropertyOp44
 70
     1
102
RTVSPropertyOp45
 70
     1
102
RTVSPropertyOp46
 70
     1
102
RTVSPropertyOp47
 70
     1
102
RTVSPropertyOp48
 70
     1
102
RTVSPropertyOp49
 70
     1
102
RTVSPropertyOp50
 70
     1
102
RTVSPropertyOp51
 70
     0
102
RTVSPropertyOp52
 70
     0
102
RTVSPropertyOp53
 70
     1
102
RTVSPropertyOp54
 70
     1
102
RTVSPropertyOp55
 70
     1
102
RTVSPropertyOp56
 70
     1
102
RTVSPropertyOp57
 70
     1
102
RTVSPropertyOp58
 70
     1
102
RTVSPropertyOp59
 70
     1
102
RTVSPropertyOp60
 70
     1
102
RTVSPropertyOp61
 70
     1
102
RTVSPropertyOp62
 70
     1
  0
XRECORD
  5
1ABCE
102
{ACAD_REACTORS
330
1ABCD
102
}
330
1ABCD
100
AcDbXrecord
280
     1
102
RTVSPost2010Prop28
280
     0
102
RTVSPost2010PropOp28
 70
     1
102
RTVSPost2010Prop29
280
     1
102
RTVSPost2010PropOp29
 70
     1
102
RTVSPost2010Prop30
280
     1
102
RTVSPost2010PropOp30
 70
     1
102
RTVSPost2010Prop31
280
     0
102
RTVSPost2010PropOp31
 70
     1
102
RTVSPost2010Prop32
280
     0
102
RTVSPost2010PropOp32
 70
     1
102
RTVSPost2010Prop33
280
     0
102
RTVSPost2010PropOp33
 70
     1
102
RTVSPost2010Prop34
280
     0
102
RTVSPost2010PropOp34
 70
     1
102
RTVSPost2010Prop35
280
     0
102
RTVSPost2010PropOp35
 70
     1
102
RTVSPost2010Prop36
280
     0
102
RTVSPost2010PropOp36
 70
     1
102
RTVSPost2010Prop37
 90
       50
102
RTVSPost2010PropOp37
 70
     1
102
RTVSPost2010Prop38
140
0.0
102
RTVSPost2010PropOp38
 70
     1
102
RTVSPost2010Prop39
140
1.0
102
RTVSPost2010PropOp39
 70
     1
102
RTVSPost2010Prop40
 90
        0
102
RTVSPost2010PropOp40
 70
     1
102
RTVSPost2010Prop41ColorIndex
 90
       18
102
RTVSPost2010Prop41ColorRGB
 90
        0
102
RTVSPost2010PropOp41
 70
     1
102
RTVSPost2010Prop42
 90
       50
102
RTVSPost2010PropOp42
 70
     1
102
RTVSPost2010Prop43
 90
        3
102
RTVSPost2010PropOp43
 70
     1
102
RTVSPost2010Prop44ColorIndex
 90
        5
102
RTVSPost2010Prop44ColorRGB
 90
      255
102
RTVSPost2010PropOp44
 70
     1
102
RTVSPost2010Prop45
280
     0
102
RTVSPost2010PropOp45
 70
     1
102
RTVSPost2010Prop46
 90
       50
102
RTVSPost2010PropOp46
 70
     1
102
RTVSPost2010Prop47
 90
       50
102
RTVSPost2010PropOp47
 70
     1
102
RTVSPost2010Prop48
 90
       50
102
RTVSPost2010PropOp48
 70
     1
102
RTVSPost2010Prop49
280
     0
102
RTVSPost2010PropOp49
 70
     1
102
RTVSPost2010Prop50
 90
       50
102
RTVSPost2010PropOp50
 70
     1
102
RTVSPost2010Prop51ColorIndex
 90
      256
102
RTVSPost2010Prop51ColorRGB
 90
-16777216
102
RTVSPost2010PropOp51
 70
     0
102
RTVSPost2010Prop52
140
1.0
102
RTVSPost2010PropOp52
 70
     0
102
RTVSPost2010Prop53
 90
        2
102
RTVSPost2010PropOp53
 70
     1
102
RTVSPost2010Prop54
  1
strokes_ogs.tif
102
RTVSPost2010PropOp54
 70
     1
102
RTVSPost2010Prop55
280
     0
102
RTVSPost2010PropOp55
 70
     1
102
RTVSPost2010Prop56
140
1.0
102
RTVSPost2010PropOp56
 70
     1
102
RTVSPost2010Prop57
140
1.0
102
RTVSPost2010PropOp57
 70
     1
102
RTVSPropertyOp0
 70
     1
102
RTVSPropertyOp1
 70
     1
102
RTVSPropertyOp2
 70
     1
102
RTVSPropertyOp3
 70
     1
102
RTVSPropertyOp4
 70
     1
102
RTVSPropertyOp5
 70
     1
102
RTVSPropertyOp6
 70
     1
102
RTVSPropertyOp7
 70
     1
102
RTVSPropertyOp8
 70
     1
102
RTVSPropertyOp9
 70
     1
102
RTVSPropertyOp10
 70
     1
102
RTVSPropertyOp11
 70
     1
102
RTVSPropertyOp12
 70
     1
102
RTVSPropertyOp13
 70
     1
102
RTVSPropertyOp14
 70
     1
102
RTVSPropertyOp15
 70
     1
102
RTVSPropertyOp16
 70
     1
102
RTVSPropertyOp17
 70
     1
102
RTVSPropertyOp18
 70
     1
102
RTVSPropertyOp19
 70
     1
102
RTVSPropertyOp20
 70
     1
102
RTVSPropertyOp21
 70
     1
102
RTVSPropertyOp22
 70
     1
102
RTVSPropertyOp23
 70
     1
102
RTVSPropertyOp24
 70
     1
102
RTVSPropertyOp25
 70
     1
102
RTVSPropertyOp26
 70
     1
102
RTVSPropertyOp27
 70
     1
102
RTVSPropertyOp28
 70
     1
102
RTVSPropertyOp29
 70
     1
102
RTVSPropertyOp30
 70
     1
102
RTVSPropertyOp31
 70
     1
102
RTVSPropertyOp32
 70
     1
102
RTVSPropertyOp33
 70
     1
102
RTVSPropertyOp34
 70
     1
102
RTVSPropertyOp35
 70
     1
102
RTVSPropertyOp36
 70
     1
102
RTVSPropertyOp37
 70
     1
102
RTVSPropertyOp38
 70
     1
102
RTVSPropertyOp39
 70
     1
102
RTVSPropertyOp40
 70
     1
102
RTVSPropertyOp41
 70
     1
102
RTVSPropertyOp42
 70
     1
102
RTVSPropertyOp43
 70
     1
102
RTVSPropertyOp44
 70
     1
102
RTVSPropertyOp45
 70
     1
102
RTVSPropertyOp46
 70
     1
102
RTVSPropertyOp47
 70
     1
102
RTVSPropertyOp48
 70
     1
102
RTVSPropertyOp49
 70
     1
102
RTVSPropertyOp50
 70
     1
102
RTVSPropertyOp51
 70
     0
102
RTVSPropertyOp52
 70
     0
102
RTVSPropertyOp53
 70
     1
102
RTVSPropertyOp54
 70
     1
102
RTVSPropertyOp55
 70
     1
102
RTVSPropertyOp56
 70
     1
102
RTVSPropertyOp57
 70
     1
102
RTVSPropertyOp58
 70
     1
102
RTVSPropertyOp59
 70
     1
102
RTVSPropertyOp60
 70
     1
102
RTVSPropertyOp61
 70
     1
102
RTVSPropertyOp62
 70
     1
  0
XRECORD
  5
1ABDC
102
{ACAD_REACTORS
330
1ABDB
102
}
330
1ABDB
100
AcDbXrecord
280
     1
102
RTVSPost2010Prop28
280
     0
102
RTVSPost2010PropOp28
 70
     1
102
RTVSPost2010Prop29
280
     1
102
RTVSPost2010PropOp29
 70
     1
102
RTVSPost2010Prop30
280
     1
102
RTVSPost2010PropOp30
 70
     1
102
RTVSPost2010Prop31
280
     0
102
RTVSPost2010PropOp31
 70
     1
102
RTVSPost2010Prop32
280
     0
102
RTVSPost2010PropOp32
 70
     1
102
RTVSPost2010Prop33
280
     0
102
RTVSPost2010PropOp33
 70
     1
102
RTVSPost2010Prop34
280
     0
102
RTVSPost2010PropOp34
 70
     1
102
RTVSPost2010Prop35
280
     0
102
RTVSPost2010PropOp35
 70
     1
102
RTVSPost2010Prop36
280
     0
102
RTVSPost2010PropOp36
 70
     1
102
RTVSPost2010Prop37
 90
       50
102
RTVSPost2010PropOp37
 70
     1
102
RTVSPost2010Prop38
140
0.0
102
RTVSPost2010PropOp38
 70
     1
102
RTVSPost2010Prop39
140
1.0
102
RTVSPost2010PropOp39
 70
     1
102
RTVSPost2010Prop40
 90
        0
102
RTVSPost2010PropOp40
 70
     1
102
RTVSPost2010Prop41ColorIndex
 90
       18
102
RTVSPost2010Prop41ColorRGB
 90
        0
102
RTVSPost2010PropOp41
 70
     1
102
RTVSPost2010Prop42
 90
       50
102
RTVSPost2010PropOp42
 70
     1
102
RTVSPost2010Prop43
 90
        3
102
RTVSPost2010PropOp43
 70
     1
102
RTVSPost2010Prop44ColorIndex
 90
        5
102
RTVSPost2010Prop44ColorRGB
 90
      255
102
RTVSPost2010PropOp44
 70
     1
102
RTVSPost2010Prop45
280
     0
102
RTVSPost2010PropOp45
 70
     1
102
RTVSPost2010Prop46
 90
       50
102
RTVSPost2010PropOp46
 70
     1
102
RTVSPost2010Prop47
 90
       50
102
RTVSPost2010PropOp47
 70
     1
102
RTVSPost2010Prop48
 90
       50
102
RTVSPost2010PropOp48
 70
     1
102
RTVSPost2010Prop49
280
     0
102
RTVSPost2010PropOp49
 70
     1
102
RTVSPost2010Prop50
 90
       50
102
RTVSPost2010PropOp50
 70
     1
102
RTVSPost2010Prop51ColorIndex
 90
      256
102
RTVSPost2010Prop51ColorRGB
 90
-16777216
102
RTVSPost2010PropOp51
 70
     0
102
RTVSPost2010Prop52
140
1.0
102
RTVSPost2010PropOp52
 70
     0
102
RTVSPost2010Prop53
 90
        2
102
RTVSPost2010PropOp53
 70
     1
102
RTVSPost2010Prop54
  1
strokes_ogs.tif
102
RTVSPost2010PropOp54
 70
     1
102
RTVSPost2010Prop55
280
     0
102
RTVSPost2010PropOp55
 70
     1
102
RTVSPost2010Prop56
140
1.0
102
RTVSPost2010PropOp56
 70
     1
102
RTVSPost2010Prop57
140
1.0
102
RTVSPost2010PropOp57
 70
     1
102
RTVSPropertyOp0
 70
     1
102
RTVSPropertyOp1
 70
     1
102
RTVSPropertyOp2
 70
     1
102
RTVSPropertyOp3
 70
     1
102
RTVSPropertyOp4
 70
     1
102
RTVSPropertyOp5
 70
     1
102
RTVSPropertyOp6
 70
     1
102
RTVSPropertyOp7
 70
     1
102
RTVSPropertyOp8
 70
     1
102
RTVSPropertyOp9
 70
     1
102
RTVSPropertyOp10
 70
     1
102
RTVSPropertyOp11
 70
     1
102
RTVSPropertyOp12
 70
     1
102
RTVSPropertyOp13
 70
     1
102
RTVSPropertyOp14
 70
     1
102
RTVSPropertyOp15
 70
     1
102
RTVSPropertyOp16
 70
     1
102
RTVSPropertyOp17
 70
     1
102
RTVSPropertyOp18
 70
     1
102
RTVSPropertyOp19
 70
     1
102
RTVSPropertyOp20
 70
     1
102
RTVSPropertyOp21
 70
     1
102
RTVSPropertyOp22
 70
     1
102
RTVSPropertyOp23
 70
     1
102
RTVSPropertyOp24
 70
     1
102
RTVSPropertyOp25
 70
     1
102
RTVSPropertyOp26
 70
     1
102
RTVSPropertyOp27
 70
     1
102
RTVSPropertyOp28
 70
     1
102
RTVSPropertyOp29
 70
     1
102
RTVSPropertyOp30
 70
     1
102
RTVSPropertyOp31
 70
     1
102
RTVSPropertyOp32
 70
     1
102
RTVSPropertyOp33
 70
     1
102
RTVSPropertyOp34
 70
     1
102
RTVSPropertyOp35
 70
     1
102
RTVSPropertyOp36
 70
     1
102
RTVSPropertyOp37
 70
     1
102
RTVSPropertyOp38
 70
     1
102
RTVSPropertyOp39
 70
     1
102
RTVSPropertyOp40
 70
     1
102
RTVSPropertyOp41
 70
     1
102
RTVSPropertyOp42
 70
     1
102
RTVSPropertyOp43
 70
     1
102
RTVSPropertyOp44
 70
     1
102
RTVSPropertyOp45
 70
     1
102
RTVSPropertyOp46
 70
     1
102
RTVSPropertyOp47
 70
     1
102
RTVSPropertyOp48
 70
     1
102
RTVSPropertyOp49
 70
     1
102
RTVSPropertyOp50
 70
     1
102
RTVSPropertyOp51
 70
     0
102
RTVSPropertyOp52
 70
     0
102
RTVSPropertyOp53
 70
     1
102
RTVSPropertyOp54
 70
     1
102
RTVSPropertyOp55
 70
     1
102
RTVSPropertyOp56
 70
     1
102
RTVSPropertyOp57
 70
     1
102
RTVSPropertyOp58
 70
     1
102
RTVSPropertyOp59
 70
     1
102
RTVSPropertyOp60
 70
     1
102
RTVSPropertyOp61
 70
     1
102
RTVSPropertyOp62
 70
     1
  0
XRECORD
  5
1ABE4
102
{ACAD_REACTORS
330
1ABE3
102
}
330
1ABE3
100
AcDbXrecord
280
     1
102
RTVSPost2010Prop28
280
     0
102
RTVSPost2010PropOp28
 70
     1
102
RTVSPost2010Prop29
280
     1
102
RTVSPost2010PropOp29
 70
     1
102
RTVSPost2010Prop30
280
     1
102
RTVSPost2010PropOp30
 70
     1
102
RTVSPost2010Prop31
280
     0
102
RTVSPost2010PropOp31
 70
     1
102
RTVSPost2010Prop32
280
     0
102
RTVSPost2010PropOp32
 70
     1
102
RTVSPost2010Prop33
280
     0
102
RTVSPost2010PropOp33
 70
     1
102
RTVSPost2010Prop34
280
     0
102
RTVSPost2010PropOp34
 70
     1
102
RTVSPost2010Prop35
280
     0
102
RTVSPost2010PropOp35
 70
     1
102
RTVSPost2010Prop36
280
     0
102
RTVSPost2010PropOp36
 70
     1
102
RTVSPost2010Prop37
 90
       50
102
RTVSPost2010PropOp37
 70
     1
102
RTVSPost2010Prop38
140
0.0
102
RTVSPost2010PropOp38
 70
     1
102
RTVSPost2010Prop39
140
1.0
102
RTVSPost2010PropOp39
 70
     1
102
RTVSPost2010Prop40
 90
        0
102
RTVSPost2010PropOp40
 70
     1
102
RTVSPost2010Prop41ColorIndex
 90
       18
102
RTVSPost2010Prop41ColorRGB
 90
        0
102
RTVSPost2010PropOp41
 70
     1
102
RTVSPost2010Prop42
 90
       50
102
RTVSPost2010PropOp42
 70
     1
102
RTVSPost2010Prop43
 90
        3
102
RTVSPost2010PropOp43
 70
     1
102
RTVSPost2010Prop44ColorIndex
 90
        5
102
RTVSPost2010Prop44ColorRGB
 90
      255
102
RTVSPost2010PropOp44
 70
     1
102
RTVSPost2010Prop45
280
     0
102
RTVSPost2010PropOp45
 70
     1
102
RTVSPost2010Prop46
 90
       50
102
RTVSPost2010PropOp46
 70
     1
102
RTVSPost2010Prop47
 90
       50
102
RTVSPost2010PropOp47
 70
     1
102
RTVSPost2010Prop48
 90
       50
102
RTVSPost2010PropOp48
 70
     1
102
RTVSPost2010Prop49
280
     0
102
RTVSPost2010PropOp49
 70
     1
102
RTVSPost2010Prop50
 90
       50
102
RTVSPost2010PropOp50
 70
     1
102
RTVSPost2010Prop51ColorIndex
 90
      256
102
RTVSPost2010Prop51ColorRGB
 90
-16777216
102
RTVSPost2010PropOp51
 70
     0
102
RTVSPost2010Prop52
140
1.0
102
RTVSPost2010PropOp52
 70
     0
102
RTVSPost2010Prop53
 90
        2
102
RTVSPost2010PropOp53
 70
     1
102
RTVSPost2010Prop54
  1
strokes_ogs.tif
102
RTVSPost2010PropOp54
 70
     1
102
RTVSPost2010Prop55
280
     0
102
RTVSPost2010PropOp55
 70
     1
102
RTVSPost2010Prop56
140
1.0
102
RTVSPost2010PropOp56
 70
     1
102
RTVSPost2010Prop57
140
1.0
102
RTVSPost2010PropOp57
 70
     1
102
RTVSPropertyOp0
 70
     1
102
RTVSPropertyOp1
 70
     1
102
RTVSPropertyOp2
 70
     1
102
RTVSPropertyOp3
 70
     1
102
RTVSPropertyOp4
 70
     1
102
RTVSPropertyOp5
 70
     1
102
RTVSPropertyOp6
 70
     1
102
RTVSPropertyOp7
 70
     1
102
RTVSPropertyOp8
 70
     1
102
RTVSPropertyOp9
 70
     1
102
RTVSPropertyOp10
 70
     1
102
RTVSPropertyOp11
 70
     1
102
RTVSPropertyOp12
 70
     1
102
RTVSPropertyOp13
 70
     1
102
RTVSPropertyOp14
 70
     1
102
RTVSPropertyOp15
 70
     1
102
RTVSPropertyOp16
 70
     1
102
RTVSPropertyOp17
 70
     1
102
RTVSPropertyOp18
 70
     1
102
RTVSPropertyOp19
 70
     1
102
RTVSPropertyOp20
 70
     1
102
RTVSPropertyOp21
 70
     1
102
RTVSPropertyOp22
 70
     1
102
RTVSPropertyOp23
 70
     1
102
RTVSPropertyOp24
 70
     1
102
RTVSPropertyOp25
 70
     1
102
RTVSPropertyOp26
 70
     1
102
RTVSPropertyOp27
 70
     1
102
RTVSPropertyOp28
 70
     1
102
RTVSPropertyOp29
 70
     1
102
RTVSPropertyOp30
 70
     1
102
RTVSPropertyOp31
 70
     1
102
RTVSPropertyOp32
 70
     1
102
RTVSPropertyOp33
 70
     1
102
RTVSPropertyOp34
 70
     1
102
RTVSPropertyOp35
 70
     1
102
RTVSPropertyOp36
 70
     1
102
RTVSPropertyOp37
 70
     1
102
RTVSPropertyOp38
 70
     1
102
RTVSPropertyOp39
 70
     1
102
RTVSPropertyOp40
 70
     1
102
RTVSPropertyOp41
 70
     1
102
RTVSPropertyOp42
 70
     1
102
RTVSPropertyOp43
 70
     1
102
RTVSPropertyOp44
 70
     1
102
RTVSPropertyOp45
 70
     1
102
RTVSPropertyOp46
 70
     1
102
RTVSPropertyOp47
 70
     1
102
RTVSPropertyOp48
 70
     1
102
RTVSPropertyOp49
 70
     1
102
RTVSPropertyOp50
 70
     1
102
RTVSPropertyOp51
 70
     0
102
RTVSPropertyOp52
 70
     0
102
RTVSPropertyOp53
 70
     1
102
RTVSPropertyOp54
 70
     1
102
RTVSPropertyOp55
 70
     1
102
RTVSPropertyOp56
 70
     1
102
RTVSPropertyOp57
 70
     1
102
RTVSPropertyOp58
 70
     1
102
RTVSPropertyOp59
 70
     1
102
RTVSPropertyOp60
 70
     1
102
RTVSPropertyOp61
 70
     1
102
RTVSPropertyOp62
 70
     1
  0
XRECORD
  5
1ABD6
102
{ACAD_REACTORS
330
1ABD5
102
}
330
1ABD5
100
AcDbXrecord
280
     1
102
RTVSPost2010Prop28
280
     0
102
RTVSPost2010PropOp28
 70
     1
102
RTVSPost2010Prop29
280
     1
102
RTVSPost2010PropOp29
 70
     1
102
RTVSPost2010Prop30
280
     1
102
RTVSPost2010PropOp30
 70
     1
102
RTVSPost2010Prop31
280
     0
102
RTVSPost2010PropOp31
 70
     1
102
RTVSPost2010Prop32
280
     0
102
RTVSPost2010PropOp32
 70
     1
102
RTVSPost2010Prop33
280
     0
102
RTVSPost2010PropOp33
 70
     1
102
RTVSPost2010Prop34
280
     0
102
RTVSPost2010PropOp34
 70
     1
102
RTVSPost2010Prop35
280
     0
102
RTVSPost2010PropOp35
 70
     1
102
RTVSPost2010Prop36
280
     0
102
RTVSPost2010PropOp36
 70
     1
102
RTVSPost2010Prop37
 90
       50
102
RTVSPost2010PropOp37
 70
     1
102
RTVSPost2010Prop38
140
0.0
102
RTVSPost2010PropOp38
 70
     1
102
RTVSPost2010Prop39
140
1.0
102
RTVSPost2010PropOp39
 70
     1
102
RTVSPost2010Prop40
 90
        0
102
RTVSPost2010PropOp40
 70
     1
102
RTVSPost2010Prop41ColorIndex
 90
       18
102
RTVSPost2010Prop41ColorRGB
 90
        0
102
RTVSPost2010PropOp41
 70
     1
102
RTVSPost2010Prop42
 90
       50
102
RTVSPost2010PropOp42
 70
     1
102
RTVSPost2010Prop43
 90
        3
102
RTVSPost2010PropOp43
 70
     1
102
RTVSPost2010Prop44ColorIndex
 90
        5
102
RTVSPost2010Prop44ColorRGB
 90
      255
102
RTVSPost2010PropOp44
 70
     1
102
RTVSPost2010Prop45
280
     0
102
RTVSPost2010PropOp45
 70
     1
102
RTVSPost2010Prop46
 90
       50
102
RTVSPost2010PropOp46
 70
     1
102
RTVSPost2010Prop47
 90
       50
102
RTVSPost2010PropOp47
 70
     1
102
RTVSPost2010Prop48
 90
       50
102
RTVSPost2010PropOp48
 70
     1
102
RTVSPost2010Prop49
280
     0
102
RTVSPost2010PropOp49
 70
     1
102
RTVSPost2010Prop50
 90
       50
102
RTVSPost2010PropOp50
 70
     1
102
RTVSPost2010Prop51ColorIndex
 90
      256
102
RTVSPost2010Prop51ColorRGB
 90
-16777216
102
RTVSPost2010PropOp51
 70
     0
102
RTVSPost2010Prop52
140
1.0
102
RTVSPost2010PropOp52
 70
     0
102
RTVSPost2010Prop53
 90
        2
102
RTVSPost2010PropOp53
 70
     1
102
RTVSPost2010Prop54
  1
strokes_ogs.tif
102
RTVSPost2010PropOp54
 70
     1
102
RTVSPost2010Prop55
280
     0
102
RTVSPost2010PropOp55
 70
     1
102
RTVSPost2010Prop56
140
1.0
102
RTVSPost2010PropOp56
 70
     1
102
RTVSPost2010Prop57
140
1.0
102
RTVSPost2010PropOp57
 70
     1
102
RTVSPropertyOp0
 70
     1
102
RTVSPropertyOp1
 70
     1
102
RTVSPropertyOp2
 70
     1
102
RTVSPropertyOp3
 70
     1
102
RTVSPropertyOp4
 70
     1
102
RTVSPropertyOp5
 70
     1
102
RTVSPropertyOp6
 70
     1
102
RTVSPropertyOp7
 70
     1
102
RTVSPropertyOp8
 70
     1
102
RTVSPropertyOp9
 70
     1
102
RTVSPropertyOp10
 70
     1
102
RTVSPropertyOp11
 70
     1
102
RTVSPropertyOp12
 70
     1
102
RTVSPropertyOp13
 70
     1
102
RTVSPropertyOp14
 70
     1
102
RTVSPropertyOp15
 70
     1
102
RTVSPropertyOp16
 70
     1
102
RTVSPropertyOp17
 70
     1
102
RTVSPropertyOp18
 70
     1
102
RTVSPropertyOp19
 70
     1
102
RTVSPropertyOp20
 70
     1
102
RTVSPropertyOp21
 70
     1
102
RTVSPropertyOp22
 70
     1
102
RTVSPropertyOp23
 70
     1
102
RTVSPropertyOp24
 70
     1
102
RTVSPropertyOp25
 70
     1
102
RTVSPropertyOp26
 70
     1
102
RTVSPropertyOp27
 70
     1
102
RTVSPropertyOp28
 70
     1
102
RTVSPropertyOp29
 70
     1
102
RTVSPropertyOp30
 70
     1
102
RTVSPropertyOp31
 70
     1
102
RTVSPropertyOp32
 70
     1
102
RTVSPropertyOp33
 70
     1
102
RTVSPropertyOp34
 70
     1
102
RTVSPropertyOp35
 70
     1
102
RTVSPropertyOp36
 70
     1
102
RTVSPropertyOp37
 70
     1
102
RTVSPropertyOp38
 70
     1
102
RTVSPropertyOp39
 70
     1
102
RTVSPropertyOp40
 70
     1
102
RTVSPropertyOp41
 70
     1
102
RTVSPropertyOp42
 70
     1
102
RTVSPropertyOp43
 70
     1
102
RTVSPropertyOp44
 70
     1
102
RTVSPropertyOp45
 70
     1
102
RTVSPropertyOp46
 70
     1
102
RTVSPropertyOp47
 70
     1
102
RTVSPropertyOp48
 70
     1
102
RTVSPropertyOp49
 70
     1
102
RTVSPropertyOp50
 70
     1
102
RTVSPropertyOp51
 70
     0
102
RTVSPropertyOp52
 70
     0
102
RTVSPropertyOp53
 70
     1
102
RTVSPropertyOp54
 70
     1
102
RTVSPropertyOp55
 70
     1
102
RTVSPropertyOp56
 70
     1
102
RTVSPropertyOp57
 70
     1
102
RTVSPropertyOp58
 70
     1
102
RTVSPropertyOp59
 70
     1
102
RTVSPropertyOp60
 70
     1
102
RTVSPropertyOp61
 70
     1
102
RTVSPropertyOp62
 70
     1
  0
XRECORD
  5
1ABDA
102
{ACAD_REACTORS
330
1ABD9
102
}
330
1ABD9
100
AcDbXrecord
280
     1
102
RTVSPost2010Prop28
280
     0
102
RTVSPost2010PropOp28
 70
     1
102
RTVSPost2010Prop29
280
     1
102
RTVSPost2010PropOp29
 70
     1
102
RTVSPost2010Prop30
280
     1
102
RTVSPost2010PropOp30
 70
     1
102
RTVSPost2010Prop31
280
     0
102
RTVSPost2010PropOp31
 70
     1
102
RTVSPost2010Prop32
280
     0
102
RTVSPost2010PropOp32
 70
     1
102
RTVSPost2010Prop33
280
     0
102
RTVSPost2010PropOp33
 70
     1
102
RTVSPost2010Prop34
280
     0
102
RTVSPost2010PropOp34
 70
     1
102
RTVSPost2010Prop35
280
     0
102
RTVSPost2010PropOp35
 70
     1
102
RTVSPost2010Prop36
280
     0
102
RTVSPost2010PropOp36
 70
     1
102
RTVSPost2010Prop37
 90
       50
102
RTVSPost2010PropOp37
 70
     1
102
RTVSPost2010Prop38
140
0.0
102
RTVSPost2010PropOp38
 70
     1
102
RTVSPost2010Prop39
140
1.0
102
RTVSPost2010PropOp39
 70
     1
102
RTVSPost2010Prop40
 90
        0
102
RTVSPost2010PropOp40
 70
     1
102
RTVSPost2010Prop41ColorIndex
 90
       18
102
RTVSPost2010Prop41ColorRGB
 90
        0
102
RTVSPost2010PropOp41
 70
     1
102
RTVSPost2010Prop42
 90
       50
102
RTVSPost2010PropOp42
 70
     1
102
RTVSPost2010Prop43
 90
        3
102
RTVSPost2010PropOp43
 70
     1
102
RTVSPost2010Prop44ColorIndex
 90
        5
102
RTVSPost2010Prop44ColorRGB
 90
      255
102
RTVSPost2010PropOp44
 70
     1
102
RTVSPost2010Prop45
280
     0
102
RTVSPost2010PropOp45
 70
     1
102
RTVSPost2010Prop46
 90
       50
102
RTVSPost2010PropOp46
 70
     1
102
RTVSPost2010Prop47
 90
       50
102
RTVSPost2010PropOp47
 70
     1
102
RTVSPost2010Prop48
 90
       50
102
RTVSPost2010PropOp48
 70
     1
102
RTVSPost2010Prop49
280
     0
102
RTVSPost2010PropOp49
 70
     1
102
RTVSPost2010Prop50
 90
       50
102
RTVSPost2010PropOp50
 70
     1
102
RTVSPost2010Prop51ColorIndex
 90
      256
102
RTVSPost2010Prop51ColorRGB
 90
-16777216
102
RTVSPost2010PropOp51
 70
     0
102
RTVSPost2010Prop52
140
1.0
102
RTVSPost2010PropOp52
 70
     0
102
RTVSPost2010Prop53
 90
        2
102
RTVSPost2010PropOp53
 70
     1
102
RTVSPost2010Prop54
  1
strokes_ogs.tif
102
RTVSPost2010PropOp54
 70
     1
102
RTVSPost2010Prop55
280
     0
102
RTVSPost2010PropOp55
 70
     1
102
RTVSPost2010Prop56
140
1.0
102
RTVSPost2010PropOp56
 70
     1
102
RTVSPost2010Prop57
140
1.0
102
RTVSPost2010PropOp57
 70
     1
102
RTVSPropertyOp0
 70
     1
102
RTVSPropertyOp1
 70
     1
102
RTVSPropertyOp2
 70
     1
102
RTVSPropertyOp3
 70
     1
102
RTVSPropertyOp4
 70
     1
102
RTVSPropertyOp5
 70
     1
102
RTVSPropertyOp6
 70
     1
102
RTVSPropertyOp7
 70
     1
102
RTVSPropertyOp8
 70
     1
102
RTVSPropertyOp9
 70
     1
102
RTVSPropertyOp10
 70
     1
102
RTVSPropertyOp11
 70
     1
102
RTVSPropertyOp12
 70
     1
102
RTVSPropertyOp13
 70
     1
102
RTVSPropertyOp14
 70
     1
102
RTVSPropertyOp15
 70
     1
102
RTVSPropertyOp16
 70
     1
102
RTVSPropertyOp17
 70
     1
102
RTVSPropertyOp18
 70
     1
102
RTVSPropertyOp19
 70
     1
102
RTVSPropertyOp20
 70
     1
102
RTVSPropertyOp21
 70
     1
102
RTVSPropertyOp22
 70
     1
102
RTVSPropertyOp23
 70
     1
102
RTVSPropertyOp24
 70
     1
102
RTVSPropertyOp25
 70
     1
102
RTVSPropertyOp26
 70
     1
102
RTVSPropertyOp27
 70
     1
102
RTVSPropertyOp28
 70
     1
102
RTVSPropertyOp29
 70
     1
102
RTVSPropertyOp30
 70
     1
102
RTVSPropertyOp31
 70
     1
102
RTVSPropertyOp32
 70
     1
102
RTVSPropertyOp33
 70
     1
102
RTVSPropertyOp34
 70
     1
102
RTVSPropertyOp35
 70
     1
102
RTVSPropertyOp36
 70
     1
102
RTVSPropertyOp37
 70
     1
102
RTVSPropertyOp38
 70
     1
102
RTVSPropertyOp39
 70
     1
102
RTVSPropertyOp40
 70
     1
102
RTVSPropertyOp41
 70
     1
102
RTVSPropertyOp42
 70
     1
102
RTVSPropertyOp43
 70
     1
102
RTVSPropertyOp44
 70
     1
102
RTVSPropertyOp45
 70
     1
102
RTVSPropertyOp46
 70
     1
102
RTVSPropertyOp47
 70
     1
102
RTVSPropertyOp48
 70
     1
102
RTVSPropertyOp49
 70
     1
102
RTVSPropertyOp50
 70
     1
102
RTVSPropertyOp51
 70
     0
102
RTVSPropertyOp52
 70
     0
102
RTVSPropertyOp53
 70
     1
102
RTVSPropertyOp54
 70
     1
102
RTVSPropertyOp55
 70
     1
102
RTVSPropertyOp56
 70
     1
102
RTVSPropertyOp57
 70
     1
102
RTVSPropertyOp58
 70
     1
102
RTVSPropertyOp59
 70
     1
102
RTVSPropertyOp60
 70
     1
102
RTVSPropertyOp61
 70
     1
102
RTVSPropertyOp62
 70
     1
  0
XRECORD
  5
1ABF4
102
{ACAD_REACTORS
330
1ABF3
102
}
330
1ABF3
100
AcDbXrecord
280
     1
102
RTVSPost2010Prop28
280
     0
102
RTVSPost2010PropOp28
 70
     1
102
RTVSPost2010Prop29
280
     1
102
RTVSPost2010PropOp29
 70
     1
102
RTVSPost2010Prop30
280
     1
102
RTVSPost2010PropOp30
 70
     1
102
RTVSPost2010Prop31
280
     0
102
RTVSPost2010PropOp31
 70
     1
102
RTVSPost2010Prop32
280
     0
102
RTVSPost2010PropOp32
 70
     1
102
RTVSPost2010Prop33
280
     0
102
RTVSPost2010PropOp33
 70
     1
102
RTVSPost2010Prop34
280
     0
102
RTVSPost2010PropOp34
 70
     1
102
RTVSPost2010Prop35
280
     0
102
RTVSPost2010PropOp35
 70
     1
102
RTVSPost2010Prop36
280
     0
102
RTVSPost2010PropOp36
 70
     1
102
RTVSPost2010Prop37
 90
       50
102
RTVSPost2010PropOp37
 70
     0
102
RTVSPost2010Prop38
140
0.0
102
RTVSPost2010PropOp38
 70
     0
102
RTVSPost2010Prop39
140
1.0
102
RTVSPost2010PropOp39
 70
     0
102
RTVSPost2010Prop40
 90
        0
102
RTVSPost2010PropOp40
 70
     0
102
RTVSPost2010Prop41ColorIndex
 90
       18
102
RTVSPost2010Prop41ColorRGB
 90
        0
102
RTVSPost2010PropOp41
 70
     0
102
RTVSPost2010Prop42
 90
       50
102
RTVSPost2010PropOp42
 70
     0
102
RTVSPost2010Prop43
 90
        3
102
RTVSPost2010PropOp43
 70
     0
102
RTVSPost2010Prop44ColorIndex
 90
        5
102
RTVSPost2010Prop44ColorRGB
 90
      255
102
RTVSPost2010PropOp44
 70
     0
102
RTVSPost2010Prop45
280
     0
102
RTVSPost2010PropOp45
 70
     1
102
RTVSPost2010Prop46
 90
       50
102
RTVSPost2010PropOp46
 70
     0
102
RTVSPost2010Prop47
 90
       50
102
RTVSPost2010PropOp47
 70
     0
102
RTVSPost2010Prop48
 90
       50
102
RTVSPost2010PropOp48
 70
     0
102
RTVSPost2010Prop49
280
     0
102
RTVSPost2010PropOp49
 70
     1
102
RTVSPost2010Prop50
 90
       50
102
RTVSPost2010PropOp50
 70
     0
102
RTVSPost2010Prop51ColorIndex
 90
      256
102
RTVSPost2010Prop51ColorRGB
 90
-16777216
102
RTVSPost2010PropOp51
 70
     0
102
RTVSPost2010Prop52
140
1.0
102
RTVSPost2010PropOp52
 70
     0
102
RTVSPost2010Prop53
 90
        2
102
RTVSPost2010PropOp53
 70
     0
102
RTVSPost2010Prop54
  1
strokes_ogs.tif
102
RTVSPost2010PropOp54
 70
     0
102
RTVSPost2010Prop55
280
     0
102
RTVSPost2010PropOp55
 70
     1
102
RTVSPost2010Prop56
140
1.0
102
RTVSPost2010PropOp56
 70
     0
102
RTVSPost2010Prop57
140
1.0
102
RTVSPost2010PropOp57
 70
     0
102
RTVSPropertyOp0
 70
     0
102
RTVSPropertyOp1
 70
     0
102
RTVSPropertyOp2
 70
     0
102
RTVSPropertyOp3
 70
     0
102
RTVSPropertyOp4
 70
     0
102
RTVSPropertyOp5
 70
     0
102
RTVSPropertyOp6
 70
     0
102
RTVSPropertyOp7
 70
     0
102
RTVSPropertyOp8
 70
     0
102
RTVSPropertyOp9
 70
     0
102
RTVSPropertyOp10
 70
     0
102
RTVSPropertyOp11
 70
     0
102
RTVSPropertyOp12
 70
     0
102
RTVSPropertyOp13
 70
     0
102
RTVSPropertyOp14
 70
     2
102
RTVSPropertyOp15
 70
     0
102
RTVSPropertyOp16
 70
     0
102
RTVSPropertyOp17
 70
     0
102
RTVSPropertyOp18
 70
     0
102
RTVSPropertyOp19
 70
     0
102
RTVSPropertyOp20
 70
     0
102
RTVSPropertyOp21
 70
     0
102
RTVSPropertyOp22
 70
     0
102
RTVSPropertyOp23
 70
     0
102
RTVSPropertyOp24
 70
     0
102
RTVSPropertyOp25
 70
     0
102
RTVSPropertyOp26
 70
     0
102
RTVSPropertyOp27
 70
     0
102
RTVSPropertyOp28
 70
     1
102
RTVSPropertyOp29
 70
     1
102
RTVSPropertyOp30
 70
     1
102
RTVSPropertyOp31
 70
     1
102
RTVSPropertyOp32
 70
     1
102
RTVSPropertyOp33
 70
     1
102
RTVSPropertyOp34
 70
     1
102
RTVSPropertyOp35
 70
     1
102
RTVSPropertyOp36
 70
     1
102
RTVSPropertyOp37
 70
     0
102
RTVSPropertyOp38
 70
     0
102
RTVSPropertyOp39
 70
     0
102
RTVSPropertyOp40
 70
     0
102
RTVSPropertyOp41
 70
     0
102
RTVSPropertyOp42
 70
     0
102
RTVSPropertyOp43
 70
     0
102
RTVSPropertyOp44
 70
     0
102
RTVSPropertyOp45
 70
     1
102
RTVSPropertyOp46
 70
     0
102
RTVSPropertyOp47
 70
     0
102
RTVSPropertyOp48
 70
     0
102
RTVSPropertyOp49
 70
     1
102
RTVSPropertyOp50
 70
     0
102
RTVSPropertyOp51
 70
     0
102
RTVSPropertyOp52
 70
     0
102
RTVSPropertyOp53
 70
     0
102
RTVSPropertyOp54
 70
     0
102
RTVSPropertyOp55
 70
     1
102
RTVSPropertyOp56
 70
     0
102
RTVSPropertyOp57
 70
     0
102
RTVSPropertyOp58
 70
     0
102
RTVSPropertyOp59
 70
     0
102
RTVSPropertyOp60
 70
     0
102
RTVSPropertyOp61
 70
     0
102
RTVSPropertyOp62
 70
     0
  0
XRECORD
  5
1ABE2
102
{ACAD_REACTORS
330
1ABE1
102
}
330
1ABE1
100
AcDbXrecord
280
     1
102
RTVSPost2010Prop28
280
     0
102
RTVSPost2010PropOp28
 70
     1
102
RTVSPost2010Prop29
280
     1
102
RTVSPost2010PropOp29
 70
     1
102
RTVSPost2010Prop30
280
     1
102
RTVSPost2010PropOp30
 70
     1
102
RTVSPost2010Prop31
280
     0
102
RTVSPost2010PropOp31
 70
     1
102
RTVSPost2010Prop32
280
     0
102
RTVSPost2010PropOp32
 70
     1
102
RTVSPost2010Prop33
280
     0
102
RTVSPost2010PropOp33
 70
     1
102
RTVSPost2010Prop34
280
     0
102
RTVSPost2010PropOp34
 70
     1
102
RTVSPost2010Prop35
280
     0
102
RTVSPost2010PropOp35
 70
     1
102
RTVSPost2010Prop36
280
     0
102
RTVSPost2010PropOp36
 70
     1
102
RTVSPost2010Prop37
 90
       50
102
RTVSPost2010PropOp37
 70
     1
102
RTVSPost2010Prop38
140
0.0
102
RTVSPost2010PropOp38
 70
     1
102
RTVSPost2010Prop39
140
1.0
102
RTVSPost2010PropOp39
 70
     1
102
RTVSPost2010Prop40
 90
        0
102
RTVSPost2010PropOp40
 70
     1
102
RTVSPost2010Prop41ColorIndex
 90
       18
102
RTVSPost2010Prop41ColorRGB
 90
        0
102
RTVSPost2010PropOp41
 70
     1
102
RTVSPost2010Prop42
 90
       50
102
RTVSPost2010PropOp42
 70
     1
102
RTVSPost2010Prop43
 90
        3
102
RTVSPost2010PropOp43
 70
     1
102
RTVSPost2010Prop44ColorIndex
 90
        5
102
RTVSPost2010Prop44ColorRGB
 90
      255
102
RTVSPost2010PropOp44
 70
     1
102
RTVSPost2010Prop45
280
     0
102
RTVSPost2010PropOp45
 70
     1
102
RTVSPost2010Prop46
 90
       50
102
RTVSPost2010PropOp46
 70
     1
102
RTVSPost2010Prop47
 90
       50
102
RTVSPost2010PropOp47
 70
     1
102
RTVSPost2010Prop48
 90
       50
102
RTVSPost2010PropOp48
 70
     1
102
RTVSPost2010Prop49
280
     0
102
RTVSPost2010PropOp49
 70
     1
102
RTVSPost2010Prop50
 90
       50
102
RTVSPost2010PropOp50
 70
     1
102
RTVSPost2010Prop51ColorIndex
 90
      256
102
RTVSPost2010Prop51ColorRGB
 90
-16777216
102
RTVSPost2010PropOp51
 70
     0
102
RTVSPost2010Prop52
140
1.0
102
RTVSPost2010PropOp52
 70
     0
102
RTVSPost2010Prop53
 90
        2
102
RTVSPost2010PropOp53
 70
     1
102
RTVSPost2010Prop54
  1
strokes_ogs.tif
102
RTVSPost2010PropOp54
 70
     1
102
RTVSPost2010Prop55
280
     0
102
RTVSPost2010PropOp55
 70
     1
102
RTVSPost2010Prop56
140
1.0
102
RTVSPost2010PropOp56
 70
     1
102
RTVSPost2010Prop57
140
1.0
102
RTVSPost2010PropOp57
 70
     1
102
RTVSPropertyOp0
 70
     1
102
RTVSPropertyOp1
 70
     1
102
RTVSPropertyOp2
 70
     1
102
RTVSPropertyOp3
 70
     1
102
RTVSPropertyOp4
 70
     1
102
RTVSPropertyOp5
 70
     1
102
RTVSPropertyOp6
 70
     1
102
RTVSPropertyOp7
 70
     1
102
RTVSPropertyOp8
 70
     1
102
RTVSPropertyOp9
 70
     1
102
RTVSPropertyOp10
 70
     1
102
RTVSPropertyOp11
 70
     1
102
RTVSPropertyOp12
 70
     1
102
RTVSPropertyOp13
 70
     1
102
RTVSPropertyOp14
 70
     1
102
RTVSPropertyOp15
 70
     1
102
RTVSPropertyOp16
 70
     1
102
RTVSPropertyOp17
 70
     1
102
RTVSPropertyOp18
 70
     1
102
RTVSPropertyOp19
 70
     1
102
RTVSPropertyOp20
 70
     1
102
RTVSPropertyOp21
 70
     1
102
RTVSPropertyOp22
 70
     1
102
RTVSPropertyOp23
 70
     1
102
RTVSPropertyOp24
 70
     1
102
RTVSPropertyOp25
 70
     1
102
RTVSPropertyOp26
 70
     1
102
RTVSPropertyOp27
 70
     1
102
RTVSPropertyOp28
 70
     1
102
RTVSPropertyOp29
 70
     1
102
RTVSPropertyOp30
 70
     1
102
RTVSPropertyOp31
 70
     1
102
RTVSPropertyOp32
 70
     1
102
RTVSPropertyOp33
 70
     1
102
RTVSPropertyOp34
 70
     1
102
RTVSPropertyOp35
 70
     1
102
RTVSPropertyOp36
 70
     1
102
RTVSPropertyOp37
 70
     1
102
RTVSPropertyOp38
 70
     1
102
RTVSPropertyOp39
 70
     1
102
RTVSPropertyOp40
 70
     1
102
RTVSPropertyOp41
 70
     1
102
RTVSPropertyOp42
 70
     1
102
RTVSPropertyOp43
 70
     1
102
RTVSPropertyOp44
 70
     1
102
RTVSPropertyOp45
 70
     1
102
RTVSPropertyOp46
 70
     1
102
RTVSPropertyOp47
 70
     1
102
RTVSPropertyOp48
 70
     1
102
RTVSPropertyOp49
 70
     1
102
RTVSPropertyOp50
 70
     1
102
RTVSPropertyOp51
 70
     0
102
RTVSPropertyOp52
 70
     0
102
RTVSPropertyOp53
 70
     1
102
RTVSPropertyOp54
 70
     1
102
RTVSPropertyOp55
 70
     1
102
RTVSPropertyOp56
 70
     1
102
RTVSPropertyOp57
 70
     1
102
RTVSPropertyOp58
 70
     1
102
RTVSPropertyOp59
 70
     1
102
RTVSPropertyOp60
 70
     1
102
RTVSPropertyOp61
 70
     1
102
RTVSPropertyOp62
 70
     1
  0
XRECORD
  5
1ABC6
102
{ACAD_REACTORS
330
1ABC5
102
}
330
1ABC5
100
AcDbXrecord
280
     1
102
RTVSPost2010Prop28
280
     0
102
RTVSPost2010PropOp28
 70
     1
102
RTVSPost2010Prop29
280
     1
102
RTVSPost2010PropOp29
 70
     1
102
RTVSPost2010Prop30
280
     1
102
RTVSPost2010PropOp30
 70
     1
102
RTVSPost2010Prop31
280
     0
102
RTVSPost2010PropOp31
 70
     1
102
RTVSPost2010Prop32
280
     0
102
RTVSPost2010PropOp32
 70
     1
102
RTVSPost2010Prop33
280
     0
102
RTVSPost2010PropOp33
 70
     1
102
RTVSPost2010Prop34
280
     0
102
RTVSPost2010PropOp34
 70
     1
102
RTVSPost2010Prop35
280
     0
102
RTVSPost2010PropOp35
 70
     1
102
RTVSPost2010Prop36
280
     0
102
RTVSPost2010PropOp36
 70
     1
102
RTVSPost2010Prop37
 90
       50
102
RTVSPost2010PropOp37
 70
     1
102
RTVSPost2010Prop38
140
0.0
102
RTVSPost2010PropOp38
 70
     1
102
RTVSPost2010Prop39
140
1.0
102
RTVSPost2010PropOp39
 70
     1
102
RTVSPost2010Prop40
 90
        0
102
RTVSPost2010PropOp40
 70
     1
102
RTVSPost2010Prop41ColorIndex
 90
       18
102
RTVSPost2010Prop41ColorRGB
 90
        0
102
RTVSPost2010PropOp41
 70
     1
102
RTVSPost2010Prop42
 90
       50
102
RTVSPost2010PropOp42
 70
     1
102
RTVSPost2010Prop43
 90
        3
102
RTVSPost2010PropOp43
 70
     1
102
RTVSPost2010Prop44ColorIndex
 90
        5
102
RTVSPost2010Prop44ColorRGB
 90
      255
102
RTVSPost2010PropOp44
 70
     1
102
RTVSPost2010Prop45
280
     0
102
RTVSPost2010PropOp45
 70
     1
102
RTVSPost2010Prop46
 90
       50
102
RTVSPost2010PropOp46
 70
     1
102
RTVSPost2010Prop47
 90
       50
102
RTVSPost2010PropOp47
 70
     1
102
RTVSPost2010Prop48
 90
       50
102
RTVSPost2010PropOp48
 70
     1
102
RTVSPost2010Prop49
280
     0
102
RTVSPost2010PropOp49
 70
     1
102
RTVSPost2010Prop50
 90
       50
102
RTVSPost2010PropOp50
 70
     1
102
RTVSPost2010Prop51ColorIndex
 90
      256
102
RTVSPost2010Prop51ColorRGB
 90
-16777216
102
RTVSPost2010PropOp51
 70
     0
102
RTVSPost2010Prop52
140
1.0
102
RTVSPost2010PropOp52
 70
     0
102
RTVSPost2010Prop53
 90
        2
102
RTVSPost2010PropOp53
 70
     1
102
RTVSPost2010Prop54
  1
strokes_ogs.tif
102
RTVSPost2010PropOp54
 70
     1
102
RTVSPost2010Prop55
280
     0
102
RTVSPost2010PropOp55
 70
     1
102
RTVSPost2010Prop56
140
1.0
102
RTVSPost2010PropOp56
 70
     1
102
RTVSPost2010Prop57
140
1.0
102
RTVSPost2010PropOp57
 70
     1
102
RTVSPropertyOp0
 70
     1
102
RTVSPropertyOp1
 70
     1
102
RTVSPropertyOp2
 70
     1
102
RTVSPropertyOp3
 70
     1
102
RTVSPropertyOp4
 70
     1
102
RTVSPropertyOp5
 70
     1
102
RTVSPropertyOp6
 70
     1
102
RTVSPropertyOp7
 70
     1
102
RTVSPropertyOp8
 70
     1
102
RTVSPropertyOp9
 70
     1
102
RTVSPropertyOp10
 70
     1
102
RTVSPropertyOp11
 70
     1
102
RTVSPropertyOp12
 70
     1
102
RTVSPropertyOp13
 70
     1
102
RTVSPropertyOp14
 70
     1
102
RTVSPropertyOp15
 70
     1
102
RTVSPropertyOp16
 70
     1
102
RTVSPropertyOp17
 70
     1
102
RTVSPropertyOp18
 70
     1
102
RTVSPropertyOp19
 70
     1
102
RTVSPropertyOp20
 70
     1
102
RTVSPropertyOp21
 70
     1
102
RTVSPropertyOp22
 70
     1
102
RTVSPropertyOp23
 70
     1
102
RTVSPropertyOp24
 70
     1
102
RTVSPropertyOp25
 70
     1
102
RTVSPropertyOp26
 70
     1
102
RTVSPropertyOp27
 70
     1
102
RTVSPropertyOp28
 70
     1
102
RTVSPropertyOp29
 70
     1
102
RTVSPropertyOp30
 70
     1
102
RTVSPropertyOp31
 70
     1
102
RTVSPropertyOp32
 70
     1
102
RTVSPropertyOp33
 70
     1
102
RTVSPropertyOp34
 70
     1
102
RTVSPropertyOp35
 70
     1
102
RTVSPropertyOp36
 70
     1
102
RTVSPropertyOp37
 70
     1
102
RTVSPropertyOp38
 70
     1
102
RTVSPropertyOp39
 70
     1
102
RTVSPropertyOp40
 70
     1
102
RTVSPropertyOp41
 70
     1
102
RTVSPropertyOp42
 70
     1
102
RTVSPropertyOp43
 70
     1
102
RTVSPropertyOp44
 70
     1
102
RTVSPropertyOp45
 70
     1
102
RTVSPropertyOp46
 70
     1
102
RTVSPropertyOp47
 70
     1
102
RTVSPropertyOp48
 70
     1
102
RTVSPropertyOp49
 70
     1
102
RTVSPropertyOp50
 70
     1
102
RTVSPropertyOp51
 70
     0
102
RTVSPropertyOp52
 70
     0
102
RTVSPropertyOp53
 70
     1
102
RTVSPropertyOp54
 70
     1
102
RTVSPropertyOp55
 70
     1
102
RTVSPropertyOp56
 70
     1
102
RTVSPropertyOp57
 70
     1
102
RTVSPropertyOp58
 70
     1
102
RTVSPropertyOp59
 70
     1
102
RTVSPropertyOp60
 70
     1
102
RTVSPropertyOp61
 70
     1
102
RTVSPropertyOp62
 70
     1
  0
XRECORD
  5
1ABC8
102
{ACAD_REACTORS
330
1ABC7
102
}
330
1ABC7
100
AcDbXrecord
280
     1
102
RTVSPost2010Prop28
280
     0
102
RTVSPost2010PropOp28
 70
     1
102
RTVSPost2010Prop29
280
     1
102
RTVSPost2010PropOp29
 70
     1
102
RTVSPost2010Prop30
280
     1
102
RTVSPost2010PropOp30
 70
     1
102
RTVSPost2010Prop31
280
     0
102
RTVSPost2010PropOp31
 70
     1
102
RTVSPost2010Prop32
280
     0
102
RTVSPost2010PropOp32
 70
     1
102
RTVSPost2010Prop33
280
     0
102
RTVSPost2010PropOp33
 70
     1
102
RTVSPost2010Prop34
280
     0
102
RTVSPost2010PropOp34
 70
     1
102
RTVSPost2010Prop35
280
     0
102
RTVSPost2010PropOp35
 70
     1
102
RTVSPost2010Prop36
280
     0
102
RTVSPost2010PropOp36
 70
     1
102
RTVSPost2010Prop37
 90
       50
102
RTVSPost2010PropOp37
 70
     1
102
RTVSPost2010Prop38
140
0.0
102
RTVSPost2010PropOp38
 70
     1
102
RTVSPost2010Prop39
140
1.0
102
RTVSPost2010PropOp39
 70
     1
102
RTVSPost2010Prop40
 90
        0
102
RTVSPost2010PropOp40
 70
     1
102
RTVSPost2010Prop41ColorIndex
 90
       18
102
RTVSPost2010Prop41ColorRGB
 90
        0
102
RTVSPost2010PropOp41
 70
     1
102
RTVSPost2010Prop42
 90
       50
102
RTVSPost2010PropOp42
 70
     1
102
RTVSPost2010Prop43
 90
        3
102
RTVSPost2010PropOp43
 70
     1
102
RTVSPost2010Prop44ColorIndex
 90
        5
102
RTVSPost2010Prop44ColorRGB
 90
      255
102
RTVSPost2010PropOp44
 70
     1
102
RTVSPost2010Prop45
280
     0
102
RTVSPost2010PropOp45
 70
     1
102
RTVSPost2010Prop46
 90
       50
102
RTVSPost2010PropOp46
 70
     1
102
RTVSPost2010Prop47
 90
       50
102
RTVSPost2010PropOp47
 70
     1
102
RTVSPost2010Prop48
 90
       50
102
RTVSPost2010PropOp48
 70
     1
102
RTVSPost2010Prop49
280
     0
102
RTVSPost2010PropOp49
 70
     1
102
RTVSPost2010Prop50
 90
       50
102
RTVSPost2010PropOp50
 70
     1
102
RTVSPost2010Prop51ColorIndex
 90
      256
102
RTVSPost2010Prop51ColorRGB
 90
-16777216
102
RTVSPost2010PropOp51
 70
     0
102
RTVSPost2010Prop52
140
1.0
102
RTVSPost2010PropOp52
 70
     0
102
RTVSPost2010Prop53
 90
        2
102
RTVSPost2010PropOp53
 70
     1
102
RTVSPost2010Prop54
  1
strokes_ogs.tif
102
RTVSPost2010PropOp54
 70
     1
102
RTVSPost2010Prop55
280
     0
102
RTVSPost2010PropOp55
 70
     1
102
RTVSPost2010Prop56
140
1.0
102
RTVSPost2010PropOp56
 70
     1
102
RTVSPost2010Prop57
140
1.0
102
RTVSPost2010PropOp57
 70
     1
102
RTVSPropertyOp0
 70
     1
102
RTVSPropertyOp1
 70
     1
102
RTVSPropertyOp2
 70
     1
102
RTVSPropertyOp3
 70
     1
102
RTVSPropertyOp4
 70
     1
102
RTVSPropertyOp5
 70
     1
102
RTVSPropertyOp6
 70
     1
102
RTVSPropertyOp7
 70
     1
102
RTVSPropertyOp8
 70
     1
102
RTVSPropertyOp9
 70
     1
102
RTVSPropertyOp10
 70
     1
102
RTVSPropertyOp11
 70
     1
102
RTVSPropertyOp12
 70
     1
102
RTVSPropertyOp13
 70
     1
102
RTVSPropertyOp14
 70
     1
102
RTVSPropertyOp15
 70
     1
102
RTVSPropertyOp16
 70
     1
102
RTVSPropertyOp17
 70
     1
102
RTVSPropertyOp18
 70
     1
102
RTVSPropertyOp19
 70
     1
102
RTVSPropertyOp20
 70
     1
102
RTVSPropertyOp21
 70
     1
102
RTVSPropertyOp22
 70
     1
102
RTVSPropertyOp23
 70
     1
102
RTVSPropertyOp24
 70
     1
102
RTVSPropertyOp25
 70
     1
102
RTVSPropertyOp26
 70
     1
102
RTVSPropertyOp27
 70
     1
102
RTVSPropertyOp28
 70
     1
102
RTVSPropertyOp29
 70
     1
102
RTVSPropertyOp30
 70
     1
102
RTVSPropertyOp31
 70
     1
102
RTVSPropertyOp32
 70
     1
102
RTVSPropertyOp33
 70
     1
102
RTVSPropertyOp34
 70
     1
102
RTVSPropertyOp35
 70
     1
102
RTVSPropertyOp36
 70
     1
102
RTVSPropertyOp37
 70
     1
102
RTVSPropertyOp38
 70
     1
102
RTVSPropertyOp39
 70
     1
102
RTVSPropertyOp40
 70
     1
102
RTVSPropertyOp41
 70
     1
102
RTVSPropertyOp42
 70
     1
102
RTVSPropertyOp43
 70
     1
102
RTVSPropertyOp44
 70
     1
102
RTVSPropertyOp45
 70
     1
102
RTVSPropertyOp46
 70
     1
102
RTVSPropertyOp47
 70
     1
102
RTVSPropertyOp48
 70
     1
102
RTVSPropertyOp49
 70
     1
102
RTVSPropertyOp50
 70
     1
102
RTVSPropertyOp51
 70
     0
102
RTVSPropertyOp52
 70
     0
102
RTVSPropertyOp53
 70
     1
102
RTVSPropertyOp54
 70
     1
102
RTVSPropertyOp55
 70
     1
102
RTVSPropertyOp56
 70
     1
102
RTVSPropertyOp57
 70
     1
102
RTVSPropertyOp58
 70
     1
102
RTVSPropertyOp59
 70
     1
102
RTVSPropertyOp60
 70
     1
102
RTVSPropertyOp61
 70
     1
102
RTVSPropertyOp62
 70
     1
  0
XRECORD
  5
1ABCA
102
{ACAD_REACTORS
330
1ABC9
102
}
330
1ABC9
100
AcDbXrecord
280
     1
102
RTVSPost2010Prop28
280
     0
102
RTVSPost2010PropOp28
 70
     1
102
RTVSPost2010Prop29
280
     1
102
RTVSPost2010PropOp29
 70
     1
102
RTVSPost2010Prop30
280
     1
102
RTVSPost2010PropOp30
 70
     1
102
RTVSPost2010Prop31
280
     0
102
RTVSPost2010PropOp31
 70
     1
102
RTVSPost2010Prop32
280
     0
102
RTVSPost2010PropOp32
 70
     1
102
RTVSPost2010Prop33
280
     0
102
RTVSPost2010PropOp33
 70
     1
102
RTVSPost2010Prop34
280
     0
102
RTVSPost2010PropOp34
 70
     1
102
RTVSPost2010Prop35
280
     0
102
RTVSPost2010PropOp35
 70
     1
102
RTVSPost2010Prop36
280
     0
102
RTVSPost2010PropOp36
 70
     1
102
RTVSPost2010Prop37
 90
       50
102
RTVSPost2010PropOp37
 70
     1
102
RTVSPost2010Prop38
140
0.0
102
RTVSPost2010PropOp38
 70
     1
102
RTVSPost2010Prop39
140
1.0
102
RTVSPost2010PropOp39
 70
     1
102
RTVSPost2010Prop40
 90
        0
102
RTVSPost2010PropOp40
 70
     1
102
RTVSPost2010Prop41ColorIndex
 90
       18
102
RTVSPost2010Prop41ColorRGB
 90
        0
102
RTVSPost2010PropOp41
 70
     1
102
RTVSPost2010Prop42
 90
       50
102
RTVSPost2010PropOp42
 70
     1
102
RTVSPost2010Prop43
 90
        3
102
RTVSPost2010PropOp43
 70
     1
102
RTVSPost2010Prop44ColorIndex
 90
        5
102
RTVSPost2010Prop44ColorRGB
 90
      255
102
RTVSPost2010PropOp44
 70
     1
102
RTVSPost2010Prop45
280
     0
102
RTVSPost2010PropOp45
 70
     1
102
RTVSPost2010Prop46
 90
       50
102
RTVSPost2010PropOp46
 70
     1
102
RTVSPost2010Prop47
 90
       50
102
RTVSPost2010PropOp47
 70
     1
102
RTVSPost2010Prop48
 90
       50
102
RTVSPost2010PropOp48
 70
     1
102
RTVSPost2010Prop49
280
     0
102
RTVSPost2010PropOp49
 70
     1
102
RTVSPost2010Prop50
 90
       50
102
RTVSPost2010PropOp50
 70
     1
102
RTVSPost2010Prop51ColorIndex
 90
      256
102
RTVSPost2010Prop51ColorRGB
 90
-16777216
102
RTVSPost2010PropOp51
 70
     0
102
RTVSPost2010Prop52
140
1.0
102
RTVSPost2010PropOp52
 70
     0
102
RTVSPost2010Prop53
 90
        2
102
RTVSPost2010PropOp53
 70
     1
102
RTVSPost2010Prop54
  1
strokes_ogs.tif
102
RTVSPost2010PropOp54
 70
     1
102
RTVSPost2010Prop55
280
     0
102
RTVSPost2010PropOp55
 70
     1
102
RTVSPost2010Prop56
140
1.0
102
RTVSPost2010PropOp56
 70
     1
102
RTVSPost2010Prop57
140
1.0
102
RTVSPost2010PropOp57
 70
     1
102
RTVSPropertyOp0
 70
     1
102
RTVSPropertyOp1
 70
     1
102
RTVSPropertyOp2
 70
     1
102
RTVSPropertyOp3
 70
     1
102
RTVSPropertyOp4
 70
     1
102
RTVSPropertyOp5
 70
     1
102
RTVSPropertyOp6
 70
     1
102
RTVSPropertyOp7
 70
     1
102
RTVSPropertyOp8
 70
     1
102
RTVSPropertyOp9
 70
     1
102
RTVSPropertyOp10
 70
     1
102
RTVSPropertyOp11
 70
     1
102
RTVSPropertyOp12
 70
     1
102
RTVSPropertyOp13
 70
     1
102
RTVSPropertyOp14
 70
     1
102
RTVSPropertyOp15
 70
     1
102
RTVSPropertyOp16
 70
     1
102
RTVSPropertyOp17
 70
     1
102
RTVSPropertyOp18
 70
     1
102
RTVSPropertyOp19
 70
     1
102
RTVSPropertyOp20
 70
     1
102
RTVSPropertyOp21
 70
     1
102
RTVSPropertyOp22
 70
     1
102
RTVSPropertyOp23
 70
     1
102
RTVSPropertyOp24
 70
     1
102
RTVSPropertyOp25
 70
     1
102
RTVSPropertyOp26
 70
     1
102
RTVSPropertyOp27
 70
     1
102
RTVSPropertyOp28
 70
     1
102
RTVSPropertyOp29
 70
     1
102
RTVSPropertyOp30
 70
     1
102
RTVSPropertyOp31
 70
     1
102
RTVSPropertyOp32
 70
     1
102
RTVSPropertyOp33
 70
     1
102
RTVSPropertyOp34
 70
     1
102
RTVSPropertyOp35
 70
     1
102
RTVSPropertyOp36
 70
     1
102
RTVSPropertyOp37
 70
     1
102
RTVSPropertyOp38
 70
     1
102
RTVSPropertyOp39
 70
     1
102
RTVSPropertyOp40
 70
     1
102
RTVSPropertyOp41
 70
     1
102
RTVSPropertyOp42
 70
     1
102
RTVSPropertyOp43
 70
     1
102
RTVSPropertyOp44
 70
     1
102
RTVSPropertyOp45
 70
     1
102
RTVSPropertyOp46
 70
     1
102
RTVSPropertyOp47
 70
     1
102
RTVSPropertyOp48
 70
     1
102
RTVSPropertyOp49
 70
     1
102
RTVSPropertyOp50
 70
     1
102
RTVSPropertyOp51
 70
     0
102
RTVSPropertyOp52
 70
     0
102
RTVSPropertyOp53
 70
     1
102
RTVSPropertyOp54
 70
     1
102
RTVSPropertyOp55
 70
     1
102
RTVSPropertyOp56
 70
     1
102
RTVSPropertyOp57
 70
     1
102
RTVSPropertyOp58
 70
     1
102
RTVSPropertyOp59
 70
     1
102
RTVSPropertyOp60
 70
     1
102
RTVSPropertyOp61
 70
     1
102
RTVSPropertyOp62
 70
     1
  0
XRECORD
  5
1ABCC
102
{ACAD_REACTORS
330
1ABCB
102
}
330
1ABCB
100
AcDbXrecord
280
     1
102
RTVSPost2010Prop28
280
     0
102
RTVSPost2010PropOp28
 70
     1
102
RTVSPost2010Prop29
280
     1
102
RTVSPost2010PropOp29
 70
     1
102
RTVSPost2010Prop30
280
     1
102
RTVSPost2010PropOp30
 70
     1
102
RTVSPost2010Prop31
280
     0
102
RTVSPost2010PropOp31
 70
     1
102
RTVSPost2010Prop32
280
     0
102
RTVSPost2010PropOp32
 70
     1
102
RTVSPost2010Prop33
280
     0
102
RTVSPost2010PropOp33
 70
     1
102
RTVSPost2010Prop34
280
     0
102
RTVSPost2010PropOp34
 70
     1
102
RTVSPost2010Prop35
280
     0
102
RTVSPost2010PropOp35
 70
     1
102
RTVSPost2010Prop36
280
     0
102
RTVSPost2010PropOp36
 70
     1
102
RTVSPost2010Prop37
 90
       50
102
RTVSPost2010PropOp37
 70
     1
102
RTVSPost2010Prop38
140
0.0
102
RTVSPost2010PropOp38
 70
     1
102
RTVSPost2010Prop39
140
1.0
102
RTVSPost2010PropOp39
 70
     1
102
RTVSPost2010Prop40
 90
        0
102
RTVSPost2010PropOp40
 70
     1
102
RTVSPost2010Prop41ColorIndex
 90
       18
102
RTVSPost2010Prop41ColorRGB
 90
        0
102
RTVSPost2010PropOp41
 70
     1
102
RTVSPost2010Prop42
 90
       50
102
RTVSPost2010PropOp42
 70
     1
102
RTVSPost2010Prop43
 90
        3
102
RTVSPost2010PropOp43
 70
     1
102
RTVSPost2010Prop44ColorIndex
 90
        5
102
RTVSPost2010Prop44ColorRGB
 90
      255
102
RTVSPost2010PropOp44
 70
     1
102
RTVSPost2010Prop45
280
     0
102
RTVSPost2010PropOp45
 70
     1
102
RTVSPost2010Prop46
 90
       50
102
RTVSPost2010PropOp46
 70
     1
102
RTVSPost2010Prop47
 90
       50
102
RTVSPost2010PropOp47
 70
     1
102
RTVSPost2010Prop48
 90
       50
102
RTVSPost2010PropOp48
 70
     1
102
RTVSPost2010Prop49
280
     0
102
RTVSPost2010PropOp49
 70
     1
102
RTVSPost2010Prop50
 90
       50
102
RTVSPost2010PropOp50
 70
     1
102
RTVSPost2010Prop51ColorIndex
 90
      256
102
RTVSPost2010Prop51ColorRGB
 90
-16777216
102
RTVSPost2010PropOp51
 70
     0
102
RTVSPost2010Prop52
140
1.0
102
RTVSPost2010PropOp52
 70
     0
102
RTVSPost2010Prop53
 90
        2
102
RTVSPost2010PropOp53
 70
     1
102
RTVSPost2010Prop54
  1
strokes_ogs.tif
102
RTVSPost2010PropOp54
 70
     1
102
RTVSPost2010Prop55
280
     0
102
RTVSPost2010PropOp55
 70
     1
102
RTVSPost2010Prop56
140
1.0
102
RTVSPost2010PropOp56
 70
     1
102
RTVSPost2010Prop57
140
1.0
102
RTVSPost2010PropOp57
 70
     1
102
RTVSPropertyOp0
 70
     1
102
RTVSPropertyOp1
 70
     1
102
RTVSPropertyOp2
 70
     1
102
RTVSPropertyOp3
 70
     1
102
RTVSPropertyOp4
 70
     1
102
RTVSPropertyOp5
 70
     1
102
RTVSPropertyOp6
 70
     1
102
RTVSPropertyOp7
 70
     1
102
RTVSPropertyOp8
 70
     1
102
RTVSPropertyOp9
 70
     1
102
RTVSPropertyOp10
 70
     1
102
RTVSPropertyOp11
 70
     1
102
RTVSPropertyOp12
 70
     1
102
RTVSPropertyOp13
 70
     1
102
RTVSPropertyOp14
 70
     1
102
RTVSPropertyOp15
 70
     1
102
RTVSPropertyOp16
 70
     1
102
RTVSPropertyOp17
 70
     1
102
RTVSPropertyOp18
 70
     1
102
RTVSPropertyOp19
 70
     1
102
RTVSPropertyOp20
 70
     1
102
RTVSPropertyOp21
 70
     1
102
RTVSPropertyOp22
 70
     1
102
RTVSPropertyOp23
 70
     1
102
RTVSPropertyOp24
 70
     1
102
RTVSPropertyOp25
 70
     1
102
RTVSPropertyOp26
 70
     1
102
RTVSPropertyOp27
 70
     1
102
RTVSPropertyOp28
 70
     1
102
RTVSPropertyOp29
 70
     1
102
RTVSPropertyOp30
 70
     1
102
RTVSPropertyOp31
 70
     1
102
RTVSPropertyOp32
 70
     1
102
RTVSPropertyOp33
 70
     1
102
RTVSPropertyOp34
 70
     1
102
RTVSPropertyOp35
 70
     1
102
RTVSPropertyOp36
 70
     1
102
RTVSPropertyOp37
 70
     1
102
RTVSPropertyOp38
 70
     1
102
RTVSPropertyOp39
 70
     1
102
RTVSPropertyOp40
 70
     1
102
RTVSPropertyOp41
 70
     1
102
RTVSPropertyOp42
 70
     1
102
RTVSPropertyOp43
 70
     1
102
RTVSPropertyOp44
 70
     1
102
RTVSPropertyOp45
 70
     1
102
RTVSPropertyOp46
 70
     1
102
RTVSPropertyOp47
 70
     1
102
RTVSPropertyOp48
 70
     1
102
RTVSPropertyOp49
 70
     1
102
RTVSPropertyOp50
 70
     1
102
RTVSPropertyOp51
 70
     0
102
RTVSPropertyOp52
 70
     0
102
RTVSPropertyOp53
 70
     1
102
RTVSPropertyOp54
 70
     1
102
RTVSPropertyOp55
 70
     1
102
RTVSPropertyOp56
 70
     1
102
RTVSPropertyOp57
 70
     1
102
RTVSPropertyOp58
 70
     1
102
RTVSPropertyOp59
 70
     1
102
RTVSPropertyOp60
 70
     1
102
RTVSPropertyOp61
 70
     1
102
RTVSPropertyOp62
 70
     1
  0
XRECORD
  5
1ABD4
102
{ACAD_REACTORS
330
1ABD3
102
}
330
1ABD3
100
AcDbXrecord
280
     1
102
RTVSPost2010Prop28
280
     0
102
RTVSPost2010PropOp28
 70
     1
102
RTVSPost2010Prop29
280
     1
102
RTVSPost2010PropOp29
 70
     1
102
RTVSPost2010Prop30
280
     1
102
RTVSPost2010PropOp30
 70
     1
102
RTVSPost2010Prop31
280
     0
102
RTVSPost2010PropOp31
 70
     1
102
RTVSPost2010Prop32
280
     0
102
RTVSPost2010PropOp32
 70
     1
102
RTVSPost2010Prop33
280
     0
102
RTVSPost2010PropOp33
 70
     1
102
RTVSPost2010Prop34
280
     0
102
RTVSPost2010PropOp34
 70
     1
102
RTVSPost2010Prop35
280
     0
102
RTVSPost2010PropOp35
 70
     1
102
RTVSPost2010Prop36
280
     0
102
RTVSPost2010PropOp36
 70
     1
102
RTVSPost2010Prop37
 90
       50
102
RTVSPost2010PropOp37
 70
     1
102
RTVSPost2010Prop38
140
0.0
102
RTVSPost2010PropOp38
 70
     1
102
RTVSPost2010Prop39
140
1.0
102
RTVSPost2010PropOp39
 70
     1
102
RTVSPost2010Prop40
 90
        0
102
RTVSPost2010PropOp40
 70
     1
102
RTVSPost2010Prop41ColorIndex
 90
       18
102
RTVSPost2010Prop41ColorRGB
 90
        0
102
RTVSPost2010PropOp41
 70
     1
102
RTVSPost2010Prop42
 90
       50
102
RTVSPost2010PropOp42
 70
     1
102
RTVSPost2010Prop43
 90
        3
102
RTVSPost2010PropOp43
 70
     1
102
RTVSPost2010Prop44ColorIndex
 90
        5
102
RTVSPost2010Prop44ColorRGB
 90
      255
102
RTVSPost2010PropOp44
 70
     1
102
RTVSPost2010Prop45
280
     0
102
RTVSPost2010PropOp45
 70
     1
102
RTVSPost2010Prop46
 90
       50
102
RTVSPost2010PropOp46
 70
     1
102
RTVSPost2010Prop47
 90
       50
102
RTVSPost2010PropOp47
 70
     1
102
RTVSPost2010Prop48
 90
       50
102
RTVSPost2010PropOp48
 70
     1
102
RTVSPost2010Prop49
280
     0
102
RTVSPost2010PropOp49
 70
     1
102
RTVSPost2010Prop50
 90
       50
102
RTVSPost2010PropOp50
 70
     1
102
RTVSPost2010Prop51ColorIndex
 90
      256
102
RTVSPost2010Prop51ColorRGB
 90
-16777216
102
RTVSPost2010PropOp51
 70
     0
102
RTVSPost2010Prop52
140
1.0
102
RTVSPost2010PropOp52
 70
     0
102
RTVSPost2010Prop53
 90
        2
102
RTVSPost2010PropOp53
 70
     1
102
RTVSPost2010Prop54
  1
strokes_ogs.tif
102
RTVSPost2010PropOp54
 70
     1
102
RTVSPost2010Prop55
280
     0
102
RTVSPost2010PropOp55
 70
     1
102
RTVSPost2010Prop56
140
1.0
102
RTVSPost2010PropOp56
 70
     1
102
RTVSPost2010Prop57
140
1.0
102
RTVSPost2010PropOp57
 70
     1
102
RTVSPropertyOp0
 70
     1
102
RTVSPropertyOp1
 70
     1
102
RTVSPropertyOp2
 70
     1
102
RTVSPropertyOp3
 70
     1
102
RTVSPropertyOp4
 70
     1
102
RTVSPropertyOp5
 70
     1
102
RTVSPropertyOp6
 70
     1
102
RTVSPropertyOp7
 70
     1
102
RTVSPropertyOp8
 70
     1
102
RTVSPropertyOp9
 70
     1
102
RTVSPropertyOp10
 70
     1
102
RTVSPropertyOp11
 70
     1
102
RTVSPropertyOp12
 70
     1
102
RTVSPropertyOp13
 70
     1
102
RTVSPropertyOp14
 70
     1
102
RTVSPropertyOp15
 70
     1
102
RTVSPropertyOp16
 70
     1
102
RTVSPropertyOp17
 70
     1
102
RTVSPropertyOp18
 70
     1
102
RTVSPropertyOp19
 70
     1
102
RTVSPropertyOp20
 70
     1
102
RTVSPropertyOp21
 70
     1
102
RTVSPropertyOp22
 70
     1
102
RTVSPropertyOp23
 70
     1
102
RTVSPropertyOp24
 70
     1
102
RTVSPropertyOp25
 70
     1
102
RTVSPropertyOp26
 70
     1
102
RTVSPropertyOp27
 70
     1
102
RTVSPropertyOp28
 70
     1
102
RTVSPropertyOp29
 70
     1
102
RTVSPropertyOp30
 70
     1
102
RTVSPropertyOp31
 70
     1
102
RTVSPropertyOp32
 70
     1
102
RTVSPropertyOp33
 70
     1
102
RTVSPropertyOp34
 70
     1
102
RTVSPropertyOp35
 70
     1
102
RTVSPropertyOp36
 70
     1
102
RTVSPropertyOp37
 70
     1
102
RTVSPropertyOp38
 70
     1
102
RTVSPropertyOp39
 70
     1
102
RTVSPropertyOp40
 70
     1
102
RTVSPropertyOp41
 70
     1
102
RTVSPropertyOp42
 70
     1
102
RTVSPropertyOp43
 70
     1
102
RTVSPropertyOp44
 70
     1
102
RTVSPropertyOp45
 70
     1
102
RTVSPropertyOp46
 70
     1
102
RTVSPropertyOp47
 70
     1
102
RTVSPropertyOp48
 70
     1
102
RTVSPropertyOp49
 70
     1
102
RTVSPropertyOp50
 70
     1
102
RTVSPropertyOp51
 70
     0
102
RTVSPropertyOp52
 70
     0
102
RTVSPropertyOp53
 70
     1
102
RTVSPropertyOp54
 70
     1
102
RTVSPropertyOp55
 70
     1
102
RTVSPropertyOp56
 70
     1
102
RTVSPropertyOp57
 70
     1
102
RTVSPropertyOp58
 70
     1
102
RTVSPropertyOp59
 70
     1
102
RTVSPropertyOp60
 70
     1
102
RTVSPropertyOp61
 70
     1
102
RTVSPropertyOp62
 70
     1
  0
XRECORD
  5
1ABF0
102
{ACAD_REACTORS
330
1ABEF
102
}
330
1ABEF
100
AcDbXrecord
280
     1
102
RTVSPost2010Prop28
280
     0
102
RTVSPost2010PropOp28
 70
     1
102
RTVSPost2010Prop29
280
     1
102
RTVSPost2010PropOp29
 70
     1
102
RTVSPost2010Prop30
280
     1
102
RTVSPost2010PropOp30
 70
     1
102
RTVSPost2010Prop31
280
     0
102
RTVSPost2010PropOp31
 70
     1
102
RTVSPost2010Prop32
280
     0
102
RTVSPost2010PropOp32
 70
     1
102
RTVSPost2010Prop33
280
     0
102
RTVSPost2010PropOp33
 70
     1
102
RTVSPost2010Prop34
280
     0
102
RTVSPost2010PropOp34
 70
     1
102
RTVSPost2010Prop35
280
     0
102
RTVSPost2010PropOp35
 70
     1
102
RTVSPost2010Prop36
280
     0
102
RTVSPost2010PropOp36
 70
     1
102
RTVSPost2010Prop37
 90
       50
102
RTVSPost2010PropOp37
 70
     0
102
RTVSPost2010Prop38
140
0.0
102
RTVSPost2010PropOp38
 70
     0
102
RTVSPost2010Prop39
140
1.0
102
RTVSPost2010PropOp39
 70
     0
102
RTVSPost2010Prop40
 90
        0
102
RTVSPost2010PropOp40
 70
     0
102
RTVSPost2010Prop41ColorIndex
 90
       18
102
RTVSPost2010Prop41ColorRGB
 90
        0
102
RTVSPost2010PropOp41
 70
     0
102
RTVSPost2010Prop42
 90
       50
102
RTVSPost2010PropOp42
 70
     0
102
RTVSPost2010Prop43
 90
        3
102
RTVSPost2010PropOp43
 70
     0
102
RTVSPost2010Prop44ColorIndex
 90
        5
102
RTVSPost2010Prop44ColorRGB
 90
      255
102
RTVSPost2010PropOp44
 70
     0
102
RTVSPost2010Prop45
280
     0
102
RTVSPost2010PropOp45
 70
     1
102
RTVSPost2010Prop46
 90
       50
102
RTVSPost2010PropOp46
 70
     0
102
RTVSPost2010Prop47
 90
       50
102
RTVSPost2010PropOp47
 70
     0
102
RTVSPost2010Prop48
 90
       50
102
RTVSPost2010PropOp48
 70
     0
102
RTVSPost2010Prop49
280
     0
102
RTVSPost2010PropOp49
 70
     1
102
RTVSPost2010Prop50
 90
       50
102
RTVSPost2010PropOp50
 70
     0
102
RTVSPost2010Prop51ColorIndex
 90
      256
102
RTVSPost2010Prop51ColorRGB
 90
-16777216
102
RTVSPost2010PropOp51
 70
     0
102
RTVSPost2010Prop52
140
1.0
102
RTVSPost2010PropOp52
 70
     0
102
RTVSPost2010Prop53
 90
        2
102
RTVSPost2010PropOp53
 70
     0
102
RTVSPost2010Prop54
  1
strokes_ogs.tif
102
RTVSPost2010PropOp54
 70
     0
102
RTVSPost2010Prop55
280
     0
102
RTVSPost2010PropOp55
 70
     1
102
RTVSPost2010Prop56
140
1.0
102
RTVSPost2010PropOp56
 70
     0
102
RTVSPost2010Prop57
140
1.0
102
RTVSPost2010PropOp57
 70
     0
102
RTVSPropertyOp0
 70
     0
102
RTVSPropertyOp1
 70
     0
102
RTVSPropertyOp2
 70
     0
102
RTVSPropertyOp3
 70
     0
102
RTVSPropertyOp4
 70
     0
102
RTVSPropertyOp5
 70
     0
102
RTVSPropertyOp6
 70
     0
102
RTVSPropertyOp7
 70
     0
102
RTVSPropertyOp8
 70
     0
102
RTVSPropertyOp9
 70
     0
102
RTVSPropertyOp10
 70
     0
102
RTVSPropertyOp11
 70
     0
102
RTVSPropertyOp12
 70
     0
102
RTVSPropertyOp13
 70
     0
102
RTVSPropertyOp14
 70
     2
102
RTVSPropertyOp15
 70
     0
102
RTVSPropertyOp16
 70
     0
102
RTVSPropertyOp17
 70
     0
102
RTVSPropertyOp18
 70
     0
102
RTVSPropertyOp19
 70
     0
102
RTVSPropertyOp20
 70
     0
102
RTVSPropertyOp21
 70
     0
102
RTVSPropertyOp22
 70
     0
102
RTVSPropertyOp23
 70
     0
102
RTVSPropertyOp24
 70
     0
102
RTVSPropertyOp25
 70
     0
102
RTVSPropertyOp26
 70
     0
102
RTVSPropertyOp27
 70
     0
102
RTVSPropertyOp28
 70
     1
102
RTVSPropertyOp29
 70
     1
102
RTVSPropertyOp30
 70
     1
102
RTVSPropertyOp31
 70
     1
102
RTVSPropertyOp32
 70
     1
102
RTVSPropertyOp33
 70
     1
102
RTVSPropertyOp34
 70
     1
102
RTVSPropertyOp35
 70
     1
102
RTVSPropertyOp36
 70
     1
102
RTVSPropertyOp37
 70
     0
102
RTVSPropertyOp38
 70
     0
102
RTVSPropertyOp39
 70
     0
102
RTVSPropertyOp40
 70
     0
102
RTVSPropertyOp41
 70
     0
102
RTVSPropertyOp42
 70
     0
102
RTVSPropertyOp43
 70
     0
102
RTVSPropertyOp44
 70
     0
102
RTVSPropertyOp45
 70
     1
102
RTVSPropertyOp46
 70
     0
102
RTVSPropertyOp47
 70
     0
102
RTVSPropertyOp48
 70
     0
102
RTVSPropertyOp49
 70
     1
102
RTVSPropertyOp50
 70
     0
102
RTVSPropertyOp51
 70
     0
102
RTVSPropertyOp52
 70
     0
102
RTVSPropertyOp53
 70
     0
102
RTVSPropertyOp54
 70
     0
102
RTVSPropertyOp55
 70
     1
102
RTVSPropertyOp56
 70
     0
102
RTVSPropertyOp57
 70
     0
102
RTVSPropertyOp58
 70
     0
102
RTVSPropertyOp59
 70
     0
102
RTVSPropertyOp60
 70
     0
102
RTVSPropertyOp61
 70
     0
102
RTVSPropertyOp62
 70
     0
  0
XRECORD
  5
1ABE0
102
{ACAD_REACTORS
330
1ABDF
102
}
330
1ABDF
100
AcDbXrecord
280
     1
102
RTVSPost2010Prop28
280
     0
102
RTVSPost2010PropOp28
 70
     1
102
RTVSPost2010Prop29
280
     1
102
RTVSPost2010PropOp29
 70
     1
102
RTVSPost2010Prop30
280
     1
102
RTVSPost2010PropOp30
 70
     1
102
RTVSPost2010Prop31
280
     0
102
RTVSPost2010PropOp31
 70
     1
102
RTVSPost2010Prop32
280
     0
102
RTVSPost2010PropOp32
 70
     1
102
RTVSPost2010Prop33
280
     0
102
RTVSPost2010PropOp33
 70
     1
102
RTVSPost2010Prop34
280
     0
102
RTVSPost2010PropOp34
 70
     1
102
RTVSPost2010Prop35
280
     0
102
RTVSPost2010PropOp35
 70
     1
102
RTVSPost2010Prop36
280
     0
102
RTVSPost2010PropOp36
 70
     1
102
RTVSPost2010Prop37
 90
       50
102
RTVSPost2010PropOp37
 70
     1
102
RTVSPost2010Prop38
140
0.0
102
RTVSPost2010PropOp38
 70
     1
102
RTVSPost2010Prop39
140
1.0
102
RTVSPost2010PropOp39
 70
     1
102
RTVSPost2010Prop40
 90
        0
102
RTVSPost2010PropOp40
 70
     1
102
RTVSPost2010Prop41ColorIndex
 90
       18
102
RTVSPost2010Prop41ColorRGB
 90
        0
102
RTVSPost2010PropOp41
 70
     1
102
RTVSPost2010Prop42
 90
       50
102
RTVSPost2010PropOp42
 70
     1
102
RTVSPost2010Prop43
 90
        3
102
RTVSPost2010PropOp43
 70
     1
102
RTVSPost2010Prop44ColorIndex
 90
        5
102
RTVSPost2010Prop44ColorRGB
 90
      255
102
RTVSPost2010PropOp44
 70
     1
102
RTVSPost2010Prop45
280
     0
102
RTVSPost2010PropOp45
 70
     1
102
RTVSPost2010Prop46
 90
       50
102
RTVSPost2010PropOp46
 70
     1
102
RTVSPost2010Prop47
 90
       50
102
RTVSPost2010PropOp47
 70
     1
102
RTVSPost2010Prop48
 90
       50
102
RTVSPost2010PropOp48
 70
     1
102
RTVSPost2010Prop49
280
     0
102
RTVSPost2010PropOp49
 70
     1
102
RTVSPost2010Prop50
 90
       50
102
RTVSPost2010PropOp50
 70
     1
102
RTVSPost2010Prop51ColorIndex
 90
      256
102
RTVSPost2010Prop51ColorRGB
 90
-16777216
102
RTVSPost2010PropOp51
 70
     0
102
RTVSPost2010Prop52
140
1.0
102
RTVSPost2010PropOp52
 70
     0
102
RTVSPost2010Prop53
 90
        2
102
RTVSPost2010PropOp53
 70
     1
102
RTVSPost2010Prop54
  1
strokes_ogs.tif
102
RTVSPost2010PropOp54
 70
     1
102
RTVSPost2010Prop55
280
     0
102
RTVSPost2010PropOp55
 70
     1
102
RTVSPost2010Prop56
140
1.0
102
RTVSPost2010PropOp56
 70
     1
102
RTVSPost2010Prop57
140
1.0
102
RTVSPost2010PropOp57
 70
     1
102
RTVSPropertyOp0
 70
     1
102
RTVSPropertyOp1
 70
     1
102
RTVSPropertyOp2
 70
     1
102
RTVSPropertyOp3
 70
     1
102
RTVSPropertyOp4
 70
     1
102
RTVSPropertyOp5
 70
     1
102
RTVSPropertyOp6
 70
     1
102
RTVSPropertyOp7
 70
     1
102
RTVSPropertyOp8
 70
     1
102
RTVSPropertyOp9
 70
     1
102
RTVSPropertyOp10
 70
     1
102
RTVSPropertyOp11
 70
     1
102
RTVSPropertyOp12
 70
     1
102
RTVSPropertyOp13
 70
     1
102
RTVSPropertyOp14
 70
     1
102
RTVSPropertyOp15
 70
     1
102
RTVSPropertyOp16
 70
     1
102
RTVSPropertyOp17
 70
     1
102
RTVSPropertyOp18
 70
     1
102
RTVSPropertyOp19
 70
     1
102
RTVSPropertyOp20
 70
     1
102
RTVSPropertyOp21
 70
     1
102
RTVSPropertyOp22
 70
     1
102
RTVSPropertyOp23
 70
     1
102
RTVSPropertyOp24
 70
     1
102
RTVSPropertyOp25
 70
     1
102
RTVSPropertyOp26
 70
     1
102
RTVSPropertyOp27
 70
     1
102
RTVSPropertyOp28
 70
     1
102
RTVSPropertyOp29
 70
     1
102
RTVSPropertyOp30
 70
     1
102
RTVSPropertyOp31
 70
     1
102
RTVSPropertyOp32
 70
     1
102
RTVSPropertyOp33
 70
     1
102
RTVSPropertyOp34
 70
     1
102
RTVSPropertyOp35
 70
     1
102
RTVSPropertyOp36
 70
     1
102
RTVSPropertyOp37
 70
     1
102
RTVSPropertyOp38
 70
     1
102
RTVSPropertyOp39
 70
     1
102
RTVSPropertyOp40
 70
     1
102
RTVSPropertyOp41
 70
     1
102
RTVSPropertyOp42
 70
     1
102
RTVSPropertyOp43
 70
     1
102
RTVSPropertyOp44
 70
     1
102
RTVSPropertyOp45
 70
     1
102
RTVSPropertyOp46
 70
     1
102
RTVSPropertyOp47
 70
     1
102
RTVSPropertyOp48
 70
     1
102
RTVSPropertyOp49
 70
     1
102
RTVSPropertyOp50
 70
     1
102
RTVSPropertyOp51
 70
     0
102
RTVSPropertyOp52
 70
     0
102
RTVSPropertyOp53
 70
     1
102
RTVSPropertyOp54
 70
     1
102
RTVSPropertyOp55
 70
     1
102
RTVSPropertyOp56
 70
     1
102
RTVSPropertyOp57
 70
     1
102
RTVSPropertyOp58
 70
     1
102
RTVSPropertyOp59
 70
     1
102
RTVSPropertyOp60
 70
     1
102
RTVSPropertyOp61
 70
     1
102
RTVSPropertyOp62
 70
     1
  0
XRECORD
  5
1ABF2
102
{ACAD_REACTORS
330
1ABF1
102
}
330
1ABF1
100
AcDbXrecord
280
     1
102
RTVSPost2010Prop28
280
     0
102
RTVSPost2010PropOp28
 70
     1
102
RTVSPost2010Prop29
280
     1
102
RTVSPost2010PropOp29
 70
     1
102
RTVSPost2010Prop30
280
     1
102
RTVSPost2010PropOp30
 70
     1
102
RTVSPost2010Prop31
280
     0
102
RTVSPost2010PropOp31
 70
     1
102
RTVSPost2010Prop32
280
     0
102
RTVSPost2010PropOp32
 70
     1
102
RTVSPost2010Prop33
280
     0
102
RTVSPost2010PropOp33
 70
     1
102
RTVSPost2010Prop34
280
     0
102
RTVSPost2010PropOp34
 70
     1
102
RTVSPost2010Prop35
280
     0
102
RTVSPost2010PropOp35
 70
     1
102
RTVSPost2010Prop36
280
     0
102
RTVSPost2010PropOp36
 70
     1
102
RTVSPost2010Prop37
 90
       50
102
RTVSPost2010PropOp37
 70
     0
102
RTVSPost2010Prop38
140
0.0
102
RTVSPost2010PropOp38
 70
     0
102
RTVSPost2010Prop39
140
1.0
102
RTVSPost2010PropOp39
 70
     0
102
RTVSPost2010Prop40
 90
        0
102
RTVSPost2010PropOp40
 70
     0
102
RTVSPost2010Prop41ColorIndex
 90
       18
102
RTVSPost2010Prop41ColorRGB
 90
        0
102
RTVSPost2010PropOp41
 70
     0
102
RTVSPost2010Prop42
 90
       50
102
RTVSPost2010PropOp42
 70
     0
102
RTVSPost2010Prop43
 90
        3
102
RTVSPost2010PropOp43
 70
     0
102
RTVSPost2010Prop44ColorIndex
 90
        5
102
RTVSPost2010Prop44ColorRGB
 90
      255
102
RTVSPost2010PropOp44
 70
     0
102
RTVSPost2010Prop45
280
     0
102
RTVSPost2010PropOp45
 70
     1
102
RTVSPost2010Prop46
 90
       50
102
RTVSPost2010PropOp46
 70
     0
102
RTVSPost2010Prop47
 90
       50
102
RTVSPost2010PropOp47
 70
     0
102
RTVSPost2010Prop48
 90
       50
102
RTVSPost2010PropOp48
 70
     0
102
RTVSPost2010Prop49
280
     0
102
RTVSPost2010PropOp49
 70
     1
102
RTVSPost2010Prop50
 90
       50
102
RTVSPost2010PropOp50
 70
     0
102
RTVSPost2010Prop51ColorIndex
 90
      256
102
RTVSPost2010Prop51ColorRGB
 90
-16777216
102
RTVSPost2010PropOp51
 70
     0
102
RTVSPost2010Prop52
140
1.0
102
RTVSPost2010PropOp52
 70
     0
102
RTVSPost2010Prop53
 90
        2
102
RTVSPost2010PropOp53
 70
     0
102
RTVSPost2010Prop54
  1
strokes_ogs.tif
102
RTVSPost2010PropOp54
 70
     0
102
RTVSPost2010Prop55
280
     0
102
RTVSPost2010PropOp55
 70
     1
102
RTVSPost2010Prop56
140
1.0
102
RTVSPost2010PropOp56
 70
     0
102
RTVSPost2010Prop57
140
1.0
102
RTVSPost2010PropOp57
 70
     0
102
RTVSPropertyOp0
 70
     0
102
RTVSPropertyOp1
 70
     0
102
RTVSPropertyOp2
 70
     0
102
RTVSPropertyOp3
 70
     0
102
RTVSPropertyOp4
 70
     0
102
RTVSPropertyOp5
 70
     0
102
RTVSPropertyOp6
 70
     0
102
RTVSPropertyOp7
 70
     0
102
RTVSPropertyOp8
 70
     0
102
RTVSPropertyOp9
 70
     0
102
RTVSPropertyOp10
 70
     0
102
RTVSPropertyOp11
 70
     0
102
RTVSPropertyOp12
 70
     0
102
RTVSPropertyOp13
 70
     0
102
RTVSPropertyOp14
 70
     2
102
RTVSPropertyOp15
 70
     0
102
RTVSPropertyOp16
 70
     0
102
RTVSPropertyOp17
 70
     0
102
RTVSPropertyOp18
 70
     0
102
RTVSPropertyOp19
 70
     0
102
RTVSPropertyOp20
 70
     0
102
RTVSPropertyOp21
 70
     0
102
RTVSPropertyOp22
 70
     0
102
RTVSPropertyOp23
 70
     0
102
RTVSPropertyOp24
 70
     0
102
RTVSPropertyOp25
 70
     0
102
RTVSPropertyOp26
 70
     0
102
RTVSPropertyOp27
 70
     0
102
RTVSPropertyOp28
 70
     1
102
RTVSPropertyOp29
 70
     1
102
RTVSPropertyOp30
 70
     1
102
RTVSPropertyOp31
 70
     1
102
RTVSPropertyOp32
 70
     1
102
RTVSPropertyOp33
 70
     1
102
RTVSPropertyOp34
 70
     1
102
RTVSPropertyOp35
 70
     1
102
RTVSPropertyOp36
 70
     1
102
RTVSPropertyOp37
 70
     0
102
RTVSPropertyOp38
 70
     0
102
RTVSPropertyOp39
 70
     0
102
RTVSPropertyOp40
 70
     0
102
RTVSPropertyOp41
 70
     0
102
RTVSPropertyOp42
 70
     0
102
RTVSPropertyOp43
 70
     0
102
RTVSPropertyOp44
 70
     0
102
RTVSPropertyOp45
 70
     1
102
RTVSPropertyOp46
 70
     0
102
RTVSPropertyOp47
 70
     0
102
RTVSPropertyOp48
 70
     0
102
RTVSPropertyOp49
 70
     1
102
RTVSPropertyOp50
 70
     0
102
RTVSPropertyOp51
 70
     0
102
RTVSPropertyOp52
 70
     0
102
RTVSPropertyOp53
 70
     0
102
RTVSPropertyOp54
 70
     0
102
RTVSPropertyOp55
 70
     1
102
RTVSPropertyOp56
 70
     0
102
RTVSPropertyOp57
 70
     0
102
RTVSPropertyOp58
 70
     0
102
RTVSPropertyOp59
 70
     0
102
RTVSPropertyOp60
 70
     0
102
RTVSPropertyOp61
 70
     0
102
RTVSPropertyOp62
 70
     0
  0
XRECORD
  5
1ABD8
102
{ACAD_REACTORS
330
1ABD7
102
}
330
1ABD7
100
AcDbXrecord
280
     1
102
RTVSPost2010Prop28
280
     0
102
RTVSPost2010PropOp28
 70
     1
102
RTVSPost2010Prop29
280
     1
102
RTVSPost2010PropOp29
 70
     1
102
RTVSPost2010Prop30
280
     1
102
RTVSPost2010PropOp30
 70
     1
102
RTVSPost2010Prop31
280
     0
102
RTVSPost2010PropOp31
 70
     1
102
RTVSPost2010Prop32
280
     0
102
RTVSPost2010PropOp32
 70
     1
102
RTVSPost2010Prop33
280
     0
102
RTVSPost2010PropOp33
 70
     1
102
RTVSPost2010Prop34
280
     0
102
RTVSPost2010PropOp34
 70
     1
102
RTVSPost2010Prop35
280
     0
102
RTVSPost2010PropOp35
 70
     1
102
RTVSPost2010Prop36
280
     0
102
RTVSPost2010PropOp36
 70
     1
102
RTVSPost2010Prop37
 90
       50
102
RTVSPost2010PropOp37
 70
     1
102
RTVSPost2010Prop38
140
0.0
102
RTVSPost2010PropOp38
 70
     1
102
RTVSPost2010Prop39
140
1.0
102
RTVSPost2010PropOp39
 70
     1
102
RTVSPost2010Prop40
 90
        0
102
RTVSPost2010PropOp40
 70
     1
102
RTVSPost2010Prop41ColorIndex
 90
       18
102
RTVSPost2010Prop41ColorRGB
 90
        0
102
RTVSPost2010PropOp41
 70
     1
102
RTVSPost2010Prop42
 90
       50
102
RTVSPost2010PropOp42
 70
     1
102
RTVSPost2010Prop43
 90
        3
102
RTVSPost2010PropOp43
 70
     1
102
RTVSPost2010Prop44ColorIndex
 90
        5
102
RTVSPost2010Prop44ColorRGB
 90
      255
102
RTVSPost2010PropOp44
 70
     1
102
RTVSPost2010Prop45
280
     0
102
RTVSPost2010PropOp45
 70
     1
102
RTVSPost2010Prop46
 90
       50
102
RTVSPost2010PropOp46
 70
     1
102
RTVSPost2010Prop47
 90
       50
102
RTVSPost2010PropOp47
 70
     1
102
RTVSPost2010Prop48
 90
       50
102
RTVSPost2010PropOp48
 70
     1
102
RTVSPost2010Prop49
280
     0
102
RTVSPost2010PropOp49
 70
     1
102
RTVSPost2010Prop50
 90
       50
102
RTVSPost2010PropOp50
 70
     1
102
RTVSPost2010Prop51ColorIndex
 90
      256
102
RTVSPost2010Prop51ColorRGB
 90
-16777216
102
RTVSPost2010PropOp51
 70
     0
102
RTVSPost2010Prop52
140
1.0
102
RTVSPost2010PropOp52
 70
     0
102
RTVSPost2010Prop53
 90
        2
102
RTVSPost2010PropOp53
 70
     1
102
RTVSPost2010Prop54
  1
strokes_ogs.tif
102
RTVSPost2010PropOp54
 70
     1
102
RTVSPost2010Prop55
280
     0
102
RTVSPost2010PropOp55
 70
     1
102
RTVSPost2010Prop56
140
1.0
102
RTVSPost2010PropOp56
 70
     1
102
RTVSPost2010Prop57
140
1.0
102
RTVSPost2010PropOp57
 70
     1
102
RTVSPropertyOp0
 70
     1
102
RTVSPropertyOp1
 70
     1
102
RTVSPropertyOp2
 70
     1
102
RTVSPropertyOp3
 70
     1
102
RTVSPropertyOp4
 70
     1
102
RTVSPropertyOp5
 70
     1
102
RTVSPropertyOp6
 70
     1
102
RTVSPropertyOp7
 70
     1
102
RTVSPropertyOp8
 70
     1
102
RTVSPropertyOp9
 70
     1
102
RTVSPropertyOp10
 70
     1
102
RTVSPropertyOp11
 70
     1
102
RTVSPropertyOp12
 70
     1
102
RTVSPropertyOp13
 70
     1
102
RTVSPropertyOp14
 70
     1
102
RTVSPropertyOp15
 70
     1
102
RTVSPropertyOp16
 70
     1
102
RTVSPropertyOp17
 70
     1
102
RTVSPropertyOp18
 70
     1
102
RTVSPropertyOp19
 70
     1
102
RTVSPropertyOp20
 70
     1
102
RTVSPropertyOp21
 70
     1
102
RTVSPropertyOp22
 70
     1
102
RTVSPropertyOp23
 70
     1
102
RTVSPropertyOp24
 70
     1
102
RTVSPropertyOp25
 70
     1
102
RTVSPropertyOp26
 70
     1
102
RTVSPropertyOp27
 70
     1
102
RTVSPropertyOp28
 70
     1
102
RTVSPropertyOp29
 70
     1
102
RTVSPropertyOp30
 70
     1
102
RTVSPropertyOp31
 70
     1
102
RTVSPropertyOp32
 70
     1
102
RTVSPropertyOp33
 70
     1
102
RTVSPropertyOp34
 70
     1
102
RTVSPropertyOp35
 70
     1
102
RTVSPropertyOp36
 70
     1
102
RTVSPropertyOp37
 70
     1
102
RTVSPropertyOp38
 70
     1
102
RTVSPropertyOp39
 70
     1
102
RTVSPropertyOp40
 70
     1
102
RTVSPropertyOp41
 70
     1
102
RTVSPropertyOp42
 70
     1
102
RTVSPropertyOp43
 70
     1
102
RTVSPropertyOp44
 70
     1
102
RTVSPropertyOp45
 70
     1
102
RTVSPropertyOp46
 70
     1
102
RTVSPropertyOp47
 70
     1
102
RTVSPropertyOp48
 70
     1
102
RTVSPropertyOp49
 70
     1
102
RTVSPropertyOp50
 70
     1
102
RTVSPropertyOp51
 70
     0
102
RTVSPropertyOp52
 70
     0
102
RTVSPropertyOp53
 70
     1
102
RTVSPropertyOp54
 70
     1
102
RTVSPropertyOp55
 70
     1
102
RTVSPropertyOp56
 70
     1
102
RTVSPropertyOp57
 70
     1
102
RTVSPropertyOp58
 70
     1
102
RTVSPropertyOp59
 70
     1
102
RTVSPropertyOp60
 70
     1
102
RTVSPropertyOp61
 70
     1
102
RTVSPropertyOp62
 70
     1
  0
XRECORD
  5
1ABEE
102
{ACAD_REACTORS
330
1ABED
102
}
330
1ABED
100
AcDbXrecord
280
     1
102
RTVSPost2010Prop28
280
     0
102
RTVSPost2010PropOp28
 70
     1
102
RTVSPost2010Prop29
280
     1
102
RTVSPost2010PropOp29
 70
     1
102
RTVSPost2010Prop30
280
     1
102
RTVSPost2010PropOp30
 70
     1
102
RTVSPost2010Prop31
280
     0
102
RTVSPost2010PropOp31
 70
     1
102
RTVSPost2010Prop32
280
     0
102
RTVSPost2010PropOp32
 70
     1
102
RTVSPost2010Prop33
280
     0
102
RTVSPost2010PropOp33
 70
     1
102
RTVSPost2010Prop34
280
     0
102
RTVSPost2010PropOp34
 70
     1
102
RTVSPost2010Prop35
280
     0
102
RTVSPost2010PropOp35
 70
     1
102
RTVSPost2010Prop36
280
     0
102
RTVSPost2010PropOp36
 70
     1
102
RTVSPost2010Prop37
 90
       50
102
RTVSPost2010PropOp37
 70
     1
102
RTVSPost2010Prop38
140
0.0
102
RTVSPost2010PropOp38
 70
     1
102
RTVSPost2010Prop39
140
1.0
102
RTVSPost2010PropOp39
 70
     1
102
RTVSPost2010Prop40
 90
        0
102
RTVSPost2010PropOp40
 70
     1
102
RTVSPost2010Prop41ColorIndex
 90
       18
102
RTVSPost2010Prop41ColorRGB
 90
        0
102
RTVSPost2010PropOp41
 70
     1
102
RTVSPost2010Prop42
 90
       50
102
RTVSPost2010PropOp42
 70
     1
102
RTVSPost2010Prop43
 90
        3
102
RTVSPost2010PropOp43
 70
     1
102
RTVSPost2010Prop44ColorIndex
 90
        5
102
RTVSPost2010Prop44ColorRGB
 90
      255
102
RTVSPost2010PropOp44
 70
     1
102
RTVSPost2010Prop45
280
     0
102
RTVSPost2010PropOp45
 70
     1
102
RTVSPost2010Prop46
 90
       50
102
RTVSPost2010PropOp46
 70
     1
102
RTVSPost2010Prop47
 90
       50
102
RTVSPost2010PropOp47
 70
     1
102
RTVSPost2010Prop48
 90
       50
102
RTVSPost2010PropOp48
 70
     1
102
RTVSPost2010Prop49
280
     0
102
RTVSPost2010PropOp49
 70
     1
102
RTVSPost2010Prop50
 90
       50
102
RTVSPost2010PropOp50
 70
     1
102
RTVSPost2010Prop51ColorIndex
 90
      256
102
RTVSPost2010Prop51ColorRGB
 90
-16777216
102
RTVSPost2010PropOp51
 70
     0
102
RTVSPost2010Prop52
140
1.0
102
RTVSPost2010PropOp52
 70
     0
102
RTVSPost2010Prop53
 90
        2
102
RTVSPost2010PropOp53
 70
     1
102
RTVSPost2010Prop54
  1
strokes_ogs.tif
102
RTVSPost2010PropOp54
 70
     1
102
RTVSPost2010Prop55
280
     0
102
RTVSPost2010PropOp55
 70
     1
102
RTVSPost2010Prop56
140
1.0
102
RTVSPost2010PropOp56
 70
     1
102
RTVSPost2010Prop57
140
1.0
102
RTVSPost2010PropOp57
 70
     1
102
RTVSPropertyOp0
 70
     1
102
RTVSPropertyOp1
 70
     1
102
RTVSPropertyOp2
 70
     1
102
RTVSPropertyOp3
 70
     1
102
RTVSPropertyOp4
 70
     1
102
RTVSPropertyOp5
 70
     1
102
RTVSPropertyOp6
 70
     1
102
RTVSPropertyOp7
 70
     1
102
RTVSPropertyOp8
 70
     1
102
RTVSPropertyOp9
 70
     1
102
RTVSPropertyOp10
 70
     1
102
RTVSPropertyOp11
 70
     1
102
RTVSPropertyOp12
 70
     1
102
RTVSPropertyOp13
 70
     1
102
RTVSPropertyOp14
 70
     1
102
RTVSPropertyOp15
 70
     1
102
RTVSPropertyOp16
 70
     1
102
RTVSPropertyOp17
 70
     1
102
RTVSPropertyOp18
 70
     1
102
RTVSPropertyOp19
 70
     1
102
RTVSPropertyOp20
 70
     1
102
RTVSPropertyOp21
 70
     1
102
RTVSPropertyOp22
 70
     1
102
RTVSPropertyOp23
 70
     1
102
RTVSPropertyOp24
 70
     1
102
RTVSPropertyOp25
 70
     1
102
RTVSPropertyOp26
 70
     1
102
RTVSPropertyOp27
 70
     1
102
RTVSPropertyOp28
 70
     1
102
RTVSPropertyOp29
 70
     1
102
RTVSPropertyOp30
 70
     1
102
RTVSPropertyOp31
 70
     1
102
RTVSPropertyOp32
 70
     1
102
RTVSPropertyOp33
 70
     1
102
RTVSPropertyOp34
 70
     1
102
RTVSPropertyOp35
 70
     1
102
RTVSPropertyOp36
 70
     1
102
RTVSPropertyOp37
 70
     1
102
RTVSPropertyOp38
 70
     1
102
RTVSPropertyOp39
 70
     1
102
RTVSPropertyOp40
 70
     1
102
RTVSPropertyOp41
 70
     1
102
RTVSPropertyOp42
 70
     1
102
RTVSPropertyOp43
 70
     1
102
RTVSPropertyOp44
 70
     1
102
RTVSPropertyOp45
 70
     1
102
RTVSPropertyOp46
 70
     1
102
RTVSPropertyOp47
 70
     1
102
RTVSPropertyOp48
 70
     1
102
RTVSPropertyOp49
 70
     1
102
RTVSPropertyOp50
 70
     1
102
RTVSPropertyOp51
 70
     0
102
RTVSPropertyOp52
 70
     0
102
RTVSPropertyOp53
 70
     1
102
RTVSPropertyOp54
 70
     1
102
RTVSPropertyOp55
 70
     1
102
RTVSPropertyOp56
 70
     1
102
RTVSPropertyOp57
 70
     1
102
RTVSPropertyOp58
 70
     1
102
RTVSPropertyOp59
 70
     1
102
RTVSPropertyOp60
 70
     1
102
RTVSPropertyOp61
 70
     1
102
RTVSPropertyOp62
 70
     1
  0
XRECORD
  5
1ABEC
102
{ACAD_REACTORS
330
1ABEB
102
}
330
1ABEB
100
AcDbXrecord
280
     1
102
RTVSPost2010Prop28
280
     0
102
RTVSPost2010PropOp28
 70
     1
102
RTVSPost2010Prop29
280
     1
102
RTVSPost2010PropOp29
 70
     1
102
RTVSPost2010Prop30
280
     1
102
RTVSPost2010PropOp30
 70
     1
102
RTVSPost2010Prop31
280
     0
102
RTVSPost2010PropOp31
 70
     1
102
RTVSPost2010Prop32
280
     0
102
RTVSPost2010PropOp32
 70
     1
102
RTVSPost2010Prop33
280
     0
102
RTVSPost2010PropOp33
 70
     1
102
RTVSPost2010Prop34
280
     0
102
RTVSPost2010PropOp34
 70
     1
102
RTVSPost2010Prop35
280
     0
102
RTVSPost2010PropOp35
 70
     1
102
RTVSPost2010Prop36
280
     0
102
RTVSPost2010PropOp36
 70
     1
102
RTVSPost2010Prop37
 90
       50
102
RTVSPost2010PropOp37
 70
     1
102
RTVSPost2010Prop38
140
0.0
102
RTVSPost2010PropOp38
 70
     1
102
RTVSPost2010Prop39
140
1.0
102
RTVSPost2010PropOp39
 70
     1
102
RTVSPost2010Prop40
 90
        0
102
RTVSPost2010PropOp40
 70
     1
102
RTVSPost2010Prop41ColorIndex
 90
       18
102
RTVSPost2010Prop41ColorRGB
 90
        0
102
RTVSPost2010PropOp41
 70
     1
102
RTVSPost2010Prop42
 90
       50
102
RTVSPost2010PropOp42
 70
     1
102
RTVSPost2010Prop43
 90
        3
102
RTVSPost2010PropOp43
 70
     1
102
RTVSPost2010Prop44ColorIndex
 90
        5
102
RTVSPost2010Prop44ColorRGB
 90
      255
102
RTVSPost2010PropOp44
 70
     1
102
RTVSPost2010Prop45
280
     0
102
RTVSPost2010PropOp45
 70
     1
102
RTVSPost2010Prop46
 90
       50
102
RTVSPost2010PropOp46
 70
     1
102
RTVSPost2010Prop47
 90
       50
102
RTVSPost2010PropOp47
 70
     1
102
RTVSPost2010Prop48
 90
       50
102
RTVSPost2010PropOp48
 70
     1
102
RTVSPost2010Prop49
280
     0
102
RTVSPost2010PropOp49
 70
     1
102
RTVSPost2010Prop50
 90
       50
102
RTVSPost2010PropOp50
 70
     1
102
RTVSPost2010Prop51ColorIndex
 90
      256
102
RTVSPost2010Prop51ColorRGB
 90
-16777216
102
RTVSPost2010PropOp51
 70
     0
102
RTVSPost2010Prop52
140
1.0
102
RTVSPost2010PropOp52
 70
     0
102
RTVSPost2010Prop53
 90
        2
102
RTVSPost2010PropOp53
 70
     1
102
RTVSPost2010Prop54
  1
strokes_ogs.tif
102
RTVSPost2010PropOp54
 70
     1
102
RTVSPost2010Prop55
280
     0
102
RTVSPost2010PropOp55
 70
     1
102
RTVSPost2010Prop56
140
1.0
102
RTVSPost2010PropOp56
 70
     1
102
RTVSPost2010Prop57
140
1.0
102
RTVSPost2010PropOp57
 70
     1
102
RTVSPropertyOp0
 70
     1
102
RTVSPropertyOp1
 70
     1
102
RTVSPropertyOp2
 70
     1
102
RTVSPropertyOp3
 70
     1
102
RTVSPropertyOp4
 70
     1
102
RTVSPropertyOp5
 70
     1
102
RTVSPropertyOp6
 70
     1
102
RTVSPropertyOp7
 70
     1
102
RTVSPropertyOp8
 70
     1
102
RTVSPropertyOp9
 70
     1
102
RTVSPropertyOp10
 70
     1
102
RTVSPropertyOp11
 70
     1
102
RTVSPropertyOp12
 70
     1
102
RTVSPropertyOp13
 70
     1
102
RTVSPropertyOp14
 70
     1
102
RTVSPropertyOp15
 70
     1
102
RTVSPropertyOp16
 70
     1
102
RTVSPropertyOp17
 70
     1
102
RTVSPropertyOp18
 70
     1
102
RTVSPropertyOp19
 70
     1
102
RTVSPropertyOp20
 70
     1
102
RTVSPropertyOp21
 70
     1
102
RTVSPropertyOp22
 70
     1
102
RTVSPropertyOp23
 70
     1
102
RTVSPropertyOp24
 70
     1
102
RTVSPropertyOp25
 70
     1
102
RTVSPropertyOp26
 70
     1
102
RTVSPropertyOp27
 70
     1
102
RTVSPropertyOp28
 70
     1
102
RTVSPropertyOp29
 70
     1
102
RTVSPropertyOp30
 70
     1
102
RTVSPropertyOp31
 70
     1
102
RTVSPropertyOp32
 70
     1
102
RTVSPropertyOp33
 70
     1
102
RTVSPropertyOp34
 70
     1
102
RTVSPropertyOp35
 70
     1
102
RTVSPropertyOp36
 70
     1
102
RTVSPropertyOp37
 70
     1
102
RTVSPropertyOp38
 70
     1
102
RTVSPropertyOp39
 70
     1
102
RTVSPropertyOp40
 70
     1
102
RTVSPropertyOp41
 70
     1
102
RTVSPropertyOp42
 70
     1
102
RTVSPropertyOp43
 70
     1
102
RTVSPropertyOp44
 70
     1
102
RTVSPropertyOp45
 70
     1
102
RTVSPropertyOp46
 70
     1
102
RTVSPropertyOp47
 70
     1
102
RTVSPropertyOp48
 70
     1
102
RTVSPropertyOp49
 70
     1
102
RTVSPropertyOp50
 70
     1
102
RTVSPropertyOp51
 70
     0
102
RTVSPropertyOp52
 70
     0
102
RTVSPropertyOp53
 70
     1
102
RTVSPropertyOp54
 70
     1
102
RTVSPropertyOp55
 70
     1
102
RTVSPropertyOp56
 70
     1
102
RTVSPropertyOp57
 70
     1
102
RTVSPropertyOp58
 70
     1
102
RTVSPropertyOp59
 70
     1
102
RTVSPropertyOp60
 70
     1
102
RTVSPropertyOp61
 70
     1
102
RTVSPropertyOp62
 70
     1
  0
XRECORD
  5
1ABE6
102
{ACAD_REACTORS
330
1ABE5
102
}
330
1ABE5
100
AcDbXrecord
280
     1
102
RTVSPost2010Prop28
280
     0
102
RTVSPost2010PropOp28
 70
     1
102
RTVSPost2010Prop29
280
     1
102
RTVSPost2010PropOp29
 70
     1
102
RTVSPost2010Prop30
280
     1
102
RTVSPost2010PropOp30
 70
     1
102
RTVSPost2010Prop31
280
     0
102
RTVSPost2010PropOp31
 70
     1
102
RTVSPost2010Prop32
280
     0
102
RTVSPost2010PropOp32
 70
     1
102
RTVSPost2010Prop33
280
     0
102
RTVSPost2010PropOp33
 70
     1
102
RTVSPost2010Prop34
280
     0
102
RTVSPost2010PropOp34
 70
     1
102
RTVSPost2010Prop35
280
     0
102
RTVSPost2010PropOp35
 70
     1
102
RTVSPost2010Prop36
280
     0
102
RTVSPost2010PropOp36
 70
     1
102
RTVSPost2010Prop37
 90
       50
102
RTVSPost2010PropOp37
 70
     1
102
RTVSPost2010Prop38
140
0.0
102
RTVSPost2010PropOp38
 70
     1
102
RTVSPost2010Prop39
140
1.0
102
RTVSPost2010PropOp39
 70
     1
102
RTVSPost2010Prop40
 90
        0
102
RTVSPost2010PropOp40
 70
     1
102
RTVSPost2010Prop41ColorIndex
 90
       18
102
RTVSPost2010Prop41ColorRGB
 90
        0
102
RTVSPost2010PropOp41
 70
     1
102
RTVSPost2010Prop42
 90
       50
102
RTVSPost2010PropOp42
 70
     1
102
RTVSPost2010Prop43
 90
        3
102
RTVSPost2010PropOp43
 70
     1
102
RTVSPost2010Prop44ColorIndex
 90
        5
102
RTVSPost2010Prop44ColorRGB
 90
      255
102
RTVSPost2010PropOp44
 70
     1
102
RTVSPost2010Prop45
280
     0
102
RTVSPost2010PropOp45
 70
     1
102
RTVSPost2010Prop46
 90
       50
102
RTVSPost2010PropOp46
 70
     1
102
RTVSPost2010Prop47
 90
       50
102
RTVSPost2010PropOp47
 70
     1
102
RTVSPost2010Prop48
 90
       50
102
RTVSPost2010PropOp48
 70
     1
102
RTVSPost2010Prop49
280
     0
102
RTVSPost2010PropOp49
 70
     1
102
RTVSPost2010Prop50
 90
       50
102
RTVSPost2010PropOp50
 70
     1
102
RTVSPost2010Prop51ColorIndex
 90
      256
102
RTVSPost2010Prop51ColorRGB
 90
-16777216
102
RTVSPost2010PropOp51
 70
     0
102
RTVSPost2010Prop52
140
1.0
102
RTVSPost2010PropOp52
 70
     0
102
RTVSPost2010Prop53
 90
        2
102
RTVSPost2010PropOp53
 70
     1
102
RTVSPost2010Prop54
  1
strokes_ogs.tif
102
RTVSPost2010PropOp54
 70
     1
102
RTVSPost2010Prop55
280
     0
102
RTVSPost2010PropOp55
 70
     1
102
RTVSPost2010Prop56
140
1.0
102
RTVSPost2010PropOp56
 70
     1
102
RTVSPost2010Prop57
140
1.0
102
RTVSPost2010PropOp57
 70
     1
102
RTVSPropertyOp0
 70
     1
102
RTVSPropertyOp1
 70
     1
102
RTVSPropertyOp2
 70
     1
102
RTVSPropertyOp3
 70
     1
102
RTVSPropertyOp4
 70
     1
102
RTVSPropertyOp5
 70
     1
102
RTVSPropertyOp6
 70
     1
102
RTVSPropertyOp7
 70
     1
102
RTVSPropertyOp8
 70
     1
102
RTVSPropertyOp9
 70
     1
102
RTVSPropertyOp10
 70
     1
102
RTVSPropertyOp11
 70
     1
102
RTVSPropertyOp12
 70
     1
102
RTVSPropertyOp13
 70
     1
102
RTVSPropertyOp14
 70
     1
102
RTVSPropertyOp15
 70
     1
102
RTVSPropertyOp16
 70
     1
102
RTVSPropertyOp17
 70
     1
102
RTVSPropertyOp18
 70
     1
102
RTVSPropertyOp19
 70
     1
102
RTVSPropertyOp20
 70
     1
102
RTVSPropertyOp21
 70
     1
102
RTVSPropertyOp22
 70
     1
102
RTVSPropertyOp23
 70
     1
102
RTVSPropertyOp24
 70
     1
102
RTVSPropertyOp25
 70
     1
102
RTVSPropertyOp26
 70
     1
102
RTVSPropertyOp27
 70
     1
102
RTVSPropertyOp28
 70
     1
102
RTVSPropertyOp29
 70
     1
102
RTVSPropertyOp30
 70
     1
102
RTVSPropertyOp31
 70
     1
102
RTVSPropertyOp32
 70
     1
102
RTVSPropertyOp33
 70
     1
102
RTVSPropertyOp34
 70
     1
102
RTVSPropertyOp35
 70
     1
102
RTVSPropertyOp36
 70
     1
102
RTVSPropertyOp37
 70
     1
102
RTVSPropertyOp38
 70
     1
102
RTVSPropertyOp39
 70
     1
102
RTVSPropertyOp40
 70
     1
102
RTVSPropertyOp41
 70
     1
102
RTVSPropertyOp42
 70
     1
102
RTVSPropertyOp43
 70
     1
102
RTVSPropertyOp44
 70
     1
102
RTVSPropertyOp45
 70
     1
102
RTVSPropertyOp46
 70
     1
102
RTVSPropertyOp47
 70
     1
102
RTVSPropertyOp48
 70
     1
102
RTVSPropertyOp49
 70
     1
102
RTVSPropertyOp50
 70
     1
102
RTVSPropertyOp51
 70
     0
102
RTVSPropertyOp52
 70
     0
102
RTVSPropertyOp53
 70
     1
102
RTVSPropertyOp54
 70
     1
102
RTVSPropertyOp55
 70
     1
102
RTVSPropertyOp56
 70
     1
102
RTVSPropertyOp57
 70
     1
102
RTVSPropertyOp58
 70
     1
102
RTVSPropertyOp59
 70
     1
102
RTVSPropertyOp60
 70
     1
102
RTVSPropertyOp61
 70
     1
102
RTVSPropertyOp62
 70
     1
  0
XRECORD
  5
1ABE8
102
{ACAD_REACTORS
330
1ABE7
102
}
330
1ABE7
100
AcDbXrecord
280
     1
102
RTVSPost2010Prop28
280
     0
102
RTVSPost2010PropOp28
 70
     1
102
RTVSPost2010Prop29
280
     1
102
RTVSPost2010PropOp29
 70
     1
102
RTVSPost2010Prop30
280
     1
102
RTVSPost2010PropOp30
 70
     1
102
RTVSPost2010Prop31
280
     0
102
RTVSPost2010PropOp31
 70
     1
102
RTVSPost2010Prop32
280
     0
102
RTVSPost2010PropOp32
 70
     1
102
RTVSPost2010Prop33
280
     0
102
RTVSPost2010PropOp33
 70
     1
102
RTVSPost2010Prop34
280
     0
102
RTVSPost2010PropOp34
 70
     1
102
RTVSPost2010Prop35
280
     0
102
RTVSPost2010PropOp35
 70
     1
102
RTVSPost2010Prop36
280
     0
102
RTVSPost2010PropOp36
 70
     1
102
RTVSPost2010Prop37
 90
       50
102
RTVSPost2010PropOp37
 70
     1
102
RTVSPost2010Prop38
140
0.0
102
RTVSPost2010PropOp38
 70
     1
102
RTVSPost2010Prop39
140
1.0
102
RTVSPost2010PropOp39
 70
     1
102
RTVSPost2010Prop40
 90
        0
102
RTVSPost2010PropOp40
 70
     1
102
RTVSPost2010Prop41ColorIndex
 90
       18
102
RTVSPost2010Prop41ColorRGB
 90
        0
102
RTVSPost2010PropOp41
 70
     1
102
RTVSPost2010Prop42
 90
       50
102
RTVSPost2010PropOp42
 70
     1
102
RTVSPost2010Prop43
 90
        3
102
RTVSPost2010PropOp43
 70
     1
102
RTVSPost2010Prop44ColorIndex
 90
        5
102
RTVSPost2010Prop44ColorRGB
 90
      255
102
RTVSPost2010PropOp44
 70
     1
102
RTVSPost2010Prop45
280
     0
102
RTVSPost2010PropOp45
 70
     1
102
RTVSPost2010Prop46
 90
       50
102
RTVSPost2010PropOp46
 70
     1
102
RTVSPost2010Prop47
 90
       50
102
RTVSPost2010PropOp47
 70
     1
102
RTVSPost2010Prop48
 90
       50
102
RTVSPost2010PropOp48
 70
     1
102
RTVSPost2010Prop49
280
     0
102
RTVSPost2010PropOp49
 70
     1
102
RTVSPost2010Prop50
 90
       50
102
RTVSPost2010PropOp50
 70
     1
102
RTVSPost2010Prop51ColorIndex
 90
      256
102
RTVSPost2010Prop51ColorRGB
 90
-16777216
102
RTVSPost2010PropOp51
 70
     0
102
RTVSPost2010Prop52
140
1.0
102
RTVSPost2010PropOp52
 70
     0
102
RTVSPost2010Prop53
 90
        2
102
RTVSPost2010PropOp53
 70
     1
102
RTVSPost2010Prop54
  1
strokes_ogs.tif
102
RTVSPost2010PropOp54
 70
     1
102
RTVSPost2010Prop55
280
     0
102
RTVSPost2010PropOp55
 70
     1
102
RTVSPost2010Prop56
140
1.0
102
RTVSPost2010PropOp56
 70
     1
102
RTVSPost2010Prop57
140
1.0
102
RTVSPost2010PropOp57
 70
     1
102
RTVSPropertyOp0
 70
     1
102
RTVSPropertyOp1
 70
     1
102
RTVSPropertyOp2
 70
     1
102
RTVSPropertyOp3
 70
     1
102
RTVSPropertyOp4
 70
     1
102
RTVSPropertyOp5
 70
     1
102
RTVSPropertyOp6
 70
     1
102
RTVSPropertyOp7
 70
     1
102
RTVSPropertyOp8
 70
     1
102
RTVSPropertyOp9
 70
     1
102
RTVSPropertyOp10
 70
     1
102
RTVSPropertyOp11
 70
     1
102
RTVSPropertyOp12
 70
     1
102
RTVSPropertyOp13
 70
     1
102
RTVSPropertyOp14
 70
     1
102
RTVSPropertyOp15
 70
     1
102
RTVSPropertyOp16
 70
     1
102
RTVSPropertyOp17
 70
     1
102
RTVSPropertyOp18
 70
     1
102
RTVSPropertyOp19
 70
     1
102
RTVSPropertyOp20
 70
     1
102
RTVSPropertyOp21
 70
     1
102
RTVSPropertyOp22
 70
     1
102
RTVSPropertyOp23
 70
     1
102
RTVSPropertyOp24
 70
     1
102
RTVSPropertyOp25
 70
     1
102
RTVSPropertyOp26
 70
     1
102
RTVSPropertyOp27
 70
     1
102
RTVSPropertyOp28
 70
     1
102
RTVSPropertyOp29
 70
     1
102
RTVSPropertyOp30
 70
     1
102
RTVSPropertyOp31
 70
     1
102
RTVSPropertyOp32
 70
     1
102
RTVSPropertyOp33
 70
     1
102
RTVSPropertyOp34
 70
     1
102
RTVSPropertyOp35
 70
     1
102
RTVSPropertyOp36
 70
     1
102
RTVSPropertyOp37
 70
     1
102
RTVSPropertyOp38
 70
     1
102
RTVSPropertyOp39
 70
     1
102
RTVSPropertyOp40
 70
     1
102
RTVSPropertyOp41
 70
     1
102
RTVSPropertyOp42
 70
     1
102
RTVSPropertyOp43
 70
     1
102
RTVSPropertyOp44
 70
     1
102
RTVSPropertyOp45
 70
     1
102
RTVSPropertyOp46
 70
     1
102
RTVSPropertyOp47
 70
     1
102
RTVSPropertyOp48
 70
     1
102
RTVSPropertyOp49
 70
     1
102
RTVSPropertyOp50
 70
     1
102
RTVSPropertyOp51
 70
     0
102
RTVSPropertyOp52
 70
     0
102
RTVSPropertyOp53
 70
     1
102
RTVSPropertyOp54
 70
     1
102
RTVSPropertyOp55
 70
     1
102
RTVSPropertyOp56
 70
     1
102
RTVSPropertyOp57
 70
     1
102
RTVSPropertyOp58
 70
     1
102
RTVSPropertyOp59
 70
     1
102
RTVSPropertyOp60
 70
     1
102
RTVSPropertyOp61
 70
     1
102
RTVSPropertyOp62
 70
     1
  0
XRECORD
  5
1ABDE
102
{ACAD_REACTORS
330
1ABDD
102
}
330
1ABDD
100
AcDbXrecord
280
     1
102
RTVSPost2010Prop28
280
     0
102
RTVSPost2010PropOp28
 70
     1
102
RTVSPost2010Prop29
280
     1
102
RTVSPost2010PropOp29
 70
     1
102
RTVSPost2010Prop30
280
     1
102
RTVSPost2010PropOp30
 70
     1
102
RTVSPost2010Prop31
280
     0
102
RTVSPost2010PropOp31
 70
     1
102
RTVSPost2010Prop32
280
     0
102
RTVSPost2010PropOp32
 70
     1
102
RTVSPost2010Prop33
280
     0
102
RTVSPost2010PropOp33
 70
     1
102
RTVSPost2010Prop34
280
     0
102
RTVSPost2010PropOp34
 70
     1
102
RTVSPost2010Prop35
280
     0
102
RTVSPost2010PropOp35
 70
     1
102
RTVSPost2010Prop36
280
     0
102
RTVSPost2010PropOp36
 70
     1
102
RTVSPost2010Prop37
 90
       50
102
RTVSPost2010PropOp37
 70
     1
102
RTVSPost2010Prop38
140
0.0
102
RTVSPost2010PropOp38
 70
     1
102
RTVSPost2010Prop39
140
1.0
102
RTVSPost2010PropOp39
 70
     1
102
RTVSPost2010Prop40
 90
        0
102
RTVSPost2010PropOp40
 70
     1
102
RTVSPost2010Prop41ColorIndex
 90
       18
102
RTVSPost2010Prop41ColorRGB
 90
        0
102
RTVSPost2010PropOp41
 70
     1
102
RTVSPost2010Prop42
 90
       50
102
RTVSPost2010PropOp42
 70
     1
102
RTVSPost2010Prop43
 90
        3
102
RTVSPost2010PropOp43
 70
     1
102
RTVSPost2010Prop44ColorIndex
 90
        5
102
RTVSPost2010Prop44ColorRGB
 90
      255
102
RTVSPost2010PropOp44
 70
     1
102
RTVSPost2010Prop45
280
     0
102
RTVSPost2010PropOp45
 70
     1
102
RTVSPost2010Prop46
 90
       50
102
RTVSPost2010PropOp46
 70
     1
102
RTVSPost2010Prop47
 90
       50
102
RTVSPost2010PropOp47
 70
     1
102
RTVSPost2010Prop48
 90
       50
102
RTVSPost2010PropOp48
 70
     1
102
RTVSPost2010Prop49
280
     0
102
RTVSPost2010PropOp49
 70
     1
102
RTVSPost2010Prop50
 90
       50
102
RTVSPost2010PropOp50
 70
     1
102
RTVSPost2010Prop51ColorIndex
 90
      256
102
RTVSPost2010Prop51ColorRGB
 90
-16777216
102
RTVSPost2010PropOp51
 70
     0
102
RTVSPost2010Prop52
140
1.0
102
RTVSPost2010PropOp52
 70
     0
102
RTVSPost2010Prop53
 90
        2
102
RTVSPost2010PropOp53
 70
     1
102
RTVSPost2010Prop54
  1
strokes_ogs.tif
102
RTVSPost2010PropOp54
 70
     1
102
RTVSPost2010Prop55
280
     0
102
RTVSPost2010PropOp55
 70
     1
102
RTVSPost2010Prop56
140
1.0
102
RTVSPost2010PropOp56
 70
     1
102
RTVSPost2010Prop57
140
1.0
102
RTVSPost2010PropOp57
 70
     1
102
RTVSPropertyOp0
 70
     1
102
RTVSPropertyOp1
 70
     1
102
RTVSPropertyOp2
 70
     1
102
RTVSPropertyOp3
 70
     1
102
RTVSPropertyOp4
 70
     1
102
RTVSPropertyOp5
 70
     1
102
RTVSPropertyOp6
 70
     1
102
RTVSPropertyOp7
 70
     1
102
RTVSPropertyOp8
 70
     1
102
RTVSPropertyOp9
 70
     1
102
RTVSPropertyOp10
 70
     1
102
RTVSPropertyOp11
 70
     1
102
RTVSPropertyOp12
 70
     1
102
RTVSPropertyOp13
 70
     1
102
RTVSPropertyOp14
 70
     1
102
RTVSPropertyOp15
 70
     1
102
RTVSPropertyOp16
 70
     1
102
RTVSPropertyOp17
 70
     1
102
RTVSPropertyOp18
 70
     1
102
RTVSPropertyOp19
 70
     1
102
RTVSPropertyOp20
 70
     1
102
RTVSPropertyOp21
 70
     1
102
RTVSPropertyOp22
 70
     1
102
RTVSPropertyOp23
 70
     1
102
RTVSPropertyOp24
 70
     1
102
RTVSPropertyOp25
 70
     1
102
RTVSPropertyOp26
 70
     1
102
RTVSPropertyOp27
 70
     1
102
RTVSPropertyOp28
 70
     1
102
RTVSPropertyOp29
 70
     1
102
RTVSPropertyOp30
 70
     1
102
RTVSPropertyOp31
 70
     1
102
RTVSPropertyOp32
 70
     1
102
RTVSPropertyOp33
 70
     1
102
RTVSPropertyOp34
 70
     1
102
RTVSPropertyOp35
 70
     1
102
RTVSPropertyOp36
 70
     1
102
RTVSPropertyOp37
 70
     1
102
RTVSPropertyOp38
 70
     1
102
RTVSPropertyOp39
 70
     1
102
RTVSPropertyOp40
 70
     1
102
RTVSPropertyOp41
 70
     1
102
RTVSPropertyOp42
 70
     1
102
RTVSPropertyOp43
 70
     1
102
RTVSPropertyOp44
 70
     1
102
RTVSPropertyOp45
 70
     1
102
RTVSPropertyOp46
 70
     1
102
RTVSPropertyOp47
 70
     1
102
RTVSPropertyOp48
 70
     1
102
RTVSPropertyOp49
 70
     1
102
RTVSPropertyOp50
 70
     1
102
RTVSPropertyOp51
 70
     0
102
RTVSPropertyOp52
 70
     0
102
RTVSPropertyOp53
 70
     1
102
RTVSPropertyOp54
 70
     1
102
RTVSPropertyOp55
 70
     1
102
RTVSPropertyOp56
 70
     1
102
RTVSPropertyOp57
 70
     1
102
RTVSPropertyOp58
 70
     1
102
RTVSPropertyOp59
 70
     1
102
RTVSPropertyOp60
 70
     1
102
RTVSPropertyOp61
 70
     1
102
RTVSPropertyOp62
 70
     1
  0
XRECORD
  5
1ABD2
102
{ACAD_REACTORS
330
1ABD1
102
}
330
1ABD1
100
AcDbXrecord
280
     1
102
RTVSPost2010Prop28
280
     0
102
RTVSPost2010PropOp28
 70
     1
102
RTVSPost2010Prop29
280
     1
102
RTVSPost2010PropOp29
 70
     1
102
RTVSPost2010Prop30
280
     1
102
RTVSPost2010PropOp30
 70
     1
102
RTVSPost2010Prop31
280
     0
102
RTVSPost2010PropOp31
 70
     1
102
RTVSPost2010Prop32
280
     0
102
RTVSPost2010PropOp32
 70
     1
102
RTVSPost2010Prop33
280
     0
102
RTVSPost2010PropOp33
 70
     1
102
RTVSPost2010Prop34
280
     0
102
RTVSPost2010PropOp34
 70
     1
102
RTVSPost2010Prop35
280
     0
102
RTVSPost2010PropOp35
 70
     1
102
RTVSPost2010Prop36
280
     0
102
RTVSPost2010PropOp36
 70
     1
102
RTVSPost2010Prop37
 90
       50
102
RTVSPost2010PropOp37
 70
     1
102
RTVSPost2010Prop38
140
0.0
102
RTVSPost2010PropOp38
 70
     1
102
RTVSPost2010Prop39
140
1.0
102
RTVSPost2010PropOp39
 70
     1
102
RTVSPost2010Prop40
 90
        0
102
RTVSPost2010PropOp40
 70
     1
102
RTVSPost2010Prop41ColorIndex
 90
       18
102
RTVSPost2010Prop41ColorRGB
 90
        0
102
RTVSPost2010PropOp41
 70
     1
102
RTVSPost2010Prop42
 90
       50
102
RTVSPost2010PropOp42
 70
     1
102
RTVSPost2010Prop43
 90
        3
102
RTVSPost2010PropOp43
 70
     1
102
RTVSPost2010Prop44ColorIndex
 90
        5
102
RTVSPost2010Prop44ColorRGB
 90
      255
102
RTVSPost2010PropOp44
 70
     1
102
RTVSPost2010Prop45
280
     0
102
RTVSPost2010PropOp45
 70
     1
102
RTVSPost2010Prop46
 90
       50
102
RTVSPost2010PropOp46
 70
     1
102
RTVSPost2010Prop47
 90
       50
102
RTVSPost2010PropOp47
 70
     1
102
RTVSPost2010Prop48
 90
       50
102
RTVSPost2010PropOp48
 70
     1
102
RTVSPost2010Prop49
280
     0
102
RTVSPost2010PropOp49
 70
     1
102
RTVSPost2010Prop50
 90
       50
102
RTVSPost2010PropOp50
 70
     1
102
RTVSPost2010Prop51ColorIndex
 90
      256
102
RTVSPost2010Prop51ColorRGB
 90
-16777216
102
RTVSPost2010PropOp51
 70
     0
102
RTVSPost2010Prop52
140
1.0
102
RTVSPost2010PropOp52
 70
     0
102
RTVSPost2010Prop53
 90
        2
102
RTVSPost2010PropOp53
 70
     1
102
RTVSPost2010Prop54
  1
strokes_ogs.tif
102
RTVSPost2010PropOp54
 70
     1
102
RTVSPost2010Prop55
280
     0
102
RTVSPost2010PropOp55
 70
     1
102
RTVSPost2010Prop56
140
1.0
102
RTVSPost2010PropOp56
 70
     1
102
RTVSPost2010Prop57
140
1.0
102
RTVSPost2010PropOp57
 70
     1
102
RTVSPropertyOp0
 70
     1
102
RTVSPropertyOp1
 70
     1
102
RTVSPropertyOp2
 70
     1
102
RTVSPropertyOp3
 70
     1
102
RTVSPropertyOp4
 70
     1
102
RTVSPropertyOp5
 70
     1
102
RTVSPropertyOp6
 70
     1
102
RTVSPropertyOp7
 70
     1
102
RTVSPropertyOp8
 70
     1
102
RTVSPropertyOp9
 70
     1
102
RTVSPropertyOp10
 70
     1
102
RTVSPropertyOp11
 70
     1
102
RTVSPropertyOp12
 70
     1
102
RTVSPropertyOp13
 70
     1
102
RTVSPropertyOp14
 70
     1
102
RTVSPropertyOp15
 70
     1
102
RTVSPropertyOp16
 70
     1
102
RTVSPropertyOp17
 70
     1
102
RTVSPropertyOp18
 70
     1
102
RTVSPropertyOp19
 70
     1
102
RTVSPropertyOp20
 70
     1
102
RTVSPropertyOp21
 70
     1
102
RTVSPropertyOp22
 70
     1
102
RTVSPropertyOp23
 70
     1
102
RTVSPropertyOp24
 70
     1
102
RTVSPropertyOp25
 70
     1
102
RTVSPropertyOp26
 70
     1
102
RTVSPropertyOp27
 70
     1
102
RTVSPropertyOp28
 70
     1
102
RTVSPropertyOp29
 70
     1
102
RTVSPropertyOp30
 70
     1
102
RTVSPropertyOp31
 70
     1
102
RTVSPropertyOp32
 70
     1
102
RTVSPropertyOp33
 70
     1
102
RTVSPropertyOp34
 70
     1
102
RTVSPropertyOp35
 70
     1
102
RTVSPropertyOp36
 70
     1
102
RTVSPropertyOp37
 70
     1
102
RTVSPropertyOp38
 70
     1
102
RTVSPropertyOp39
 70
     1
102
RTVSPropertyOp40
 70
     1
102
RTVSPropertyOp41
 70
     1
102
RTVSPropertyOp42
 70
     1
102
RTVSPropertyOp43
 70
     1
102
RTVSPropertyOp44
 70
     1
102
RTVSPropertyOp45
 70
     1
102
RTVSPropertyOp46
 70
     1
102
RTVSPropertyOp47
 70
     1
102
RTVSPropertyOp48
 70
     1
102
RTVSPropertyOp49
 70
     1
102
RTVSPropertyOp50
 70
     1
102
RTVSPropertyOp51
 70
     0
102
RTVSPropertyOp52
 70
     0
102
RTVSPropertyOp53
 70
     1
102
RTVSPropertyOp54
 70
     1
102
RTVSPropertyOp55
 70
     1
102
RTVSPropertyOp56
 70
     1
102
RTVSPropertyOp57
 70
     1
102
RTVSPropertyOp58
 70
     1
102
RTVSPropertyOp59
 70
     1
102
RTVSPropertyOp60
 70
     1
102
RTVSPropertyOp61
 70
     1
102
RTVSPropertyOp62
 70
     1
  0
XRECORD
  5
1ABEA
102
{ACAD_REACTORS
330
1ABE9
102
}
330
1ABE9
100
AcDbXrecord
280
     1
102
RTVSPost2010Prop28
280
     0
102
RTVSPost2010PropOp28
 70
     1
102
RTVSPost2010Prop29
280
     1
102
RTVSPost2010PropOp29
 70
     1
102
RTVSPost2010Prop30
280
     1
102
RTVSPost2010PropOp30
 70
     1
102
RTVSPost2010Prop31
280
     0
102
RTVSPost2010PropOp31
 70
     1
102
RTVSPost2010Prop32
280
     0
102
RTVSPost2010PropOp32
 70
     1
102
RTVSPost2010Prop33
280
     0
102
RTVSPost2010PropOp33
 70
     1
102
RTVSPost2010Prop34
280
     0
102
RTVSPost2010PropOp34
 70
     1
102
RTVSPost2010Prop35
280
     0
102
RTVSPost2010PropOp35
 70
     1
102
RTVSPost2010Prop36
280
     0
102
RTVSPost2010PropOp36
 70
     1
102
RTVSPost2010Prop37
 90
       50
102
RTVSPost2010PropOp37
 70
     1
102
RTVSPost2010Prop38
140
0.0
102
RTVSPost2010PropOp38
 70
     1
102
RTVSPost2010Prop39
140
1.0
102
RTVSPost2010PropOp39
 70
     1
102
RTVSPost2010Prop40
 90
        0
102
RTVSPost2010PropOp40
 70
     1
102
RTVSPost2010Prop41ColorIndex
 90
       18
102
RTVSPost2010Prop41ColorRGB
 90
        0
102
RTVSPost2010PropOp41
 70
     1
102
RTVSPost2010Prop42
 90
       50
102
RTVSPost2010PropOp42
 70
     1
102
RTVSPost2010Prop43
 90
        3
102
RTVSPost2010PropOp43
 70
     1
102
RTVSPost2010Prop44ColorIndex
 90
        5
102
RTVSPost2010Prop44ColorRGB
 90
      255
102
RTVSPost2010PropOp44
 70
     1
102
RTVSPost2010Prop45
280
     0
102
RTVSPost2010PropOp45
 70
     1
102
RTVSPost2010Prop46
 90
       50
102
RTVSPost2010PropOp46
 70
     1
102
RTVSPost2010Prop47
 90
       50
102
RTVSPost2010PropOp47
 70
     1
102
RTVSPost2010Prop48
 90
       50
102
RTVSPost2010PropOp48
 70
     1
102
RTVSPost2010Prop49
280
     0
102
RTVSPost2010PropOp49
 70
     1
102
RTVSPost2010Prop50
 90
       50
102
RTVSPost2010PropOp50
 70
     1
102
RTVSPost2010Prop51ColorIndex
 90
      256
102
RTVSPost2010Prop51ColorRGB
 90
-16777216
102
RTVSPost2010PropOp51
 70
     0
102
RTVSPost2010Prop52
140
1.0
102
RTVSPost2010PropOp52
 70
     0
102
RTVSPost2010Prop53
 90
        2
102
RTVSPost2010PropOp53
 70
     1
102
RTVSPost2010Prop54
  1
strokes_ogs.tif
102
RTVSPost2010PropOp54
 70
     1
102
RTVSPost2010Prop55
280
     0
102
RTVSPost2010PropOp55
 70
     1
102
RTVSPost2010Prop56
140
1.0
102
RTVSPost2010PropOp56
 70
     1
102
RTVSPost2010Prop57
140
1.0
102
RTVSPost2010PropOp57
 70
     1
102
RTVSPropertyOp0
 70
     1
102
RTVSPropertyOp1
 70
     1
102
RTVSPropertyOp2
 70
     1
102
RTVSPropertyOp3
 70
     1
102
RTVSPropertyOp4
 70
     1
102
RTVSPropertyOp5
 70
     1
102
RTVSPropertyOp6
 70
     1
102
RTVSPropertyOp7
 70
     1
102
RTVSPropertyOp8
 70
     1
102
RTVSPropertyOp9
 70
     1
102
RTVSPropertyOp10
 70
     1
102
RTVSPropertyOp11
 70
     1
102
RTVSPropertyOp12
 70
     1
102
RTVSPropertyOp13
 70
     1
102
RTVSPropertyOp14
 70
     1
102
RTVSPropertyOp15
 70
     1
102
RTVSPropertyOp16
 70
     1
102
RTVSPropertyOp17
 70
     1
102
RTVSPropertyOp18
 70
     1
102
RTVSPropertyOp19
 70
     1
102
RTVSPropertyOp20
 70
     1
102
RTVSPropertyOp21
 70
     1
102
RTVSPropertyOp22
 70
     1
102
RTVSPropertyOp23
 70
     1
102
RTVSPropertyOp24
 70
     1
102
RTVSPropertyOp25
 70
     1
102
RTVSPropertyOp26
 70
     1
102
RTVSPropertyOp27
 70
     1
102
RTVSPropertyOp28
 70
     1
102
RTVSPropertyOp29
 70
     1
102
RTVSPropertyOp30
 70
     1
102
RTVSPropertyOp31
 70
     1
102
RTVSPropertyOp32
 70
     1
102
RTVSPropertyOp33
 70
     1
102
RTVSPropertyOp34
 70
     1
102
RTVSPropertyOp35
 70
     1
102
RTVSPropertyOp36
 70
     1
102
RTVSPropertyOp37
 70
     1
102
RTVSPropertyOp38
 70
     1
102
RTVSPropertyOp39
 70
     1
102
RTVSPropertyOp40
 70
     1
102
RTVSPropertyOp41
 70
     1
102
RTVSPropertyOp42
 70
     1
102
RTVSPropertyOp43
 70
     1
102
RTVSPropertyOp44
 70
     1
102
RTVSPropertyOp45
 70
     1
102
RTVSPropertyOp46
 70
     1
102
RTVSPropertyOp47
 70
     1
102
RTVSPropertyOp48
 70
     1
102
RTVSPropertyOp49
 70
     1
102
RTVSPropertyOp50
 70
     1
102
RTVSPropertyOp51
 70
     0
102
RTVSPropertyOp52
 70
     0
102
RTVSPropertyOp53
 70
     1
102
RTVSPropertyOp54
 70
     1
102
RTVSPropertyOp55
 70
     1
102
RTVSPropertyOp56
 70
     1
102
RTVSPropertyOp57
 70
     1
102
RTVSPropertyOp58
 70
     1
102
RTVSPropertyOp59
 70
     1
102
RTVSPropertyOp60
 70
     1
102
RTVSPropertyOp61
 70
     1
102
RTVSPropertyOp62
 70
     1
  0
ENDSEC
  0
EOF
