  0
SECTION
  2
HEADER
  9
$ACADVER
  1
AC1015
  9
$ACADMAINTVER
 70
    20
  9
$DWGCODEPAGE
  3
ANSI_932
  9
$INSBASE
 10
0.0
 20
0.0
 30
0.0
  9
$EXTMIN
 10
9.999997526638502
 20
10.0
 30
0.0
  9
$EXTMAX
 10
287.1619914877375
 20
164.5335469809024
 30
0.0
  9
$LIMMIN
 10
0.0000015376081137
 20
-0.0000001931532552
  9
$LIMMAX
 10
396.0000015376081
 20
272.9999998068465
  9
$ORTHOMODE
 70
     1
  9
$REGENMODE
 70
     1
  9
$FILLMODE
 70
     1
  9
$QTEXTMODE
 70
     0
  9
$MIRRTEXT
 70
     1
  9
$LTSCALE
 40
1.0
  9
$ATTMODE
 70
     1
  9
$TEXTSIZE
 40
2.5
  9
$TRACEWID
 40
1.0
  9
$TEXTSTYLE
  7
STANDARD
  9
$CLAYER
  8
0
  9
$CELTYPE
  6
BYLAYER
  9
$CECOLOR
 62
   256
  9
$CELTSCALE
 40
1.0
  9
$DISPSILH
 70
     0
  9
$DIMSCALE
 40
1.0
  9
$DIMASZ
 40
3.0
  9
$DIMEXO
 40
1.0
  9
$DIMDLI
 40
10.0
  9
$DIMRND
 40
0.0
  9
$DIMDLE
 40
0.0
  9
$DIMEXE
 40
1.0
  9
$DIMTP
 40
0.0
  9
$DIMTM
 40
0.0
  9
$DIMTXT
 40
3.2
  9
$DIMCEN
 40
0.0
  9
$DIMTSZ
 40
0.0
  9
$DIMTOL
 70
     0
  9
$DIMLIM
 70
     0
  9
$DIMTIH
 70
     0
  9
$DIMTOH
 70
     0
  9
$DIMSE1
 70
     0
  9
$DIMSE2
 70
     0
  9
$DIMTAD
 70
     3
  9
$DIMZIN
 70
     8
  9
$DIMBLK
  1

  9
$DIMASO
 70
     1
  9
$DIMSHO
 70
     1
  9
$DIMPOST
  1

  9
$DIMAPOST
  1

  9
$DIMALT
 70
     0
  9
$DIMALTD
 70
     2
  9
$DIMALTF
 40
25.4
  9
$DIMLFAC
 40
1.0
  9
$DIMTOFL
 70
     1
  9
$DIMTVP
 40
0.0
  9
$DIMTIX
 70
     0
  9
$DIMSOXD
 70
     0
  9
$DIMSAH
 70
     1
  9
$DIMBLK1
  1
OPEN
  9
$DIMBLK2
  1
OPEN
  9
$DIMSTYLE
  2
STANDARD
  9
$DIMCLRD
 70
     0
  9
$DIMCLRE
 70
     0
  9
$DIMCLRT
 70
     0
  9
$DIMTFAC
 40
1.0
  9
$DIMGAP
 40
1.0
  9
$DIMJUST
 70
     0
  9
$DIMSD1
 70
     0
  9
$DIMSD2
 70
     0
  9
$DIMTOLJ
 70
     1
  9
$DIMTZIN
 70
     0
  9
$DIMALTZ
 70
     0
  9
$DIMALTTZ
 70
     0
  9
$DIMUPT
 70
     0
  9
$DIMDEC
 70
     4
  9
$DIMTDEC
 70
     4
  9
$DIMALTU
 70
     2
  9
$DIMALTTD
 70
     2
  9
$DIMTXSTY
  7
STANDARD
  9
$DIMAUNIT
 70
     0
  9
$DIMADEC
 70
     0
  9
$DIMALTRND
 40
0.0
  9
$DIMAZIN
 70
     0
  9
$DIMDSEP
 70
    46
  9
$DIMATFIT
 70
     3
  9
$DIMFRAC
 70
     0
  9
$DIMLDRBLK
  1
OPEN
  9
$DIMLUNIT
 70
     2
  9
$DIMLWD
 70
    -2
  9
$DIMLWE
 70
    -2
  9
$DIMTMOVE
 70
     0
  9
$LUNITS
 70
     2
  9
$LUPREC
 70
     4
  9
$SKETCHINC
 40
1.0
  9
$FILLETRAD
 40
0.0
  9
$AUNITS
 70
     0
  9
$AUPREC
 70
     0
  9
$MENU
  1
.
  9
$ELEVATION
 40
0.0
  9
$PELEVATION
 40
0.0
  9
$THICKNESS
 40
0.0
  9
$LIMCHECK
 70
     0
  9
$CHAMFERA
 40
10.0
  9
$CHAMFERB
 40
10.0
  9
$CHAMFERC
 40
20.0
  9
$CHAMFERD
 40
0.0
  9
$SKPOLY
 70
     0
  9
$TDCREATE
 40
2454167.477547917
  9
$TDUCREATE
 40
2454167.102547917
  9
$TDUPDATE
 40
2457192.656985405
  9
$TDUUPDATE
 40
2457192.281985405
  9
$TDINDWG
 40
0.0344633449
  9
$TDUSRTIMER
 40
0.0344633333
  9
$USRTIMER
 70
     1
  9
$ANGBASE
 50
0.0
  9
$ANGDIR
 70
     0
  9
$PDMODE
 70
     0
  9
$PDSIZE
 40
0.0
  9
$PLINEWID
 40
0.0
  9
$SPLFRAME
 70
     0
  9
$SPLINETYPE
 70
     6
  9
$SPLINESEGS
 70
     8
  9
$HANDSEED
  5
1933
  9
$SURFTAB1
 70
     6
  9
$SURFTAB2
 70
     6
  9
$SURFTYPE
 70
     6
  9
$SURFU
 70
     6
  9
$SURFV
 70
     6
  9
$UCSBASE
  2

  9
$UCSNAME
  2

  9
$UCSORG
 10
0.0
 20
0.0
 30
0.0
  9
$UCSXDIR
 10
1.0
 20
0.0
 30
0.0
  9
$UCSYDIR
 10
0.0
 20
1.0
 30
0.0
  9
$UCSORTHOREF
  2

  9
$UCSORTHOVIEW
 70
     0
  9
$UCSORGTOP
 10
0.0
 20
0.0
 30
0.0
  9
$UCSORGBOTTOM
 10
0.0
 20
0.0
 30
0.0
  9
$UCSORGLEFT
 10
0.0
 20
0.0
 30
0.0
  9
$UCSORGRIGHT
 10
0.0
 20
0.0
 30
0.0
  9
$UCSORGFRONT
 10
0.0
 20
0.0
 30
0.0
  9
$UCSORGBACK
 10
0.0
 20
0.0
 30
0.0
  9
$PUCSBASE
  2

  9
$PUCSNAME
  2

  9
$PUCSORG
 10
0.0
 20
0.0
 30
0.0
  9
$PUCSXDIR
 10
1.0
 20
0.0
 30
0.0
  9
$PUCSYDIR
 10
0.0
 20
1.0
 30
0.0
  9
$PUCSORTHOREF
  2

  9
$PUCSORTHOVIEW
 70
     0
  9
$PUCSORGTOP
 10
0.0
 20
0.0
 30
0.0
  9
$PUCSORGBOTTOM
 10
0.0
 20
0.0
 30
0.0
  9
$PUCSORGLEFT
 10
0.0
 20
0.0
 30
0.0
  9
$PUCSORGRIGHT
 10
0.0
 20
0.0
 30
0.0
  9
$PUCSORGFRONT
 10
0.0
 20
0.0
 30
0.0
  9
$PUCSORGBACK
 10
0.0
 20
0.0
 30
0.0
  9
$USERI1
 70
     0
  9
$USERI2
 70
     0
  9
$USERI3
 70
     0
  9
$USERI4
 70
     0
  9
$USERI5
 70
     0
  9
$USERR1
 40
0.0
  9
$USERR2
 40
0.0
  9
$USERR3
 40
0.0
  9
$USERR4
 40
0.0
  9
$USERR5
 40
0.0
  9
$WORLDVIEW
 70
     1
  9
$SHADEDGE
 70
     3
  9
$SHADEDIF
 70
    70
  9
$TILEMODE
 70
     1
  9
$MAXACTVP
 70
    48
  9
$PINSBASE
 10
0.0
 20
0.0
 30
0.0
  9
$PLIMCHECK
 70
     0
  9
$PEXTMIN
 10
1.000000000000000E+20
 20
1.000000000000000E+20
 30
1.000000000000000E+20
  9
$PEXTMAX
 10
-1.000000000000000E+20
 20
-1.000000000000000E+20
 30
-1.000000000000000E+20
  9
$PLIMMIN
 10
0.0
 20
0.0
  9
$PLIMMAX
 10
420.0
 20
297.0
  9
$UNITMODE
 70
     0
  9
$VISRETAIN
 70
     1
  9
$PLINEGEN
 70
     0
  9
$PSLTSCALE
 70
     1
  9
$TREEDEPTH
 70
  3020
  9
$CMLSTYLE
  2
STANDARD
  9
$CMLJUST
 70
     0
  9
$CMLSCALE
 40
20.0
  9
$PROXYGRAPHICS
 70
     1
  9
$MEASUREMENT
 70
     0
  9
$CELWEIGHT
370
    -1
  9
$ENDCAPS
280
     0
  9
$JOINSTYLE
280
     0
  9
$LWDISPLAY
290
     0
  9
$INSUNITS
 70
     0
  9
$HYPERLINKBASE
  1

  9
$STYLESHEET
  1

  9
$XEDIT
290
     1
  9
$CEPSNTYPE
380
     0
  9
$PSTYLEMODE
290
     1
  9
$FINGERPRINTGUID
  2
{CDCECB88-0830-4796-A20A-391545836184}
  9
$VERSIONGUID
  2
{32C38FFF-415E-45E9-B2EF-9459FB6BC393}
  9
$EXTNAMES
290
     1
  9
$PSVPSCALE
 40
0.0
  9
$OLESTARTUP
290
     0
  0
ENDSEC
  0
SECTION
  2
CLASSES
  0
CLASS
  1
ACDBDICTIONARYWDFLT
  2
AcDbDictionaryWithDefault
  3
ObjectDBX Classes
 90
        0
280
     0
281
     0
  0
CLASS
  1
ACDBPLACEHOLDER
  2
AcDbPlaceHolder
  3
ObjectDBX Classes
 90
        0
280
     0
281
     0
  0
CLASS
  1
LAYOUT
  2
AcDbLayout
  3
ObjectDBX Classes
 90
        0
280
     0
281
     0
  0
CLASS
  1
DICTIONARYVAR
  2
AcDbDictionaryVar
  3
ObjectDBX Classes
 90
        0
280
     0
281
     0
  0
CLASS
  1
MATERIAL
  2
AcDbMaterial
  3
ObjectDBX Classes
 90
     1153
280
     0
281
     0
  0
CLASS
  1
VISUALSTYLE
  2
AcDbVisualStyle
  3
ObjectDBX Classes
 90
     4095
280
     0
281
     0
  0
CLASS
  1
TABLESTYLE
  2
AcDbTableStyle
  3
ObjectDBX Classes
 90
     4095
280
     0
281
     0
  0
CLASS
  1
SCALE
  2
AcDbScale
  3
ObjectDBX Classes
 90
     1153
280
     0
281
     0
  0
CLASS
  1
MLEADERSTYLE
  2
AcDbMLeaderStyle
  3
ACDB_MLEADERSTYLE_CLASS
 90
     4095
280
     0
281
     0
  0
CLASS
  1
ACDBSECTIONVIEWSTYLE
  2
AcDbSectionViewStyle
  3
ObjectDBX Classes
 90
     1025
280
     0
281
     0
  0
CLASS
  1
ACDBDETAILVIEWSTYLE
  2
AcDbDetailViewStyle
  3
ObjectDBX Classes
 90
     1025
280
     0
281
     0
  0
CLASS
  1
CELLSTYLEMAP
  2
AcDbCellStyleMap
  3
ObjectDBX Classes
 90
     1152
280
     0
281
     0
  0
ENDSEC
  0
SECTION
  2
TABLES
  0
TABLE
  2
VPORT
  5
8
330
0
100
AcDbSymbolTable
 70
     1
  0
VPORT
  5
187F
330
8
100
AcDbSymbolTableRecord
100
AcDbViewportTableRecord
  2
*ACTIVE
 70
     0
 10
0.0
 20
0.0
 11
1.0
 21
1.0
 12
215.6523666555191
 22
87.2620243109351
 13
0.0
 23
0.0
 14
10.0
 24
10.0
 15
10.0
 25
10.0
 16
0.0
 26
0.0
 36
1.0
 17
0.0
 27
0.0
 37
0.0
 40
175.6388256920204
 41
1.899603698811096
 42
50.0
 43
0.0
 44
0.0
 50
0.0
 51
0.0
 71
     0
 72
   100
 73
     1
 74
     0
 75
     0
 76
     0
 77
     0
 78
     0
281
     0
 65
     1
110
0.0
120
0.0
130
0.0
111
1.0
121
0.0
131
0.0
112
0.0
122
1.0
132
0.0
 79
     0
146
0.0
1001
ACAD_NAV_VCDISPLAY
1070
     3
  0
ENDTAB
  0
TABLE
  2
LTYPE
  5
5
330
0
100
AcDbSymbolTable
 70
     4
  0
LTYPE
  5
12
330
5
100
AcDbSymbolTableRecord
100
AcDbLinetypeTableRecord
  2
BYBLOCK
 70
     0
  3

 72
    65
 73
     0
 40
0.0
  0
LTYPE
  5
13
330
5
100
AcDbSymbolTableRecord
100
AcDbLinetypeTableRecord
  2
BYLAYER
 70
     0
  3

 72
    65
 73
     0
 40
0.0
  0
LTYPE
  5
14
330
5
100
AcDbSymbolTableRecord
100
AcDbLinetypeTableRecord
  2
CONTINUOUS
 70
     0
  3
Solid line
 72
    65
 73
     0
 40
0.0
  0
LTYPE
  5
4B
330
5
100
AcDbSymbolTableRecord
100
AcDbLinetypeTableRecord
  2
DASHED
 70
     0
  3
Dashed __ __ __ __ __ __ __ __ __ __ __ __ __ _
 72
    65
 73
     2
 40
19.04999999999998
 49
12.7
 74
     0
 49
-6.349999999999997
 74
     0
  0
LTYPE
  5
4C
330
5
100
AcDbSymbolTableRecord
100
AcDbLinetypeTableRecord
  2
CENTER
 70
     0
  3
Center ____ _ ____ _ ____ _ ____ _ ____ _ ____
 72
    65
 73
     4
 40
50.8
 49
31.75
 74
     0
 49
-6.349999999999997
 74
     0
 49
6.349999999999997
 74
     0
 49
-6.349999999999997
 74
     0
  0
LTYPE
  5
4D
330
5
100
AcDbSymbolTableRecord
100
AcDbLinetypeTableRecord
  2
PHANTOM
 70
     0
  3
Phantom ______  __  __  ______  __  __  ______
 72
    65
 73
     6
 40
63.5
 49
31.75
 74
     0
 49
-6.349999999999997
 74
     0
 49
6.349999999999997
 74
     0
 49
-6.349999999999997
 74
     0
 49
6.349999999999997
 74
     0
 49
-6.349999999999997
 74
     0
  0
ENDTAB
  0
TABLE
  2
LAYER
  5
2
330
0
100
AcDbSymbolTable
 70
     8
  0
LAYER
  5
E
102
{ACAD_XDICTIONARY
360
18D7
102
}
330
2
100
AcDbSymbolTableRecord
100
AcDbLayerTableRecord
  2
0
 70
     0
 62
     7
  6
CONTINUOUS
370
    -3
390
1886
  0
LAYER
  5
4E
102
{ACAD_XDICTIONARY
360
18D9
102
}
330
2
100
AcDbSymbolTableRecord
100
AcDbLayerTableRecord
  2
4
 70
     0
 62
     1
  6
CENTER
370
    -3
390
1886
  0
LAYER
  5
4F
102
{ACAD_XDICTIONARY
360
18DB
102
}
330
2
100
AcDbSymbolTableRecord
100
AcDbLayerTableRecord
  2
5
 70
     0
 62
     6
  6
PHANTOM
370
    -3
390
1886
  0
LAYER
  5
50
102
{ACAD_XDICTIONARY
360
18DD
102
}
330
2
100
AcDbSymbolTableRecord
100
AcDbLayerTableRecord
  2
1
 70
     0
 62
     7
  6
CONTINUOUS
370
    -3
390
1886
  0
LAYER
  5
51
102
{ACAD_XDICTIONARY
360
18DF
102
}
330
2
100
AcDbSymbolTableRecord
100
AcDbLayerTableRecord
  2
2
 70
     0
 62
     4
  6
CONTINUOUS
370
    -3
390
1886
  0
LAYER
  5
52
102
{ACAD_XDICTIONARY
360
18E1
102
}
330
2
100
AcDbSymbolTableRecord
100
AcDbLayerTableRecord
  2
3
 70
     0
 62
     2
  6
DASHED
370
    -3
390
1886
  0
LAYER
  5
53
102
{ACAD_XDICTIONARY
360
18E3
102
}
330
2
100
AcDbSymbolTableRecord
100
AcDbLayerTableRecord
  2
6
 70
     0
 62
     5
  6
CONTINUOUS
370
    -3
390
1886
  0
LAYER
  5
54
102
{ACAD_XDICTIONARY
360
18E5
102
}
330
2
100
AcDbSymbolTableRecord
100
AcDbLayerTableRecord
  2
7
 70
     0
 62
     3
  6
CONTINUOUS
370
    -3
390
1886
  0
ENDTAB
  0
TABLE
  2
STYLE
  5
3
330
0
100
AcDbSymbolTable
 70
     1
  0
STYLE
  5
F
330
3
100
AcDbSymbolTableRecord
100
AcDbTextStyleTableRecord
  2
STANDARD
 70
     0
 40
0.0
 41
1.0
 50
0.0
 71
     0
 42
2.5
  3
simplex.shx
  4

  0
ENDTAB
  0
TABLE
  2
VIEW
  5
6
330
0
100
AcDbSymbolTable
 70
     0
  0
ENDTAB
  0
TABLE
  2
UCS
  5
7
330
0
100
AcDbSymbolTable
 70
     0
  0
ENDTAB
  0
TABLE
  2
APPID
  5
9
330
0
100
AcDbSymbolTable
 70
     5
  0
APPID
  5
10
330
9
100
AcDbSymbolTableRecord
100
AcDbRegAppTableRecord
  2
ACAD
 70
     0
  0
APPID
  5
3E
330
9
100
AcDbSymbolTableRecord
100
AcDbRegAppTableRecord
  2
CONTENTTABDATA
 70
     0
  0
APPID
  5
3F
330
9
100
AcDbSymbolTableRecord
100
AcDbRegAppTableRecord
  2
CONTENTCURRENTTAB
 70
     0
  0
APPID
  5
18F1
330
9
100
AcDbSymbolTableRecord
100
AcDbRegAppTableRecord
  2
ACAD_NAV_VCDISPLAY
 70
     0
  0
APPID
  5
192A
330
9
100
AcDbSymbolTableRecord
100
AcDbRegAppTableRecord
  2
ACAD_MLEADERVER
 70
     0
  0
ENDTAB
  0
TABLE
  2
DIMSTYLE
  5
A
330
0
100
AcDbSymbolTable
 70
     1
100
AcDbDimStyleTable
 71
     0
  0
DIMSTYLE
105
1D
330
A
100
AcDbSymbolTableRecord
100
AcDbDimStyleTableRecord
  2
STANDARD
 70
     0
 41
3.0
 42
1.0
 43
10.0
 44
1.0
 73
     0
 74
     0
 77
     3
 78
     8
140
3.2
141
0.0
147
1.0
172
     1
173
     1
340
F
341
2E
343
2E
344
2E
  0
ENDTAB
  0
TABLE
  2
BLOCK_RECORD
  5
1
330
0
100
AcDbSymbolTable
 70
     1
  0
BLOCK_RECORD
  5
18
102
{ACAD_XDICTIONARY
360
1433
102
}
330
1
100
AcDbSymbolTableRecord
100
AcDbBlockTableRecord
  2
*MODEL_SPACE
340
18D4
  0
BLOCK_RECORD
  5
15
102
{ACAD_XDICTIONARY
360
1431
102
}
330
1
100
AcDbSymbolTableRecord
100
AcDbBlockTableRecord
  2
*PAPER_SPACE
340
18D5
  0
BLOCK_RECORD
  5
2E
330
1
100
AcDbSymbolTableRecord
100
AcDbBlockTableRecord
  2
_OPEN
340
0
  0
ENDTAB
  0
ENDSEC
  0
SECTION
  2
BLOCKS
  0
BLOCK
  5
19
330
18
100
AcDbEntity
  8
0
100
AcDbBlockBegin
  2
*MODEL_SPACE
 70
     0
 10
0.0
 20
0.0
 30
0.0
  3
*MODEL_SPACE
  1

  0
ENDBLK
  5
1A
330
18
100
AcDbEntity
  8
0
100
AcDbBlockEnd
  0
BLOCK
  5
16
330
15
100
AcDbEntity
 67
     1
  8
0
100
AcDbBlockBegin
  2
*PAPER_SPACE
 70
     0
 10
0.0
 20
0.0
 30
0.0
  3
*PAPER_SPACE
  1

  0
ENDBLK
  5
17
330
15
100
AcDbEntity
 67
     1
  8
0
100
AcDbBlockEnd
  0
BLOCK
  5
2F
330
2E
100
AcDbEntity
  8
0
100
AcDbBlockBegin
  2
_OPEN
 70
     0
 10
0.0
 20
0.0
 30
0.0
  3
_OPEN
  1

  0
LINE
  5
30
330
2E
100
AcDbEntity
  8
0
  6
ByBlock
 62
     0
100
AcDbLine
 10
-1.0
 20
0.1666666666666666
 30
0.0
 11
0.0
 21
0.0
 31
0.0
  0
LINE
  5
31
330
2E
100
AcDbEntity
  8
0
  6
ByBlock
 62
     0
100
AcDbLine
 10
0.0
 20
0.0
 30
0.0
 11
-1.0
 21
-0.1666666666666666
 31
0.0
  0
LINE
  5
32
330
2E
100
AcDbEntity
  8
0
  6
ByBlock
 62
     0
100
AcDbLine
 10
0.0
 20
0.0
 30
0.0
 11
-1.0
 21
0.0
 31
0.0
  0
ENDBLK
  5
33
330
2E
100
AcDbEntity
  8
0
100
AcDbBlockEnd
  0
ENDSEC
  0
SECTION
  2
ENTITIES
  0
TEXT
  5
63
330
18
100
AcDbEntity
  8
4
  6
CENTER
 48
0.25
100
AcDbText
 10
23.97950852663849
 20
10.0
 30
0.0
 40
1.399999999999999
  1
4
100
AcDbText
  0
TEXT
  5
66
330
18
100
AcDbEntity
  8
1
  6
Continuous
 48
0.25
100
AcDbText
 10
9.999997526638502
 20
10.00000076076889
 30
0.0
 40
1.399999999999999
  1
LAYER
100
AcDbText
  0
TEXT
  5
67
330
18
100
AcDbEntity
  8
2
  6
Continuous
 48
0.25
100
AcDbText
 10
19.9795085266385
 20
10.0
 30
0.0
 40
1.399999999999999
  1
2
100
AcDbText
  0
TEXT
  5
68
330
18
100
AcDbEntity
  8
3
  6
DASHED
 48
0.25
100
AcDbText
 10
21.97950852663849
 20
10.0
 30
0.0
 40
1.399999999999999
  1
3
100
AcDbText
  0
TEXT
  5
69
330
18
100
AcDbEntity
  8
1
  6
Continuous
 48
0.25
100
AcDbText
 10
17.9795085266385
 20
10.0
 30
0.0
 40
1.399999999999999
  1
1
100
AcDbText
  0
TEXT
  5
6A
330
18
100
AcDbEntity
  8
5
  6
PHANTOM
 48
0.25
100
AcDbText
 10
25.97950852663849
 20
10.0
 30
0.0
 40
1.399999999999999
  1
5
100
AcDbText
  0
TEXT
  5
6B
330
18
100
AcDbEntity
  8
6
  6
Continuous
 48
0.25
100
AcDbText
 10
27.97950852663849
 20
10.0
 30
0.0
 40
1.399999999999999
  1
6
100
AcDbText
  0
TEXT
  5
6C
330
18
100
AcDbEntity
  8
7
  6
Continuous
 48
0.25
100
AcDbText
 10
29.9795085266385
 20
10.0
 30
0.0
 40
1.399999999999999
  1
7
100
AcDbText
  0
LINE
  5
24F
330
18
100
AcDbEntity
  8
4
  6
CENTER
100
AcDbLine
 10
22.6634142150104
 20
57.03354698090244
 30
0.0
 11
243.1634142150104
 21
57.03354698090244
 31
0.0
  0
LINE
  5
250
330
18
100
AcDbEntity
  8
4
  6
CENTER
100
AcDbLine
 10
22.6634142150104
 20
154.0335469809024
 30
0.0
 11
243.1634142150104
 21
154.0335469809024
 31
0.0
  0
LINE
  5
252
330
18
100
AcDbEntity
  8
4
  6
CENTER
100
AcDbLine
 10
243.1634142150104
 20
105.5335469809024
 30
0.0
 11
22.6634142150104
 21
105.5335469809024
 31
0.0
  0
LINE
  5
254
330
18
100
AcDbEntity
  8
4
  6
CENTER
100
AcDbLine
 10
33.16341421501039
 20
164.5335469809024
 30
0.0
 11
33.16341421501039
 21
143.5335469809023
 31
0.0
  0
LINE
  5
258
330
18
100
AcDbEntity
  8
4
  6
CENTER
100
AcDbLine
 10
45.1634142150104
 20
63.53354698090242
 30
0.0
 11
45.1634142150104
 21
50.53354698090243
 31
0.0
  0
LINE
  5
259
330
18
100
AcDbEntity
  8
4
  6
CENTER
100
AcDbLine
 10
33.16341421501039
 20
46.53354698090242
 30
0.0
 11
33.16341421501039
 21
67.53354698090243
 31
0.0
  0
TEXT
  5
25B
330
18
100
AcDbEntity
  8
7
  6
Continuous
100
AcDbText
 10
10.00005170355825
 20
17.9999999399797
 30
0.0
 40
3.0
  1
TYPE No.TM-12
 41
1.002350999999997
100
AcDbText
  0
TEXT
  5
25C
330
18
100
AcDbEntity
  8
7
  6
Continuous
100
AcDbText
 10
10.00005170355825
 20
25.9999999399797
 30
0.0
 40
3.0
  1
CODE No.5895
 41
1.003962999999999
100
AcDbText
  0
ARC
  5
26C
330
18
100
AcDbEntity
  8
1
  6
Continuous
100
AcDbCircle
 10
45.1634142150104
 20
57.03354698090244
 30
0.0
 40
2.25
100
AcDbArc
 50
221.8103149999989
 51
245.0250346323419
  0
ARC
  5
26F
330
18
100
AcDbEntity
  8
1
  6
Continuous
100
AcDbCircle
 10
45.1634142150104
 20
57.03354698090244
 30
0.0
 40
2.25
100
AcDbArc
 50
114.974965367658
 51
138.1896850000007
  0
LINE
  5
275
330
18
100
AcDbEntity
  8
1
  6
Continuous
100
AcDbLine
 10
47.9134142150104
 20
56.53354698090243
 30
0.0
 11
48.81967321501035
 21
56.53354698090243
 31
0.0
  0
LINE
  5
276
330
18
100
AcDbEntity
  8
1
  6
Continuous
100
AcDbLine
 10
47.9134142150104
 20
57.53354698090244
 30
0.0
 11
48.81967321501035
 21
57.53354698090244
 31
0.0
  0
LINE
  5
283
330
18
100
AcDbEntity
  8
4
  6
CENTER
100
AcDbLine
 10
33.16341421501039
 20
108.1335469809024
 30
0.0
 11
33.16341421501039
 21
103.2335469809024
 31
0.0
  0
LINE
  5
284
330
18
100
AcDbEntity
  8
4
  6
CENTER
100
AcDbLine
 10
45.1634142150104
 20
112.0335469809022
 30
0.0
 11
45.1634142150104
 21
99.03354698090245
 31
0.0
  0
CIRCLE
  5
288
330
18
100
AcDbEntity
  8
1
  6
Continuous
100
AcDbCircle
 10
51.01341421501039
 20
105.5335469809024
 30
0.0
 40
2.25
  0
ARC
  5
289
330
18
100
AcDbEntity
  8
1
  6
Continuous
100
AcDbCircle
 10
45.1634142150104
 20
105.5335469809024
 30
0.0
 40
2.25
100
AcDbArc
 50
114.974965367658
 51
245.0250346323408
  0
LINE
  5
2A8
330
18
100
AcDbEntity
  8
1
  6
Continuous
100
AcDbLine
 10
47.9134142150104
 20
105.0335469809023
 30
0.0
 11
48.81967321501035
 21
105.0335469809023
 31
0.0
  0
LINE
  5
2A9
330
18
100
AcDbEntity
  8
1
  6
Continuous
100
AcDbLine
 10
47.9134142150104
 20
106.0335469809023
 30
0.0
 11
48.81967321501035
 21
106.0335469809023
 31
0.0
  0
LINE
  5
332
330
18
100
AcDbEntity
  8
4
  6
CENTER
100
AcDbLine
 10
45.1634142150104
 20
147.5335469809022
 30
0.0
 11
45.1634142150104
 21
160.5335469809024
 31
0.0
  0
ARC
  5
335
330
18
100
AcDbEntity
  8
1
  6
Continuous
100
AcDbCircle
 10
45.1634142150104
 20
154.0335469809024
 30
0.0
 40
2.25
100
AcDbArc
 50
221.8103149999989
 51
245.0250346323389
  0
ARC
  5
338
330
18
100
AcDbEntity
  8
1
  6
Continuous
100
AcDbCircle
 10
45.1634142150104
 20
154.0335469809024
 30
0.0
 40
2.25
100
AcDbArc
 50
114.974965367661
 51
138.1896850000007
  0
CIRCLE
  5
33E
330
18
100
AcDbEntity
  8
1
  6
Continuous
100
AcDbCircle
 10
51.01341421501039
 20
154.0335469809024
 30
0.0
 40
2.25
  0
LINE
  5
33F
330
18
100
AcDbEntity
  8
1
  6
Continuous
100
AcDbLine
 10
47.9134142150104
 20
154.5335469809024
 30
0.0
 11
48.81967321501035
 21
154.5335469809024
 31
0.0
  0
LINE
  5
340
330
18
100
AcDbEntity
  8
1
  6
Continuous
100
AcDbLine
 10
47.9134142150104
 20
153.5335469809024
 30
0.0
 11
48.81967321501035
 21
153.5335469809024
 31
0.0
  0
LINE
  5
38E
330
18
100
AcDbEntity
  8
1
  6
Continuous
100
AcDbLine
 10
211.1571552150104
 20
57.53354698090244
 30
0.0
 11
212.6196732150103
 21
57.53354698090244
 31
0.0
  0
LINE
  5
38F
330
18
100
AcDbEntity
  8
1
  6
Continuous
100
AcDbLine
 10
211.1571552150104
 20
56.53354698090243
 30
0.0
 11
212.6196732150103
 21
56.53354698090243
 31
0.0
  0
CIRCLE
  5
398
330
18
100
AcDbEntity
  8
1
  6
Continuous
100
AcDbCircle
 10
214.8134142150103
 20
57.03354698090244
 30
0.0
 40
2.25
  0
LINE
  5
39A
330
18
100
AcDbEntity
  8
1
  6
Continuous
100
AcDbLine
 10
217.0071552150104
 20
56.53354698090243
 30
0.0
 11
217.9134142150101
 21
56.53354698090243
 31
0.0
  0
LINE
  5
39B
330
18
100
AcDbEntity
  8
1
  6
Continuous
100
AcDbLine
 10
217.0071552150104
 20
57.53354698090244
 30
0.0
 11
217.9134142150101
 21
57.53354698090244
 31
0.0
  0
CIRCLE
  5
3AE
330
18
100
AcDbEntity
  8
1
  6
Continuous
100
AcDbCircle
 10
214.8134142150103
 20
105.5335469809024
 30
0.0
 40
2.25
  0
LINE
  5
3BB
330
18
100
AcDbEntity
  8
1
  6
Continuous
100
AcDbLine
 10
211.1571552150104
 20
105.0335469809023
 30
0.0
 11
212.6196732150103
 21
105.0335469809023
 31
0.0
  0
LINE
  5
3BC
330
18
100
AcDbEntity
  8
1
  6
Continuous
100
AcDbLine
 10
211.1571552150104
 20
106.0335469809023
 30
0.0
 11
212.6196732150103
 21
106.0335469809023
 31
0.0
  0
LINE
  5
3C2
330
18
100
AcDbEntity
  8
1
  6
Continuous
100
AcDbLine
 10
217.0071552150104
 20
105.0335469809023
 30
0.0
 11
217.9134142150101
 21
105.0335469809023
 31
0.0
  0
LINE
  5
3C3
330
18
100
AcDbEntity
  8
1
  6
Continuous
100
AcDbLine
 10
217.0071552150104
 20
106.0335469809023
 30
0.0
 11
217.9134142150101
 21
106.0335469809023
 31
0.0
  0
ARC
  5
3D4
330
18
100
AcDbEntity
  8
1
  6
Continuous
100
AcDbCircle
 10
280.0953248210706
 20
105.5335469809022
 30
0.0
 40
2.25
100
AcDbArc
 50
311.8103149999992
 51
347.1604120000002
  0
ARC
  5
3D8
330
18
100
AcDbEntity
  8
1
  6
Continuous
100
AcDbCircle
 10
280.0953248210706
 20
105.5335469809022
 30
0.0
 40
2.25
100
AcDbArc
 50
192.8395879999996
 51
228.1896850000006
  0
ARC
  5
3DE
330
18
100
AcDbEntity
  8
1
  6
Continuous
100
AcDbCircle
 10
280.0953248210706
 20
105.5335469809022
 30
0.0
 40
2.25
100
AcDbArc
 50
131.8103149999992
 51
153.6121999999984
  0
ARC
  5
3E1
330
18
100
AcDbEntity
  8
1
  6
Continuous
100
AcDbCircle
 10
280.0953248210706
 20
105.5335469809022
 30
0.0
 40
2.25
100
AcDbArc
 50
26.38780000000136
 51
48.18968500000067
  0
LINE
  5
3E6
330
18
100
AcDbEntity
  8
1
  6
Continuous
100
AcDbLine
 10
211.1571552150104
 20
154.5335469809024
 30
0.0
 11
212.6196732150103
 21
154.5335469809024
 31
0.0
  0
LINE
  5
3E7
330
18
100
AcDbEntity
  8
1
  6
Continuous
100
AcDbLine
 10
211.1571552150104
 20
153.5335469809024
 30
0.0
 11
212.6196732150103
 21
153.5335469809024
 31
0.0
  0
CIRCLE
  5
3F1
330
18
100
AcDbEntity
  8
1
  6
Continuous
100
AcDbCircle
 10
214.8134142150103
 20
154.0335469809024
 30
0.0
 40
2.25
  0
LINE
  5
3F3
330
18
100
AcDbEntity
  8
1
  6
Continuous
100
AcDbLine
 10
217.0071552150104
 20
154.5335469809024
 30
0.0
 11
217.9134142150101
 21
154.5335469809024
 31
0.0
  0
LINE
  5
3F4
330
18
100
AcDbEntity
  8
1
  6
Continuous
100
AcDbLine
 10
217.0071552150104
 20
153.5335469809024
 30
0.0
 11
217.9134142150101
 21
153.5335469809024
 31
0.0
  0
ARC
  5
6CD
330
18
100
AcDbEntity
  8
1
  6
Continuous
100
AcDbCircle
 10
280.0953248210709
 20
105.5335469809022
 30
0.0
 40
2.900000000000004
100
AcDbArc
 50
301.147389921509
 51
350.0718081577143
  0
LINE
  5
6CE
330
18
100
AcDbEntity
  8
1
  6
Continuous
100
AcDbLine
 10
285.3453248210708
 20
106.0335469809023
 30
0.0
 11
274.8453248210708
 21
106.0335469809023
 31
0.0
  0
LINE
  5
6CF
330
18
100
AcDbEntity
  8
1
  6
Continuous
100
AcDbLine
 10
283.6453248210708
 20
106.5335469809024
 30
0.0
 11
276.5453248210708
 21
106.5335469809024
 31
0.0
  0
LINE
  5
6D0
330
18
100
AcDbEntity
  8
1
  6
Continuous
100
AcDbLine
 10
285.3453248210708
 20
105.5335469809022
 30
0.0
 11
274.8453248210708
 21
105.5335469809022
 31
0.0
  0
LINE
  5
6D1
330
18
100
AcDbEntity
  8
1
  6
Continuous
100
AcDbLine
 10
285.3453248210708
 20
105.0335469809023
 30
0.0
 11
274.8453248210708
 21
105.0335469809023
 31
0.0
  0
ARC
  5
6D2
330
18
100
AcDbEntity
  8
1
  6
Continuous
100
AcDbCircle
 10
280.0953248210709
 20
105.5335469809022
 30
0.0
 40
3.400000000000006
100
AcDbArc
 50
188.4565193352683
 51
351.5434806647292
  0
ARC
  5
6D3
330
18
100
AcDbEntity
  8
1
  6
Continuous
100
AcDbCircle
 10
280.0953248210709
 20
105.5335469809022
 30
0.0
 40
3.400000000000006
100
AcDbArc
 50
17.10463517664581
 51
162.8953648233534
  0
LINE
  5
6D6
330
18
100
AcDbEntity
  8
4
  6
CENTER
 48
0.1
100
AcDbLine
 10
287.1619914877375
 20
105.5335469809022
 30
0.0
 11
273.0060266640638
 21
105.5335469809024
 31
0.0
  0
ARC
  5
6D8
330
18
100
AcDbEntity
  8
1
  6
Continuous
100
AcDbCircle
 10
280.0953248210709
 20
105.5335469809022
 30
0.0
 40
2.900000000000004
100
AcDbArc
 50
20.17127134646748
 51
58.852610078491
  0
LINE
  5
6D9
330
18
100
AcDbEntity
  8
1
  6
Continuous
100
AcDbLine
 10
281.5953248210708
 20
106.5335469809024
 30
0.0
 11
281.5953248210708
 21
108.5847762413808
 31
0.0
  0
LINE
  5
6DA
330
18
100
AcDbEntity
  8
4
  6
CENTER
 48
0.1
100
AcDbLine
 10
280.0953248210709
 20
100.4668803142357
 30
0.0
 11
280.0953248210709
 21
110.600213647569
 31
0.0
  0
ARC
  5
6DB
330
18
100
AcDbEntity
  8
1
  6
Continuous
100
AcDbCircle
 10
280.0953248210709
 20
105.5335469809022
 30
0.0
 40
2.900000000000004
100
AcDbArc
 50
121.1473899215089
 51
159.8287286535317
  0
LINE
  5
6DC
330
18
100
AcDbEntity
  8
1
  6
Continuous
100
AcDbLine
 10
278.5953248210708
 20
106.5335469809024
 30
0.0
 11
278.5953248210708
 21
108.5847762413808
 31
0.0
  0
LINE
  5
6DD
330
18
100
AcDbEntity
  8
1
  6
Continuous
100
AcDbLine
 10
274.8453248210708
 20
105.0335469809023
 30
0.0
 11
274.8453248210708
 21
106.0335469809023
 31
0.0
  0
LINE
  5
6DE
330
18
100
AcDbEntity
  8
1
  6
Continuous
100
AcDbLine
 10
281.5953248210707
 20
105.0335469809023
 30
0.0
 11
281.5953248210708
 21
102.4823177204239
 31
0.0
  0
LINE
  5
6DF
330
18
100
AcDbEntity
  8
1
  6
Continuous
100
AcDbLine
 10
276.5453248210708
 20
106.5335469809024
 30
0.0
 11
276.5453248210708
 21
106.0335469809023
 31
0.0
  0
ARC
  5
6E0
330
18
100
AcDbEntity
  8
1
  6
Continuous
100
AcDbCircle
 10
280.0953248210709
 20
105.5335469809022
 30
0.0
 40
2.900000000000004
100
AcDbArc
 50
189.9281918422848
 51
238.8526100784909
  0
LINE
  5
6E1
330
18
100
AcDbEntity
  8
1
  6
Continuous
100
AcDbLine
 10
278.5953248210708
 20
105.0335469809023
 30
0.0
 11
278.5953248210708
 21
102.4823177204239
 31
0.0
  0
LINE
  5
6E6
330
18
100
AcDbEntity
  8
1
  6
Continuous
100
AcDbLine
 10
27.91341421501047
 20
105.0335469809023
 30
0.0
 11
37.84229421501044
 21
105.0335469809023
 31
0.0
  0
LINE
  5
6E7
330
18
100
AcDbEntity
  8
1
  6
Continuous
100
AcDbLine
 10
27.91341421501047
 20
106.0335469809023
 30
0.0
 11
37.84229421501044
 21
106.0335469809023
 31
0.0
  0
LINE
  5
6E8
330
18
100
AcDbEntity
  8
1
  6
Continuous
100
AcDbLine
 10
27.91341421501047
 20
105.5335469809024
 30
0.0
 11
37.84229421501044
 21
105.5335469809024
 31
0.0
  0
LINE
  5
6ED
330
18
100
AcDbEntity
  8
1
  6
Continuous
100
AcDbLine
 10
283.6453248210708
 20
106.5335469809024
 30
0.0
 11
283.6453248210708
 21
106.0335469809023
 31
0.0
  0
LINE
  5
6EE
330
18
100
AcDbEntity
  8
1
  6
Continuous
100
AcDbLine
 10
285.3453248210708
 20
105.0335469809023
 30
0.0
 11
285.3453248210708
 21
106.0335469809023
 31
0.0
  0
LINE
  5
6F0
330
18
100
AcDbEntity
  8
1
  6
Continuous
100
AcDbLine
 10
27.91341421501047
 20
105.0335469809023
 30
0.0
 11
27.91341421501047
 21
106.0335469809023
 31
0.0
  0
LINE
  5
6F2
330
18
100
AcDbEntity
  8
1
  6
Continuous
100
AcDbLine
 10
44.91341421501039
 20
108.9335469809024
 30
0.0
 11
42.32830611599179
 21
108.9335469809024
 31
0.0
  0
LINE
  5
6F3
330
18
100
AcDbEntity
  8
1
  6
Continuous
100
AcDbLine
 10
44.91341421501039
 20
102.1335469809024
 30
0.0
 11
42.32830611599179
 21
102.1335469809024
 31
0.0
  0
LINE
  5
6F5
330
18
100
AcDbEntity
  8
1
  6
Continuous
100
AcDbLine
 10
44.21341421501046
 20
108.9335469809024
 30
0.0
 11
44.21341421501039
 21
102.1335469809024
 31
0.0
  0
LINE
  5
6F6
330
18
100
AcDbEntity
  8
1
  6
Continuous
100
AcDbLine
 10
41.70153950403181
 20
108.2127537898583
 30
0.0
 11
38.7824442150104
 21
105.8647359809024
 31
0.0
  0
LINE
  5
6F7
330
18
100
AcDbEntity
  8
1
  6
Continuous
100
AcDbLine
 10
41.38815602741039
 20
108.6023574064806
 30
0.0
 11
38.46906121501043
 21
106.2543399809025
 31
0.0
  0
LINE
  5
6F8
330
18
100
AcDbEntity
  8
1
  6
Continuous
100
AcDbLine
 10
29.61341421501045
 20
106.5335469809024
 30
0.0
 11
36.71341421501046
 21
106.5335469809024
 31
0.0
  0
LINE
  5
6F9
330
18
100
AcDbEntity
  8
1
  6
Continuous
100
AcDbLine
 10
29.61341421501045
 20
106.5335469809024
 30
0.0
 11
29.61341421501045
 21
106.0335469809023
 31
0.0
  0
ARC
  5
6FA
330
18
100
AcDbEntity
  8
1
  6
Continuous
100
AcDbCircle
 10
42.32830611599179
 20
103.6335469809025
 30
0.0
 40
1.5
100
AcDbArc
 50
231.1880217696361
 51
270.0
  0
ARC
  5
6FB
330
18
100
AcDbEntity
  8
1
  6
Continuous
100
AcDbCircle
 10
42.32830611599179
 20
103.6335469809025
 30
0.0
 40
1.0
100
AcDbArc
 50
231.1880217696361
 51
270.0
  0
LINE
  5
6FC
330
18
100
AcDbEntity
  8
1
  6
Continuous
100
AcDbLine
 10
44.21341421501046
 20
102.6335469809025
 30
0.0
 11
42.32830611599179
 21
102.6335469809025
 31
0.0
  0
ARC
  5
6FD
330
18
100
AcDbEntity
  8
1
  6
Continuous
100
AcDbCircle
 10
37.84229421501044
 20
107.0335469809023
 30
0.0
 40
1.5
100
AcDbArc
 50
270.0
 51
308.8119719999992
  0
ARC
  5
6FE
330
18
100
AcDbEntity
  8
1
  6
Continuous
100
AcDbCircle
 10
37.84229421501044
 20
104.0335469809025
 30
0.0
 40
1.5
100
AcDbArc
 50
51.18802800000072
 51
90.0
  0
ARC
  5
6FF
330
18
100
AcDbEntity
  8
1
  6
Continuous
100
AcDbCircle
 10
37.84229421501044
 20
104.0335469809025
 30
0.0
 40
1.0
100
AcDbArc
 50
51.18802800000072
 51
90.0
  0
LINE
  5
700
330
18
100
AcDbEntity
  8
1
  6
Continuous
100
AcDbLine
 10
36.71341421501046
 20
106.5335469809024
 30
0.0
 11
36.71341421501046
 21
106.0335469809023
 31
0.0
  0
ARC
  5
701
330
18
100
AcDbEntity
  8
1
  6
Continuous
100
AcDbCircle
 10
37.84229421501044
 20
107.0335469809023
 30
0.0
 40
1.0
100
AcDbArc
 50
270.0
 51
308.8119719999992
  0
LINE
  5
702
330
18
100
AcDbEntity
  8
1
  6
Continuous
100
AcDbLine
 10
41.38815602741039
 20
102.4647365553242
 30
0.0
 11
38.46906121501053
 21
104.8127539809025
 31
0.0
  0
LINE
  5
703
330
18
100
AcDbEntity
  8
1
  6
Continuous
100
AcDbLine
 10
41.70153950403181
 20
102.8543401719466
 30
0.0
 11
38.78244421501046
 21
105.2023579809024
 31
0.0
  0
ARC
  5
704
330
18
100
AcDbEntity
  8
1
  6
Continuous
100
AcDbCircle
 10
42.32830611599179
 20
107.4335469809024
 30
0.0
 40
1.0
100
AcDbArc
 50
90.0
 51
128.8119782303636
  0
ARC
  5
705
330
18
100
AcDbEntity
  8
1
  6
Continuous
100
AcDbCircle
 10
42.32830611599179
 20
107.4335469809024
 30
0.0
 40
1.5
100
AcDbArc
 50
90.0
 51
128.8119782303636
  0
LINE
  5
706
330
18
100
AcDbEntity
  8
1
  6
Continuous
100
AcDbLine
 10
44.21341421501046
 20
108.4335469809024
 30
0.0
 11
42.32830611599179
 21
108.4335469809024
 31
0.0
  0
ARC
  5
707
330
18
100
AcDbEntity
  8
1
  6
Continuous
100
AcDbCircle
 10
44.91341421501039
 20
105.9335469809024
 30
0.0
 40
3.0
100
AcDbArc
 50
0.0
 51
90.0
  0
LINE
  5
708
330
18
100
AcDbEntity
  8
1
  6
Continuous
100
AcDbLine
 10
47.9134142150104
 20
105.1335469809024
 30
0.0
 11
47.9134142150104
 21
105.9335469809024
 31
0.0
  0
ARC
  5
709
330
18
100
AcDbEntity
  8
1
  6
Continuous
100
AcDbCircle
 10
44.91341421501039
 20
105.1335469809024
 30
0.0
 40
3.0
100
AcDbArc
 50
270.0
 51
0.0
  0
LINE
  5
729
330
18
100
AcDbEntity
  8
1
  6
Continuous
100
AcDbLine
 10
217.9150813448973
 20
105.0335469809023
 30
0.0
 11
221.6134142150103
 21
105.0335469809023
 31
0.0
  0
LINE
  5
72B
330
18
100
AcDbEntity
  8
1
  6
Continuous
100
AcDbLine
 10
217.9150813448973
 20
106.0335469809023
 30
0.0
 11
221.6134142150103
 21
106.0335469809023
 31
0.0
  0
ARC
  5
757
330
18
100
AcDbEntity
  8
1
  6
Continuous
100
AcDbCircle
 10
33.16341421501039
 20
57.03354698090226
 30
0.0
 40
5.25
100
AcDbArc
 50
20.49261541857126
 51
339.5073845814245
  0
ARC
  5
759
330
18
100
AcDbEntity
  8
1
  6
Continuous
100
AcDbCircle
 10
43.69341421501047
 20
55.01354698090215
 30
0.0
 40
0.5200000000000001
100
AcDbArc
 50
0.0
 51
90.0
  0
ARC
  5
75A
330
18
100
AcDbEntity
  8
1
  6
Continuous
100
AcDbCircle
 10
43.69341421501047
 20
59.05354698090213
 30
0.0
 40
0.5200000000000001
100
AcDbArc
 50
270.0
 51
0.0
  0
LINE
  5
75B
330
18
100
AcDbEntity
  8
1
  6
Continuous
100
AcDbLine
 10
44.91341421501039
 20
60.43354698090226
 30
0.0
 11
44.21341421501046
 21
60.43354698090226
 31
0.0
  0
LINE
  5
75C
330
18
100
AcDbEntity
  8
1
  6
Continuous
100
AcDbLine
 10
44.91341421501039
 20
53.63354698090225
 30
0.0
 11
44.21341421501046
 21
53.63354698090225
 31
0.0
  0
LINE
  5
760
330
18
100
AcDbEntity
  8
1
  6
Continuous
100
AcDbLine
 10
44.21341421501046
 20
53.63354698090225
 30
0.0
 11
44.21341421501046
 21
55.01354698090215
 31
0.0
  0
CIRCLE
  5
761
330
18
100
AcDbEntity
  8
1
  6
Continuous
100
AcDbCircle
 10
33.16341421501039
 20
57.03354698090222
 30
0.0
 40
2.75
  0
LINE
  5
762
330
18
100
AcDbEntity
  8
1
  6
Continuous
100
AcDbLine
 10
44.21341421501046
 20
59.05354698090213
 30
0.0
 11
44.21341421501046
 21
60.43354698090226
 31
0.0
  0
ARC
  5
763
330
18
100
AcDbEntity
  8
1
  6
Continuous
100
AcDbCircle
 10
38.56827314008882
 20
55.01354698090215
 30
0.0
 40
0.5200000000000001
100
AcDbArc
 50
90.0
 51
159.5073845814245
  0
ARC
  5
764
330
18
100
AcDbEntity
  8
1
  6
Continuous
100
AcDbCircle
 10
38.56827314008893
 20
59.05354698090213
 30
0.0
 40
0.5200000000000001
100
AcDbArc
 50
200.4926154185711
 51
270.0
  0
LINE
  5
765
330
18
100
AcDbEntity
  8
1
  6
Continuous
100
AcDbLine
 10
38.56827314008882
 20
55.53354698090211
 30
0.0
 11
43.69341421501047
 21
55.53354698090211
 31
0.0
  0
LINE
  5
766
330
18
100
AcDbEntity
  8
1
  6
Continuous
100
AcDbLine
 10
38.56827314008893
 20
58.5335469809021
 30
0.0
 11
43.69341421501047
 21
58.5335469809021
 31
0.0
  0
ARC
  5
767
330
18
100
AcDbEntity
  8
1
  6
Continuous
100
AcDbCircle
 10
44.91341421501039
 20
56.63354698090239
 30
0.0
 40
3.0
100
AcDbArc
 50
270.0
 51
0.0
  0
LINE
  5
768
330
18
100
AcDbEntity
  8
1
  6
Continuous
100
AcDbLine
 10
47.9134142150104
 20
56.63354698090239
 30
0.0
 11
47.9134142150104
 21
57.43354698090226
 31
0.0
  0
ARC
  5
769
330
18
100
AcDbEntity
  8
1
  6
Continuous
100
AcDbCircle
 10
44.91341421501039
 20
57.43354698090226
 30
0.0
 40
3.0
100
AcDbArc
 50
0.0
 51
90.0
  0
CIRCLE
  5
B14
330
18
100
AcDbEntity
  8
1
  6
Continuous
100
AcDbCircle
 10
33.16341421501028
 20
154.0335469809023
 30
0.0
 40
2.75
  0
CIRCLE
  5
B15
330
18
100
AcDbEntity
  8
1
  6
Continuous
100
AcDbCircle
 10
33.16341421501028
 20
154.0335469809022
 30
0.0
 40
3.550000000000009
  0
ARC
  5
B17
330
18
100
AcDbEntity
  8
1
  6
Continuous
100
AcDbCircle
 10
33.16341421501028
 20
154.0335469809022
 30
0.0
 40
5.25
100
AcDbArc
 50
20.49261541857545
 51
339.5073845814287
  0
ARC
  5
B19
330
18
100
AcDbEntity
  8
1
  6
Continuous
100
AcDbCircle
 10
44.91341421501028
 20
153.6335469809021
 30
0.0
 40
3.0
100
AcDbArc
 50
270.0
 51
0.0
  0
ARC
  5
B1A
330
18
100
AcDbEntity
  8
1
  6
Continuous
100
AcDbCircle
 10
38.56827314008882
 20
152.0135469809024
 30
0.0
 40
0.5200000000000001
100
AcDbArc
 50
90.0
 51
159.5073845814286
  0
ARC
  5
B1B
330
18
100
AcDbEntity
  8
1
  6
Continuous
100
AcDbCircle
 10
43.69341421501036
 20
152.0135469809024
 30
0.0
 40
0.5200000000000001
100
AcDbArc
 50
0.0
 51
90.0
  0
LINE
  5
B1C
330
18
100
AcDbEntity
  8
1
  6
Continuous
100
AcDbLine
 10
44.21341421501034
 20
152.0135469809024
 30
0.0
 11
44.21341421501034
 21
150.6335469809021
 31
0.0
  0
LINE
  5
B1D
330
18
100
AcDbEntity
  8
1
  6
Continuous
100
AcDbLine
 10
44.91341421501028
 20
150.6335469809021
 30
0.0
 11
44.21341421501034
 21
150.6335469809021
 31
0.0
  0
LINE
  5
B1E
330
18
100
AcDbEntity
  8
1
  6
Continuous
100
AcDbLine
 10
38.5682731400887
 20
155.5335469809024
 30
0.0
 11
43.69341421501036
 21
155.5335469809024
 31
0.0
  0
LINE
  5
B1F
330
18
100
AcDbEntity
  8
1
  6
Continuous
100
AcDbLine
 10
38.56827314008882
 20
152.5335469809023
 30
0.0
 11
43.69341421501036
 21
152.5335469809023
 31
0.0
  0
ARC
  5
B20
330
18
100
AcDbEntity
  8
1
  6
Continuous
100
AcDbCircle
 10
38.5682731400887
 20
156.0535469809023
 30
0.0
 40
0.5200000000000001
100
AcDbArc
 50
200.4926154185754
 51
270.0
  0
ARC
  5
B21
330
18
100
AcDbEntity
  8
1
  6
Continuous
100
AcDbCircle
 10
44.91341421501028
 20
154.4335469809021
 30
0.0
 40
3.0
100
AcDbArc
 50
0.0
 51
90.0
  0
LINE
  5
B22
330
18
100
AcDbEntity
  8
1
  6
Continuous
100
AcDbLine
 10
47.91341421501027
 20
154.4335469809021
 30
0.0
 11
47.91341421501027
 21
153.6335469809021
 31
0.0
  0
LINE
  5
B23
330
18
100
AcDbEntity
  8
1
  6
Continuous
100
AcDbLine
 10
44.21341421501034
 20
157.4335469809023
 30
0.0
 11
44.21341421501034
 21
156.0535469809023
 31
0.0
  0
LINE
  5
B24
330
18
100
AcDbEntity
  8
1
  6
Continuous
100
AcDbLine
 10
44.91341421501028
 20
157.4335469809023
 30
0.0
 11
44.21341421501034
 21
157.4335469809023
 31
0.0
  0
ARC
  5
B25
330
18
100
AcDbEntity
  8
1
  6
Continuous
100
AcDbCircle
 10
43.69341421501036
 20
156.0535469809023
 30
0.0
 40
0.5200000000000001
100
AcDbArc
 50
270.0
 51
0.0
  0
ARC
  5
C8E
330
18
100
AcDbEntity
  8
1
  6
Continuous
100
AcDbCircle
 10
220.6634142150104
 20
154.0335469809024
 30
0.0
 40
2.25
100
AcDbArc
 50
41.81031499999913
 51
65.02503463233883
  0
ARC
  5
C8F
330
18
100
AcDbEntity
  8
1
  6
Continuous
100
AcDbCircle
 10
222.1334142150104
 20
156.0535469809023
 30
0.0
 40
0.5200000000000001
100
AcDbArc
 50
180.0
 51
270.0
  0
ARC
  5
C90
330
18
100
AcDbEntity
  8
1
  6
Continuous
100
AcDbCircle
 10
220.9134142150105
 20
154.4335469809021
 30
0.0
 40
3.0
100
AcDbArc
 50
90.0
 51
180.0
  0
ARC
  5
C91
330
18
100
AcDbEntity
  8
1
  6
Continuous
100
AcDbCircle
 10
220.6634142150104
 20
154.0335469809024
 30
0.0
 40
2.25
100
AcDbArc
 50
294.9749653676611
 51
318.1896850000008
  0
LINE
  5
C92
330
18
100
AcDbEntity
  8
1
  6
Continuous
100
AcDbLine
 10
217.9134142150105
 20
154.4335469809021
 30
0.0
 11
217.9134142150105
 21
153.6335469809021
 31
0.0
  0
LINE
  5
C93
330
18
100
AcDbEntity
  8
1
  6
Continuous
100
AcDbLine
 10
220.9134142150105
 20
150.6335469809021
 30
0.0
 11
221.6134142150104
 21
150.6335469809021
 31
0.0
  0
LINE
  5
C94
330
18
100
AcDbEntity
  8
1
  6
Continuous
100
AcDbLine
 10
221.6134142150104
 20
152.0135469809024
 30
0.0
 11
221.6134142150104
 21
150.6335469809021
 31
0.0
  0
ARC
  5
C95
330
18
100
AcDbEntity
  8
1
  6
Continuous
100
AcDbCircle
 10
222.1334142150104
 20
152.0135469809024
 30
0.0
 40
0.5200000000000001
100
AcDbArc
 50
90.0
 51
180.0
  0
ARC
  5
C96
330
18
100
AcDbEntity
  8
1
  6
Continuous
100
AcDbCircle
 10
220.9134142150105
 20
153.6335469809021
 30
0.0
 40
3.0
100
AcDbArc
 50
180.0
 51
270.0
  0
LINE
  5
C97
330
18
100
AcDbEntity
  8
1
  6
Continuous
100
AcDbLine
 10
220.9134142150105
 20
157.4335469809023
 30
0.0
 11
221.6134142150104
 21
157.4335469809023
 31
0.0
  0
LINE
  5
C98
330
18
100
AcDbEntity
  8
1
  6
Continuous
100
AcDbLine
 10
221.6134142150104
 20
157.4335469809023
 30
0.0
 11
221.6134142150104
 21
156.0535469809023
 31
0.0
  0
LINE
  5
C99
330
18
100
AcDbEntity
  8
4
  6
CENTER
100
AcDbLine
 10
220.6634142150104
 20
147.5335469809022
 30
0.0
 11
220.6634142150104
 21
160.5335469809024
 31
0.0
  0
LINE
  5
C9C
330
18
100
AcDbEntity
  8
1
  6
Continuous
100
AcDbLine
 10
227.258555289932
 20
155.5335469809024
 30
0.0
 11
222.1334142150104
 21
155.5335469809024
 31
0.0
  0
LINE
  5
C9D
330
18
100
AcDbEntity
  8
1
  6
Continuous
100
AcDbLine
 10
227.2585552899319
 20
152.5335469809023
 30
0.0
 11
222.1334142150104
 21
152.5335469809023
 31
0.0
  0
ARC
  5
C9E
330
18
100
AcDbEntity
  8
1
  6
Continuous
100
AcDbCircle
 10
227.258555289932
 20
156.0535469809023
 30
0.0
 40
0.5200000000000001
100
AcDbArc
 50
270.0
 51
339.5073845814245
  0
ARC
  5
C9F
330
18
100
AcDbEntity
  8
1
  6
Continuous
100
AcDbCircle
 10
232.6634142150105
 20
154.0335469809022
 30
0.0
 40
5.25
100
AcDbArc
 50
200.4926154185711
 51
159.5073845814245
  0
CIRCLE
  5
CA0
330
18
100
AcDbEntity
  8
1
  6
Continuous
100
AcDbCircle
 10
232.6634142150105
 20
154.0335469809022
 30
0.0
 40
3.550000000000009
  0
CIRCLE
  5
CA1
330
18
100
AcDbEntity
  8
1
  6
Continuous
100
AcDbCircle
 10
232.6634142150105
 20
154.0335469809023
 30
0.0
 40
2.75
  0
LINE
  5
CA2
330
18
100
AcDbEntity
  8
4
  6
CENTER
100
AcDbLine
 10
232.6634142150104
 20
164.5335469809024
 30
0.0
 11
232.6634142150104
 21
143.5335469809023
 31
0.0
  0
ARC
  5
CA3
330
18
100
AcDbEntity
  8
1
  6
Continuous
100
AcDbCircle
 10
227.2585552899319
 20
152.0135469809024
 30
0.0
 40
0.5200000000000001
100
AcDbArc
 50
20.49261541857126
 51
90.0
  0
ARC
  5
CAD
330
18
100
AcDbEntity
  8
1
  6
Continuous
100
AcDbCircle
 10
220.6634142150104
 20
105.5335469809024
 30
0.0
 40
2.25
100
AcDbArc
 50
294.9749653676592
 51
65.0250346323411
  0
LINE
  5
CAE
330
18
100
AcDbEntity
  8
1
  6
Continuous
100
AcDbLine
 10
220.9134142150103
 20
108.9335469809024
 30
0.0
 11
223.498522314029
 21
108.9335469809024
 31
0.0
  0
LINE
  5
CAF
330
18
100
AcDbEntity
  8
1
  6
Continuous
100
AcDbLine
 10
220.9134142150103
 20
102.1335469809024
 30
0.0
 11
223.498522314029
 21
102.1335469809024
 31
0.0
  0
LINE
  5
CB0
330
18
100
AcDbEntity
  8
1
  6
Continuous
100
AcDbLine
 10
221.6134142150103
 20
102.6335469809025
 30
0.0
 11
223.498522314029
 21
102.6335469809025
 31
0.0
  0
LINE
  5
CB1
330
18
100
AcDbEntity
  8
1
  6
Continuous
100
AcDbLine
 10
221.6134142150103
 20
108.4335469809024
 30
0.0
 11
223.498522314029
 21
108.4335469809024
 31
0.0
  0
LINE
  5
CB2
330
18
100
AcDbEntity
  8
1
  6
Continuous
100
AcDbLine
 10
224.4386724026104
 20
102.4647365553242
 30
0.0
 11
227.3577672150102
 21
104.8127539809025
 31
0.0
  0
ARC
  5
CB3
330
18
100
AcDbEntity
  8
1
  6
Continuous
100
AcDbCircle
 10
223.498522314029
 20
103.6335469809025
 30
0.0
 40
1.5
100
AcDbArc
 50
270.0
 51
308.8119782303637
  0
LINE
  5
CB4
330
18
100
AcDbEntity
  8
1
  6
Continuous
100
AcDbLine
 10
237.9134142150103
 20
105.0335469809023
 30
0.0
 11
227.9845342150103
 21
105.0335469809023
 31
0.0
  0
LINE
  5
CB5
330
18
100
AcDbEntity
  8
1
  6
Continuous
100
AcDbLine
 10
237.9134142150103
 20
106.0335469809023
 30
0.0
 11
227.9845342150103
 21
106.0335469809023
 31
0.0
  0
LINE
  5
CB6
330
18
100
AcDbEntity
  8
1
  6
Continuous
100
AcDbLine
 10
237.9134142150103
 20
105.5335469809024
 30
0.0
 11
227.9845342150103
 21
105.5335469809024
 31
0.0
  0
LINE
  5
CB7
330
18
100
AcDbEntity
  8
1
  6
Continuous
100
AcDbLine
 10
236.2134142150103
 20
106.5335469809024
 30
0.0
 11
229.1134142150103
 21
106.5335469809024
 31
0.0
  0
LINE
  5
CB8
330
18
100
AcDbEntity
  8
1
  6
Continuous
100
AcDbLine
 10
237.9134142150103
 20
105.0335469809023
 30
0.0
 11
237.9134142150103
 21
106.0335469809023
 31
0.0
  0
LINE
  5
CB9
330
18
100
AcDbEntity
  8
1
  6
Continuous
100
AcDbLine
 10
236.2134142150103
 20
106.5335469809024
 30
0.0
 11
236.2134142150103
 21
106.0335469809023
 31
0.0
  0
LINE
  5
CBA
330
18
100
AcDbEntity
  8
4
  6
CENTER
100
AcDbLine
 10
232.6634142150104
 20
108.1335469809024
 30
0.0
 11
232.6634142150104
 21
103.2335469809024
 31
0.0
  0
ARC
  5
CBB
330
18
100
AcDbEntity
  8
1
  6
Continuous
100
AcDbCircle
 10
223.498522314029
 20
103.6335469809025
 30
0.0
 40
1.0
100
AcDbArc
 50
270.0
 51
308.8119782303637
  0
ARC
  5
CBC
330
18
100
AcDbEntity
  8
1
  6
Continuous
100
AcDbCircle
 10
223.498522314029
 20
107.4335469809024
 30
0.0
 40
1.0
100
AcDbArc
 50
51.18802176963626
 51
90.0
  0
LINE
  5
CBD
330
18
100
AcDbEntity
  8
1
  6
Continuous
100
AcDbLine
 10
224.4386724026104
 20
108.6023574064806
 30
0.0
 11
227.3577672150103
 21
106.2543399809025
 31
0.0
  0
ARC
  5
CBE
330
18
100
AcDbEntity
  8
1
  6
Continuous
100
AcDbCircle
 10
227.9845342150103
 20
107.0335469809023
 30
0.0
 40
1.5
100
AcDbArc
 50
231.1880280000007
 51
270.0
  0
ARC
  5
CBF
330
18
100
AcDbEntity
  8
1
  6
Continuous
100
AcDbCircle
 10
227.9845342150103
 20
104.0335469809025
 30
0.0
 40
1.5
100
AcDbArc
 50
90.0
 51
128.8119719999993
  0
ARC
  5
CC0
330
18
100
AcDbEntity
  8
1
  6
Continuous
100
AcDbCircle
 10
227.9845342150103
 20
104.0335469809025
 30
0.0
 40
1.0
100
AcDbArc
 50
90.0
 51
128.8119719999993
  0
LINE
  5
CC1
330
18
100
AcDbEntity
  8
1
  6
Continuous
100
AcDbLine
 10
229.1134142150103
 20
106.5335469809024
 30
0.0
 11
229.1134142150103
 21
106.0335469809023
 31
0.0
  0
ARC
  5
CC2
330
18
100
AcDbEntity
  8
1
  6
Continuous
100
AcDbCircle
 10
227.9845342150103
 20
107.0335469809023
 30
0.0
 40
1.0
100
AcDbArc
 50
231.1880280000007
 51
270.0
  0
LINE
  5
CC3
330
18
100
AcDbEntity
  8
1
  6
Continuous
100
AcDbLine
 10
224.1252889259889
 20
108.2127537898583
 30
0.0
 11
227.0443842150104
 21
105.8647359809024
 31
0.0
  0
LINE
  5
CC4
330
18
100
AcDbEntity
  8
1
  6
Continuous
100
AcDbLine
 10
224.1252889259889
 20
102.8543401719466
 30
0.0
 11
227.0443842150103
 21
105.2023579809024
 31
0.0
  0
ARC
  5
CC5
330
18
100
AcDbEntity
  8
1
  6
Continuous
100
AcDbCircle
 10
223.498522314029
 20
107.4335469809024
 30
0.0
 40
1.5
100
AcDbArc
 50
51.18802176963626
 51
90.0
  0
LINE
  5
CC6
330
18
100
AcDbEntity
  8
1
  6
Continuous
100
AcDbLine
 10
221.6134142150103
 20
108.9335469809024
 30
0.0
 11
221.6134142150104
 21
106.0335469809023
 31
0.0
  0
ARC
  5
CC7
330
18
100
AcDbEntity
  8
1
  6
Continuous
100
AcDbCircle
 10
220.9134142150103
 20
105.1335469809024
 30
0.0
 40
3.0
100
AcDbArc
 50
181.9102131717125
 51
270.0
  0
ARC
  5
CC8
330
18
100
AcDbEntity
  8
1
  6
Continuous
100
AcDbCircle
 10
220.9134142150103
 20
105.9335469809024
 30
0.0
 40
3.0
100
AcDbArc
 50
90.0
 51
178.0897868282901
  0
LINE
  5
CCA
330
18
100
AcDbEntity
  8
4
  6
CENTER
100
AcDbLine
 10
220.6634142150104
 20
112.0335469809022
 30
0.0
 11
220.6634142150104
 21
99.03354698090245
 31
0.0
  0
ARC
  5
CD0
330
18
100
AcDbEntity
  8
1
  6
Continuous
100
AcDbCircle
 10
232.6634142150104
 20
57.03354698090226
 30
0.0
 40
5.25
100
AcDbArc
 50
200.4926154185755
 51
159.5073845814286
  0
CIRCLE
  5
CD1
330
18
100
AcDbEntity
  8
1
  6
Continuous
100
AcDbCircle
 10
232.6634142150104
 20
57.03354698090222
 30
0.0
 40
2.75
  0
LINE
  5
CD6
330
18
100
AcDbEntity
  8
1
  6
Continuous
100
AcDbLine
 10
221.6134142150103
 20
59.05354698090213
 30
0.0
 11
221.6134142150103
 21
60.43354698090226
 31
0.0
  0
ARC
  5
CD7
330
18
100
AcDbEntity
  8
1
  6
Continuous
100
AcDbCircle
 10
220.9134142150103
 20
57.43354698090226
 30
0.0
 40
3.0
100
AcDbArc
 50
90.0
 51
180.0
  0
ARC
  5
CD8
330
18
100
AcDbEntity
  8
1
  6
Continuous
100
AcDbCircle
 10
220.6634142150104
 20
57.03354698090244
 30
0.0
 40
2.25
100
AcDbArc
 50
294.974965367658
 51
318.1896850000008
  0
ARC
  5
CD9
330
18
100
AcDbEntity
  8
1
  6
Continuous
100
AcDbCircle
 10
220.6634142150104
 20
57.03354698090244
 30
0.0
 40
2.25
100
AcDbArc
 50
41.81031499999913
 51
65.02503463234194
  0
ARC
  5
CDA
330
18
100
AcDbEntity
  8
1
  6
Continuous
100
AcDbCircle
 10
222.1334142150103
 20
59.05354698090213
 30
0.0
 40
0.5200000000000001
100
AcDbArc
 50
180.0
 51
270.0
  0
ARC
  5
CDB
330
18
100
AcDbEntity
  8
1
  6
Continuous
100
AcDbCircle
 10
222.1334142150103
 20
55.01354698090215
 30
0.0
 40
0.5200000000000001
100
AcDbArc
 50
90.0
 51
180.0
  0
LINE
  5
CDC
330
18
100
AcDbEntity
  8
1
  6
Continuous
100
AcDbLine
 10
220.9134142150103
 20
53.63354698090225
 30
0.0
 11
221.6134142150103
 21
53.63354698090225
 31
0.0
  0
LINE
  5
CDD
330
18
100
AcDbEntity
  8
1
  6
Continuous
100
AcDbLine
 10
221.6134142150103
 20
53.63354698090225
 30
0.0
 11
221.6134142150103
 21
55.01354698090215
 31
0.0
  0
ARC
  5
CDE
330
18
100
AcDbEntity
  8
1
  6
Continuous
100
AcDbCircle
 10
220.9134142150103
 20
56.63354698090239
 30
0.0
 40
3.0
100
AcDbArc
 50
180.0
 51
270.0
  0
LINE
  5
CDF
330
18
100
AcDbEntity
  8
1
  6
Continuous
100
AcDbLine
 10
217.9134142150104
 20
56.63354698090239
 30
0.0
 11
217.9134142150104
 21
57.43354698090226
 31
0.0
  0
LINE
  5
CE0
330
18
100
AcDbEntity
  8
1
  6
Continuous
100
AcDbLine
 10
220.9134142150103
 20
60.43354698090226
 30
0.0
 11
221.6134142150103
 21
60.43354698090226
 31
0.0
  0
LINE
  5
CE1
330
18
100
AcDbEntity
  8
1
  6
Continuous
100
AcDbLine
 10
227.2585552899319
 20
55.53354698090211
 30
0.0
 11
222.1334142150103
 21
55.53354698090211
 31
0.0
  0
LINE
  5
CE2
330
18
100
AcDbEntity
  8
1
  6
Continuous
100
AcDbLine
 10
227.2585552899318
 20
58.5335469809021
 30
0.0
 11
222.1334142150103
 21
58.5335469809021
 31
0.0
  0
ARC
  5
CE3
330
18
100
AcDbEntity
  8
1
  6
Continuous
100
AcDbCircle
 10
227.2585552899318
 20
59.05354698090213
 30
0.0
 40
0.5200000000000001
100
AcDbArc
 50
270.0
 51
339.5073845814287
  0
ARC
  5
CE4
330
18
100
AcDbEntity
  8
1
  6
Continuous
100
AcDbCircle
 10
227.2585552899319
 20
55.01354698090215
 30
0.0
 40
0.5200000000000001
100
AcDbArc
 50
20.49261541857546
 51
90.0
  0
LINE
  5
CE5
330
18
100
AcDbEntity
  8
4
  6
CENTER
100
AcDbLine
 10
232.6634142150104
 20
46.53354698090242
 30
0.0
 11
232.6634142150104
 21
67.53354698090243
 31
0.0
  0
LINE
  5
CE6
330
18
100
AcDbEntity
  8
4
  6
CENTER
100
AcDbLine
 10
220.6634142150104
 20
63.53354698090242
 30
0.0
 11
220.6634142150104
 21
50.53354698090243
 31
0.0
  0
ARC
  5
F1F
330
18
100
AcDbEntity
  8
1
  6
Continuous
100
AcDbCircle
 10
220.6634142150104
 20
105.5335469809024
 30
0.0
 40
2.25
100
AcDbArc
 50
167.1604115930961
 51
192.8395884069044
  0
LINE
  5
F20
330
18
100
AcDbEntity
  8
1
  6
Continuous
100
AcDbLine
 10
221.6134142150104
 20
105.0335469809023
 30
0.0
 11
221.6134142150104
 21
102.1335469809024
 31
0.0
  0
CIRCLE
  5
166B
330
18
100
AcDbEntity
  8
1
  6
Continuous
100
AcDbCircle
 10
208.9634142150103
 20
105.5335469809024
 30
0.0
 40
2.25
  0
LINE
  5
166C
330
18
100
AcDbEntity
  8
1
  6
Continuous
100
AcDbLine
 10
205.3071552150104
 20
105.0335469809023
 30
0.0
 11
206.7696732150103
 21
105.0335469809023
 31
0.0
  0
LINE
  5
166D
330
18
100
AcDbEntity
  8
1
  6
Continuous
100
AcDbLine
 10
205.3071552150104
 20
106.0335469809023
 30
0.0
 11
206.7696732150103
 21
106.0335469809023
 31
0.0
  0
CIRCLE
  5
166E
330
18
100
AcDbEntity
  8
1
  6
Continuous
100
AcDbCircle
 10
208.9634142150103
 20
57.03354698090244
 30
0.0
 40
2.25
  0
LINE
  5
166F
330
18
100
AcDbEntity
  8
1
  6
Continuous
100
AcDbLine
 10
205.3071552150104
 20
57.53354698090244
 30
0.0
 11
206.7696732150103
 21
57.53354698090244
 31
0.0
  0
LINE
  5
1670
330
18
100
AcDbEntity
  8
1
  6
Continuous
100
AcDbLine
 10
205.3071552150104
 20
56.53354698090243
 30
0.0
 11
206.7696732150103
 21
56.53354698090243
 31
0.0
  0
CIRCLE
  5
1671
330
18
100
AcDbEntity
  8
1
  6
Continuous
100
AcDbCircle
 10
208.9634142150103
 20
154.0335469809024
 30
0.0
 40
2.25
  0
LINE
  5
1672
330
18
100
AcDbEntity
  8
1
  6
Continuous
100
AcDbLine
 10
205.3071552150104
 20
154.5335469809024
 30
0.0
 11
206.7696732150103
 21
154.5335469809024
 31
0.0
  0
LINE
  5
1673
330
18
100
AcDbEntity
  8
1
  6
Continuous
100
AcDbLine
 10
205.3071552150104
 20
153.5335469809024
 30
0.0
 11
206.7696732150103
 21
153.5335469809024
 31
0.0
  0
CIRCLE
  5
1674
330
18
100
AcDbEntity
  8
1
  6
Continuous
100
AcDbCircle
 10
203.1134142150103
 20
105.5335469809024
 30
0.0
 40
2.25
  0
LINE
  5
1675
330
18
100
AcDbEntity
  8
1
  6
Continuous
100
AcDbLine
 10
199.4571552150104
 20
105.0335469809023
 30
0.0
 11
200.9196732150103
 21
105.0335469809023
 31
0.0
  0
LINE
  5
1676
330
18
100
AcDbEntity
  8
1
  6
Continuous
100
AcDbLine
 10
199.4571552150104
 20
106.0335469809023
 30
0.0
 11
200.9196732150103
 21
106.0335469809023
 31
0.0
  0
CIRCLE
  5
1677
330
18
100
AcDbEntity
  8
1
  6
Continuous
100
AcDbCircle
 10
203.1134142150103
 20
57.03354698090244
 30
0.0
 40
2.25
  0
LINE
  5
1678
330
18
100
AcDbEntity
  8
1
  6
Continuous
100
AcDbLine
 10
199.4571552150104
 20
57.53354698090244
 30
0.0
 11
200.9196732150103
 21
57.53354698090244
 31
0.0
  0
LINE
  5
1679
330
18
100
AcDbEntity
  8
1
  6
Continuous
100
AcDbLine
 10
199.4571552150104
 20
56.53354698090243
 30
0.0
 11
200.9196732150103
 21
56.53354698090243
 31
0.0
  0
CIRCLE
  5
167A
330
18
100
AcDbEntity
  8
1
  6
Continuous
100
AcDbCircle
 10
203.1134142150103
 20
154.0335469809024
 30
0.0
 40
2.25
  0
LINE
  5
167B
330
18
100
AcDbEntity
  8
1
  6
Continuous
100
AcDbLine
 10
199.4571552150104
 20
154.5335469809024
 30
0.0
 11
200.9196732150103
 21
154.5335469809024
 31
0.0
  0
LINE
  5
167C
330
18
100
AcDbEntity
  8
1
  6
Continuous
100
AcDbLine
 10
199.4571552150104
 20
153.5335469809024
 30
0.0
 11
200.9196732150103
 21
153.5335469809024
 31
0.0
  0
CIRCLE
  5
167D
330
18
100
AcDbEntity
  8
1
  6
Continuous
100
AcDbCircle
 10
197.2634142150103
 20
105.5335469809024
 30
0.0
 40
2.25
  0
LINE
  5
167E
330
18
100
AcDbEntity
  8
1
  6
Continuous
100
AcDbLine
 10
193.6071552150104
 20
105.0335469809023
 30
0.0
 11
195.0696732150103
 21
105.0335469809023
 31
0.0
  0
LINE
  5
167F
330
18
100
AcDbEntity
  8
1
  6
Continuous
100
AcDbLine
 10
193.6071552150104
 20
106.0335469809023
 30
0.0
 11
195.0696732150103
 21
106.0335469809023
 31
0.0
  0
CIRCLE
  5
1680
330
18
100
AcDbEntity
  8
1
  6
Continuous
100
AcDbCircle
 10
197.2634142150103
 20
57.03354698090244
 30
0.0
 40
2.25
  0
LINE
  5
1681
330
18
100
AcDbEntity
  8
1
  6
Continuous
100
AcDbLine
 10
193.6071552150104
 20
57.53354698090244
 30
0.0
 11
195.0696732150103
 21
57.53354698090244
 31
0.0
  0
LINE
  5
1682
330
18
100
AcDbEntity
  8
1
  6
Continuous
100
AcDbLine
 10
193.6071552150104
 20
56.53354698090243
 30
0.0
 11
195.0696732150103
 21
56.53354698090243
 31
0.0
  0
CIRCLE
  5
1683
330
18
100
AcDbEntity
  8
1
  6
Continuous
100
AcDbCircle
 10
197.2634142150103
 20
154.0335469809024
 30
0.0
 40
2.25
  0
LINE
  5
1684
330
18
100
AcDbEntity
  8
1
  6
Continuous
100
AcDbLine
 10
193.6071552150104
 20
154.5335469809024
 30
0.0
 11
195.0696732150103
 21
154.5335469809024
 31
0.0
  0
LINE
  5
1685
330
18
100
AcDbEntity
  8
1
  6
Continuous
100
AcDbLine
 10
193.6071552150104
 20
153.5335469809024
 30
0.0
 11
195.0696732150103
 21
153.5335469809024
 31
0.0
  0
CIRCLE
  5
1686
330
18
100
AcDbEntity
  8
1
  6
Continuous
100
AcDbCircle
 10
191.4134142150103
 20
105.5335469809024
 30
0.0
 40
2.25
  0
LINE
  5
1687
330
18
100
AcDbEntity
  8
1
  6
Continuous
100
AcDbLine
 10
187.7571552150104
 20
105.0335469809023
 30
0.0
 11
189.2196732150103
 21
105.0335469809023
 31
0.0
  0
LINE
  5
1688
330
18
100
AcDbEntity
  8
1
  6
Continuous
100
AcDbLine
 10
187.7571552150104
 20
106.0335469809023
 30
0.0
 11
189.2196732150103
 21
106.0335469809023
 31
0.0
  0
CIRCLE
  5
1689
330
18
100
AcDbEntity
  8
1
  6
Continuous
100
AcDbCircle
 10
191.4134142150103
 20
57.03354698090244
 30
0.0
 40
2.25
  0
LINE
  5
168A
330
18
100
AcDbEntity
  8
1
  6
Continuous
100
AcDbLine
 10
187.7571552150104
 20
57.53354698090244
 30
0.0
 11
189.2196732150103
 21
57.53354698090244
 31
0.0
  0
LINE
  5
168B
330
18
100
AcDbEntity
  8
1
  6
Continuous
100
AcDbLine
 10
187.7571552150104
 20
56.53354698090243
 30
0.0
 11
189.2196732150103
 21
56.53354698090243
 31
0.0
  0
CIRCLE
  5
168C
330
18
100
AcDbEntity
  8
1
  6
Continuous
100
AcDbCircle
 10
191.4134142150103
 20
154.0335469809024
 30
0.0
 40
2.25
  0
LINE
  5
168D
330
18
100
AcDbEntity
  8
1
  6
Continuous
100
AcDbLine
 10
187.7571552150104
 20
154.5335469809024
 30
0.0
 11
189.2196732150103
 21
154.5335469809024
 31
0.0
  0
LINE
  5
168E
330
18
100
AcDbEntity
  8
1
  6
Continuous
100
AcDbLine
 10
187.7571552150104
 20
153.5335469809024
 30
0.0
 11
189.2196732150103
 21
153.5335469809024
 31
0.0
  0
CIRCLE
  5
168F
330
18
100
AcDbEntity
  8
1
  6
Continuous
100
AcDbCircle
 10
185.5634142150103
 20
105.5335469809024
 30
0.0
 40
2.25
  0
LINE
  5
1690
330
18
100
AcDbEntity
  8
1
  6
Continuous
100
AcDbLine
 10
181.9071552150104
 20
105.0335469809023
 30
0.0
 11
183.3696732150103
 21
105.0335469809023
 31
0.0
  0
LINE
  5
1691
330
18
100
AcDbEntity
  8
1
  6
Continuous
100
AcDbLine
 10
181.9071552150104
 20
106.0335469809023
 30
0.0
 11
183.3696732150103
 21
106.0335469809023
 31
0.0
  0
CIRCLE
  5
1692
330
18
100
AcDbEntity
  8
1
  6
Continuous
100
AcDbCircle
 10
185.5634142150103
 20
57.03354698090244
 30
0.0
 40
2.25
  0
LINE
  5
1693
330
18
100
AcDbEntity
  8
1
  6
Continuous
100
AcDbLine
 10
181.9071552150104
 20
57.53354698090244
 30
0.0
 11
183.3696732150103
 21
57.53354698090244
 31
0.0
  0
LINE
  5
1694
330
18
100
AcDbEntity
  8
1
  6
Continuous
100
AcDbLine
 10
181.9071552150104
 20
56.53354698090243
 30
0.0
 11
183.3696732150103
 21
56.53354698090243
 31
0.0
  0
CIRCLE
  5
1695
330
18
100
AcDbEntity
  8
1
  6
Continuous
100
AcDbCircle
 10
185.5634142150103
 20
154.0335469809024
 30
0.0
 40
2.25
  0
LINE
  5
1696
330
18
100
AcDbEntity
  8
1
  6
Continuous
100
AcDbLine
 10
181.9071552150104
 20
154.5335469809024
 30
0.0
 11
183.3696732150103
 21
154.5335469809024
 31
0.0
  0
LINE
  5
1697
330
18
100
AcDbEntity
  8
1
  6
Continuous
100
AcDbLine
 10
181.9071552150104
 20
153.5335469809024
 30
0.0
 11
183.3696732150103
 21
153.5335469809024
 31
0.0
  0
CIRCLE
  5
1698
330
18
100
AcDbEntity
  8
1
  6
Continuous
100
AcDbCircle
 10
179.7134142150103
 20
105.5335469809024
 30
0.0
 40
2.25
  0
LINE
  5
1699
330
18
100
AcDbEntity
  8
1
  6
Continuous
100
AcDbLine
 10
176.0571552150104
 20
105.0335469809023
 30
0.0
 11
177.5196732150103
 21
105.0335469809023
 31
0.0
  0
LINE
  5
169A
330
18
100
AcDbEntity
  8
1
  6
Continuous
100
AcDbLine
 10
176.0571552150104
 20
106.0335469809023
 30
0.0
 11
177.5196732150103
 21
106.0335469809023
 31
0.0
  0
CIRCLE
  5
169B
330
18
100
AcDbEntity
  8
1
  6
Continuous
100
AcDbCircle
 10
179.7134142150103
 20
57.03354698090244
 30
0.0
 40
2.25
  0
LINE
  5
169C
330
18
100
AcDbEntity
  8
1
  6
Continuous
100
AcDbLine
 10
176.0571552150104
 20
57.53354698090244
 30
0.0
 11
177.5196732150103
 21
57.53354698090244
 31
0.0
  0
LINE
  5
169D
330
18
100
AcDbEntity
  8
1
  6
Continuous
100
AcDbLine
 10
176.0571552150104
 20
56.53354698090243
 30
0.0
 11
177.5196732150103
 21
56.53354698090243
 31
0.0
  0
CIRCLE
  5
169E
330
18
100
AcDbEntity
  8
1
  6
Continuous
100
AcDbCircle
 10
179.7134142150103
 20
154.0335469809024
 30
0.0
 40
2.25
  0
LINE
  5
169F
330
18
100
AcDbEntity
  8
1
  6
Continuous
100
AcDbLine
 10
176.0571552150104
 20
154.5335469809024
 30
0.0
 11
177.5196732150103
 21
154.5335469809024
 31
0.0
  0
LINE
  5
16A0
330
18
100
AcDbEntity
  8
1
  6
Continuous
100
AcDbLine
 10
176.0571552150104
 20
153.5335469809024
 30
0.0
 11
177.5196732150103
 21
153.5335469809024
 31
0.0
  0
CIRCLE
  5
16A1
330
18
100
AcDbEntity
  8
1
  6
Continuous
100
AcDbCircle
 10
173.8634142150103
 20
105.5335469809024
 30
0.0
 40
2.25
  0
LINE
  5
16A2
330
18
100
AcDbEntity
  8
1
  6
Continuous
100
AcDbLine
 10
170.2071552150104
 20
105.0335469809023
 30
0.0
 11
171.6696732150103
 21
105.0335469809023
 31
0.0
  0
LINE
  5
16A3
330
18
100
AcDbEntity
  8
1
  6
Continuous
100
AcDbLine
 10
170.2071552150104
 20
106.0335469809023
 30
0.0
 11
171.6696732150103
 21
106.0335469809023
 31
0.0
  0
CIRCLE
  5
16A4
330
18
100
AcDbEntity
  8
1
  6
Continuous
100
AcDbCircle
 10
173.8634142150103
 20
57.03354698090244
 30
0.0
 40
2.25
  0
LINE
  5
16A5
330
18
100
AcDbEntity
  8
1
  6
Continuous
100
AcDbLine
 10
170.2071552150104
 20
57.53354698090244
 30
0.0
 11
171.6696732150103
 21
57.53354698090244
 31
0.0
  0
LINE
  5
16A6
330
18
100
AcDbEntity
  8
1
  6
Continuous
100
AcDbLine
 10
170.2071552150104
 20
56.53354698090243
 30
0.0
 11
171.6696732150103
 21
56.53354698090243
 31
0.0
  0
CIRCLE
  5
16A7
330
18
100
AcDbEntity
  8
1
  6
Continuous
100
AcDbCircle
 10
173.8634142150103
 20
154.0335469809024
 30
0.0
 40
2.25
  0
LINE
  5
16A8
330
18
100
AcDbEntity
  8
1
  6
Continuous
100
AcDbLine
 10
170.2071552150104
 20
154.5335469809024
 30
0.0
 11
171.6696732150103
 21
154.5335469809024
 31
0.0
  0
LINE
  5
16A9
330
18
100
AcDbEntity
  8
1
  6
Continuous
100
AcDbLine
 10
170.2071552150104
 20
153.5335469809024
 30
0.0
 11
171.6696732150103
 21
153.5335469809024
 31
0.0
  0
CIRCLE
  5
16AA
330
18
100
AcDbEntity
  8
1
  6
Continuous
100
AcDbCircle
 10
168.0134142150103
 20
105.5335469809024
 30
0.0
 40
2.25
  0
LINE
  5
16AB
330
18
100
AcDbEntity
  8
1
  6
Continuous
100
AcDbLine
 10
164.3571552150104
 20
105.0335469809023
 30
0.0
 11
165.8196732150103
 21
105.0335469809023
 31
0.0
  0
LINE
  5
16AC
330
18
100
AcDbEntity
  8
1
  6
Continuous
100
AcDbLine
 10
164.3571552150104
 20
106.0335469809023
 30
0.0
 11
165.8196732150103
 21
106.0335469809023
 31
0.0
  0
CIRCLE
  5
16AD
330
18
100
AcDbEntity
  8
1
  6
Continuous
100
AcDbCircle
 10
168.0134142150103
 20
57.03354698090244
 30
0.0
 40
2.25
  0
LINE
  5
16AE
330
18
100
AcDbEntity
  8
1
  6
Continuous
100
AcDbLine
 10
164.3571552150104
 20
57.53354698090244
 30
0.0
 11
165.8196732150103
 21
57.53354698090244
 31
0.0
  0
LINE
  5
16AF
330
18
100
AcDbEntity
  8
1
  6
Continuous
100
AcDbLine
 10
164.3571552150104
 20
56.53354698090243
 30
0.0
 11
165.8196732150103
 21
56.53354698090243
 31
0.0
  0
CIRCLE
  5
16B0
330
18
100
AcDbEntity
  8
1
  6
Continuous
100
AcDbCircle
 10
168.0134142150103
 20
154.0335469809024
 30
0.0
 40
2.25
  0
LINE
  5
16B1
330
18
100
AcDbEntity
  8
1
  6
Continuous
100
AcDbLine
 10
164.3571552150104
 20
154.5335469809024
 30
0.0
 11
165.8196732150103
 21
154.5335469809024
 31
0.0
  0
LINE
  5
16B2
330
18
100
AcDbEntity
  8
1
  6
Continuous
100
AcDbLine
 10
164.3571552150104
 20
153.5335469809024
 30
0.0
 11
165.8196732150103
 21
153.5335469809024
 31
0.0
  0
CIRCLE
  5
16B3
330
18
100
AcDbEntity
  8
1
  6
Continuous
100
AcDbCircle
 10
162.1634142150103
 20
105.5335469809024
 30
0.0
 40
2.25
  0
LINE
  5
16B4
330
18
100
AcDbEntity
  8
1
  6
Continuous
100
AcDbLine
 10
158.5071552150104
 20
105.0335469809023
 30
0.0
 11
159.9696732150103
 21
105.0335469809023
 31
0.0
  0
LINE
  5
16B5
330
18
100
AcDbEntity
  8
1
  6
Continuous
100
AcDbLine
 10
158.5071552150104
 20
106.0335469809023
 30
0.0
 11
159.9696732150103
 21
106.0335469809023
 31
0.0
  0
CIRCLE
  5
16B6
330
18
100
AcDbEntity
  8
1
  6
Continuous
100
AcDbCircle
 10
162.1634142150103
 20
57.03354698090244
 30
0.0
 40
2.25
  0
LINE
  5
16B7
330
18
100
AcDbEntity
  8
1
  6
Continuous
100
AcDbLine
 10
158.5071552150104
 20
57.53354698090244
 30
0.0
 11
159.9696732150103
 21
57.53354698090244
 31
0.0
  0
LINE
  5
16B8
330
18
100
AcDbEntity
  8
1
  6
Continuous
100
AcDbLine
 10
158.5071552150104
 20
56.53354698090243
 30
0.0
 11
159.9696732150103
 21
56.53354698090243
 31
0.0
  0
CIRCLE
  5
16B9
330
18
100
AcDbEntity
  8
1
  6
Continuous
100
AcDbCircle
 10
162.1634142150103
 20
154.0335469809024
 30
0.0
 40
2.25
  0
LINE
  5
16BA
330
18
100
AcDbEntity
  8
1
  6
Continuous
100
AcDbLine
 10
158.5071552150104
 20
154.5335469809024
 30
0.0
 11
159.9696732150103
 21
154.5335469809024
 31
0.0
  0
LINE
  5
16BB
330
18
100
AcDbEntity
  8
1
  6
Continuous
100
AcDbLine
 10
158.5071552150104
 20
153.5335469809024
 30
0.0
 11
159.9696732150103
 21
153.5335469809024
 31
0.0
  0
CIRCLE
  5
16BC
330
18
100
AcDbEntity
  8
1
  6
Continuous
100
AcDbCircle
 10
156.3134142150103
 20
105.5335469809024
 30
0.0
 40
2.25
  0
LINE
  5
16BD
330
18
100
AcDbEntity
  8
1
  6
Continuous
100
AcDbLine
 10
152.6571552150104
 20
105.0335469809023
 30
0.0
 11
154.1196732150103
 21
105.0335469809023
 31
0.0
  0
LINE
  5
16BE
330
18
100
AcDbEntity
  8
1
  6
Continuous
100
AcDbLine
 10
152.6571552150104
 20
106.0335469809023
 30
0.0
 11
154.1196732150103
 21
106.0335469809023
 31
0.0
  0
CIRCLE
  5
16BF
330
18
100
AcDbEntity
  8
1
  6
Continuous
100
AcDbCircle
 10
156.3134142150103
 20
57.03354698090244
 30
0.0
 40
2.25
  0
LINE
  5
16C0
330
18
100
AcDbEntity
  8
1
  6
Continuous
100
AcDbLine
 10
152.6571552150104
 20
57.53354698090244
 30
0.0
 11
154.1196732150103
 21
57.53354698090244
 31
0.0
  0
LINE
  5
16C1
330
18
100
AcDbEntity
  8
1
  6
Continuous
100
AcDbLine
 10
152.6571552150104
 20
56.53354698090243
 30
0.0
 11
154.1196732150103
 21
56.53354698090243
 31
0.0
  0
CIRCLE
  5
16C2
330
18
100
AcDbEntity
  8
1
  6
Continuous
100
AcDbCircle
 10
156.3134142150103
 20
154.0335469809024
 30
0.0
 40
2.25
  0
LINE
  5
16C3
330
18
100
AcDbEntity
  8
1
  6
Continuous
100
AcDbLine
 10
152.6571552150104
 20
154.5335469809024
 30
0.0
 11
154.1196732150103
 21
154.5335469809024
 31
0.0
  0
LINE
  5
16C4
330
18
100
AcDbEntity
  8
1
  6
Continuous
100
AcDbLine
 10
152.6571552150104
 20
153.5335469809024
 30
0.0
 11
154.1196732150103
 21
153.5335469809024
 31
0.0
  0
CIRCLE
  5
16C5
330
18
100
AcDbEntity
  8
1
  6
Continuous
100
AcDbCircle
 10
150.4634142150104
 20
105.5335469809024
 30
0.0
 40
2.25
  0
LINE
  5
16C6
330
18
100
AcDbEntity
  8
1
  6
Continuous
100
AcDbLine
 10
146.8071552150104
 20
105.0335469809023
 30
0.0
 11
148.2696732150104
 21
105.0335469809023
 31
0.0
  0
LINE
  5
16C7
330
18
100
AcDbEntity
  8
1
  6
Continuous
100
AcDbLine
 10
146.8071552150104
 20
106.0335469809023
 30
0.0
 11
148.2696732150104
 21
106.0335469809023
 31
0.0
  0
CIRCLE
  5
16C8
330
18
100
AcDbEntity
  8
1
  6
Continuous
100
AcDbCircle
 10
150.4634142150104
 20
57.03354698090244
 30
0.0
 40
2.25
  0
LINE
  5
16C9
330
18
100
AcDbEntity
  8
1
  6
Continuous
100
AcDbLine
 10
146.8071552150104
 20
57.53354698090244
 30
0.0
 11
148.2696732150104
 21
57.53354698090244
 31
0.0
  0
LINE
  5
16CA
330
18
100
AcDbEntity
  8
1
  6
Continuous
100
AcDbLine
 10
146.8071552150104
 20
56.53354698090243
 30
0.0
 11
148.2696732150104
 21
56.53354698090243
 31
0.0
  0
CIRCLE
  5
16CB
330
18
100
AcDbEntity
  8
1
  6
Continuous
100
AcDbCircle
 10
150.4634142150104
 20
154.0335469809024
 30
0.0
 40
2.25
  0
LINE
  5
16CC
330
18
100
AcDbEntity
  8
1
  6
Continuous
100
AcDbLine
 10
146.8071552150104
 20
154.5335469809024
 30
0.0
 11
148.2696732150104
 21
154.5335469809024
 31
0.0
  0
LINE
  5
16CD
330
18
100
AcDbEntity
  8
1
  6
Continuous
100
AcDbLine
 10
146.8071552150104
 20
153.5335469809024
 30
0.0
 11
148.2696732150104
 21
153.5335469809024
 31
0.0
  0
CIRCLE
  5
16CE
330
18
100
AcDbEntity
  8
1
  6
Continuous
100
AcDbCircle
 10
144.6134142150103
 20
105.5335469809024
 30
0.0
 40
2.25
  0
LINE
  5
16CF
330
18
100
AcDbEntity
  8
1
  6
Continuous
100
AcDbLine
 10
140.9571552150105
 20
105.0335469809023
 30
0.0
 11
142.4196732150103
 21
105.0335469809023
 31
0.0
  0
LINE
  5
16D0
330
18
100
AcDbEntity
  8
1
  6
Continuous
100
AcDbLine
 10
140.9571552150105
 20
106.0335469809023
 30
0.0
 11
142.4196732150103
 21
106.0335469809023
 31
0.0
  0
CIRCLE
  5
16D1
330
18
100
AcDbEntity
  8
1
  6
Continuous
100
AcDbCircle
 10
144.6134142150103
 20
57.03354698090244
 30
0.0
 40
2.25
  0
LINE
  5
16D2
330
18
100
AcDbEntity
  8
1
  6
Continuous
100
AcDbLine
 10
140.9571552150105
 20
57.53354698090244
 30
0.0
 11
142.4196732150103
 21
57.53354698090244
 31
0.0
  0
LINE
  5
16D3
330
18
100
AcDbEntity
  8
1
  6
Continuous
100
AcDbLine
 10
140.9571552150105
 20
56.53354698090243
 30
0.0
 11
142.4196732150103
 21
56.53354698090243
 31
0.0
  0
CIRCLE
  5
16D4
330
18
100
AcDbEntity
  8
1
  6
Continuous
100
AcDbCircle
 10
144.6134142150103
 20
154.0335469809024
 30
0.0
 40
2.25
  0
LINE
  5
16D5
330
18
100
AcDbEntity
  8
1
  6
Continuous
100
AcDbLine
 10
140.9571552150105
 20
154.5335469809024
 30
0.0
 11
142.4196732150103
 21
154.5335469809024
 31
0.0
  0
LINE
  5
16D6
330
18
100
AcDbEntity
  8
1
  6
Continuous
100
AcDbLine
 10
140.9571552150105
 20
153.5335469809024
 30
0.0
 11
142.4196732150103
 21
153.5335469809024
 31
0.0
  0
CIRCLE
  5
16D7
330
18
100
AcDbEntity
  8
1
  6
Continuous
100
AcDbCircle
 10
138.7634142150104
 20
105.5335469809024
 30
0.0
 40
2.25
  0
LINE
  5
16D8
330
18
100
AcDbEntity
  8
1
  6
Continuous
100
AcDbLine
 10
135.1071552150104
 20
105.0335469809023
 30
0.0
 11
136.5696732150104
 21
105.0335469809023
 31
0.0
  0
LINE
  5
16D9
330
18
100
AcDbEntity
  8
1
  6
Continuous
100
AcDbLine
 10
135.1071552150104
 20
106.0335469809023
 30
0.0
 11
136.5696732150104
 21
106.0335469809023
 31
0.0
  0
CIRCLE
  5
16DA
330
18
100
AcDbEntity
  8
1
  6
Continuous
100
AcDbCircle
 10
138.7634142150104
 20
57.03354698090244
 30
0.0
 40
2.25
  0
LINE
  5
16DB
330
18
100
AcDbEntity
  8
1
  6
Continuous
100
AcDbLine
 10
135.1071552150104
 20
57.53354698090244
 30
0.0
 11
136.5696732150104
 21
57.53354698090244
 31
0.0
  0
LINE
  5
16DC
330
18
100
AcDbEntity
  8
1
  6
Continuous
100
AcDbLine
 10
135.1071552150104
 20
56.53354698090243
 30
0.0
 11
136.5696732150104
 21
56.53354698090243
 31
0.0
  0
CIRCLE
  5
16DD
330
18
100
AcDbEntity
  8
1
  6
Continuous
100
AcDbCircle
 10
138.7634142150104
 20
154.0335469809024
 30
0.0
 40
2.25
  0
LINE
  5
16DE
330
18
100
AcDbEntity
  8
1
  6
Continuous
100
AcDbLine
 10
135.1071552150104
 20
154.5335469809024
 30
0.0
 11
136.5696732150104
 21
154.5335469809024
 31
0.0
  0
LINE
  5
16DF
330
18
100
AcDbEntity
  8
1
  6
Continuous
100
AcDbLine
 10
135.1071552150104
 20
153.5335469809024
 30
0.0
 11
136.5696732150104
 21
153.5335469809024
 31
0.0
  0
CIRCLE
  5
16E0
330
18
100
AcDbEntity
  8
1
  6
Continuous
100
AcDbCircle
 10
132.9134142150103
 20
105.5335469809024
 30
0.0
 40
2.25
  0
LINE
  5
16E1
330
18
100
AcDbEntity
  8
1
  6
Continuous
100
AcDbLine
 10
129.2571552150105
 20
105.0335469809023
 30
0.0
 11
130.7196732150104
 21
105.0335469809023
 31
0.0
  0
LINE
  5
16E2
330
18
100
AcDbEntity
  8
1
  6
Continuous
100
AcDbLine
 10
129.2571552150105
 20
106.0335469809023
 30
0.0
 11
130.7196732150104
 21
106.0335469809023
 31
0.0
  0
CIRCLE
  5
16E3
330
18
100
AcDbEntity
  8
1
  6
Continuous
100
AcDbCircle
 10
132.9134142150103
 20
57.03354698090244
 30
0.0
 40
2.25
  0
LINE
  5
16E4
330
18
100
AcDbEntity
  8
1
  6
Continuous
100
AcDbLine
 10
129.2571552150105
 20
57.53354698090244
 30
0.0
 11
130.7196732150104
 21
57.53354698090244
 31
0.0
  0
LINE
  5
16E5
330
18
100
AcDbEntity
  8
1
  6
Continuous
100
AcDbLine
 10
129.2571552150105
 20
56.53354698090243
 30
0.0
 11
130.7196732150104
 21
56.53354698090243
 31
0.0
  0
CIRCLE
  5
16E6
330
18
100
AcDbEntity
  8
1
  6
Continuous
100
AcDbCircle
 10
132.9134142150103
 20
154.0335469809024
 30
0.0
 40
2.25
  0
LINE
  5
16E7
330
18
100
AcDbEntity
  8
1
  6
Continuous
100
AcDbLine
 10
129.2571552150105
 20
154.5335469809024
 30
0.0
 11
130.7196732150104
 21
154.5335469809024
 31
0.0
  0
LINE
  5
16E8
330
18
100
AcDbEntity
  8
1
  6
Continuous
100
AcDbLine
 10
129.2571552150105
 20
153.5335469809024
 30
0.0
 11
130.7196732150104
 21
153.5335469809024
 31
0.0
  0
CIRCLE
  5
16E9
330
18
100
AcDbEntity
  8
1
  6
Continuous
100
AcDbCircle
 10
127.0634142150104
 20
105.5335469809024
 30
0.0
 40
2.25
  0
LINE
  5
16EA
330
18
100
AcDbEntity
  8
1
  6
Continuous
100
AcDbLine
 10
123.4071552150105
 20
105.0335469809023
 30
0.0
 11
124.8696732150104
 21
105.0335469809023
 31
0.0
  0
LINE
  5
16EB
330
18
100
AcDbEntity
  8
1
  6
Continuous
100
AcDbLine
 10
123.4071552150105
 20
106.0335469809023
 30
0.0
 11
124.8696732150104
 21
106.0335469809023
 31
0.0
  0
CIRCLE
  5
16EC
330
18
100
AcDbEntity
  8
1
  6
Continuous
100
AcDbCircle
 10
127.0634142150104
 20
57.03354698090244
 30
0.0
 40
2.25
  0
LINE
  5
16ED
330
18
100
AcDbEntity
  8
1
  6
Continuous
100
AcDbLine
 10
123.4071552150105
 20
57.53354698090244
 30
0.0
 11
124.8696732150104
 21
57.53354698090244
 31
0.0
  0
LINE
  5
16EE
330
18
100
AcDbEntity
  8
1
  6
Continuous
100
AcDbLine
 10
123.4071552150105
 20
56.53354698090243
 30
0.0
 11
124.8696732150104
 21
56.53354698090243
 31
0.0
  0
CIRCLE
  5
16EF
330
18
100
AcDbEntity
  8
1
  6
Continuous
100
AcDbCircle
 10
127.0634142150104
 20
154.0335469809024
 30
0.0
 40
2.25
  0
LINE
  5
16F0
330
18
100
AcDbEntity
  8
1
  6
Continuous
100
AcDbLine
 10
123.4071552150105
 20
154.5335469809024
 30
0.0
 11
124.8696732150104
 21
154.5335469809024
 31
0.0
  0
LINE
  5
16F1
330
18
100
AcDbEntity
  8
1
  6
Continuous
100
AcDbLine
 10
123.4071552150105
 20
153.5335469809024
 30
0.0
 11
124.8696732150104
 21
153.5335469809024
 31
0.0
  0
CIRCLE
  5
16F2
330
18
100
AcDbEntity
  8
1
  6
Continuous
100
AcDbCircle
 10
121.2134142150104
 20
105.5335469809024
 30
0.0
 40
2.25
  0
LINE
  5
16F3
330
18
100
AcDbEntity
  8
1
  6
Continuous
100
AcDbLine
 10
117.5571552150105
 20
105.0335469809023
 30
0.0
 11
119.0196732150104
 21
105.0335469809023
 31
0.0
  0
LINE
  5
16F4
330
18
100
AcDbEntity
  8
1
  6
Continuous
100
AcDbLine
 10
117.5571552150105
 20
106.0335469809023
 30
0.0
 11
119.0196732150104
 21
106.0335469809023
 31
0.0
  0
CIRCLE
  5
16F5
330
18
100
AcDbEntity
  8
1
  6
Continuous
100
AcDbCircle
 10
121.2134142150104
 20
57.03354698090244
 30
0.0
 40
2.25
  0
LINE
  5
16F6
330
18
100
AcDbEntity
  8
1
  6
Continuous
100
AcDbLine
 10
117.5571552150105
 20
57.53354698090244
 30
0.0
 11
119.0196732150104
 21
57.53354698090244
 31
0.0
  0
LINE
  5
16F7
330
18
100
AcDbEntity
  8
1
  6
Continuous
100
AcDbLine
 10
117.5571552150105
 20
56.53354698090243
 30
0.0
 11
119.0196732150104
 21
56.53354698090243
 31
0.0
  0
CIRCLE
  5
16F8
330
18
100
AcDbEntity
  8
1
  6
Continuous
100
AcDbCircle
 10
121.2134142150104
 20
154.0335469809024
 30
0.0
 40
2.25
  0
LINE
  5
16F9
330
18
100
AcDbEntity
  8
1
  6
Continuous
100
AcDbLine
 10
117.5571552150105
 20
154.5335469809024
 30
0.0
 11
119.0196732150104
 21
154.5335469809024
 31
0.0
  0
LINE
  5
16FA
330
18
100
AcDbEntity
  8
1
  6
Continuous
100
AcDbLine
 10
117.5571552150105
 20
153.5335469809024
 30
0.0
 11
119.0196732150104
 21
153.5335469809024
 31
0.0
  0
CIRCLE
  5
16FB
330
18
100
AcDbEntity
  8
1
  6
Continuous
100
AcDbCircle
 10
115.3634142150104
 20
105.5335469809024
 30
0.0
 40
2.25
  0
LINE
  5
16FC
330
18
100
AcDbEntity
  8
1
  6
Continuous
100
AcDbLine
 10
111.7071552150105
 20
105.0335469809023
 30
0.0
 11
113.1696732150104
 21
105.0335469809023
 31
0.0
  0
LINE
  5
16FD
330
18
100
AcDbEntity
  8
1
  6
Continuous
100
AcDbLine
 10
111.7071552150105
 20
106.0335469809023
 30
0.0
 11
113.1696732150104
 21
106.0335469809023
 31
0.0
  0
CIRCLE
  5
16FE
330
18
100
AcDbEntity
  8
1
  6
Continuous
100
AcDbCircle
 10
115.3634142150104
 20
57.03354698090244
 30
0.0
 40
2.25
  0
LINE
  5
16FF
330
18
100
AcDbEntity
  8
1
  6
Continuous
100
AcDbLine
 10
111.7071552150105
 20
57.53354698090244
 30
0.0
 11
113.1696732150104
 21
57.53354698090244
 31
0.0
  0
LINE
  5
1700
330
18
100
AcDbEntity
  8
1
  6
Continuous
100
AcDbLine
 10
111.7071552150105
 20
56.53354698090243
 30
0.0
 11
113.1696732150104
 21
56.53354698090243
 31
0.0
  0
CIRCLE
  5
1701
330
18
100
AcDbEntity
  8
1
  6
Continuous
100
AcDbCircle
 10
115.3634142150104
 20
154.0335469809024
 30
0.0
 40
2.25
  0
LINE
  5
1702
330
18
100
AcDbEntity
  8
1
  6
Continuous
100
AcDbLine
 10
111.7071552150105
 20
154.5335469809024
 30
0.0
 11
113.1696732150104
 21
154.5335469809024
 31
0.0
  0
LINE
  5
1703
330
18
100
AcDbEntity
  8
1
  6
Continuous
100
AcDbLine
 10
111.7071552150105
 20
153.5335469809024
 30
0.0
 11
113.1696732150104
 21
153.5335469809024
 31
0.0
  0
CIRCLE
  5
1704
330
18
100
AcDbEntity
  8
1
  6
Continuous
100
AcDbCircle
 10
109.5134142150104
 20
105.5335469809024
 30
0.0
 40
2.25
  0
LINE
  5
1705
330
18
100
AcDbEntity
  8
1
  6
Continuous
100
AcDbLine
 10
105.8571552150105
 20
105.0335469809023
 30
0.0
 11
107.3196732150104
 21
105.0335469809023
 31
0.0
  0
LINE
  5
1706
330
18
100
AcDbEntity
  8
1
  6
Continuous
100
AcDbLine
 10
105.8571552150105
 20
106.0335469809023
 30
0.0
 11
107.3196732150104
 21
106.0335469809023
 31
0.0
  0
CIRCLE
  5
1707
330
18
100
AcDbEntity
  8
1
  6
Continuous
100
AcDbCircle
 10
109.5134142150104
 20
57.03354698090244
 30
0.0
 40
2.25
  0
LINE
  5
1708
330
18
100
AcDbEntity
  8
1
  6
Continuous
100
AcDbLine
 10
105.8571552150105
 20
57.53354698090244
 30
0.0
 11
107.3196732150104
 21
57.53354698090244
 31
0.0
  0
LINE
  5
1709
330
18
100
AcDbEntity
  8
1
  6
Continuous
100
AcDbLine
 10
105.8571552150105
 20
56.53354698090243
 30
0.0
 11
107.3196732150104
 21
56.53354698090243
 31
0.0
  0
CIRCLE
  5
170A
330
18
100
AcDbEntity
  8
1
  6
Continuous
100
AcDbCircle
 10
109.5134142150104
 20
154.0335469809024
 30
0.0
 40
2.25
  0
LINE
  5
170B
330
18
100
AcDbEntity
  8
1
  6
Continuous
100
AcDbLine
 10
105.8571552150105
 20
154.5335469809024
 30
0.0
 11
107.3196732150104
 21
154.5335469809024
 31
0.0
  0
LINE
  5
170C
330
18
100
AcDbEntity
  8
1
  6
Continuous
100
AcDbLine
 10
105.8571552150105
 20
153.5335469809024
 30
0.0
 11
107.3196732150104
 21
153.5335469809024
 31
0.0
  0
CIRCLE
  5
170D
330
18
100
AcDbEntity
  8
1
  6
Continuous
100
AcDbCircle
 10
103.6634142150104
 20
105.5335469809024
 30
0.0
 40
2.25
  0
LINE
  5
170E
330
18
100
AcDbEntity
  8
1
  6
Continuous
100
AcDbLine
 10
100.0071552150105
 20
105.0335469809023
 30
0.0
 11
101.4696732150104
 21
105.0335469809023
 31
0.0
  0
LINE
  5
170F
330
18
100
AcDbEntity
  8
1
  6
Continuous
100
AcDbLine
 10
100.0071552150105
 20
106.0335469809023
 30
0.0
 11
101.4696732150104
 21
106.0335469809023
 31
0.0
  0
CIRCLE
  5
1710
330
18
100
AcDbEntity
  8
1
  6
Continuous
100
AcDbCircle
 10
103.6634142150104
 20
57.03354698090244
 30
0.0
 40
2.25
  0
LINE
  5
1711
330
18
100
AcDbEntity
  8
1
  6
Continuous
100
AcDbLine
 10
100.0071552150105
 20
57.53354698090244
 30
0.0
 11
101.4696732150104
 21
57.53354698090244
 31
0.0
  0
LINE
  5
1712
330
18
100
AcDbEntity
  8
1
  6
Continuous
100
AcDbLine
 10
100.0071552150105
 20
56.53354698090243
 30
0.0
 11
101.4696732150104
 21
56.53354698090243
 31
0.0
  0
CIRCLE
  5
1713
330
18
100
AcDbEntity
  8
1
  6
Continuous
100
AcDbCircle
 10
103.6634142150104
 20
154.0335469809024
 30
0.0
 40
2.25
  0
LINE
  5
1714
330
18
100
AcDbEntity
  8
1
  6
Continuous
100
AcDbLine
 10
100.0071552150105
 20
154.5335469809024
 30
0.0
 11
101.4696732150104
 21
154.5335469809024
 31
0.0
  0
LINE
  5
1715
330
18
100
AcDbEntity
  8
1
  6
Continuous
100
AcDbLine
 10
100.0071552150105
 20
153.5335469809024
 30
0.0
 11
101.4696732150104
 21
153.5335469809024
 31
0.0
  0
CIRCLE
  5
1716
330
18
100
AcDbEntity
  8
1
  6
Continuous
100
AcDbCircle
 10
97.81341421501045
 20
105.5335469809024
 30
0.0
 40
2.25
  0
LINE
  5
1717
330
18
100
AcDbEntity
  8
1
  6
Continuous
100
AcDbLine
 10
94.15715521501054
 20
105.0335469809023
 30
0.0
 11
95.61967321501043
 21
105.0335469809023
 31
0.0
  0
LINE
  5
1718
330
18
100
AcDbEntity
  8
1
  6
Continuous
100
AcDbLine
 10
94.15715521501054
 20
106.0335469809023
 30
0.0
 11
95.61967321501043
 21
106.0335469809023
 31
0.0
  0
CIRCLE
  5
1719
330
18
100
AcDbEntity
  8
1
  6
Continuous
100
AcDbCircle
 10
97.81341421501045
 20
57.03354698090244
 30
0.0
 40
2.25
  0
LINE
  5
171A
330
18
100
AcDbEntity
  8
1
  6
Continuous
100
AcDbLine
 10
94.15715521501054
 20
57.53354698090244
 30
0.0
 11
95.61967321501043
 21
57.53354698090244
 31
0.0
  0
LINE
  5
171B
330
18
100
AcDbEntity
  8
1
  6
Continuous
100
AcDbLine
 10
94.15715521501054
 20
56.53354698090243
 30
0.0
 11
95.61967321501043
 21
56.53354698090243
 31
0.0
  0
CIRCLE
  5
171C
330
18
100
AcDbEntity
  8
1
  6
Continuous
100
AcDbCircle
 10
97.81341421501045
 20
154.0335469809024
 30
0.0
 40
2.25
  0
LINE
  5
171D
330
18
100
AcDbEntity
  8
1
  6
Continuous
100
AcDbLine
 10
94.15715521501054
 20
154.5335469809024
 30
0.0
 11
95.61967321501043
 21
154.5335469809024
 31
0.0
  0
LINE
  5
171E
330
18
100
AcDbEntity
  8
1
  6
Continuous
100
AcDbLine
 10
94.15715521501054
 20
153.5335469809024
 30
0.0
 11
95.61967321501043
 21
153.5335469809024
 31
0.0
  0
CIRCLE
  5
171F
330
18
100
AcDbEntity
  8
1
  6
Continuous
100
AcDbCircle
 10
91.96341421501044
 20
105.5335469809024
 30
0.0
 40
2.25
  0
LINE
  5
1720
330
18
100
AcDbEntity
  8
1
  6
Continuous
100
AcDbLine
 10
88.30715521501055
 20
105.0335469809023
 30
0.0
 11
89.76967321501046
 21
105.0335469809023
 31
0.0
  0
LINE
  5
1721
330
18
100
AcDbEntity
  8
1
  6
Continuous
100
AcDbLine
 10
88.30715521501055
 20
106.0335469809023
 30
0.0
 11
89.76967321501046
 21
106.0335469809023
 31
0.0
  0
CIRCLE
  5
1722
330
18
100
AcDbEntity
  8
1
  6
Continuous
100
AcDbCircle
 10
91.96341421501044
 20
57.03354698090244
 30
0.0
 40
2.25
  0
LINE
  5
1723
330
18
100
AcDbEntity
  8
1
  6
Continuous
100
AcDbLine
 10
88.30715521501055
 20
57.53354698090244
 30
0.0
 11
89.76967321501046
 21
57.53354698090244
 31
0.0
  0
LINE
  5
1724
330
18
100
AcDbEntity
  8
1
  6
Continuous
100
AcDbLine
 10
88.30715521501055
 20
56.53354698090243
 30
0.0
 11
89.76967321501046
 21
56.53354698090243
 31
0.0
  0
CIRCLE
  5
1725
330
18
100
AcDbEntity
  8
1
  6
Continuous
100
AcDbCircle
 10
91.96341421501044
 20
154.0335469809024
 30
0.0
 40
2.25
  0
LINE
  5
1726
330
18
100
AcDbEntity
  8
1
  6
Continuous
100
AcDbLine
 10
88.30715521501055
 20
154.5335469809024
 30
0.0
 11
89.76967321501046
 21
154.5335469809024
 31
0.0
  0
LINE
  5
1727
330
18
100
AcDbEntity
  8
1
  6
Continuous
100
AcDbLine
 10
88.30715521501055
 20
153.5335469809024
 30
0.0
 11
89.76967321501046
 21
153.5335469809024
 31
0.0
  0
CIRCLE
  5
1728
330
18
100
AcDbEntity
  8
1
  6
Continuous
100
AcDbCircle
 10
86.11341421501045
 20
105.5335469809024
 30
0.0
 40
2.25
  0
LINE
  5
1729
330
18
100
AcDbEntity
  8
1
  6
Continuous
100
AcDbLine
 10
82.45715521501058
 20
105.0335469809023
 30
0.0
 11
83.91967321501047
 21
105.0335469809023
 31
0.0
  0
LINE
  5
172A
330
18
100
AcDbEntity
  8
1
  6
Continuous
100
AcDbLine
 10
82.45715521501058
 20
106.0335469809023
 30
0.0
 11
83.91967321501047
 21
106.0335469809023
 31
0.0
  0
CIRCLE
  5
172B
330
18
100
AcDbEntity
  8
1
  6
Continuous
100
AcDbCircle
 10
86.11341421501045
 20
57.03354698090244
 30
0.0
 40
2.25
  0
LINE
  5
172C
330
18
100
AcDbEntity
  8
1
  6
Continuous
100
AcDbLine
 10
82.45715521501058
 20
57.53354698090244
 30
0.0
 11
83.91967321501047
 21
57.53354698090244
 31
0.0
  0
LINE
  5
172D
330
18
100
AcDbEntity
  8
1
  6
Continuous
100
AcDbLine
 10
82.45715521501058
 20
56.53354698090243
 30
0.0
 11
83.91967321501047
 21
56.53354698090243
 31
0.0
  0
CIRCLE
  5
172E
330
18
100
AcDbEntity
  8
1
  6
Continuous
100
AcDbCircle
 10
86.11341421501045
 20
154.0335469809024
 30
0.0
 40
2.25
  0
LINE
  5
172F
330
18
100
AcDbEntity
  8
1
  6
Continuous
100
AcDbLine
 10
82.45715521501058
 20
154.5335469809024
 30
0.0
 11
83.91967321501047
 21
154.5335469809024
 31
0.0
  0
LINE
  5
1730
330
18
100
AcDbEntity
  8
1
  6
Continuous
100
AcDbLine
 10
82.45715521501058
 20
153.5335469809024
 30
0.0
 11
83.91967321501047
 21
153.5335469809024
 31
0.0
  0
CIRCLE
  5
1731
330
18
100
AcDbEntity
  8
1
  6
Continuous
100
AcDbCircle
 10
80.26341421501047
 20
105.5335469809024
 30
0.0
 40
2.25
  0
LINE
  5
1732
330
18
100
AcDbEntity
  8
1
  6
Continuous
100
AcDbLine
 10
76.60715521501058
 20
105.0335469809023
 30
0.0
 11
78.06967321501048
 21
105.0335469809023
 31
0.0
  0
LINE
  5
1733
330
18
100
AcDbEntity
  8
1
  6
Continuous
100
AcDbLine
 10
76.60715521501058
 20
106.0335469809023
 30
0.0
 11
78.06967321501048
 21
106.0335469809023
 31
0.0
  0
CIRCLE
  5
1734
330
18
100
AcDbEntity
  8
1
  6
Continuous
100
AcDbCircle
 10
80.26341421501047
 20
57.03354698090244
 30
0.0
 40
2.25
  0
LINE
  5
1735
330
18
100
AcDbEntity
  8
1
  6
Continuous
100
AcDbLine
 10
76.60715521501058
 20
57.53354698090244
 30
0.0
 11
78.06967321501048
 21
57.53354698090244
 31
0.0
  0
LINE
  5
1736
330
18
100
AcDbEntity
  8
1
  6
Continuous
100
AcDbLine
 10
76.60715521501058
 20
56.53354698090243
 30
0.0
 11
78.06967321501048
 21
56.53354698090243
 31
0.0
  0
CIRCLE
  5
1737
330
18
100
AcDbEntity
  8
1
  6
Continuous
100
AcDbCircle
 10
80.26341421501047
 20
154.0335469809024
 30
0.0
 40
2.25
  0
LINE
  5
1738
330
18
100
AcDbEntity
  8
1
  6
Continuous
100
AcDbLine
 10
76.60715521501058
 20
154.5335469809024
 30
0.0
 11
78.06967321501048
 21
154.5335469809024
 31
0.0
  0
LINE
  5
1739
330
18
100
AcDbEntity
  8
1
  6
Continuous
100
AcDbLine
 10
76.60715521501058
 20
153.5335469809024
 30
0.0
 11
78.06967321501048
 21
153.5335469809024
 31
0.0
  0
CIRCLE
  5
173A
330
18
100
AcDbEntity
  8
1
  6
Continuous
100
AcDbCircle
 10
74.41341421501047
 20
105.5335469809024
 30
0.0
 40
2.25
  0
LINE
  5
173B
330
18
100
AcDbEntity
  8
1
  6
Continuous
100
AcDbLine
 10
70.75715521501057
 20
105.0335469809023
 30
0.0
 11
72.21967321501049
 21
105.0335469809023
 31
0.0
  0
LINE
  5
173C
330
18
100
AcDbEntity
  8
1
  6
Continuous
100
AcDbLine
 10
70.75715521501057
 20
106.0335469809023
 30
0.0
 11
72.21967321501049
 21
106.0335469809023
 31
0.0
  0
CIRCLE
  5
173D
330
18
100
AcDbEntity
  8
1
  6
Continuous
100
AcDbCircle
 10
74.41341421501047
 20
57.03354698090244
 30
0.0
 40
2.25
  0
LINE
  5
173E
330
18
100
AcDbEntity
  8
1
  6
Continuous
100
AcDbLine
 10
70.75715521501057
 20
57.53354698090244
 30
0.0
 11
72.21967321501049
 21
57.53354698090244
 31
0.0
  0
LINE
  5
173F
330
18
100
AcDbEntity
  8
1
  6
Continuous
100
AcDbLine
 10
70.75715521501057
 20
56.53354698090243
 30
0.0
 11
72.21967321501049
 21
56.53354698090243
 31
0.0
  0
CIRCLE
  5
1740
330
18
100
AcDbEntity
  8
1
  6
Continuous
100
AcDbCircle
 10
74.41341421501047
 20
154.0335469809024
 30
0.0
 40
2.25
  0
LINE
  5
1741
330
18
100
AcDbEntity
  8
1
  6
Continuous
100
AcDbLine
 10
70.75715521501057
 20
154.5335469809024
 30
0.0
 11
72.21967321501049
 21
154.5335469809024
 31
0.0
  0
LINE
  5
1742
330
18
100
AcDbEntity
  8
1
  6
Continuous
100
AcDbLine
 10
70.75715521501057
 20
153.5335469809024
 30
0.0
 11
72.21967321501049
 21
153.5335469809024
 31
0.0
  0
CIRCLE
  5
1743
330
18
100
AcDbEntity
  8
1
  6
Continuous
100
AcDbCircle
 10
68.56341421501048
 20
105.5335469809024
 30
0.0
 40
2.25
  0
LINE
  5
1744
330
18
100
AcDbEntity
  8
1
  6
Continuous
100
AcDbLine
 10
64.90715521501059
 20
105.0335469809023
 30
0.0
 11
66.3696732150105
 21
105.0335469809023
 31
0.0
  0
LINE
  5
1745
330
18
100
AcDbEntity
  8
1
  6
Continuous
100
AcDbLine
 10
64.90715521501059
 20
106.0335469809023
 30
0.0
 11
66.3696732150105
 21
106.0335469809023
 31
0.0
  0
CIRCLE
  5
1746
330
18
100
AcDbEntity
  8
1
  6
Continuous
100
AcDbCircle
 10
68.56341421501048
 20
57.03354698090244
 30
0.0
 40
2.25
  0
LINE
  5
1747
330
18
100
AcDbEntity
  8
1
  6
Continuous
100
AcDbLine
 10
64.90715521501059
 20
57.53354698090244
 30
0.0
 11
66.3696732150105
 21
57.53354698090244
 31
0.0
  0
LINE
  5
1748
330
18
100
AcDbEntity
  8
1
  6
Continuous
100
AcDbLine
 10
64.90715521501059
 20
56.53354698090243
 30
0.0
 11
66.3696732150105
 21
56.53354698090243
 31
0.0
  0
CIRCLE
  5
1749
330
18
100
AcDbEntity
  8
1
  6
Continuous
100
AcDbCircle
 10
68.56341421501048
 20
154.0335469809024
 30
0.0
 40
2.25
  0
LINE
  5
174A
330
18
100
AcDbEntity
  8
1
  6
Continuous
100
AcDbLine
 10
64.90715521501059
 20
154.5335469809024
 30
0.0
 11
66.3696732150105
 21
154.5335469809024
 31
0.0
  0
LINE
  5
174B
330
18
100
AcDbEntity
  8
1
  6
Continuous
100
AcDbLine
 10
64.90715521501059
 20
153.5335469809024
 30
0.0
 11
66.3696732150105
 21
153.5335469809024
 31
0.0
  0
CIRCLE
  5
174C
330
18
100
AcDbEntity
  8
1
  6
Continuous
100
AcDbCircle
 10
62.71341421501048
 20
154.0335469809024
 30
0.0
 40
2.25
  0
LINE
  5
174D
330
18
100
AcDbEntity
  8
1
  6
Continuous
100
AcDbLine
 10
59.05715521501059
 20
153.5335469809024
 30
0.0
 11
60.5196732150105
 21
153.5335469809024
 31
0.0
  0
LINE
  5
174E
330
18
100
AcDbEntity
  8
1
  6
Continuous
100
AcDbLine
 10
59.05715521501059
 20
154.5335469809024
 30
0.0
 11
60.5196732150105
 21
154.5335469809024
 31
0.0
  0
CIRCLE
  5
178D
330
18
100
AcDbEntity
  8
1
  6
Continuous
100
AcDbCircle
 10
56.86341421501047
 20
154.0335469809024
 30
0.0
 40
2.25
  0
LINE
  5
178E
330
18
100
AcDbEntity
  8
1
  6
Continuous
100
AcDbLine
 10
53.20715521501059
 20
154.5335469809024
 30
0.0
 11
54.6696732150105
 21
154.5335469809024
 31
0.0
  0
LINE
  5
178F
330
18
100
AcDbEntity
  8
1
  6
Continuous
100
AcDbLine
 10
53.20715521501059
 20
153.5335469809024
 30
0.0
 11
54.6696732150105
 21
153.5335469809024
 31
0.0
  0
CIRCLE
  5
17E4
330
18
100
AcDbEntity
  8
1
  6
Continuous
100
AcDbCircle
 10
62.71341421501048
 20
105.5335469809024
 30
0.0
 40
2.25
  0
LINE
  5
17E5
330
18
100
AcDbEntity
  8
1
  6
Continuous
100
AcDbLine
 10
59.05715521501059
 20
106.0335469809023
 30
0.0
 11
60.5196732150105
 21
106.0335469809023
 31
0.0
  0
LINE
  5
17E6
330
18
100
AcDbEntity
  8
1
  6
Continuous
100
AcDbLine
 10
59.05715521501059
 20
105.0335469809023
 30
0.0
 11
60.5196732150105
 21
105.0335469809023
 31
0.0
  0
CIRCLE
  5
17E7
330
18
100
AcDbEntity
  8
1
  6
Continuous
100
AcDbCircle
 10
56.86341421501047
 20
105.5335469809024
 30
0.0
 40
2.25
  0
LINE
  5
17E8
330
18
100
AcDbEntity
  8
1
  6
Continuous
100
AcDbLine
 10
53.20715521501059
 20
105.0335469809023
 30
0.0
 11
54.6696732150105
 21
105.0335469809023
 31
0.0
  0
LINE
  5
17E9
330
18
100
AcDbEntity
  8
1
  6
Continuous
100
AcDbLine
 10
53.20715521501059
 20
106.0335469809023
 30
0.0
 11
54.6696732150105
 21
106.0335469809023
 31
0.0
  0
CIRCLE
  5
17F5
330
18
100
AcDbEntity
  8
1
  6
Continuous
100
AcDbCircle
 10
62.71341421501048
 20
57.03354698090244
 30
0.0
 40
2.25
  0
LINE
  5
17F6
330
18
100
AcDbEntity
  8
1
  6
Continuous
100
AcDbLine
 10
59.05715521501059
 20
56.53354698090243
 30
0.0
 11
60.5196732150105
 21
56.53354698090243
 31
0.0
  0
LINE
  5
17F7
330
18
100
AcDbEntity
  8
1
  6
Continuous
100
AcDbLine
 10
59.05715521501059
 20
57.53354698090244
 30
0.0
 11
60.5196732150105
 21
57.53354698090244
 31
0.0
  0
CIRCLE
  5
17F8
330
18
100
AcDbEntity
  8
1
  6
Continuous
100
AcDbCircle
 10
56.86341421501047
 20
57.03354698090244
 30
0.0
 40
2.25
  0
LINE
  5
17F9
330
18
100
AcDbEntity
  8
1
  6
Continuous
100
AcDbLine
 10
53.20715521501059
 20
57.53354698090244
 30
0.0
 11
54.6696732150105
 21
57.53354698090244
 31
0.0
  0
LINE
  5
17FA
330
18
100
AcDbEntity
  8
1
  6
Continuous
100
AcDbLine
 10
53.20715521501059
 20
56.53354698090243
 30
0.0
 11
54.6696732150105
 21
56.53354698090243
 31
0.0
  0
CIRCLE
  5
17FB
330
18
100
AcDbEntity
  8
1
  6
Continuous
100
AcDbCircle
 10
51.01341421501049
 20
57.03354698090244
 30
0.0
 40
2.25
  0
ENDSEC
  0
SECTION
  2
OBJECTS
  0
DICTIONARY
  5
C
330
0
100
AcDbDictionary
281
     1
  3
ACAD_CIP_PREVIOUS_PRODUCT_INFO
350
18D6
  3
ACAD_COLOR
350
18B9
  3
ACAD_DETAILVIEWSTYLE
350
18D2
  3
ACAD_GROUP
350
D
  3
ACAD_LAYOUT
350
94
  3
ACAD_MATERIAL
350
1887
  3
ACAD_MLEADERSTYLE
350
18CE
  3
ACAD_MLINESTYLE
350
1B
  3
ACAD_PLOTSETTINGS
350
95
  3
ACAD_PLOTSTYLENAME
350
1885
  3
ACAD_SCALELIST
350
18BC
  3
ACAD_SECTIONVIEWSTYLE
350
18D0
  3
ACAD_TABLESTYLE
350
18BA
  3
ACAD_VISUALSTYLE
350
18A0
  3
ACDB_RECOMPOSE_DATA
350
18F4
  3
AcDbVariableDictionary
350
18E7
  3
CONTENTDICTIONARY
350
3D
  3
DWGPROPS
350
18F5
  0
DICTIONARY
  5
18D7
330
E
100
AcDbDictionary
280
     1
281
     1
  3
ADSK_XREC_LAYER_RECONCILED
360
18D8
  0
DICTIONARY
  5
18D9
330
4E
100
AcDbDictionary
280
     1
281
     1
  3
ADSK_XREC_LAYER_RECONCILED
360
18DA
  0
DICTIONARY
  5
18DB
330
4F
100
AcDbDictionary
280
     1
281
     1
  3
ADSK_XREC_LAYER_RECONCILED
360
18DC
  0
DICTIONARY
  5
18DD
330
50
100
AcDbDictionary
280
     1
281
     1
  3
ADSK_XREC_LAYER_RECONCILED
360
18DE
  0
DICTIONARY
  5
18DF
330
51
100
AcDbDictionary
280
     1
281
     1
  3
ADSK_XREC_LAYER_RECONCILED
360
18E0
  0
DICTIONARY
  5
18E1
330
52
100
AcDbDictionary
280
     1
281
     1
  3
ADSK_XREC_LAYER_RECONCILED
360
18E2
  0
DICTIONARY
  5
18E3
330
53
100
AcDbDictionary
280
     1
281
     1
  3
ADSK_XREC_LAYER_RECONCILED
360
18E4
  0
DICTIONARY
  5
18E5
330
54
100
AcDbDictionary
280
     1
281
     1
  3
ADSK_XREC_LAYER_RECONCILED
360
18E6
  0
DICTIONARY
  5
1433
330
18
100
AcDbDictionary
281
     1
  3
ACAD_LAYOUTSELFREF
350
1881
  0
DICTIONARY
  5
1431
330
15
100
AcDbDictionary
281
     1
  3
ACAD_LAYOUTSELFREF
350
1880
  0
XRECORD
  5
18D6
102
{ACAD_REACTORS
330
C
102
}
330
C
100
AcDbXrecord
280
     1
300
ACDLT
300
2014
300
ACDLT_F_S
  0
DICTIONARY
  5
18B9
102
{ACAD_REACTORS
330
C
102
}
330
C
100
AcDbDictionary
281
     1
  0
DICTIONARY
  5
18D2
102
{ACAD_REACTORS
330
C
102
}
330
C
100
AcDbDictionary
281
     1
  3
Imperial24
350
18D3
  0
DICTIONARY
  5
D
102
{ACAD_REACTORS
330
C
102
}
330
C
100
AcDbDictionary
281
     1
  0
DICTIONARY
  5
94
102
{ACAD_REACTORS
330
C
102
}
330
C
100
AcDbDictionary
281
     1
  3
Model
350
18D4
  3
レイアウト1
350
18D5
  0
DICTIONARY
  5
1887
102
{ACAD_REACTORS
330
C
102
}
330
C
100
AcDbDictionary
281
     1
  3
ByBlock
350
1890
  3
ByLayer
350
1888
  3
Global
350
1898
  0
DICTIONARY
  5
18CE
102
{ACAD_REACTORS
330
C
102
}
330
C
100
AcDbDictionary
281
     1
  3
Standard
350
18CF
  0
DICTIONARY
  5
1B
102
{ACAD_REACTORS
330
C
102
}
330
C
100
AcDbDictionary
281
     1
  3
STANDARD
350
1C
  0
DICTIONARY
  5
95
102
{ACAD_REACTORS
330
C
102
}
330
C
100
AcDbDictionary
281
     1
  0
ACDBDICTIONARYWDFLT
  5
1885
102
{ACAD_REACTORS
330
C
102
}
330
C
100
AcDbDictionary
281
     1
  3
Normal
350
1886
100
AcDbDictionaryWithDefault
340
1886
  0
DICTIONARY
  5
18BC
102
{ACAD_REACTORS
330
C
102
}
330
C
100
AcDbDictionary
281
     1
  3
A0
350
18BD
  3
A1
350
18BE
  3
A2
350
18BF
  3
A3
350
18C0
  3
A4
350
18C1
  3
A5
350
18C2
  3
A6
350
18C3
  3
A7
350
18C4
  3
A8
350
18C5
  3
A9
350
18C6
  3
B0
350
18C7
  3
B1
350
18C8
  3
B2
350
18C9
  3
B3
350
18CA
  3
B4
350
18CB
  3
B5
350
18CC
  3
B6
350
18CD
  0
DICTIONARY
  5
18D0
102
{ACAD_REACTORS
330
C
102
}
330
C
100
AcDbDictionary
281
     1
  3
Imperial24
350
18D1
  0
DICTIONARY
  5
18BA
102
{ACAD_REACTORS
330
C
102
}
330
C
100
AcDbDictionary
281
     1
  3
Standard
350
18BB
  0
DICTIONARY
  5
18A0
102
{ACAD_REACTORS
330
C
102
}
330
C
100
AcDbDictionary
281
     1
  3
2dWireframe
350
18A6
  3
Basic
350
18A5
  3
Brighten
350
18AC
  3
ColorChange
350
18B0
  3
Conceptual
350
18A9
  3
Dim
350
18AB
  3
EdgeColorOff
350
18B8
  3
Facepattern
350
18AF
  3
Flat
350
18A1
  3
FlatWithEdges
350
18A2
  3
Gouraud
350
18A3
  3
GouraudWithEdges
350
18A4
  3
Hidden
350
18A8
  3
JitterOff
350
18B6
  3
Linepattern
350
18AE
  3
OverhangOff
350
18B7
  3
Realistic
350
18AA
  3
Shaded
350
18B5
  3
Shaded with edges
350
18B4
  3
Shades of Gray
350
18B1
  3
Sketchy
350
18B2
  3
Thicken
350
18AD
  3
Wireframe
350
18A7
  3
X-Ray
350
18B3
  0
XRECORD
  5
18F4
102
{ACAD_REACTORS
330
C
102
}
330
C
100
AcDbXrecord
280
     1
 90
        1
330
18BB
  0
DICTIONARY
  5
18E7
102
{ACAD_REACTORS
330
C
102
}
330
C
100
AcDbDictionary
281
     1
  3
CANNOSCALE
350
18EC
  3
CMLEADERSTYLE
350
18E9
  3
CTABLESTYLE
350
18E8
  3
CVIEWDETAILSTYLE
350
18EA
  3
CVIEWSECTIONSTYLE
350
18EB
  3
DIMASSOC
350
18EF
  3
INDEXCTL
350
18EE
  3
SORTENTS
350
18ED
  3
XCLIPFRAME
350
18F0
  0
DICTIONARY
  5
3D
102
{ACAD_REACTORS
330
C
102
}
330
C
100
AcDbDictionary
281
     1
  0
XRECORD
  5
18F5
102
{ACAD_REACTORS
330
C
102
}
330
C
100
AcDbXrecord
280
     1
  1
DWGPROPS COOKIE
  2

  3

  4

  6

  7

  8
Yoshitsune
  9

300
=
301
=
302
=
303
=
304
=
305
=
306
=
307
=
308
=
309
=
 40
0.0344626620370371
 41
2454167.477547917
 42
2457192.656985405
  1

 90
        0
  0
XRECORD
  5
18D8
102
{ACAD_REACTORS
330
18D7
102
}
330
18D7
100
AcDbXrecord
280
     1
290
     1
  0
XRECORD
  5
18DA
102
{ACAD_REACTORS
330
18D9
102
}
330
18D9
100
AcDbXrecord
280
     1
290
     1
  0
XRECORD
  5
18DC
102
{ACAD_REACTORS
330
18DB
102
}
330
18DB
100
AcDbXrecord
280
     1
290
     1
  0
XRECORD
  5
18DE
102
{ACAD_REACTORS
330
18DD
102
}
330
18DD
100
AcDbXrecord
280
     1
290
     1
  0
XRECORD
  5
18E0
102
{ACAD_REACTORS
330
18DF
102
}
330
18DF
100
AcDbXrecord
280
     1
290
     1
  0
XRECORD
  5
18E2
102
{ACAD_REACTORS
330
18E1
102
}
330
18E1
100
AcDbXrecord
280
     1
290
     1
  0
XRECORD
  5
18E4
102
{ACAD_REACTORS
330
18E3
102
}
330
18E3
100
AcDbXrecord
280
     1
290
     1
  0
XRECORD
  5
18E6
102
{ACAD_REACTORS
330
18E5
102
}
330
18E5
100
AcDbXrecord
280
     1
290
     1
  0
XRECORD
  5
1881
102
{ACAD_REACTORS
330
1433
102
}
330
1433
100
AcDbXrecord
280
     1
340
18
  0
XRECORD
  5
1880
102
{ACAD_REACTORS
330
1431
102
}
330
1431
100
AcDbXrecord
280
     1
340
15
  0
ACDBDETAILVIEWSTYLE
  5
18D3
102
{ACAD_XDICTIONARY
360
192D
102
}
102
{ACAD_REACTORS
330
18D2
102
}
330
18D2
100
AcDbModelDocViewStyle
 70
     0
  3
Imperial24
290
     0
100
AcDbDetailViewStyle
 70
     0
 71
     0
 90
        3
 71
     1
340
F
 40
0.24
340
0
 40
0.24
300

 40
0.36
280
     3
 71
     2
340
14
 90
       25
 71
     3
340
F
 40
0.24
 90
        1
 40
0.75
 90
        1
300
%<\AcVar ViewType \f "%tc1">% %<\AcVar ViewDetailId>%\PSCALE %<\AcVar ViewScale \f "%sn">%
 71
     4
340
14
 90
       25
340
14
 90
       25
280
     0
  0
LAYOUT
  5
18D4
102
{ACAD_XDICTIONARY
360
192F
102
}
102
{ACAD_REACTORS
330
94
102
}
330
94
100
AcDbPlotSettings
  1

  2
Canon LBP9100C
  4

  6

 40
0.0
 41
0.0
 42
0.0
 43
0.0
 44
0.0
 45
0.0
 46
0.0
 47
0.0
 48
0.0
 49
0.0
140
0.0
141
0.0
142
1.0
143
1.0
 70
  1712
 72
     0
 73
     0
 74
     0
  7

 75
     0
147
1.0
148
0.0
149
0.0
100
AcDbLayout
  1
Model
 70
     1
 71
     0
 10
0.0
 20
0.0
 11
12.0
 21
9.0
 12
0.0
 22
0.0
 32
0.0
 14
0.0
 24
0.0
 34
0.0
 15
0.0
 25
0.0
 35
0.0
146
0.0
 13
0.0
 23
0.0
 33
0.0
 16
1.0
 26
0.0
 36
0.0
 17
0.0
 27
1.0
 37
0.0
 76
     0
330
18
331
187F
  0
LAYOUT
  5
18D5
102
{ACAD_XDICTIONARY
360
1931
102
}
102
{ACAD_REACTORS
330
94
102
}
330
94
100
AcDbPlotSettings
  1

  2
Canon LBP9100C
  4

  6

 40
0.0
 41
0.0
 42
0.0
 43
0.0
 44
0.0
 45
0.0
 46
0.0
 47
0.0
 48
0.0
 49
0.0
140
0.0
141
0.0
142
1.0
143
1.0
 70
   688
 72
     0
 73
     0
 74
     5
  7

 75
    16
147
1.0
148
0.0
149
0.0
100
AcDbLayout
  1
レイアウト1
 70
     1
 71
     1
 10
0.0
 20
0.0
 11
420.0
 21
297.0
 12
0.0
 22
0.0
 32
0.0
 14
1.000000000000000E+20
 24
1.000000000000000E+20
 34
1.000000000000000E+20
 15
-1.000000000000000E+20
 25
-1.000000000000000E+20
 35
-1.000000000000000E+20
146
0.0
 13
0.0
 23
0.0
 33
0.0
 16
1.0
 26
0.0
 36
0.0
 17
0.0
 27
1.0
 37
0.0
 76
     0
330
15
  0
MATERIAL
  5
1890
102
{ACAD_XDICTIONARY
360
1891
102
}
102
{ACAD_REACTORS
330
1887
102
}
330
1887
100
AcDbMaterial
  1
ByBlock
 72
     0
 43
0.0208333333333333
 43
0.0
 43
0.0
 43
0.0
 43
0.0
 43
0.0208333333333333
 43
0.0
 43
0.0
 43
0.0
 43
0.0
 43
1.0
 43
0.0
 43
0.0
 43
0.0
 43
0.0
 43
1.0
 77
     0
 47
0.0208333333333333
 47
0.0
 47
0.0
 47
0.0
 47
0.0
 47
0.0208333333333333
 47
0.0
 47
0.0
 47
0.0
 47
0.0
 47
1.0
 47
0.0
 47
0.0
 47
0.0
 47
0.0
 47
1.0
171
     0
 49
0.0208333333333333
 49
0.0
 49
0.0
 49
0.0
 49
0.0
 49
0.0208333333333333
 49
0.0
 49
0.0
 49
0.0
 49
0.0
 49
1.0
 49
0.0
 49
0.0
 49
0.0
 49
0.0
 49
1.0
175
     0
142
0.0208333333333333
142
0.0
142
0.0
142
0.0
142
0.0
142
0.0208333333333333
142
0.0
142
0.0
142
0.0
142
0.0
142
1.0
142
0.0
142
0.0
142
0.0
142
0.0
142
1.0
179
     0
144
0.0208333333333333
144
0.0
144
0.0
144
0.0
144
0.0
144
0.0208333333333333
144
0.0
144
0.0
144
0.0
144
0.0
144
1.0
144
0.0
144
0.0
144
0.0
144
0.0
144
1.0
147
0.0208333333333333
147
0.0
147
0.0
147
0.0
147
0.0
147
0.0208333333333333
147
0.0
147
0.0
147
0.0
147
0.0
147
1.0
147
0.0
147
0.0
147
0.0
147
0.0
147
1.0
  0
MATERIAL
  5
1888
102
{ACAD_XDICTIONARY
360
1889
102
}
102
{ACAD_REACTORS
330
1887
102
}
330
1887
100
AcDbMaterial
  1
ByLayer
 72
     0
 43
0.0208333333333333
 43
0.0
 43
0.0
 43
0.0
 43
0.0
 43
0.0208333333333333
 43
0.0
 43
0.0
 43
0.0
 43
0.0
 43
1.0
 43
0.0
 43
0.0
 43
0.0
 43
0.0
 43
1.0
 77
     0
 47
0.0208333333333333
 47
0.0
 47
0.0
 47
0.0
 47
0.0
 47
0.0208333333333333
 47
0.0
 47
0.0
 47
0.0
 47
0.0
 47
1.0
 47
0.0
 47
0.0
 47
0.0
 47
0.0
 47
1.0
171
     0
 49
0.0208333333333333
 49
0.0
 49
0.0
 49
0.0
 49
0.0
 49
0.0208333333333333
 49
0.0
 49
0.0
 49
0.0
 49
0.0
 49
1.0
 49
0.0
 49
0.0
 49
0.0
 49
0.0
 49
1.0
175
     0
142
0.0208333333333333
142
0.0
142
0.0
142
0.0
142
0.0
142
0.0208333333333333
142
0.0
142
0.0
142
0.0
142
0.0
142
1.0
142
0.0
142
0.0
142
0.0
142
0.0
142
1.0
179
     0
144
0.0208333333333333
144
0.0
144
0.0
144
0.0
144
0.0
144
0.0208333333333333
144
0.0
144
0.0
144
0.0
144
0.0
144
1.0
144
0.0
144
0.0
144
0.0
144
0.0
144
1.0
147
0.0208333333333333
147
0.0
147
0.0
147
0.0
147
0.0
147
0.0208333333333333
147
0.0
147
0.0
147
0.0
147
0.0
147
1.0
147
0.0
147
0.0
147
0.0
147
0.0
147
1.0
  0
MATERIAL
  5
1898
102
{ACAD_XDICTIONARY
360
1899
102
}
102
{ACAD_REACTORS
330
1887
102
}
330
1887
100
AcDbMaterial
  1
Global
 72
     0
 43
0.0208333333333333
 43
0.0
 43
0.0
 43
0.0
 43
0.0
 43
0.0208333333333333
 43
0.0
 43
0.0
 43
0.0
 43
0.0
 43
1.0
 43
0.0
 43
0.0
 43
0.0
 43
0.0
 43
1.0
 77
     0
 47
0.0208333333333333
 47
0.0
 47
0.0
 47
0.0
 47
0.0
 47
0.0208333333333333
 47
0.0
 47
0.0
 47
0.0
 47
0.0
 47
1.0
 47
0.0
 47
0.0
 47
0.0
 47
0.0
 47
1.0
171
     0
 49
0.0208333333333333
 49
0.0
 49
0.0
 49
0.0
 49
0.0
 49
0.0208333333333333
 49
0.0
 49
0.0
 49
0.0
 49
0.0
 49
1.0
 49
0.0
 49
0.0
 49
0.0
 49
0.0
 49
1.0
175
     0
142
0.0208333333333333
142
0.0
142
0.0
142
0.0
142
0.0
142
0.0208333333333333
142
0.0
142
0.0
142
0.0
142
0.0
142
1.0
142
0.0
142
0.0
142
0.0
142
0.0
142
1.0
179
     0
144
0.0208333333333333
144
0.0
144
0.0
144
0.0
144
0.0
144
0.0208333333333333
144
0.0
144
0.0
144
0.0
144
0.0
144
1.0
144
0.0
144
0.0
144
0.0
144
0.0
144
1.0
147
0.0208333333333333
147
0.0
147
0.0
147
0.0
147
0.0
147
0.0208333333333333
147
0.0
147
0.0
147
0.0
147
0.0
147
1.0
147
0.0
147
0.0
147
0.0
147
0.0
147
1.0
  0
MLEADERSTYLE
  5
18CF
102
{ACAD_REACTORS
330
18CE
102
}
330
18CE
100
AcDbMLeaderStyle
170
     2
171
     1
172
     0
 90
        2
 40
0.0
 41
0.0
173
     1
 91
-1056964608
340
12
 92
       -2
290
     1
 42
0.09
291
     1
 43
0.36
  3
Standard
 44
0.18
300

342
F
174
     1
178
     6
175
     1
176
     0
 93
-1056964608
 45
0.18
292
     0
297
     0
 46
0.18
 94
-1056964608
 47
1.0
 49
1.0
140
1.0
293
     1
141
0.0
294
     1
177
     0
142
1.0
295
     0
296
     0
143
0.125
1001
ACAD_MLEADERVER
1070
     2
  0
MLINESTYLE
  5
1C
102
{ACAD_REACTORS
330
1B
102
}
330
1B
100
AcDbMlineStyle
  2
STANDARD
 70
     0
  3

 62
   256
 51
90.0
 52
90.0
 71
     2
 49
0.5
 62
   256
  6
BYLAYER
 49
-0.5
 62
   256
  6
BYLAYER
  0
ACDBPLACEHOLDER
  5
1886
102
{ACAD_REACTORS
330
1885
102
}
330
1885
  0
SCALE
  5
18BD
102
{ACAD_REACTORS
330
18BC
102
}
330
18BC
100
AcDbScale
 70
     0
300
1:1
140
1.0
141
1.0
290
     1
  0
SCALE
  5
18BE
102
{ACAD_REACTORS
330
18BC
102
}
330
18BC
100
AcDbScale
 70
     0
300
1/128" = 1'-0"
140
0.0078125
141
12.0
290
     0
  0
SCALE
  5
18BF
102
{ACAD_REACTORS
330
18BC
102
}
330
18BC
100
AcDbScale
 70
     0
300
1/64" = 1'-0"
140
0.015625
141
12.0
290
     0
  0
SCALE
  5
18C0
102
{ACAD_REACTORS
330
18BC
102
}
330
18BC
100
AcDbScale
 70
     0
300
1/32" = 1'-0"
140
0.03125
141
12.0
290
     0
  0
SCALE
  5
18C1
102
{ACAD_REACTORS
330
18BC
102
}
330
18BC
100
AcDbScale
 70
     0
300
1/16" = 1'-0"
140
0.0625
141
12.0
290
     0
  0
SCALE
  5
18C2
102
{ACAD_REACTORS
330
18BC
102
}
330
18BC
100
AcDbScale
 70
     0
300
3/32" = 1'-0"
140
0.09375
141
12.0
290
     0
  0
SCALE
  5
18C3
102
{ACAD_REACTORS
330
18BC
102
}
330
18BC
100
AcDbScale
 70
     0
300
1/8" = 1'-0"
140
0.125
141
12.0
290
     0
  0
SCALE
  5
18C4
102
{ACAD_REACTORS
330
18BC
102
}
330
18BC
100
AcDbScale
 70
     0
300
3/16" = 1'-0"
140
0.1875
141
12.0
290
     0
  0
SCALE
  5
18C5
102
{ACAD_REACTORS
330
18BC
102
}
330
18BC
100
AcDbScale
 70
     0
300
1/4" = 1'-0"
140
0.25
141
12.0
290
     0
  0
SCALE
  5
18C6
102
{ACAD_REACTORS
330
18BC
102
}
330
18BC
100
AcDbScale
 70
     0
300
3/8" = 1'-0"
140
0.375
141
12.0
290
     0
  0
SCALE
  5
18C7
102
{ACAD_REACTORS
330
18BC
102
}
330
18BC
100
AcDbScale
 70
     0
300
1/2" = 1'-0"
140
0.5
141
12.0
290
     0
  0
SCALE
  5
18C8
102
{ACAD_REACTORS
330
18BC
102
}
330
18BC
100
AcDbScale
 70
     0
300
3/4" = 1'-0"
140
0.75
141
12.0
290
     0
  0
SCALE
  5
18C9
102
{ACAD_REACTORS
330
18BC
102
}
330
18BC
100
AcDbScale
 70
     0
300
1" = 1'-0"
140
1.0
141
12.0
290
     0
  0
SCALE
  5
18CA
102
{ACAD_REACTORS
330
18BC
102
}
330
18BC
100
AcDbScale
 70
     0
300
1-1/2" = 1'-0"
140
1.5
141
12.0
290
     0
  0
SCALE
  5
18CB
102
{ACAD_REACTORS
330
18BC
102
}
330
18BC
100
AcDbScale
 70
     0
300
3" = 1'-0"
140
3.0
141
12.0
290
     0
  0
SCALE
  5
18CC
102
{ACAD_REACTORS
330
18BC
102
}
330
18BC
100
AcDbScale
 70
     0
300
6" = 1'-0"
140
6.0
141
12.0
290
     0
  0
SCALE
  5
18CD
102
{ACAD_REACTORS
330
18BC
102
}
330
18BC
100
AcDbScale
 70
     0
300
1'-0" = 1'-0"
140
12.0
141
12.0
290
     0
  0
ACDBSECTIONVIEWSTYLE
  5
18D1
102
{ACAD_XDICTIONARY
360
192B
102
}
102
{ACAD_REACTORS
330
18D0
102
}
330
18D0
100
AcDbModelDocViewStyle
 70
     0
  3
Imperial24
290
     0
100
AcDbSectionViewStyle
 70
     0
 71
     0
 90
       78
 71
     1
340
F
 40
0.24
340
0
340
0
 40
0.24
300
I, O, Q, S, X, Z
 40
0.48
 90
        3
 40
0.18
 90
        1
 71
     2
340
14
 90
       25
340
14
 90
       50
 40
0.24
 40
0.0
 40
0.24
 71
     3
340
F
 40
0.24
 90
        1
 40
0.75
 90
        1
300
%<\AcVar ViewType \f "%tc1">% %<\AcVar ViewSectionStartId>%-%<\AcVar ViewSectionEndId>%\PSCALE %<\AcVar ViewScale \f "%sn">%
 71
     4
300
ANSI31
 40
1.0
 90
        0
290
     0
290
     0
 90
        6
 40
0.0
 40
1.570796326794896
 40
0.2617993877991494
 40
1.308996938995747
 40
-0.2617993877991494
 40
1.832595714594046
  0
TABLESTYLE
  5
18BB
102
{ACAD_XDICTIONARY
360
18F2
102
}
102
{ACAD_REACTORS
330
18BA
102
}
330
18BA
100
AcDbTableStyle
  3
Standard
 70
     0
 71
     0
 40
0.06
 41
0.06
280
     0
281
     0
  7
STANDARD
140
0.18
170
     2
 62
     0
 63
     7
283
     0
274
    -2
284
     1
 64
     0
275
    -2
285
     1
 65
     0
276
    -2
286
     1
 66
     0
277
    -2
287
     1
 67
     0
278
    -2
288
     1
 68
     0
279
    -2
289
     1
 69
     0
  7
STANDARD
140
0.25
170
     5
 62
     0
 63
     7
283
     0
274
    -2
284
     1
 64
     0
275
    -2
285
     1
 65
     0
276
    -2
286
     1
 66
     0
277
    -2
287
     1
 67
     0
278
    -2
288
     1
 68
     0
279
    -2
289
     1
 69
     0
  7
STANDARD
140
0.18
170
     5
 62
     0
 63
     7
283
     0
274
    -2
284
     1
 64
     0
275
    -2
285
     1
 65
     0
276
    -2
286
     1
 66
     0
277
    -2
287
     1
 67
     0
278
    -2
288
     1
 68
     0
279
    -2
289
     1
 69
     0
  0
VISUALSTYLE
  5
18A6
102
{ACAD_XDICTIONARY
360
1903
102
}
102
{ACAD_REACTORS
330
18A0
102
}
330
18A0
100
AcDbVisualStyle
  2
2dWireframe
 70
     4
 71
     0
 72
     2
 73
     0
 90
        0
 40
-0.6
 41
-30.0
 62
     5
 63
     7
 74
     1
 91
        4
 64
     7
 65
   257
 75
     1
175
     1
 42
1.0
 92
        0
 66
   257
 43
1.0
 76
     1
 77
     6
 78
     2
 67
     7
 79
     5
170
     0
171
     0
290
     0
174
     0
 93
        1
 44
0.0
173
     0
291
     0
 45
0.0
1001
ACAD
1000
AcDbSavedByObjectVersion
1070
     0
  0
VISUALSTYLE
  5
18A5
102
{ACAD_XDICTIONARY
360
1901
102
}
102
{ACAD_REACTORS
330
18A0
102
}
330
18A0
100
AcDbVisualStyle
  2
Basic
 70
     7
 71
     1
 72
     0
 73
     1
 90
        0
 40
-0.6
 41
-30.0
 62
     5
 63
     7
 74
     0
 91
        4
 64
     7
 65
   257
 75
     1
175
     1
 42
1.0
 92
        8
 66
     7
 43
1.0
 76
     1
 77
     6
 78
     2
 67
     7
 79
     5
170
     0
171
     0
290
     0
174
     0
 93
        1
 44
0.0
173
     0
291
     1
 45
0.0
1001
ACAD
1000
AcDbSavedByObjectVersion
1070
     0
  0
VISUALSTYLE
  5
18AC
102
{ACAD_XDICTIONARY
360
190F
102
}
102
{ACAD_REACTORS
330
18A0
102
}
330
18A0
100
AcDbVisualStyle
  2
Brighten
 70
    12
 71
     2
 72
     2
 73
     0
 90
        0
 40
-0.6
 41
-30.0
 62
     5
 63
     7
 74
     1
 91
        4
 64
     7
 65
   257
 75
     1
175
     1
 42
1.0
 92
        8
 66
     7
 43
1.0
 76
     1
 77
     6
 78
     2
 67
     7
 79
     5
170
     0
171
     0
290
     0
174
     0
 93
        1
 44
50.0
173
     0
291
     1
 45
0.0
1001
ACAD
1000
AcDbSavedByObjectVersion
1070
     0
  0
VISUALSTYLE
  5
18B0
102
{ACAD_XDICTIONARY
360
1917
102
}
102
{ACAD_REACTORS
330
18A0
102
}
330
18A0
100
AcDbVisualStyle
  2
ColorChange
 70
    16
 71
     2
 72
     2
 73
     3
 90
        0
 40
-0.6
 41
-30.0
 62
     5
 63
     8
 74
     1
 91
        4
 64
     7
 65
   257
 75
     1
175
     1
 42
1.0
 92
        8
 66
     8
 43
1.0
 76
     1
 77
     6
 78
     2
 67
     7
 79
     5
170
     0
171
     0
290
     0
174
     0
 93
        1
 44
0.0
173
     0
291
     1
 45
0.0
1001
ACAD
1000
AcDbSavedByObjectVersion
1070
     0
  0
VISUALSTYLE
  5
18A9
102
{ACAD_XDICTIONARY
360
1909
102
}
102
{ACAD_REACTORS
330
18A0
102
}
330
18A0
100
AcDbVisualStyle
  2
Conceptual
 70
     9
 71
     3
 72
     2
 73
     0
 90
        0
 40
-0.6
 41
-30.0
 62
     5
 63
     7
 74
     2
 91
        2
 64
     7
 65
   257
 75
     1
175
     1
 42
179.0
 92
        8
 66
     7
 43
1.0
 76
     1
 77
     6
 78
     2
 67
     7
 79
     3
170
     0
171
     0
290
     0
174
     0
 93
        1
 44
0.0
173
     0
291
     0
 45
0.0
1001
ACAD
1000
AcDbSavedByObjectVersion
1070
     0
  0
VISUALSTYLE
  5
18AB
102
{ACAD_XDICTIONARY
360
190D
102
}
102
{ACAD_REACTORS
330
18A0
102
}
330
18A0
100
AcDbVisualStyle
  2
Dim
 70
    11
 71
     2
 72
     2
 73
     0
 90
        0
 40
-0.6
 41
-30.0
 62
     5
 63
     7
 74
     1
 91
        4
 64
     7
 65
   257
 75
     1
175
     1
 42
1.0
 92
        8
 66
     7
 43
1.0
 76
     1
 77
     6
 78
     2
 67
     7
 79
     5
170
     0
171
     0
290
     0
174
     0
 93
        1
 44
-50.0
173
     0
291
     1
 45
0.0
1001
ACAD
1000
AcDbSavedByObjectVersion
1070
     0
  0
VISUALSTYLE
  5
18B8
102
{ACAD_XDICTIONARY
360
1927
102
}
102
{ACAD_REACTORS
330
18A0
102
}
330
18A0
100
AcDbVisualStyle
  2
EdgeColorOff
 70
    22
 71
     2
 72
     2
 73
     0
 90
        0
 40
-0.6
 41
-30.0
 62
     5
 63
     7
 74
     1
 91
        4
 64
     7
 65
   257
 75
     1
175
     1
 42
1.0
 92
        8
 66
     7
 43
1.0
 76
     1
 77
     6
 78
     2
 67
     7
 79
     5
170
     0
171
     0
290
     0
174
     0
 93
        1
 44
0.0
173
     0
291
     1
 45
0.0
1001
ACAD
1000
AcDbSavedByObjectVersion
1070
     0
  0
VISUALSTYLE
  5
18AF
102
{ACAD_XDICTIONARY
360
1915
102
}
102
{ACAD_REACTORS
330
18A0
102
}
330
18A0
100
AcDbVisualStyle
  2
Facepattern
 70
    15
 71
     2
 72
     2
 73
     0
 90
        0
 40
-0.6
 41
-30.0
 62
     5
 63
     7
 74
     1
 91
        4
 64
     7
 65
   257
 75
     1
175
     1
 42
1.0
 92
        8
 66
     7
 43
1.0
 76
     1
 77
     6
 78
     2
 67
     7
 79
     5
170
     0
171
     0
290
     0
174
     0
 93
        1
 44
0.0
173
     0
291
     1
 45
0.0
1001
ACAD
1000
AcDbSavedByObjectVersion
1070
     0
  0
VISUALSTYLE
  5
18A1
102
{ACAD_XDICTIONARY
360
18F9
102
}
102
{ACAD_REACTORS
330
18A0
102
}
330
18A0
100
AcDbVisualStyle
  2
Flat
 70
     0
 71
     2
 72
     1
 73
     1
 90
        2
 40
-0.6
 41
30.0
 62
     5
 63
     7
 74
     0
 91
        0
 64
     7
 65
   257
 75
     1
175
     1
 42
1.0
 92
        8
 66
     7
 43
1.0
 76
     1
 77
     6
 78
     2
 67
     7
 79
     5
170
     0
171
     0
290
     0
174
     0
 93
       13
 44
0.0
173
     0
291
     1
 45
0.0
1001
ACAD
1000
AcDbSavedByObjectVersion
1070
     0
  0
VISUALSTYLE
  5
18A2
102
{ACAD_XDICTIONARY
360
18FB
102
}
102
{ACAD_REACTORS
330
18A0
102
}
330
18A0
100
AcDbVisualStyle
  2
FlatWithEdges
 70
     1
 71
     2
 72
     1
 73
     1
 90
        2
 40
-0.6
 41
30.0
 62
     5
 63
     7
 74
     1
 91
        0
 64
     7
 65
   257
 75
     1
175
     1
 42
1.0
 92
        0
 66
   257
 43
1.0
 76
     1
 77
     6
 78
     2
 67
     7
 79
     5
170
     0
171
     0
290
     0
174
     0
 93
       13
 44
0.0
173
     0
291
     1
 45
0.0
1001
ACAD
1000
AcDbSavedByObjectVersion
1070
     0
  0
VISUALSTYLE
  5
18A3
102
{ACAD_XDICTIONARY
360
18FD
102
}
102
{ACAD_REACTORS
330
18A0
102
}
330
18A0
100
AcDbVisualStyle
  2
Gouraud
 70
     2
 71
     2
 72
     2
 73
     1
 90
        2
 40
-0.6
 41
30.0
 62
     5
 63
     7
 74
     0
 91
        0
 64
     7
 65
   257
 75
     1
175
     1
 42
1.0
 92
        0
 66
     7
 43
1.0
 76
     1
 77
     6
 78
     2
 67
     7
 79
     5
170
     0
171
     0
290
     0
174
     0
 93
       13
 44
0.0
173
     0
291
     1
 45
0.0
1001
ACAD
1000
AcDbSavedByObjectVersion
1070
     0
  0
VISUALSTYLE
  5
18A4
102
{ACAD_XDICTIONARY
360
18FF
102
}
102
{ACAD_REACTORS
330
18A0
102
}
330
18A0
100
AcDbVisualStyle
  2
GouraudWithEdges
 70
     3
 71
     2
 72
     2
 73
     1
 90
        2
 40
-0.6
 41
30.0
 62
     5
 63
     7
 74
     1
 91
        0
 64
     7
 65
   257
 75
     1
175
     1
 42
1.0
 92
        0
 66
   257
 43
1.0
 76
     1
 77
     6
 78
     2
 67
     7
 79
     5
170
     0
171
     0
290
     0
174
     0
 93
       13
 44
0.0
173
     0
291
     1
 45
0.0
1001
ACAD
1000
AcDbSavedByObjectVersion
1070
     0
  0
VISUALSTYLE
  5
18A8
102
{ACAD_XDICTIONARY
360
1907
102
}
102
{ACAD_REACTORS
330
18A0
102
}
330
18A0
100
AcDbVisualStyle
  2
Hidden
 70
     6
 71
     1
 72
     2
 73
     2
 90
        0
 40
-0.6
 41
-30.0
 62
     5
 63
     7
 74
     2
 91
        2
 64
     7
 65
   257
 75
     2
175
     1
 42
40.0
 92
        0
 66
   257
 43
1.0
 76
     1
 77
     6
 78
     2
 67
     7
 79
     3
170
     0
171
     0
290
     0
174
     0
 93
        1
 44
0.0
173
     0
291
     0
 45
0.0
1001
ACAD
1000
AcDbSavedByObjectVersion
1070
     0
  0
VISUALSTYLE
  5
18B6
102
{ACAD_XDICTIONARY
360
1923
102
}
102
{ACAD_REACTORS
330
18A0
102
}
330
18A0
100
AcDbVisualStyle
  2
JitterOff
 70
    20
 71
     2
 72
     2
 73
     0
 90
        0
 40
-0.6
 41
-30.0
 62
     5
 63
     7
 74
     1
 91
        4
 64
     7
 65
   257
 75
     1
175
     1
 42
1.0
 92
       10
 66
     7
 43
1.0
 76
     1
 77
     6
 78
     2
 67
     7
 79
     5
170
     0
171
     0
290
     0
174
     0
 93
        1
 44
0.0
173
     0
291
     1
 45
0.0
1001
ACAD
1000
AcDbSavedByObjectVersion
1070
     0
  0
VISUALSTYLE
  5
18AE
102
{ACAD_XDICTIONARY
360
1913
102
}
102
{ACAD_REACTORS
330
18A0
102
}
330
18A0
100
AcDbVisualStyle
  2
Linepattern
 70
    14
 71
     2
 72
     2
 73
     0
 90
        0
 40
-0.6
 41
-30.0
 62
     5
 63
     7
 74
     1
 91
        4
 64
     7
 65
   257
 75
     7
175
     7
 42
1.0
 92
        8
 66
     7
 43
1.0
 76
     1
 77
     6
 78
     2
 67
     7
 79
     5
170
     0
171
     0
290
     0
174
     0
 93
        1
 44
0.0
173
     0
291
     1
 45
0.0
1001
ACAD
1000
AcDbSavedByObjectVersion
1070
     0
  0
VISUALSTYLE
  5
18B7
102
{ACAD_XDICTIONARY
360
1925
102
}
102
{ACAD_REACTORS
330
18A0
102
}
330
18A0
100
AcDbVisualStyle
  2
OverhangOff
 70
    21
 71
     2
 72
     2
 73
     0
 90
        0
 40
-0.6
 41
-30.0
 62
     5
 63
     7
 74
     1
 91
        4
 64
     7
 65
   257
 75
     1
175
     1
 42
1.0
 92
        9
 66
     7
 43
1.0
 76
     1
 77
     6
 78
     2
 67
     7
 79
     5
170
     0
171
     0
290
     0
174
     0
 93
        1
 44
0.0
173
     0
291
     1
 45
0.0
1001
ACAD
1000
AcDbSavedByObjectVersion
1070
     0
  0
VISUALSTYLE
  5
18AA
102
{ACAD_XDICTIONARY
360
190B
102
}
102
{ACAD_REACTORS
330
18A0
102
}
330
18A0
100
AcDbVisualStyle
  2
Realistic
 70
     8
 71
     2
 72
     3
 73
     0
 90
        2
 40
-0.6
 41
30.0
 62
     5
 63
     7
 74
     0
 91
        0
 64
     7
 65
   257
 75
     1
175
     1
 42
1.0
 92
        8
 66
   257
 43
1.0
 76
     1
 77
     6
 78
     2
 67
     7
 79
     3
170
     0
171
     0
290
     0
174
     0
 93
       13
 44
0.0
173
     0
291
     0
 45
0.0
1001
ACAD
1000
AcDbSavedByObjectVersion
1070
     0
  0
VISUALSTYLE
  5
18B5
102
{ACAD_XDICTIONARY
360
1921
102
}
102
{ACAD_REACTORS
330
18A0
102
}
330
18A0
100
AcDbVisualStyle
  2
Shaded
 70
    27
 71
     2
 72
     2
 73
     1
 90
        2
 40
-0.6
 41
30.0
 62
     5
 63
     7
 74
     0
 91
        4
 64
     7
 65
   257
 75
     1
175
     1
 42
1.0
 92
        8
 66
   257
 43
1.0
 76
     1
 77
     6
 78
     2
 67
     8
 79
     3
170
     0
171
     0
290
     0
174
     0
 93
        5
 44
0.0
173
     0
291
     0
 45
0.0
1001
ACAD
1000
AcDbSavedByObjectVersion
1070
     0
  0
VISUALSTYLE
  5
18B4
102
{ACAD_XDICTIONARY
360
191F
102
}
102
{ACAD_REACTORS
330
18A0
102
}
330
18A0
100
AcDbVisualStyle
  2
Shaded with edges
 70
    26
 71
     2
 72
     2
 73
     1
 90
        2
 40
-0.6
 41
30.0
 62
     5
 63
     7
 74
     1
 91
       10
 64
     7
 65
   257
 75
     2
175
     1
 42
1.0
 92
        8
 66
   257
 43
1.0
 76
     1
 77
     6
 78
     2
 67
     7
 79
     3
170
     0
171
     0
290
     0
174
     0
 93
        5
 44
0.0
173
     0
291
     0
 45
0.0
1001
ACAD
1000
AcDbSavedByObjectVersion
1070
     0
  0
VISUALSTYLE
  5
18B1
102
{ACAD_XDICTIONARY
360
1919
102
}
102
{ACAD_REACTORS
330
18A0
102
}
330
18A0
100
AcDbVisualStyle
  2
Shades of Gray
 70
    23
 71
     2
 72
     2
 73
     3
 90
        0
 40
-0.6
 41
-30.0
 62
     5
 63
     7
 74
     2
 91
        2
 64
     7
 65
     7
 75
     1
175
     1
 42
40.0
 92
        8
 66
     7
 43
1.0
 76
     1
 77
     6
 78
     2
 67
     7
 79
     3
170
     0
171
     0
290
     0
174
     0
 93
        1
 44
0.0
173
     0
291
     0
 45
0.0
1001
ACAD
1000
AcDbSavedByObjectVersion
1070
     0
  0
VISUALSTYLE
  5
18B2
102
{ACAD_XDICTIONARY
360
191B
102
}
102
{ACAD_REACTORS
330
18A0
102
}
330
18A0
100
AcDbVisualStyle
  2
Sketchy
 70
    24
 71
     1
 72
     2
 73
     2
 90
        0
 40
-0.6
 41
-30.0
 62
     5
 63
     7
 74
     2
 91
        2
 64
     7
 65
     7
 75
     1
175
     1
 42
40.0
 92
       11
 66
     7
 43
1.0
 76
     1
 77
     6
 78
     2
 67
     7
 79
     6
170
     0
171
     0
290
     0
174
     0
 93
        1
 44
0.0
173
     0
291
     0
 45
0.0
1001
ACAD
1000
AcDbSavedByObjectVersion
1070
     0
  0
VISUALSTYLE
  5
18AD
102
{ACAD_XDICTIONARY
360
1911
102
}
102
{ACAD_REACTORS
330
18A0
102
}
330
18A0
100
AcDbVisualStyle
  2
Thicken
 70
    13
 71
     2
 72
     2
 73
     0
 90
        0
 40
-0.6
 41
-30.0
 62
     5
 63
     7
 74
     1
 91
        4
 64
     7
 65
   257
 75
     1
175
     1
 42
1.0
 92
       12
 66
     7
 43
1.0
 76
     1
 77
     6
 78
     2
 67
     7
 79
     5
170
     0
171
     0
290
     0
174
     0
 93
        1
 44
0.0
173
     0
291
     1
 45
0.0
1001
ACAD
1000
AcDbSavedByObjectVersion
1070
     0
  0
VISUALSTYLE
  5
18A7
102
{ACAD_XDICTIONARY
360
1905
102
}
102
{ACAD_REACTORS
330
18A0
102
}
330
18A0
100
AcDbVisualStyle
  2
Wireframe
 70
     5
 71
     0
 72
     2
 73
     0
 90
        0
 40
-0.6
 41
-30.0
 62
     5
 63
     7
 74
     1
 91
        4
 64
     7
 65
   257
 75
     1
175
     1
 42
1.0
 92
        0
 66
   257
 43
1.0
 76
     1
 77
     6
 78
     2
 67
     7
 79
     3
170
     0
171
     0
290
     0
174
     0
 93
        1
 44
0.0
173
     0
291
     0
 45
0.0
1001
ACAD
1000
AcDbSavedByObjectVersion
1070
     0
  0
VISUALSTYLE
  5
18B3
102
{ACAD_XDICTIONARY
360
191D
102
}
102
{ACAD_REACTORS
330
18A0
102
}
330
18A0
100
AcDbVisualStyle
  2
X-Ray
 70
    25
 71
     2
 72
     2
 73
     1
 90
        1
 40
0.5
 41
-30.0
 62
     5
 63
     7
 74
     1
 91
        0
 64
     7
 65
   257
 75
     1
175
     1
 42
1.0
 92
        8
 66
     7
 43
1.0
 76
     1
 77
     6
 78
     2
 67
     7
 79
     3
170
     0
171
     0
290
     0
174
     0
 93
       13
 44
0.0
173
     0
291
     0
 45
0.0
1001
ACAD
1000
AcDbSavedByObjectVersion
1070
     0
  0
DICTIONARYVAR
  5
18EC
102
{ACAD_REACTORS
330
18E7
102
}
330
18E7
100
DictionaryVariables
280
     0
  1
1:1
  0
DICTIONARYVAR
  5
18E9
102
{ACAD_REACTORS
330
18E7
102
}
330
18E7
100
DictionaryVariables
280
     0
  1
STANDARD
  0
DICTIONARYVAR
  5
18E8
102
{ACAD_REACTORS
330
18E7
102
}
330
18E7
100
DictionaryVariables
280
     0
  1
STANDARD
  0
DICTIONARYVAR
  5
18EA
102
{ACAD_REACTORS
330
18E7
102
}
330
18E7
100
DictionaryVariables
280
     0
  1
Imperial24
  0
DICTIONARYVAR
  5
18EB
102
{ACAD_REACTORS
330
18E7
102
}
330
18E7
100
DictionaryVariables
280
     0
  1
Imperial24
  0
DICTIONARYVAR
  5
18EF
102
{ACAD_REACTORS
330
18E7
102
}
330
18E7
100
DictionaryVariables
280
     0
  1
1
  0
DICTIONARYVAR
  5
18EE
102
{ACAD_REACTORS
330
18E7
102
}
330
18E7
100
DictionaryVariables
280
     0
  1
0
  0
DICTIONARYVAR
  5
18ED
102
{ACAD_REACTORS
330
18E7
102
}
330
18E7
100
DictionaryVariables
280
     0
  1
127
  0
DICTIONARYVAR
  5
18F0
102
{ACAD_REACTORS
330
18E7
102
}
330
18E7
100
DictionaryVariables
280
     0
  1
2
  0
DICTIONARY
  5
192D
330
18D3
100
AcDbDictionary
280
     1
281
     1
  3
ACAD_XREC_ROUNDTRIP
360
192E
  0
DICTIONARY
  5
192F
330
18D4
100
AcDbDictionary
280
     1
281
     1
  3
ACAD_XREC_ROUNDTRIP
360
1930
  0
DICTIONARY
  5
1931
330
18D5
100
AcDbDictionary
280
     1
281
     1
  3
ACAD_XREC_ROUNDTRIP
360
1932
  0
DICTIONARY
  5
1891
330
1890
100
AcDbDictionary
280
     1
281
     1
  3
ACAD_XREC_ROUNDTRIP
360
18F7
  3
BUMPTILE
360
1893
  3
DIFFUSETILE
360
1892
  3
OPACITYTILE
360
1896
  3
REFLECTIONTILE
360
1895
  3
REFRACTIONTILE
360
1897
  3
SPECULARTILE
360
1894
  0
DICTIONARY
  5
1889
330
1888
100
AcDbDictionary
280
     1
281
     1
  3
ACAD_XREC_ROUNDTRIP
360
18F6
  3
BUMPTILE
360
188B
  3
DIFFUSETILE
360
188A
  3
OPACITYTILE
360
188E
  3
REFLECTIONTILE
360
188D
  3
REFRACTIONTILE
360
188F
  3
SPECULARTILE
360
188C
  0
DICTIONARY
  5
1899
330
1898
100
AcDbDictionary
280
     1
281
     1
  3
ACAD_XREC_ROUNDTRIP
360
18F8
  3
BUMPTILE
360
189B
  3
DIFFUSETILE
360
189A
  3
OPACITYTILE
360
189E
  3
REFLECTIONTILE
360
189D
  3
REFRACTIONTILE
360
189F
  3
SPECULARTILE
360
189C
  0
DICTIONARY
  5
192B
330
18D1
100
AcDbDictionary
280
     1
281
     1
  3
ACAD_XREC_ROUNDTRIP
360
192C
  0
DICTIONARY
  5
18F2
330
18BB
100
AcDbDictionary
280
     1
281
     1
  3
ACAD_ROUNDTRIP_2008_TABLESTYLE_CELLSTYLEMAP
360
18F3
  3
ACAD_XREC_ROUNDTRIP
360
1929
  0
DICTIONARY
  5
1903
330
18A6
100
AcDbDictionary
280
     1
281
     1
  3
ACAD_XREC_ROUNDTRIP
360
1904
  0
DICTIONARY
  5
1901
330
18A5
100
AcDbDictionary
280
     1
281
     1
  3
ACAD_XREC_ROUNDTRIP
360
1902
  0
DICTIONARY
  5
190F
330
18AC
100
AcDbDictionary
280
     1
281
     1
  3
ACAD_XREC_ROUNDTRIP
360
1910
  0
DICTIONARY
  5
1917
330
18B0
100
AcDbDictionary
280
     1
281
     1
  3
ACAD_XREC_ROUNDTRIP
360
1918
  0
DICTIONARY
  5
1909
330
18A9
100
AcDbDictionary
280
     1
281
     1
  3
ACAD_XREC_ROUNDTRIP
360
190A
  0
DICTIONARY
  5
190D
330
18AB
100
AcDbDictionary
280
     1
281
     1
  3
ACAD_XREC_ROUNDTRIP
360
190E
  0
DICTIONARY
  5
1927
330
18B8
100
AcDbDictionary
280
     1
281
     1
  3
ACAD_XREC_ROUNDTRIP
360
1928
  0
DICTIONARY
  5
1915
330
18AF
100
AcDbDictionary
280
     1
281
     1
  3
ACAD_XREC_ROUNDTRIP
360
1916
  0
DICTIONARY
  5
18F9
330
18A1
100
AcDbDictionary
280
     1
281
     1
  3
ACAD_XREC_ROUNDTRIP
360
18FA
  0
DICTIONARY
  5
18FB
330
18A2
100
AcDbDictionary
280
     1
281
     1
  3
ACAD_XREC_ROUNDTRIP
360
18FC
  0
DICTIONARY
  5
18FD
330
18A3
100
AcDbDictionary
280
     1
281
     1
  3
ACAD_XREC_ROUNDTRIP
360
18FE
  0
DICTIONARY
  5
18FF
330
18A4
100
AcDbDictionary
280
     1
281
     1
  3
ACAD_XREC_ROUNDTRIP
360
1900
  0
DICTIONARY
  5
1907
330
18A8
100
AcDbDictionary
280
     1
281
     1
  3
ACAD_XREC_ROUNDTRIP
360
1908
  0
DICTIONARY
  5
1923
330
18B6
100
AcDbDictionary
280
     1
281
     1
  3
ACAD_XREC_ROUNDTRIP
360
1924
  0
DICTIONARY
  5
1913
330
18AE
100
AcDbDictionary
280
     1
281
     1
  3
ACAD_XREC_ROUNDTRIP
360
1914
  0
DICTIONARY
  5
1925
330
18B7
100
AcDbDictionary
280
     1
281
     1
  3
ACAD_XREC_ROUNDTRIP
360
1926
  0
DICTIONARY
  5
190B
330
18AA
100
AcDbDictionary
280
     1
281
     1
  3
ACAD_XREC_ROUNDTRIP
360
190C
  0
DICTIONARY
  5
1921
330
18B5
100
AcDbDictionary
280
     1
281
     1
  3
ACAD_XREC_ROUNDTRIP
360
1922
  0
DICTIONARY
  5
191F
330
18B4
100
AcDbDictionary
280
     1
281
     1
  3
ACAD_XREC_ROUNDTRIP
360
1920
  0
DICTIONARY
  5
1919
330
18B1
100
AcDbDictionary
280
     1
281
     1
  3
ACAD_XREC_ROUNDTRIP
360
191A
  0
DICTIONARY
  5
191B
330
18B2
100
AcDbDictionary
280
     1
281
     1
  3
ACAD_XREC_ROUNDTRIP
360
191C
  0
DICTIONARY
  5
1911
330
18AD
100
AcDbDictionary
280
     1
281
     1
  3
ACAD_XREC_ROUNDTRIP
360
1912
  0
DICTIONARY
  5
1905
330
18A7
100
AcDbDictionary
280
     1
281
     1
  3
ACAD_XREC_ROUNDTRIP
360
1906
  0
DICTIONARY
  5
191D
330
18B3
100
AcDbDictionary
280
     1
281
     1
  3
ACAD_XREC_ROUNDTRIP
360
191E
  0
XRECORD
  5
192E
102
{ACAD_REACTORS
330
192D
102
}
330
192D
100
AcDbXrecord
280
     1
102
DISPLAYNAME
  1
Imperial24
102
FLAGS
 90
        0
  0
XRECORD
  5
1930
102
{ACAD_REACTORS
330
192F
102
}
330
192F
100
AcDbXrecord
280
     1
102
SHADEPLOT
 70
     0
102
SHADEPLOTRESLEVEL
 70
     2
102
SHADEPLOTCUSTOMDPI
 70
   300
  0
XRECORD
  5
1932
102
{ACAD_REACTORS
330
1931
102
}
330
1931
100
AcDbXrecord
280
     1
102
SHADEPLOT
 70
     0
102
SHADEPLOTRESLEVEL
 70
     2
102
SHADEPLOTCUSTOMDPI
 70
   300
  0
XRECORD
  5
18F7
102
{ACAD_REACTORS
330
1891
102
}
330
1891
100
AcDbXrecord
280
     1
102
MATERIAL
148
0.0
149
0.0
149
0.0
 93
        0
 94
      127
282
     0
 72
     0
 77
     0
171
     0
175
     0
179
     0
273
     0
  0
XRECORD
  5
1893
102
{ACAD_REACTORS
330
1891
102
}
330
1891
100
AcDbXrecord
280
     1
270
     1
271
     1
  0
XRECORD
  5
1892
102
{ACAD_REACTORS
330
1891
102
}
330
1891
100
AcDbXrecord
280
     1
270
     1
271
     1
  0
XRECORD
  5
1896
102
{ACAD_REACTORS
330
1891
102
}
330
1891
100
AcDbXrecord
280
     1
270
     1
271
     1
  0
XRECORD
  5
1895
102
{ACAD_REACTORS
330
1891
102
}
330
1891
100
AcDbXrecord
280
     1
270
     1
271
     1
  0
XRECORD
  5
1897
102
{ACAD_REACTORS
330
1891
102
}
330
1891
100
AcDbXrecord
280
     1
270
     1
271
     1
  0
XRECORD
  5
1894
102
{ACAD_REACTORS
330
1891
102
}
330
1891
100
AcDbXrecord
280
     1
270
     1
271
     1
  0
XRECORD
  5
18F6
102
{ACAD_REACTORS
330
1889
102
}
330
1889
100
AcDbXrecord
280
     1
102
MATERIAL
148
0.0
149
0.0
149
0.0
 93
        0
 94
      127
282
     0
 72
     0
 77
     0
171
     0
175
     0
179
     0
273
     0
  0
XRECORD
  5
188B
102
{ACAD_REACTORS
330
1889
102
}
330
1889
100
AcDbXrecord
280
     1
270
     1
271
     1
  0
XRECORD
  5
188A
102
{ACAD_REACTORS
330
1889
102
}
330
1889
100
AcDbXrecord
280
     1
270
     1
271
     1
  0
XRECORD
  5
188E
102
{ACAD_REACTORS
330
1889
102
}
330
1889
100
AcDbXrecord
280
     1
270
     1
271
     1
  0
XRECORD
  5
188D
102
{ACAD_REACTORS
330
1889
102
}
330
1889
100
AcDbXrecord
280
     1
270
     1
271
     1
  0
XRECORD
  5
188F
102
{ACAD_REACTORS
330
1889
102
}
330
1889
100
AcDbXrecord
280
     1
270
     1
271
     1
  0
XRECORD
  5
188C
102
{ACAD_REACTORS
330
1889
102
}
330
1889
100
AcDbXrecord
280
     1
270
     1
271
     1
  0
XRECORD
  5
18F8
102
{ACAD_REACTORS
330
1899
102
}
330
1899
100
AcDbXrecord
280
     1
102
MATERIAL
148
0.0
149
0.0
149
0.0
 93
        0
 94
      127
282
     0
 72
     0
 77
     0
171
     0
175
     0
179
     0
273
     0
  0
XRECORD
  5
189B
102
{ACAD_REACTORS
330
1899
102
}
330
1899
100
AcDbXrecord
280
     1
270
     1
271
     1
  0
XRECORD
  5
189A
102
{ACAD_REACTORS
330
1899
102
}
330
1899
100
AcDbXrecord
280
     1
270
     1
271
     1
  0
XRECORD
  5
189E
102
{ACAD_REACTORS
330
1899
102
}
330
1899
100
AcDbXrecord
280
     1
270
     1
271
     1
  0
XRECORD
  5
189D
102
{ACAD_REACTORS
330
1899
102
}
330
1899
100
AcDbXrecord
280
     1
270
     1
271
     1
  0
XRECORD
  5
189F
102
{ACAD_REACTORS
330
1899
102
}
330
1899
100
AcDbXrecord
280
     1
270
     1
271
     1
  0
XRECORD
  5
189C
102
{ACAD_REACTORS
330
1899
102
}
330
1899
100
AcDbXrecord
280
     1
270
     1
271
     1
  0
XRECORD
  5
192C
102
{ACAD_REACTORS
330
192B
102
}
330
192B
100
AcDbXrecord
280
     1
102
DISPLAYNAME
  1
Imperial24
102
FLAGS
 90
        0
  0
CELLSTYLEMAP
  5
18F3
102
{ACAD_REACTORS
330
18F2
102
}
330
18F2
100
AcDbCellStyleMap
 90
        3
300
CELLSTYLE
  1
TABLEFORMAT_BEGIN
 90
        5
170
     1
 91
        0
 92
    32768
 62
   257
 93
        1
300
CONTENTFORMAT
  1
CONTENTFORMAT_BEGIN
 90
        0
 91
        0
 92
      512
 93
        0
300

 40
0.0
140
1.0
 94
        5
 62
     0
340
F
144
0.25
309
CONTENTFORMAT_END
171
     0
 94
        0
309
TABLEFORMAT_END
  1
CELLSTYLE_BEGIN
 90
        1
 91
        1
300
_TITLE
309
CELLSTYLE_END
300
CELLSTYLE
  1
TABLEFORMAT_BEGIN
 90
        5
170
     1
 91
        0
 92
        0
 62
   257
 93
        1
300
CONTENTFORMAT
  1
CONTENTFORMAT_BEGIN
 90
        0
 91
        0
 92
      512
 93
        0
300

 40
0.0
140
1.0
 94
        5
 62
     0
340
F
144
0.18
309
CONTENTFORMAT_END
171
     0
 94
        0
309
TABLEFORMAT_END
  1
CELLSTYLE_BEGIN
 90
        2
 91
        1
300
_HEADER
309
CELLSTYLE_END
300
CELLSTYLE
  1
TABLEFORMAT_BEGIN
 90
        5
170
     1
 91
        0
 92
        0
 62
   257
 93
        1
300
CONTENTFORMAT
  1
CONTENTFORMAT_BEGIN
 90
        0
 91
        0
 92
      512
 93
        0
300

 40
0.0
140
1.0
 94
        2
 62
     0
340
F
144
0.18
309
CONTENTFORMAT_END
171
     0
 94
        0
309
TABLEFORMAT_END
  1
CELLSTYLE_BEGIN
 90
        3
 91
        2
300
_DATA
309
CELLSTYLE_END
  0
XRECORD
  5
1929
102
{ACAD_REACTORS
330
18F2
102
}
330
18F2
100
AcDbXrecord
280
     1
102
ACAD_ROUNDTRIP_PRE2007_TABLESTYLE
 90
      512
 91
        0
  1

 92
      512
 93
        0
  2

 94
      512
 95
        0
  3

  0
XRECORD
  5
1904
102
{ACAD_REACTORS
330
1903
102
}
330
1903
100
AcDbXrecord
280
     1
102
RTVSPost2010Prop28
280
     1
102
RTVSPost2010PropOp28
 70
     1
102
RTVSPost2010Prop29
280
     1
102
RTVSPost2010PropOp29
 70
     1
102
RTVSPost2010Prop30
280
     0
102
RTVSPost2010PropOp30
 70
     1
102
RTVSPost2010Prop31
280
     0
102
RTVSPost2010PropOp31
 70
     1
102
RTVSPost2010Prop32
280
     0
102
RTVSPost2010PropOp32
 70
     1
102
RTVSPost2010Prop33
280
     0
102
RTVSPost2010PropOp33
 70
     1
102
RTVSPost2010Prop34
280
     0
102
RTVSPost2010PropOp34
 70
     1
102
RTVSPost2010Prop35
280
     0
102
RTVSPost2010PropOp35
 70
     1
102
RTVSPost2010Prop36
280
     0
102
RTVSPost2010PropOp36
 70
     1
102
RTVSPost2010Prop37
 90
       50
102
RTVSPost2010PropOp37
 70
     1
102
RTVSPost2010Prop38
140
0.0
102
RTVSPost2010PropOp38
 70
     1
102
RTVSPost2010Prop39
140
1.0
102
RTVSPost2010PropOp39
 70
     1
102
RTVSPost2010Prop40
 90
        0
102
RTVSPost2010PropOp40
 70
     1
102
RTVSPost2010Prop41ColorIndex
 90
       18
102
RTVSPost2010Prop41ColorRGB
 90
        0
102
RTVSPost2010PropOp41
 70
     1
102
RTVSPost2010Prop42
 90
       50
102
RTVSPost2010PropOp42
 70
     1
102
RTVSPost2010Prop43
 90
        3
102
RTVSPost2010PropOp43
 70
     1
102
RTVSPost2010Prop44ColorIndex
 90
        5
102
RTVSPost2010Prop44ColorRGB
 90
      255
102
RTVSPost2010PropOp44
 70
     1
102
RTVSPost2010Prop45
280
     0
102
RTVSPost2010PropOp45
 70
     1
102
RTVSPost2010Prop46
 90
       50
102
RTVSPost2010PropOp46
 70
     1
102
RTVSPost2010Prop47
 90
       50
102
RTVSPost2010PropOp47
 70
     1
102
RTVSPost2010Prop48
 90
       50
102
RTVSPost2010PropOp48
 70
     1
102
RTVSPost2010Prop49
280
     0
102
RTVSPost2010PropOp49
 70
     1
102
RTVSPost2010Prop50
 90
       50
102
RTVSPost2010PropOp50
 70
     1
102
RTVSPost2010Prop51ColorIndex
 90
      256
102
RTVSPost2010Prop51ColorRGB
 90
-16777216
102
RTVSPost2010PropOp51
 70
     0
102
RTVSPost2010Prop52
140
1.0
102
RTVSPost2010PropOp52
 70
     0
102
RTVSPost2010Prop53
 90
        2
102
RTVSPost2010PropOp53
 70
     1
102
RTVSPost2010Prop54
  1
strokes_ogs.tif
102
RTVSPost2010PropOp54
 70
     1
102
RTVSPost2010Prop55
280
     0
102
RTVSPost2010PropOp55
 70
     1
102
RTVSPost2010Prop56
140
1.0
102
RTVSPost2010PropOp56
 70
     1
102
RTVSPost2010Prop57
140
1.0
102
RTVSPost2010PropOp57
 70
     1
102
RTVSPropertyOp0
 70
     1
102
RTVSPropertyOp1
 70
     1
102
RTVSPropertyOp2
 70
     1
102
RTVSPropertyOp3
 70
     1
102
RTVSPropertyOp4
 70
     1
102
RTVSPropertyOp5
 70
     1
102
RTVSPropertyOp6
 70
     1
102
RTVSPropertyOp7
 70
     1
102
RTVSPropertyOp8
 70
     1
102
RTVSPropertyOp9
 70
     1
102
RTVSPropertyOp10
 70
     1
102
RTVSPropertyOp11
 70
     1
102
RTVSPropertyOp12
 70
     1
102
RTVSPropertyOp13
 70
     1
102
RTVSPropertyOp14
 70
     1
102
RTVSPropertyOp15
 70
     1
102
RTVSPropertyOp16
 70
     1
102
RTVSPropertyOp17
 70
     1
102
RTVSPropertyOp18
 70
     1
102
RTVSPropertyOp19
 70
     1
102
RTVSPropertyOp20
 70
     1
102
RTVSPropertyOp21
 70
     1
102
RTVSPropertyOp22
 70
     1
102
RTVSPropertyOp23
 70
     1
102
RTVSPropertyOp24
 70
     1
102
RTVSPropertyOp25
 70
     1
102
RTVSPropertyOp26
 70
     1
102
RTVSPropertyOp27
 70
     1
102
RTVSPropertyOp28
 70
     1
102
RTVSPropertyOp29
 70
     1
102
RTVSPropertyOp30
 70
     1
102
RTVSPropertyOp31
 70
     1
102
RTVSPropertyOp32
 70
     1
102
RTVSPropertyOp33
 70
     1
102
RTVSPropertyOp34
 70
     1
102
RTVSPropertyOp35
 70
     1
102
RTVSPropertyOp36
 70
     1
102
RTVSPropertyOp37
 70
     1
102
RTVSPropertyOp38
 70
     1
102
RTVSPropertyOp39
 70
     1
102
RTVSPropertyOp40
 70
     1
102
RTVSPropertyOp41
 70
     1
102
RTVSPropertyOp42
 70
     1
102
RTVSPropertyOp43
 70
     1
102
RTVSPropertyOp44
 70
     1
102
RTVSPropertyOp45
 70
     1
102
RTVSPropertyOp46
 70
     1
102
RTVSPropertyOp47
 70
     1
102
RTVSPropertyOp48
 70
     1
102
RTVSPropertyOp49
 70
     1
102
RTVSPropertyOp50
 70
     1
102
RTVSPropertyOp51
 70
     0
102
RTVSPropertyOp52
 70
     0
102
RTVSPropertyOp53
 70
     1
102
RTVSPropertyOp54
 70
     1
102
RTVSPropertyOp55
 70
     1
102
RTVSPropertyOp56
 70
     1
102
RTVSPropertyOp57
 70
     1
102
RTVSPropertyOp58
 70
     1
102
RTVSPropertyOp59
 70
     1
102
RTVSPropertyOp60
 70
     1
102
RTVSPropertyOp61
 70
     1
102
RTVSPropertyOp62
 70
     1
  0
XRECORD
  5
1902
102
{ACAD_REACTORS
330
1901
102
}
330
1901
100
AcDbXrecord
280
     1
102
RTVSPost2010Prop28
280
     0
102
RTVSPost2010PropOp28
 70
     1
102
RTVSPost2010Prop29
280
     1
102
RTVSPost2010PropOp29
 70
     1
102
RTVSPost2010Prop30
280
     1
102
RTVSPost2010PropOp30
 70
     1
102
RTVSPost2010Prop31
280
     0
102
RTVSPost2010PropOp31
 70
     1
102
RTVSPost2010Prop32
280
     0
102
RTVSPost2010PropOp32
 70
     1
102
RTVSPost2010Prop33
280
     0
102
RTVSPost2010PropOp33
 70
     1
102
RTVSPost2010Prop34
280
     0
102
RTVSPost2010PropOp34
 70
     1
102
RTVSPost2010Prop35
280
     0
102
RTVSPost2010PropOp35
 70
     1
102
RTVSPost2010Prop36
280
     0
102
RTVSPost2010PropOp36
 70
     1
102
RTVSPost2010Prop37
 90
       50
102
RTVSPost2010PropOp37
 70
     1
102
RTVSPost2010Prop38
140
0.0
102
RTVSPost2010PropOp38
 70
     1
102
RTVSPost2010Prop39
140
1.0
102
RTVSPost2010PropOp39
 70
     1
102
RTVSPost2010Prop40
 90
        0
102
RTVSPost2010PropOp40
 70
     1
102
RTVSPost2010Prop41ColorIndex
 90
       18
102
RTVSPost2010Prop41ColorRGB
 90
        0
102
RTVSPost2010PropOp41
 70
     1
102
RTVSPost2010Prop42
 90
       50
102
RTVSPost2010PropOp42
 70
     1
102
RTVSPost2010Prop43
 90
        3
102
RTVSPost2010PropOp43
 70
     1
102
RTVSPost2010Prop44ColorIndex
 90
        5
102
RTVSPost2010Prop44ColorRGB
 90
      255
102
RTVSPost2010PropOp44
 70
     1
102
RTVSPost2010Prop45
280
     0
102
RTVSPost2010PropOp45
 70
     1
102
RTVSPost2010Prop46
 90
       50
102
RTVSPost2010PropOp46
 70
     1
102
RTVSPost2010Prop47
 90
       50
102
RTVSPost2010PropOp47
 70
     1
102
RTVSPost2010Prop48
 90
       50
102
RTVSPost2010PropOp48
 70
     1
102
RTVSPost2010Prop49
280
     0
102
RTVSPost2010PropOp49
 70
     1
102
RTVSPost2010Prop50
 90
       50
102
RTVSPost2010PropOp50
 70
     1
102
RTVSPost2010Prop51ColorIndex
 90
      256
102
RTVSPost2010Prop51ColorRGB
 90
-16777216
102
RTVSPost2010PropOp51
 70
     0
102
RTVSPost2010Prop52
140
1.0
102
RTVSPost2010PropOp52
 70
     0
102
RTVSPost2010Prop53
 90
        2
102
RTVSPost2010PropOp53
 70
     1
102
RTVSPost2010Prop54
  1
strokes_ogs.tif
102
RTVSPost2010PropOp54
 70
     1
102
RTVSPost2010Prop55
280
     0
102
RTVSPost2010PropOp55
 70
     1
102
RTVSPost2010Prop56
140
1.0
102
RTVSPost2010PropOp56
 70
     1
102
RTVSPost2010Prop57
140
1.0
102
RTVSPost2010PropOp57
 70
     1
102
RTVSPropertyOp0
 70
     1
102
RTVSPropertyOp1
 70
     1
102
RTVSPropertyOp2
 70
     1
102
RTVSPropertyOp3
 70
     1
102
RTVSPropertyOp4
 70
     1
102
RTVSPropertyOp5
 70
     1
102
RTVSPropertyOp6
 70
     1
102
RTVSPropertyOp7
 70
     1
102
RTVSPropertyOp8
 70
     1
102
RTVSPropertyOp9
 70
     1
102
RTVSPropertyOp10
 70
     1
102
RTVSPropertyOp11
 70
     1
102
RTVSPropertyOp12
 70
     1
102
RTVSPropertyOp13
 70
     1
102
RTVSPropertyOp14
 70
     1
102
RTVSPropertyOp15
 70
     1
102
RTVSPropertyOp16
 70
     1
102
RTVSPropertyOp17
 70
     1
102
RTVSPropertyOp18
 70
     1
102
RTVSPropertyOp19
 70
     1
102
RTVSPropertyOp20
 70
     1
102
RTVSPropertyOp21
 70
     1
102
RTVSPropertyOp22
 70
     1
102
RTVSPropertyOp23
 70
     1
102
RTVSPropertyOp24
 70
     1
102
RTVSPropertyOp25
 70
     1
102
RTVSPropertyOp26
 70
     1
102
RTVSPropertyOp27
 70
     1
102
RTVSPropertyOp28
 70
     1
102
RTVSPropertyOp29
 70
     1
102
RTVSPropertyOp30
 70
     1
102
RTVSPropertyOp31
 70
     1
102
RTVSPropertyOp32
 70
     1
102
RTVSPropertyOp33
 70
     1
102
RTVSPropertyOp34
 70
     1
102
RTVSPropertyOp35
 70
     1
102
RTVSPropertyOp36
 70
     1
102
RTVSPropertyOp37
 70
     1
102
RTVSPropertyOp38
 70
     1
102
RTVSPropertyOp39
 70
     1
102
RTVSPropertyOp40
 70
     1
102
RTVSPropertyOp41
 70
     1
102
RTVSPropertyOp42
 70
     1
102
RTVSPropertyOp43
 70
     1
102
RTVSPropertyOp44
 70
     1
102
RTVSPropertyOp45
 70
     1
102
RTVSPropertyOp46
 70
     1
102
RTVSPropertyOp47
 70
     1
102
RTVSPropertyOp48
 70
     1
102
RTVSPropertyOp49
 70
     1
102
RTVSPropertyOp50
 70
     1
102
RTVSPropertyOp51
 70
     0
102
RTVSPropertyOp52
 70
     0
102
RTVSPropertyOp53
 70
     1
102
RTVSPropertyOp54
 70
     1
102
RTVSPropertyOp55
 70
     1
102
RTVSPropertyOp56
 70
     1
102
RTVSPropertyOp57
 70
     1
102
RTVSPropertyOp58
 70
     1
102
RTVSPropertyOp59
 70
     1
102
RTVSPropertyOp60
 70
     1
102
RTVSPropertyOp61
 70
     1
102
RTVSPropertyOp62
 70
     1
  0
XRECORD
  5
1910
102
{ACAD_REACTORS
330
190F
102
}
330
190F
100
AcDbXrecord
280
     1
102
RTVSPost2010Prop28
280
     0
102
RTVSPost2010PropOp28
 70
     1
102
RTVSPost2010Prop29
280
     1
102
RTVSPost2010PropOp29
 70
     1
102
RTVSPost2010Prop30
280
     1
102
RTVSPost2010PropOp30
 70
     1
102
RTVSPost2010Prop31
280
     0
102
RTVSPost2010PropOp31
 70
     1
102
RTVSPost2010Prop32
280
     0
102
RTVSPost2010PropOp32
 70
     1
102
RTVSPost2010Prop33
280
     0
102
RTVSPost2010PropOp33
 70
     1
102
RTVSPost2010Prop34
280
     0
102
RTVSPost2010PropOp34
 70
     1
102
RTVSPost2010Prop35
280
     0
102
RTVSPost2010PropOp35
 70
     1
102
RTVSPost2010Prop36
280
     0
102
RTVSPost2010PropOp36
 70
     1
102
RTVSPost2010Prop37
 90
       50
102
RTVSPost2010PropOp37
 70
     1
102
RTVSPost2010Prop38
140
0.0
102
RTVSPost2010PropOp38
 70
     1
102
RTVSPost2010Prop39
140
1.0
102
RTVSPost2010PropOp39
 70
     1
102
RTVSPost2010Prop40
 90
        0
102
RTVSPost2010PropOp40
 70
     1
102
RTVSPost2010Prop41ColorIndex
 90
       18
102
RTVSPost2010Prop41ColorRGB
 90
        0
102
RTVSPost2010PropOp41
 70
     1
102
RTVSPost2010Prop42
 90
       50
102
RTVSPost2010PropOp42
 70
     1
102
RTVSPost2010Prop43
 90
        3
102
RTVSPost2010PropOp43
 70
     1
102
RTVSPost2010Prop44ColorIndex
 90
        5
102
RTVSPost2010Prop44ColorRGB
 90
      255
102
RTVSPost2010PropOp44
 70
     1
102
RTVSPost2010Prop45
280
     0
102
RTVSPost2010PropOp45
 70
     1
102
RTVSPost2010Prop46
 90
       50
102
RTVSPost2010PropOp46
 70
     1
102
RTVSPost2010Prop47
 90
       50
102
RTVSPost2010PropOp47
 70
     1
102
RTVSPost2010Prop48
 90
       50
102
RTVSPost2010PropOp48
 70
     1
102
RTVSPost2010Prop49
280
     0
102
RTVSPost2010PropOp49
 70
     1
102
RTVSPost2010Prop50
 90
       50
102
RTVSPost2010PropOp50
 70
     1
102
RTVSPost2010Prop51ColorIndex
 90
      256
102
RTVSPost2010Prop51ColorRGB
 90
-16777216
102
RTVSPost2010PropOp51
 70
     0
102
RTVSPost2010Prop52
140
1.0
102
RTVSPost2010PropOp52
 70
     0
102
RTVSPost2010Prop53
 90
        2
102
RTVSPost2010PropOp53
 70
     1
102
RTVSPost2010Prop54
  1
strokes_ogs.tif
102
RTVSPost2010PropOp54
 70
     1
102
RTVSPost2010Prop55
280
     0
102
RTVSPost2010PropOp55
 70
     1
102
RTVSPost2010Prop56
140
1.0
102
RTVSPost2010PropOp56
 70
     1
102
RTVSPost2010Prop57
140
1.0
102
RTVSPost2010PropOp57
 70
     1
102
RTVSPropertyOp0
 70
     1
102
RTVSPropertyOp1
 70
     1
102
RTVSPropertyOp2
 70
     1
102
RTVSPropertyOp3
 70
     1
102
RTVSPropertyOp4
 70
     1
102
RTVSPropertyOp5
 70
     1
102
RTVSPropertyOp6
 70
     1
102
RTVSPropertyOp7
 70
     1
102
RTVSPropertyOp8
 70
     1
102
RTVSPropertyOp9
 70
     1
102
RTVSPropertyOp10
 70
     1
102
RTVSPropertyOp11
 70
     1
102
RTVSPropertyOp12
 70
     1
102
RTVSPropertyOp13
 70
     1
102
RTVSPropertyOp14
 70
     1
102
RTVSPropertyOp15
 70
     1
102
RTVSPropertyOp16
 70
     1
102
RTVSPropertyOp17
 70
     1
102
RTVSPropertyOp18
 70
     1
102
RTVSPropertyOp19
 70
     1
102
RTVSPropertyOp20
 70
     1
102
RTVSPropertyOp21
 70
     1
102
RTVSPropertyOp22
 70
     1
102
RTVSPropertyOp23
 70
     1
102
RTVSPropertyOp24
 70
     1
102
RTVSPropertyOp25
 70
     1
102
RTVSPropertyOp26
 70
     1
102
RTVSPropertyOp27
 70
     1
102
RTVSPropertyOp28
 70
     1
102
RTVSPropertyOp29
 70
     1
102
RTVSPropertyOp30
 70
     1
102
RTVSPropertyOp31
 70
     1
102
RTVSPropertyOp32
 70
     1
102
RTVSPropertyOp33
 70
     1
102
RTVSPropertyOp34
 70
     1
102
RTVSPropertyOp35
 70
     1
102
RTVSPropertyOp36
 70
     1
102
RTVSPropertyOp37
 70
     1
102
RTVSPropertyOp38
 70
     1
102
RTVSPropertyOp39
 70
     1
102
RTVSPropertyOp40
 70
     1
102
RTVSPropertyOp41
 70
     1
102
RTVSPropertyOp42
 70
     1
102
RTVSPropertyOp43
 70
     1
102
RTVSPropertyOp44
 70
     1
102
RTVSPropertyOp45
 70
     1
102
RTVSPropertyOp46
 70
     1
102
RTVSPropertyOp47
 70
     1
102
RTVSPropertyOp48
 70
     1
102
RTVSPropertyOp49
 70
     1
102
RTVSPropertyOp50
 70
     1
102
RTVSPropertyOp51
 70
     0
102
RTVSPropertyOp52
 70
     0
102
RTVSPropertyOp53
 70
     1
102
RTVSPropertyOp54
 70
     1
102
RTVSPropertyOp55
 70
     1
102
RTVSPropertyOp56
 70
     1
102
RTVSPropertyOp57
 70
     1
102
RTVSPropertyOp58
 70
     1
102
RTVSPropertyOp59
 70
     1
102
RTVSPropertyOp60
 70
     1
102
RTVSPropertyOp61
 70
     1
102
RTVSPropertyOp62
 70
     1
  0
XRECORD
  5
1918
102
{ACAD_REACTORS
330
1917
102
}
330
1917
100
AcDbXrecord
280
     1
102
RTVSPost2010Prop28
280
     0
102
RTVSPost2010PropOp28
 70
     1
102
RTVSPost2010Prop29
280
     1
102
RTVSPost2010PropOp29
 70
     1
102
RTVSPost2010Prop30
280
     1
102
RTVSPost2010PropOp30
 70
     1
102
RTVSPost2010Prop31
280
     0
102
RTVSPost2010PropOp31
 70
     1
102
RTVSPost2010Prop32
280
     0
102
RTVSPost2010PropOp32
 70
     1
102
RTVSPost2010Prop33
280
     0
102
RTVSPost2010PropOp33
 70
     1
102
RTVSPost2010Prop34
280
     0
102
RTVSPost2010PropOp34
 70
     1
102
RTVSPost2010Prop35
280
     0
102
RTVSPost2010PropOp35
 70
     1
102
RTVSPost2010Prop36
280
     0
102
RTVSPost2010PropOp36
 70
     1
102
RTVSPost2010Prop37
 90
       50
102
RTVSPost2010PropOp37
 70
     1
102
RTVSPost2010Prop38
140
0.0
102
RTVSPost2010PropOp38
 70
     1
102
RTVSPost2010Prop39
140
1.0
102
RTVSPost2010PropOp39
 70
     1
102
RTVSPost2010Prop40
 90
        0
102
RTVSPost2010PropOp40
 70
     1
102
RTVSPost2010Prop41ColorIndex
 90
       18
102
RTVSPost2010Prop41ColorRGB
 90
        0
102
RTVSPost2010PropOp41
 70
     1
102
RTVSPost2010Prop42
 90
       50
102
RTVSPost2010PropOp42
 70
     1
102
RTVSPost2010Prop43
 90
        3
102
RTVSPost2010PropOp43
 70
     1
102
RTVSPost2010Prop44ColorIndex
 90
        5
102
RTVSPost2010Prop44ColorRGB
 90
      255
102
RTVSPost2010PropOp44
 70
     1
102
RTVSPost2010Prop45
280
     0
102
RTVSPost2010PropOp45
 70
     1
102
RTVSPost2010Prop46
 90
       50
102
RTVSPost2010PropOp46
 70
     1
102
RTVSPost2010Prop47
 90
       50
102
RTVSPost2010PropOp47
 70
     1
102
RTVSPost2010Prop48
 90
       50
102
RTVSPost2010PropOp48
 70
     1
102
RTVSPost2010Prop49
280
     0
102
RTVSPost2010PropOp49
 70
     1
102
RTVSPost2010Prop50
 90
       50
102
RTVSPost2010PropOp50
 70
     1
102
RTVSPost2010Prop51ColorIndex
 90
      256
102
RTVSPost2010Prop51ColorRGB
 90
-16777216
102
RTVSPost2010PropOp51
 70
     0
102
RTVSPost2010Prop52
140
1.0
102
RTVSPost2010PropOp52
 70
     0
102
RTVSPost2010Prop53
 90
        2
102
RTVSPost2010PropOp53
 70
     1
102
RTVSPost2010Prop54
  1
strokes_ogs.tif
102
RTVSPost2010PropOp54
 70
     1
102
RTVSPost2010Prop55
280
     0
102
RTVSPost2010PropOp55
 70
     1
102
RTVSPost2010Prop56
140
1.0
102
RTVSPost2010PropOp56
 70
     1
102
RTVSPost2010Prop57
140
1.0
102
RTVSPost2010PropOp57
 70
     1
102
RTVSPropertyOp0
 70
     1
102
RTVSPropertyOp1
 70
     1
102
RTVSPropertyOp2
 70
     1
102
RTVSPropertyOp3
 70
     1
102
RTVSPropertyOp4
 70
     1
102
RTVSPropertyOp5
 70
     1
102
RTVSPropertyOp6
 70
     1
102
RTVSPropertyOp7
 70
     1
102
RTVSPropertyOp8
 70
     1
102
RTVSPropertyOp9
 70
     1
102
RTVSPropertyOp10
 70
     1
102
RTVSPropertyOp11
 70
     1
102
RTVSPropertyOp12
 70
     1
102
RTVSPropertyOp13
 70
     1
102
RTVSPropertyOp14
 70
     1
102
RTVSPropertyOp15
 70
     1
102
RTVSPropertyOp16
 70
     1
102
RTVSPropertyOp17
 70
     1
102
RTVSPropertyOp18
 70
     1
102
RTVSPropertyOp19
 70
     1
102
RTVSPropertyOp20
 70
     1
102
RTVSPropertyOp21
 70
     1
102
RTVSPropertyOp22
 70
     1
102
RTVSPropertyOp23
 70
     1
102
RTVSPropertyOp24
 70
     1
102
RTVSPropertyOp25
 70
     1
102
RTVSPropertyOp26
 70
     1
102
RTVSPropertyOp27
 70
     1
102
RTVSPropertyOp28
 70
     1
102
RTVSPropertyOp29
 70
     1
102
RTVSPropertyOp30
 70
     1
102
RTVSPropertyOp31
 70
     1
102
RTVSPropertyOp32
 70
     1
102
RTVSPropertyOp33
 70
     1
102
RTVSPropertyOp34
 70
     1
102
RTVSPropertyOp35
 70
     1
102
RTVSPropertyOp36
 70
     1
102
RTVSPropertyOp37
 70
     1
102
RTVSPropertyOp38
 70
     1
102
RTVSPropertyOp39
 70
     1
102
RTVSPropertyOp40
 70
     1
102
RTVSPropertyOp41
 70
     1
102
RTVSPropertyOp42
 70
     1
102
RTVSPropertyOp43
 70
     1
102
RTVSPropertyOp44
 70
     1
102
RTVSPropertyOp45
 70
     1
102
RTVSPropertyOp46
 70
     1
102
RTVSPropertyOp47
 70
     1
102
RTVSPropertyOp48
 70
     1
102
RTVSPropertyOp49
 70
     1
102
RTVSPropertyOp50
 70
     1
102
RTVSPropertyOp51
 70
     0
102
RTVSPropertyOp52
 70
     0
102
RTVSPropertyOp53
 70
     1
102
RTVSPropertyOp54
 70
     1
102
RTVSPropertyOp55
 70
     1
102
RTVSPropertyOp56
 70
     1
102
RTVSPropertyOp57
 70
     1
102
RTVSPropertyOp58
 70
     1
102
RTVSPropertyOp59
 70
     1
102
RTVSPropertyOp60
 70
     1
102
RTVSPropertyOp61
 70
     1
102
RTVSPropertyOp62
 70
     1
  0
XRECORD
  5
190A
102
{ACAD_REACTORS
330
1909
102
}
330
1909
100
AcDbXrecord
280
     1
102
RTVSPost2010Prop28
280
     0
102
RTVSPost2010PropOp28
 70
     1
102
RTVSPost2010Prop29
280
     1
102
RTVSPost2010PropOp29
 70
     1
102
RTVSPost2010Prop30
280
     1
102
RTVSPost2010PropOp30
 70
     1
102
RTVSPost2010Prop31
280
     0
102
RTVSPost2010PropOp31
 70
     1
102
RTVSPost2010Prop32
280
     0
102
RTVSPost2010PropOp32
 70
     1
102
RTVSPost2010Prop33
280
     0
102
RTVSPost2010PropOp33
 70
     1
102
RTVSPost2010Prop34
280
     0
102
RTVSPost2010PropOp34
 70
     1
102
RTVSPost2010Prop35
280
     0
102
RTVSPost2010PropOp35
 70
     1
102
RTVSPost2010Prop36
280
     0
102
RTVSPost2010PropOp36
 70
     1
102
RTVSPost2010Prop37
 90
       50
102
RTVSPost2010PropOp37
 70
     1
102
RTVSPost2010Prop38
140
0.0
102
RTVSPost2010PropOp38
 70
     1
102
RTVSPost2010Prop39
140
1.0
102
RTVSPost2010PropOp39
 70
     1
102
RTVSPost2010Prop40
 90
        0
102
RTVSPost2010PropOp40
 70
     1
102
RTVSPost2010Prop41ColorIndex
 90
       18
102
RTVSPost2010Prop41ColorRGB
 90
        0
102
RTVSPost2010PropOp41
 70
     1
102
RTVSPost2010Prop42
 90
       50
102
RTVSPost2010PropOp42
 70
     1
102
RTVSPost2010Prop43
 90
        3
102
RTVSPost2010PropOp43
 70
     1
102
RTVSPost2010Prop44ColorIndex
 90
        5
102
RTVSPost2010Prop44ColorRGB
 90
      255
102
RTVSPost2010PropOp44
 70
     1
102
RTVSPost2010Prop45
280
     0
102
RTVSPost2010PropOp45
 70
     1
102
RTVSPost2010Prop46
 90
       50
102
RTVSPost2010PropOp46
 70
     1
102
RTVSPost2010Prop47
 90
       50
102
RTVSPost2010PropOp47
 70
     1
102
RTVSPost2010Prop48
 90
       50
102
RTVSPost2010PropOp48
 70
     1
102
RTVSPost2010Prop49
280
     0
102
RTVSPost2010PropOp49
 70
     1
102
RTVSPost2010Prop50
 90
       50
102
RTVSPost2010PropOp50
 70
     1
102
RTVSPost2010Prop51ColorIndex
 90
      256
102
RTVSPost2010Prop51ColorRGB
 90
-16777216
102
RTVSPost2010PropOp51
 70
     0
102
RTVSPost2010Prop52
140
1.0
102
RTVSPost2010PropOp52
 70
     0
102
RTVSPost2010Prop53
 90
        2
102
RTVSPost2010PropOp53
 70
     1
102
RTVSPost2010Prop54
  1
strokes_ogs.tif
102
RTVSPost2010PropOp54
 70
     1
102
RTVSPost2010Prop55
280
     0
102
RTVSPost2010PropOp55
 70
     1
102
RTVSPost2010Prop56
140
1.0
102
RTVSPost2010PropOp56
 70
     1
102
RTVSPost2010Prop57
140
1.0
102
RTVSPost2010PropOp57
 70
     1
102
RTVSPropertyOp0
 70
     1
102
RTVSPropertyOp1
 70
     1
102
RTVSPropertyOp2
 70
     1
102
RTVSPropertyOp3
 70
     1
102
RTVSPropertyOp4
 70
     1
102
RTVSPropertyOp5
 70
     1
102
RTVSPropertyOp6
 70
     1
102
RTVSPropertyOp7
 70
     1
102
RTVSPropertyOp8
 70
     1
102
RTVSPropertyOp9
 70
     1
102
RTVSPropertyOp10
 70
     1
102
RTVSPropertyOp11
 70
     1
102
RTVSPropertyOp12
 70
     1
102
RTVSPropertyOp13
 70
     1
102
RTVSPropertyOp14
 70
     1
102
RTVSPropertyOp15
 70
     1
102
RTVSPropertyOp16
 70
     1
102
RTVSPropertyOp17
 70
     1
102
RTVSPropertyOp18
 70
     1
102
RTVSPropertyOp19
 70
     1
102
RTVSPropertyOp20
 70
     1
102
RTVSPropertyOp21
 70
     1
102
RTVSPropertyOp22
 70
     1
102
RTVSPropertyOp23
 70
     1
102
RTVSPropertyOp24
 70
     1
102
RTVSPropertyOp25
 70
     1
102
RTVSPropertyOp26
 70
     1
102
RTVSPropertyOp27
 70
     1
102
RTVSPropertyOp28
 70
     1
102
RTVSPropertyOp29
 70
     1
102
RTVSPropertyOp30
 70
     1
102
RTVSPropertyOp31
 70
     1
102
RTVSPropertyOp32
 70
     1
102
RTVSPropertyOp33
 70
     1
102
RTVSPropertyOp34
 70
     1
102
RTVSPropertyOp35
 70
     1
102
RTVSPropertyOp36
 70
     1
102
RTVSPropertyOp37
 70
     1
102
RTVSPropertyOp38
 70
     1
102
RTVSPropertyOp39
 70
     1
102
RTVSPropertyOp40
 70
     1
102
RTVSPropertyOp41
 70
     1
102
RTVSPropertyOp42
 70
     1
102
RTVSPropertyOp43
 70
     1
102
RTVSPropertyOp44
 70
     1
102
RTVSPropertyOp45
 70
     1
102
RTVSPropertyOp46
 70
     1
102
RTVSPropertyOp47
 70
     1
102
RTVSPropertyOp48
 70
     1
102
RTVSPropertyOp49
 70
     1
102
RTVSPropertyOp50
 70
     1
102
RTVSPropertyOp51
 70
     0
102
RTVSPropertyOp52
 70
     0
102
RTVSPropertyOp53
 70
     1
102
RTVSPropertyOp54
 70
     1
102
RTVSPropertyOp55
 70
     1
102
RTVSPropertyOp56
 70
     1
102
RTVSPropertyOp57
 70
     1
102
RTVSPropertyOp58
 70
     1
102
RTVSPropertyOp59
 70
     1
102
RTVSPropertyOp60
 70
     1
102
RTVSPropertyOp61
 70
     1
102
RTVSPropertyOp62
 70
     1
  0
XRECORD
  5
190E
102
{ACAD_REACTORS
330
190D
102
}
330
190D
100
AcDbXrecord
280
     1
102
RTVSPost2010Prop28
280
     0
102
RTVSPost2010PropOp28
 70
     1
102
RTVSPost2010Prop29
280
     1
102
RTVSPost2010PropOp29
 70
     1
102
RTVSPost2010Prop30
280
     1
102
RTVSPost2010PropOp30
 70
     1
102
RTVSPost2010Prop31
280
     0
102
RTVSPost2010PropOp31
 70
     1
102
RTVSPost2010Prop32
280
     0
102
RTVSPost2010PropOp32
 70
     1
102
RTVSPost2010Prop33
280
     0
102
RTVSPost2010PropOp33
 70
     1
102
RTVSPost2010Prop34
280
     0
102
RTVSPost2010PropOp34
 70
     1
102
RTVSPost2010Prop35
280
     0
102
RTVSPost2010PropOp35
 70
     1
102
RTVSPost2010Prop36
280
     0
102
RTVSPost2010PropOp36
 70
     1
102
RTVSPost2010Prop37
 90
       50
102
RTVSPost2010PropOp37
 70
     1
102
RTVSPost2010Prop38
140
0.0
102
RTVSPost2010PropOp38
 70
     1
102
RTVSPost2010Prop39
140
1.0
102
RTVSPost2010PropOp39
 70
     1
102
RTVSPost2010Prop40
 90
        0
102
RTVSPost2010PropOp40
 70
     1
102
RTVSPost2010Prop41ColorIndex
 90
       18
102
RTVSPost2010Prop41ColorRGB
 90
        0
102
RTVSPost2010PropOp41
 70
     1
102
RTVSPost2010Prop42
 90
       50
102
RTVSPost2010PropOp42
 70
     1
102
RTVSPost2010Prop43
 90
        3
102
RTVSPost2010PropOp43
 70
     1
102
RTVSPost2010Prop44ColorIndex
 90
        5
102
RTVSPost2010Prop44ColorRGB
 90
      255
102
RTVSPost2010PropOp44
 70
     1
102
RTVSPost2010Prop45
280
     0
102
RTVSPost2010PropOp45
 70
     1
102
RTVSPost2010Prop46
 90
       50
102
RTVSPost2010PropOp46
 70
     1
102
RTVSPost2010Prop47
 90
       50
102
RTVSPost2010PropOp47
 70
     1
102
RTVSPost2010Prop48
 90
       50
102
RTVSPost2010PropOp48
 70
     1
102
RTVSPost2010Prop49
280
     0
102
RTVSPost2010PropOp49
 70
     1
102
RTVSPost2010Prop50
 90
       50
102
RTVSPost2010PropOp50
 70
     1
102
RTVSPost2010Prop51ColorIndex
 90
      256
102
RTVSPost2010Prop51ColorRGB
 90
-16777216
102
RTVSPost2010PropOp51
 70
     0
102
RTVSPost2010Prop52
140
1.0
102
RTVSPost2010PropOp52
 70
     0
102
RTVSPost2010Prop53
 90
        2
102
RTVSPost2010PropOp53
 70
     1
102
RTVSPost2010Prop54
  1
strokes_ogs.tif
102
RTVSPost2010PropOp54
 70
     1
102
RTVSPost2010Prop55
280
     0
102
RTVSPost2010PropOp55
 70
     1
102
RTVSPost2010Prop56
140
1.0
102
RTVSPost2010PropOp56
 70
     1
102
RTVSPost2010Prop57
140
1.0
102
RTVSPost2010PropOp57
 70
     1
102
RTVSPropertyOp0
 70
     1
102
RTVSPropertyOp1
 70
     1
102
RTVSPropertyOp2
 70
     1
102
RTVSPropertyOp3
 70
     1
102
RTVSPropertyOp4
 70
     1
102
RTVSPropertyOp5
 70
     1
102
RTVSPropertyOp6
 70
     1
102
RTVSPropertyOp7
 70
     1
102
RTVSPropertyOp8
 70
     1
102
RTVSPropertyOp9
 70
     1
102
RTVSPropertyOp10
 70
     1
102
RTVSPropertyOp11
 70
     1
102
RTVSPropertyOp12
 70
     1
102
RTVSPropertyOp13
 70
     1
102
RTVSPropertyOp14
 70
     1
102
RTVSPropertyOp15
 70
     1
102
RTVSPropertyOp16
 70
     1
102
RTVSPropertyOp17
 70
     1
102
RTVSPropertyOp18
 70
     1
102
RTVSPropertyOp19
 70
     1
102
RTVSPropertyOp20
 70
     1
102
RTVSPropertyOp21
 70
     1
102
RTVSPropertyOp22
 70
     1
102
RTVSPropertyOp23
 70
     1
102
RTVSPropertyOp24
 70
     1
102
RTVSPropertyOp25
 70
     1
102
RTVSPropertyOp26
 70
     1
102
RTVSPropertyOp27
 70
     1
102
RTVSPropertyOp28
 70
     1
102
RTVSPropertyOp29
 70
     1
102
RTVSPropertyOp30
 70
     1
102
RTVSPropertyOp31
 70
     1
102
RTVSPropertyOp32
 70
     1
102
RTVSPropertyOp33
 70
     1
102
RTVSPropertyOp34
 70
     1
102
RTVSPropertyOp35
 70
     1
102
RTVSPropertyOp36
 70
     1
102
RTVSPropertyOp37
 70
     1
102
RTVSPropertyOp38
 70
     1
102
RTVSPropertyOp39
 70
     1
102
RTVSPropertyOp40
 70
     1
102
RTVSPropertyOp41
 70
     1
102
RTVSPropertyOp42
 70
     1
102
RTVSPropertyOp43
 70
     1
102
RTVSPropertyOp44
 70
     1
102
RTVSPropertyOp45
 70
     1
102
RTVSPropertyOp46
 70
     1
102
RTVSPropertyOp47
 70
     1
102
RTVSPropertyOp48
 70
     1
102
RTVSPropertyOp49
 70
     1
102
RTVSPropertyOp50
 70
     1
102
RTVSPropertyOp51
 70
     0
102
RTVSPropertyOp52
 70
     0
102
RTVSPropertyOp53
 70
     1
102
RTVSPropertyOp54
 70
     1
102
RTVSPropertyOp55
 70
     1
102
RTVSPropertyOp56
 70
     1
102
RTVSPropertyOp57
 70
     1
102
RTVSPropertyOp58
 70
     1
102
RTVSPropertyOp59
 70
     1
102
RTVSPropertyOp60
 70
     1
102
RTVSPropertyOp61
 70
     1
102
RTVSPropertyOp62
 70
     1
  0
XRECORD
  5
1928
102
{ACAD_REACTORS
330
1927
102
}
330
1927
100
AcDbXrecord
280
     1
102
RTVSPost2010Prop28
280
     0
102
RTVSPost2010PropOp28
 70
     1
102
RTVSPost2010Prop29
280
     1
102
RTVSPost2010PropOp29
 70
     1
102
RTVSPost2010Prop30
280
     1
102
RTVSPost2010PropOp30
 70
     1
102
RTVSPost2010Prop31
280
     0
102
RTVSPost2010PropOp31
 70
     1
102
RTVSPost2010Prop32
280
     0
102
RTVSPost2010PropOp32
 70
     1
102
RTVSPost2010Prop33
280
     0
102
RTVSPost2010PropOp33
 70
     1
102
RTVSPost2010Prop34
280
     0
102
RTVSPost2010PropOp34
 70
     1
102
RTVSPost2010Prop35
280
     0
102
RTVSPost2010PropOp35
 70
     1
102
RTVSPost2010Prop36
280
     0
102
RTVSPost2010PropOp36
 70
     1
102
RTVSPost2010Prop37
 90
       50
102
RTVSPost2010PropOp37
 70
     0
102
RTVSPost2010Prop38
140
0.0
102
RTVSPost2010PropOp38
 70
     0
102
RTVSPost2010Prop39
140
1.0
102
RTVSPost2010PropOp39
 70
     0
102
RTVSPost2010Prop40
 90
        0
102
RTVSPost2010PropOp40
 70
     0
102
RTVSPost2010Prop41ColorIndex
 90
       18
102
RTVSPost2010Prop41ColorRGB
 90
        0
102
RTVSPost2010PropOp41
 70
     0
102
RTVSPost2010Prop42
 90
       50
102
RTVSPost2010PropOp42
 70
     0
102
RTVSPost2010Prop43
 90
        3
102
RTVSPost2010PropOp43
 70
     0
102
RTVSPost2010Prop44ColorIndex
 90
        5
102
RTVSPost2010Prop44ColorRGB
 90
      255
102
RTVSPost2010PropOp44
 70
     0
102
RTVSPost2010Prop45
280
     0
102
RTVSPost2010PropOp45
 70
     1
102
RTVSPost2010Prop46
 90
       50
102
RTVSPost2010PropOp46
 70
     0
102
RTVSPost2010Prop47
 90
       50
102
RTVSPost2010PropOp47
 70
     0
102
RTVSPost2010Prop48
 90
       50
102
RTVSPost2010PropOp48
 70
     0
102
RTVSPost2010Prop49
280
     0
102
RTVSPost2010PropOp49
 70
     1
102
RTVSPost2010Prop50
 90
       50
102
RTVSPost2010PropOp50
 70
     0
102
RTVSPost2010Prop51ColorIndex
 90
      256
102
RTVSPost2010Prop51ColorRGB
 90
-16777216
102
RTVSPost2010PropOp51
 70
     0
102
RTVSPost2010Prop52
140
1.0
102
RTVSPost2010PropOp52
 70
     0
102
RTVSPost2010Prop53
 90
        2
102
RTVSPost2010PropOp53
 70
     0
102
RTVSPost2010Prop54
  1
strokes_ogs.tif
102
RTVSPost2010PropOp54
 70
     0
102
RTVSPost2010Prop55
280
     0
102
RTVSPost2010PropOp55
 70
     1
102
RTVSPost2010Prop56
140
1.0
102
RTVSPost2010PropOp56
 70
     0
102
RTVSPost2010Prop57
140
1.0
102
RTVSPost2010PropOp57
 70
     0
102
RTVSPropertyOp0
 70
     0
102
RTVSPropertyOp1
 70
     0
102
RTVSPropertyOp2
 70
     0
102
RTVSPropertyOp3
 70
     0
102
RTVSPropertyOp4
 70
     0
102
RTVSPropertyOp5
 70
     0
102
RTVSPropertyOp6
 70
     0
102
RTVSPropertyOp7
 70
     0
102
RTVSPropertyOp8
 70
     0
102
RTVSPropertyOp9
 70
     0
102
RTVSPropertyOp10
 70
     0
102
RTVSPropertyOp11
 70
     0
102
RTVSPropertyOp12
 70
     0
102
RTVSPropertyOp13
 70
     0
102
RTVSPropertyOp14
 70
     2
102
RTVSPropertyOp15
 70
     0
102
RTVSPropertyOp16
 70
     0
102
RTVSPropertyOp17
 70
     0
102
RTVSPropertyOp18
 70
     0
102
RTVSPropertyOp19
 70
     0
102
RTVSPropertyOp20
 70
     0
102
RTVSPropertyOp21
 70
     0
102
RTVSPropertyOp22
 70
     0
102
RTVSPropertyOp23
 70
     0
102
RTVSPropertyOp24
 70
     0
102
RTVSPropertyOp25
 70
     0
102
RTVSPropertyOp26
 70
     0
102
RTVSPropertyOp27
 70
     0
102
RTVSPropertyOp28
 70
     1
102
RTVSPropertyOp29
 70
     1
102
RTVSPropertyOp30
 70
     1
102
RTVSPropertyOp31
 70
     1
102
RTVSPropertyOp32
 70
     1
102
RTVSPropertyOp33
 70
     1
102
RTVSPropertyOp34
 70
     1
102
RTVSPropertyOp35
 70
     1
102
RTVSPropertyOp36
 70
     1
102
RTVSPropertyOp37
 70
     0
102
RTVSPropertyOp38
 70
     0
102
RTVSPropertyOp39
 70
     0
102
RTVSPropertyOp40
 70
     0
102
RTVSPropertyOp41
 70
     0
102
RTVSPropertyOp42
 70
     0
102
RTVSPropertyOp43
 70
     0
102
RTVSPropertyOp44
 70
     0
102
RTVSPropertyOp45
 70
     1
102
RTVSPropertyOp46
 70
     0
102
RTVSPropertyOp47
 70
     0
102
RTVSPropertyOp48
 70
     0
102
RTVSPropertyOp49
 70
     1
102
RTVSPropertyOp50
 70
     0
102
RTVSPropertyOp51
 70
     0
102
RTVSPropertyOp52
 70
     0
102
RTVSPropertyOp53
 70
     0
102
RTVSPropertyOp54
 70
     0
102
RTVSPropertyOp55
 70
     1
102
RTVSPropertyOp56
 70
     0
102
RTVSPropertyOp57
 70
     0
102
RTVSPropertyOp58
 70
     0
102
RTVSPropertyOp59
 70
     0
102
RTVSPropertyOp60
 70
     0
102
RTVSPropertyOp61
 70
     0
102
RTVSPropertyOp62
 70
     0
  0
XRECORD
  5
1916
102
{ACAD_REACTORS
330
1915
102
}
330
1915
100
AcDbXrecord
280
     1
102
RTVSPost2010Prop28
280
     0
102
RTVSPost2010PropOp28
 70
     1
102
RTVSPost2010Prop29
280
     1
102
RTVSPost2010PropOp29
 70
     1
102
RTVSPost2010Prop30
280
     1
102
RTVSPost2010PropOp30
 70
     1
102
RTVSPost2010Prop31
280
     0
102
RTVSPost2010PropOp31
 70
     1
102
RTVSPost2010Prop32
280
     0
102
RTVSPost2010PropOp32
 70
     1
102
RTVSPost2010Prop33
280
     0
102
RTVSPost2010PropOp33
 70
     1
102
RTVSPost2010Prop34
280
     0
102
RTVSPost2010PropOp34
 70
     1
102
RTVSPost2010Prop35
280
     0
102
RTVSPost2010PropOp35
 70
     1
102
RTVSPost2010Prop36
280
     0
102
RTVSPost2010PropOp36
 70
     1
102
RTVSPost2010Prop37
 90
       50
102
RTVSPost2010PropOp37
 70
     1
102
RTVSPost2010Prop38
140
0.0
102
RTVSPost2010PropOp38
 70
     1
102
RTVSPost2010Prop39
140
1.0
102
RTVSPost2010PropOp39
 70
     1
102
RTVSPost2010Prop40
 90
        0
102
RTVSPost2010PropOp40
 70
     1
102
RTVSPost2010Prop41ColorIndex
 90
       18
102
RTVSPost2010Prop41ColorRGB
 90
        0
102
RTVSPost2010PropOp41
 70
     1
102
RTVSPost2010Prop42
 90
       50
102
RTVSPost2010PropOp42
 70
     1
102
RTVSPost2010Prop43
 90
        3
102
RTVSPost2010PropOp43
 70
     1
102
RTVSPost2010Prop44ColorIndex
 90
        5
102
RTVSPost2010Prop44ColorRGB
 90
      255
102
RTVSPost2010PropOp44
 70
     1
102
RTVSPost2010Prop45
280
     0
102
RTVSPost2010PropOp45
 70
     1
102
RTVSPost2010Prop46
 90
       50
102
RTVSPost2010PropOp46
 70
     1
102
RTVSPost2010Prop47
 90
       50
102
RTVSPost2010PropOp47
 70
     1
102
RTVSPost2010Prop48
 90
       50
102
RTVSPost2010PropOp48
 70
     1
102
RTVSPost2010Prop49
280
     0
102
RTVSPost2010PropOp49
 70
     1
102
RTVSPost2010Prop50
 90
       50
102
RTVSPost2010PropOp50
 70
     1
102
RTVSPost2010Prop51ColorIndex
 90
      256
102
RTVSPost2010Prop51ColorRGB
 90
-16777216
102
RTVSPost2010PropOp51
 70
     0
102
RTVSPost2010Prop52
140
1.0
102
RTVSPost2010PropOp52
 70
     0
102
RTVSPost2010Prop53
 90
        2
102
RTVSPost2010PropOp53
 70
     1
102
RTVSPost2010Prop54
  1
strokes_ogs.tif
102
RTVSPost2010PropOp54
 70
     1
102
RTVSPost2010Prop55
280
     0
102
RTVSPost2010PropOp55
 70
     1
102
RTVSPost2010Prop56
140
1.0
102
RTVSPost2010PropOp56
 70
     1
102
RTVSPost2010Prop57
140
1.0
102
RTVSPost2010PropOp57
 70
     1
102
RTVSPropertyOp0
 70
     1
102
RTVSPropertyOp1
 70
     1
102
RTVSPropertyOp2
 70
     1
102
RTVSPropertyOp3
 70
     1
102
RTVSPropertyOp4
 70
     1
102
RTVSPropertyOp5
 70
     1
102
RTVSPropertyOp6
 70
     1
102
RTVSPropertyOp7
 70
     1
102
RTVSPropertyOp8
 70
     1
102
RTVSPropertyOp9
 70
     1
102
RTVSPropertyOp10
 70
     1
102
RTVSPropertyOp11
 70
     1
102
RTVSPropertyOp12
 70
     1
102
RTVSPropertyOp13
 70
     1
102
RTVSPropertyOp14
 70
     1
102
RTVSPropertyOp15
 70
     1
102
RTVSPropertyOp16
 70
     1
102
RTVSPropertyOp17
 70
     1
102
RTVSPropertyOp18
 70
     1
102
RTVSPropertyOp19
 70
     1
102
RTVSPropertyOp20
 70
     1
102
RTVSPropertyOp21
 70
     1
102
RTVSPropertyOp22
 70
     1
102
RTVSPropertyOp23
 70
     1
102
RTVSPropertyOp24
 70
     1
102
RTVSPropertyOp25
 70
     1
102
RTVSPropertyOp26
 70
     1
102
RTVSPropertyOp27
 70
     1
102
RTVSPropertyOp28
 70
     1
102
RTVSPropertyOp29
 70
     1
102
RTVSPropertyOp30
 70
     1
102
RTVSPropertyOp31
 70
     1
102
RTVSPropertyOp32
 70
     1
102
RTVSPropertyOp33
 70
     1
102
RTVSPropertyOp34
 70
     1
102
RTVSPropertyOp35
 70
     1
102
RTVSPropertyOp36
 70
     1
102
RTVSPropertyOp37
 70
     1
102
RTVSPropertyOp38
 70
     1
102
RTVSPropertyOp39
 70
     1
102
RTVSPropertyOp40
 70
     1
102
RTVSPropertyOp41
 70
     1
102
RTVSPropertyOp42
 70
     1
102
RTVSPropertyOp43
 70
     1
102
RTVSPropertyOp44
 70
     1
102
RTVSPropertyOp45
 70
     1
102
RTVSPropertyOp46
 70
     1
102
RTVSPropertyOp47
 70
     1
102
RTVSPropertyOp48
 70
     1
102
RTVSPropertyOp49
 70
     1
102
RTVSPropertyOp50
 70
     1
102
RTVSPropertyOp51
 70
     0
102
RTVSPropertyOp52
 70
     0
102
RTVSPropertyOp53
 70
     1
102
RTVSPropertyOp54
 70
     1
102
RTVSPropertyOp55
 70
     1
102
RTVSPropertyOp56
 70
     1
102
RTVSPropertyOp57
 70
     1
102
RTVSPropertyOp58
 70
     1
102
RTVSPropertyOp59
 70
     1
102
RTVSPropertyOp60
 70
     1
102
RTVSPropertyOp61
 70
     1
102
RTVSPropertyOp62
 70
     1
  0
XRECORD
  5
18FA
102
{ACAD_REACTORS
330
18F9
102
}
330
18F9
100
AcDbXrecord
280
     1
102
RTVSPost2010Prop28
280
     0
102
RTVSPost2010PropOp28
 70
     1
102
RTVSPost2010Prop29
280
     1
102
RTVSPost2010PropOp29
 70
     1
102
RTVSPost2010Prop30
280
     1
102
RTVSPost2010PropOp30
 70
     1
102
RTVSPost2010Prop31
280
     0
102
RTVSPost2010PropOp31
 70
     1
102
RTVSPost2010Prop32
280
     0
102
RTVSPost2010PropOp32
 70
     1
102
RTVSPost2010Prop33
280
     0
102
RTVSPost2010PropOp33
 70
     1
102
RTVSPost2010Prop34
280
     0
102
RTVSPost2010PropOp34
 70
     1
102
RTVSPost2010Prop35
280
     0
102
RTVSPost2010PropOp35
 70
     1
102
RTVSPost2010Prop36
280
     0
102
RTVSPost2010PropOp36
 70
     1
102
RTVSPost2010Prop37
 90
       50
102
RTVSPost2010PropOp37
 70
     1
102
RTVSPost2010Prop38
140
0.0
102
RTVSPost2010PropOp38
 70
     1
102
RTVSPost2010Prop39
140
1.0
102
RTVSPost2010PropOp39
 70
     1
102
RTVSPost2010Prop40
 90
        0
102
RTVSPost2010PropOp40
 70
     1
102
RTVSPost2010Prop41ColorIndex
 90
       18
102
RTVSPost2010Prop41ColorRGB
 90
        0
102
RTVSPost2010PropOp41
 70
     1
102
RTVSPost2010Prop42
 90
       50
102
RTVSPost2010PropOp42
 70
     1
102
RTVSPost2010Prop43
 90
        3
102
RTVSPost2010PropOp43
 70
     1
102
RTVSPost2010Prop44ColorIndex
 90
        5
102
RTVSPost2010Prop44ColorRGB
 90
      255
102
RTVSPost2010PropOp44
 70
     1
102
RTVSPost2010Prop45
280
     0
102
RTVSPost2010PropOp45
 70
     1
102
RTVSPost2010Prop46
 90
       50
102
RTVSPost2010PropOp46
 70
     1
102
RTVSPost2010Prop47
 90
       50
102
RTVSPost2010PropOp47
 70
     1
102
RTVSPost2010Prop48
 90
       50
102
RTVSPost2010PropOp48
 70
     1
102
RTVSPost2010Prop49
280
     0
102
RTVSPost2010PropOp49
 70
     1
102
RTVSPost2010Prop50
 90
       50
102
RTVSPost2010PropOp50
 70
     1
102
RTVSPost2010Prop51ColorIndex
 90
      256
102
RTVSPost2010Prop51ColorRGB
 90
-16777216
102
RTVSPost2010PropOp51
 70
     0
102
RTVSPost2010Prop52
140
1.0
102
RTVSPost2010PropOp52
 70
     0
102
RTVSPost2010Prop53
 90
        2
102
RTVSPost2010PropOp53
 70
     1
102
RTVSPost2010Prop54
  1
strokes_ogs.tif
102
RTVSPost2010PropOp54
 70
     1
102
RTVSPost2010Prop55
280
     0
102
RTVSPost2010PropOp55
 70
     1
102
RTVSPost2010Prop56
140
1.0
102
RTVSPost2010PropOp56
 70
     1
102
RTVSPost2010Prop57
140
1.0
102
RTVSPost2010PropOp57
 70
     1
102
RTVSPropertyOp0
 70
     1
102
RTVSPropertyOp1
 70
     1
102
RTVSPropertyOp2
 70
     1
102
RTVSPropertyOp3
 70
     1
102
RTVSPropertyOp4
 70
     1
102
RTVSPropertyOp5
 70
     1
102
RTVSPropertyOp6
 70
     1
102
RTVSPropertyOp7
 70
     1
102
RTVSPropertyOp8
 70
     1
102
RTVSPropertyOp9
 70
     1
102
RTVSPropertyOp10
 70
     1
102
RTVSPropertyOp11
 70
     1
102
RTVSPropertyOp12
 70
     1
102
RTVSPropertyOp13
 70
     1
102
RTVSPropertyOp14
 70
     1
102
RTVSPropertyOp15
 70
     1
102
RTVSPropertyOp16
 70
     1
102
RTVSPropertyOp17
 70
     1
102
RTVSPropertyOp18
 70
     1
102
RTVSPropertyOp19
 70
     1
102
RTVSPropertyOp20
 70
     1
102
RTVSPropertyOp21
 70
     1
102
RTVSPropertyOp22
 70
     1
102
RTVSPropertyOp23
 70
     1
102
RTVSPropertyOp24
 70
     1
102
RTVSPropertyOp25
 70
     1
102
RTVSPropertyOp26
 70
     1
102
RTVSPropertyOp27
 70
     1
102
RTVSPropertyOp28
 70
     1
102
RTVSPropertyOp29
 70
     1
102
RTVSPropertyOp30
 70
     1
102
RTVSPropertyOp31
 70
     1
102
RTVSPropertyOp32
 70
     1
102
RTVSPropertyOp33
 70
     1
102
RTVSPropertyOp34
 70
     1
102
RTVSPropertyOp35
 70
     1
102
RTVSPropertyOp36
 70
     1
102
RTVSPropertyOp37
 70
     1
102
RTVSPropertyOp38
 70
     1
102
RTVSPropertyOp39
 70
     1
102
RTVSPropertyOp40
 70
     1
102
RTVSPropertyOp41
 70
     1
102
RTVSPropertyOp42
 70
     1
102
RTVSPropertyOp43
 70
     1
102
RTVSPropertyOp44
 70
     1
102
RTVSPropertyOp45
 70
     1
102
RTVSPropertyOp46
 70
     1
102
RTVSPropertyOp47
 70
     1
102
RTVSPropertyOp48
 70
     1
102
RTVSPropertyOp49
 70
     1
102
RTVSPropertyOp50
 70
     1
102
RTVSPropertyOp51
 70
     0
102
RTVSPropertyOp52
 70
     0
102
RTVSPropertyOp53
 70
     1
102
RTVSPropertyOp54
 70
     1
102
RTVSPropertyOp55
 70
     1
102
RTVSPropertyOp56
 70
     1
102
RTVSPropertyOp57
 70
     1
102
RTVSPropertyOp58
 70
     1
102
RTVSPropertyOp59
 70
     1
102
RTVSPropertyOp60
 70
     1
102
RTVSPropertyOp61
 70
     1
102
RTVSPropertyOp62
 70
     1
  0
XRECORD
  5
18FC
102
{ACAD_REACTORS
330
18FB
102
}
330
18FB
100
AcDbXrecord
280
     1
102
RTVSPost2010Prop28
280
     0
102
RTVSPost2010PropOp28
 70
     1
102
RTVSPost2010Prop29
280
     1
102
RTVSPost2010PropOp29
 70
     1
102
RTVSPost2010Prop30
280
     1
102
RTVSPost2010PropOp30
 70
     1
102
RTVSPost2010Prop31
280
     0
102
RTVSPost2010PropOp31
 70
     1
102
RTVSPost2010Prop32
280
     0
102
RTVSPost2010PropOp32
 70
     1
102
RTVSPost2010Prop33
280
     0
102
RTVSPost2010PropOp33
 70
     1
102
RTVSPost2010Prop34
280
     0
102
RTVSPost2010PropOp34
 70
     1
102
RTVSPost2010Prop35
280
     0
102
RTVSPost2010PropOp35
 70
     1
102
RTVSPost2010Prop36
280
     0
102
RTVSPost2010PropOp36
 70
     1
102
RTVSPost2010Prop37
 90
       50
102
RTVSPost2010PropOp37
 70
     1
102
RTVSPost2010Prop38
140
0.0
102
RTVSPost2010PropOp38
 70
     1
102
RTVSPost2010Prop39
140
1.0
102
RTVSPost2010PropOp39
 70
     1
102
RTVSPost2010Prop40
 90
        0
102
RTVSPost2010PropOp40
 70
     1
102
RTVSPost2010Prop41ColorIndex
 90
       18
102
RTVSPost2010Prop41ColorRGB
 90
        0
102
RTVSPost2010PropOp41
 70
     1
102
RTVSPost2010Prop42
 90
       50
102
RTVSPost2010PropOp42
 70
     1
102
RTVSPost2010Prop43
 90
        3
102
RTVSPost2010PropOp43
 70
     1
102
RTVSPost2010Prop44ColorIndex
 90
        5
102
RTVSPost2010Prop44ColorRGB
 90
      255
102
RTVSPost2010PropOp44
 70
     1
102
RTVSPost2010Prop45
280
     0
102
RTVSPost2010PropOp45
 70
     1
102
RTVSPost2010Prop46
 90
       50
102
RTVSPost2010PropOp46
 70
     1
102
RTVSPost2010Prop47
 90
       50
102
RTVSPost2010PropOp47
 70
     1
102
RTVSPost2010Prop48
 90
       50
102
RTVSPost2010PropOp48
 70
     1
102
RTVSPost2010Prop49
280
     0
102
RTVSPost2010PropOp49
 70
     1
102
RTVSPost2010Prop50
 90
       50
102
RTVSPost2010PropOp50
 70
     1
102
RTVSPost2010Prop51ColorIndex
 90
      256
102
RTVSPost2010Prop51ColorRGB
 90
-16777216
102
RTVSPost2010PropOp51
 70
     0
102
RTVSPost2010Prop52
140
1.0
102
RTVSPost2010PropOp52
 70
     0
102
RTVSPost2010Prop53
 90
        2
102
RTVSPost2010PropOp53
 70
     1
102
RTVSPost2010Prop54
  1
strokes_ogs.tif
102
RTVSPost2010PropOp54
 70
     1
102
RTVSPost2010Prop55
280
     0
102
RTVSPost2010PropOp55
 70
     1
102
RTVSPost2010Prop56
140
1.0
102
RTVSPost2010PropOp56
 70
     1
102
RTVSPost2010Prop57
140
1.0
102
RTVSPost2010PropOp57
 70
     1
102
RTVSPropertyOp0
 70
     1
102
RTVSPropertyOp1
 70
     1
102
RTVSPropertyOp2
 70
     1
102
RTVSPropertyOp3
 70
     1
102
RTVSPropertyOp4
 70
     1
102
RTVSPropertyOp5
 70
     1
102
RTVSPropertyOp6
 70
     1
102
RTVSPropertyOp7
 70
     1
102
RTVSPropertyOp8
 70
     1
102
RTVSPropertyOp9
 70
     1
102
RTVSPropertyOp10
 70
     1
102
RTVSPropertyOp11
 70
     1
102
RTVSPropertyOp12
 70
     1
102
RTVSPropertyOp13
 70
     1
102
RTVSPropertyOp14
 70
     1
102
RTVSPropertyOp15
 70
     1
102
RTVSPropertyOp16
 70
     1
102
RTVSPropertyOp17
 70
     1
102
RTVSPropertyOp18
 70
     1
102
RTVSPropertyOp19
 70
     1
102
RTVSPropertyOp20
 70
     1
102
RTVSPropertyOp21
 70
     1
102
RTVSPropertyOp22
 70
     1
102
RTVSPropertyOp23
 70
     1
102
RTVSPropertyOp24
 70
     1
102
RTVSPropertyOp25
 70
     1
102
RTVSPropertyOp26
 70
     1
102
RTVSPropertyOp27
 70
     1
102
RTVSPropertyOp28
 70
     1
102
RTVSPropertyOp29
 70
     1
102
RTVSPropertyOp30
 70
     1
102
RTVSPropertyOp31
 70
     1
102
RTVSPropertyOp32
 70
     1
102
RTVSPropertyOp33
 70
     1
102
RTVSPropertyOp34
 70
     1
102
RTVSPropertyOp35
 70
     1
102
RTVSPropertyOp36
 70
     1
102
RTVSPropertyOp37
 70
     1
102
RTVSPropertyOp38
 70
     1
102
RTVSPropertyOp39
 70
     1
102
RTVSPropertyOp40
 70
     1
102
RTVSPropertyOp41
 70
     1
102
RTVSPropertyOp42
 70
     1
102
RTVSPropertyOp43
 70
     1
102
RTVSPropertyOp44
 70
     1
102
RTVSPropertyOp45
 70
     1
102
RTVSPropertyOp46
 70
     1
102
RTVSPropertyOp47
 70
     1
102
RTVSPropertyOp48
 70
     1
102
RTVSPropertyOp49
 70
     1
102
RTVSPropertyOp50
 70
     1
102
RTVSPropertyOp51
 70
     0
102
RTVSPropertyOp52
 70
     0
102
RTVSPropertyOp53
 70
     1
102
RTVSPropertyOp54
 70
     1
102
RTVSPropertyOp55
 70
     1
102
RTVSPropertyOp56
 70
     1
102
RTVSPropertyOp57
 70
     1
102
RTVSPropertyOp58
 70
     1
102
RTVSPropertyOp59
 70
     1
102
RTVSPropertyOp60
 70
     1
102
RTVSPropertyOp61
 70
     1
102
RTVSPropertyOp62
 70
     1
  0
XRECORD
  5
18FE
102
{ACAD_REACTORS
330
18FD
102
}
330
18FD
100
AcDbXrecord
280
     1
102
RTVSPost2010Prop28
280
     0
102
RTVSPost2010PropOp28
 70
     1
102
RTVSPost2010Prop29
280
     1
102
RTVSPost2010PropOp29
 70
     1
102
RTVSPost2010Prop30
280
     1
102
RTVSPost2010PropOp30
 70
     1
102
RTVSPost2010Prop31
280
     0
102
RTVSPost2010PropOp31
 70
     1
102
RTVSPost2010Prop32
280
     0
102
RTVSPost2010PropOp32
 70
     1
102
RTVSPost2010Prop33
280
     0
102
RTVSPost2010PropOp33
 70
     1
102
RTVSPost2010Prop34
280
     0
102
RTVSPost2010PropOp34
 70
     1
102
RTVSPost2010Prop35
280
     0
102
RTVSPost2010PropOp35
 70
     1
102
RTVSPost2010Prop36
280
     0
102
RTVSPost2010PropOp36
 70
     1
102
RTVSPost2010Prop37
 90
       50
102
RTVSPost2010PropOp37
 70
     1
102
RTVSPost2010Prop38
140
0.0
102
RTVSPost2010PropOp38
 70
     1
102
RTVSPost2010Prop39
140
1.0
102
RTVSPost2010PropOp39
 70
     1
102
RTVSPost2010Prop40
 90
        0
102
RTVSPost2010PropOp40
 70
     1
102
RTVSPost2010Prop41ColorIndex
 90
       18
102
RTVSPost2010Prop41ColorRGB
 90
        0
102
RTVSPost2010PropOp41
 70
     1
102
RTVSPost2010Prop42
 90
       50
102
RTVSPost2010PropOp42
 70
     1
102
RTVSPost2010Prop43
 90
        3
102
RTVSPost2010PropOp43
 70
     1
102
RTVSPost2010Prop44ColorIndex
 90
        5
102
RTVSPost2010Prop44ColorRGB
 90
      255
102
RTVSPost2010PropOp44
 70
     1
102
RTVSPost2010Prop45
280
     0
102
RTVSPost2010PropOp45
 70
     1
102
RTVSPost2010Prop46
 90
       50
102
RTVSPost2010PropOp46
 70
     1
102
RTVSPost2010Prop47
 90
       50
102
RTVSPost2010PropOp47
 70
     1
102
RTVSPost2010Prop48
 90
       50
102
RTVSPost2010PropOp48
 70
     1
102
RTVSPost2010Prop49
280
     0
102
RTVSPost2010PropOp49
 70
     1
102
RTVSPost2010Prop50
 90
       50
102
RTVSPost2010PropOp50
 70
     1
102
RTVSPost2010Prop51ColorIndex
 90
      256
102
RTVSPost2010Prop51ColorRGB
 90
-16777216
102
RTVSPost2010PropOp51
 70
     0
102
RTVSPost2010Prop52
140
1.0
102
RTVSPost2010PropOp52
 70
     0
102
RTVSPost2010Prop53
 90
        2
102
RTVSPost2010PropOp53
 70
     1
102
RTVSPost2010Prop54
  1
strokes_ogs.tif
102
RTVSPost2010PropOp54
 70
     1
102
RTVSPost2010Prop55
280
     0
102
RTVSPost2010PropOp55
 70
     1
102
RTVSPost2010Prop56
140
1.0
102
RTVSPost2010PropOp56
 70
     1
102
RTVSPost2010Prop57
140
1.0
102
RTVSPost2010PropOp57
 70
     1
102
RTVSPropertyOp0
 70
     1
102
RTVSPropertyOp1
 70
     1
102
RTVSPropertyOp2
 70
     1
102
RTVSPropertyOp3
 70
     1
102
RTVSPropertyOp4
 70
     1
102
RTVSPropertyOp5
 70
     1
102
RTVSPropertyOp6
 70
     1
102
RTVSPropertyOp7
 70
     1
102
RTVSPropertyOp8
 70
     1
102
RTVSPropertyOp9
 70
     1
102
RTVSPropertyOp10
 70
     1
102
RTVSPropertyOp11
 70
     1
102
RTVSPropertyOp12
 70
     1
102
RTVSPropertyOp13
 70
     1
102
RTVSPropertyOp14
 70
     1
102
RTVSPropertyOp15
 70
     1
102
RTVSPropertyOp16
 70
     1
102
RTVSPropertyOp17
 70
     1
102
RTVSPropertyOp18
 70
     1
102
RTVSPropertyOp19
 70
     1
102
RTVSPropertyOp20
 70
     1
102
RTVSPropertyOp21
 70
     1
102
RTVSPropertyOp22
 70
     1
102
RTVSPropertyOp23
 70
     1
102
RTVSPropertyOp24
 70
     1
102
RTVSPropertyOp25
 70
     1
102
RTVSPropertyOp26
 70
     1
102
RTVSPropertyOp27
 70
     1
102
RTVSPropertyOp28
 70
     1
102
RTVSPropertyOp29
 70
     1
102
RTVSPropertyOp30
 70
     1
102
RTVSPropertyOp31
 70
     1
102
RTVSPropertyOp32
 70
     1
102
RTVSPropertyOp33
 70
     1
102
RTVSPropertyOp34
 70
     1
102
RTVSPropertyOp35
 70
     1
102
RTVSPropertyOp36
 70
     1
102
RTVSPropertyOp37
 70
     1
102
RTVSPropertyOp38
 70
     1
102
RTVSPropertyOp39
 70
     1
102
RTVSPropertyOp40
 70
     1
102
RTVSPropertyOp41
 70
     1
102
RTVSPropertyOp42
 70
     1
102
RTVSPropertyOp43
 70
     1
102
RTVSPropertyOp44
 70
     1
102
RTVSPropertyOp45
 70
     1
102
RTVSPropertyOp46
 70
     1
102
RTVSPropertyOp47
 70
     1
102
RTVSPropertyOp48
 70
     1
102
RTVSPropertyOp49
 70
     1
102
RTVSPropertyOp50
 70
     1
102
RTVSPropertyOp51
 70
     0
102
RTVSPropertyOp52
 70
     0
102
RTVSPropertyOp53
 70
     1
102
RTVSPropertyOp54
 70
     1
102
RTVSPropertyOp55
 70
     1
102
RTVSPropertyOp56
 70
     1
102
RTVSPropertyOp57
 70
     1
102
RTVSPropertyOp58
 70
     1
102
RTVSPropertyOp59
 70
     1
102
RTVSPropertyOp60
 70
     1
102
RTVSPropertyOp61
 70
     1
102
RTVSPropertyOp62
 70
     1
  0
XRECORD
  5
1900
102
{ACAD_REACTORS
330
18FF
102
}
330
18FF
100
AcDbXrecord
280
     1
102
RTVSPost2010Prop28
280
     0
102
RTVSPost2010PropOp28
 70
     1
102
RTVSPost2010Prop29
280
     1
102
RTVSPost2010PropOp29
 70
     1
102
RTVSPost2010Prop30
280
     1
102
RTVSPost2010PropOp30
 70
     1
102
RTVSPost2010Prop31
280
     0
102
RTVSPost2010PropOp31
 70
     1
102
RTVSPost2010Prop32
280
     0
102
RTVSPost2010PropOp32
 70
     1
102
RTVSPost2010Prop33
280
     0
102
RTVSPost2010PropOp33
 70
     1
102
RTVSPost2010Prop34
280
     0
102
RTVSPost2010PropOp34
 70
     1
102
RTVSPost2010Prop35
280
     0
102
RTVSPost2010PropOp35
 70
     1
102
RTVSPost2010Prop36
280
     0
102
RTVSPost2010PropOp36
 70
     1
102
RTVSPost2010Prop37
 90
       50
102
RTVSPost2010PropOp37
 70
     1
102
RTVSPost2010Prop38
140
0.0
102
RTVSPost2010PropOp38
 70
     1
102
RTVSPost2010Prop39
140
1.0
102
RTVSPost2010PropOp39
 70
     1
102
RTVSPost2010Prop40
 90
        0
102
RTVSPost2010PropOp40
 70
     1
102
RTVSPost2010Prop41ColorIndex
 90
       18
102
RTVSPost2010Prop41ColorRGB
 90
        0
102
RTVSPost2010PropOp41
 70
     1
102
RTVSPost2010Prop42
 90
       50
102
RTVSPost2010PropOp42
 70
     1
102
RTVSPost2010Prop43
 90
        3
102
RTVSPost2010PropOp43
 70
     1
102
RTVSPost2010Prop44ColorIndex
 90
        5
102
RTVSPost2010Prop44ColorRGB
 90
      255
102
RTVSPost2010PropOp44
 70
     1
102
RTVSPost2010Prop45
280
     0
102
RTVSPost2010PropOp45
 70
     1
102
RTVSPost2010Prop46
 90
       50
102
RTVSPost2010PropOp46
 70
     1
102
RTVSPost2010Prop47
 90
       50
102
RTVSPost2010PropOp47
 70
     1
102
RTVSPost2010Prop48
 90
       50
102
RTVSPost2010PropOp48
 70
     1
102
RTVSPost2010Prop49
280
     0
102
RTVSPost2010PropOp49
 70
     1
102
RTVSPost2010Prop50
 90
       50
102
RTVSPost2010PropOp50
 70
     1
102
RTVSPost2010Prop51ColorIndex
 90
      256
102
RTVSPost2010Prop51ColorRGB
 90
-16777216
102
RTVSPost2010PropOp51
 70
     0
102
RTVSPost2010Prop52
140
1.0
102
RTVSPost2010PropOp52
 70
     0
102
RTVSPost2010Prop53
 90
        2
102
RTVSPost2010PropOp53
 70
     1
102
RTVSPost2010Prop54
  1
strokes_ogs.tif
102
RTVSPost2010PropOp54
 70
     1
102
RTVSPost2010Prop55
280
     0
102
RTVSPost2010PropOp55
 70
     1
102
RTVSPost2010Prop56
140
1.0
102
RTVSPost2010PropOp56
 70
     1
102
RTVSPost2010Prop57
140
1.0
102
RTVSPost2010PropOp57
 70
     1
102
RTVSPropertyOp0
 70
     1
102
RTVSPropertyOp1
 70
     1
102
RTVSPropertyOp2
 70
     1
102
RTVSPropertyOp3
 70
     1
102
RTVSPropertyOp4
 70
     1
102
RTVSPropertyOp5
 70
     1
102
RTVSPropertyOp6
 70
     1
102
RTVSPropertyOp7
 70
     1
102
RTVSPropertyOp8
 70
     1
102
RTVSPropertyOp9
 70
     1
102
RTVSPropertyOp10
 70
     1
102
RTVSPropertyOp11
 70
     1
102
RTVSPropertyOp12
 70
     1
102
RTVSPropertyOp13
 70
     1
102
RTVSPropertyOp14
 70
     1
102
RTVSPropertyOp15
 70
     1
102
RTVSPropertyOp16
 70
     1
102
RTVSPropertyOp17
 70
     1
102
RTVSPropertyOp18
 70
     1
102
RTVSPropertyOp19
 70
     1
102
RTVSPropertyOp20
 70
     1
102
RTVSPropertyOp21
 70
     1
102
RTVSPropertyOp22
 70
     1
102
RTVSPropertyOp23
 70
     1
102
RTVSPropertyOp24
 70
     1
102
RTVSPropertyOp25
 70
     1
102
RTVSPropertyOp26
 70
     1
102
RTVSPropertyOp27
 70
     1
102
RTVSPropertyOp28
 70
     1
102
RTVSPropertyOp29
 70
     1
102
RTVSPropertyOp30
 70
     1
102
RTVSPropertyOp31
 70
     1
102
RTVSPropertyOp32
 70
     1
102
RTVSPropertyOp33
 70
     1
102
RTVSPropertyOp34
 70
     1
102
RTVSPropertyOp35
 70
     1
102
RTVSPropertyOp36
 70
     1
102
RTVSPropertyOp37
 70
     1
102
RTVSPropertyOp38
 70
     1
102
RTVSPropertyOp39
 70
     1
102
RTVSPropertyOp40
 70
     1
102
RTVSPropertyOp41
 70
     1
102
RTVSPropertyOp42
 70
     1
102
RTVSPropertyOp43
 70
     1
102
RTVSPropertyOp44
 70
     1
102
RTVSPropertyOp45
 70
     1
102
RTVSPropertyOp46
 70
     1
102
RTVSPropertyOp47
 70
     1
102
RTVSPropertyOp48
 70
     1
102
RTVSPropertyOp49
 70
     1
102
RTVSPropertyOp50
 70
     1
102
RTVSPropertyOp51
 70
     0
102
RTVSPropertyOp52
 70
     0
102
RTVSPropertyOp53
 70
     1
102
RTVSPropertyOp54
 70
     1
102
RTVSPropertyOp55
 70
     1
102
RTVSPropertyOp56
 70
     1
102
RTVSPropertyOp57
 70
     1
102
RTVSPropertyOp58
 70
     1
102
RTVSPropertyOp59
 70
     1
102
RTVSPropertyOp60
 70
     1
102
RTVSPropertyOp61
 70
     1
102
RTVSPropertyOp62
 70
     1
  0
XRECORD
  5
1908
102
{ACAD_REACTORS
330
1907
102
}
330
1907
100
AcDbXrecord
280
     1
102
RTVSPost2010Prop28
280
     0
102
RTVSPost2010PropOp28
 70
     1
102
RTVSPost2010Prop29
280
     1
102
RTVSPost2010PropOp29
 70
     1
102
RTVSPost2010Prop30
280
     1
102
RTVSPost2010PropOp30
 70
     1
102
RTVSPost2010Prop31
280
     0
102
RTVSPost2010PropOp31
 70
     1
102
RTVSPost2010Prop32
280
     0
102
RTVSPost2010PropOp32
 70
     1
102
RTVSPost2010Prop33
280
     0
102
RTVSPost2010PropOp33
 70
     1
102
RTVSPost2010Prop34
280
     0
102
RTVSPost2010PropOp34
 70
     1
102
RTVSPost2010Prop35
280
     0
102
RTVSPost2010PropOp35
 70
     1
102
RTVSPost2010Prop36
280
     0
102
RTVSPost2010PropOp36
 70
     1
102
RTVSPost2010Prop37
 90
       50
102
RTVSPost2010PropOp37
 70
     1
102
RTVSPost2010Prop38
140
0.0
102
RTVSPost2010PropOp38
 70
     1
102
RTVSPost2010Prop39
140
1.0
102
RTVSPost2010PropOp39
 70
     1
102
RTVSPost2010Prop40
 90
        0
102
RTVSPost2010PropOp40
 70
     1
102
RTVSPost2010Prop41ColorIndex
 90
       18
102
RTVSPost2010Prop41ColorRGB
 90
        0
102
RTVSPost2010PropOp41
 70
     1
102
RTVSPost2010Prop42
 90
       50
102
RTVSPost2010PropOp42
 70
     1
102
RTVSPost2010Prop43
 90
        3
102
RTVSPost2010PropOp43
 70
     1
102
RTVSPost2010Prop44ColorIndex
 90
        5
102
RTVSPost2010Prop44ColorRGB
 90
      255
102
RTVSPost2010PropOp44
 70
     1
102
RTVSPost2010Prop45
280
     0
102
RTVSPost2010PropOp45
 70
     1
102
RTVSPost2010Prop46
 90
       50
102
RTVSPost2010PropOp46
 70
     1
102
RTVSPost2010Prop47
 90
       50
102
RTVSPost2010PropOp47
 70
     1
102
RTVSPost2010Prop48
 90
       50
102
RTVSPost2010PropOp48
 70
     1
102
RTVSPost2010Prop49
280
     0
102
RTVSPost2010PropOp49
 70
     1
102
RTVSPost2010Prop50
 90
       50
102
RTVSPost2010PropOp50
 70
     1
102
RTVSPost2010Prop51ColorIndex
 90
      256
102
RTVSPost2010Prop51ColorRGB
 90
-16777216
102
RTVSPost2010PropOp51
 70
     0
102
RTVSPost2010Prop52
140
1.0
102
RTVSPost2010PropOp52
 70
     0
102
RTVSPost2010Prop53
 90
        2
102
RTVSPost2010PropOp53
 70
     1
102
RTVSPost2010Prop54
  1
strokes_ogs.tif
102
RTVSPost2010PropOp54
 70
     1
102
RTVSPost2010Prop55
280
     0
102
RTVSPost2010PropOp55
 70
     1
102
RTVSPost2010Prop56
140
1.0
102
RTVSPost2010PropOp56
 70
     1
102
RTVSPost2010Prop57
140
1.0
102
RTVSPost2010PropOp57
 70
     1
102
RTVSPropertyOp0
 70
     1
102
RTVSPropertyOp1
 70
     1
102
RTVSPropertyOp2
 70
     1
102
RTVSPropertyOp3
 70
     1
102
RTVSPropertyOp4
 70
     1
102
RTVSPropertyOp5
 70
     1
102
RTVSPropertyOp6
 70
     1
102
RTVSPropertyOp7
 70
     1
102
RTVSPropertyOp8
 70
     1
102
RTVSPropertyOp9
 70
     1
102
RTVSPropertyOp10
 70
     1
102
RTVSPropertyOp11
 70
     1
102
RTVSPropertyOp12
 70
     1
102
RTVSPropertyOp13
 70
     1
102
RTVSPropertyOp14
 70
     1
102
RTVSPropertyOp15
 70
     1
102
RTVSPropertyOp16
 70
     1
102
RTVSPropertyOp17
 70
     1
102
RTVSPropertyOp18
 70
     1
102
RTVSPropertyOp19
 70
     1
102
RTVSPropertyOp20
 70
     1
102
RTVSPropertyOp21
 70
     1
102
RTVSPropertyOp22
 70
     1
102
RTVSPropertyOp23
 70
     1
102
RTVSPropertyOp24
 70
     1
102
RTVSPropertyOp25
 70
     1
102
RTVSPropertyOp26
 70
     1
102
RTVSPropertyOp27
 70
     1
102
RTVSPropertyOp28
 70
     1
102
RTVSPropertyOp29
 70
     1
102
RTVSPropertyOp30
 70
     1
102
RTVSPropertyOp31
 70
     1
102
RTVSPropertyOp32
 70
     1
102
RTVSPropertyOp33
 70
     1
102
RTVSPropertyOp34
 70
     1
102
RTVSPropertyOp35
 70
     1
102
RTVSPropertyOp36
 70
     1
102
RTVSPropertyOp37
 70
     1
102
RTVSPropertyOp38
 70
     1
102
RTVSPropertyOp39
 70
     1
102
RTVSPropertyOp40
 70
     1
102
RTVSPropertyOp41
 70
     1
102
RTVSPropertyOp42
 70
     1
102
RTVSPropertyOp43
 70
     1
102
RTVSPropertyOp44
 70
     1
102
RTVSPropertyOp45
 70
     1
102
RTVSPropertyOp46
 70
     1
102
RTVSPropertyOp47
 70
     1
102
RTVSPropertyOp48
 70
     1
102
RTVSPropertyOp49
 70
     1
102
RTVSPropertyOp50
 70
     1
102
RTVSPropertyOp51
 70
     0
102
RTVSPropertyOp52
 70
     0
102
RTVSPropertyOp53
 70
     1
102
RTVSPropertyOp54
 70
     1
102
RTVSPropertyOp55
 70
     1
102
RTVSPropertyOp56
 70
     1
102
RTVSPropertyOp57
 70
     1
102
RTVSPropertyOp58
 70
     1
102
RTVSPropertyOp59
 70
     1
102
RTVSPropertyOp60
 70
     1
102
RTVSPropertyOp61
 70
     1
102
RTVSPropertyOp62
 70
     1
  0
XRECORD
  5
1924
102
{ACAD_REACTORS
330
1923
102
}
330
1923
100
AcDbXrecord
280
     1
102
RTVSPost2010Prop28
280
     0
102
RTVSPost2010PropOp28
 70
     1
102
RTVSPost2010Prop29
280
     1
102
RTVSPost2010PropOp29
 70
     1
102
RTVSPost2010Prop30
280
     1
102
RTVSPost2010PropOp30
 70
     1
102
RTVSPost2010Prop31
280
     0
102
RTVSPost2010PropOp31
 70
     1
102
RTVSPost2010Prop32
280
     0
102
RTVSPost2010PropOp32
 70
     1
102
RTVSPost2010Prop33
280
     0
102
RTVSPost2010PropOp33
 70
     1
102
RTVSPost2010Prop34
280
     0
102
RTVSPost2010PropOp34
 70
     1
102
RTVSPost2010Prop35
280
     0
102
RTVSPost2010PropOp35
 70
     1
102
RTVSPost2010Prop36
280
     0
102
RTVSPost2010PropOp36
 70
     1
102
RTVSPost2010Prop37
 90
       50
102
RTVSPost2010PropOp37
 70
     0
102
RTVSPost2010Prop38
140
0.0
102
RTVSPost2010PropOp38
 70
     0
102
RTVSPost2010Prop39
140
1.0
102
RTVSPost2010PropOp39
 70
     0
102
RTVSPost2010Prop40
 90
        0
102
RTVSPost2010PropOp40
 70
     0
102
RTVSPost2010Prop41ColorIndex
 90
       18
102
RTVSPost2010Prop41ColorRGB
 90
        0
102
RTVSPost2010PropOp41
 70
     0
102
RTVSPost2010Prop42
 90
       50
102
RTVSPost2010PropOp42
 70
     0
102
RTVSPost2010Prop43
 90
        3
102
RTVSPost2010PropOp43
 70
     0
102
RTVSPost2010Prop44ColorIndex
 90
        5
102
RTVSPost2010Prop44ColorRGB
 90
      255
102
RTVSPost2010PropOp44
 70
     0
102
RTVSPost2010Prop45
280
     0
102
RTVSPost2010PropOp45
 70
     1
102
RTVSPost2010Prop46
 90
       50
102
RTVSPost2010PropOp46
 70
     0
102
RTVSPost2010Prop47
 90
       50
102
RTVSPost2010PropOp47
 70
     0
102
RTVSPost2010Prop48
 90
       50
102
RTVSPost2010PropOp48
 70
     0
102
RTVSPost2010Prop49
280
     0
102
RTVSPost2010PropOp49
 70
     1
102
RTVSPost2010Prop50
 90
       50
102
RTVSPost2010PropOp50
 70
     0
102
RTVSPost2010Prop51ColorIndex
 90
      256
102
RTVSPost2010Prop51ColorRGB
 90
-16777216
102
RTVSPost2010PropOp51
 70
     0
102
RTVSPost2010Prop52
140
1.0
102
RTVSPost2010PropOp52
 70
     0
102
RTVSPost2010Prop53
 90
        2
102
RTVSPost2010PropOp53
 70
     0
102
RTVSPost2010Prop54
  1
strokes_ogs.tif
102
RTVSPost2010PropOp54
 70
     0
102
RTVSPost2010Prop55
280
     0
102
RTVSPost2010PropOp55
 70
     1
102
RTVSPost2010Prop56
140
1.0
102
RTVSPost2010PropOp56
 70
     0
102
RTVSPost2010Prop57
140
1.0
102
RTVSPost2010PropOp57
 70
     0
102
RTVSPropertyOp0
 70
     0
102
RTVSPropertyOp1
 70
     0
102
RTVSPropertyOp2
 70
     0
102
RTVSPropertyOp3
 70
     0
102
RTVSPropertyOp4
 70
     0
102
RTVSPropertyOp5
 70
     0
102
RTVSPropertyOp6
 70
     0
102
RTVSPropertyOp7
 70
     0
102
RTVSPropertyOp8
 70
     0
102
RTVSPropertyOp9
 70
     0
102
RTVSPropertyOp10
 70
     0
102
RTVSPropertyOp11
 70
     0
102
RTVSPropertyOp12
 70
     0
102
RTVSPropertyOp13
 70
     0
102
RTVSPropertyOp14
 70
     2
102
RTVSPropertyOp15
 70
     0
102
RTVSPropertyOp16
 70
     0
102
RTVSPropertyOp17
 70
     0
102
RTVSPropertyOp18
 70
     0
102
RTVSPropertyOp19
 70
     0
102
RTVSPropertyOp20
 70
     0
102
RTVSPropertyOp21
 70
     0
102
RTVSPropertyOp22
 70
     0
102
RTVSPropertyOp23
 70
     0
102
RTVSPropertyOp24
 70
     0
102
RTVSPropertyOp25
 70
     0
102
RTVSPropertyOp26
 70
     0
102
RTVSPropertyOp27
 70
     0
102
RTVSPropertyOp28
 70
     1
102
RTVSPropertyOp29
 70
     1
102
RTVSPropertyOp30
 70
     1
102
RTVSPropertyOp31
 70
     1
102
RTVSPropertyOp32
 70
     1
102
RTVSPropertyOp33
 70
     1
102
RTVSPropertyOp34
 70
     1
102
RTVSPropertyOp35
 70
     1
102
RTVSPropertyOp36
 70
     1
102
RTVSPropertyOp37
 70
     0
102
RTVSPropertyOp38
 70
     0
102
RTVSPropertyOp39
 70
     0
102
RTVSPropertyOp40
 70
     0
102
RTVSPropertyOp41
 70
     0
102
RTVSPropertyOp42
 70
     0
102
RTVSPropertyOp43
 70
     0
102
RTVSPropertyOp44
 70
     0
102
RTVSPropertyOp45
 70
     1
102
RTVSPropertyOp46
 70
     0
102
RTVSPropertyOp47
 70
     0
102
RTVSPropertyOp48
 70
     0
102
RTVSPropertyOp49
 70
     1
102
RTVSPropertyOp50
 70
     0
102
RTVSPropertyOp51
 70
     0
102
RTVSPropertyOp52
 70
     0
102
RTVSPropertyOp53
 70
     0
102
RTVSPropertyOp54
 70
     0
102
RTVSPropertyOp55
 70
     1
102
RTVSPropertyOp56
 70
     0
102
RTVSPropertyOp57
 70
     0
102
RTVSPropertyOp58
 70
     0
102
RTVSPropertyOp59
 70
     0
102
RTVSPropertyOp60
 70
     0
102
RTVSPropertyOp61
 70
     0
102
RTVSPropertyOp62
 70
     0
  0
XRECORD
  5
1914
102
{ACAD_REACTORS
330
1913
102
}
330
1913
100
AcDbXrecord
280
     1
102
RTVSPost2010Prop28
280
     0
102
RTVSPost2010PropOp28
 70
     1
102
RTVSPost2010Prop29
280
     1
102
RTVSPost2010PropOp29
 70
     1
102
RTVSPost2010Prop30
280
     1
102
RTVSPost2010PropOp30
 70
     1
102
RTVSPost2010Prop31
280
     0
102
RTVSPost2010PropOp31
 70
     1
102
RTVSPost2010Prop32
280
     0
102
RTVSPost2010PropOp32
 70
     1
102
RTVSPost2010Prop33
280
     0
102
RTVSPost2010PropOp33
 70
     1
102
RTVSPost2010Prop34
280
     0
102
RTVSPost2010PropOp34
 70
     1
102
RTVSPost2010Prop35
280
     0
102
RTVSPost2010PropOp35
 70
     1
102
RTVSPost2010Prop36
280
     0
102
RTVSPost2010PropOp36
 70
     1
102
RTVSPost2010Prop37
 90
       50
102
RTVSPost2010PropOp37
 70
     1
102
RTVSPost2010Prop38
140
0.0
102
RTVSPost2010PropOp38
 70
     1
102
RTVSPost2010Prop39
140
1.0
102
RTVSPost2010PropOp39
 70
     1
102
RTVSPost2010Prop40
 90
        0
102
RTVSPost2010PropOp40
 70
     1
102
RTVSPost2010Prop41ColorIndex
 90
       18
102
RTVSPost2010Prop41ColorRGB
 90
        0
102
RTVSPost2010PropOp41
 70
     1
102
RTVSPost2010Prop42
 90
       50
102
RTVSPost2010PropOp42
 70
     1
102
RTVSPost2010Prop43
 90
        3
102
RTVSPost2010PropOp43
 70
     1
102
RTVSPost2010Prop44ColorIndex
 90
        5
102
RTVSPost2010Prop44ColorRGB
 90
      255
102
RTVSPost2010PropOp44
 70
     1
102
RTVSPost2010Prop45
280
     0
102
RTVSPost2010PropOp45
 70
     1
102
RTVSPost2010Prop46
 90
       50
102
RTVSPost2010PropOp46
 70
     1
102
RTVSPost2010Prop47
 90
       50
102
RTVSPost2010PropOp47
 70
     1
102
RTVSPost2010Prop48
 90
       50
102
RTVSPost2010PropOp48
 70
     1
102
RTVSPost2010Prop49
280
     0
102
RTVSPost2010PropOp49
 70
     1
102
RTVSPost2010Prop50
 90
       50
102
RTVSPost2010PropOp50
 70
     1
102
RTVSPost2010Prop51ColorIndex
 90
      256
102
RTVSPost2010Prop51ColorRGB
 90
-16777216
102
RTVSPost2010PropOp51
 70
     0
102
RTVSPost2010Prop52
140
1.0
102
RTVSPost2010PropOp52
 70
     0
102
RTVSPost2010Prop53
 90
        2
102
RTVSPost2010PropOp53
 70
     1
102
RTVSPost2010Prop54
  1
strokes_ogs.tif
102
RTVSPost2010PropOp54
 70
     1
102
RTVSPost2010Prop55
280
     0
102
RTVSPost2010PropOp55
 70
     1
102
RTVSPost2010Prop56
140
1.0
102
RTVSPost2010PropOp56
 70
     1
102
RTVSPost2010Prop57
140
1.0
102
RTVSPost2010PropOp57
 70
     1
102
RTVSPropertyOp0
 70
     1
102
RTVSPropertyOp1
 70
     1
102
RTVSPropertyOp2
 70
     1
102
RTVSPropertyOp3
 70
     1
102
RTVSPropertyOp4
 70
     1
102
RTVSPropertyOp5
 70
     1
102
RTVSPropertyOp6
 70
     1
102
RTVSPropertyOp7
 70
     1
102
RTVSPropertyOp8
 70
     1
102
RTVSPropertyOp9
 70
     1
102
RTVSPropertyOp10
 70
     1
102
RTVSPropertyOp11
 70
     1
102
RTVSPropertyOp12
 70
     1
102
RTVSPropertyOp13
 70
     1
102
RTVSPropertyOp14
 70
     1
102
RTVSPropertyOp15
 70
     1
102
RTVSPropertyOp16
 70
     1
102
RTVSPropertyOp17
 70
     1
102
RTVSPropertyOp18
 70
     1
102
RTVSPropertyOp19
 70
     1
102
RTVSPropertyOp20
 70
     1
102
RTVSPropertyOp21
 70
     1
102
RTVSPropertyOp22
 70
     1
102
RTVSPropertyOp23
 70
     1
102
RTVSPropertyOp24
 70
     1
102
RTVSPropertyOp25
 70
     1
102
RTVSPropertyOp26
 70
     1
102
RTVSPropertyOp27
 70
     1
102
RTVSPropertyOp28
 70
     1
102
RTVSPropertyOp29
 70
     1
102
RTVSPropertyOp30
 70
     1
102
RTVSPropertyOp31
 70
     1
102
RTVSPropertyOp32
 70
     1
102
RTVSPropertyOp33
 70
     1
102
RTVSPropertyOp34
 70
     1
102
RTVSPropertyOp35
 70
     1
102
RTVSPropertyOp36
 70
     1
102
RTVSPropertyOp37
 70
     1
102
RTVSPropertyOp38
 70
     1
102
RTVSPropertyOp39
 70
     1
102
RTVSPropertyOp40
 70
     1
102
RTVSPropertyOp41
 70
     1
102
RTVSPropertyOp42
 70
     1
102
RTVSPropertyOp43
 70
     1
102
RTVSPropertyOp44
 70
     1
102
RTVSPropertyOp45
 70
     1
102
RTVSPropertyOp46
 70
     1
102
RTVSPropertyOp47
 70
     1
102
RTVSPropertyOp48
 70
     1
102
RTVSPropertyOp49
 70
     1
102
RTVSPropertyOp50
 70
     1
102
RTVSPropertyOp51
 70
     0
102
RTVSPropertyOp52
 70
     0
102
RTVSPropertyOp53
 70
     1
102
RTVSPropertyOp54
 70
     1
102
RTVSPropertyOp55
 70
     1
102
RTVSPropertyOp56
 70
     1
102
RTVSPropertyOp57
 70
     1
102
RTVSPropertyOp58
 70
     1
102
RTVSPropertyOp59
 70
     1
102
RTVSPropertyOp60
 70
     1
102
RTVSPropertyOp61
 70
     1
102
RTVSPropertyOp62
 70
     1
  0
XRECORD
  5
1926
102
{ACAD_REACTORS
330
1925
102
}
330
1925
100
AcDbXrecord
280
     1
102
RTVSPost2010Prop28
280
     0
102
RTVSPost2010PropOp28
 70
     1
102
RTVSPost2010Prop29
280
     1
102
RTVSPost2010PropOp29
 70
     1
102
RTVSPost2010Prop30
280
     1
102
RTVSPost2010PropOp30
 70
     1
102
RTVSPost2010Prop31
280
     0
102
RTVSPost2010PropOp31
 70
     1
102
RTVSPost2010Prop32
280
     0
102
RTVSPost2010PropOp32
 70
     1
102
RTVSPost2010Prop33
280
     0
102
RTVSPost2010PropOp33
 70
     1
102
RTVSPost2010Prop34
280
     0
102
RTVSPost2010PropOp34
 70
     1
102
RTVSPost2010Prop35
280
     0
102
RTVSPost2010PropOp35
 70
     1
102
RTVSPost2010Prop36
280
     0
102
RTVSPost2010PropOp36
 70
     1
102
RTVSPost2010Prop37
 90
       50
102
RTVSPost2010PropOp37
 70
     0
102
RTVSPost2010Prop38
140
0.0
102
RTVSPost2010PropOp38
 70
     0
102
RTVSPost2010Prop39
140
1.0
102
RTVSPost2010PropOp39
 70
     0
102
RTVSPost2010Prop40
 90
        0
102
RTVSPost2010PropOp40
 70
     0
102
RTVSPost2010Prop41ColorIndex
 90
       18
102
RTVSPost2010Prop41ColorRGB
 90
        0
102
RTVSPost2010PropOp41
 70
     0
102
RTVSPost2010Prop42
 90
       50
102
RTVSPost2010PropOp42
 70
     0
102
RTVSPost2010Prop43
 90
        3
102
RTVSPost2010PropOp43
 70
     0
102
RTVSPost2010Prop44ColorIndex
 90
        5
102
RTVSPost2010Prop44ColorRGB
 90
      255
102
RTVSPost2010PropOp44
 70
     0
102
RTVSPost2010Prop45
280
     0
102
RTVSPost2010PropOp45
 70
     1
102
RTVSPost2010Prop46
 90
       50
102
RTVSPost2010PropOp46
 70
     0
102
RTVSPost2010Prop47
 90
       50
102
RTVSPost2010PropOp47
 70
     0
102
RTVSPost2010Prop48
 90
       50
102
RTVSPost2010PropOp48
 70
     0
102
RTVSPost2010Prop49
280
     0
102
RTVSPost2010PropOp49
 70
     1
102
RTVSPost2010Prop50
 90
       50
102
RTVSPost2010PropOp50
 70
     0
102
RTVSPost2010Prop51ColorIndex
 90
      256
102
RTVSPost2010Prop51ColorRGB
 90
-16777216
102
RTVSPost2010PropOp51
 70
     0
102
RTVSPost2010Prop52
140
1.0
102
RTVSPost2010PropOp52
 70
     0
102
RTVSPost2010Prop53
 90
        2
102
RTVSPost2010PropOp53
 70
     0
102
RTVSPost2010Prop54
  1
strokes_ogs.tif
102
RTVSPost2010PropOp54
 70
     0
102
RTVSPost2010Prop55
280
     0
102
RTVSPost2010PropOp55
 70
     1
102
RTVSPost2010Prop56
140
1.0
102
RTVSPost2010PropOp56
 70
     0
102
RTVSPost2010Prop57
140
1.0
102
RTVSPost2010PropOp57
 70
     0
102
RTVSPropertyOp0
 70
     0
102
RTVSPropertyOp1
 70
     0
102
RTVSPropertyOp2
 70
     0
102
RTVSPropertyOp3
 70
     0
102
RTVSPropertyOp4
 70
     0
102
RTVSPropertyOp5
 70
     0
102
RTVSPropertyOp6
 70
     0
102
RTVSPropertyOp7
 70
     0
102
RTVSPropertyOp8
 70
     0
102
RTVSPropertyOp9
 70
     0
102
RTVSPropertyOp10
 70
     0
102
RTVSPropertyOp11
 70
     0
102
RTVSPropertyOp12
 70
     0
102
RTVSPropertyOp13
 70
     0
102
RTVSPropertyOp14
 70
     2
102
RTVSPropertyOp15
 70
     0
102
RTVSPropertyOp16
 70
     0
102
RTVSPropertyOp17
 70
     0
102
RTVSPropertyOp18
 70
     0
102
RTVSPropertyOp19
 70
     0
102
RTVSPropertyOp20
 70
     0
102
RTVSPropertyOp21
 70
     0
102
RTVSPropertyOp22
 70
     0
102
RTVSPropertyOp23
 70
     0
102
RTVSPropertyOp24
 70
     0
102
RTVSPropertyOp25
 70
     0
102
RTVSPropertyOp26
 70
     0
102
RTVSPropertyOp27
 70
     0
102
RTVSPropertyOp28
 70
     1
102
RTVSPropertyOp29
 70
     1
102
RTVSPropertyOp30
 70
     1
102
RTVSPropertyOp31
 70
     1
102
RTVSPropertyOp32
 70
     1
102
RTVSPropertyOp33
 70
     1
102
RTVSPropertyOp34
 70
     1
102
RTVSPropertyOp35
 70
     1
102
RTVSPropertyOp36
 70
     1
102
RTVSPropertyOp37
 70
     0
102
RTVSPropertyOp38
 70
     0
102
RTVSPropertyOp39
 70
     0
102
RTVSPropertyOp40
 70
     0
102
RTVSPropertyOp41
 70
     0
102
RTVSPropertyOp42
 70
     0
102
RTVSPropertyOp43
 70
     0
102
RTVSPropertyOp44
 70
     0
102
RTVSPropertyOp45
 70
     1
102
RTVSPropertyOp46
 70
     0
102
RTVSPropertyOp47
 70
     0
102
RTVSPropertyOp48
 70
     0
102
RTVSPropertyOp49
 70
     1
102
RTVSPropertyOp50
 70
     0
102
RTVSPropertyOp51
 70
     0
102
RTVSPropertyOp52
 70
     0
102
RTVSPropertyOp53
 70
     0
102
RTVSPropertyOp54
 70
     0
102
RTVSPropertyOp55
 70
     1
102
RTVSPropertyOp56
 70
     0
102
RTVSPropertyOp57
 70
     0
102
RTVSPropertyOp58
 70
     0
102
RTVSPropertyOp59
 70
     0
102
RTVSPropertyOp60
 70
     0
102
RTVSPropertyOp61
 70
     0
102
RTVSPropertyOp62
 70
     0
  0
XRECORD
  5
190C
102
{ACAD_REACTORS
330
190B
102
}
330
190B
100
AcDbXrecord
280
     1
102
RTVSPost2010Prop28
280
     0
102
RTVSPost2010PropOp28
 70
     1
102
RTVSPost2010Prop29
280
     1
102
RTVSPost2010PropOp29
 70
     1
102
RTVSPost2010Prop30
280
     1
102
RTVSPost2010PropOp30
 70
     1
102
RTVSPost2010Prop31
280
     0
102
RTVSPost2010PropOp31
 70
     1
102
RTVSPost2010Prop32
280
     0
102
RTVSPost2010PropOp32
 70
     1
102
RTVSPost2010Prop33
280
     0
102
RTVSPost2010PropOp33
 70
     1
102
RTVSPost2010Prop34
280
     0
102
RTVSPost2010PropOp34
 70
     1
102
RTVSPost2010Prop35
280
     0
102
RTVSPost2010PropOp35
 70
     1
102
RTVSPost2010Prop36
280
     0
102
RTVSPost2010PropOp36
 70
     1
102
RTVSPost2010Prop37
 90
       50
102
RTVSPost2010PropOp37
 70
     1
102
RTVSPost2010Prop38
140
0.0
102
RTVSPost2010PropOp38
 70
     1
102
RTVSPost2010Prop39
140
1.0
102
RTVSPost2010PropOp39
 70
     1
102
RTVSPost2010Prop40
 90
        0
102
RTVSPost2010PropOp40
 70
     1
102
RTVSPost2010Prop41ColorIndex
 90
       18
102
RTVSPost2010Prop41ColorRGB
 90
        0
102
RTVSPost2010PropOp41
 70
     1
102
RTVSPost2010Prop42
 90
       50
102
RTVSPost2010PropOp42
 70
     1
102
RTVSPost2010Prop43
 90
        3
102
RTVSPost2010PropOp43
 70
     1
102
RTVSPost2010Prop44ColorIndex
 90
        5
102
RTVSPost2010Prop44ColorRGB
 90
      255
102
RTVSPost2010PropOp44
 70
     1
102
RTVSPost2010Prop45
280
     0
102
RTVSPost2010PropOp45
 70
     1
102
RTVSPost2010Prop46
 90
       50
102
RTVSPost2010PropOp46
 70
     1
102
RTVSPost2010Prop47
 90
       50
102
RTVSPost2010PropOp47
 70
     1
102
RTVSPost2010Prop48
 90
       50
102
RTVSPost2010PropOp48
 70
     1
102
RTVSPost2010Prop49
280
     0
102
RTVSPost2010PropOp49
 70
     1
102
RTVSPost2010Prop50
 90
       50
102
RTVSPost2010PropOp50
 70
     1
102
RTVSPost2010Prop51ColorIndex
 90
      256
102
RTVSPost2010Prop51ColorRGB
 90
-16777216
102
RTVSPost2010PropOp51
 70
     0
102
RTVSPost2010Prop52
140
1.0
102
RTVSPost2010PropOp52
 70
     0
102
RTVSPost2010Prop53
 90
        2
102
RTVSPost2010PropOp53
 70
     1
102
RTVSPost2010Prop54
  1
strokes_ogs.tif
102
RTVSPost2010PropOp54
 70
     1
102
RTVSPost2010Prop55
280
     0
102
RTVSPost2010PropOp55
 70
     1
102
RTVSPost2010Prop56
140
1.0
102
RTVSPost2010PropOp56
 70
     1
102
RTVSPost2010Prop57
140
1.0
102
RTVSPost2010PropOp57
 70
     1
102
RTVSPropertyOp0
 70
     1
102
RTVSPropertyOp1
 70
     1
102
RTVSPropertyOp2
 70
     1
102
RTVSPropertyOp3
 70
     1
102
RTVSPropertyOp4
 70
     1
102
RTVSPropertyOp5
 70
     1
102
RTVSPropertyOp6
 70
     1
102
RTVSPropertyOp7
 70
     1
102
RTVSPropertyOp8
 70
     1
102
RTVSPropertyOp9
 70
     1
102
RTVSPropertyOp10
 70
     1
102
RTVSPropertyOp11
 70
     1
102
RTVSPropertyOp12
 70
     1
102
RTVSPropertyOp13
 70
     1
102
RTVSPropertyOp14
 70
     1
102
RTVSPropertyOp15
 70
     1
102
RTVSPropertyOp16
 70
     1
102
RTVSPropertyOp17
 70
     1
102
RTVSPropertyOp18
 70
     1
102
RTVSPropertyOp19
 70
     1
102
RTVSPropertyOp20
 70
     1
102
RTVSPropertyOp21
 70
     1
102
RTVSPropertyOp22
 70
     1
102
RTVSPropertyOp23
 70
     1
102
RTVSPropertyOp24
 70
     1
102
RTVSPropertyOp25
 70
     1
102
RTVSPropertyOp26
 70
     1
102
RTVSPropertyOp27
 70
     1
102
RTVSPropertyOp28
 70
     1
102
RTVSPropertyOp29
 70
     1
102
RTVSPropertyOp30
 70
     1
102
RTVSPropertyOp31
 70
     1
102
RTVSPropertyOp32
 70
     1
102
RTVSPropertyOp33
 70
     1
102
RTVSPropertyOp34
 70
     1
102
RTVSPropertyOp35
 70
     1
102
RTVSPropertyOp36
 70
     1
102
RTVSPropertyOp37
 70
     1
102
RTVSPropertyOp38
 70
     1
102
RTVSPropertyOp39
 70
     1
102
RTVSPropertyOp40
 70
     1
102
RTVSPropertyOp41
 70
     1
102
RTVSPropertyOp42
 70
     1
102
RTVSPropertyOp43
 70
     1
102
RTVSPropertyOp44
 70
     1
102
RTVSPropertyOp45
 70
     1
102
RTVSPropertyOp46
 70
     1
102
RTVSPropertyOp47
 70
     1
102
RTVSPropertyOp48
 70
     1
102
RTVSPropertyOp49
 70
     1
102
RTVSPropertyOp50
 70
     1
102
RTVSPropertyOp51
 70
     0
102
RTVSPropertyOp52
 70
     0
102
RTVSPropertyOp53
 70
     1
102
RTVSPropertyOp54
 70
     1
102
RTVSPropertyOp55
 70
     1
102
RTVSPropertyOp56
 70
     1
102
RTVSPropertyOp57
 70
     1
102
RTVSPropertyOp58
 70
     1
102
RTVSPropertyOp59
 70
     1
102
RTVSPropertyOp60
 70
     1
102
RTVSPropertyOp61
 70
     1
102
RTVSPropertyOp62
 70
     1
  0
XRECORD
  5
1922
102
{ACAD_REACTORS
330
1921
102
}
330
1921
100
AcDbXrecord
280
     1
102
RTVSPost2010Prop28
280
     0
102
RTVSPost2010PropOp28
 70
     1
102
RTVSPost2010Prop29
280
     1
102
RTVSPost2010PropOp29
 70
     1
102
RTVSPost2010Prop30
280
     1
102
RTVSPost2010PropOp30
 70
     1
102
RTVSPost2010Prop31
280
     0
102
RTVSPost2010PropOp31
 70
     1
102
RTVSPost2010Prop32
280
     0
102
RTVSPost2010PropOp32
 70
     1
102
RTVSPost2010Prop33
280
     0
102
RTVSPost2010PropOp33
 70
     1
102
RTVSPost2010Prop34
280
     0
102
RTVSPost2010PropOp34
 70
     1
102
RTVSPost2010Prop35
280
     0
102
RTVSPost2010PropOp35
 70
     1
102
RTVSPost2010Prop36
280
     0
102
RTVSPost2010PropOp36
 70
     1
102
RTVSPost2010Prop37
 90
       50
102
RTVSPost2010PropOp37
 70
     1
102
RTVSPost2010Prop38
140
0.0
102
RTVSPost2010PropOp38
 70
     1
102
RTVSPost2010Prop39
140
1.0
102
RTVSPost2010PropOp39
 70
     1
102
RTVSPost2010Prop40
 90
        0
102
RTVSPost2010PropOp40
 70
     1
102
RTVSPost2010Prop41ColorIndex
 90
       18
102
RTVSPost2010Prop41ColorRGB
 90
        0
102
RTVSPost2010PropOp41
 70
     1
102
RTVSPost2010Prop42
 90
       50
102
RTVSPost2010PropOp42
 70
     1
102
RTVSPost2010Prop43
 90
        3
102
RTVSPost2010PropOp43
 70
     1
102
RTVSPost2010Prop44ColorIndex
 90
        5
102
RTVSPost2010Prop44ColorRGB
 90
      255
102
RTVSPost2010PropOp44
 70
     1
102
RTVSPost2010Prop45
280
     0
102
RTVSPost2010PropOp45
 70
     1
102
RTVSPost2010Prop46
 90
       50
102
RTVSPost2010PropOp46
 70
     1
102
RTVSPost2010Prop47
 90
       50
102
RTVSPost2010PropOp47
 70
     1
102
RTVSPost2010Prop48
 90
       50
102
RTVSPost2010PropOp48
 70
     1
102
RTVSPost2010Prop49
280
     0
102
RTVSPost2010PropOp49
 70
     1
102
RTVSPost2010Prop50
 90
       50
102
RTVSPost2010PropOp50
 70
     1
102
RTVSPost2010Prop51ColorIndex
 90
      256
102
RTVSPost2010Prop51ColorRGB
 90
-16777216
102
RTVSPost2010PropOp51
 70
     0
102
RTVSPost2010Prop52
140
1.0
102
RTVSPost2010PropOp52
 70
     0
102
RTVSPost2010Prop53
 90
        2
102
RTVSPost2010PropOp53
 70
     1
102
RTVSPost2010Prop54
  1
strokes_ogs.tif
102
RTVSPost2010PropOp54
 70
     1
102
RTVSPost2010Prop55
280
     0
102
RTVSPost2010PropOp55
 70
     1
102
RTVSPost2010Prop56
140
1.0
102
RTVSPost2010PropOp56
 70
     1
102
RTVSPost2010Prop57
140
1.0
102
RTVSPost2010PropOp57
 70
     1
102
RTVSPropertyOp0
 70
     1
102
RTVSPropertyOp1
 70
     1
102
RTVSPropertyOp2
 70
     1
102
RTVSPropertyOp3
 70
     1
102
RTVSPropertyOp4
 70
     1
102
RTVSPropertyOp5
 70
     1
102
RTVSPropertyOp6
 70
     1
102
RTVSPropertyOp7
 70
     1
102
RTVSPropertyOp8
 70
     1
102
RTVSPropertyOp9
 70
     1
102
RTVSPropertyOp10
 70
     1
102
RTVSPropertyOp11
 70
     1
102
RTVSPropertyOp12
 70
     1
102
RTVSPropertyOp13
 70
     1
102
RTVSPropertyOp14
 70
     1
102
RTVSPropertyOp15
 70
     1
102
RTVSPropertyOp16
 70
     1
102
RTVSPropertyOp17
 70
     1
102
RTVSPropertyOp18
 70
     1
102
RTVSPropertyOp19
 70
     1
102
RTVSPropertyOp20
 70
     1
102
RTVSPropertyOp21
 70
     1
102
RTVSPropertyOp22
 70
     1
102
RTVSPropertyOp23
 70
     1
102
RTVSPropertyOp24
 70
     1
102
RTVSPropertyOp25
 70
     1
102
RTVSPropertyOp26
 70
     1
102
RTVSPropertyOp27
 70
     1
102
RTVSPropertyOp28
 70
     1
102
RTVSPropertyOp29
 70
     1
102
RTVSPropertyOp30
 70
     1
102
RTVSPropertyOp31
 70
     1
102
RTVSPropertyOp32
 70
     1
102
RTVSPropertyOp33
 70
     1
102
RTVSPropertyOp34
 70
     1
102
RTVSPropertyOp35
 70
     1
102
RTVSPropertyOp36
 70
     1
102
RTVSPropertyOp37
 70
     1
102
RTVSPropertyOp38
 70
     1
102
RTVSPropertyOp39
 70
     1
102
RTVSPropertyOp40
 70
     1
102
RTVSPropertyOp41
 70
     1
102
RTVSPropertyOp42
 70
     1
102
RTVSPropertyOp43
 70
     1
102
RTVSPropertyOp44
 70
     1
102
RTVSPropertyOp45
 70
     1
102
RTVSPropertyOp46
 70
     1
102
RTVSPropertyOp47
 70
     1
102
RTVSPropertyOp48
 70
     1
102
RTVSPropertyOp49
 70
     1
102
RTVSPropertyOp50
 70
     1
102
RTVSPropertyOp51
 70
     0
102
RTVSPropertyOp52
 70
     0
102
RTVSPropertyOp53
 70
     1
102
RTVSPropertyOp54
 70
     1
102
RTVSPropertyOp55
 70
     1
102
RTVSPropertyOp56
 70
     1
102
RTVSPropertyOp57
 70
     1
102
RTVSPropertyOp58
 70
     1
102
RTVSPropertyOp59
 70
     1
102
RTVSPropertyOp60
 70
     1
102
RTVSPropertyOp61
 70
     1
102
RTVSPropertyOp62
 70
     1
  0
XRECORD
  5
1920
102
{ACAD_REACTORS
330
191F
102
}
330
191F
100
AcDbXrecord
280
     1
102
RTVSPost2010Prop28
280
     0
102
RTVSPost2010PropOp28
 70
     1
102
RTVSPost2010Prop29
280
     1
102
RTVSPost2010PropOp29
 70
     1
102
RTVSPost2010Prop30
280
     1
102
RTVSPost2010PropOp30
 70
     1
102
RTVSPost2010Prop31
280
     0
102
RTVSPost2010PropOp31
 70
     1
102
RTVSPost2010Prop32
280
     0
102
RTVSPost2010PropOp32
 70
     1
102
RTVSPost2010Prop33
280
     0
102
RTVSPost2010PropOp33
 70
     1
102
RTVSPost2010Prop34
280
     0
102
RTVSPost2010PropOp34
 70
     1
102
RTVSPost2010Prop35
280
     0
102
RTVSPost2010PropOp35
 70
     1
102
RTVSPost2010Prop36
280
     0
102
RTVSPost2010PropOp36
 70
     1
102
RTVSPost2010Prop37
 90
       50
102
RTVSPost2010PropOp37
 70
     1
102
RTVSPost2010Prop38
140
0.0
102
RTVSPost2010PropOp38
 70
     1
102
RTVSPost2010Prop39
140
1.0
102
RTVSPost2010PropOp39
 70
     1
102
RTVSPost2010Prop40
 90
        0
102
RTVSPost2010PropOp40
 70
     1
102
RTVSPost2010Prop41ColorIndex
 90
       18
102
RTVSPost2010Prop41ColorRGB
 90
        0
102
RTVSPost2010PropOp41
 70
     1
102
RTVSPost2010Prop42
 90
       50
102
RTVSPost2010PropOp42
 70
     1
102
RTVSPost2010Prop43
 90
        3
102
RTVSPost2010PropOp43
 70
     1
102
RTVSPost2010Prop44ColorIndex
 90
        5
102
RTVSPost2010Prop44ColorRGB
 90
      255
102
RTVSPost2010PropOp44
 70
     1
102
RTVSPost2010Prop45
280
     0
102
RTVSPost2010PropOp45
 70
     1
102
RTVSPost2010Prop46
 90
       50
102
RTVSPost2010PropOp46
 70
     1
102
RTVSPost2010Prop47
 90
       50
102
RTVSPost2010PropOp47
 70
     1
102
RTVSPost2010Prop48
 90
       50
102
RTVSPost2010PropOp48
 70
     1
102
RTVSPost2010Prop49
280
     0
102
RTVSPost2010PropOp49
 70
     1
102
RTVSPost2010Prop50
 90
       50
102
RTVSPost2010PropOp50
 70
     1
102
RTVSPost2010Prop51ColorIndex
 90
      256
102
RTVSPost2010Prop51ColorRGB
 90
-16777216
102
RTVSPost2010PropOp51
 70
     0
102
RTVSPost2010Prop52
140
1.0
102
RTVSPost2010PropOp52
 70
     0
102
RTVSPost2010Prop53
 90
        2
102
RTVSPost2010PropOp53
 70
     1
102
RTVSPost2010Prop54
  1
strokes_ogs.tif
102
RTVSPost2010PropOp54
 70
     1
102
RTVSPost2010Prop55
280
     0
102
RTVSPost2010PropOp55
 70
     1
102
RTVSPost2010Prop56
140
1.0
102
RTVSPost2010PropOp56
 70
     1
102
RTVSPost2010Prop57
140
1.0
102
RTVSPost2010PropOp57
 70
     1
102
RTVSPropertyOp0
 70
     1
102
RTVSPropertyOp1
 70
     1
102
RTVSPropertyOp2
 70
     1
102
RTVSPropertyOp3
 70
     1
102
RTVSPropertyOp4
 70
     1
102
RTVSPropertyOp5
 70
     1
102
RTVSPropertyOp6
 70
     1
102
RTVSPropertyOp7
 70
     1
102
RTVSPropertyOp8
 70
     1
102
RTVSPropertyOp9
 70
     1
102
RTVSPropertyOp10
 70
     1
102
RTVSPropertyOp11
 70
     1
102
RTVSPropertyOp12
 70
     1
102
RTVSPropertyOp13
 70
     1
102
RTVSPropertyOp14
 70
     1
102
RTVSPropertyOp15
 70
     1
102
RTVSPropertyOp16
 70
     1
102
RTVSPropertyOp17
 70
     1
102
RTVSPropertyOp18
 70
     1
102
RTVSPropertyOp19
 70
     1
102
RTVSPropertyOp20
 70
     1
102
RTVSPropertyOp21
 70
     1
102
RTVSPropertyOp22
 70
     1
102
RTVSPropertyOp23
 70
     1
102
RTVSPropertyOp24
 70
     1
102
RTVSPropertyOp25
 70
     1
102
RTVSPropertyOp26
 70
     1
102
RTVSPropertyOp27
 70
     1
102
RTVSPropertyOp28
 70
     1
102
RTVSPropertyOp29
 70
     1
102
RTVSPropertyOp30
 70
     1
102
RTVSPropertyOp31
 70
     1
102
RTVSPropertyOp32
 70
     1
102
RTVSPropertyOp33
 70
     1
102
RTVSPropertyOp34
 70
     1
102
RTVSPropertyOp35
 70
     1
102
RTVSPropertyOp36
 70
     1
102
RTVSPropertyOp37
 70
     1
102
RTVSPropertyOp38
 70
     1
102
RTVSPropertyOp39
 70
     1
102
RTVSPropertyOp40
 70
     1
102
RTVSPropertyOp41
 70
     1
102
RTVSPropertyOp42
 70
     1
102
RTVSPropertyOp43
 70
     1
102
RTVSPropertyOp44
 70
     1
102
RTVSPropertyOp45
 70
     1
102
RTVSPropertyOp46
 70
     1
102
RTVSPropertyOp47
 70
     1
102
RTVSPropertyOp48
 70
     1
102
RTVSPropertyOp49
 70
     1
102
RTVSPropertyOp50
 70
     1
102
RTVSPropertyOp51
 70
     0
102
RTVSPropertyOp52
 70
     0
102
RTVSPropertyOp53
 70
     1
102
RTVSPropertyOp54
 70
     1
102
RTVSPropertyOp55
 70
     1
102
RTVSPropertyOp56
 70
     1
102
RTVSPropertyOp57
 70
     1
102
RTVSPropertyOp58
 70
     1
102
RTVSPropertyOp59
 70
     1
102
RTVSPropertyOp60
 70
     1
102
RTVSPropertyOp61
 70
     1
102
RTVSPropertyOp62
 70
     1
  0
XRECORD
  5
191A
102
{ACAD_REACTORS
330
1919
102
}
330
1919
100
AcDbXrecord
280
     1
102
RTVSPost2010Prop28
280
     0
102
RTVSPost2010PropOp28
 70
     1
102
RTVSPost2010Prop29
280
     1
102
RTVSPost2010PropOp29
 70
     1
102
RTVSPost2010Prop30
280
     1
102
RTVSPost2010PropOp30
 70
     1
102
RTVSPost2010Prop31
280
     0
102
RTVSPost2010PropOp31
 70
     1
102
RTVSPost2010Prop32
280
     0
102
RTVSPost2010PropOp32
 70
     1
102
RTVSPost2010Prop33
280
     0
102
RTVSPost2010PropOp33
 70
     1
102
RTVSPost2010Prop34
280
     0
102
RTVSPost2010PropOp34
 70
     1
102
RTVSPost2010Prop35
280
     0
102
RTVSPost2010PropOp35
 70
     1
102
RTVSPost2010Prop36
280
     0
102
RTVSPost2010PropOp36
 70
     1
102
RTVSPost2010Prop37
 90
       50
102
RTVSPost2010PropOp37
 70
     1
102
RTVSPost2010Prop38
140
0.0
102
RTVSPost2010PropOp38
 70
     1
102
RTVSPost2010Prop39
140
1.0
102
RTVSPost2010PropOp39
 70
     1
102
RTVSPost2010Prop40
 90
        0
102
RTVSPost2010PropOp40
 70
     1
102
RTVSPost2010Prop41ColorIndex
 90
       18
102
RTVSPost2010Prop41ColorRGB
 90
        0
102
RTVSPost2010PropOp41
 70
     1
102
RTVSPost2010Prop42
 90
       50
102
RTVSPost2010PropOp42
 70
     1
102
RTVSPost2010Prop43
 90
        3
102
RTVSPost2010PropOp43
 70
     1
102
RTVSPost2010Prop44ColorIndex
 90
        5
102
RTVSPost2010Prop44ColorRGB
 90
      255
102
RTVSPost2010PropOp44
 70
     1
102
RTVSPost2010Prop45
280
     0
102
RTVSPost2010PropOp45
 70
     1
102
RTVSPost2010Prop46
 90
       50
102
RTVSPost2010PropOp46
 70
     1
102
RTVSPost2010Prop47
 90
       50
102
RTVSPost2010PropOp47
 70
     1
102
RTVSPost2010Prop48
 90
       50
102
RTVSPost2010PropOp48
 70
     1
102
RTVSPost2010Prop49
280
     0
102
RTVSPost2010PropOp49
 70
     1
102
RTVSPost2010Prop50
 90
       50
102
RTVSPost2010PropOp50
 70
     1
102
RTVSPost2010Prop51ColorIndex
 90
      256
102
RTVSPost2010Prop51ColorRGB
 90
-16777216
102
RTVSPost2010PropOp51
 70
     0
102
RTVSPost2010Prop52
140
1.0
102
RTVSPost2010PropOp52
 70
     0
102
RTVSPost2010Prop53
 90
        2
102
RTVSPost2010PropOp53
 70
     1
102
RTVSPost2010Prop54
  1
strokes_ogs.tif
102
RTVSPost2010PropOp54
 70
     1
102
RTVSPost2010Prop55
280
     0
102
RTVSPost2010PropOp55
 70
     1
102
RTVSPost2010Prop56
140
1.0
102
RTVSPost2010PropOp56
 70
     1
102
RTVSPost2010Prop57
140
1.0
102
RTVSPost2010PropOp57
 70
     1
102
RTVSPropertyOp0
 70
     1
102
RTVSPropertyOp1
 70
     1
102
RTVSPropertyOp2
 70
     1
102
RTVSPropertyOp3
 70
     1
102
RTVSPropertyOp4
 70
     1
102
RTVSPropertyOp5
 70
     1
102
RTVSPropertyOp6
 70
     1
102
RTVSPropertyOp7
 70
     1
102
RTVSPropertyOp8
 70
     1
102
RTVSPropertyOp9
 70
     1
102
RTVSPropertyOp10
 70
     1
102
RTVSPropertyOp11
 70
     1
102
RTVSPropertyOp12
 70
     1
102
RTVSPropertyOp13
 70
     1
102
RTVSPropertyOp14
 70
     1
102
RTVSPropertyOp15
 70
     1
102
RTVSPropertyOp16
 70
     1
102
RTVSPropertyOp17
 70
     1
102
RTVSPropertyOp18
 70
     1
102
RTVSPropertyOp19
 70
     1
102
RTVSPropertyOp20
 70
     1
102
RTVSPropertyOp21
 70
     1
102
RTVSPropertyOp22
 70
     1
102
RTVSPropertyOp23
 70
     1
102
RTVSPropertyOp24
 70
     1
102
RTVSPropertyOp25
 70
     1
102
RTVSPropertyOp26
 70
     1
102
RTVSPropertyOp27
 70
     1
102
RTVSPropertyOp28
 70
     1
102
RTVSPropertyOp29
 70
     1
102
RTVSPropertyOp30
 70
     1
102
RTVSPropertyOp31
 70
     1
102
RTVSPropertyOp32
 70
     1
102
RTVSPropertyOp33
 70
     1
102
RTVSPropertyOp34
 70
     1
102
RTVSPropertyOp35
 70
     1
102
RTVSPropertyOp36
 70
     1
102
RTVSPropertyOp37
 70
     1
102
RTVSPropertyOp38
 70
     1
102
RTVSPropertyOp39
 70
     1
102
RTVSPropertyOp40
 70
     1
102
RTVSPropertyOp41
 70
     1
102
RTVSPropertyOp42
 70
     1
102
RTVSPropertyOp43
 70
     1
102
RTVSPropertyOp44
 70
     1
102
RTVSPropertyOp45
 70
     1
102
RTVSPropertyOp46
 70
     1
102
RTVSPropertyOp47
 70
     1
102
RTVSPropertyOp48
 70
     1
102
RTVSPropertyOp49
 70
     1
102
RTVSPropertyOp50
 70
     1
102
RTVSPropertyOp51
 70
     0
102
RTVSPropertyOp52
 70
     0
102
RTVSPropertyOp53
 70
     1
102
RTVSPropertyOp54
 70
     1
102
RTVSPropertyOp55
 70
     1
102
RTVSPropertyOp56
 70
     1
102
RTVSPropertyOp57
 70
     1
102
RTVSPropertyOp58
 70
     1
102
RTVSPropertyOp59
 70
     1
102
RTVSPropertyOp60
 70
     1
102
RTVSPropertyOp61
 70
     1
102
RTVSPropertyOp62
 70
     1
  0
XRECORD
  5
191C
102
{ACAD_REACTORS
330
191B
102
}
330
191B
100
AcDbXrecord
280
     1
102
RTVSPost2010Prop28
280
     0
102
RTVSPost2010PropOp28
 70
     1
102
RTVSPost2010Prop29
280
     1
102
RTVSPost2010PropOp29
 70
     1
102
RTVSPost2010Prop30
280
     1
102
RTVSPost2010PropOp30
 70
     1
102
RTVSPost2010Prop31
280
     0
102
RTVSPost2010PropOp31
 70
     1
102
RTVSPost2010Prop32
280
     0
102
RTVSPost2010PropOp32
 70
     1
102
RTVSPost2010Prop33
280
     0
102
RTVSPost2010PropOp33
 70
     1
102
RTVSPost2010Prop34
280
     0
102
RTVSPost2010PropOp34
 70
     1
102
RTVSPost2010Prop35
280
     0
102
RTVSPost2010PropOp35
 70
     1
102
RTVSPost2010Prop36
280
     0
102
RTVSPost2010PropOp36
 70
     1
102
RTVSPost2010Prop37
 90
       50
102
RTVSPost2010PropOp37
 70
     1
102
RTVSPost2010Prop38
140
0.0
102
RTVSPost2010PropOp38
 70
     1
102
RTVSPost2010Prop39
140
1.0
102
RTVSPost2010PropOp39
 70
     1
102
RTVSPost2010Prop40
 90
        0
102
RTVSPost2010PropOp40
 70
     1
102
RTVSPost2010Prop41ColorIndex
 90
       18
102
RTVSPost2010Prop41ColorRGB
 90
        0
102
RTVSPost2010PropOp41
 70
     1
102
RTVSPost2010Prop42
 90
       50
102
RTVSPost2010PropOp42
 70
     1
102
RTVSPost2010Prop43
 90
        3
102
RTVSPost2010PropOp43
 70
     1
102
RTVSPost2010Prop44ColorIndex
 90
        5
102
RTVSPost2010Prop44ColorRGB
 90
      255
102
RTVSPost2010PropOp44
 70
     1
102
RTVSPost2010Prop45
280
     0
102
RTVSPost2010PropOp45
 70
     1
102
RTVSPost2010Prop46
 90
       50
102
RTVSPost2010PropOp46
 70
     1
102
RTVSPost2010Prop47
 90
       50
102
RTVSPost2010PropOp47
 70
     1
102
RTVSPost2010Prop48
 90
       50
102
RTVSPost2010PropOp48
 70
     1
102
RTVSPost2010Prop49
280
     0
102
RTVSPost2010PropOp49
 70
     1
102
RTVSPost2010Prop50
 90
       50
102
RTVSPost2010PropOp50
 70
     1
102
RTVSPost2010Prop51ColorIndex
 90
      256
102
RTVSPost2010Prop51ColorRGB
 90
-16777216
102
RTVSPost2010PropOp51
 70
     0
102
RTVSPost2010Prop52
140
1.0
102
RTVSPost2010PropOp52
 70
     0
102
RTVSPost2010Prop53
 90
        2
102
RTVSPost2010PropOp53
 70
     1
102
RTVSPost2010Prop54
  1
strokes_ogs.tif
102
RTVSPost2010PropOp54
 70
     1
102
RTVSPost2010Prop55
280
     0
102
RTVSPost2010PropOp55
 70
     1
102
RTVSPost2010Prop56
140
1.0
102
RTVSPost2010PropOp56
 70
     1
102
RTVSPost2010Prop57
140
1.0
102
RTVSPost2010PropOp57
 70
     1
102
RTVSPropertyOp0
 70
     1
102
RTVSPropertyOp1
 70
     1
102
RTVSPropertyOp2
 70
     1
102
RTVSPropertyOp3
 70
     1
102
RTVSPropertyOp4
 70
     1
102
RTVSPropertyOp5
 70
     1
102
RTVSPropertyOp6
 70
     1
102
RTVSPropertyOp7
 70
     1
102
RTVSPropertyOp8
 70
     1
102
RTVSPropertyOp9
 70
     1
102
RTVSPropertyOp10
 70
     1
102
RTVSPropertyOp11
 70
     1
102
RTVSPropertyOp12
 70
     1
102
RTVSPropertyOp13
 70
     1
102
RTVSPropertyOp14
 70
     1
102
RTVSPropertyOp15
 70
     1
102
RTVSPropertyOp16
 70
     1
102
RTVSPropertyOp17
 70
     1
102
RTVSPropertyOp18
 70
     1
102
RTVSPropertyOp19
 70
     1
102
RTVSPropertyOp20
 70
     1
102
RTVSPropertyOp21
 70
     1
102
RTVSPropertyOp22
 70
     1
102
RTVSPropertyOp23
 70
     1
102
RTVSPropertyOp24
 70
     1
102
RTVSPropertyOp25
 70
     1
102
RTVSPropertyOp26
 70
     1
102
RTVSPropertyOp27
 70
     1
102
RTVSPropertyOp28
 70
     1
102
RTVSPropertyOp29
 70
     1
102
RTVSPropertyOp30
 70
     1
102
RTVSPropertyOp31
 70
     1
102
RTVSPropertyOp32
 70
     1
102
RTVSPropertyOp33
 70
     1
102
RTVSPropertyOp34
 70
     1
102
RTVSPropertyOp35
 70
     1
102
RTVSPropertyOp36
 70
     1
102
RTVSPropertyOp37
 70
     1
102
RTVSPropertyOp38
 70
     1
102
RTVSPropertyOp39
 70
     1
102
RTVSPropertyOp40
 70
     1
102
RTVSPropertyOp41
 70
     1
102
RTVSPropertyOp42
 70
     1
102
RTVSPropertyOp43
 70
     1
102
RTVSPropertyOp44
 70
     1
102
RTVSPropertyOp45
 70
     1
102
RTVSPropertyOp46
 70
     1
102
RTVSPropertyOp47
 70
     1
102
RTVSPropertyOp48
 70
     1
102
RTVSPropertyOp49
 70
     1
102
RTVSPropertyOp50
 70
     1
102
RTVSPropertyOp51
 70
     0
102
RTVSPropertyOp52
 70
     0
102
RTVSPropertyOp53
 70
     1
102
RTVSPropertyOp54
 70
     1
102
RTVSPropertyOp55
 70
     1
102
RTVSPropertyOp56
 70
     1
102
RTVSPropertyOp57
 70
     1
102
RTVSPropertyOp58
 70
     1
102
RTVSPropertyOp59
 70
     1
102
RTVSPropertyOp60
 70
     1
102
RTVSPropertyOp61
 70
     1
102
RTVSPropertyOp62
 70
     1
  0
XRECORD
  5
1912
102
{ACAD_REACTORS
330
1911
102
}
330
1911
100
AcDbXrecord
280
     1
102
RTVSPost2010Prop28
280
     0
102
RTVSPost2010PropOp28
 70
     1
102
RTVSPost2010Prop29
280
     1
102
RTVSPost2010PropOp29
 70
     1
102
RTVSPost2010Prop30
280
     1
102
RTVSPost2010PropOp30
 70
     1
102
RTVSPost2010Prop31
280
     0
102
RTVSPost2010PropOp31
 70
     1
102
RTVSPost2010Prop32
280
     0
102
RTVSPost2010PropOp32
 70
     1
102
RTVSPost2010Prop33
280
     0
102
RTVSPost2010PropOp33
 70
     1
102
RTVSPost2010Prop34
280
     0
102
RTVSPost2010PropOp34
 70
     1
102
RTVSPost2010Prop35
280
     0
102
RTVSPost2010PropOp35
 70
     1
102
RTVSPost2010Prop36
280
     0
102
RTVSPost2010PropOp36
 70
     1
102
RTVSPost2010Prop37
 90
       50
102
RTVSPost2010PropOp37
 70
     1
102
RTVSPost2010Prop38
140
0.0
102
RTVSPost2010PropOp38
 70
     1
102
RTVSPost2010Prop39
140
1.0
102
RTVSPost2010PropOp39
 70
     1
102
RTVSPost2010Prop40
 90
        0
102
RTVSPost2010PropOp40
 70
     1
102
RTVSPost2010Prop41ColorIndex
 90
       18
102
RTVSPost2010Prop41ColorRGB
 90
        0
102
RTVSPost2010PropOp41
 70
     1
102
RTVSPost2010Prop42
 90
       50
102
RTVSPost2010PropOp42
 70
     1
102
RTVSPost2010Prop43
 90
        3
102
RTVSPost2010PropOp43
 70
     1
102
RTVSPost2010Prop44ColorIndex
 90
        5
102
RTVSPost2010Prop44ColorRGB
 90
      255
102
RTVSPost2010PropOp44
 70
     1
102
RTVSPost2010Prop45
280
     0
102
RTVSPost2010PropOp45
 70
     1
102
RTVSPost2010Prop46
 90
       50
102
RTVSPost2010PropOp46
 70
     1
102
RTVSPost2010Prop47
 90
       50
102
RTVSPost2010PropOp47
 70
     1
102
RTVSPost2010Prop48
 90
       50
102
RTVSPost2010PropOp48
 70
     1
102
RTVSPost2010Prop49
280
     0
102
RTVSPost2010PropOp49
 70
     1
102
RTVSPost2010Prop50
 90
       50
102
RTVSPost2010PropOp50
 70
     1
102
RTVSPost2010Prop51ColorIndex
 90
      256
102
RTVSPost2010Prop51ColorRGB
 90
-16777216
102
RTVSPost2010PropOp51
 70
     0
102
RTVSPost2010Prop52
140
1.0
102
RTVSPost2010PropOp52
 70
     0
102
RTVSPost2010Prop53
 90
        2
102
RTVSPost2010PropOp53
 70
     1
102
RTVSPost2010Prop54
  1
strokes_ogs.tif
102
RTVSPost2010PropOp54
 70
     1
102
RTVSPost2010Prop55
280
     0
102
RTVSPost2010PropOp55
 70
     1
102
RTVSPost2010Prop56
140
1.0
102
RTVSPost2010PropOp56
 70
     1
102
RTVSPost2010Prop57
140
1.0
102
RTVSPost2010PropOp57
 70
     1
102
RTVSPropertyOp0
 70
     1
102
RTVSPropertyOp1
 70
     1
102
RTVSPropertyOp2
 70
     1
102
RTVSPropertyOp3
 70
     1
102
RTVSPropertyOp4
 70
     1
102
RTVSPropertyOp5
 70
     1
102
RTVSPropertyOp6
 70
     1
102
RTVSPropertyOp7
 70
     1
102
RTVSPropertyOp8
 70
     1
102
RTVSPropertyOp9
 70
     1
102
RTVSPropertyOp10
 70
     1
102
RTVSPropertyOp11
 70
     1
102
RTVSPropertyOp12
 70
     1
102
RTVSPropertyOp13
 70
     1
102
RTVSPropertyOp14
 70
     1
102
RTVSPropertyOp15
 70
     1
102
RTVSPropertyOp16
 70
     1
102
RTVSPropertyOp17
 70
     1
102
RTVSPropertyOp18
 70
     1
102
RTVSPropertyOp19
 70
     1
102
RTVSPropertyOp20
 70
     1
102
RTVSPropertyOp21
 70
     1
102
RTVSPropertyOp22
 70
     1
102
RTVSPropertyOp23
 70
     1
102
RTVSPropertyOp24
 70
     1
102
RTVSPropertyOp25
 70
     1
102
RTVSPropertyOp26
 70
     1
102
RTVSPropertyOp27
 70
     1
102
RTVSPropertyOp28
 70
     1
102
RTVSPropertyOp29
 70
     1
102
RTVSPropertyOp30
 70
     1
102
RTVSPropertyOp31
 70
     1
102
RTVSPropertyOp32
 70
     1
102
RTVSPropertyOp33
 70
     1
102
RTVSPropertyOp34
 70
     1
102
RTVSPropertyOp35
 70
     1
102
RTVSPropertyOp36
 70
     1
102
RTVSPropertyOp37
 70
     1
102
RTVSPropertyOp38
 70
     1
102
RTVSPropertyOp39
 70
     1
102
RTVSPropertyOp40
 70
     1
102
RTVSPropertyOp41
 70
     1
102
RTVSPropertyOp42
 70
     1
102
RTVSPropertyOp43
 70
     1
102
RTVSPropertyOp44
 70
     1
102
RTVSPropertyOp45
 70
     1
102
RTVSPropertyOp46
 70
     1
102
RTVSPropertyOp47
 70
     1
102
RTVSPropertyOp48
 70
     1
102
RTVSPropertyOp49
 70
     1
102
RTVSPropertyOp50
 70
     1
102
RTVSPropertyOp51
 70
     0
102
RTVSPropertyOp52
 70
     0
102
RTVSPropertyOp53
 70
     1
102
RTVSPropertyOp54
 70
     1
102
RTVSPropertyOp55
 70
     1
102
RTVSPropertyOp56
 70
     1
102
RTVSPropertyOp57
 70
     1
102
RTVSPropertyOp58
 70
     1
102
RTVSPropertyOp59
 70
     1
102
RTVSPropertyOp60
 70
     1
102
RTVSPropertyOp61
 70
     1
102
RTVSPropertyOp62
 70
     1
  0
XRECORD
  5
1906
102
{ACAD_REACTORS
330
1905
102
}
330
1905
100
AcDbXrecord
280
     1
102
RTVSPost2010Prop28
280
     0
102
RTVSPost2010PropOp28
 70
     1
102
RTVSPost2010Prop29
280
     1
102
RTVSPost2010PropOp29
 70
     1
102
RTVSPost2010Prop30
280
     1
102
RTVSPost2010PropOp30
 70
     1
102
RTVSPost2010Prop31
280
     0
102
RTVSPost2010PropOp31
 70
     1
102
RTVSPost2010Prop32
280
     0
102
RTVSPost2010PropOp32
 70
     1
102
RTVSPost2010Prop33
280
     0
102
RTVSPost2010PropOp33
 70
     1
102
RTVSPost2010Prop34
280
     0
102
RTVSPost2010PropOp34
 70
     1
102
RTVSPost2010Prop35
280
     0
102
RTVSPost2010PropOp35
 70
     1
102
RTVSPost2010Prop36
280
     0
102
RTVSPost2010PropOp36
 70
     1
102
RTVSPost2010Prop37
 90
       50
102
RTVSPost2010PropOp37
 70
     1
102
RTVSPost2010Prop38
140
0.0
102
RTVSPost2010PropOp38
 70
     1
102
RTVSPost2010Prop39
140
1.0
102
RTVSPost2010PropOp39
 70
     1
102
RTVSPost2010Prop40
 90
        0
102
RTVSPost2010PropOp40
 70
     1
102
RTVSPost2010Prop41ColorIndex
 90
       18
102
RTVSPost2010Prop41ColorRGB
 90
        0
102
RTVSPost2010PropOp41
 70
     1
102
RTVSPost2010Prop42
 90
       50
102
RTVSPost2010PropOp42
 70
     1
102
RTVSPost2010Prop43
 90
        3
102
RTVSPost2010PropOp43
 70
     1
102
RTVSPost2010Prop44ColorIndex
 90
        5
102
RTVSPost2010Prop44ColorRGB
 90
      255
102
RTVSPost2010PropOp44
 70
     1
102
RTVSPost2010Prop45
280
     0
102
RTVSPost2010PropOp45
 70
     1
102
RTVSPost2010Prop46
 90
       50
102
RTVSPost2010PropOp46
 70
     1
102
RTVSPost2010Prop47
 90
       50
102
RTVSPost2010PropOp47
 70
     1
102
RTVSPost2010Prop48
 90
       50
102
RTVSPost2010PropOp48
 70
     1
102
RTVSPost2010Prop49
280
     0
102
RTVSPost2010PropOp49
 70
     1
102
RTVSPost2010Prop50
 90
       50
102
RTVSPost2010PropOp50
 70
     1
102
RTVSPost2010Prop51ColorIndex
 90
      256
102
RTVSPost2010Prop51ColorRGB
 90
-16777216
102
RTVSPost2010PropOp51
 70
     0
102
RTVSPost2010Prop52
140
1.0
102
RTVSPost2010PropOp52
 70
     0
102
RTVSPost2010Prop53
 90
        2
102
RTVSPost2010PropOp53
 70
     1
102
RTVSPost2010Prop54
  1
strokes_ogs.tif
102
RTVSPost2010PropOp54
 70
     1
102
RTVSPost2010Prop55
280
     0
102
RTVSPost2010PropOp55
 70
     1
102
RTVSPost2010Prop56
140
1.0
102
RTVSPost2010PropOp56
 70
     1
102
RTVSPost2010Prop57
140
1.0
102
RTVSPost2010PropOp57
 70
     1
102
RTVSPropertyOp0
 70
     1
102
RTVSPropertyOp1
 70
     1
102
RTVSPropertyOp2
 70
     1
102
RTVSPropertyOp3
 70
     1
102
RTVSPropertyOp4
 70
     1
102
RTVSPropertyOp5
 70
     1
102
RTVSPropertyOp6
 70
     1
102
RTVSPropertyOp7
 70
     1
102
RTVSPropertyOp8
 70
     1
102
RTVSPropertyOp9
 70
     1
102
RTVSPropertyOp10
 70
     1
102
RTVSPropertyOp11
 70
     1
102
RTVSPropertyOp12
 70
     1
102
RTVSPropertyOp13
 70
     1
102
RTVSPropertyOp14
 70
     1
102
RTVSPropertyOp15
 70
     1
102
RTVSPropertyOp16
 70
     1
102
RTVSPropertyOp17
 70
     1
102
RTVSPropertyOp18
 70
     1
102
RTVSPropertyOp19
 70
     1
102
RTVSPropertyOp20
 70
     1
102
RTVSPropertyOp21
 70
     1
102
RTVSPropertyOp22
 70
     1
102
RTVSPropertyOp23
 70
     1
102
RTVSPropertyOp24
 70
     1
102
RTVSPropertyOp25
 70
     1
102
RTVSPropertyOp26
 70
     1
102
RTVSPropertyOp27
 70
     1
102
RTVSPropertyOp28
 70
     1
102
RTVSPropertyOp29
 70
     1
102
RTVSPropertyOp30
 70
     1
102
RTVSPropertyOp31
 70
     1
102
RTVSPropertyOp32
 70
     1
102
RTVSPropertyOp33
 70
     1
102
RTVSPropertyOp34
 70
     1
102
RTVSPropertyOp35
 70
     1
102
RTVSPropertyOp36
 70
     1
102
RTVSPropertyOp37
 70
     1
102
RTVSPropertyOp38
 70
     1
102
RTVSPropertyOp39
 70
     1
102
RTVSPropertyOp40
 70
     1
102
RTVSPropertyOp41
 70
     1
102
RTVSPropertyOp42
 70
     1
102
RTVSPropertyOp43
 70
     1
102
RTVSPropertyOp44
 70
     1
102
RTVSPropertyOp45
 70
     1
102
RTVSPropertyOp46
 70
     1
102
RTVSPropertyOp47
 70
     1
102
RTVSPropertyOp48
 70
     1
102
RTVSPropertyOp49
 70
     1
102
RTVSPropertyOp50
 70
     1
102
RTVSPropertyOp51
 70
     0
102
RTVSPropertyOp52
 70
     0
102
RTVSPropertyOp53
 70
     1
102
RTVSPropertyOp54
 70
     1
102
RTVSPropertyOp55
 70
     1
102
RTVSPropertyOp56
 70
     1
102
RTVSPropertyOp57
 70
     1
102
RTVSPropertyOp58
 70
     1
102
RTVSPropertyOp59
 70
     1
102
RTVSPropertyOp60
 70
     1
102
RTVSPropertyOp61
 70
     1
102
RTVSPropertyOp62
 70
     1
  0
XRECORD
  5
191E
102
{ACAD_REACTORS
330
191D
102
}
330
191D
100
AcDbXrecord
280
     1
102
RTVSPost2010Prop28
280
     0
102
RTVSPost2010PropOp28
 70
     1
102
RTVSPost2010Prop29
280
     1
102
RTVSPost2010PropOp29
 70
     1
102
RTVSPost2010Prop30
280
     1
102
RTVSPost2010PropOp30
 70
     1
102
RTVSPost2010Prop31
280
     0
102
RTVSPost2010PropOp31
 70
     1
102
RTVSPost2010Prop32
280
     0
102
RTVSPost2010PropOp32
 70
     1
102
RTVSPost2010Prop33
280
     0
102
RTVSPost2010PropOp33
 70
     1
102
RTVSPost2010Prop34
280
     0
102
RTVSPost2010PropOp34
 70
     1
102
RTVSPost2010Prop35
280
     0
102
RTVSPost2010PropOp35
 70
     1
102
RTVSPost2010Prop36
280
     0
102
RTVSPost2010PropOp36
 70
     1
102
RTVSPost2010Prop37
 90
       50
102
RTVSPost2010PropOp37
 70
     1
102
RTVSPost2010Prop38
140
0.0
102
RTVSPost2010PropOp38
 70
     1
102
RTVSPost2010Prop39
140
1.0
102
RTVSPost2010PropOp39
 70
     1
102
RTVSPost2010Prop40
 90
        0
102
RTVSPost2010PropOp40
 70
     1
102
RTVSPost2010Prop41ColorIndex
 90
       18
102
RTVSPost2010Prop41ColorRGB
 90
        0
102
RTVSPost2010PropOp41
 70
     1
102
RTVSPost2010Prop42
 90
       50
102
RTVSPost2010PropOp42
 70
     1
102
RTVSPost2010Prop43
 90
        3
102
RTVSPost2010PropOp43
 70
     1
102
RTVSPost2010Prop44ColorIndex
 90
        5
102
RTVSPost2010Prop44ColorRGB
 90
      255
102
RTVSPost2010PropOp44
 70
     1
102
RTVSPost2010Prop45
280
     0
102
RTVSPost2010PropOp45
 70
     1
102
RTVSPost2010Prop46
 90
       50
102
RTVSPost2010PropOp46
 70
     1
102
RTVSPost2010Prop47
 90
       50
102
RTVSPost2010PropOp47
 70
     1
102
RTVSPost2010Prop48
 90
       50
102
RTVSPost2010PropOp48
 70
     1
102
RTVSPost2010Prop49
280
     0
102
RTVSPost2010PropOp49
 70
     1
102
RTVSPost2010Prop50
 90
       50
102
RTVSPost2010PropOp50
 70
     1
102
RTVSPost2010Prop51ColorIndex
 90
      256
102
RTVSPost2010Prop51ColorRGB
 90
-16777216
102
RTVSPost2010PropOp51
 70
     0
102
RTVSPost2010Prop52
140
1.0
102
RTVSPost2010PropOp52
 70
     0
102
RTVSPost2010Prop53
 90
        2
102
RTVSPost2010PropOp53
 70
     1
102
RTVSPost2010Prop54
  1
strokes_ogs.tif
102
RTVSPost2010PropOp54
 70
     1
102
RTVSPost2010Prop55
280
     0
102
RTVSPost2010PropOp55
 70
     1
102
RTVSPost2010Prop56
140
1.0
102
RTVSPost2010PropOp56
 70
     1
102
RTVSPost2010Prop57
140
1.0
102
RTVSPost2010PropOp57
 70
     1
102
RTVSPropertyOp0
 70
     1
102
RTVSPropertyOp1
 70
     1
102
RTVSPropertyOp2
 70
     1
102
RTVSPropertyOp3
 70
     1
102
RTVSPropertyOp4
 70
     1
102
RTVSPropertyOp5
 70
     1
102
RTVSPropertyOp6
 70
     1
102
RTVSPropertyOp7
 70
     1
102
RTVSPropertyOp8
 70
     1
102
RTVSPropertyOp9
 70
     1
102
RTVSPropertyOp10
 70
     1
102
RTVSPropertyOp11
 70
     1
102
RTVSPropertyOp12
 70
     1
102
RTVSPropertyOp13
 70
     1
102
RTVSPropertyOp14
 70
     1
102
RTVSPropertyOp15
 70
     1
102
RTVSPropertyOp16
 70
     1
102
RTVSPropertyOp17
 70
     1
102
RTVSPropertyOp18
 70
     1
102
RTVSPropertyOp19
 70
     1
102
RTVSPropertyOp20
 70
     1
102
RTVSPropertyOp21
 70
     1
102
RTVSPropertyOp22
 70
     1
102
RTVSPropertyOp23
 70
     1
102
RTVSPropertyOp24
 70
     1
102
RTVSPropertyOp25
 70
     1
102
RTVSPropertyOp26
 70
     1
102
RTVSPropertyOp27
 70
     1
102
RTVSPropertyOp28
 70
     1
102
RTVSPropertyOp29
 70
     1
102
RTVSPropertyOp30
 70
     1
102
RTVSPropertyOp31
 70
     1
102
RTVSPropertyOp32
 70
     1
102
RTVSPropertyOp33
 70
     1
102
RTVSPropertyOp34
 70
     1
102
RTVSPropertyOp35
 70
     1
102
RTVSPropertyOp36
 70
     1
102
RTVSPropertyOp37
 70
     1
102
RTVSPropertyOp38
 70
     1
102
RTVSPropertyOp39
 70
     1
102
RTVSPropertyOp40
 70
     1
102
RTVSPropertyOp41
 70
     1
102
RTVSPropertyOp42
 70
     1
102
RTVSPropertyOp43
 70
     1
102
RTVSPropertyOp44
 70
     1
102
RTVSPropertyOp45
 70
     1
102
RTVSPropertyOp46
 70
     1
102
RTVSPropertyOp47
 70
     1
102
RTVSPropertyOp48
 70
     1
102
RTVSPropertyOp49
 70
     1
102
RTVSPropertyOp50
 70
     1
102
RTVSPropertyOp51
 70
     0
102
RTVSPropertyOp52
 70
     0
102
RTVSPropertyOp53
 70
     1
102
RTVSPropertyOp54
 70
     1
102
RTVSPropertyOp55
 70
     1
102
RTVSPropertyOp56
 70
     1
102
RTVSPropertyOp57
 70
     1
102
RTVSPropertyOp58
 70
     1
102
RTVSPropertyOp59
 70
     1
102
RTVSPropertyOp60
 70
     1
102
RTVSPropertyOp61
 70
     1
102
RTVSPropertyOp62
 70
     1
  0
ENDSEC
  0
EOF
