ISO-10303-21;
HEADER;
/****************************************************************
 * Generated by software with PDE/Lib inside                    *
 * PDElib Version 4.4.1-0003, patched  Thursday August 19 11:58 *
 * International Technegroup Inc. (www.iti-oh.com)              *
 ****************************************************************/
FILE_DESCRIPTION((''),'2;1');
FILE_NAME('','2005-12-14T14:54:53',(''),(''),'','CADfix','');
FILE_SCHEMA(('AUTOMOTIVE_DESIGN'));
ENDSEC;
DATA;
#5=APPLICATION_CONTEXT('automotive design');
#6=APPLICATION_PROTOCOL_DEFINITION('Draft International Standard','automotive_design',1998,#5);
#7=PRODUCT_CONTEXT('None',#5,'mechanical');
#8=PRODUCT('rubber foam','','None',(#7));
#9=PRODUCT_RELATED_PRODUCT_CATEGORY('part','description',(#8));
#10=PRODUCT_DEFINITION_FORMATION('None','None',#8);
#11=PRODUCT_DEFINITION_CONTEXT('part definition',#5,'design');
#12=PRODUCT_DEFINITION('None','None',#10,#11);
#18=(NAMED_UNIT(*)PLANE_ANGLE_UNIT()SI_UNIT($,.RADIAN.));
#19=DIMENSIONAL_EXPONENTS(0.0,0.0,0.0,0.0,0.0,0.0,0.0);
#20=PLANE_ANGLE_MEASURE_WITH_UNIT(PLANE_ANGLE_MEASURE(0.017453292500000),#18);
#24=(CONVERSION_BASED_UNIT('DEGREE',#20)NAMED_UNIT(#19)PLANE_ANGLE_UNIT());
#28=(NAMED_UNIT(*)SI_UNIT($,.STERADIAN.)SOLID_ANGLE_UNIT());
#32=(LENGTH_UNIT()NAMED_UNIT(*)SI_UNIT(.MILLI.,.METRE.));
#34=UNCERTAINTY_MEASURE_WITH_UNIT(LENGTH_MEASURE(0.001000000000000),#32,'DISTANCE_ACCURACY_VALUE','');
#36=(GEOMETRIC_REPRESENTATION_CONTEXT(3)GLOBAL_UNCERTAINTY_ASSIGNED_CONTEXT((#34))GLOBAL_UNIT_ASSIGNED_CONTEXT((#24,#28,#32))REPRESENTATION_CONTEXT('None','None'));
#37=AXIS2_PLACEMENT_3D('',#38,#39,#40);
#38=CARTESIAN_POINT('',(0.0,0.0,0.0));
#39=DIRECTION('',(0.0,0.0,1.0));
#40=DIRECTION('',(1.0,0.0,0.0));
#41=ADVANCED_BREP_SHAPE_REPRESENTATION('',(#37,#461),#36);
#42=PRODUCT_DEFINITION_SHAPE('','',#12);
#43=SHAPE_DEFINITION_REPRESENTATION(#42,#41);
#44=CARTESIAN_POINT('',(-5.499499980618060,0.0,0.998999961236120));
#45=CARTESIAN_POINT('',(5.499500248838961,0.0,0.998999961236120));
#46=CARTESIAN_POINT('',(-5.499499980618060,0.0,-20.999000497677919));
#47=CARTESIAN_POINT('',(5.499500248838961,0.0,-20.999000497677919));
#48=B_SPLINE_SURFACE_WITH_KNOTS('',1,1,((#44,#46),(#45,#47)),.UNSPECIFIED.,.F.,.F.,.U.,(2,2),(2,2),(0.0,10.999000229457019),(0.0,21.998000458914039),.UNSPECIFIED.);
#49=CARTESIAN_POINT('',(3.0,0.0,0.0));
#50=VERTEX_POINT('',#49);
#51=CARTESIAN_POINT('',(-3.0,0.0,0.0));
#52=VERTEX_POINT('',#51);
#53=CARTESIAN_POINT('',(3.0,0.0,0.0));
#54=CARTESIAN_POINT('',(-3.0,0.0,0.0));
#55=QUASI_UNIFORM_CURVE('',1,(#53,#54),.UNSPECIFIED.,.F.,.U.);
#56=EDGE_CURVE('',#50,#52,#55,.T.);
#57=ORIENTED_EDGE('',*,*,#56,.T.);
#58=CARTESIAN_POINT('',(-5.0,0.0,-2.0));
#59=VERTEX_POINT('',#58);
#60=CARTESIAN_POINT('',(-3.0,0.0,0.0));
#61=CARTESIAN_POINT('',(-5.000000000000001,0.0,0.0));
#62=CARTESIAN_POINT('',(-5.0,0.0,-2.0));
#70=(BOUNDED_CURVE()B_SPLINE_CURVE(2,(#60,#61,#62),.UNSPECIFIED.,.F.,.U.)CURVE()GEOMETRIC_REPRESENTATION_ITEM()QUASI_UNIFORM_CURVE()RATIONAL_B_SPLINE_CURVE((1.0,0.707106781186548,1.0))REPRESENTATION_ITEM(''));
#71=EDGE_CURVE('',#52,#59,#70,.T.);
#72=ORIENTED_EDGE('',*,*,#71,.T.);
#73=CARTESIAN_POINT('',(-3.500000000000000,0.0,-17.500000000000000));
#74=VERTEX_POINT('',#73);
#75=CARTESIAN_POINT('',(-5.0,0.0,-2.0));
#76=CARTESIAN_POINT('',(-3.500000000000000,0.0,-17.500000000000000));
#77=QUASI_UNIFORM_CURVE('',1,(#75,#76),.UNSPECIFIED.,.F.,.U.);
#78=EDGE_CURVE('',#59,#74,#77,.T.);
#79=ORIENTED_EDGE('',*,*,#78,.T.);
#80=CARTESIAN_POINT('',(-1.0,0.0,-20.0));
#81=VERTEX_POINT('',#80);
#82=CARTESIAN_POINT('',(-3.500000000000000,0.0,-17.500000000000000));
#83=CARTESIAN_POINT('',(-3.499999999999999,0.0,-19.999999999999996));
#84=CARTESIAN_POINT('',(-1.0,0.0,-20.0));
#92=(BOUNDED_CURVE()B_SPLINE_CURVE(2,(#82,#83,#84),.UNSPECIFIED.,.F.,.U.)CURVE()GEOMETRIC_REPRESENTATION_ITEM()QUASI_UNIFORM_CURVE()RATIONAL_B_SPLINE_CURVE((1.0,0.707106781186548,1.0))REPRESENTATION_ITEM(''));
#93=EDGE_CURVE('',#74,#81,#92,.T.);
#94=ORIENTED_EDGE('',*,*,#93,.T.);
#95=CARTESIAN_POINT('',(-1.500000000000000,0.0,-3.499999999999901));
#96=VERTEX_POINT('',#95);
#97=CARTESIAN_POINT('',(-1.0,0.0,-20.0));
#98=CARTESIAN_POINT('',(-1.500000000000000,0.0,-3.499999999999901));
#99=QUASI_UNIFORM_CURVE('',1,(#97,#98),.UNSPECIFIED.,.F.,.U.);
#100=EDGE_CURVE('',#81,#96,#99,.T.);
#101=ORIENTED_EDGE('',*,*,#100,.T.);
#102=CARTESIAN_POINT('',(1.500000000000000,0.0,-3.499999999999901));
#103=VERTEX_POINT('',#102);
#104=CARTESIAN_POINT('',(-1.500000000000000,0.0,-3.499999999999901));
#105=CARTESIAN_POINT('',(1.500000000000000,0.0,-3.499999999999901));
#106=QUASI_UNIFORM_CURVE('',1,(#104,#105),.UNSPECIFIED.,.F.,.U.);
#107=EDGE_CURVE('',#96,#103,#106,.T.);
#108=ORIENTED_EDGE('',*,*,#107,.T.);
#109=CARTESIAN_POINT('',(1.0,0.0,-20.0));
#110=VERTEX_POINT('',#109);
#111=CARTESIAN_POINT('',(1.500000000000000,0.0,-3.499999999999901));
#112=CARTESIAN_POINT('',(1.0,0.0,-20.0));
#113=QUASI_UNIFORM_CURVE('',1,(#111,#112),.UNSPECIFIED.,.F.,.U.);
#114=EDGE_CURVE('',#103,#110,#113,.T.);
#115=ORIENTED_EDGE('',*,*,#114,.T.);
#116=CARTESIAN_POINT('',(3.500000000000000,0.0,-17.500000000000000));
#117=VERTEX_POINT('',#116);
#118=CARTESIAN_POINT('',(1.0,0.0,-20.0));
#119=CARTESIAN_POINT('',(3.499999999999999,0.0,-19.999999999999996));
#120=CARTESIAN_POINT('',(3.500000000000000,0.0,-17.500000000000000));
#128=(BOUNDED_CURVE()B_SPLINE_CURVE(2,(#118,#119,#120),.UNSPECIFIED.,.F.,.U.)CURVE()GEOMETRIC_REPRESENTATION_ITEM()QUASI_UNIFORM_CURVE()RATIONAL_B_SPLINE_CURVE((1.0,0.707106781186548,1.0))REPRESENTATION_ITEM(''));
#129=EDGE_CURVE('',#110,#117,#128,.T.);
#130=ORIENTED_EDGE('',*,*,#129,.T.);
#131=CARTESIAN_POINT('',(5.0,0.0,-2.0));
#132=VERTEX_POINT('',#131);
#133=CARTESIAN_POINT('',(3.500000000000000,0.0,-17.500000000000000));
#134=CARTESIAN_POINT('',(5.0,0.0,-2.0));
#135=QUASI_UNIFORM_CURVE('',1,(#133,#134),.UNSPECIFIED.,.F.,.U.);
#136=EDGE_CURVE('',#117,#132,#135,.T.);
#137=ORIENTED_EDGE('',*,*,#136,.T.);
#138=CARTESIAN_POINT('',(5.0,0.0,-2.0));
#139=CARTESIAN_POINT('',(5.000000000000001,0.0,0.0));
#140=CARTESIAN_POINT('',(3.0,0.0,0.0));
#148=(BOUNDED_CURVE()B_SPLINE_CURVE(2,(#138,#139,#140),.UNSPECIFIED.,.F.,.U.)CURVE()GEOMETRIC_REPRESENTATION_ITEM()QUASI_UNIFORM_CURVE()RATIONAL_B_SPLINE_CURVE((1.0,0.707106781186548,1.0))REPRESENTATION_ITEM(''));
#149=EDGE_CURVE('',#132,#50,#148,.T.);
#150=ORIENTED_EDGE('',*,*,#149,.T.);
#151=EDGE_LOOP('',(#57,#72,#79,#94,#101,#108,#115,#130,#137,#150));
#152=FACE_OUTER_BOUND('',#151,.T.);
#153=ADVANCED_FACE('',(#152),#48,.F.);
#154=CARTESIAN_POINT('',(-5.499499980618060,200.0,0.998999961236120));
#155=CARTESIAN_POINT('',(5.499500248838961,200.0,0.998999961236120));
#156=CARTESIAN_POINT('',(-5.499499980618060,200.0,-20.999000497677919));
#157=CARTESIAN_POINT('',(5.499500248838961,200.0,-20.999000497677919));
#158=B_SPLINE_SURFACE_WITH_KNOTS('',1,1,((#154,#156),(#155,#157)),.UNSPECIFIED.,.F.,.F.,.U.,(2,2),(2,2),(0.0,10.999000229457019),(0.0,21.998000458914039),.UNSPECIFIED.);
#159=CARTESIAN_POINT('',(3.0,200.0,0.0));
#160=VERTEX_POINT('',#159);
#161=CARTESIAN_POINT('',(-3.0,200.0,0.0));
#162=VERTEX_POINT('',#161);
#163=CARTESIAN_POINT('',(3.0,200.0,0.0));
#164=CARTESIAN_POINT('',(-3.0,200.0,0.0));
#165=QUASI_UNIFORM_CURVE('',1,(#163,#164),.UNSPECIFIED.,.F.,.U.);
#166=EDGE_CURVE('',#160,#162,#165,.T.);
#167=ORIENTED_EDGE('',*,*,#166,.F.);
#168=CARTESIAN_POINT('',(5.0,200.0,-2.0));
#169=VERTEX_POINT('',#168);
#170=CARTESIAN_POINT('',(5.0,200.0,-2.0));
#171=CARTESIAN_POINT('',(5.000000000000001,200.0,0.0));
#172=CARTESIAN_POINT('',(3.0,200.0,0.0));
#180=(BOUNDED_CURVE()B_SPLINE_CURVE(2,(#170,#171,#172),.UNSPECIFIED.,.F.,.U.)CURVE()GEOMETRIC_REPRESENTATION_ITEM()QUASI_UNIFORM_CURVE()RATIONAL_B_SPLINE_CURVE((1.0,0.707106781186548,1.0))REPRESENTATION_ITEM(''));
#181=EDGE_CURVE('',#169,#160,#180,.T.);
#182=ORIENTED_EDGE('',*,*,#181,.F.);
#183=CARTESIAN_POINT('',(3.500000000000000,200.0,-17.500000000000000));
#184=VERTEX_POINT('',#183);
#185=CARTESIAN_POINT('',(3.500000000000000,200.0,-17.500000000000000));
#186=CARTESIAN_POINT('',(5.0,200.0,-2.0));
#187=QUASI_UNIFORM_CURVE('',1,(#185,#186),.UNSPECIFIED.,.F.,.U.);
#188=EDGE_CURVE('',#184,#169,#187,.T.);
#189=ORIENTED_EDGE('',*,*,#188,.F.);
#190=CARTESIAN_POINT('',(1.0,200.0,-20.0));
#191=VERTEX_POINT('',#190);
#192=CARTESIAN_POINT('',(1.0,200.0,-20.0));
#193=CARTESIAN_POINT('',(3.499999999999999,200.0,-19.999999999999996));
#194=CARTESIAN_POINT('',(3.500000000000000,200.0,-17.500000000000000));
#202=(BOUNDED_CURVE()B_SPLINE_CURVE(2,(#192,#193,#194),.UNSPECIFIED.,.F.,.U.)CURVE()GEOMETRIC_REPRESENTATION_ITEM()QUASI_UNIFORM_CURVE()RATIONAL_B_SPLINE_CURVE((1.0,0.707106781186548,1.0))REPRESENTATION_ITEM(''));
#203=EDGE_CURVE('',#191,#184,#202,.T.);
#204=ORIENTED_EDGE('',*,*,#203,.F.);
#205=CARTESIAN_POINT('',(1.500000000000000,200.0,-3.499999999999901));
#206=VERTEX_POINT('',#205);
#207=CARTESIAN_POINT('',(1.500000000000000,200.0,-3.499999999999901));
#208=CARTESIAN_POINT('',(1.0,200.0,-20.0));
#209=QUASI_UNIFORM_CURVE('',1,(#207,#208),.UNSPECIFIED.,.F.,.U.);
#210=EDGE_CURVE('',#206,#191,#209,.T.);
#211=ORIENTED_EDGE('',*,*,#210,.F.);
#212=CARTESIAN_POINT('',(-1.500000000000000,200.0,-3.499999999999901));
#213=VERTEX_POINT('',#212);
#214=CARTESIAN_POINT('',(-1.500000000000000,200.0,-3.499999999999901));
#215=CARTESIAN_POINT('',(1.500000000000000,200.0,-3.499999999999901));
#216=QUASI_UNIFORM_CURVE('',1,(#214,#215),.UNSPECIFIED.,.F.,.U.);
#217=EDGE_CURVE('',#213,#206,#216,.T.);
#218=ORIENTED_EDGE('',*,*,#217,.F.);
#219=CARTESIAN_POINT('',(-1.0,200.0,-20.0));
#220=VERTEX_POINT('',#219);
#221=CARTESIAN_POINT('',(-1.0,200.0,-20.0));
#222=CARTESIAN_POINT('',(-1.500000000000000,200.0,-3.499999999999901));
#223=QUASI_UNIFORM_CURVE('',1,(#221,#222),.UNSPECIFIED.,.F.,.U.);
#224=EDGE_CURVE('',#220,#213,#223,.T.);
#225=ORIENTED_EDGE('',*,*,#224,.F.);
#226=CARTESIAN_POINT('',(-3.500000000000000,200.0,-17.500000000000000));
#227=VERTEX_POINT('',#226);
#228=CARTESIAN_POINT('',(-3.500000000000000,200.0,-17.500000000000000));
#229=CARTESIAN_POINT('',(-3.499999999999999,200.0,-19.999999999999996));
#230=CARTESIAN_POINT('',(-1.0,200.0,-20.0));
#238=(BOUNDED_CURVE()B_SPLINE_CURVE(2,(#228,#229,#230),.UNSPECIFIED.,.F.,.U.)CURVE()GEOMETRIC_REPRESENTATION_ITEM()QUASI_UNIFORM_CURVE()RATIONAL_B_SPLINE_CURVE((1.0,0.707106781186548,1.0))REPRESENTATION_ITEM(''));
#239=EDGE_CURVE('',#227,#220,#238,.T.);
#240=ORIENTED_EDGE('',*,*,#239,.F.);
#241=CARTESIAN_POINT('',(-5.0,200.0,-2.0));
#242=VERTEX_POINT('',#241);
#243=CARTESIAN_POINT('',(-5.0,200.0,-2.0));
#244=CARTESIAN_POINT('',(-3.500000000000000,200.0,-17.500000000000000));
#245=QUASI_UNIFORM_CURVE('',1,(#243,#244),.UNSPECIFIED.,.F.,.U.);
#246=EDGE_CURVE('',#242,#227,#245,.T.);
#247=ORIENTED_EDGE('',*,*,#246,.F.);
#248=CARTESIAN_POINT('',(-3.0,200.0,0.0));
#249=CARTESIAN_POINT('',(-5.000000000000001,200.0,0.0));
#250=CARTESIAN_POINT('',(-5.0,200.0,-2.0));
#258=(BOUNDED_CURVE()B_SPLINE_CURVE(2,(#248,#249,#250),.UNSPECIFIED.,.F.,.U.)CURVE()GEOMETRIC_REPRESENTATION_ITEM()QUASI_UNIFORM_CURVE()RATIONAL_B_SPLINE_CURVE((1.0,0.707106781186548,1.0))REPRESENTATION_ITEM(''));
#259=EDGE_CURVE('',#162,#242,#258,.T.);
#260=ORIENTED_EDGE('',*,*,#259,.F.);
#261=EDGE_LOOP('',(#167,#182,#189,#204,#211,#218,#225,#240,#247,#260));
#262=FACE_OUTER_BOUND('',#261,.T.);
#263=ADVANCED_FACE('',(#262),#158,.T.);
#264=CARTESIAN_POINT('',(2.947646103384251,205.0,-0.000685350048886));
#265=CARTESIAN_POINT('',(2.947646103384251,-5.125000000000000,-0.000685350048886));
#266=CARTESIAN_POINT('',(5.129515177188236,205.000000000000030,0.056448902391983));
#267=CARTESIAN_POINT('',(5.129515177188236,-5.125000000000000,0.056448902391983));
#268=CARTESIAN_POINT('',(4.996269596843735,205.0,-2.122097079069711));
#269=CARTESIAN_POINT('',(4.996269596843735,-5.125000000000000,-2.122097079069711));
#277=(BOUNDED_SURFACE()B_SPLINE_SURFACE(1,2,((#264,#266,#268),(#265,#267,#269)),.UNSPECIFIED.,.F.,.F.,.U.)B_SPLINE_SURFACE_WITH_KNOTS((2,2),(3,3),(0.0,210.125000000000000),(0.0,3.520084247134668),.UNSPECIFIED.)GEOMETRIC_REPRESENTATION_ITEM()RATIONAL_B_SPLINE_SURFACE(((1.0,0.675590207615660,1.0),(1.0,0.675590207615660,1.0)))REPRESENTATION_ITEM('')SURFACE());
#278=ORIENTED_EDGE('',*,*,#149,.F.);
#279=CARTESIAN_POINT('',(5.0,200.0,-2.0));
#280=CARTESIAN_POINT('',(5.0,0.0,-2.0));
#281=QUASI_UNIFORM_CURVE('',1,(#279,#280),.UNSPECIFIED.,.F.,.U.);
#282=EDGE_CURVE('',#169,#132,#281,.T.);
#283=ORIENTED_EDGE('',*,*,#282,.F.);
#284=ORIENTED_EDGE('',*,*,#181,.T.);
#285=CARTESIAN_POINT('',(3.0,200.0,0.0));
#286=CARTESIAN_POINT('',(3.0,0.0,0.0));
#287=QUASI_UNIFORM_CURVE('',1,(#285,#286),.UNSPECIFIED.,.F.,.U.);
#288=EDGE_CURVE('',#160,#50,#287,.T.);
#289=ORIENTED_EDGE('',*,*,#288,.T.);
#290=EDGE_LOOP('',(#278,#283,#284,#289));
#291=FACE_OUTER_BOUND('',#290,.T.);
#292=ADVANCED_FACE('',(#291),#277,.T.);
#293=CARTESIAN_POINT('',(5.074924997092717,-9.989999612361183,-1.225775030042008));
#294=CARTESIAN_POINT('',(3.425074962674155,-9.989999612361183,-18.274225385700390));
#295=CARTESIAN_POINT('',(5.074924997092717,209.990004976779200,-1.225775030042008));
#296=CARTESIAN_POINT('',(3.425074962674155,209.990004976779200,-18.274225385700390));
#297=B_SPLINE_SURFACE_WITH_KNOTS('',1,1,((#293,#295),(#294,#296)),.UNSPECIFIED.,.F.,.F.,.U.,(2,2),(2,2),(0.0,17.128095768806851),(0.0,219.980004589140410),.UNSPECIFIED.);
#298=ORIENTED_EDGE('',*,*,#136,.F.);
#299=CARTESIAN_POINT('',(3.500000000000000,200.0,-17.500000000000000));
#300=CARTESIAN_POINT('',(3.500000000000000,0.0,-17.500000000000000));
#301=QUASI_UNIFORM_CURVE('',1,(#299,#300),.UNSPECIFIED.,.F.,.U.);
#302=EDGE_CURVE('',#184,#117,#301,.T.);
#303=ORIENTED_EDGE('',*,*,#302,.F.);
#304=ORIENTED_EDGE('',*,*,#188,.T.);
#305=ORIENTED_EDGE('',*,*,#282,.T.);
#306=EDGE_LOOP('',(#298,#303,#304,#305));
#307=FACE_OUTER_BOUND('',#306,.T.);
#308=ADVANCED_FACE('',(#307),#297,.T.);
#309=CARTESIAN_POINT('',(3.499143312438892,205.0,-17.434557629230319));
#310=CARTESIAN_POINT('',(3.499143312438892,-5.125000000000000,-17.434557629230319));
#311=CARTESIAN_POINT('',(3.571230650415657,204.999999999999970,-20.187462001386798));
#312=CARTESIAN_POINT('',(3.571230650415657,-5.125000000000000,-20.187462001386798));
#313=CARTESIAN_POINT('',(0.824199810935041,205.000000000000090,-19.993811198452029));
#314=CARTESIAN_POINT('',(0.824199810935041,-5.125000000000000,-19.993811198452029));
#322=(BOUNDED_SURFACE()B_SPLINE_SURFACE(1,2,((#309,#311,#313),(#310,#312,#314)),.UNSPECIFIED.,.F.,.F.,.U.)B_SPLINE_SURFACE_WITH_KNOTS((2,2),(3,3),(0.0,210.125000000000000),(0.0,4.427855860220919),.UNSPECIFIED.)GEOMETRIC_REPRESENTATION_ITEM()RATIONAL_B_SPLINE_SURFACE(((1.0,0.670944223154768,0.996392648609106),(1.0,0.670944223154768,0.996392648609106)))REPRESENTATION_ITEM('')SURFACE());
#323=ORIENTED_EDGE('',*,*,#129,.F.);
#324=CARTESIAN_POINT('',(1.0,200.0,-20.0));
#325=CARTESIAN_POINT('',(1.0,0.0,-20.0));
#326=QUASI_UNIFORM_CURVE('',1,(#324,#325),.UNSPECIFIED.,.F.,.U.);
#327=EDGE_CURVE('',#191,#110,#326,.T.);
#328=ORIENTED_EDGE('',*,*,#327,.F.);
#329=ORIENTED_EDGE('',*,*,#203,.T.);
#330=ORIENTED_EDGE('',*,*,#302,.T.);
#331=EDGE_LOOP('',(#323,#328,#329,#330));
#332=FACE_OUTER_BOUND('',#331,.T.);
#333=ADVANCED_FACE('',(#332),#322,.T.);
#334=CARTESIAN_POINT('',(0.975025000969094,-9.989999612361183,-20.824174968019801));
#335=CARTESIAN_POINT('',(1.524975012441948,-9.989999612361183,-2.675824589415611));
#336=CARTESIAN_POINT('',(0.975025000969094,209.990004976779200,-20.824174968019801));
#337=CARTESIAN_POINT('',(1.524975012441948,209.990004976779200,-2.675824589415611));
#338=B_SPLINE_SURFACE_WITH_KNOTS('',1,1,((#334,#336),(#335,#337)),.UNSPECIFIED.,.F.,.F.,.U.,(2,2),(2,2),(0.0,18.156681042517150),(0.0,219.980004589140410),.UNSPECIFIED.);
#339=ORIENTED_EDGE('',*,*,#114,.F.);
#340=CARTESIAN_POINT('',(1.500000000000000,200.0,-3.499999999999901));
#341=CARTESIAN_POINT('',(1.500000000000000,0.0,-3.499999999999901));
#342=QUASI_UNIFORM_CURVE('',1,(#340,#341),.UNSPECIFIED.,.F.,.U.);
#343=EDGE_CURVE('',#206,#103,#342,.T.);
#344=ORIENTED_EDGE('',*,*,#343,.F.);
#345=ORIENTED_EDGE('',*,*,#210,.T.);
#346=ORIENTED_EDGE('',*,*,#327,.T.);
#347=EDGE_LOOP('',(#339,#344,#345,#346));
#348=FACE_OUTER_BOUND('',#347,.T.);
#349=ADVANCED_FACE('',(#348),#338,.T.);
#350=CARTESIAN_POINT('',(1.649849994185418,-9.989999612361194,-3.499999999999901));
#351=CARTESIAN_POINT('',(-1.649850074651688,-9.989999612361194,-3.499999999999901));
#352=CARTESIAN_POINT('',(1.649849994185418,209.990004976779200,-3.499999999999901));
#353=CARTESIAN_POINT('',(-1.649850074651688,209.990004976779200,-3.499999999999901));
#354=B_SPLINE_SURFACE_WITH_KNOTS('',1,1,((#350,#352),(#351,#353)),.UNSPECIFIED.,.F.,.F.,.U.,(2,2),(2,2),(0.0,3.299700068837106),(0.0,219.980004589140410),.UNSPECIFIED.);
#355=ORIENTED_EDGE('',*,*,#107,.F.);
#356=CARTESIAN_POINT('',(-1.500000000000000,200.0,-3.499999999999901));
#357=CARTESIAN_POINT('',(-1.500000000000000,0.0,-3.499999999999901));
#358=QUASI_UNIFORM_CURVE('',1,(#356,#357),.UNSPECIFIED.,.F.,.U.);
#359=EDGE_CURVE('',#213,#96,#358,.T.);
#360=ORIENTED_EDGE('',*,*,#359,.F.);
#361=ORIENTED_EDGE('',*,*,#217,.T.);
#362=ORIENTED_EDGE('',*,*,#343,.T.);
#363=EDGE_LOOP('',(#355,#360,#361,#362));
#364=FACE_OUTER_BOUND('',#363,.T.);
#365=ADVANCED_FACE('',(#364),#354,.T.);
#366=CARTESIAN_POINT('',(-1.524974999030906,-9.989999612361183,-2.675825031980097));
#367=CARTESIAN_POINT('',(-0.975024987558052,-9.989999612361183,-20.824175410584289));
#368=CARTESIAN_POINT('',(-1.524974999030906,209.990004976779200,-2.675825031980097));
#369=CARTESIAN_POINT('',(-0.975024987558052,209.990004976779200,-20.824175410584289));
#370=B_SPLINE_SURFACE_WITH_KNOTS('',1,1,((#366,#368),(#367,#369)),.UNSPECIFIED.,.F.,.F.,.U.,(2,2),(2,2),(0.0,18.156681042517160),(0.0,219.980004589140410),.UNSPECIFIED.);
#371=ORIENTED_EDGE('',*,*,#100,.F.);
#372=CARTESIAN_POINT('',(-1.0,200.0,-20.0));
#373=CARTESIAN_POINT('',(-1.0,0.0,-20.0));
#374=QUASI_UNIFORM_CURVE('',1,(#372,#373),.UNSPECIFIED.,.F.,.U.);
#375=EDGE_CURVE('',#220,#81,#374,.T.);
#376=ORIENTED_EDGE('',*,*,#375,.F.);
#377=ORIENTED_EDGE('',*,*,#224,.T.);
#378=ORIENTED_EDGE('',*,*,#359,.T.);
#379=EDGE_LOOP('',(#371,#376,#377,#378));
#380=FACE_OUTER_BOUND('',#379,.T.);
#381=ADVANCED_FACE('',(#380),#370,.T.);
#382=CARTESIAN_POINT('',(-0.934557629230316,205.0,-19.999143312438889));
#383=CARTESIAN_POINT('',(-0.934557629230316,-5.125000000000000,-19.999143312438889));
#384=CARTESIAN_POINT('',(-3.687462001386802,204.999999999999970,-20.071230650415661));
#385=CARTESIAN_POINT('',(-3.687462001386802,-5.125000000000000,-20.071230650415661));
#386=CARTESIAN_POINT('',(-3.493811198452027,205.000000000000090,-17.324199810935045));
#387=CARTESIAN_POINT('',(-3.493811198452027,-5.125000000000000,-17.324199810935045));
#395=(BOUNDED_SURFACE()B_SPLINE_SURFACE(1,2,((#382,#384,#386),(#383,#385,#387)),.UNSPECIFIED.,.F.,.F.,.U.)B_SPLINE_SURFACE_WITH_KNOTS((2,2),(3,3),(0.0,210.125000000000000),(0.0,4.427855860220906),.UNSPECIFIED.)GEOMETRIC_REPRESENTATION_ITEM()RATIONAL_B_SPLINE_SURFACE(((1.0,0.670944223154768,0.996392648609106),(1.0,0.670944223154768,0.996392648609106)))REPRESENTATION_ITEM('')SURFACE());
#396=ORIENTED_EDGE('',*,*,#93,.F.);
#397=CARTESIAN_POINT('',(-3.500000000000000,200.0,-17.500000000000000));
#398=CARTESIAN_POINT('',(-3.500000000000000,0.0,-17.500000000000000));
#399=QUASI_UNIFORM_CURVE('',1,(#397,#398),.UNSPECIFIED.,.F.,.U.);
#400=EDGE_CURVE('',#227,#74,#399,.T.);
#401=ORIENTED_EDGE('',*,*,#400,.F.);
#402=ORIENTED_EDGE('',*,*,#239,.T.);
#403=ORIENTED_EDGE('',*,*,#375,.T.);
#404=EDGE_LOOP('',(#396,#401,#402,#403));
#405=FACE_OUTER_BOUND('',#404,.T.);
#406=ADVANCED_FACE('',(#405),#395,.T.);
#407=CARTESIAN_POINT('',(-3.425075002907282,-9.989999612361194,-18.274224969957992));
#408=CARTESIAN_POINT('',(-5.074925037325845,-9.989999612361194,-1.225774614299611));
#409=CARTESIAN_POINT('',(-3.425075002907282,209.990004976779200,-18.274224969957992));
#410=CARTESIAN_POINT('',(-5.074925037325845,209.990004976779200,-1.225774614299611));
#411=B_SPLINE_SURFACE_WITH_KNOTS('',1,1,((#407,#409),(#408,#410)),.UNSPECIFIED.,.F.,.F.,.U.,(2,2),(2,2),(0.0,17.128095768806858),(0.0,219.980004589140410),.UNSPECIFIED.);
#412=ORIENTED_EDGE('',*,*,#78,.F.);
#413=CARTESIAN_POINT('',(-5.0,200.0,-2.0));
#414=CARTESIAN_POINT('',(-5.0,0.0,-2.0));
#415=QUASI_UNIFORM_CURVE('',1,(#413,#414),.UNSPECIFIED.,.F.,.U.);
#416=EDGE_CURVE('',#242,#59,#415,.T.);
#417=ORIENTED_EDGE('',*,*,#416,.F.);
#418=ORIENTED_EDGE('',*,*,#246,.T.);
#419=ORIENTED_EDGE('',*,*,#400,.T.);
#420=EDGE_LOOP('',(#412,#417,#418,#419));
#421=FACE_OUTER_BOUND('',#420,.T.);
#422=ADVANCED_FACE('',(#421),#411,.T.);
#423=CARTESIAN_POINT('',(-4.999314649951113,205.0,-2.052353896615747));
#424=CARTESIAN_POINT('',(-4.999314649951113,-5.125000000000000,-2.052353896615747));
#425=CARTESIAN_POINT('',(-5.056984520332523,204.999999999999970,0.149969601109439));
#426=CARTESIAN_POINT('',(-5.056984520332523,-5.125000000000000,0.149969601109439));
#427=CARTESIAN_POINT('',(-2.859359848748033,204.999999999999970,-0.004951041238381));
#428=CARTESIAN_POINT('',(-2.859359848748033,-5.125000000000000,-0.004951041238381));
#436=(BOUNDED_SURFACE()B_SPLINE_SURFACE(1,2,((#423,#425,#427),(#424,#426,#428)),.UNSPECIFIED.,.F.,.F.,.U.)B_SPLINE_SURFACE_WITH_KNOTS((2,2),(3,3),(0.0,210.125000000000000),(0.0,3.542284688176725),.UNSPECIFIED.)GEOMETRIC_REPRESENTATION_ITEM()RATIONAL_B_SPLINE_SURFACE(((1.0,0.670944223154768,0.996392648609106),(1.0,0.670944223154768,0.996392648609106)))REPRESENTATION_ITEM('')SURFACE());
#437=ORIENTED_EDGE('',*,*,#71,.F.);
#438=CARTESIAN_POINT('',(-3.0,200.0,0.0));
#439=CARTESIAN_POINT('',(-3.0,0.0,0.0));
#440=QUASI_UNIFORM_CURVE('',1,(#438,#439),.UNSPECIFIED.,.F.,.U.);
#441=EDGE_CURVE('',#162,#52,#440,.T.);
#442=ORIENTED_EDGE('',*,*,#441,.F.);
#443=ORIENTED_EDGE('',*,*,#259,.T.);
#444=ORIENTED_EDGE('',*,*,#416,.T.);
#445=EDGE_LOOP('',(#437,#442,#443,#444));
#446=FACE_OUTER_BOUND('',#445,.T.);
#447=ADVANCED_FACE('',(#446),#436,.T.);
#448=CARTESIAN_POINT('',(-3.299699988370836,-9.989999612361194,0.0));
#449=CARTESIAN_POINT('',(3.299700149303377,-9.989999612361194,0.0));
#450=CARTESIAN_POINT('',(-3.299699988370836,209.990004976779200,0.0));
#451=CARTESIAN_POINT('',(3.299700149303377,209.990004976779200,0.0));
#452=B_SPLINE_SURFACE_WITH_KNOTS('',1,1,((#448,#450),(#449,#451)),.UNSPECIFIED.,.F.,.F.,.U.,(2,2),(2,2),(0.0,6.599400137674213),(0.0,219.980004589140410),.UNSPECIFIED.);
#453=ORIENTED_EDGE('',*,*,#56,.F.);
#454=ORIENTED_EDGE('',*,*,#288,.F.);
#455=ORIENTED_EDGE('',*,*,#166,.T.);
#456=ORIENTED_EDGE('',*,*,#441,.T.);
#457=EDGE_LOOP('',(#453,#454,#455,#456));
#458=FACE_OUTER_BOUND('',#457,.T.);
#459=ADVANCED_FACE('',(#458),#452,.T.);
#460=CLOSED_SHELL('',(#153,#263,#292,#308,#333,#349,#365,#381,#406,#422,#447,#459));
#461=MANIFOLD_SOLID_BREP('rubber foam',#460);
#467=(NAMED_UNIT(*)PLANE_ANGLE_UNIT()SI_UNIT($,.RADIAN.));
#468=DIMENSIONAL_EXPONENTS(0.0,0.0,0.0,0.0,0.0,0.0,0.0);
#469=PLANE_ANGLE_MEASURE_WITH_UNIT(PLANE_ANGLE_MEASURE(0.017453292500000),#467);
#473=(CONVERSION_BASED_UNIT('DEGREE',#469)NAMED_UNIT(#468)PLANE_ANGLE_UNIT());
#477=(NAMED_UNIT(*)SI_UNIT($,.STERADIAN.)SOLID_ANGLE_UNIT());
#481=(LENGTH_UNIT()NAMED_UNIT(*)SI_UNIT(.MILLI.,.METRE.));
#483=UNCERTAINTY_MEASURE_WITH_UNIT(LENGTH_MEASURE(0.001000000000000),#481,'DISTANCE_ACCURACY_VALUE','');
#485=(GEOMETRIC_REPRESENTATION_CONTEXT(3)GLOBAL_UNCERTAINTY_ASSIGNED_CONTEXT((#483))GLOBAL_UNIT_ASSIGNED_CONTEXT((#473,#477,#481))REPRESENTATION_CONTEXT('','3D'));
ENDSEC;
END-ISO-10303-21;
