ISO-10303-21;
HEADER;
/****************************************************************
 * Generated by software with PDE/Lib inside                    *
 * PDElib Version 4.4.1-0003, patched  Thursday August 19 11:58 *
 * International Technegroup Inc. (www.iti-oh.com)              *
 ****************************************************************/
FILE_DESCRIPTION((''),'2;1');
FILE_NAME('','2005-12-14T15:05:48',(''),(''),'','CADfix','');
FILE_SCHEMA(('AUTOMOTIVE_DESIGN'));
ENDSEC;
DATA;
#5=APPLICATION_CONTEXT('automotive design');
#6=APPLICATION_PROTOCOL_DEFINITION('Draft International Standard','automotive_design',1998,#5);
#7=PRODUCT_CONTEXT('None',#5,'mechanical');
#8=PRODUCT('magnet','','None',(#7));
#9=PRODUCT_RELATED_PRODUCT_CATEGORY('part','description',(#8));
#10=PRODUCT_DEFINITION_FORMATION('None','None',#8);
#11=PRODUCT_DEFINITION_CONTEXT('part definition',#5,'design');
#12=PRODUCT_DEFINITION('None','None',#10,#11);
#18=(NAMED_UNIT(*)PLANE_ANGLE_UNIT()SI_UNIT($,.RADIAN.));
#19=DIMENSIONAL_EXPONENTS(0.0,0.0,0.0,0.0,0.0,0.0,0.0);
#20=PLANE_ANGLE_MEASURE_WITH_UNIT(PLANE_ANGLE_MEASURE(0.017453292500000),#18);
#24=(CONVERSION_BASED_UNIT('DEGREE',#20)NAMED_UNIT(#19)PLANE_ANGLE_UNIT());
#28=(NAMED_UNIT(*)SI_UNIT($,.STERADIAN.)SOLID_ANGLE_UNIT());
#32=(LENGTH_UNIT()NAMED_UNIT(*)SI_UNIT(.MILLI.,.METRE.));
#34=UNCERTAINTY_MEASURE_WITH_UNIT(LENGTH_MEASURE(0.001000000000000),#32,'DISTANCE_ACCURACY_VALUE','');
#36=(GEOMETRIC_REPRESENTATION_CONTEXT(3)GLOBAL_UNCERTAINTY_ASSIGNED_CONTEXT((#34))GLOBAL_UNIT_ASSIGNED_CONTEXT((#24,#28,#32))REPRESENTATION_CONTEXT('None','None'));
#37=AXIS2_PLACEMENT_3D('',#38,#39,#40);
#38=CARTESIAN_POINT('',(0.0,0.0,0.0));
#39=DIRECTION('',(0.0,0.0,1.0));
#40=DIRECTION('',(1.0,0.0,0.0));
#41=ADVANCED_BREP_SHAPE_REPRESENTATION('',(#37,#266),#36);
#42=PRODUCT_DEFINITION_SHAPE('','',#12);
#43=SHAPE_DEFINITION_REPRESENTATION(#42,#41);
#44=CARTESIAN_POINT('',(-0.199799992247224,-1.776357E-015,26.248749951545150));
#45=CARTESIAN_POINT('',(4.199800099535585,-1.776357E-015,26.248749951545150));
#46=CARTESIAN_POINT('',(-0.199799992247224,-1.776357E-015,-1.248750622097403));
#47=CARTESIAN_POINT('',(4.199800099535585,-1.776357E-015,-1.248750622097403));
#48=B_SPLINE_SURFACE_WITH_KNOTS('',1,1,((#44,#46),(#45,#47)),.UNSPECIFIED.,.F.,.F.,.U.,(2,2),(2,2),(0.0,4.399600091782808),(0.0,27.497500573642551),.UNSPECIFIED.);
#49=CARTESIAN_POINT('',(4.0,0.0,12.749999999968599));
#50=VERTEX_POINT('',#49);
#51=CARTESIAN_POINT('',(4.0,0.0,25.0));
#52=VERTEX_POINT('',#51);
#53=CARTESIAN_POINT('',(4.0,0.0,12.749999999968599));
#54=CARTESIAN_POINT('',(4.0,0.0,25.0));
#55=QUASI_UNIFORM_CURVE('',1,(#53,#54),.UNSPECIFIED.,.F.,.U.);
#56=EDGE_CURVE('',#50,#52,#55,.T.);
#57=ORIENTED_EDGE('',*,*,#56,.T.);
#58=CARTESIAN_POINT('',(0.0,0.0,25.0));
#59=VERTEX_POINT('',#58);
#60=CARTESIAN_POINT('',(4.0,0.0,25.0));
#61=CARTESIAN_POINT('',(0.0,0.0,25.0));
#62=QUASI_UNIFORM_CURVE('',1,(#60,#61),.UNSPECIFIED.,.F.,.U.);
#63=EDGE_CURVE('',#52,#59,#62,.T.);
#64=ORIENTED_EDGE('',*,*,#63,.T.);
#65=CARTESIAN_POINT('',(0.0,0.0,0.0));
#66=VERTEX_POINT('',#65);
#67=CARTESIAN_POINT('',(0.0,0.0,25.0));
#68=CARTESIAN_POINT('',(0.0,0.0,0.0));
#69=QUASI_UNIFORM_CURVE('',1,(#67,#68),.UNSPECIFIED.,.F.,.U.);
#70=EDGE_CURVE('',#59,#66,#69,.T.);
#71=ORIENTED_EDGE('',*,*,#70,.T.);
#72=CARTESIAN_POINT('',(4.0,0.0,0.0));
#73=VERTEX_POINT('',#72);
#74=CARTESIAN_POINT('',(0.0,0.0,0.0));
#75=CARTESIAN_POINT('',(4.0,0.0,0.0));
#76=QUASI_UNIFORM_CURVE('',1,(#74,#75),.UNSPECIFIED.,.F.,.U.);
#77=EDGE_CURVE('',#66,#73,#76,.T.);
#78=ORIENTED_EDGE('',*,*,#77,.T.);
#79=CARTESIAN_POINT('',(4.0,0.0,12.249999999968679));
#80=VERTEX_POINT('',#79);
#81=CARTESIAN_POINT('',(4.0,0.0,0.0));
#82=CARTESIAN_POINT('',(4.0,0.0,12.249999999968679));
#83=QUASI_UNIFORM_CURVE('',1,(#81,#82),.UNSPECIFIED.,.F.,.U.);
#84=EDGE_CURVE('',#73,#80,#83,.T.);
#85=ORIENTED_EDGE('',*,*,#84,.T.);
#86=CARTESIAN_POINT('',(4.000000000000003,0.0,12.749999999968599));
#87=CARTESIAN_POINT('',(3.761904761904823,0.0,12.499999999968640));
#88=CARTESIAN_POINT('',(3.999999999999982,0.0,12.249999999968660));
#96=(BOUNDED_CURVE()B_SPLINE_CURVE(2,(#86,#87,#88),.UNSPECIFIED.,.F.,.U.)CURVE()GEOMETRIC_REPRESENTATION_ITEM()QUASI_UNIFORM_CURVE()RATIONAL_B_SPLINE_CURVE((1.0,0.724137931034537,1.0))REPRESENTATION_ITEM(''));
#97=EDGE_CURVE('',#50,#80,#96,.T.);
#98=ORIENTED_EDGE('',*,*,#97,.F.);
#99=EDGE_LOOP('',(#57,#64,#71,#78,#85,#98));
#100=FACE_OUTER_BOUND('',#99,.T.);
#101=ADVANCED_FACE('',(#100),#48,.F.);
#102=CARTESIAN_POINT('',(-0.199799992247224,200.0,26.248749951545150));
#103=CARTESIAN_POINT('',(4.199800099535585,200.0,26.248749951545150));
#104=CARTESIAN_POINT('',(-0.199799992247224,200.0,-1.248750622097403));
#105=CARTESIAN_POINT('',(4.199800099535585,200.0,-1.248750622097403));
#106=B_SPLINE_SURFACE_WITH_KNOTS('',1,1,((#102,#104),(#103,#105)),.UNSPECIFIED.,.F.,.F.,.U.,(2,2),(2,2),(0.0,4.399600091782808),(0.0,27.497500573642551),.UNSPECIFIED.);
#107=CARTESIAN_POINT('',(4.0,200.0,12.749999999968599));
#108=VERTEX_POINT('',#107);
#109=CARTESIAN_POINT('',(4.0,200.0,25.0));
#110=VERTEX_POINT('',#109);
#111=CARTESIAN_POINT('',(4.0,200.0,12.749999999968599));
#112=CARTESIAN_POINT('',(4.0,200.0,25.0));
#113=QUASI_UNIFORM_CURVE('',1,(#111,#112),.UNSPECIFIED.,.F.,.U.);
#114=EDGE_CURVE('',#108,#110,#113,.T.);
#115=ORIENTED_EDGE('',*,*,#114,.F.);
#116=CARTESIAN_POINT('',(4.0,200.0,12.249999999968679));
#117=VERTEX_POINT('',#116);
#118=CARTESIAN_POINT('',(4.000000000000003,200.0,12.749999999968599));
#119=CARTESIAN_POINT('',(3.761904761904823,199.999999999999940,12.499999999968640));
#120=CARTESIAN_POINT('',(3.999999999999982,200.0,12.249999999968660));
#128=(BOUNDED_CURVE()B_SPLINE_CURVE(2,(#118,#119,#120),.UNSPECIFIED.,.F.,.U.)CURVE()GEOMETRIC_REPRESENTATION_ITEM()QUASI_UNIFORM_CURVE()RATIONAL_B_SPLINE_CURVE((1.0,0.724137931034537,1.0))REPRESENTATION_ITEM(''));
#129=EDGE_CURVE('',#108,#117,#128,.T.);
#130=ORIENTED_EDGE('',*,*,#129,.T.);
#131=CARTESIAN_POINT('',(4.0,200.0,0.0));
#132=VERTEX_POINT('',#131);
#133=CARTESIAN_POINT('',(4.0,200.0,0.0));
#134=CARTESIAN_POINT('',(4.0,200.0,12.249999999968679));
#135=QUASI_UNIFORM_CURVE('',1,(#133,#134),.UNSPECIFIED.,.F.,.U.);
#136=EDGE_CURVE('',#132,#117,#135,.T.);
#137=ORIENTED_EDGE('',*,*,#136,.F.);
#138=CARTESIAN_POINT('',(0.0,200.0,0.0));
#139=VERTEX_POINT('',#138);
#140=CARTESIAN_POINT('',(0.0,200.0,0.0));
#141=CARTESIAN_POINT('',(4.0,200.0,0.0));
#142=QUASI_UNIFORM_CURVE('',1,(#140,#141),.UNSPECIFIED.,.F.,.U.);
#143=EDGE_CURVE('',#139,#132,#142,.T.);
#144=ORIENTED_EDGE('',*,*,#143,.F.);
#145=CARTESIAN_POINT('',(0.0,200.0,25.0));
#146=VERTEX_POINT('',#145);
#147=CARTESIAN_POINT('',(0.0,200.0,25.0));
#148=CARTESIAN_POINT('',(0.0,200.0,0.0));
#149=QUASI_UNIFORM_CURVE('',1,(#147,#148),.UNSPECIFIED.,.F.,.U.);
#150=EDGE_CURVE('',#146,#139,#149,.T.);
#151=ORIENTED_EDGE('',*,*,#150,.F.);
#152=CARTESIAN_POINT('',(4.0,200.0,25.0));
#153=CARTESIAN_POINT('',(0.0,200.0,25.0));
#154=QUASI_UNIFORM_CURVE('',1,(#152,#153),.UNSPECIFIED.,.F.,.U.);
#155=EDGE_CURVE('',#110,#146,#154,.T.);
#156=ORIENTED_EDGE('',*,*,#155,.F.);
#157=EDGE_LOOP('',(#115,#130,#137,#144,#151,#156));
#158=FACE_OUTER_BOUND('',#157,.T.);
#159=ADVANCED_FACE('',(#158),#106,.T.);
#160=CARTESIAN_POINT('',(4.010218803665656,205.0,12.239691629038870));
#161=CARTESIAN_POINT('',(4.010218803665656,-5.125000000000000,12.239691629038870));
#162=CARTESIAN_POINT('',(3.733872890565485,205.000000000000060,12.507515815061048));
#163=CARTESIAN_POINT('',(3.733872890565485,-5.125000000000001,12.507515815061048));
#164=CARTESIAN_POINT('',(4.017721206409846,205.000000000000030,12.767375376936169));
#165=CARTESIAN_POINT('',(4.017721206409846,-5.125000000000000,12.767375376936169));
#173=(BOUNDED_SURFACE()B_SPLINE_SURFACE(1,2,((#160,#162,#164),(#161,#163,#165)),.UNSPECIFIED.,.F.,.F.,.U.)B_SPLINE_SURFACE_WITH_KNOTS((2,2),(3,3),(0.0,210.125000000000000),(0.0,0.993135704241134),.UNSPECIFIED.)GEOMETRIC_REPRESENTATION_ITEM()RATIONAL_B_SPLINE_SURFACE(((1.0,0.684181217370833,0.995664252939657),(1.0,0.684181217370833,0.995664252939657)))REPRESENTATION_ITEM('')SURFACE());
#174=ORIENTED_EDGE('',*,*,#97,.T.);
#175=CARTESIAN_POINT('',(4.0,200.0,12.249999999968679));
#176=CARTESIAN_POINT('',(4.0,0.0,12.249999999968679));
#177=QUASI_UNIFORM_CURVE('',1,(#175,#176),.UNSPECIFIED.,.F.,.U.);
#178=EDGE_CURVE('',#117,#80,#177,.T.);
#179=ORIENTED_EDGE('',*,*,#178,.F.);
#180=ORIENTED_EDGE('',*,*,#129,.F.);
#181=CARTESIAN_POINT('',(4.0,200.0,12.749999999968599));
#182=CARTESIAN_POINT('',(4.0,0.0,12.749999999968599));
#183=QUASI_UNIFORM_CURVE('',1,(#181,#182),.UNSPECIFIED.,.F.,.U.);
#184=EDGE_CURVE('',#108,#50,#183,.T.);
#185=ORIENTED_EDGE('',*,*,#184,.T.);
#186=EDGE_LOOP('',(#174,#179,#180,#185));
#187=FACE_OUTER_BOUND('',#186,.T.);
#188=ADVANCED_FACE('',(#187),#173,.F.);
#189=CARTESIAN_POINT('',(4.0,-9.989999612361171,12.861887476224240));
#190=CARTESIAN_POINT('',(4.0,-9.989999612361171,-0.611887804826163));
#191=CARTESIAN_POINT('',(4.0,209.990004976779200,12.861887476224240));
#192=CARTESIAN_POINT('',(4.0,209.990004976779200,-0.611887804826163));
#193=B_SPLINE_SURFACE_WITH_KNOTS('',1,1,((#189,#191),(#190,#192)),.UNSPECIFIED.,.F.,.F.,.U.,(2,2),(2,2),(0.0,13.473775281050401),(0.0,219.980004589140410),.UNSPECIFIED.);
#194=ORIENTED_EDGE('',*,*,#84,.F.);
#195=CARTESIAN_POINT('',(4.0,200.0,0.0));
#196=CARTESIAN_POINT('',(4.0,0.0,0.0));
#197=QUASI_UNIFORM_CURVE('',1,(#195,#196),.UNSPECIFIED.,.F.,.U.);
#198=EDGE_CURVE('',#132,#73,#197,.T.);
#199=ORIENTED_EDGE('',*,*,#198,.F.);
#200=ORIENTED_EDGE('',*,*,#136,.T.);
#201=ORIENTED_EDGE('',*,*,#178,.T.);
#202=EDGE_LOOP('',(#194,#199,#200,#201));
#203=FACE_OUTER_BOUND('',#202,.T.);
#204=ADVANCED_FACE('',(#203),#193,.T.);
#205=CARTESIAN_POINT('',(4.199799992247224,-9.989999612361194,0.0));
#206=CARTESIAN_POINT('',(-0.199800099535584,-9.989999612361194,0.0));
#207=CARTESIAN_POINT('',(4.199799992247224,209.990004976779200,0.0));
#208=CARTESIAN_POINT('',(-0.199800099535584,209.990004976779200,0.0));
#209=B_SPLINE_SURFACE_WITH_KNOTS('',1,1,((#205,#207),(#206,#208)),.UNSPECIFIED.,.F.,.F.,.U.,(2,2),(2,2),(0.0,4.399600091782808),(0.0,219.980004589140410),.UNSPECIFIED.);
#210=ORIENTED_EDGE('',*,*,#77,.F.);
#211=CARTESIAN_POINT('',(0.0,200.0,0.0));
#212=CARTESIAN_POINT('',(0.0,0.0,0.0));
#213=QUASI_UNIFORM_CURVE('',1,(#211,#212),.UNSPECIFIED.,.F.,.U.);
#214=EDGE_CURVE('',#139,#66,#213,.T.);
#215=ORIENTED_EDGE('',*,*,#214,.F.);
#216=ORIENTED_EDGE('',*,*,#143,.T.);
#217=ORIENTED_EDGE('',*,*,#198,.T.);
#218=EDGE_LOOP('',(#210,#215,#216,#217));
#219=FACE_OUTER_BOUND('',#218,.T.);
#220=ADVANCED_FACE('',(#219),#209,.T.);
#221=CARTESIAN_POINT('',(0.0,-9.989999612361194,-1.248749951545149));
#222=CARTESIAN_POINT('',(0.0,-9.989999612361194,26.248750622097401));
#223=CARTESIAN_POINT('',(0.0,209.990004976779200,-1.248749951545149));
#224=CARTESIAN_POINT('',(0.0,209.990004976779200,26.248750622097401));
#225=B_SPLINE_SURFACE_WITH_KNOTS('',1,1,((#221,#223),(#222,#224)),.UNSPECIFIED.,.F.,.F.,.U.,(2,2),(2,2),(0.0,27.497500573642551),(0.0,219.980004589140410),.UNSPECIFIED.);
#226=ORIENTED_EDGE('',*,*,#70,.F.);
#227=CARTESIAN_POINT('',(0.0,200.0,25.0));
#228=CARTESIAN_POINT('',(0.0,0.0,25.0));
#229=QUASI_UNIFORM_CURVE('',1,(#227,#228),.UNSPECIFIED.,.F.,.U.);
#230=EDGE_CURVE('',#146,#59,#229,.T.);
#231=ORIENTED_EDGE('',*,*,#230,.F.);
#232=ORIENTED_EDGE('',*,*,#150,.T.);
#233=ORIENTED_EDGE('',*,*,#214,.T.);
#234=EDGE_LOOP('',(#226,#231,#232,#233));
#235=FACE_OUTER_BOUND('',#234,.T.);
#236=ADVANCED_FACE('',(#235),#225,.T.);
#237=CARTESIAN_POINT('',(-0.199799992247224,-9.989999612361171,25.0));
#238=CARTESIAN_POINT('',(4.199800099535585,-9.989999612361171,25.0));
#239=CARTESIAN_POINT('',(-0.199799992247224,209.990004976779200,25.0));
#240=CARTESIAN_POINT('',(4.199800099535585,209.990004976779200,25.0));
#241=B_SPLINE_SURFACE_WITH_KNOTS('',1,1,((#237,#239),(#238,#240)),.UNSPECIFIED.,.F.,.F.,.U.,(2,2),(2,2),(0.0,4.399600091782808),(0.0,219.980004589140410),.UNSPECIFIED.);
#242=ORIENTED_EDGE('',*,*,#63,.F.);
#243=CARTESIAN_POINT('',(4.0,200.0,25.0));
#244=CARTESIAN_POINT('',(4.0,0.0,25.0));
#245=QUASI_UNIFORM_CURVE('',1,(#243,#244),.UNSPECIFIED.,.F.,.U.);
#246=EDGE_CURVE('',#110,#52,#245,.T.);
#247=ORIENTED_EDGE('',*,*,#246,.F.);
#248=ORIENTED_EDGE('',*,*,#155,.T.);
#249=ORIENTED_EDGE('',*,*,#230,.T.);
#250=EDGE_LOOP('',(#242,#247,#248,#249));
#251=FACE_OUTER_BOUND('',#250,.T.);
#252=ADVANCED_FACE('',(#251),#241,.T.);
#253=CARTESIAN_POINT('',(4.0,-9.989999612361171,25.611887476258691));
#254=CARTESIAN_POINT('',(4.0,-9.989999612361171,12.138112195139311));
#255=CARTESIAN_POINT('',(4.0,209.990004976779200,25.611887476258691));
#256=CARTESIAN_POINT('',(4.0,209.990004976779200,12.138112195139311));
#257=B_SPLINE_SURFACE_WITH_KNOTS('',1,1,((#253,#255),(#254,#256)),.UNSPECIFIED.,.F.,.F.,.U.,(2,2),(2,2),(0.0,13.473775281119391),(0.0,219.980004589140410),.UNSPECIFIED.);
#258=ORIENTED_EDGE('',*,*,#56,.F.);
#259=ORIENTED_EDGE('',*,*,#184,.F.);
#260=ORIENTED_EDGE('',*,*,#114,.T.);
#261=ORIENTED_EDGE('',*,*,#246,.T.);
#262=EDGE_LOOP('',(#258,#259,#260,#261));
#263=FACE_OUTER_BOUND('',#262,.T.);
#264=ADVANCED_FACE('',(#263),#257,.T.);
#265=CLOSED_SHELL('',(#101,#159,#188,#204,#220,#236,#252,#264));
#266=MANIFOLD_SOLID_BREP('magnet',#265);
#272=(NAMED_UNIT(*)PLANE_ANGLE_UNIT()SI_UNIT($,.RADIAN.));
#273=DIMENSIONAL_EXPONENTS(0.0,0.0,0.0,0.0,0.0,0.0,0.0);
#274=PLANE_ANGLE_MEASURE_WITH_UNIT(PLANE_ANGLE_MEASURE(0.017453292500000),#272);
#278=(CONVERSION_BASED_UNIT('DEGREE',#274)NAMED_UNIT(#273)PLANE_ANGLE_UNIT());
#282=(NAMED_UNIT(*)SI_UNIT($,.STERADIAN.)SOLID_ANGLE_UNIT());
#286=(LENGTH_UNIT()NAMED_UNIT(*)SI_UNIT(.MILLI.,.METRE.));
#288=UNCERTAINTY_MEASURE_WITH_UNIT(LENGTH_MEASURE(0.001000000000000),#286,'DISTANCE_ACCURACY_VALUE','');
#290=(GEOMETRIC_REPRESENTATION_CONTEXT(3)GLOBAL_UNCERTAINTY_ASSIGNED_CONTEXT((#288))GLOBAL_UNIT_ASSIGNED_CONTEXT((#278,#282,#286))REPRESENTATION_CONTEXT('','3D'));
ENDSEC;
END-ISO-10303-21;
